  0
SECTION
  2
HEADER
  9
$ACADVER
  1
AC1018
  9
$ACADMAINTVER
 70
   104
  9
$DWGCODEPAGE
  3
ANSI_1250
  9
$LASTSAVEDBY
  1
wq7085
  9
$INSBASE
 10
0.0
 20
0.0
 30
0.0
  9
$EXTMIN
 10
188.6658343333333
 20
118.534924
 30
0.0
  9
$EXTMAX
 10
428.33393
 20
345.2288016666667
 30
0.0
  9
$LIMMIN
 10
-0.5
 20
-0.5
  9
$LIMMAX
 10
5.0
 20
5.0
  9
$ORTHOMODE
 70
     0
  9
$REGENMODE
 70
     1
  9
$FILLMODE
 70
     1
  9
$QTEXTMODE
 70
     0
  9
$MIRRTEXT
 70
     1
  9
$LTSCALE
 40
1.0
  9
$ATTMODE
 70
     1
  9
$TEXTSIZE
 40
0.2
  9
$TRACEWID
 40
0.05
  9
$TEXTSTYLE
  7
Standard
  9
$CLAYER
  8
0
  9
$CELTYPE
  6
ByLayer
  9
$CECOLOR
 62
   256
  9
$CELTSCALE
 40
1.0
  9
$DISPSILH
 70
     0
  9
$DIMSCALE
 40
1.0
  9
$DIMASZ
 40
0.18
  9
$DIMEXO
 40
0.0625
  9
$DIMDLI
 40
0.38
  9
$DIMRND
 40
0.0
  9
$DIMDLE
 40
0.0
  9
$DIMEXE
 40
0.18
  9
$DIMTP
 40
0.0
  9
$DIMTM
 40
0.0
  9
$DIMTXT
 40
0.18
  9
$DIMCEN
 40
0.09
  9
$DIMTSZ
 40
0.0
  9
$DIMTOL
 70
     0
  9
$DIMLIM
 70
     0
  9
$DIMTIH
 70
     1
  9
$DIMTOH
 70
     1
  9
$DIMSE1
 70
     0
  9
$DIMSE2
 70
     0
  9
$DIMTAD
 70
     0
  9
$DIMZIN
 70
     0
  9
$DIMBLK
  1

  9
$DIMASO
 70
     1
  9
$DIMSHO
 70
     1
  9
$DIMPOST
  1

  9
$DIMAPOST
  1

  9
$DIMALT
 70
     0
  9
$DIMALTD
 70
     2
  9
$DIMALTF
 40
25.4
  9
$DIMLFAC
 40
1.0
  9
$DIMTOFL
 70
     0
  9
$DIMTVP
 40
0.0
  9
$DIMTIX
 70
     0
  9
$DIMSOXD
 70
     0
  9
$DIMSAH
 70
     0
  9
$DIMBLK1
  1

  9
$DIMBLK2
  1

  9
$DIMSTYLE
  2
Standard
  9
$DIMCLRD
 70
     0
  9
$DIMCLRE
 70
     0
  9
$DIMCLRT
 70
     0
  9
$DIMTFAC
 40
1.0
  9
$DIMGAP
 40
0.09
  9
$DIMJUST
 70
     0
  9
$DIMSD1
 70
     0
  9
$DIMSD2
 70
     0
  9
$DIMTOLJ
 70
     1
  9
$DIMTZIN
 70
     0
  9
$DIMALTZ
 70
     0
  9
$DIMALTTZ
 70
     0
  9
$DIMUPT
 70
     0
  9
$DIMDEC
 70
     4
  9
$DIMTDEC
 70
     4
  9
$DIMALTU
 70
     2
  9
$DIMALTTD
 70
     2
  9
$DIMTXSTY
  7
Standard
  9
$DIMAUNIT
 70
     0
  9
$DIMADEC
 70
     0
  9
$DIMALTRND
 40
0.0
  9
$DIMAZIN
 70
     0
  9
$DIMDSEP
 70
    46
  9
$DIMATFIT
 70
     3
  9
$DIMFRAC
 70
     0
  9
$DIMLDRBLK
  1

  9
$DIMLUNIT
 70
     2
  9
$DIMLWD
 70
    -2
  9
$DIMLWE
 70
    -2
  9
$DIMTMOVE
 70
     0
  9
$LUNITS
 70
     2
  9
$LUPREC
 70
     4
  9
$SKETCHINC
 40
0.1
  9
$FILLETRAD
 40
0.5
  9
$AUNITS
 70
     0
  9
$AUPREC
 70
     0
  9
$MENU
  1
.
  9
$ELEVATION
 40
0.0
  9
$PELEVATION
 40
0.0
  9
$THICKNESS
 40
0.0
  9
$LIMCHECK
 70
     0
  9
$CHAMFERA
 40
0.0
  9
$CHAMFERB
 40
0.0
  9
$CHAMFERC
 40
0.0
  9
$CHAMFERD
 40
0.0
  9
$SKPOLY
 70
     0
  9
$TDCREATE
 40
2459065.451076389
  9
$TDUCREATE
 40
2459065.367753392
  9
$TDUPDATE
 40
2459065.452662037
  9
$TDUUPDATE
 40
2459065.369328704
  9
$TDINDWG
 40
0.0005902894
  9
$TDUSRTIMER
 40
0.0005902894
  9
$USRTIMER
 70
     1
  9
$ANGBASE
 50
0.0
  9
$ANGDIR
 70
     0
  9
$PDMODE
 70
     0
  9
$PDSIZE
 40
0.0
  9
$PLINEWID
 40
0.0
  9
$SPLFRAME
 70
     0
  9
$SPLINETYPE
 70
     6
  9
$SPLINESEGS
 70
     8
  9
$HANDSEED
  5
3F1
  9
$SURFTAB1
 70
     6
  9
$SURFTAB2
 70
     6
  9
$SURFTYPE
 70
     6
  9
$SURFU
 70
     6
  9
$SURFV
 70
     6
  9
$UCSBASE
  2

  9
$UCSNAME
  2

  9
$UCSORG
 10
274.404842
 20
288.907994
 30
0.0
  9
$UCSXDIR
 10
1.0
 20
0.0
 30
0.0
  9
$UCSYDIR
 10
0.0
 20
1.0
 30
0.0
  9
$UCSORTHOREF
  2

  9
$UCSORTHOVIEW
 70
     0
  9
$UCSORGTOP
 10
0.0
 20
0.0
 30
0.0
  9
$UCSORGBOTTOM
 10
0.0
 20
0.0
 30
0.0
  9
$UCSORGLEFT
 10
0.0
 20
0.0
 30
0.0
  9
$UCSORGRIGHT
 10
0.0
 20
0.0
 30
0.0
  9
$UCSORGFRONT
 10
0.0
 20
0.0
 30
0.0
  9
$UCSORGBACK
 10
0.0
 20
0.0
 30
0.0
  9
$PUCSBASE
  2

  9
$PUCSNAME
  2

  9
$PUCSORG
 10
0.0
 20
0.0
 30
0.0
  9
$PUCSXDIR
 10
1.0
 20
0.0
 30
0.0
  9
$PUCSYDIR
 10
0.0
 20
1.0
 30
0.0
  9
$PUCSORTHOREF
  2

  9
$PUCSORTHOVIEW
 70
     0
  9
$PUCSORGTOP
 10
0.0
 20
0.0
 30
0.0
  9
$PUCSORGBOTTOM
 10
0.0
 20
0.0
 30
0.0
  9
$PUCSORGLEFT
 10
0.0
 20
0.0
 30
0.0
  9
$PUCSORGRIGHT
 10
0.0
 20
0.0
 30
0.0
  9
$PUCSORGFRONT
 10
0.0
 20
0.0
 30
0.0
  9
$PUCSORGBACK
 10
0.0
 20
0.0
 30
0.0
  9
$USERI1
 70
     0
  9
$USERI2
 70
     0
  9
$USERI3
 70
     0
  9
$USERI4
 70
     0
  9
$USERI5
 70
     0
  9
$USERR1
 40
0.0
  9
$USERR2
 40
0.0
  9
$USERR3
 40
0.0
  9
$USERR4
 40
0.0
  9
$USERR5
 40
0.0
  9
$WORLDVIEW
 70
     1
  9
$SHADEDGE
 70
     3
  9
$SHADEDIF
 70
    70
  9
$TILEMODE
 70
     1
  9
$MAXACTVP
 70
    64
  9
$PINSBASE
 10
0.0
 20
0.0
 30
0.0
  9
$PLIMCHECK
 70
     0
  9
$PEXTMIN
 10
-0.5
 20
-0.5
 30
-0.5
  9
$PEXTMAX
 10
5.0
 20
5.0
 30
5.0
  9
$PLIMMIN
 10
-0.5
 20
-0.5
  9
$PLIMMAX
 10
5.0
 20
5.0
  9
$UNITMODE
 70
     0
  9
$VISRETAIN
 70
     1
  9
$PLINEGEN
 70
     0
  9
$PSLTSCALE
 70
     1
  9
$TREEDEPTH
 70
  3020
  9
$CMLSTYLE
  2
Standard
  9
$CMLJUST
 70
     0
  9
$CMLSCALE
 40
1.0
  9
$PROXYGRAPHICS
 70
     1
  9
$MEASUREMENT
 70
     1
  9
$CELWEIGHT
370
    13
  9
$ENDCAPS
280
     0
  9
$JOINSTYLE
280
     0
  9
$LWDISPLAY
290
     0
  9
$INSUNITS
 70
     4
  9
$HYPERLINKBASE
  1

  9
$STYLESHEET
  1

  9
$XEDIT
290
     1
  9
$CEPSNTYPE
380
     0
  9
$PSTYLEMODE
290
     1
  9
$FINGERPRINTGUID
  2
{5E7C16A1-6F92-4D2D-A4FD-7921DCB8920C}
  9
$VERSIONGUID
  2
{90DDC610-E004-DF4C-8F92-F7731927DD68}
  9
$EXTNAMES
290
     1
  9
$PSVPSCALE
 40
0.0
  9
$OLESTARTUP
290
     0
  9
$SORTENTS
280
   127
  9
$INDEXCTL
280
     0
  9
$HIDETEXT
280
     1
  9
$XCLIPFRAME
290
     0
  9
$HALOGAP
280
     0
  9
$OBSCOLOR
 70
   257
  9
$OBSLTYPE
280
     0
  9
$INTERSECTIONDISPLAY
280
     0
  9
$INTERSECTIONCOLOR
 70
   257
  9
$DIMASSOC
280
     2
  9
$PROJECTNAME
  1

  0
ENDSEC
  0
SECTION
  2
CLASSES
  0
CLASS
  1
ACDBDICTIONARYWDFLT
  2
AcDbDictionaryWithDefault
  3
ObjectDBX Classes
 90
        0
 91
        1
280
     0
281
     0
  0
CLASS
  1
VISUALSTYLE
  2
AcDbVisualStyle
  3
ObjectDBX Classes
 90
     4095
 91
       24
280
     0
281
     0
  0
CLASS
  1
MATERIAL
  2
AcDbMaterial
  3
ObjectDBX Classes
 90
     1153
 91
        3
280
     0
281
     0
  0
CLASS
  1
SCALE
  2
AcDbScale
  3
ObjectDBX Classes
 90
     1153
 91
       33
280
     0
281
     0
  0
CLASS
  1
TABLESTYLE
  2
AcDbTableStyle
  3
ObjectDBX Classes
 90
     4095
 91
        1
280
     0
281
     0
  0
CLASS
  1
MLEADERSTYLE
  2
AcDbMLeaderStyle
  3
ACDB_MLEADERSTYLE_CLASS
 90
     4095
 91
        1
280
     0
281
     0
  0
CLASS
  1
SUN
  2
AcDbSun
  3
SCENEOE
 90
     1153
 91
        0
280
     0
281
     0
  0
CLASS
  1
DIMASSOC
  2
AcDbDimAssoc
  3
"AcDbDimAssoc|Product Desc:     AcDim ARX App For Dimension|Company:          Autodesk, Inc.|WEB Address:      www.autodesk.com"
 90
        0
 91
        7
280
     0
281
     0
  0
CLASS
  1
DICTIONARYVAR
  2
AcDbDictionaryVar
  3
ObjectDBX Classes
 90
        0
 91
        8
280
     0
281
     0
  0
CLASS
  1
CELLSTYLEMAP
  2
AcDbCellStyleMap
  3
ObjectDBX Classes
 90
     1152
 91
        2
280
     0
281
     0
  0
CLASS
  1
ACDBSECTIONVIEWSTYLE
  2
AcDbSectionViewStyle
  3
ObjectDBX Classes
 90
     1025
 91
        1
280
     0
281
     0
  0
CLASS
  1
ACDBDETAILVIEWSTYLE
  2
AcDbDetailViewStyle
  3
ObjectDBX Classes
 90
     1025
 91
        1
280
     0
281
     0
  0
CLASS
  1
SORTENTSTABLE
  2
AcDbSortentsTable
  3
ObjectDBX Classes
 90
        0
 91
        1
280
     0
281
     0
  0
ENDSEC
  0
SECTION
  2
TABLES
  0
TABLE
  2
VPORT
  5
8
330
0
100
AcDbSymbolTable
 70
    16
  0
VPORT
  5
29
330
8
100
AcDbSymbolTableRecord
100
AcDbViewportTableRecord
  2
*Active
 70
     0
 10
0.0
 20
0.0
 11
1.0
 21
1.0
 12
322.738028279595
 22
298.5868996865383
 13
0.0
 23
0.0
 14
0.5
 24
0.5
 15
0.5
 25
0.5
 16
0.0
 26
0.0
 36
1.0
 17
0.0
 27
0.0
 37
0.0
 40
219.1877183005463
 41
2.292712066905615
 42
50.0
 43
443.39914
 44
-443.39914
 50
0.0
 51
0.0
 71
     0
 72
   100
 73
     1
 74
     3
 75
     0
 76
     0
 77
     0
 78
     0
281
     0
 65
     1
110
274.404842
120
288.907994
130
0.0
111
1.0
121
0.0
131
0.0
112
0.0
122
1.0
132
0.0
 79
     0
146
0.0
1001
ACAD_NAV_VCDISPLAY
1070
     3
  0
VPORT
  5
2F0
330
8
100
AcDbSymbolTableRecord
100
AcDbViewportTableRecord
  2
L1
 70
     0
 10
0.0
 20
0.0
 11
1.0
 21
1.0
 12
307.995674
 22
231.794964
 13
0.0
 23
0.0
 14
0.5
 24
0.5
 15
0.5
 25
0.5
 16
0.0
 26
0.0
 36
1.0
 17
0.0
 27
0.0
 37
0.0
 40
207.433333
 41
0.085602
 42
50.0
 43
443.39914
 44
-443.39914
 50
0.0
 51
0.0
 71
     0
 72
   100
 73
     1
 74
     3
 75
     0
 76
     0
 77
     0
 78
     0
281
     0
 65
     1
110
0.0
120
0.0
130
0.0
111
1.0
121
0.0
131
0.0
112
0.0
122
1.0
132
0.0
 79
     0
146
0.0
  0
VPORT
  5
2F1
330
8
100
AcDbSymbolTableRecord
100
AcDbViewportTableRecord
  2
L2
 70
     0
 10
0.0
 20
0.0
 11
0.5
 21
1.0
 12
0.0
 22
0.0
 13
0.0
 23
0.0
 14
0.5
 24
0.5
 15
0.5
 25
0.5
 16
0.0
 26
-1.0
 36
0.0
 17
0.0
 27
0.0
 37
0.0
 40
1339.368397
 41
0.013258
 42
50.0
 43
690.502282
 44
-690.502282
 50
0.0
 51
0.0
 71
     0
 72
   100
 73
     1
 74
     3
 75
     0
 76
     0
 77
     0
 78
     0
281
     0
 65
     1
110
0.0
120
0.0
130
0.0
111
1.0
121
0.0
131
0.0
112
0.0
122
1.0
132
0.0
 79
     0
146
0.0
  0
VPORT
  5
2F2
330
8
100
AcDbSymbolTableRecord
100
AcDbViewportTableRecord
  2
L2
 70
     0
 10
0.5
 20
0.0
 11
1.0
 21
1.0
 12
0.0
 22
0.0
 13
0.0
 23
0.0
 14
0.5
 24
0.5
 15
0.5
 25
0.5
 16
1.0
 26
0.0
 36
0.0
 17
0.0
 27
0.0
 37
0.0
 40
1339.368397
 41
0.013258
 42
50.0
 43
677.6681139999999
 44
-677.6681139999999
 50
0.0
 51
0.0
 71
     0
 72
   100
 73
     1
 74
     3
 75
     0
 76
     0
 77
     0
 78
     0
281
     0
 65
     1
110
0.0
120
0.0
130
0.0
111
1.0
121
0.0
131
0.0
112
0.0
122
1.0
132
0.0
 79
     0
146
0.0
  0
VPORT
  5
2F3
330
8
100
AcDbSymbolTableRecord
100
AcDbViewportTableRecord
  2
L3
 70
     0
 10
0.0
 20
0.5
 11
1.0
 21
1.0
 12
307.995674
 22
231.794964
 13
0.0
 23
0.0
 14
0.5
 24
0.5
 15
0.5
 25
0.5
 16
0.0
 26
0.0
 36
1.0
 17
0.0
 27
0.0
 37
0.0
 40
207.433333
 41
0.085602
 42
50.0
 43
443.39914
 44
-443.39914
 50
0.0
 51
0.0
 71
     0
 72
   100
 73
     1
 74
     3
 75
     0
 76
     0
 77
     0
 78
     0
281
     0
 65
     1
110
0.0
120
0.0
130
0.0
111
1.0
121
0.0
131
0.0
112
0.0
122
1.0
132
0.0
 79
     0
146
0.0
  0
VPORT
  5
2F4
330
8
100
AcDbSymbolTableRecord
100
AcDbViewportTableRecord
  2
L3
 70
     0
 10
0.0
 20
0.0
 11
1.0
 21
0.5
 12
0.0
 22
0.0
 13
0.0
 23
0.0
 14
0.5
 24
0.5
 15
0.5
 25
0.5
 16
0.0
 26
-1.0
 36
0.0
 17
0.0
 27
0.0
 37
0.0
 40
1339.368397
 41
0.013258
 42
50.0
 43
690.502282
 44
-690.502282
 50
0.0
 51
0.0
 71
     0
 72
   100
 73
     1
 74
     3
 75
     0
 76
     0
 77
     0
 78
     0
281
     0
 65
     1
110
0.0
120
0.0
130
0.0
111
1.0
121
0.0
131
0.0
112
0.0
122
1.0
132
0.0
 79
     0
146
0.0
  0
VPORT
  5
2F5
330
8
100
AcDbSymbolTableRecord
100
AcDbViewportTableRecord
  2
L4
 70
     0
 10
0.0
 20
0.5
 11
0.5
 21
1.0
 12
307.995674
 22
231.794964
 13
0.0
 23
0.0
 14
0.5
 24
0.5
 15
0.5
 25
0.5
 16
0.0
 26
0.0
 36
1.0
 17
0.0
 27
0.0
 37
0.0
 40
207.433333
 41
0.085602
 42
50.0
 43
443.39914
 44
-443.39914
 50
0.0
 51
0.0
 71
     0
 72
   100
 73
     1
 74
     3
 75
     0
 76
     0
 77
     0
 78
     0
281
     0
 65
     1
110
0.0
120
0.0
130
0.0
111
1.0
121
0.0
131
0.0
112
0.0
122
1.0
132
0.0
 79
     0
146
0.0
  0
VPORT
  5
2F6
330
8
100
AcDbSymbolTableRecord
100
AcDbViewportTableRecord
  2
L4
 70
     0
 10
0.0
 20
0.0
 11
0.5
 21
0.5
 12
0.0
 22
0.0
 13
0.0
 23
0.0
 14
0.5
 24
0.5
 15
0.5
 25
0.5
 16
0.0
 26
-1.0
 36
0.0
 17
0.0
 27
0.0
 37
0.0
 40
1339.368397
 41
0.013258
 42
50.0
 43
690.502282
 44
-690.502282
 50
0.0
 51
0.0
 71
     0
 72
   100
 73
     1
 74
     3
 75
     0
 76
     0
 77
     0
 78
     0
281
     0
 65
     1
110
0.0
120
0.0
130
0.0
111
1.0
121
0.0
131
0.0
112
0.0
122
1.0
132
0.0
 79
     0
146
0.0
  0
VPORT
  5
2F7
330
8
100
AcDbSymbolTableRecord
100
AcDbViewportTableRecord
  2
L4
 70
     0
 10
0.5
 20
0.0
 11
1.0
 21
0.5
 12
0.0
 22
0.0
 13
0.0
 23
0.0
 14
0.5
 24
0.5
 15
0.5
 25
0.5
 16
1.0
 26
0.0
 36
0.0
 17
0.0
 27
0.0
 37
0.0
 40
1339.368397
 41
0.013258
 42
50.0
 43
677.6681139999999
 44
-677.6681139999999
 50
0.0
 51
0.0
 71
     0
 72
   100
 73
     1
 74
     3
 75
     0
 76
     0
 77
     0
 78
     0
281
     0
 65
     1
110
0.0
120
0.0
130
0.0
111
1.0
121
0.0
131
0.0
112
0.0
122
1.0
132
0.0
 79
     0
146
0.0
  0
VPORT
  5
2F8
330
8
100
AcDbSymbolTableRecord
100
AcDbViewportTableRecord
  2
L4
 70
     0
 10
0.5
 20
0.5
 11
1.0
 21
1.0
 12
0.0
 22
0.0
 13
0.0
 23
0.0
 14
0.5
 24
0.5
 15
0.5
 25
0.5
 16
0.5773502691896259
 26
-0.5773502691896259
 36
0.5773502691896259
 17
0.0
 27
0.0
 37
0.0
 40
1315.669983
 41
0.013496
 42
50.0
 43
685.3733359999999
 44
-685.3733359999999
 50
0.0
 51
0.0
 71
     0
 72
   100
 73
     1
 74
     3
 75
     0
 76
     0
 77
     0
 78
     0
281
     0
 65
     1
110
0.0
120
0.0
130
0.0
111
1.0
121
0.0
131
0.0
112
0.0
122
1.0
132
0.0
 79
     0
146
0.0
  0
VPORT
  5
2F9
330
8
100
AcDbSymbolTableRecord
100
AcDbViewportTableRecord
  2
L6
 70
     0
 10
0.0
 20
0.5
 11
0.333333
 21
1.0
 12
0.0
 22
0.0
 13
0.0
 23
0.0
 14
0.5
 24
0.5
 15
0.5
 25
0.5
 16
0.7188730927569434
 26
-0.5850486126764433
 36
0.3754192287502549
 17
0.0
 27
0.0
 37
0.0
 40
1388.551873
 41
0.012788
 42
50.0
 43
718.93087
 44
-718.93087
 50
0.0
 51
0.0
 71
     0
 72
   100
 73
     1
 74
     3
 75
     0
 76
     0
 77
     0
 78
     0
281
     0
 65
     1
110
0.0
120
0.0
130
0.0
111
1.0
121
0.0
131
0.0
112
0.0
122
1.0
132
0.0
 79
     0
146
0.0
  0
VPORT
  5
2FA
330
8
100
AcDbSymbolTableRecord
100
AcDbViewportTableRecord
  2
L6
 70
     0
 10
0.0
 20
0.0
 11
0.333333
 21
0.5
 12
0.0
 22
0.0
 13
0.0
 23
0.0
 14
0.5
 24
0.5
 15
0.5
 25
0.5
 16
-1.0
 26
0.0
 36
0.0
 17
0.0
 27
0.0
 37
0.0
 40
1339.368397
 41
0.013258
 42
50.0
 43
677.6681139999999
 44
-677.6681139999999
 50
0.0
 51
0.0
 71
     0
 72
   100
 73
     1
 74
     3
 75
     0
 76
     0
 77
     0
 78
     0
281
     0
 65
     1
110
0.0
120
0.0
130
0.0
111
1.0
121
0.0
131
0.0
112
0.0
122
1.0
132
0.0
 79
     0
146
0.0
  0
VPORT
  5
2FB
330
8
100
AcDbSymbolTableRecord
100
AcDbViewportTableRecord
  2
L6
 70
     0
 10
0.333333
 20
0.5
 11
0.666667
 21
1.0
 12
307.995674
 22
231.794964
 13
0.0
 23
0.0
 14
0.5
 24
0.5
 15
0.5
 25
0.5
 16
0.0
 26
0.0
 36
1.0
 17
0.0
 27
0.0
 37
0.0
 40
207.433333
 41
0.085602
 42
50.0
 43
443.39914
 44
-443.39914
 50
0.0
 51
0.0
 71
     0
 72
   100
 73
     1
 74
     3
 75
     0
 76
     0
 77
     0
 78
     0
281
     0
 65
     1
110
0.0
120
0.0
130
0.0
111
1.0
121
0.0
131
0.0
112
0.0
122
1.0
132
0.0
 79
     0
146
0.0
  0
VPORT
  5
2FC
330
8
100
AcDbSymbolTableRecord
100
AcDbViewportTableRecord
  2
L6
 70
     0
 10
0.333333
 20
0.0
 11
0.666667
 21
0.5
 12
0.0
 22
0.0
 13
0.0
 23
0.0
 14
0.5
 24
0.5
 15
0.5
 25
0.5
 16
0.0
 26
-1.0
 36
0.0
 17
0.0
 27
0.0
 37
0.0
 40
1339.368397
 41
0.013258
 42
50.0
 43
690.502282
 44
-690.502282
 50
0.0
 51
0.0
 71
     0
 72
   100
 73
     1
 74
     3
 75
     0
 76
     0
 77
     0
 78
     0
281
     0
 65
     1
110
0.0
120
0.0
130
0.0
111
1.0
121
0.0
131
0.0
112
0.0
122
1.0
132
0.0
 79
     0
146
0.0
  0
VPORT
  5
2FD
330
8
100
AcDbSymbolTableRecord
100
AcDbViewportTableRecord
  2
L6
 70
     0
 10
0.666667
 20
0.5
 11
1.0
 21
1.0
 12
0.0
 22
0.0
 13
0.0
 23
0.0
 14
0.5
 24
0.5
 15
0.5
 25
0.5
 16
0.5773502691896259
 26
-0.5773502691896259
 36
0.5773502691896259
 17
0.0
 27
0.0
 37
0.0
 40
1315.669983
 41
0.013496
 42
50.0
 43
685.3733359999999
 44
-685.3733359999999
 50
0.0
 51
0.0
 71
     0
 72
   100
 73
     1
 74
     3
 75
     0
 76
     0
 77
     0
 78
     0
281
     0
 65
     1
110
0.0
120
0.0
130
0.0
111
1.0
121
0.0
131
0.0
112
0.0
122
1.0
132
0.0
 79
     0
146
0.0
  0
VPORT
  5
2FE
330
8
100
AcDbSymbolTableRecord
100
AcDbViewportTableRecord
  2
L6
 70
     0
 10
0.666667
 20
0.0
 11
1.0
 21
0.5
 12
0.0
 22
0.0
 13
0.0
 23
0.0
 14
0.5
 24
0.5
 15
0.5
 25
0.5
 16
1.0
 26
0.0
 36
0.0
 17
0.0
 27
0.0
 37
0.0
 40
1339.368397
 41
0.013258
 42
50.0
 43
677.6681139999999
 44
-677.6681139999999
 50
0.0
 51
0.0
 71
     0
 72
   100
 73
     1
 74
     3
 75
     0
 76
     0
 77
     0
 78
     0
281
     0
 65
     1
110
0.0
120
0.0
130
0.0
111
1.0
121
0.0
131
0.0
112
0.0
122
1.0
132
0.0
 79
     0
146
0.0
  0
ENDTAB
  0
TABLE
  2
LTYPE
  5
5
330
0
100
AcDbSymbolTable
 70
     7
  0
LTYPE
  5
14
330
5
100
AcDbSymbolTableRecord
100
AcDbLinetypeTableRecord
  2
ByBlock
 70
     0
  3

 72
    65
 73
     0
 40
0.0
  0
LTYPE
  5
15
330
5
100
AcDbSymbolTableRecord
100
AcDbLinetypeTableRecord
  2
ByLayer
 70
     0
  3

 72
    65
 73
     0
 40
0.0
  0
LTYPE
  5
16
330
5
100
AcDbSymbolTableRecord
100
AcDbLinetypeTableRecord
  2
Continuous
 70
     0
  3
Solid line
 72
    65
 73
     0
 40
0.0
  0
LTYPE
  5
6E
330
5
100
AcDbSymbolTableRecord
100
AcDbLinetypeTableRecord
  2
CENTER
 70
     0
  3
____ _ ____ _ ____ _ ____
 72
    65
 73
     4
 40
47.4
 49
22.0
 74
     4
 75
     0
340
0
 46
0.0
 50
0.0
 44
0.0
 45
0.0
 49
-8.5
 74
     4
 75
     0
340
0
 46
0.0
 50
0.0
 44
0.0
 45
0.0
 49
8.5
 74
     4
 75
     0
340
0
 46
0.0
 50
0.0
 44
0.0
 45
0.0
 49
-8.5
 74
     4
 75
     0
340
0
 46
0.0
 50
0.0
 44
0.0
 45
0.0
  0
LTYPE
  5
6F
330
5
100
AcDbSymbolTableRecord
100
AcDbLinetypeTableRecord
  2
DASHDOT
 70
     0
  3
_._._._._._._._._._._._._._._._.
 72
    65
 73
     4
 40
70.0
 49
31.0
 74
     4
 75
     0
340
0
 46
0.0
 50
0.0
 44
0.0
 45
0.0
 49
-13.0
 74
     4
 75
     0
340
0
 46
0.0
 50
0.0
 44
0.0
 45
0.0
 49
13.0
 74
     4
 75
     0
340
0
 46
0.0
 50
0.0
 44
0.0
 45
0.0
 49
-13.0
 74
     4
 75
     0
340
0
 46
0.0
 50
0.0
 44
0.0
 45
0.0
  0
LTYPE
  5
70
330
5
100
AcDbSymbolTableRecord
100
AcDbLinetypeTableRecord
  2
DASHED
 70
     0
  3
__ __ __ __ __ __ __ __ __
 72
    65
 73
     2
 40
25.72
 49
12.86
 74
     4
 75
     0
340
0
 46
0.0
 50
0.0
 44
0.0
 45
0.0
 49
-12.86
 74
     4
 75
     0
340
0
 46
0.0
 50
0.0
 44
0.0
 45
0.0
  0
LTYPE
  5
71
330
5
100
AcDbSymbolTableRecord
100
AcDbLinetypeTableRecord
  2
DOT
 70
     0
  3
.........................
 72
    65
 73
     2
 40
10.0
 49
0.0
 74
     4
 75
     0
340
0
 46
0.0
 50
0.0
 44
0.0
 45
0.0
 49
-10.0
 74
     4
 75
     0
340
0
 46
0.0
 50
0.0
 44
0.0
 45
0.0
  0
LTYPE
  5
72
330
5
100
AcDbSymbolTableRecord
100
AcDbLinetypeTableRecord
  2
PHANTOM
 70
     0
  3
____ _ _ ____ _ _ _____ _ _ ____
 72
    65
 73
     6
 40
50.5
 49
18.0
 74
     4
 75
     0
340
0
 46
0.0
 50
0.0
 44
0.0
 45
0.0
 49
-6.5
 74
     4
 75
     0
340
0
 46
0.0
 50
0.0
 44
0.0
 45
0.0
 49
6.5
 74
     4
 75
     0
340
0
 46
0.0
 50
0.0
 44
0.0
 45
0.0
 49
-6.5
 74
     4
 75
     0
340
0
 46
0.0
 50
0.0
 44
0.0
 45
0.0
 49
6.5
 74
     4
 75
     0
340
0
 46
0.0
 50
0.0
 44
0.0
 45
0.0
 49
-6.5
 74
     4
 75
     0
340
0
 46
0.0
 50
0.0
 44
0.0
 45
0.0
  0
LTYPE
  5
391
330
5
100
AcDbSymbolTableRecord
100
AcDbLinetypeTableRecord
  2
CENTER2
 70
     0
  3
Center (.5x) ___ _ ___ _ ___ _ ___ _ ___ _ ___
 72
    65
 73
     4
 40
1.125
 49
0.75
 74
     0
 49
-0.125
 74
     0
 49
0.125
 74
     0
 49
-0.125
 74
     0
  0
ENDTAB
  0
TABLE
  2
LAYER
  5
2
330
0
100
AcDbSymbolTable
 70
    22
  0
LAYER
  5
10
102
{ACAD_XDICTIONARY
360
39C
102
}
330
2
100
AcDbSymbolTableRecord
100
AcDbLayerTableRecord
  2
0
 70
     0
 62
     7
  6
Continuous
370
    -3
390
F
  0
LAYER
  5
C2
102
{ACAD_XDICTIONARY
360
39E
102
}
330
2
100
AcDbSymbolTableRecord
100
AcDbLayerTableRecord
  2
95
 70
     0
 62
     7
420
 16777215
  6
Continuous
370
    -3
390
F
  0
LAYER
  5
24A
330
2
100
AcDbSymbolTableRecord
100
AcDbLayerTableRecord
  2
Defpoints
 70
     0
 62
     7
  6
Continuous
290
     0
370
    -3
390
F
  0
LAYER
  5
38E
102
{ACAD_XDICTIONARY
360
3A0
102
}
330
2
100
AcDbSymbolTableRecord
100
AcDbLayerTableRecord
  2
1
 70
     0
 62
     4
  6
Continuous
370
    -3
390
F
  0
LAYER
  5
38F
102
{ACAD_XDICTIONARY
360
3A2
102
}
330
2
100
AcDbSymbolTableRecord
100
AcDbLayerTableRecord
  2
2
 70
     0
 62
     7
  6
Continuous
370
    -3
390
F
  0
LAYER
  5
390
102
{ACAD_XDICTIONARY
360
3A4
102
}
330
2
100
AcDbSymbolTableRecord
100
AcDbLayerTableRecord
  2
4
 70
     0
 62
     2
  6
CENTER2
370
    -3
390
F
  0
LAYER
  5
392
102
{ACAD_XDICTIONARY
360
3A6
102
}
330
2
100
AcDbSymbolTableRecord
100
AcDbLayerTableRecord
  2
SK1
 70
     0
 62
     4
  6
Continuous
370
    -3
390
F
  0
LAYER
  5
393
102
{ACAD_XDICTIONARY
360
3A8
102
}
330
2
100
AcDbSymbolTableRecord
100
AcDbLayerTableRecord
  2
SK2
 70
     0
 62
     7
  6
Continuous
370
    -3
390
F
  0
LAYER
  5
395
102
{ACAD_XDICTIONARY
360
3AA
102
}
330
2
100
AcDbSymbolTableRecord
100
AcDbLayerTableRecord
  2
SK4
 70
     0
 62
     2
  6
CENTER2
370
    -3
390
F
  0
LAYER
  5
396
102
{ACAD_XDICTIONARY
360
3AC
102
}
330
2
100
AcDbSymbolTableRecord
100
AcDbLayerTableRecord
  2
SK6
 70
     0
 62
     5
  6
Continuous
370
    -3
390
F
  0
LAYER
  5
397
102
{ACAD_XDICTIONARY
360
3AE
102
}
330
2
100
AcDbSymbolTableRecord
100
AcDbLayerTableRecord
  2
CUT
 70
     0
 62
     1
  6
Continuous
370
    -3
390
F
  0
LAYER
  5
398
102
{ACAD_XDICTIONARY
360
3B0
102
}
330
2
100
AcDbSymbolTableRecord
100
AcDbLayerTableRecord
  2
NOCUT
 70
     0
 62
     7
  6
Continuous
370
    -3
390
F
  0
LAYER
  5
399
102
{ACAD_XDICTIONARY
360
3B2
102
}
330
2
100
AcDbSymbolTableRecord
100
AcDbLayerTableRecord
  2
80
 70
     0
 62
     6
  6
Continuous
370
    -3
390
F
  0
LAYER
  5
39A
102
{ACAD_XDICTIONARY
360
3B4
102
}
330
2
100
AcDbSymbolTableRecord
100
AcDbLayerTableRecord
  2
81
 70
     0
 62
     3
  6
Continuous
370
    -3
390
F
  0
ENDTAB
  0
TABLE
  2
STYLE
  5
3
330
0
100
AcDbSymbolTable
 70
     3
  0
STYLE
  5
11
330
3
100
AcDbSymbolTableRecord
100
AcDbTextStyleTableRecord
  2
Standard
 70
     0
 40
0.0
 41
1.0
 50
0.0
 71
     0
 42
0.2
  3
txt
  4

  0
STYLE
  5
243
330
3
100
AcDbSymbolTableRecord
100
AcDbTextStyleTableRecord
  2
cesky
 70
     0
 40
0.0
 41
1.0
 50
0.0
 71
     0
 42
0.2
  3
simplex.shx
  4

  0
STYLE
  5
244
330
3
100
AcDbSymbolTableRecord
100
AcDbTextStyleTableRecord
  2
DWGDirectTextStyle
 70
     0
 40
0.0
 41
1.0
 50
0.0
 71
     0
 42
0.2
  3
simplex
  4

  0
ENDTAB
  0
TABLE
  2
VIEW
  5
6
330
0
100
AcDbSymbolTable
 70
     0
  0
ENDTAB
  0
TABLE
  2
UCS
  5
7
330
0
100
AcDbSymbolTable
 70
     0
  0
ENDTAB
  0
TABLE
  2
APPID
  5
9
330
0
100
AcDbSymbolTable
 70
     7
  0
APPID
  5
12
330
9
100
AcDbSymbolTableRecord
100
AcDbRegAppTableRecord
  2
ACAD
 70
     0
  0
APPID
  5
246
330
9
100
AcDbSymbolTableRecord
100
AcDbRegAppTableRecord
  2
ACAD_DSTYLE_DIMBREAK
 70
     0
  0
APPID
  5
2FF
330
9
100
AcDbSymbolTableRecord
100
AcDbRegAppTableRecord
  2
ACAD_DSTYLE_DIM_LINETYPE
 70
     0
  0
APPID
  5
300
330
9
100
AcDbSymbolTableRecord
100
AcDbRegAppTableRecord
  2
ACAD_DSTYLE_DIM_EXT1_LINETYPE
 70
     0
  0
APPID
  5
301
330
9
100
AcDbSymbolTableRecord
100
AcDbRegAppTableRecord
  2
ACAD_DSTYLE_DIM_EXT2_LINETYPE
 70
     0
  0
APPID
  5
341
330
9
100
AcDbSymbolTableRecord
100
AcDbRegAppTableRecord
  2
ACAD_MLEADERVER
 70
     0
  0
APPID
  5
3B9
330
9
100
AcDbSymbolTableRecord
100
AcDbRegAppTableRecord
  2
ACAD_NAV_VCDISPLAY
 70
     0
  0
ENDTAB
  0
TABLE
  2
DIMSTYLE
  5
A
330
0
100
AcDbSymbolTable
 70
     1
100
AcDbDimStyleTable
 71
     0
  0
DIMSTYLE
105
27
330
A
100
AcDbSymbolTableRecord
100
AcDbDimStyleTableRecord
  2
Standard
 70
     0
340
11
1001
ACAD_DSTYLE_DIMBREAK
1070
   391
1040
6.349999999999999
  0
ENDTAB
  0
TABLE
  2
BLOCK_RECORD
  5
1
330
0
100
AcDbSymbolTable
 70
    16
  0
BLOCK_RECORD
  5
1F
102
{ACAD_XDICTIONARY
360
351
102
}
330
1
100
AcDbSymbolTableRecord
100
AcDbBlockTableRecord
  2
*Model_Space
340
22
  0
BLOCK_RECORD
  5
1B
330
1
100
AcDbSymbolTableRecord
100
AcDbBlockTableRecord
  2
*Paper_Space
340
1E
  0
BLOCK_RECORD
  5
23
330
1
100
AcDbSymbolTableRecord
100
AcDbBlockTableRecord
  2
*Paper_Space0
340
26
  0
BLOCK_RECORD
  5
23D
330
1
100
AcDbSymbolTableRecord
100
AcDbBlockTableRecord
  2
ASSORTED_DRAFT1
340
0
  0
BLOCK_RECORD
  5
24B
330
1
100
AcDbSymbolTableRecord
100
AcDbBlockTableRecord
  2
*D2
340
0
  0
BLOCK_RECORD
  5
257
330
1
100
AcDbSymbolTableRecord
100
AcDbBlockTableRecord
  2
_U0
340
0
  0
BLOCK_RECORD
  5
263
330
1
100
AcDbSymbolTableRecord
100
AcDbBlockTableRecord
  2
*D4
340
0
  0
BLOCK_RECORD
  5
26F
330
1
100
AcDbSymbolTableRecord
100
AcDbBlockTableRecord
  2
_U1
340
0
  0
BLOCK_RECORD
  5
27B
330
1
100
AcDbSymbolTableRecord
100
AcDbBlockTableRecord
  2
*D6
340
0
  0
BLOCK_RECORD
  5
287
330
1
100
AcDbSymbolTableRecord
100
AcDbBlockTableRecord
  2
_U2
340
0
  0
BLOCK_RECORD
  5
293
330
1
100
AcDbSymbolTableRecord
100
AcDbBlockTableRecord
  2
*D8
340
0
  0
BLOCK_RECORD
  5
29F
330
1
100
AcDbSymbolTableRecord
100
AcDbBlockTableRecord
  2
_U3
340
0
  0
BLOCK_RECORD
  5
2AB
330
1
100
AcDbSymbolTableRecord
100
AcDbBlockTableRecord
  2
*D10
340
0
  0
BLOCK_RECORD
  5
2B6
330
1
100
AcDbSymbolTableRecord
100
AcDbBlockTableRecord
  2
_U4
340
0
  0
BLOCK_RECORD
  5
2C1
330
1
100
AcDbSymbolTableRecord
100
AcDbBlockTableRecord
  2
*D12
340
0
  0
BLOCK_RECORD
  5
2CD
330
1
100
AcDbSymbolTableRecord
100
AcDbBlockTableRecord
  2
_U5
340
0
  0
BLOCK_RECORD
  5
2DA
330
1
100
AcDbSymbolTableRecord
100
AcDbBlockTableRecord
  2
*D14
340
0
  0
BLOCK_RECORD
  5
2E6
330
1
100
AcDbSymbolTableRecord
100
AcDbBlockTableRecord
  2
_U6
340
0
  0
ENDTAB
  0
ENDSEC
  0
SECTION
  2
BLOCKS
  0
BLOCK
  5
20
330
1F
100
AcDbEntity
  8
0
100
AcDbBlockBegin
  2
*Model_Space
 70
     0
 10
0.0
 20
0.0
 30
0.0
  3
*Model_Space
  1

  0
ENDBLK
  5
21
330
1F
100
AcDbEntity
  8
0
100
AcDbBlockEnd
  0
BLOCK
  5
1C
330
1B
100
AcDbEntity
 67
     1
  8
0
100
AcDbBlockBegin
  2
*Paper_Space
 70
     0
 10
0.0
 20
0.0
 30
0.0
  3
*Paper_Space
  1

  0
ENDBLK
  5
1D
330
1B
100
AcDbEntity
 67
     1
  8
0
100
AcDbBlockEnd
  0
BLOCK
  5
24
330
23
100
AcDbEntity
 67
     1
  8
0
100
AcDbBlockBegin
  2
*Paper_Space0
 70
     0
 10
0.0
 20
0.0
 30
0.0
  3
*Paper_Space0
  1

  0
ENDBLK
  5
25
330
23
100
AcDbEntity
 67
     1
  8
0
100
AcDbBlockEnd
  0
BLOCK
  5
240
330
23D
100
AcDbEntity
  8
0
100
AcDbBlockBegin
  2
ASSORTED_DRAFT1
 70
     0
 10
0.0
 20
0.0
 30
0.0
  3
ASSORTED_DRAFT1
  1

  0
SOLID
  5
23E
330
23D
100
AcDbEntity
  8
0
 62
   254
370
    13
100
AcDbTrace
 10
270.185042
 20
166.919823
 30
0.0
 11
265.185046
 21
165.81135
 31
0.0
 12
265.1850379999999
 22
168.028297
 32
0.0
 13
270.185042
 23
166.919823
 33
0.0
  0
ENDBLK
  5
241
330
23D
100
AcDbEntity
  8
0
100
AcDbBlockEnd
  0
BLOCK
  5
24C
330
24B
100
AcDbEntity
  8
0
100
AcDbBlockBegin
  2
*D2
 70
     1
 10
0.0
 20
0.0
 30
0.0
  3
*D2
  1

  0
LINE
  5
24E
330
24B
100
AcDbEntity
  8
0
 62
   254
370
    -2
100
AcDbLine
 10
413.404842
 20
309.907994
 30
0.0
 11
413.404842
 21
341.687968
 31
0.0
  0
LINE
  5
24F
330
24B
100
AcDbEntity
  8
0
 62
   254
370
    -2
100
AcDbLine
 10
214.404842
 20
302.907994
 30
0.0
 11
214.404842
 21
341.687968
 31
0.0
  0
LINE
  5
250
330
24B
100
AcDbEntity
  8
0
 62
   254
370
    -2
100
AcDbLine
 10
409.9048419999999
 20
340.687968
 30
0.0
 11
217.904842
 21
340.687968
 31
0.0
  0
SOLID
  5
251
330
24B
100
AcDbEntity
  8
0
 62
   254
100
AcDbTrace
 10
409.9048419999999
 20
340.104634
 30
0.0
 11
409.9048419999999
 21
341.271301
 31
0.0
 12
413.404842
 22
340.687968
 32
0.0
 13
413.404842
 23
340.687968
 33
0.0
  0
SOLID
  5
252
330
24B
100
AcDbEntity
  8
0
 62
   254
100
AcDbTrace
 10
217.904842
 20
341.271301
 30
0.0
 11
217.904842
 21
340.104634
 31
0.0
 12
214.404842
 22
340.687968
 32
0.0
 13
214.404842
 23
340.687968
 33
0.0
  0
MTEXT
  5
253
330
24B
100
AcDbEntity
  8
0
 62
   254
370
    13
100
AcDbMText
 10
313.904842
 20
345.937968
 30
0.0
 40
3.5
 41
0.0
 71
     5
 72
     1
  1
\A1;199
  7
cesky
 73
     1
 44
1.0
  0
POINT
  5
254
330
24B
100
AcDbEntity
  8
Defpoints
 62
     0
100
AcDbPoint
 10
413.404842
 20
309.907994
 30
0.0
  0
POINT
  5
255
330
24B
100
AcDbEntity
  8
Defpoints
 62
     0
100
AcDbPoint
 10
214.404842
 20
302.907994
 30
0.0
  0
POINT
  5
256
330
24B
100
AcDbEntity
  8
Defpoints
 62
     0
100
AcDbPoint
 10
214.404842
 20
340.687968
 30
0.0
  0
ENDBLK
  5
24D
330
24B
100
AcDbEntity
  8
0
100
AcDbBlockEnd
  0
BLOCK
  5
25E
330
257
100
AcDbEntity
  8
0
100
AcDbBlockBegin
  2
_U0
 70
     0
 10
0.0
 20
0.0
 30
0.0
  3
_U0
  1

  0
ENDBLK
  5
25F
330
257
100
AcDbEntity
  8
0
100
AcDbBlockEnd
  0
BLOCK
  5
264
330
263
100
AcDbEntity
  8
0
100
AcDbBlockBegin
  2
*D4
 70
     1
 10
0.0
 20
0.0
 30
0.0
  3
*D4
  1

  0
LINE
  5
266
330
263
100
AcDbEntity
  8
0
 62
   254
370
    -2
100
AcDbLine
 10
274.404842
 20
288.907994
 30
0.0
 11
274.404842
 21
328.5109970000001
 31
0.0
  0
LINE
  5
267
330
263
100
AcDbEntity
  8
0
 62
   254
370
    -2
100
AcDbLine
 10
214.404842
 20
295.907994
 30
0.0
 11
214.404842
 21
328.5109970000001
 31
0.0
  0
LINE
  5
268
330
263
100
AcDbEntity
  8
0
 62
   254
370
    -2
100
AcDbLine
 10
270.904842
 20
327.510997
 30
0.0
 11
217.904842
 21
327.510997
 31
0.0
  0
SOLID
  5
269
330
263
100
AcDbEntity
  8
0
 62
   254
100
AcDbTrace
 10
270.904842
 20
326.927663
 30
0.0
 11
270.904842
 21
328.09433
 31
0.0
 12
274.404842
 22
327.510997
 32
0.0
 13
274.404842
 23
327.510997
 33
0.0
  0
SOLID
  5
26A
330
263
100
AcDbEntity
  8
0
 62
   254
100
AcDbTrace
 10
217.904842
 20
328.09433
 30
0.0
 11
217.904842
 21
326.927663
 31
0.0
 12
214.404842
 22
327.510997
 32
0.0
 13
214.404842
 23
327.510997
 33
0.0
  0
MTEXT
  5
26B
330
263
100
AcDbEntity
  8
0
 62
   254
370
    13
100
AcDbMText
 10
244.404842
 20
332.7609970000001
 30
0.0
 40
3.5
 41
0.0
 71
     5
 72
     1
  1
\A1;60
  7
cesky
 73
     1
 44
1.0
  0
POINT
  5
26C
330
263
100
AcDbEntity
  8
Defpoints
 62
     0
100
AcDbPoint
 10
274.404842
 20
288.907994
 30
0.0
  0
POINT
  5
26D
330
263
100
AcDbEntity
  8
Defpoints
 62
     0
100
AcDbPoint
 10
214.404842
 20
295.907994
 30
0.0
  0
POINT
  5
26E
330
263
100
AcDbEntity
  8
Defpoints
 62
     0
100
AcDbPoint
 10
214.404842
 20
327.510997
 30
0.0
  0
ENDBLK
  5
265
330
263
100
AcDbEntity
  8
0
100
AcDbBlockEnd
  0
BLOCK
  5
276
330
26F
100
AcDbEntity
  8
0
100
AcDbBlockBegin
  2
_U1
 70
     0
 10
0.0
 20
0.0
 30
0.0
  3
_U1
  1

  0
ENDBLK
  5
277
330
26F
100
AcDbEntity
  8
0
100
AcDbBlockEnd
  0
BLOCK
  5
27C
330
27B
100
AcDbEntity
  8
0
100
AcDbBlockBegin
  2
*D6
 70
     1
 10
0.0
 20
0.0
 30
0.0
  3
*D6
  1

  0
LINE
  5
27E
330
27B
100
AcDbEntity
  8
0
 62
   254
370
    -2
100
AcDbLine
 10
413.404842
 20
307.907994
 30
0.0
 11
413.404842
 21
317.848012
 31
0.0
  0
LINE
  5
27F
330
27B
100
AcDbEntity
  8
0
 62
   254
370
    -2
100
AcDbLine
 10
288.874387
 20
306.178369
 30
0.0
 11
288.874387
 21
317.848012
 31
0.0
  0
LINE
  5
280
330
27B
100
AcDbEntity
  8
0
 62
   254
370
    -2
100
AcDbLine
 10
409.9048419999999
 20
316.848012
 30
0.0
 11
292.374387
 21
316.848012
 31
0.0
  0
SOLID
  5
281
330
27B
100
AcDbEntity
  8
0
 62
   254
100
AcDbTrace
 10
409.9048419999999
 20
316.264679
 30
0.0
 11
409.9048419999999
 21
317.431346
 31
0.0
 12
413.404842
 22
316.848012
 32
0.0
 13
413.404842
 23
316.848012
 33
0.0
  0
SOLID
  5
282
330
27B
100
AcDbEntity
  8
0
 62
   254
100
AcDbTrace
 10
292.374387
 20
317.431346
 30
0.0
 11
292.374387
 21
316.264679
 31
0.0
 12
288.874387
 22
316.848012
 32
0.0
 13
288.874387
 23
316.848012
 33
0.0
  0
MTEXT
  5
283
330
27B
100
AcDbEntity
  8
0
 62
   254
370
    13
100
AcDbMText
 10
351.139615
 20
322.098012
 30
0.0
 40
3.5
 41
0.0
 71
     5
 72
     1
  1
\A1;124.5
  7
cesky
 73
     1
 44
1.0
  0
POINT
  5
284
330
27B
100
AcDbEntity
  8
Defpoints
 62
     0
100
AcDbPoint
 10
413.404842
 20
307.907994
 30
0.0
  0
POINT
  5
285
330
27B
100
AcDbEntity
  8
Defpoints
 62
     0
100
AcDbPoint
 10
288.874387
 20
306.178369
 30
0.0
  0
POINT
  5
286
330
27B
100
AcDbEntity
  8
Defpoints
 62
     0
100
AcDbPoint
 10
288.874387
 20
316.848012
 30
0.0
  0
ENDBLK
  5
27D
330
27B
100
AcDbEntity
  8
0
100
AcDbBlockEnd
  0
BLOCK
  5
28E
330
287
100
AcDbEntity
  8
0
100
AcDbBlockBegin
  2
_U2
 70
     0
 10
0.0
 20
0.0
 30
0.0
  3
_U2
  1

  0
ENDBLK
  5
28F
330
287
100
AcDbEntity
  8
0
100
AcDbBlockEnd
  0
BLOCK
  5
294
330
293
100
AcDbEntity
  8
0
100
AcDbBlockBegin
  2
*D8
 70
     1
 10
0.0
 20
0.0
 30
0.0
  3
*D8
  1

  0
LINE
  5
296
330
293
100
AcDbEntity
  8
0
 62
   254
370
    -2
100
AcDbLine
 10
413.404842
 20
307.907994
 30
0.0
 11
413.404842
 21
328.5109970000001
 31
0.0
  0
LINE
  5
297
330
293
100
AcDbEntity
  8
0
 62
   254
370
    -2
100
AcDbLine
 10
274.404842
 20
288.907994
 30
0.0
 11
274.404842
 21
328.5109970000001
 31
0.0
  0
LINE
  5
298
330
293
100
AcDbEntity
  8
0
 62
   254
370
    -2
100
AcDbLine
 10
409.9048419999999
 20
327.510997
 30
0.0
 11
277.904842
 21
327.510997
 31
0.0
  0
SOLID
  5
299
330
293
100
AcDbEntity
  8
0
 62
   254
100
AcDbTrace
 10
409.9048419999999
 20
326.927663
 30
0.0
 11
409.9048419999999
 21
328.09433
 31
0.0
 12
413.404842
 22
327.510997
 32
0.0
 13
413.404842
 23
327.510997
 33
0.0
  0
SOLID
  5
29A
330
293
100
AcDbEntity
  8
0
 62
   254
100
AcDbTrace
 10
277.904842
 20
328.09433
 30
0.0
 11
277.904842
 21
326.927663
 31
0.0
 12
274.404842
 22
327.510997
 32
0.0
 13
274.404842
 23
327.510997
 33
0.0
  0
MTEXT
  5
29B
330
293
100
AcDbEntity
  8
0
 62
   254
370
    13
100
AcDbMText
 10
343.904842
 20
332.7609970000001
 30
0.0
 40
3.5
 41
0.0
 71
     5
 72
     1
  1
\A1;139
  7
cesky
 73
     1
 44
1.0
  0
POINT
  5
29C
330
293
100
AcDbEntity
  8
Defpoints
 62
     0
100
AcDbPoint
 10
413.404842
 20
307.907994
 30
0.0
  0
POINT
  5
29D
330
293
100
AcDbEntity
  8
Defpoints
 62
     0
100
AcDbPoint
 10
274.404842
 20
288.907994
 30
0.0
  0
POINT
  5
29E
330
293
100
AcDbEntity
  8
Defpoints
 62
     0
100
AcDbPoint
 10
274.404842
 20
327.510997
 30
0.0
  0
ENDBLK
  5
295
330
293
100
AcDbEntity
  8
0
100
AcDbBlockEnd
  0
BLOCK
  5
2A6
330
29F
100
AcDbEntity
  8
0
100
AcDbBlockBegin
  2
_U3
 70
     0
 10
0.0
 20
0.0
 30
0.0
  3
_U3
  1

  0
ENDBLK
  5
2A7
330
29F
100
AcDbEntity
  8
0
100
AcDbBlockEnd
  0
BLOCK
  5
2AC
330
2AB
100
AcDbEntity
  8
0
100
AcDbBlockBegin
  2
*D10
 70
     1
 10
0.0
 20
0.0
 30
0.0
  3
*D10
  1

  0
LINE
  5
2AE
330
2AB
100
AcDbEntity
  8
0
 62
   254
370
    -2
100
AcDbLine
 10
287.9926240000001
 20
288.907994
 30
0.0
 11
428.33393
 21
288.907994
 31
0.0
  0
LINE
  5
2AF
330
2AB
100
AcDbEntity
  8
0
 62
   254
370
    -2
100
AcDbLine
 10
330.83929
 20
307.907994
 30
0.0
 11
428.33393
 21
307.907994
 31
0.0
  0
LINE
  5
2B0
330
2AB
100
AcDbEntity
  8
0
 62
   254
370
    -2
100
AcDbLine
 10
427.3339299999999
 20
288.907994
 30
0.0
 11
427.3339299999999
 21
307.907994
 31
0.0
  0
SOLID
  5
2B1
330
2AB
100
AcDbEntity
  8
0
 62
   254
100
AcDbTrace
 10
427.9172629999999
 20
304.407994
 30
0.0
 11
426.750597
 21
304.407994
 31
0.0
 12
427.3339299999999
 22
307.907994
 32
0.0
 13
427.3339299999999
 23
307.907994
 33
0.0
  0
MTEXT
  5
2B2
330
2AB
100
AcDbEntity
  8
0
 62
   254
370
    13
100
AcDbMText
 10
422.0839299999999
 20
279.07466
 30
0.0
 40
3.5
 41
0.0
 71
     5
 72
     1
  1
\A1;38
  7
cesky
 11
0.0
 21
1.0
 31
0.0
 73
     1
 44
1.0
  0
POINT
  5
2B3
330
2AB
100
AcDbEntity
  8
Defpoints
 62
     0
100
AcDbPoint
 10
287.9926240000001
 20
288.907994
 30
0.0
  0
POINT
  5
2B4
330
2AB
100
AcDbEntity
  8
Defpoints
 62
     0
100
AcDbPoint
 10
330.83929
 20
307.907994
 30
0.0
  0
POINT
  5
2B5
330
2AB
100
AcDbEntity
  8
Defpoints
 62
     0
100
AcDbPoint
 10
427.3339299999999
 20
307.907994
 30
0.0
  0
ENDBLK
  5
2AD
330
2AB
100
AcDbEntity
  8
0
100
AcDbBlockEnd
  0
BLOCK
  5
2BC
330
2B6
100
AcDbEntity
  8
0
100
AcDbBlockBegin
  2
_U4
 70
     0
 10
0.0
 20
0.0
 30
0.0
  3
_U4
  1

  0
ENDBLK
  5
2BD
330
2B6
100
AcDbEntity
  8
0
100
AcDbBlockEnd
  0
BLOCK
  5
2C2
330
2C1
100
AcDbEntity
  8
0
100
AcDbBlockBegin
  2
*D12
 70
     1
 10
0.0
 20
0.0
 30
0.0
  3
*D12
  1

  0
LINE
  5
2C4
330
2C1
100
AcDbEntity
  8
0
 62
    95
370
    -2
100
AcDbLine
 10
216.404842
 20
304.907994
 30
0.0
 11
204.878544
 21
304.907994
 31
0.0
  0
LINE
  5
2C5
330
2C1
100
AcDbEntity
  8
0
 62
    95
370
    -2
100
AcDbLine
 10
216.404842
 20
272.907994
 30
0.0
 11
204.878544
 21
272.907994
 31
0.0
  0
LINE
  5
2C6
330
2C1
100
AcDbEntity
  8
0
 62
    95
370
    -2
100
AcDbLine
 10
205.878544
 20
301.407994
 30
0.0
 11
205.878544
 21
276.407994
 31
0.0
  0
SOLID
  5
2C7
330
2C1
100
AcDbEntity
  8
0
 62
    95
100
AcDbTrace
 10
206.461878
 20
301.407994
 30
0.0
 11
205.295211
 21
301.407994
 31
0.0
 12
205.878544
 22
304.907994
 32
0.0
 13
205.878544
 23
304.907994
 33
0.0
  0
SOLID
  5
2C8
330
2C1
100
AcDbEntity
  8
0
 62
    95
100
AcDbTrace
 10
205.295211
 20
276.407994
 30
0.0
 11
206.461878
 21
276.407994
 31
0.0
 12
205.878544
 22
272.907994
 32
0.0
 13
205.878544
 23
272.907994
 33
0.0
  0
MTEXT
  5
2C9
330
2C1
100
AcDbEntity
  8
0
 62
    95
370
    13
100
AcDbMText
 10
200.628544
 20
288.907994
 30
0.0
 40
3.5
 41
0.0
 71
     5
 72
     1
  1
\A1;32
  7
cesky
 11
0.0
 21
1.0
 31
0.0
 73
     1
 44
1.0
  0
POINT
  5
2CA
330
2C1
100
AcDbEntity
  8
Defpoints
 62
     0
100
AcDbPoint
 10
216.404842
 20
304.907994
 30
0.0
  0
POINT
  5
2CB
330
2C1
100
AcDbEntity
  8
Defpoints
 62
     0
100
AcDbPoint
 10
216.404842
 20
272.907994
 30
0.0
  0
POINT
  5
2CC
330
2C1
100
AcDbEntity
  8
Defpoints
 62
     0
100
AcDbPoint
 10
205.878544
 20
272.907994
 30
0.0
  0
ENDBLK
  5
2C3
330
2C1
100
AcDbEntity
  8
0
100
AcDbBlockEnd
  0
BLOCK
  5
2D5
330
2CD
100
AcDbEntity
  8
0
100
AcDbBlockBegin
  2
_U5
 70
     0
 10
0.0
 20
0.0
 30
0.0
  3
_U5
  1

  0
ENDBLK
  5
2D6
330
2CD
100
AcDbEntity
  8
0
100
AcDbBlockEnd
  0
BLOCK
  5
2DB
330
2DA
100
AcDbEntity
  8
0
100
AcDbBlockBegin
  2
*D14
 70
     1
 10
0.0
 20
0.0
 30
0.0
  3
*D14
  1

  0
LINE
  5
2DD
330
2DA
100
AcDbEntity
  8
0
 62
    95
370
    -2
100
AcDbLine
 10
277.154842
 20
309.907994
 30
0.0
 11
192.519918
 21
309.907994
 31
0.0
  0
LINE
  5
2DE
330
2DA
100
AcDbEntity
  8
0
 62
    95
370
    -2
100
AcDbLine
 10
277.154842
 20
267.907994
 30
0.0
 11
192.519918
 21
267.907994
 31
0.0
  0
LINE
  5
2DF
330
2DA
100
AcDbEntity
  8
0
 62
    95
370
    -2
100
AcDbLine
 10
193.519918
 20
306.407994
 30
0.0
 11
193.519918
 21
271.407994
 31
0.0
  0
SOLID
  5
2E0
330
2DA
100
AcDbEntity
  8
0
 62
    95
100
AcDbTrace
 10
194.103251
 20
306.407994
 30
0.0
 11
192.936584
 21
306.407994
 31
0.0
 12
193.519918
 22
309.907994
 32
0.0
 13
193.519918
 23
309.907994
 33
0.0
  0
SOLID
  5
2E1
330
2DA
100
AcDbEntity
  8
0
 62
    95
100
AcDbTrace
 10
192.936584
 20
271.407994
 30
0.0
 11
194.103251
 21
271.407994
 31
0.0
 12
193.519918
 22
267.907994
 32
0.0
 13
193.519918
 23
267.907994
 33
0.0
  0
MTEXT
  5
2E2
330
2DA
100
AcDbEntity
  8
0
 62
    95
370
    13
100
AcDbMText
 10
188.269918
 20
288.907994
 30
0.0
 40
3.5
 41
0.0
 71
     5
 72
     1
  1
\A1;42
  7
cesky
 11
0.0
 21
1.0
 31
0.0
 73
     1
 44
1.0
  0
POINT
  5
2E3
330
2DA
100
AcDbEntity
  8
Defpoints
 62
     0
100
AcDbPoint
 10
277.154842
 20
309.907994
 30
0.0
  0
POINT
  5
2E4
330
2DA
100
AcDbEntity
  8
Defpoints
 62
     0
100
AcDbPoint
 10
277.154842
 20
267.907994
 30
0.0
  0
POINT
  5
2E5
330
2DA
100
AcDbEntity
  8
Defpoints
 62
     0
100
AcDbPoint
 10
193.519918
 20
267.907994
 30
0.0
  0
ENDBLK
  5
2DC
330
2DA
100
AcDbEntity
  8
0
100
AcDbBlockEnd
  0
BLOCK
  5
2EE
330
2E6
100
AcDbEntity
  8
0
100
AcDbBlockBegin
  2
_U6
 70
     0
 10
0.0
 20
0.0
 30
0.0
  3
_U6
  1

  0
ENDBLK
  5
2EF
330
2E6
100
AcDbEntity
  8
0
100
AcDbBlockEnd
  0
ENDSEC
  0
SECTION
  2
ENTITIES
  0
POINT
  5
73
102
{ACAD_REACTORS
330
39B
102
}
330
1F
100
AcDbEntity
  8
80
100
AcDbPoint
 10
274.404842
 20
288.907994
 30
0.0
  0
POINT
  5
76
330
1F
100
AcDbEntity
  8
4
 60
     1
100
AcDbPoint
 10
287.9926240000001
 20
288.907994
 30
0.0
  0
POINT
  5
78
330
1F
100
AcDbEntity
  8
4
 60
     1
100
AcDbPoint
 10
412.1809629999999
 20
288.907994
 30
0.0
  0
POINT
  5
79
330
1F
100
AcDbEntity
  8
SK4
 60
     1
100
AcDbPoint
 10
216.404842
 20
288.907994
 30
0.0
  0
POINT
  5
7A
330
1F
100
AcDbEntity
  8
SK4
 60
     1
100
AcDbPoint
 10
274.404842
 20
288.907994
 30
0.0
  0
POINT
  5
7B
330
1F
100
AcDbEntity
  8
SK6
 60
     1
100
AcDbPoint
 10
274.404842
 20
288.907994
 30
0.0
  0
POINT
  5
7C
330
1F
100
AcDbEntity
  8
SK6
 60
     1
100
AcDbPoint
 10
288.874387
 20
306.178369
 30
0.0
  0
LINE
  5
7D
330
1F
100
AcDbEntity
  8
1
100
AcDbLine
 10
404.611752
 20
301.912201
 30
0.0
 11
404.5779249999999
 21
301.816297
 31
0.0
  0
LINE
  5
7F
330
1F
100
AcDbEntity
  8
1
100
AcDbLine
 10
404.676883
 20
301.852561
 30
0.0
 11
404.642506
 21
301.755098
 31
0.0
  0
LINE
  5
80
330
1F
100
AcDbEntity
  8
1
100
AcDbLine
 10
407.432899
 20
301.110432
 30
0.0
 11
407.467291
 21
301.207937
 31
0.0
  0
LINE
  5
81
330
1F
100
AcDbEntity
  8
1
100
AcDbLine
 10
404.7256899999999
 20
300.37025
 30
0.0
 11
404.691367
 21
300.272942
 31
0.0
  0
LINE
  5
82
330
1F
100
AcDbEntity
  8
1
100
AcDbLine
 10
404.6823779999999
 20
300.349689
 30
0.0
 11
404.6483559999999
 21
300.25323
 31
0.0
  0
LINE
  5
83
330
1F
100
AcDbEntity
  8
1
100
AcDbLine
 10
406.7413939999999
 20
299.801526
 30
0.0
 11
406.7757299999999
 21
299.898875
 31
0.0
  0
LINE
  5
84
330
1F
100
AcDbEntity
  8
1
100
AcDbLine
 10
406.7789649999999
 20
299.758573
 30
0.0
 11
406.81294
 21
299.854896
 31
0.0
  0
LINE
  5
85
330
1F
100
AcDbEntity
  8
1
100
AcDbLine
 10
412.682658
 20
289.337775
 30
0.0
 11
412.190758
 21
288.862752
 31
0.0
  0
LINE
  5
87
330
1F
100
AcDbEntity
  8
1
100
AcDbLine
 10
412.190758
 20
288.862752
 30
0.0
 11
411.7080979999999
 21
288.396653
 31
0.0
  0
LINE
  5
88
330
1F
100
AcDbEntity
  8
1
100
AcDbLine
 10
413.388062
 20
288.06519
 30
0.0
 11
412.7245529999999
 21
287.8997589999999
 31
0.0
  0
LINE
  5
89
330
1F
100
AcDbEntity
  8
1
100
AcDbLine
 10
412.073508
 20
287.737435
 30
0.0
 11
412.7245529999999
 21
287.8997589999999
 31
0.0
  0
LINE
  5
8A
330
1F
100
AcDbEntity
  8
1
100
AcDbLine
 10
412.5998399999999
 20
280.754907
 30
0.0
 11
411.954856
 21
280.939853
 31
0.0
  0
LINE
  5
8B
330
1F
100
AcDbEntity
  8
1
100
AcDbLine
 10
412.5998399999999
 20
280.754907
 30
0.0
 11
413.2640669999999
 21
280.564443
 31
0.0
  0
LINE
  5
8C
330
1F
100
AcDbEntity
  8
1
100
AcDbLine
 10
411.5666619999999
 20
280.293789
 30
0.0
 11
412.032761
 21
279.81113
 31
0.0
  0
LINE
  5
8D
330
1F
100
AcDbEntity
  8
1
100
AcDbLine
 10
412.507783
 20
279.31923
 30
0.0
 11
412.032761
 21
279.81113
 31
0.0
  0
LINE
  5
8E
330
1F
100
AcDbEntity
  8
1
100
AcDbLine
 10
397.839535
 20
294.209693
 30
0.0
 11
397.8429
 21
294.219234
 31
0.0
  0
LINE
  5
90
330
1F
100
AcDbEntity
  8
1
100
AcDbLine
 10
394.555161
 20
295.566034
 30
0.0
 11
393.397015
 21
296.233641
 31
0.0
  0
LINE
  5
91
330
1F
100
AcDbEntity
  8
1
100
AcDbLine
 10
410.515248
 20
294.211171
 30
0.0
 11
401.2852389999999
 21
293.889188
 31
0.0
  0
LINE
  5
92
330
1F
100
AcDbEntity
  8
1
100
AcDbLine
 10
402.584867
 20
302.335304
 30
0.0
 11
402.5847589999999
 21
302.334996
 31
0.0
  0
LINE
  5
93
330
1F
100
AcDbEntity
  8
1
100
AcDbLine
 10
401.790848
 20
296.615839
 30
0.0
 11
401.469033
 21
305.599352
 31
0.0
  0
LINE
  5
94
330
1F
100
AcDbEntity
  8
1
100
AcDbLine
 10
410.783722
 20
296.92955
 30
0.0
 11
401.790848
 21
296.615839
 31
0.0
  0
LINE
  5
95
330
1F
100
AcDbEntity
  8
1
100
AcDbLine
 10
410.4619079999999
 20
305.913063
 30
0.0
 11
410.783722
 21
296.92955
 31
0.0
  0
LINE
  5
96
330
1F
100
AcDbEntity
  8
1
100
AcDbLine
 10
401.469033
 20
305.599352
 30
0.0
 11
410.4619079999999
 21
305.913063
 31
0.0
  0
LINE
  5
97
330
1F
100
AcDbEntity
  8
1
100
AcDbLine
 10
412.276191
 20
307.060804
 30
0.0
 11
412.6747769999999
 21
295.934219
 31
0.0
  0
LINE
  5
98
330
1F
100
AcDbEntity
  8
1
100
AcDbLine
 10
400.3343639999999
 20
307.420264
 30
0.0
 11
411.472543
 21
307.808813
 31
0.0
  0
LINE
  5
99
330
1F
100
AcDbEntity
  8
1
100
AcDbLine
 10
399.984832
 20
295.491538
 30
0.0
 11
399.586246
 21
306.618123
 31
0.0
  0
LINE
  5
9A
330
1F
100
AcDbEntity
  8
1
100
AcDbLine
 10
411.9266589999999
 20
295.132077
 30
0.0
 11
400.78848
 21
294.743528
 31
0.0
  0
LINE
  5
9B
330
1F
100
AcDbEntity
  8
1
100
AcDbLine
 10
412.734349
 20
287.823649
 30
0.0
 11
412.6122849999999
 21
280.830629
 31
0.0
  0
LINE
  5
9C
330
1F
100
AcDbEntity
  8
1
100
AcDbLine
 10
411.727819
 20
288.369925
 30
0.0
 11
412.061292
 21
287.768323
 31
0.0
  0
LINE
  5
9D
330
1F
100
AcDbEntity
  8
1
100
AcDbLine
 10
411.6828609999999
 20
289.180902
 30
0.0
 11
412.1314029999999
 21
288.911391
 31
0.0
  0
LINE
  5
9E
330
1F
100
AcDbEntity
  8
1
100
AcDbLine
 10
411.95972
 20
280.972711
 30
0.0
 11
412.077223
 21
287.704428
 31
0.0
  0
LINE
  5
9F
330
1F
100
AcDbEntity
  8
1
100
AcDbLine
 10
411.5873029999999
 20
280.319813
 30
0.0
 11
411.941569
 21
280.90941
 31
0.0
  0
LINE
  5
A0
330
1F
100
AcDbEntity
  8
1
100
AcDbLine
 10
413.3593819999999
 20
288.136592
 30
0.0
 11
412.728011
 21
289.275615
 31
0.0
  0
LINE
  5
A1
330
1F
100
AcDbEntity
  8
1
100
AcDbLine
 10
412.623573
 20
289.386675
 30
0.0
 11
412.438136
 21
289.504481
 31
0.0
  0
LINE
  5
A2
330
1F
100
AcDbEntity
  8
1
100
AcDbLine
 10
412.0020209999999
 20
289.766525
 30
0.0
 11
412.438136
 21
289.504481
 31
0.0
  0
LINE
  5
A3
330
1F
100
AcDbEntity
  8
1
100
AcDbLine
 10
412.556683
 20
279.378314
 30
0.0
 11
412.67449
 21
279.563751
 31
0.0
  0
LINE
  5
A4
330
1F
100
AcDbEntity
  8
1
100
AcDbLine
 10
413.2334059999999
 20
280.493944
 30
0.0
 11
412.67449
 21
279.563751
 31
0.0
  0
LINE
  5
A5
330
1F
100
AcDbEntity
  8
1
100
AcDbLine
 10
413.3998609999999
 20
287.769483
 30
0.0
 11
413.275424
 21
280.640477
 31
0.0
  0
LINE
  5
A6
330
1F
100
AcDbEntity
  8
1
100
AcDbLine
 10
413.3998609999999
 20
287.769483
 30
0.0
 11
413.398222
 21
287.989171
 31
0.0
  0
LINE
  5
A7
330
1F
100
AcDbEntity
  8
1
100
AcDbLine
 10
411.539513
 20
278.771611
 30
0.0
 11
412.4456239999999
 21
279.273876
 31
0.0
  0
LINE
  5
A8
330
1F
100
AcDbEntity
  8
1
100
AcDbLine
 10
412.2372959999999
 20
288.801736
 30
0.0
 11
412.6974699999999
 21
287.971559
 31
0.0
  0
LINE
  5
A9
330
1F
100
AcDbEntity
  8
1
100
AcDbLine
 10
412.5702669999999
 20
280.684096
 30
0.0
 11
412.0814
 21
279.870484
 31
0.0
  0
LINE
  5
AA
330
1F
100
AcDbEntity
  8
1
100
AcDbLine
 10
411.971745
 20
279.764592
 30
0.0
 11
411.2826199999999
 21
279.3826029999999
 31
0.0
  0
LINE
  5
AB
330
1F
100
AcDbEntity
  8
1
100
AcDbLine
 10
394.533664
 20
295.515432
 30
0.0
 11
394.47192
 21
295.550628
 31
0.0
  0
LINE
  5
AC
330
1F
100
AcDbEntity
  8
1
100
AcDbLine
 10
279.404842
 20
267.907994
 30
0.0
 11
279.404842
 21
271.348853
 31
0.0
  0
LINE
  5
AD
330
1F
100
AcDbEntity
  8
1
100
AcDbLine
 10
279.404842
 20
309.907994
 30
0.0
 11
279.404842
 21
280.836992
 31
0.0
  0
LINE
  5
AE
330
1F
100
AcDbEntity
  8
1
100
AcDbLine
 10
409.783817
 20
283.153494
 30
0.0
 11
410.340709
 21
283.153494
 31
0.0
  0
LINE
  5
AF
330
1F
100
AcDbEntity
  8
1
100
AcDbLine
 10
399.877531
 20
307.245895
 30
0.0
 11
399.87224
 21
307.399842
 31
0.0
  0
LINE
  5
B0
330
1F
100
AcDbEntity
  8
1
100
AcDbLine
 10
403.344016
 20
294.627909
 30
0.0
 11
412.061409
 21
294.932011
 31
0.0
  0
LINE
  5
B1
330
1F
100
AcDbEntity
  8
1
100
AcDbLine
 10
412.0625689999999
 20
294.764856
 30
0.0
 11
412.061409
 21
294.932011
 31
0.0
  0
LINE
  5
B2
330
1F
100
AcDbEntity
  8
1
100
AcDbLine
 10
411.9866489999999
 20
294.234807
 30
0.0
 11
401.293071
 21
293.8617680000001
 31
0.0
  0
LINE
  5
B3
330
1F
100
AcDbEntity
  8
1
100
AcDbLine
 10
411.9866489999999
 20
294.234807
 30
0.0
 11
409.6631389999999
 21
290.385284
 31
0.0
  0
LINE
  5
B4
330
1F
100
AcDbEntity
  8
1
100
AcDbLine
 10
412.1034139999999
 20
294.948128
 30
0.0
 11
403.349249
 21
294.642744
 31
0.0
  0
LINE
  5
B5
330
1F
100
AcDbEntity
  8
1
100
AcDbLine
 10
403.344016
 20
294.627909
 30
0.0
 11
403.349249
 21
294.642744
 31
0.0
  0
LINE
  5
B6
330
1F
100
AcDbEntity
  8
1
100
AcDbLine
 10
407.2653319999999
 20
300.939248
 30
0.0
 11
407.229841
 21
300.838627
 31
0.0
  0
LINE
  5
B7
330
1F
100
AcDbEntity
  8
1
100
AcDbLine
 10
405.894359
 20
302.535998
 30
0.0
 11
405.9287729999999
 21
302.633567
 31
0.0
  0
LINE
  5
B8
330
1F
100
AcDbEntity
  8
1
100
AcDbLine
 10
406.671759
 20
302.427904
 30
0.0
 11
406.6557119999999
 21
302.382408
 31
0.0
  0
LINE
  5
B9
330
1F
100
AcDbEntity
  8
1
100
AcDbLine
 10
402.584867
 20
302.335304
 30
0.0
 11
402.5687369999999
 21
302.289574
 31
0.0
  0
LINE
  5
BA
330
1F
100
AcDbEntity
  8
1
100
AcDbLine
 10
409.358747
 20
299.894628
 30
0.0
 11
409.374877
 21
299.940358
 31
0.0
  0
LINE
  5
BB
330
1F
100
AcDbEntity
  8
SK1
100
AcDbLine
 10
214.404842
 20
274.907994
 30
0.0
 11
216.404842
 21
272.907994
 31
0.0
  0
LINE
  5
BC
330
1F
100
AcDbEntity
  8
SK1
100
AcDbLine
 10
216.404842
 20
304.907994
 30
0.0
 11
214.404842
 21
302.907994
 31
0.0
  0
LINE
  5
BD
330
1F
100
AcDbEntity
  8
SK1
100
AcDbLine
 10
274.404842
 20
304.907994
 30
0.0
 11
216.404842
 21
304.907994
 31
0.0
  0
LINE
  5
BE
330
1F
100
AcDbEntity
  8
1
100
AcDbLine
 10
274.904842
 20
267.907994
 30
0.0
 11
274.404842
 21
268.407994
 31
0.0
  0
LINE
  5
BF
330
1F
100
AcDbEntity
  8
1
100
AcDbLine
 10
274.404842
 20
309.407994
 30
0.0
 11
274.904842
 21
309.907994
 31
0.0
  0
LINE
  5
C0
330
1F
100
AcDbEntity
  8
1
100
AcDbLine
 10
279.404842
 20
309.907994
 30
0.0
 11
274.904842
 21
309.907994
 31
0.0
  0
LINE
  5
C5
330
1F
100
AcDbEntity
  8
80
100
AcDbLine
 10
275.404416
 20
288.907994
 30
0.0
 11
273.405268
 21
288.907994
 31
0.0
  0
LINE
  5
C6
330
1F
100
AcDbEntity
  8
1
100
AcDbLine
 10
411.7531109999999
 20
289.670876
 30
0.0
 11
411.92918
 21
289.667803
 31
0.0
  0
LINE
  5
C7
330
1F
100
AcDbEntity
  8
1
100
AcDbLine
 10
411.92918
 20
289.667803
 30
0.0
 11
412.21268
 21
290.051976
 31
0.0
  0
LINE
  5
C8
330
1F
100
AcDbEntity
  8
1
100
AcDbLine
 10
412.21268
 20
290.290586
 30
0.0
 11
412.21268
 21
290.051976
 31
0.0
  0
LINE
  5
C9
330
1F
100
AcDbEntity
  8
1
100
AcDbLine
 10
412.21268
 20
290.290586
 30
0.0
 11
412.254842
 21
290.28985
 31
0.0
  0
LINE
  5
CA
330
1F
100
AcDbEntity
  8
1
100
AcDbLine
 10
412.254842
 20
295.229938
 30
0.0
 11
412.254842
 21
290.28985
 31
0.0
  0
LINE
  5
CB
330
1F
100
AcDbEntity
  8
1
100
AcDbLine
 10
412.1034139999999
 20
294.948128
 30
0.0
 11
412.101858
 21
295.172205
 31
0.0
  0
LINE
  5
CC
330
1F
100
AcDbEntity
  8
1
100
AcDbLine
 10
412.1034139999999
 20
294.948128
 30
0.0
 11
412.061409
 21
294.932011
 31
0.0
  0
LINE
  5
CD
330
1F
100
AcDbEntity
  8
1
100
AcDbLine
 10
411.9866489999999
 20
294.234807
 30
0.0
 11
411.9960289999999
 21
294.238407
 31
0.0
  0
LINE
  5
CE
330
1F
100
AcDbEntity
  8
1
100
AcDbLine
 10
410.902071
 20
270.407994
 30
0.0
 11
411.7337929999999
 21
278.244289
 31
0.0
  0
LINE
  5
CF
330
1F
100
AcDbEntity
  8
1
100
AcDbLine
 10
411.7337929999999
 20
278.244289
 30
0.0
 11
411.691702
 21
278.244963
 31
0.0
  0
LINE
  5
D0
330
1F
100
AcDbEntity
  8
1
100
AcDbLine
 10
411.7169839999999
 20
278.483163
 30
0.0
 11
411.691702
 21
278.244963
 31
0.0
  0
LINE
  5
D1
330
1F
100
AcDbEntity
  8
1
100
AcDbLine
 10
411.7169839999999
 20
278.483163
 30
0.0
 11
411.4751939999999
 21
278.876144
 31
0.0
  0
LINE
  5
D2
330
1F
100
AcDbEntity
  8
1
100
AcDbLine
 10
411.4751939999999
 20
278.876144
 30
0.0
 11
411.299424
 21
278.878956
 31
0.0
  0
LINE
  5
D3
330
1F
100
AcDbEntity
  8
1
100
AcDbLine
 10
411.282258
 20
279.379295
 30
0.0
 11
411.682841
 21
283.153494
 31
0.0
  0
LINE
  5
D4
330
1F
100
AcDbEntity
  8
1
100
AcDbLine
 10
410.9246709999999
 20
283.153494
 30
0.0
 11
411.682841
 21
283.153494
 31
0.0
  0
LINE
  5
D5
330
1F
100
AcDbEntity
  8
1
100
AcDbLine
 10
411.682841
 20
283.153494
 30
0.0
 11
411.682841
 21
289.1720259999999
 31
0.0
  0
LINE
  5
D6
330
1F
100
AcDbEntity
  8
1
100
AcDbLine
 10
399.607708
 20
306.811265
 30
0.0
 11
399.58922
 21
307.349261
 31
0.0
  0
LINE
  5
D7
330
1F
100
AcDbEntity
  8
SK1
100
AcDbLine
 10
216.404842
 20
304.907994
 30
0.0
 11
216.404842
 21
272.907994
 31
0.0
  0
LINE
  5
D8
330
1F
100
AcDbEntity
  8
SK1
100
AcDbLine
 10
214.404842
 20
302.907994
 30
0.0
 11
214.404842
 21
274.907994
 31
0.0
  0
LINE
  5
D9
330
1F
100
AcDbEntity
  8
1
100
AcDbLine
 10
399.685225
 20
298.027225
 30
0.0
 11
399.679992
 21
298.01239
 31
0.0
  0
LINE
  5
DA
330
1F
100
AcDbEntity
  8
1
100
AcDbLine
 10
399.685225
 20
298.027225
 30
0.0
 11
399.364856
 21
307.349572
 31
0.0
  0
LINE
  5
DB
330
1F
100
AcDbEntity
  8
1
100
AcDbLine
 10
399.360016
 20
307.323308
 30
0.0
 11
399.679992
 21
298.01239
 31
0.0
  0
LINE
  5
DC
330
1F
100
AcDbEntity
  8
1
100
AcDbLine
 10
410.902071
 20
270.407994
 30
0.0
 11
391.854669
 21
270.407994
 31
0.0
  0
LINE
  5
DD
330
1F
100
AcDbEntity
  8
1
100
AcDbLine
 10
274.904842
 20
267.907994
 30
0.0
 11
274.904842
 21
288.907994
 31
0.0
  0
LINE
  5
DE
330
1F
100
AcDbEntity
  8
1
100
AcDbLine
 10
274.904842
 20
288.907994
 30
0.0
 11
274.904842
 21
309.907994
 31
0.0
  0
LINE
  5
DF
330
1F
100
AcDbEntity
  8
1
100
AcDbLine
 10
405.251706
 20
299.744904
 30
0.0
 11
405.285989
 21
299.842102
 31
0.0
  0
LINE
  5
E0
330
1F
100
AcDbEntity
  8
1
100
AcDbLine
 10
406.047474
 20
299.688882
 30
0.0
 11
406.0130599999999
 21
299.591314
 31
0.0
  0
LINE
  5
E1
330
1F
100
AcDbEntity
  8
1
100
AcDbLine
 10
404.6775769999999
 20
301.288685
 30
0.0
 11
404.713068
 21
301.389306
 31
0.0
  0
LINE
  5
E2
330
1F
100
AcDbEntity
  8
1
100
AcDbLine
 10
274.404842
 20
309.407994
 30
0.0
 11
274.404842
 21
288.907994
 31
0.0
  0
LINE
  5
E3
330
1F
100
AcDbEntity
  8
1
100
AcDbLine
 10
274.404842
 20
288.907994
 30
0.0
 11
274.404842
 21
268.407994
 31
0.0
  0
LINE
  5
E4
330
1F
100
AcDbEntity
  8
80
100
AcDbLine
 10
274.404842
 20
287.90842
 30
0.0
 11
274.404842
 21
289.907567
 31
0.0
  0
LINE
  5
E5
330
1F
100
AcDbEntity
  8
81
100
AcDbLine
 10
413.404842
 20
309.907994
 30
0.0
 11
413.404842
 21
305.907994
 31
0.0
  0
LINE
  5
E6
330
1F
100
AcDbEntity
  8
81
100
AcDbLine
 10
411.4048419999999
 20
307.907994
 30
0.0
 11
415.4048419999999
 21
307.907994
 31
0.0
  0
LINE
  5
E7
330
1F
100
AcDbEntity
  8
SK1
100
AcDbLine
 10
216.404842
 20
272.907994
 30
0.0
 11
274.404842
 21
272.907994
 31
0.0
  0
LINE
  5
E8
330
1F
100
AcDbEntity
  8
1
100
AcDbLine
 10
274.904842
 20
267.907994
 30
0.0
 11
279.404842
 21
267.907994
 31
0.0
  0
LINE
  5
E9
330
1F
100
AcDbEntity
  8
1
100
AcDbLine
 10
397.694183
 20
294.245649
 30
0.0
 11
397.718078
 21
293.547257
 31
0.0
  0
LINE
  5
EA
330
1F
100
AcDbEntity
  8
1
100
AcDbLine
 10
397.790198
 20
291.4393379999999
 30
0.0
 11
397.82342
 21
290.468356
 31
0.0
  0
LINE
  5
EB
330
1F
100
AcDbEntity
  8
1
100
AcDbLine
 10
411.367048
 20
280.178237
 30
0.0
 11
411.5399339999999
 21
280.274069
 31
0.0
  0
LINE
  5
EC
330
1F
100
AcDbEntity
  8
1
100
AcDbLine
 10
287.9926240000001
 20
270.407994
 30
0.0
 11
301.2397759999999
 21
270.407994
 31
0.0
  0
LINE
  5
ED
330
1F
100
AcDbEntity
  8
1
100
AcDbLine
 10
399.794781
 20
307.407994
 30
0.0
 11
392.886664
 21
307.407994
 31
0.0
  0
LINE
  5
EE
330
1F
100
AcDbEntity
  8
1
100
AcDbLine
 10
303.490636
 20
307.407994
 30
0.0
 11
287.9926240000001
 21
307.407994
 31
0.0
  0
LINE
  5
EF
330
1F
100
AcDbEntity
  8
1
100
AcDbLine
 10
401.895842
 20
291.262532
 30
0.0
 11
401.895842
 21
291.265737
 31
0.0
  0
LINE
  5
144
330
1F
100
AcDbEntity
  8
NOCUT
100
AcDbLine
 10
287.9926240000001
 20
307.407994
 30
0.0
 11
411.8346009999999
 21
307.407994
 31
0.0
  0
LINE
  5
145
330
1F
100
AcDbEntity
  8
NOCUT
100
AcDbLine
 10
274.404842
 20
304.907994
 30
0.0
 11
274.404842
 21
309.407994
 31
0.0
  0
LINE
  5
146
330
1F
100
AcDbEntity
  8
NOCUT
100
AcDbLine
 10
274.404842
 20
309.407994
 30
0.0
 11
274.904842
 21
309.907994
 31
0.0
  0
LINE
  5
147
330
1F
100
AcDbEntity
  8
NOCUT
100
AcDbLine
 10
214.404842
 20
302.907994
 30
0.0
 11
216.404842
 21
304.907994
 31
0.0
  0
LINE
  5
148
330
1F
100
AcDbEntity
  8
NOCUT
100
AcDbLine
 10
279.404842
 20
309.907994
 30
0.0
 11
274.904842
 21
309.907994
 31
0.0
  0
LINE
  5
149
330
1F
100
AcDbEntity
  8
NOCUT
100
AcDbLine
 10
214.404842
 20
302.907994
 30
0.0
 11
214.404842
 21
288.907994
 31
0.0
  0
LINE
  5
14A
330
1F
100
AcDbEntity
  8
NOCUT
100
AcDbLine
 10
274.404842
 20
304.907994
 30
0.0
 11
216.404842
 21
304.907994
 31
0.0
  0
LINE
  5
14B
330
1F
100
AcDbEntity
  8
NOCUT
100
AcDbLine
 10
411.8346009999999
 20
307.407994
 30
0.0
 11
412.254842
 21
295.477222
 31
0.0
  0
LINE
  5
14C
330
1F
100
AcDbEntity
  8
NOCUT
100
AcDbLine
 10
412.254842
 20
295.477222
 30
0.0
 11
412.254842
 21
288.907994
 31
0.0
  0
LINE
  5
14D
330
1F
100
AcDbEntity
  8
NOCUT
100
AcDbLine
 10
412.254842
 20
288.907994
 30
0.0
 11
214.404842
 21
288.907994
 31
0.0
  0
ARC
  5
156
330
1F
100
AcDbEntity
  8
1
100
AcDbCircle
 10
407.418941
 20
284.5888799999999
 30
0.0
 40
1.75
100
AcDbArc
 50
75.0
 51
345.0
  0
CIRCLE
  5
157
330
1F
100
AcDbEntity
  8
1
100
AcDbCircle
 10
407.418941
 20
284.5888799999999
 30
0.0
 40
1.35
  0
ARC
  5
158
330
1F
100
AcDbEntity
  8
1
100
AcDbCircle
 10
287.9926240000001
 20
254.407994
 30
0.0
 40
16.0
100
AcDbArc
 50
90.0
 51
122.461745
  0
ARC
  5
159
330
1F
100
AcDbEntity
  8
1
100
AcDbCircle
 10
287.9926240000001
 20
323.407994
 30
0.0
 40
16.0
100
AcDbArc
 50
237.538255
 51
270.0
  0
ARC
  5
165
330
1F
100
AcDbEntity
  8
NOCUT
100
AcDbCircle
 10
287.9926240000001
 20
323.407994
 30
0.0
 40
16.0
100
AcDbArc
 50
237.538255
 51
270.0
  0
ELLIPSE
  5
166
330
1F
100
AcDbEntity
  8
1
100
AcDbEllipse
 10
405.9798719999999
 20
301.137831
 30
0.0
 11
-3.395004864809725
 21
1.197473159581585
 31
0.0
210
0.0
220
0.0
230
0.9999999999999998
 40
0.9986239999999998
 41
3.141585274248861
 42
5.872218228534566
  0
ELLIPSE
  5
167
330
1F
100
AcDbEntity
  8
1
100
AcDbEllipse
 10
405.9798719999999
 20
301.137831
 30
0.0
 11
-3.395004864809725
 21
1.197473159581585
 31
0.0
210
0.0
220
0.0
230
0.9999999999999998
 40
0.9986239999999998
 41
5.87221822853457
 42
6.283185307179585
  0
ELLIPSE
  5
168
330
1F
100
AcDbEntity
  8
1
100
AcDbEllipse
 10
404.5752589999999
 20
301.687697
 30
0.0
 11
-0.0898897536456661
 21
0.0317055708602406
 31
0.0
210
0.0
220
0.0
230
0.9999999999999998
 40
0.998624
 41
3.886489476374866
 42
4.563221393255449
  0
ELLIPSE
  5
169
330
1F
100
AcDbEntity
  8
1
100
AcDbEllipse
 10
404.664598
 20
301.855812
 30
0.0
 11
-0.0898897536456659
 21
0.0317055708602405
 31
0.0
210
0.0
220
0.0
230
1.0
 40
0.998624
 41
0.2212980471867055
 42
1.421628739665658
  0
ELLIPSE
  5
16A
330
1F
100
AcDbEntity
  8
1
100
AcDbEllipse
 10
406.1263779999999
 20
301.2644509999999
 30
0.0
 11
-3.677921936877199
 21
1.297262589546718
 31
0.0
210
0.0
220
0.0
230
1.0
 40
0.9986239999999998
 41
0.0
 42
6.283185307179585
  0
ELLIPSE
  5
16B
330
1F
100
AcDbEntity
  8
1
100
AcDbEllipse
 10
401.024335
 20
305.995988
 30
0.0
 11
0.5172967687162175
 21
-0.4819691094847506
 31
0.0
210
0.0
220
0.0
230
1.0
 40
0.033998
 41
0.5687050474050919
 42
1.585610887807944
  0
ELLIPSE
  5
16C
330
1F
100
AcDbEntity
  8
1
100
AcDbEllipse
 10
410.867021
 20
306.339344
 30
0.0
 11
0.4817434594377767
 21
0.517054578836942
 31
0.0
210
0.0
220
0.0
230
1.0
 40
0.01483
 41
1.53677966474774
 42
2.553685504904759
  0
ELLIPSE
  5
16D
330
1F
100
AcDbEntity
  8
1
100
AcDbEllipse
 10
405.166621
 20
301.796252
 30
0.0
 11
-0.5666776289729544
 21
0.1998763706833383
 31
0.0
210
0.0
220
0.0
230
0.9999999999999998
 40
0.9986239999999998
 41
5.239953310136202
 42
6.504483354366383
  0
ELLIPSE
  5
16E
330
1F
100
AcDbEntity
  8
1
100
AcDbEllipse
 10
405.071697
 20
302.292309
 30
0.0
 11
-0.089889753645668
 21
0.0317055708602412
 31
0.0
210
0.0
220
0.0
230
0.9999999999999998
 40
0.9986239999999998
 41
4.03962261765721
 42
5.239953310136188
  0
ELLIPSE
  5
16F
330
1F
100
AcDbEntity
  8
1
100
AcDbEllipse
 10
405.233253
 20
302.393206
 30
0.0
 11
-0.089889753645668
 21
0.0317055708602412
 31
0.0
210
0.0
220
0.0
230
0.9999999999999998
 40
0.9986239999999998
 41
0.8980299640674177
 42
1.574761880948039
  0
ELLIPSE
  5
170
330
1F
100
AcDbEntity
  8
1
100
AcDbEllipse
 10
405.3993
 20
302.870002
 30
0.0
 11
-0.5666776289729542
 21
0.1998763706833382
 31
0.0
210
0.0
220
0.0
230
1.0
 40
0.9986239999999998
 41
1.574761880948083
 42
2.839291925178288
  0
ELLIPSE
  5
171
330
1F
100
AcDbEntity
  8
1
100
AcDbEllipse
 10
405.804469
 20
302.567704
 30
0.0
 11
-0.0898897536456661
 21
0.0317055708602406
 31
0.0
210
0.0
220
0.0
230
0.9999999999999998
 40
0.998624
 41
2.839291925178348
 42
3.516023842058919
  0
ELLIPSE
  5
172
330
1F
100
AcDbEntity
  8
1
100
AcDbEllipse
 10
405.9949529999999
 20
302.574349
 30
0.0
 11
-0.0898897536456659
 21
0.0317055708602405
 31
0.0
210
0.0
220
0.0
230
1.0
 40
0.998624
 41
5.457285803169855
 42
6.657616495648642
  0
ELLIPSE
  5
173
330
1F
100
AcDbEntity
  8
1
100
AcDbEllipse
 10
406.1947039999999
 20
302.110314
 30
0.0
 11
-0.5666776289729544
 21
0.1998763706833383
 31
0.0
210
0.0
220
0.0
230
0.9999999999999998
 40
0.9986239999999998
 41
4.192755758939634
 42
5.457285803169795
  0
ELLIPSE
  5
174
330
1F
100
AcDbEntity
  8
1
100
AcDbEllipse
 10
406.5772299999999
 20
302.44009
 30
0.0
 11
-0.089889753645668
 21
0.0317055708602412
 31
0.0
210
0.0
220
0.0
230
0.9999999999999998
 40
0.9986239999999998
 41
2.992425066460845
 42
4.192755758939686
  0
ELLIPSE
  5
175
330
1F
100
AcDbEntity
  8
1
100
AcDbEllipse
 10
406.7456019999999
 20
302.350702
 30
0.0
 11
-0.089889753645668
 21
0.0317055708602412
 31
0.0
210
0.0
220
0.0
230
0.9999999999999998
 40
0.9986239999999998
 41
6.134017720050496
 42
6.810749636931161
  0
ELLIPSE
  5
176
330
1F
100
AcDbEntity
  8
1
100
AcDbEllipse
 10
407.24211
 20
302.445096
 30
0.0
 11
-0.5666776289729542
 21
0.1998763706833382
 31
0.0
210
0.0
220
0.0
230
1.0
 40
0.9986239999999998
 41
0.5275643297515332
 42
1.792094373981695
  0
ELLIPSE
  5
177
330
1F
100
AcDbEntity
  8
1
100
AcDbEllipse
 10
407.1829189999999
 20
301.943662
 30
0.0
 11
-0.0898897536456661
 21
0.0317055708602406
 31
0.0
210
0.0
220
0.0
230
0.9999999999999998
 40
0.998624
 41
1.792094373982063
 42
2.468826290862739
  0
ELLIPSE
  5
178
330
1F
100
AcDbEntity
  8
1
100
AcDbEllipse
 10
407.2840639999999
 20
301.782193
 30
0.0
 11
-0.0898897536456659
 21
0.0317055708602405
 31
0.0
210
0.0
220
0.0
230
1.0
 40
0.998624
 41
4.410088251973037
 42
5.610418944452145
  0
ELLIPSE
  5
179
330
1F
100
AcDbEntity
  8
1
100
AcDbEllipse
 10
406.981792
 20
301.377719
 30
0.0
 11
-0.5666776289729544
 21
0.1998763706833383
 31
0.0
210
0.0
220
0.0
230
0.9999999999999998
 40
0.9986239999999998
 41
3.145558207743012
 42
4.410088251973123
  0
ELLIPSE
  5
17A
330
1F
100
AcDbEntity
  8
1
100
AcDbEllipse
 10
407.459242
 20
301.211437
 30
0.0
 11
-0.089889753645668
 21
0.0317055708602412
 31
0.0
210
0.0
220
0.0
230
0.9999999999999998
 40
0.9986239999999998
 41
1.945227515264221
 42
3.145558207743047
  0
ELLIPSE
  5
17B
330
1F
100
AcDbEntity
  8
1
100
AcDbEllipse
 10
407.4660589999999
 20
301.021152
 30
0.0
 11
-0.089889753645668
 21
0.0317055708602412
 31
0.0
210
0.0
220
0.0
230
0.9999999999999998
 40
0.9986239999999998
 41
5.086820168853738
 42
5.763552085734549
  0
ELLIPSE
  5
17C
330
1F
100
AcDbEntity
  8
1
100
AcDbEllipse
 10
407.7965189999999
 20
300.63875
 30
0.0
 11
-0.5666776289729542
 21
0.1998763706833382
 31
0.0
210
0.0
220
0.0
230
1.0
 40
0.9986239999999998
 41
5.763552085734516
 42
7.028082129964738
  0
ELLIPSE
  5
17D
330
1F
100
AcDbEntity
  8
1
100
AcDbEllipse
 10
407.3321589999999
 20
300.439614
 30
0.0
 11
-0.0898897536456661
 21
0.0317055708602406
 31
0.0
210
0.0
220
0.0
230
0.9999999999999998
 40
0.998624
 41
0.7448968227851824
 42
1.421628739665974
  0
ELLIPSE
  5
17E
330
1F
100
AcDbEntity
  8
1
100
AcDbEllipse
 10
407.24282
 20
300.2715
 30
0.0
 11
-0.0898897536456659
 21
0.0317055708602405
 31
0.0
210
0.0
220
0.0
230
1.0
 40
0.998624
 41
3.362890700776564
 42
4.563221393255744
  0
ELLIPSE
  5
17F
330
1F
100
AcDbEntity
  8
1
100
AcDbEllipse
 10
406.7407979999999
 20
300.33106
 30
0.0
 11
-0.5666776289729544
 21
0.1998763706833383
 31
0.0
210
0.0
220
0.0
230
0.9999999999999998
 40
0.9986239999999998
 41
2.09836065654641
 42
3.362890700776593
  0
ELLIPSE
  5
180
330
1F
100
AcDbEntity
  8
1
100
AcDbEllipse
 10
406.835721
 20
299.835003
 30
0.0
 11
-0.089889753645668
 21
0.0317055708602412
 31
0.0
210
0.0
220
0.0
230
0.9999999999999998
 40
0.9986239999999998
 41
0.8980299640674177
 42
2.098360656546395
  0
ELLIPSE
  5
181
330
1F
100
AcDbEntity
  8
1
100
AcDbEllipse
 10
406.6741659999999
 20
299.734105
 30
0.0
 11
-0.089889753645668
 21
0.0317055708602412
 31
0.0
210
0.0
220
0.0
230
0.9999999999999998
 40
0.9986239999999998
 41
4.03962261765721
 42
4.71635453453798
  0
ELLIPSE
  5
182
330
1F
100
AcDbEntity
  8
1
100
AcDbEllipse
 10
406.5081179999999
 20
299.25731
 30
0.0
 11
-0.5666776289729542
 21
0.1998763706833382
 31
0.0
210
0.0
220
0.0
230
1.0
 40
0.9986239999999998
 41
4.716354534537924
 42
5.980884578768097
  0
ELLIPSE
  5
183
330
1F
100
AcDbEntity
  8
1
100
AcDbEllipse
 10
406.102949
 20
299.559608
 30
0.0
 11
-0.0898897536456661
 21
0.0317055708602406
 31
0.0
210
0.0
220
0.0
230
0.9999999999999998
 40
0.998624
 41
5.98088457876824
 42
6.657616495648697
  0
ELLIPSE
  5
184
330
1F
100
AcDbEntity
  8
1
100
AcDbEllipse
 10
405.912466
 20
299.552963
 30
0.0
 11
-0.0898897536456659
 21
0.0317055708602405
 31
0.0
210
0.0
220
0.0
230
1.0
 40
0.998624
 41
2.315693149580011
 42
3.516023842058889
  0
ELLIPSE
  5
185
330
1F
100
AcDbEntity
  8
1
100
AcDbEllipse
 10
405.712715
 20
300.016997
 30
0.0
 11
-0.5666776289729544
 21
0.1998763706833383
 31
0.0
210
0.0
220
0.0
230
0.9999999999999998
 40
0.9986239999999998
 41
1.05116310534976
 42
2.315693149579984
  0
ELLIPSE
  5
186
330
1F
100
AcDbEntity
  8
1
100
AcDbEllipse
 10
405.330189
 20
299.687222
 30
0.0
 11
-0.089889753645668
 21
0.0317055708602412
 31
0.0
210
0.0
220
0.0
230
0.9999999999999998
 40
0.9986239999999998
 41
6.134017720050519
 42
7.334348412529517
  0
ELLIPSE
  5
187
330
1F
100
AcDbEntity
  8
1
100
AcDbEllipse
 10
405.161816
 20
299.77661
 30
0.0
 11
-0.089889753645668
 21
0.0317055708602412
 31
0.0
210
0.0
220
0.0
230
0.9999999999999998
 40
0.9986239999999998
 41
2.992425066460703
 42
3.669156983341292
  0
ELLIPSE
  5
188
330
1F
100
AcDbEntity
  8
1
100
AcDbEllipse
 10
404.6653089999999
 20
299.6822160000001
 30
0.0
 11
-0.5666776289729542
 21
0.1998763706833382
 31
0.0
210
0.0
220
0.0
230
1.0
 40
0.9986239999999998
 41
3.669156983341319
 42
4.933687027571518
  0
ELLIPSE
  5
189
330
1F
100
AcDbEntity
  8
1
100
AcDbEllipse
 10
404.7245
 20
300.18365
 30
0.0
 11
-0.0898897536456661
 21
0.0317055708602406
 31
0.0
210
0.0
220
0.0
230
0.9999999999999998
 40
0.998624
 41
4.933687027571386
 42
5.610418944452414
  0
ELLIPSE
  5
18A
330
1F
100
AcDbEntity
  8
1
100
AcDbEllipse
 10
404.623354
 20
300.345119
 30
0.0
 11
-0.0898897536456659
 21
0.0317055708602405
 31
0.0
210
0.0
220
0.0
230
1.0
 40
0.998624
 41
1.268495598383342
 42
2.46882629086226
  0
ELLIPSE
  5
18B
330
1F
100
AcDbEntity
  8
1
100
AcDbEllipse
 10
404.9256269999999
 20
300.749593
 30
0.0
 11
-0.5666776289729544
 21
0.1998763706833383
 31
0.0
210
0.0
220
0.0
230
0.9999999999999998
 40
0.9986239999999998
 41
0.0039655541532315
 42
1.26849559838336
  0
ELLIPSE
  5
18C
330
1F
100
AcDbEntity
  8
1
100
AcDbEllipse
 10
404.448176
 20
300.915875
 30
0.0
 11
-0.089889753645668
 21
0.0317055708602412
 31
0.0
210
0.0
220
0.0
230
0.9999999999999998
 40
0.9986239999999998
 41
5.086820168853985
 42
6.287150861332839
  0
ELLIPSE
  5
18D
330
1F
100
AcDbEntity
  8
1
100
AcDbEllipse
 10
404.44136
 20
301.10616
 30
0.0
 11
-0.089889753645668
 21
0.0317055708602412
 31
0.0
210
0.0
220
0.0
230
0.9999999999999998
 40
0.9986239999999998
 41
1.945227515263971
 42
2.621959432144885
  0
ELLIPSE
  5
18E
330
1F
100
AcDbEntity
  8
1
100
AcDbEllipse
 10
404.1109
 20
301.488562
 30
0.0
 11
-0.5666776289729542
 21
0.1998763706833382
 31
0.0
210
0.0
220
0.0
230
1.0
 40
0.9986239999999998
 41
2.621959432144735
 42
3.886489476374896
  0
ELLIPSE
  5
18F
330
1F
100
AcDbEntity
  8
1
100
AcDbEllipse
 10
405.953709
 20
301.063656
 30
0.0
 11
1.98041950447234
 21
-0.6985260097559253
 31
0.0
210
0.0
220
0.0
230
1.0
 40
0.9986239999999998
 41
0.0
 42
6.283185307179585
  0
ELLIPSE
  5
190
330
1F
100
AcDbEntity
  8
1
100
AcDbEllipse
 10
405.9637419999999
 20
301.092101
 30
0.0
 11
3.395004864809725
 21
-1.197473159581585
 31
0.0
210
0.0
220
0.0
230
0.9999999999999998
 40
0.9986239999999998
 41
0.0
 42
6.283185307179585
  0
ELLIPSE
  5
191
330
1F
100
AcDbEntity
  8
1
100
AcDbEllipse
 10
406.1490519999999
 20
301.328736
 30
0.0
 11
3.531988007444661
 21
-1.24578933088394
 31
0.0
210
0.0
220
0.0
230
1.0
 40
0.9986239999999998
 41
1.945227552038383
 42
3.356097206659882
  0
ELLIPSE
  5
192
330
1F
100
AcDbEntity
  8
1
100
AcDbEllipse
 10
406.1490519999999
 20
301.328736
 30
0.0
 11
3.531988007444661
 21
-1.24578933088394
 31
0.0
210
0.0
220
0.0
230
1.0
 40
0.9986239999999998
 41
5.419043491545753
 42
6.283185307179585
  0
ELLIPSE
  5
193
330
1F
100
AcDbEntity
  8
1
100
AcDbEllipse
 10
406.1490519999999
 20
301.328736
 30
0.0
 11
3.531988007444661
 21
-1.24578933088394
 31
0.0
210
0.0
220
0.0
230
1.0
 40
0.9986239999999998
 41
0.0
 42
1.508938775396913
  0
ELLIPSE
  5
194
330
1F
100
AcDbEntity
  8
1
100
AcDbEllipse
 10
406.1490519999999
 20
301.328736
 30
0.0
 11
3.531988007444661
 21
-1.24578933088394
 31
0.0
210
0.0
220
0.0
230
1.0
 40
0.9986239999999998
 41
1.632540859458624
 42
1.945227552038381
  0
ELLIPSE
  5
195
330
1F
100
AcDbEntity
  8
1
100
AcDbEllipse
 10
401.37656
 20
296.163547
 30
0.0
 11
0.4817434595705167
 21
0.5170545789875061
 31
0.0
210
0.0
220
0.0
230
1.0
 40
0.01483
 41
0.519873824248303
 42
1.536779664190436
  0
ELLIPSE
  5
196
330
1F
100
AcDbEntity
  8
1
100
AcDbEllipse
 10
406.129256
 20
301.27261
 30
0.0
 11
3.588083700633126
 21
-1.265575189707762
 31
0.0
210
0.0
220
0.0
230
0.9999999999999998
 40
0.9986239999999998
 41
1.945227451328569
 42
3.745261875445962
  0
ELLIPSE
  5
197
330
1F
100
AcDbEntity
  8
1
100
AcDbEllipse
 10
406.129256
 20
301.27261
 30
0.0
 11
3.588083700633126
 21
-1.265575189707762
 31
0.0
210
0.0
220
0.0
230
0.9999999999999998
 40
0.9986239999999998
 41
4.874566385899282
 42
6.283185307179585
  0
ELLIPSE
  5
198
330
1F
100
AcDbEntity
  8
1
100
AcDbEllipse
 10
406.129256
 20
301.27261
 30
0.0
 11
3.588083700633126
 21
-1.265575189707762
 31
0.0
210
0.0
220
0.0
230
0.9999999999999998
 40
0.9986239999999998
 41
0.0
 42
1.945227440221053
  0
ELLIPSE
  5
199
330
1F
100
AcDbEntity
  8
1
100
AcDbEllipse
 10
411.219246
 20
296.506904
 30
0.0
 11
0.5172967688074829
 21
-0.4819691095712809
 31
0.0
210
0.0
220
0.0
230
1.0
 40
0.033998
 41
1.585610887856189
 42
2.602516728106028
  0
ELLIPSE
  5
19A
330
1F
100
AcDbEntity
  8
1
100
AcDbEllipse
 10
412.248736
 20
280.855584
 30
0.0
 11
0.3598828598459648
 21
-0.0632201112203711
 31
0.0
210
0.0
220
0.0
230
1.0
 40
0.81881
 41
6.264719809267802
 42
6.41162512377366
  0
ELLIPSE
  5
19B
330
1F
100
AcDbEntity
  8
1
100
AcDbEllipse
 10
412.37015
 20
287.811396
 30
0.0
 11
0.3618699807754845
 21
0.0506218689184816
 31
0.0
210
0.0
220
0.0
230
0.9999999999999998
 40
0.81881
 41
6.154745490652985
 42
6.301650804796611
  0
ELLIPSE
  5
19C
330
1F
100
AcDbEntity
  8
1
100
AcDbEllipse
 10
411.3436229999999
 20
280.524753
 30
0.0
 11
-0.223038816141459
 21
0.2309634552664429
 31
0.0
210
-0.0000000000000001
220
0.0
230
0.9999999999999998
 40
0.6229040000000001
 41
2.97621062644554
 42
3.306974680734076
  0
ELLIPSE
  5
19D
330
1F
100
AcDbEntity
  8
1
100
AcDbEllipse
 10
411.761969
 20
287.65976
 30
0.0
 11
-0.3115396276772998
 21
-0.0776755531752887
 31
0.0
210
-0.0000000000000001
220
0.0
230
1.0
 40
0.6229040000000001
 41
2.976210626445514
 42
3.306974680734071
  0
ELLIPSE
  5
19E
330
1F
100
AcDbEntity
  8
1
100
AcDbEllipse
 10
411.646217
 20
281.028354
 30
0.0
 11
-0.3086390084417319
 21
0.0885008115358406
 31
0.0
210
0.0
220
0.0
230
0.9999999999999998
 40
0.6229040000000001
 41
2.976210626445484
 42
3.306974680734093
  0
ELLIPSE
  5
19F
330
1F
100
AcDbEntity
  8
1
100
AcDbEllipse
 10
412.473427
 20
289.135723
 30
0.0
 11
0.1593661327120889
 21
-0.2546671899439388
 31
0.0
210
0.0
220
0.0
230
0.9999999999999998
 40
0.9668319999999999
 41
1.515965210178201
 42
2.029724468646701
  0
ELLIPSE
  5
1A0
330
1F
100
AcDbEntity
  8
1
100
AcDbEllipse
 10
412.969907
 20
280.648792
 30
0.0
 11
-0.2941597133632818
 21
0.0843489404830548
 31
0.0
210
0.0
220
0.0
230
0.9999999999999998
 40
0.9803469999999999
 41
2.884713024277096
 42
3.398472282902498
  0
ELLIPSE
  5
1A1
330
1F
100
AcDbEntity
  8
1
100
AcDbEllipse
 10
412.305732
 20
279.52846
 30
0.0
 11
0.2546671891523555
 21
0.1593661335973326
 31
0.0
210
0.0
220
0.0
230
0.9999999999999998
 40
0.9668319999999999
 41
4.657557859701391
 42
5.171317118507951
  0
ELLIPSE
  5
1A2
330
1F
100
AcDbEntity
  8
1
100
AcDbEllipse
 10
413.1058379999999
 20
287.994824
 30
0.0
 11
0.1315188415171269
 21
-0.2701031954403648
 31
0.0
210
0.0
220
0.0
230
1.0
 40
0.9668319999999999
 41
1.111868185857094
 42
1.62562744440478
  0
ELLIPSE
  5
1A3
330
1F
100
AcDbEntity
  8
1
100
AcDbEllipse
 10
412.37015
 20
287.811396
 30
0.0
 11
0.343277746095758
 21
0.1251912032735842
 31
0.0
210
0.0
220
0.0
230
1.0
 40
0.81881
 41
6.264719811539193
 42
6.411625127954147
  0
ELLIPSE
  5
1A4
330
1F
100
AcDbEntity
  8
1
100
AcDbEllipse
 10
411.928017
 20
288.6090259999999
 30
0.0
 11
0.2880776615804503
 21
0.2247748145030583
 31
0.0
210
0.0
220
0.0
230
1.0
 40
0.81881
 41
6.154745490971444
 42
6.301650805184525
  0
ELLIPSE
  5
1A5
330
1F
100
AcDbEntity
  8
1
100
AcDbEllipse
 10
411.7790349999999
 20
280.07387
 30
0.0
 11
0.2800576581507912
 21
-0.2346916614734174
 31
0.0
210
0.0
220
0.0
230
0.9999999999999998
 40
0.81881
 41
6.264719804286036
 42
6.41162511532485
  0
ELLIPSE
  5
1A6
330
1F
100
AcDbEntity
  8
1
100
AcDbEllipse
 10
412.248736
 20
280.855584
 30
0.0
 11
0.3386995358621774
 21
-0.137095169083988
 31
0.0
210
0.0
220
0.0
230
0.9999999999999998
 40
0.8188099999999998
 41
6.154745493927487
 42
6.301650806863423
  0
ELLIPSE
  5
1A7
330
1F
100
AcDbEntity
  8
1
100
AcDbEllipse
 10
411.7790349999999
 20
280.07387
 30
0.0
 11
0.2247748162245643
 21
-0.2880776645652442
 31
0.0
210
0.0
220
0.0
230
0.9999999999999998
 40
0.8188099999999998
 41
6.154745492644495
 42
6.301650806171494
  0
ELLIPSE
  5
1A8
330
1F
100
AcDbEntity
  8
1
100
AcDbEllipse
 10
411.928017
 20
288.6090259999999
 30
0.0
 11
0.2346916616065938
 21
0.2800576581262385
 31
0.0
210
0.0
220
0.0
230
1.0
 40
0.81881
 41
6.264719804550169
 42
6.411625115576894
  0
ELLIPSE
  5
1A9
330
1F
100
AcDbEntity
  8
1
100
AcDbEllipse
 10
402.414974
 20
310.925676
 30
0.0
 11
7.102197353789138
 21
15.8062513117033
 31
0.0
210
0.0
220
0.0
230
1.0
 40
0.7249220000000001
 41
3.072042525374938
 42
3.078249626268325
  0
ELLIPSE
  5
1AA
330
1F
100
AcDbEntity
  8
1
100
AcDbEllipse
 10
406.4175589999999
 20
288.907994
 30
0.0
 11
31.7293554854148
 21
-18.25148108691457
 31
0.0
210
0.0
220
0.0
230
1.0
 40
0.095248
 41
4.167409714079318
 42
4.390376726065301
  0
ELLIPSE
  5
1AB
330
1F
100
AcDbEntity
  8
1
100
AcDbEllipse
 10
400.479929
 20
288.907994
 30
0.0
 11
0.6186869839372555
 21
-18.49999618468649
 31
0.0
210
0.0
220
0.0
230
1.0
 40
0.0191
 41
3.020882474593141
 42
3.111267033510943
  0
ELLIPSE
  5
1AC
330
1F
100
AcDbEntity
  8
1
100
AcDbEllipse
 10
401.624254
 20
296.441427
 30
0.0
 11
2.357642267228975
 21
-0.831578583042768
 31
0.0
210
0.0
220
0.0
230
1.0
 40
0.9986239999999998
 41
5.701844499995924
 42
5.809792633311547
  0
ELLIPSE
  5
1AD
330
1F
100
AcDbEntity
  8
1
100
AcDbEllipse
 10
400.30326
 20
288.907994
 30
0.0
 11
0.5187291146723493
 21
-18.49985634097903
 31
0.0
210
0.0
220
0.0
230
1.0
 40
0.140543
 41
3.107965037160337
 42
3.217356648886147
  0
ELLIPSE
  5
1AE
330
1F
100
AcDbEntity
  8
1
100
AcDbEllipse
 10
265.210186
 20
288.907994
 30
0.0
 11
483.3927705452474
 21
18.04103527321026
 31
0.0
210
0.0
220
0.0
230
0.9999999999999998
 40
0.008472
 41
4.997727298997828
 42
5.015540676680675
  0
ELLIPSE
  5
1AF
330
1F
100
AcDbEntity
  8
1
100
AcDbEllipse
 10
401.629486
 20
296.456262
 30
0.0
 11
-2.357642267228975
 21
0.831578583042768
 31
0.0
210
0.0
220
0.0
230
1.0
 40
0.9986239999999998
 41
2.66819997972174
 42
2.776747666076885
  0
ELLIPSE
  5
1B0
330
1F
100
AcDbEntity
  8
1
100
AcDbEllipse
 10
411.7531109999999
 20
289.1708
 30
0.0
 11
0.0001758288822662
 21
-0.5000776676663992
 31
0.0
210
0.0
220
0.0
230
0.9999999999999998
 40
0.140519
 41
3.139090475969509
 42
4.709886802763135
  0
ELLIPSE
  5
1B1
330
1F
100
AcDbEntity
  8
1
100
AcDbEllipse
 10
411.992561
 20
294.737993
 30
0.0
 11
0.0003016037624779
 21
0.5003084758631439
 31
0.0
210
0.0
220
0.0
230
1.0
 40
0.140101
 41
3.195395734395638
 42
4.766192061177529
  0
ELLIPSE
  5
1B2
330
1F
100
AcDbEntity
  8
1
100
AcDbEllipse
 10
411.3524089999999
 20
279.378172
 30
0.0
 11
0.0538770024353599
 21
0.4991611425091253
 31
0.0
210
0.0
220
0.0
230
1.0
 40
0.139171
 41
1.583568179248155
 42
3.154364506042631
  0
ELLIPSE
  5
1B3
330
1F
100
AcDbEntity
  8
1
100
AcDbEllipse
 10
412.8656079999999
 20
288.907994
 30
0.0
 11
2.002417234278379
 21
18.4979077464189
 31
0.0
210
0.0
220
0.0
230
1.0
 40
0.138944
 41
1.902137972993388
 42
3.156632395651055
  0
ELLIPSE
  5
1B4
330
1F
100
AcDbEntity
  8
1
100
AcDbEllipse
 10
412.254842
 20
288.907994
 30
0.0
 11
0.0
 21
18.50000000078369
 31
0.0
210
0.0
220
0.0
230
1.0
 40
0.140541
 41
1.490857676493628
 42
1.887098230917887
  0
ELLIPSE
  5
1B5
330
1F
100
AcDbEntity
  8
1
100
AcDbEllipse
 10
401.7107649999999
 20
296.686699
 30
0.0
 11
-2.357642267228974
 21
0.8315785830427676
 31
0.0
210
0.0
220
0.0
230
1.0
 40
0.998624
 41
0.0520252572636118
 42
1.945227431237595
  0
ELLIPSE
  5
1B6
330
1F
100
AcDbEntity
  8
1
100
AcDbEllipse
 10
401.7107649999999
 20
296.686699
 30
0.0
 11
-2.357642267228974
 21
0.8315785830427676
 31
0.0
210
0.0
220
0.0
230
1.0
 40
0.998624
 41
1.945227431237593
 42
2.645311779347055
  0
ELLIPSE
  5
1B7
330
1F
100
AcDbEntity
  8
1
100
AcDbEllipse
 10
401.629486
 20
296.456262
 30
0.0
 11
-2.357642267228975
 21
0.831578583042768
 31
0.0
210
0.0
220
0.0
230
1.0
 40
0.9986239999999998
 41
5.822888314034128
 42
5.942244189143306
  0
ELLIPSE
  5
1B8
330
1F
100
AcDbEntity
  8
1
100
AcDbEllipse
 10
401.624254
 20
296.441427
 30
0.0
 11
2.357642267228975
 21
-0.831578583042768
 31
0.0
210
0.0
220
0.0
230
1.0
 40
0.9986239999999998
 41
2.800651535553508
 42
4.43870904011466
  0
ELLIPSE
  5
1B9
330
1F
100
AcDbEntity
  8
1
100
AcDbEllipse
 10
400.009443
 20
288.908319
 30
0.0
 11
0.6186755483001504
 21
-18.49967039355888
 31
0.0
210
0.0
220
0.0
230
0.9999999999999998
 40
0.0191
 41
3.220447680620782
 42
3.236673914849848
  0
ELLIPSE
  5
1BA
330
1F
100
AcDbEntity
  8
1
100
AcDbEllipse
 10
349.91008
 20
288.744604
 30
0.0
 11
1065.21269493244
 21
-0.9118206642173923
 31
0.0
210
0.0
220
0.0
230
1.0
 40
0.0175
 41
1.524372022580094
 42
1.526037986207565
  0
ELLIPSE
  5
1BB
330
1F
100
AcDbEntity
  8
1
100
AcDbEllipse
 10
324.139774
 20
288.907994
 30
0.0
 11
104.9091174235297
 21
-15.98501146169643
 31
0.0
210
0.0
220
0.0
230
1.0
 40
0.088771
 41
4.405542634952882
 42
4.522112131927769
  0
ELLIPSE
  5
1BC
330
1F
100
AcDbEntity
  8
1
100
AcDbEllipse
 10
400.833024
 20
306.441628
 30
0.0
 11
-11.88251702683404
 21
4.191156058535553
 31
0.0
210
0.0
220
0.0
230
1.0
 40
0.9986239999999998
 41
1.386722154625876
 42
1.94522751526413
  0
ELLIPSE
  5
1BD
330
1F
100
AcDbEntity
  8
1
100
AcDbEllipse
 10
302.904842
 20
277.486239
 30
0.0
 11
-2.978256638435816
 21
-9.546202773648348
 31
0.0
210
0.0
220
0.0
230
1.0
 40
0.176153
 41
4.198387281074698
 42
5.599154536209654
  0
ELLIPSE
  5
1BE
330
1F
100
AcDbEntity
  8
1
100
AcDbEllipse
 10
301.194741
 20
269.864624
 30
0.0
 11
-24.83941309069888
 21
5.109689449499039
 31
0.0
210
0.0
220
0.0
230
1.0
 40
0.5072130000000001
 41
4.747822990274014
 42
6.142896464020624
  0
ELLIPSE
  5
1BF
330
1F
100
AcDbEntity
  8
1
100
AcDbEllipse
 10
411.4771339999999
 20
288.173614
 30
0.0
 11
-0.2309634552664426
 21
-0.2230388161414595
 31
0.0
210
0.0
220
0.0
230
0.9999999999999998
 40
0.6229040000000001
 41
2.976210626445521
 42
3.306974680734081
  0
ELLIPSE
  5
1C0
330
1F
100
AcDbEntity
  8
1
100
AcDbEllipse
 10
402.266221
 20
291.825548
 30
0.0
 11
-2.488858110912465
 21
-0.0976816617214306
 31
0.0
210
0.0
220
0.0
230
1.0
 40
0.22151
 41
1.412738986143078
 42
4.853059272215726
  0
SPLINE
  5
1D3
330
1F
100
AcDbEntity
  8
1
100
AcDbSpline
210
0.0
220
0.0
230
1.0
 70
     8
 71
     3
 72
     8
 73
     4
 74
     0
 42
0.000000001
 43
0.0000000001
 40
0.0
 40
0.0
 40
0.0
 40
0.0
 40
1.0
 40
1.0
 40
1.0
 40
1.0
 10
404.6035743088758
 20
301.962368577845
 30
0.0
 10
404.6048538840135
 20
301.973367218835
 30
0.0
 10
404.6064380761206
 20
301.9842989486466
 30
0.0
 10
404.6083251945883
 20
301.9951638909034
 30
0.0
  0
SPLINE
  5
1D4
330
1F
100
AcDbEntity
  8
1
100
AcDbSpline
210
0.0
220
0.0
230
1.0
 70
     8
 71
     3
 72
    10
 73
     6
 74
     0
 42
0.000000001
 43
0.0000000001
 40
0.0
 40
0.0
 40
0.0
 40
0.0
 40
0.6628244121463385
 40
0.6628244121463385
 40
1.0
 40
1.0
 40
1.0
 40
1.0
 10
405.931643018933
 20
302.6434186755189
 30
0.0
 10
405.9311394495857
 20
302.6412471738247
 30
0.0
 10
405.9305547173477
 20
302.6390860542879
 30
0.0
 10
405.9295498013502
 20
302.6358425231673
 30
0.0
 10
405.9291917404312
 20
302.6347571876681
 30
0.0
 10
405.9288143230696
 20
302.6336802024367
 30
0.0
  0
SPLINE
  5
1D5
330
1F
100
AcDbEntity
  8
1
100
AcDbSpline
210
0.0
220
0.0
230
1.0
 70
     8
 71
     3
 72
    27
 73
    23
 74
     0
 42
0.000000001
 43
0.0000000001
 40
0.0
 40
0.0
 40
0.0
 40
0.0
 40
0.1250000000001701
 40
0.1250000000001701
 40
0.1875000000002016
 40
0.1875000000002016
 40
0.2500000000002331
 40
0.2500000000002331
 40
0.3750000000002958
 40
0.3750000000002958
 40
0.4375000000003272
 40
0.4375000000003272
 40
0.5000000000003583
 40
0.5000000000003583
 40
0.6250000000003148
 40
0.6250000000003148
 40
0.6875000000002942
 40
0.6875000000002942
 40
0.7500000000002738
 40
0.7500000000002738
 40
0.8750000000001369
 40
1.0
 40
1.0
 40
1.0
 40
1.0
 10
405.9837484445196
 20
299.5608051257881
 30
0.0
 10
405.9545324688029
 20
299.5480836780308
 30
0.0
 10
405.9245945217206
 20
299.5377915954831
 30
0.0
 10
405.8786256693762
 20
299.5259414363621
 30
0.0
 10
405.8631249023217
 20
299.5225921199337
 30
0.0
 10
405.8317611254241
 20
299.517119290543
 30
0.0
 10
405.8158520516165
 20
299.5149958874664
 30
0.0
 10
405.7683364264116
 20
299.5105828770385
 30
0.0
 10
405.7367250448413
 20
299.5101862245968
 30
0.0
 10
405.6894056024456
 20
299.5133484358455
 30
0.0
 10
405.6736487975242
 20
299.5150316237947
 30
0.0
 10
405.6421685945736
 20
299.519681884153
 30
0.0
 10
405.6263733430069
 20
299.5226680415522
 30
0.0
 10
405.5797442789578
 20
299.5334516285243
 30
0.0
 10
405.5495916654011
 20
299.5430446242007
 30
0.0
 10
405.5057208665982
 20
299.5609311697168
 30
0.0
 10
405.4913247184193
 20
299.567479008258
 30
0.0
 10
405.4629933289406
 20
299.5817611933467
 30
0.0
 10
405.4490078316815
 20
299.5895267586191
 30
0.0
 10
405.4081237705067
 20
299.6144384050488
 30
0.0
 10
405.3569958498955
 20
299.6515624272323
 30
0.0
 10
405.3123471596299
 20
299.6961565814358
 30
0.0
 10
405.2916937484839
 20
299.7203755954915
 30
0.0
  0
SPLINE
  5
1D6
330
1F
100
AcDbEntity
  8
1
100
AcDbSpline
210
0.0
220
0.0
230
1.0
 70
     8
 71
     3
 72
    16
 73
    12
 74
     0
 42
0.000000001
 43
0.0000000001
 40
0.0
 40
0.0
 40
0.0
 40
0.0
 40
0.3587940320766762
 40
0.3587940320766762
 40
0.5381910481149859
 40
0.5381910481149859
 40
0.7175880641532955
 40
0.7175880641532955
 40
0.8969850801916052
 40
0.8969850801916052
 40
1.0
 40
1.0
 40
1.0
 40
1.0
 10
405.2916937484839
 20
299.7203755954915
 30
0.0
 10
405.2852268953839
 20
299.7279588854877
 30
0.0
 10
405.2800406714116
 20
299.736494998115
 30
0.0
 10
405.2744266137975
 20
299.7499046291265
 30
0.0
 10
405.2728974990695
 20
299.7545009588749
 30
0.0
 10
405.2705288732872
 20
299.7639477378537
 30
0.0
 10
405.2697066014553
 20
299.7687523832848
 30
0.0
 10
405.2687859973644
 20
299.7782960285101
 30
0.0
 10
405.2686789456001
 20
299.7830686656623
 30
0.0
 10
405.2690582180158
 20
299.7905826135171
 30
0.0
 10
405.2693145966504
 20
299.7933356774325
 30
0.0
 10
405.2696846198714
 20
299.7960696512702
 30
0.0
  0
SPLINE
  5
1D7
330
1F
100
AcDbEntity
  8
1
100
AcDbSpline
210
0.0
220
0.0
230
1.0
 70
     8
 71
     3
 72
    10
 73
     6
 74
     0
 42
0.000000001
 43
0.0000000001
 40
0.0
 40
0.0
 40
0.0
 40
0.0
 40
0.1325035073579131
 40
0.1325035073579131
 40
1.0
 40
1.0
 40
1.0
 40
1.0
 10
406.0118192576733
 20
299.5795181474142
 30
0.0
 10
406.0107403971238
 20
299.5784837848012
 30
0.0
 10
406.0096358283229
 20
299.5774726397441
 30
0.0
 10
406.001118553366
 20
299.5700357589701
 30
0.0
 10
405.9928830631101
 20
299.5647825925791
 30
0.0
 10
405.9837484445196
 20
299.5608051257881
 30
0.0
  0
SPLINE
  5
1D8
330
1F
100
AcDbEntity
  8
1
100
AcDbSpline
210
0.0
220
0.0
230
1.0
 70
     8
 71
     3
 72
    10
 73
     6
 74
     0
 42
0.000000001
 43
0.0000000001
 40
0.0
 40
0.0
 40
0.0
 40
0.0
 40
0.6419716905433825
 40
0.6419716905433825
 40
1.0
 40
1.0
 40
1.0
 40
1.0
 10
405.2899969140484
 20
299.8924248773819
 30
0.0
 10
405.2920123256445
 20
299.881458087283
 30
0.0
 10
405.2921145031184
 20
299.8704747075283
 30
0.0
 10
405.2894684104617
 20
299.8535852696764
 30
0.0
 10
405.2879876748146
 20
299.8477216811778
 30
0.0
 10
405.2859774450054
 20
299.8420397247555
 30
0.0
  0
SPLINE
  5
1D9
330
1F
100
AcDbEntity
  8
1
100
AcDbSpline
210
0.0
220
0.0
230
1.0
 70
     8
 71
     3
 72
     8
 73
     4
 74
     0
 42
0.000000001
 43
0.0000000001
 40
0.0
 40
0.0
 40
0.0
 40
0.0
 40
1.0
 40
1.0
 40
1.0
 40
1.0
 10
406.0474350580653
 20
299.6887767913591
 30
0.0
 10
406.0506656614166
 20
299.6979934537462
 30
0.0
 10
406.0552084621556
 20
299.706617299013
 30
0.0
 10
406.0611350605273
 20
299.7146197458732
 30
0.0
  0
SPLINE
  5
1DA
330
1F
100
AcDbEntity
  8
1
100
AcDbSpline
210
0.0
220
0.0
230
1.0
 70
     8
 71
     3
 72
    20
 73
    16
 74
     0
 42
0.000000001
 43
0.0000000001
 40
0.0
 40
0.0
 40
0.0
 40
0.0
 40
0.1250000000000017
 40
0.1250000000000017
 40
0.2500000000000033
 40
0.2500000000000033
 40
0.3750000000000049
 40
0.3750000000000049
 40
0.5000000000000067
 40
0.5000000000000067
 40
0.6250000000000085
 40
0.6250000000000085
 40
0.75000000000001
 40
0.75000000000001
 40
1.0
 40
1.0
 40
1.0
 40
1.0
 10
404.7081219647104
 20
300.3613317692711
 30
0.0
 10
404.7041063916681
 20
300.3587578931835
 30
0.0
 10
404.6999333468001
 20
300.3564940549682
 30
0.0
 10
404.6912745055223
 20
300.3525824602003
 30
0.0
 10
404.6867810366324
 20
300.3509375854782
 30
0.0
 10
404.6776912724251
 20
300.3483456549127
 30
0.0
 10
404.6730695642692
 20
300.3473853388147
 30
0.0
 10
404.6636705709186
 20
300.3461472366543
 30
0.0
 10
404.6588551504286
 20
300.3458719790655
 30
0.0
 10
404.6492959649933
 20
300.3460497756987
 30
0.0
 10
404.6445477188539
 20
300.3464953158311
 30
0.0
 10
404.6351153542254
 20
300.3481066356956
 30
0.0
 10
404.6304005079148
 20
300.349282931319
 30
0.0
 10
404.6165781471727
 20
300.3539032772209
 30
0.0
 10
404.6079636185615
 20
300.3583308170952
 30
0.0
 10
404.5999899797418
 20
300.3641904024534
 30
0.0
  0
SPLINE
  5
1DB
330
1F
100
AcDbEntity
  8
1
100
AcDbSpline
210
0.0
220
0.0
230
1.0
 70
     8
 71
     3
 72
    10
 73
     6
 74
     0
 42
0.000000001
 43
0.0000000001
 40
0.0
 40
0.0
 40
0.0
 40
0.0
 40
0.5
 40
0.5
 40
1.0
 40
1.0
 40
1.0
 40
1.0
 10
404.7081219647104
 20
300.3613317692711
 30
0.0
 10
404.7173006634467
 20
300.3672150723376
 30
0.0
 10
404.7272260444522
 20
300.3714677278091
 30
0.0
 10
404.7484396162896
 20
300.3765889169409
 30
0.0
 10
404.7592337606161
 20
300.377350377833
 30
0.0
 10
404.7702319495133
 20
300.376204777723
 30
0.0
  0
SPLINE
  5
1DC
330
1F
100
AcDbEntity
  8
1
100
AcDbSpline
210
0.0
220
0.0
230
1.0
 70
     8
 71
     3
 72
    24
 73
    20
 74
     0
 42
0.000000001
 43
0.0000000001
 40
0.0
 40
0.0
 40
0.0
 40
0.0
 40
0.1249999999999415
 40
0.1249999999999415
 40
0.2499999999998829
 40
0.2499999999998829
 40
0.3124999999998536
 40
0.3124999999998536
 40
0.3749999999998244
 40
0.3749999999998244
 40
0.4999999999998594
 40
0.4999999999998594
 40
0.6249999999998945
 40
0.6249999999998945
 40
0.7499999999999298
 40
0.7499999999999298
 40
0.8749999999999648
 40
0.8749999999999648
 40
1.0
 40
1.0
 40
1.0
 40
1.0
 10
404.7702319495133
 20
300.376204777723
 30
0.0
 10
404.8013803228766
 20
300.3729602817172
 30
0.0
 10
404.8320120322761
 20
300.3673072329794
 30
0.0
 10
404.8922897737891
 20
300.3511841544858
 30
0.0
 10
404.9219362310465
 20
300.3407164806357
 30
0.0
 10
404.9656434515692
 20
300.3211021284653
 30
0.0
 10
404.9799913222212
 20
300.313944116889
 30
0.0
 10
405.0078998541342
 20
300.2985671986011
 30
0.0
 10
405.0215146422257
 20
300.2903245251487
 30
0.0
 10
405.0613431017176
 20
300.2639327299311
 30
0.0
 10
405.0865852562661
 20
300.2440966815318
 30
0.0
 10
405.1340703701023
 20
300.199886428307
 30
0.0
 10
405.1556226346323
 20
300.1761668253076
 30
0.0
 10
405.1945978993771
 20
300.1256794710665
 30
0.0
 10
405.2120256542671
 20
300.098900862282
 30
0.0
 10
405.2426557154663
 20
300.0422698933174
 30
0.0
 10
405.2554152747786
 20
300.0132459384065
 30
0.0
 10
405.2762330878393
 20
299.9538539425403
 30
0.0
 10
405.2842888261405
 20
299.9234852335277
 30
0.0
 10
405.2899969140484
 20
299.8924248773819
 30
0.0
  0
SPLINE
  5
1DD
330
1F
100
AcDbEntity
  8
1
100
AcDbSpline
210
0.0
220
0.0
230
1.0
 70
     8
 71
     3
 72
    18
 73
    14
 74
     0
 42
0.000000001
 43
0.0000000001
 40
0.0
 40
0.0
 40
0.0
 40
0.0
 40
0.2500000000000029
 40
0.2500000000000029
 40
0.375000000000007
 40
0.375000000000007
 40
0.5000000000000112
 40
0.5000000000000112
 40
0.6250000000000155
 40
0.6250000000000155
 40
0.7500000000000196
 40
0.7500000000000196
 40
1.0
 40
1.0
 40
1.0
 40
1.0
 10
406.8872411729292
 20
299.8368075968496
 30
0.0
 10
406.8775126272542
 20
299.835024294069
 30
0.0
 10
406.8676215886998
 20
299.8348304503977
 30
0.0
 10
406.8533678162774
 20
299.836721050363
 30
0.0
 10
406.848682481311
 20
299.8377115137779
 30
0.0
 10
406.8394453989226
 20
299.8404180544863
 30
0.0
 10
406.8349413529528
 20
299.8421259980423
 30
0.0
 10
406.8263564369462
 20
299.8461361913866
 30
0.0
 10
406.8222425287731
 20
299.8484478313614
 30
0.0
 10
406.8143672063255
 20
299.8536747288421
 30
0.0
 10
406.8105797421832
 20
299.8566170640162
 30
0.0
 10
406.8000547003945
 20
299.8661206451071
 30
0.0
 10
406.7940741340573
 20
299.8733574350673
 30
0.0
 10
406.7891385826468
 20
299.8815014883888
 30
0.0
  0
SPLINE
  5
1DE
330
1F
100
AcDbEntity
  8
1
100
AcDbSpline
210
0.0
220
0.0
230
1.0
 70
     8
 71
     3
 72
    10
 73
     6
 74
     0
 42
0.000000001
 43
0.0000000001
 40
0.0
 40
0.0
 40
0.0
 40
0.0
 40
0.5
 40
0.5
 40
1.0
 40
1.0
 40
1.0
 40
1.0
 10
406.7400439911428
 20
299.9220154853004
 30
0.0
 10
406.7503987720646
 20
299.9182376118969
 30
0.0
 10
406.7597942450375
 20
299.91279291285
 30
0.0
 10
406.7765153263768
 20
299.8989239893734
 30
0.0
 10
406.7835032933792
 20
299.8908001649625
 30
0.0
 10
406.7891385826468
 20
299.8815014883888
 30
0.0
  0
SPLINE
  5
1DF
330
1F
100
AcDbEntity
  8
1
100
AcDbSpline
210
0.0
220
0.0
230
1.0
 70
     8
 71
     3
 72
    24
 73
    20
 74
     0
 42
0.000000001
 43
0.0000000001
 40
0.0
 40
0.0
 40
0.0
 40
0.0
 40
0.1249999999999351
 40
0.1249999999999351
 40
0.2499999999998701
 40
0.2499999999998701
 40
0.312499999999881
 40
0.312499999999881
 40
0.3749999999998918
 40
0.3749999999998918
 40
0.4999999999999134
 40
0.4999999999999134
 40
0.6249999999999351
 40
0.6249999999999351
 40
0.7499999999999567
 40
0.7499999999999567
 40
0.8749999999999783
 40
0.8749999999999783
 40
1.0
 40
1.0
 40
1.0
 40
1.0
 10
406.0611350605273
 20
299.7146197458732
 30
0.0
 10
406.0799507192347
 20
299.7400257713035
 30
0.0
 10
406.1005568222545
 20
299.7637712865555
 30
0.0
 10
406.1453628753408
 20
299.8079806247285
 30
0.0
 10
406.1695610525138
 20
299.8284460053997
 30
0.0
 10
406.2087880769503
 20
299.8565098281828
 30
0.0
 10
406.2222757552088
 20
299.8653597275963
 30
0.0
 10
406.2497447080168
 20
299.881841271428
 30
0.0
 10
406.2637740071957
 20
299.8895078519367
 30
0.0
 10
406.306747137469
 20
299.9107863419941
 30
0.0
 10
406.3366190770947
 20
299.9227039840927
 30
0.0
 10
406.3986534581127
 20
299.9416446793031
 30
0.0
 10
406.4299048173098
 20
299.9483984516246
 30
0.0
 10
406.4928562249233
 20
299.9567828107142
 30
0.0
 10
406.5245685200221
 20
299.9584120420018
 30
0.0
 10
406.5884209673201
 20
299.9564525646913
 30
0.0
 10
406.6196311089734
 20
299.9528972201897
 30
0.0
 10
406.6807799338796
 20
299.9410296597067
 30
0.0
 10
406.7107178796246
 20
299.9327149233254
 30
0.0
 10
406.7400439911428
 20
299.9220154853004
 30
0.0
  0
SPLINE
  5
1E0
330
1F
100
AcDbEntity
  8
1
100
AcDbSpline
210
0.0
220
0.0
230
1.0
 70
     8
 71
     3
 72
    27
 73
    23
 74
     0
 42
0.000000001
 43
0.0000000001
 40
0.0
 40
0.0
 40
0.0
 40
0.0
 40
0.1358119458611697
 40
0.1358119458611697
 40
0.203717918791757
 40
0.203717918791757
 40
0.2716238917223444
 40
0.2716238917223444
 40
0.407435837583451
 40
0.407435837583451
 40
0.4753418105140045
 40
0.4753418105140045
 40
0.5432477834445577
 40
0.5432477834445577
 40
0.6790597293057061
 40
0.6790597293057061
 40
0.7469657022362802
 40
0.7469657022362802
 40
0.8148716751668542
 40
0.8148716751668542
 40
0.9506836210279951
 40
1.0
 40
1.0
 40
1.0
 40
1.0
 10
404.5999899797418
 20
300.3641904024534
 30
0.0
 10
404.5744877936521
 20
300.3829311856256
 30
0.0
 10
404.5507102950485
 20
300.4035327229667
 30
0.0
 10
404.5175951106207
 20
300.4371774113015
 30
0.0
 10
404.5069838288267
 20
300.4488514884268
 30
0.0
 10
404.4866333104751
 20
300.4731358144204
 30
0.0
 10
404.4768711321141
 20
300.4857859359062
 30
0.0
 10
404.4493713519548
 20
300.524549093709
 30
0.0
 10
404.4332574894356
 20
300.5516288099213
 30
0.0
 10
404.4123636642837
 20
300.5940737547268
 30
0.0
 10
404.4059477552388
 20
300.6085277274079
 30
0.0
 10
404.3942357909397
 20
300.6380593224138
 30
0.0
 10
404.3889202719308
 20
300.6532086715067
 30
0.0
 10
404.3749194459549
 20
300.698931577218
 30
0.0
 10
404.3681170083026
 20
300.729829570011
 30
0.0
 10
404.3615957088068
 20
300.7767818791198
 30
0.0
 10
404.3600386298983
 20
300.7925340243319
 30
0.0
 10
404.3581737827956
 20
300.8242437300581
 30
0.0
 10
404.3578677579448
 20
300.8402604578765
 30
0.0
 10
404.3588719661165
 20
300.88820708788
 30
0.0
 10
404.3632235524865
 20
300.9311426805868
 30
0.0
 10
404.3720559574253
 20
300.9732472905644
 30
0.0
 10
404.3747302010987
 20
300.9844038555551
 30
0.0
  0
SPLINE
  5
1E1
330
1F
100
AcDbEntity
  8
1
100
AcDbSpline
210
0.0
220
0.0
230
1.0
 70
     8
 71
     3
 72
    21
 73
    17
 74
     0
 42
0.000000001
 43
0.0000000001
 40
0.0
 40
0.0
 40
0.0
 40
0.0
 40
0.1243620819132563
 40
0.1243620819132563
 40
0.211925873721944
 40
0.211925873721944
 40
0.2994896655306316
 40
0.2994896655306316
 40
0.474617249147903
 40
0.474617249147903
 40
0.5621810409565417
 40
0.5621810409565417
 40
0.6497448327651803
 40
0.6497448327651803
 40
0.8248724163825901
 40
1.0
 40
1.0
 40
1.0
 40
1.0
 10
407.3071006161753
 20
300.1479797666647
 30
0.0
 10
407.2967154740393
 20
300.1280067290569
 30
0.0
 10
407.28525452456
 20
300.1087049947164
 30
0.0
 10
407.2639111511022
 20
300.0769439157957
 30
0.0
 10
407.2545626543634
 20
300.0641514212375
 30
0.0
 10
407.2347843800874
 20
300.0392411009159
 30
0.0
 10
407.2243021888294
 20
300.0270706321505
 30
0.0
 10
407.1916736284324
 20
299.9921313705798
 30
0.0
 10
407.1683336503693
 20
299.9708556601582
 30
0.0
 10
407.1310147630545
 20
299.9418766205122
 30
0.0
 10
407.1181884650608
 20
299.9327083959262
 30
0.0
 10
407.0917527272426
 20
299.915367707836
 30
0.0
 10
407.0780915383244
 20
299.9071675326536
 30
0.0
 10
407.036264187377
 20
299.8843067763462
 30
0.0
 10
406.9788521889389
 20
299.8587214007337
 30
0.0
 10
406.9183122080761
 20
299.842503110365
 30
0.0
 10
406.8872411729292
 20
299.8368075968496
 30
0.0
  0
SPLINE
  5
1E2
330
1F
100
AcDbEntity
  8
1
100
AcDbSpline
210
0.0
220
0.0
230
1.0
 70
     8
 71
     3
 72
    18
 73
    14
 74
     0
 42
0.000000001
 43
0.0000000001
 40
0.0
 40
0.0
 40
0.0
 40
0.0
 40
0.2127774583469914
 40
0.2127774583469914
 40
0.4255549166939828
 40
0.4255549166939828
 40
0.5319436458674783
 40
0.5319436458674783
 40
0.6383323750409739
 40
0.6383323750409739
 40
0.8511098333879541
 40
0.8511098333879541
 40
1.0
 40
1.0
 40
1.0
 40
1.0
 10
404.6973790318252
 20
301.8232599282248
 30
0.0
 10
404.7098647121226
 20
301.795042382495
 30
0.0
 10
404.7200298443436
 20
301.7660386262294
 30
0.0
 10
404.7357500436531
 20
301.7064092709612
 30
0.0
 10
404.7413073287619
 20
301.6757845244042
 30
0.0
 10
404.7459232837743
 20
301.628490300566
 30
0.0
 10
404.7468234260748
 20
301.6125966341146
 30
0.0
 10
404.7473319533996
 20
301.5809343722948
 30
0.0
 10
404.7469464784485
 20
301.5651076756768
 30
0.0
 10
404.7438720729503
 20
301.5176369842758
 30
0.0
 10
404.739267036005
 20
301.485951756679
 30
0.0
 10
404.7269014627927
 20
301.4322818925254
 30
0.0
 10
404.720611861134
 20
301.4106929687089
 30
0.0
 10
404.7131703361225
 20
301.3895895348531
 30
0.0
  0
SPLINE
  5
1E3
330
1F
100
AcDbEntity
  8
1
100
AcDbSpline
210
0.0
220
0.0
230
1.0
 70
     8
 71
     3
 72
    10
 73
     6
 74
     0
 42
0.000000001
 43
0.0000000001
 40
0.0
 40
0.0
 40
0.0
 40
0.0
 40
0.5
 40
0.5
 40
1.0
 40
1.0
 40
1.0
 40
1.0
 10
404.6541237026175
 20
301.8687021586214
 30
0.0
 10
404.6636866990367
 20
301.8638549169678
 30
0.0
 10
404.6722136216036
 20
301.8575435494034
 30
0.0
 10
404.6870217163927
 20
301.8420450252303
 30
0.0
 10
404.6929703105194
 20
301.8332236059813
 30
0.0
 10
404.6973790318252
 20
301.8232599282248
 30
0.0
  0
SPLINE
  5
1E4
330
1F
100
AcDbEntity
  8
1
100
AcDbSpline
210
0.0
220
0.0
230
1.0
 70
     8
 71
     3
 72
    20
 73
    16
 74
     0
 42
0.000000001
 43
0.0000000001
 40
0.0
 40
0.0
 40
0.0
 40
0.0
 40
0.1249999999999999
 40
0.1249999999999999
 40
0.2499999999999998
 40
0.2499999999999998
 40
0.3749999999999998
 40
0.3749999999999998
 40
0.4999999999999998
 40
0.4999999999999998
 40
0.6249999999999997
 40
0.6249999999999997
 40
0.7499999999999997
 40
0.7499999999999997
 40
1.0
 40
1.0
 40
1.0
 40
1.0
 10
404.6541237026175
 20
301.8687021586214
 30
0.0
 10
404.6499399467572
 20
301.8708227989297
 30
0.0
 10
404.6459458181973
 20
301.873234865797
 30
0.0
 10
404.6383344298973
 20
301.8786378772182
 30
0.0
 10
404.6347154547406
 20
301.8816371699784
 30
0.0
 10
404.6280278374526
 20
301.8880769898678
 30
0.0
 10
404.6249353348426
 20
301.891532421834
 30
0.0
 10
404.6192616345794
 20
301.8989214696739
 30
0.0
 10
404.6166638596123
 20
301.9028889089367
 30
0.0
 10
404.6121298445622
 20
301.9111324937392
 30
0.0
 10
404.6101853165097
 20
301.9154080410514
 30
0.0
 10
404.606947879493
 20
301.9242687438872
 30
0.0
 10
404.6056490153745
 20
301.9288850368306
 30
0.0
 10
404.6028495748668
 20
301.9430144624298
 30
0.0
 10
404.6024382043772
 20
301.9526031446637
 30
0.0
 10
404.6035743088758
 20
301.962368577845
 30
0.0
  0
SPLINE
  5
1E5
330
1F
100
AcDbEntity
  8
1
100
AcDbSpline
210
0.0
220
0.0
230
1.0
 70
     8
 71
     3
 72
    14
 73
    10
 74
     0
 42
0.000000001
 43
0.0000000001
 40
0.0
 40
0.0
 40
0.0
 40
0.0
 40
0.0909779694625019
 40
0.0909779694625019
 40
0.3939853129750011
 40
0.3939853129750011
 40
0.6969926564875006
 40
0.6969926564875006
 40
1.0
 40
1.0
 40
1.0
 40
1.0
 10
407.265358834299
 20
300.9393309826557
 30
0.0
 10
407.2685319445995
 20
300.9483296085314
 30
0.0
 10
407.2719129914388
 20
300.9572270892764
 30
0.0
 10
407.2874396508653
 20
300.9953283497973
 30
0.0
 10
407.3016547991628
 20
301.0235406459904
 30
0.0
 10
407.3346964555211
 20
301.0776982041333
 30
0.0
 10
407.3530381135898
 20
301.102857698662
 30
0.0
 10
407.3931209055415
 20
301.1496781539043
 30
0.0
 10
407.4148637942534
 20
301.1713372038718
 30
0.0
 10
407.4383292199334
 20
301.1912655042936
 30
0.0
  0
SPLINE
  5
1E6
330
1F
100
AcDbEntity
  8
1
100
AcDbSpline
210
0.0
220
0.0
230
1.0
 70
     8
 71
     3
 72
    10
 73
     6
 74
     0
 42
0.000000001
 43
0.0000000001
 40
0.0
 40
0.0
 40
0.0
 40
0.0
 40
0.5
 40
0.5
 40
1.0
 40
1.0
 40
1.0
 40
1.0
 10
407.4383292199334
 20
301.1912655042936
 30
0.0
 10
407.4466150270692
 20
301.1983023275794
 30
0.0
 10
407.455846176722
 20
301.2036697786697
 30
0.0
 10
407.4758381057502
 20
301.2111202767556
 30
0.0
 10
407.4861733067418
 20
301.2130605984727
 30
0.0
 10
407.4968452684161
 20
301.2132418054313
 30
0.0
  0
SPLINE
  5
1E7
330
1F
100
AcDbEntity
  8
1
100
AcDbSpline
210
0.0
220
0.0
230
1.0
 70
     8
 71
     3
 72
    16
 73
    12
 74
     0
 42
0.000000001
 43
0.0000000001
 40
0.0
 40
0.0
 40
0.0
 40
0.0
 40
0.0631184671026628
 40
0.0631184671026628
 40
0.2504947736819447
 40
0.2504947736819447
 40
0.4378710802612267
 40
0.4378710802612267
 40
0.6252473868405085
 40
0.6252473868405085
 40
1.0
 40
1.0
 40
1.0
 40
1.0
 10
407.5631980011738
 20
301.2427034224338
 30
0.0
 10
407.5621116109948
 20
301.2415356626025
 30
0.0
 10
407.560993948168
 20
301.2403951159701
 30
0.0
 10
407.5564339953094
 20
301.2359769896677
 30
0.0
 10
407.5527757579966
 20
301.2329484937686
 30
0.0
 10
407.545161311499
 20
301.2275572831387
 30
0.0
 10
407.5411805549133
 20
301.2251703512859
 30
0.0
 10
407.5328780335153
 20
301.2210049192997
 30
0.0
 10
407.5285202865855
 20
301.2192174366476
 30
0.0
 10
407.5152787770662
 20
301.2149180032605
 30
0.0
 10
407.506191902245
 20
301.2134005086895
 30
0.0
 10
407.4968452684162
 20
301.2132418054313
 30
0.0
  0
SPLINE
  5
1E8
330
1F
100
AcDbEntity
  8
1
100
AcDbSpline
210
0.0
220
0.0
230
1.0
 70
     8
 71
     3
 72
    36
 73
    32
 74
     0
 42
0.000000001
 43
0.0000000001
 40
0.0
 40
0.0
 40
0.0
 40
0.0
 40
0.125000000000147
 40
0.125000000000147
 40
0.1875000000002247
 40
0.1875000000002247
 40
0.2187500000002635
 40
0.2187500000002635
 40
0.2500000000003023
 40
0.2500000000003023
 40
0.3750000000003849
 40
0.3750000000003849
 40
0.4062500000004309
 40
0.4062500000004309
 40
0.4375000000004767
 40
0.4375000000004767
 40
0.500000000000517
 40
0.500000000000517
 40
0.6250000000005417
 40
0.6250000000005417
 40
0.6562500000005202
 40
0.6562500000005202
 40
0.6875000000004987
 40
0.7500000000004517
 40
0.8125000000004046
 40
0.8125000000004046
 40
0.8437500000003481
 40
0.8437500000003481
 40
0.8750000000002916
 40
0.8750000000002916
 40
1.0
 40
1.0
 40
1.0
 40
1.0
 10
412.2761911676127
 20
307.0608039162248
 30
0.0
 10
412.2743599710298
 20
307.1119220707577
 30
0.0
 10
412.2673991469297
 20
307.1619810370129
 30
0.0
 10
412.2497034293872
 20
307.2355715488503
 30
0.0
 10
412.2425859747553
 20
307.2598500392683
 30
0.0
 10
412.2300517129011
 20
307.2958841103019
 30
0.0
 10
412.2255507776946
 20
307.3078617210248
 30
0.0
 10
412.2159805819536
 20
307.3315301724562
 30
0.0
 10
412.2109212989716
 20
307.3432015054287
 30
0.0
 10
412.1842842441068
 20
307.4007616991832
 30
0.0
 10
412.1587239391407
 20
307.4442845462349
 30
0.0
 10
412.1215325172348
 20
307.4955744148448
 30
0.0
 10
412.1138297408003
 20
307.5056752544472
 30
0.0
 10
412.0978870853389
 20
307.5255578422393
 30
0.0
 10
412.0896271401031
 20
307.5353605885446
 30
0.0
 10
412.0642809311638
 20
307.5639978112274
 30
0.0
 10
412.0465773473558
 20
307.5821376367207
 30
0.0
 10
411.9911170303876
 20
307.6337833285283
 30
0.0
 10
411.9510338714174
 20
307.6645427278327
 30
0.0
 10
411.8969185926962
 20
307.6982563926663
 30
0.0
 10
411.8858726015654
 20
307.7047698514477
 30
0.0
 10
411.8636070575561
 20
307.7171775353819
 30
0.0
 10
411.8298731801221
 20
307.7349097036703
 30
0.0
 10
411.7720023984103
 20
307.7601455508419
 30
0.0
 10
411.7239630650283
 20
307.7757673640151
 30
0.0
 10
411.6872658032745
 20
307.7857338166808
 30
0.0
 10
411.6749218834771
 20
307.7887637775981
 30
0.0
 10
411.6500060183041
 20
307.7942261455547
 30
0.0
 10
411.6374157327397
 20
307.7966602501458
 30
0.0
 10
411.5744671769774
 20
307.8072059902638
 30
0.0
 10
411.5237095705809
 20
307.8105980052203
 30
0.0
 10
411.4725427394183
 20
307.808813080038
 30
0.0
  0
SPLINE
  5
1E9
330
1F
100
AcDbEntity
  8
1
100
AcDbSpline
210
0.0
220
0.0
230
1.0
 70
     8
 71
     3
 72
    36
 73
    32
 74
     0
 42
0.000000001
 43
0.0000000001
 40
0.0
 40
0.0
 40
0.0
 40
0.0
 40
0.1249999999998651
 40
0.1249999999998651
 40
0.1874999999997633
 40
0.1874999999997633
 40
0.2187499999997124
 40
0.2187499999997124
 40
0.2499999999996615
 40
0.2499999999996615
 40
0.3749999999996511
 40
0.3749999999996511
 40
0.4062499999996624
 40
0.4062499999996624
 40
0.4374999999996736
 40
0.4374999999996736
 40
0.4999999999997526
 40
0.4999999999997526
 40
0.6249999999998576
 40
0.6249999999998576
 40
0.6562499999998784
 40
0.6562499999998784
 40
0.6874999999998992
 40
0.7499999999999104
 40
0.8124999999999216
 40
0.8124999999999216
 40
0.8437499999999314
 40
0.8437499999999314
 40
0.8749999999999413
 40
0.8749999999999413
 40
1.0
 40
1.0
 40
1.0
 40
1.0
 10
400.3343635403399
 20
307.420264168839
 30
0.0
 10
400.2831921194792
 20
307.4184790835476
 30
0.0
 10
400.2330854537456
 20
307.4115689501155
 30
0.0
 10
400.1594312655058
 20
307.3939557448731
 30
0.0
 10
400.1351328723933
 20
307.3868668824747
 30
0.0
 10
400.0990709637708
 20
307.3743771677361
 30
0.0
 10
400.087084388899
 20
307.369891398214
 30
0.0
 10
400.0633988077169
 20
307.3603518948782
 30
0.0
 10
400.0517193214565
 20
307.3553081110817
 30
0.0
 10
399.9941203737365
 20
307.3287493001621
 30
0.0
 10
399.9505729043051
 20
307.3032539620305
 30
0.0
 10
399.8992601252012
 20
307.2661466729338
 30
0.0
 10
399.8891551005368
 20
307.2584608706356
 30
0.0
 10
399.8692649488813
 20
307.2425524631266
 30
0.0
 10
399.8594588185751
 20
307.2343098313345
 30
0.0
 10
399.8308127603298
 20
307.2090155034362
 30
0.0
 10
399.8126687617797
 20
307.1913465484576
 30
0.0
 10
399.7610155562534
 20
307.1359902388489
 30
0.0
 10
399.7302577724434
 20
307.0959765780881
 30
0.0
 10
399.6965546726095
 20
307.0419483784858
 30
0.0
 10
399.6900437653767
 20
307.0309198439372
 30
0.0
 10
399.6776419988572
 20
307.0086888641663
 30
0.0
 10
399.6599199400283
 20
306.9750064330117
 30
0.0
 10
399.6347069978133
 20
306.9172194306589
 30
0.0
 10
399.6191099138331
 20
306.8692450429933
 30
0.0
 10
399.6091644623838
 20
306.8325956943776
 30
0.0
 10
399.6061419116813
 20
306.8202676126893
 30
0.0
 10
399.6006952022498
 20
306.7953831518682
 30
0.0
 10
399.5982693599875
 20
306.7828084536557
 30
0.0
 10
399.5877666723663
 20
306.7199364282774
 30
0.0
 10
399.5844148564579
 20
306.6692361163664
 30
0.0
 10
399.5862458887959
 20
306.6181225467541
 30
0.0
  0
SPLINE
  5
1EA
330
1F
100
AcDbEntity
  8
1
100
AcDbSpline
210
0.0
220
0.0
230
1.0
 70
     8
 71
     3
 72
    36
 73
    32
 74
     0
 42
0.000000001
 43
0.0000000001
 40
0.0
 40
0.0
 40
0.0
 40
0.0
 40
0.1250000000000143
 40
0.1250000000000143
 40
0.1875000000000225
 40
0.1875000000000225
 40
0.2187500000000256
 40
0.2187500000000256
 40
0.2500000000000287
 40
0.2500000000000287
 40
0.3750000000000983
 40
0.3750000000000983
 40
0.4062500000000965
 40
0.4062500000000965
 40
0.4375000000000947
 40
0.4375000000000947
 40
0.5000000000000461
 40
0.5000000000000461
 40
0.6249999999999486
 40
0.6249999999999486
 40
0.6562499999999525
 40
0.6562499999999525
 40
0.6874999999999564
 40
0.7499999999999644
 40
0.8124999999999722
 40
0.8124999999999722
 40
0.8437499999999433
 40
0.8437499999999433
 40
0.8749999999999142
 40
0.8749999999999142
 40
1.0
 40
1.0
 40
1.0
 40
1.0
 10
399.9848315709243
 20
295.4915375128587
 30
0.0
 10
399.9866627675071
 20
295.4404193583258
 30
0.0
 10
399.9936235916072
 20
295.3903603920705
 30
0.0
 10
400.0113193091497
 20
295.3167698802332
 30
0.0
 10
400.0184367637817
 20
295.2924913898152
 30
0.0
 10
400.0309710256358
 20
295.2564573187815
 30
0.0
 10
400.0354719608422
 20
295.2444797080586
 30
0.0
 10
400.0450421565833
 20
295.2208112566273
 30
0.0
 10
400.0501014395653
 20
295.2091399236547
 30
0.0
 10
400.0767384944301
 20
295.1515797299002
 30
0.0
 10
400.1022987993962
 20
295.1080568828485
 30
0.0
 10
400.1394902213021
 20
295.0567670142386
 30
0.0
 10
400.1471929977368
 20
295.0466661746362
 30
0.0
 10
400.163135653198
 20
295.0267835868441
 30
0.0
 10
400.1713955984338
 20
295.0169808405389
 30
0.0
 10
400.1967418073729
 20
294.9883436178559
 30
0.0
 10
400.2144453911811
 20
294.9702037923627
 30
0.0
 10
400.2699057081493
 20
294.9185581005552
 30
0.0
 10
400.3099888671195
 20
294.8877987012507
 30
0.0
 10
400.3641041458408
 20
294.8540850364171
 30
0.0
 10
400.3751501369715
 20
294.8475715776357
 30
0.0
 10
400.3974156809809
 20
294.8351638937015
 30
0.0
 10
400.4311495584148
 20
294.8174317254132
 30
0.0
 10
400.4890203401267
 20
294.7921958782416
 30
0.0
 10
400.5370596735087
 20
294.7765740650684
 30
0.0
 10
400.5737569352623
 20
294.7666076124026
 30
0.0
 10
400.5861008550598
 20
294.7635776514854
 30
0.0
 10
400.6110167202327
 20
294.7581152835288
 30
0.0
 10
400.6236070057971
 20
294.7556811789376
 30
0.0
 10
400.6865555615595
 20
294.7451354388196
 30
0.0
 10
400.7373131679561
 20
294.7417434238632
 30
0.0
 10
400.7884799991186
 20
294.7435283490455
 30
0.0
  0
SPLINE
  5
1EB
330
1F
100
AcDbEntity
  8
1
100
AcDbSpline
210
0.0
220
0.0
230
1.0
 70
     8
 71
     3
 72
    36
 73
    32
 74
     0
 42
0.000000001
 43
0.0000000001
 40
0.0
 40
0.0
 40
0.0
 40
0.0
 40
0.1249999999998159
 40
0.1249999999998159
 40
0.1874999999996902
 40
0.1874999999996902
 40
0.2187499999996277
 40
0.2187499999996277
 40
0.2499999999995652
 40
0.2499999999995652
 40
0.3749999999995012
 40
0.3749999999995012
 40
0.406249999999499
 40
0.406249999999499
 40
0.4374999999994968
 40
0.4374999999994968
 40
0.4999999999995449
 40
0.4999999999995449
 40
0.6249999999996895
 40
0.6249999999996895
 40
0.6562499999997256
 40
0.6562499999997256
 40
0.6874999999997618
 40
0.7499999999998054
 40
0.8124999999998491
 40
0.8124999999998491
 40
0.8437499999998721
 40
0.8437499999998721
 40
0.874999999999895
 40
0.874999999999895
 40
1.0
 40
1.0
 40
1.0
 40
1.0
 10
411.9266591981968
 20
295.1320772602444
 30
0.0
 10
411.9778306190577
 20
295.1338623455357
 30
0.0
 10
412.0279372847913
 20
295.140772478968
 30
0.0
 10
412.1015914730311
 20
295.1583856842103
 30
0.0
 10
412.1258898661436
 20
295.1654745466087
 30
0.0
 10
412.1619517747661
 20
295.1779642613474
 30
0.0
 10
412.173938349638
 20
295.1824500308695
 30
0.0
 10
412.19762393082
 20
295.1919895342054
 30
0.0
 10
412.2093034170803
 20
295.1970333180017
 30
0.0
 10
412.2669023648003
 20
295.2235921289213
 30
0.0
 10
412.3104498342319
 20
295.2490874670529
 30
0.0
 10
412.3617626133357
 20
295.2861947561497
 30
0.0
 10
412.3718676380001
 20
295.2938805584478
 30
0.0
 10
412.3917577896556
 20
295.3097889659568
 30
0.0
 10
412.4015639199618
 20
295.318031597749
 30
0.0
 10
412.4302099782071
 20
295.3433259256474
 30
0.0
 10
412.4483539767573
 20
295.3609948806258
 30
0.0
 10
412.5000071822834
 20
295.4163511902345
 30
0.0
 10
412.5307649660935
 20
295.4563648509953
 30
0.0
 10
412.5644680659274
 20
295.5103930505977
 30
0.0
 10
412.5709789731601
 20
295.5214215851462
 30
0.0
 10
412.5833807396798
 20
295.5436525649171
 30
0.0
 10
412.6011027985086
 20
295.5773349960718
 30
0.0
 10
412.6263157407236
 20
295.6351219984245
 30
0.0
 10
412.6419128247038
 20
295.6830963860901
 30
0.0
 10
412.6518582761531
 20
295.7197457347058
 30
0.0
 10
412.6548808268556
 20
295.732073816394
 30
0.0
 10
412.6603275362871
 20
295.7569582772152
 30
0.0
 10
412.6627533785494
 20
295.7695329754278
 30
0.0
 10
412.6732560661706
 20
295.832405000806
 30
0.0
 10
412.6766078820791
 20
295.8831053127171
 30
0.0
 10
412.6747768497409
 20
295.9342188823294
 30
0.0
  0
SPLINE
  5
1EC
330
1F
100
AcDbEntity
  8
1
100
AcDbSpline
210
0.0
220
0.0
230
1.0
 70
     8
 71
     3
 72
     8
 73
     4
 74
     0
 42
0.000000001
 43
0.0000000001
 40
0.0
 40
0.0
 40
0.0
 40
0.0
 40
1.0
 40
1.0
 40
1.0
 40
1.0
 10
412.7311931720171
 20
287.8674807728481
 30
0.0
 10
412.7276505834055
 20
287.8892200467837
 30
0.0
 10
412.722340263689
 20
287.9105185758535
 30
0.0
 10
412.7152622128678
 20
287.9313763600573
 30
0.0
  0
SPLINE
  5
1ED
330
1F
100
AcDbEntity
  8
1
100
AcDbSpline
210
0.0
220
0.0
230
1.0
 70
     8
 71
     3
 72
     8
 73
     4
 74
     0
 42
0.000000001
 43
0.0000000001
 40
0.0
 40
0.0
 40
0.0
 40
0.0
 40
1.0
 40
1.0
 40
1.0
 40
1.0
 10
412.5894505876547
 20
280.7236331788933
 30
0.0
 10
412.5972522528896
 20
280.7442312366872
 30
0.0
 10
412.6033026456479
 20
280.7653314637832
 30
0.0
 10
412.6076017659293
 20
280.7869338601809
 30
0.0
  0
SPLINE
  5
1EE
330
1F
100
AcDbEntity
  8
1
100
AcDbSpline
210
0.0
220
0.0
230
1.0
 70
     8
 71
     3
 72
     8
 73
     4
 74
     0
 42
0.000000001
 43
0.0000000001
 40
0.0
 40
0.0
 40
0.0
 40
0.0
 40
1.0
 40
1.0
 40
1.0
 40
1.0
 10
412.0081269389876
 20
279.7892402055163
 30
0.0
 10
412.0251824081698
 20
279.803177814217
 30
0.0
 10
412.0409723155494
 20
279.8184259505285
 30
0.0
 10
412.0554966611258
 20
279.8349846144508
 30
0.0
  0
SPLINE
  5
1EF
330
1F
100
AcDbEntity
  8
1
100
AcDbSpline
210
0.0
220
0.0
230
1.0
 70
     8
 71
     3
 72
     8
 73
     4
 74
     0
 42
0.000000001
 43
0.0000000001
 40
0.0
 40
0.0
 40
0.0
 40
0.0
 40
1.0
 40
1.0
 40
1.0
 40
1.0
 10
412.2126469442886
 20
288.8381183071029
 30
0.0
 10
412.1987093355878
 20
288.8551737762852
 30
0.0
 10
412.1834611992762
 20
288.8709636836646
 30
0.0
 10
412.1669025353539
 20
288.8854880292411
 30
0.0
  0
SPLINE
  5
1F0
330
1F
100
AcDbEntity
  8
1
100
AcDbSpline
210
0.0
220
0.0
230
1.0
 70
     8
 71
     3
 72
    20
 73
    16
 74
     0
 42
0.000000001
 43
0.0000000001
 40
0.0
 40
0.0
 40
0.0
 40
0.0
 40
0.2500000000000029
 40
0.2500000000000029
 40
0.5000000000000058
 40
0.5000000000000058
 40
0.6250000000000072
 40
0.6250000000000072
 40
0.656250000000007
 40
0.656250000000007
 40
0.6875000000000066
 40
0.6875000000000066
 40
0.7500000000000059
 40
0.7500000000000059
 40
1.0
 40
1.0
 40
1.0
 40
1.0
 10
299.533960336299
 20
270.4191529882209
 30
0.0
 10
299.7951985234187
 20
270.4144204606116
 30
0.0
 10
300.0617654176068
 20
270.4117205062302
 30
0.0
 10
300.6057529942091
 20
270.4085417356288
 30
0.0
 10
300.8831720528938
 20
270.4080638927339
 30
0.0
 10
301.3078302808984
 20
270.4079690719671
 30
0.0
 10
301.4508073017917
 20
270.4080445213395
 30
0.0
 10
301.6313724115755
 20
270.408190099559
 30
0.0
 10
301.6675776916739
 20
270.4082218500543
 30
0.0
 10
301.740174630388
 20
270.4082888480234
 30
0.0
 10
301.7765976701389
 20
270.4083241268179
 30
0.0
 10
301.8858985239646
 20
270.408432481184
 30
0.0
 10
301.9587495727807
 20
270.4085079159752
 30
0.0
 10
302.3229246507116
 20
270.4088723239991
 30
0.0
 10
302.6140087708717
 20
270.4090975188842
 30
0.0
 10
302.9048419452422
 20
270.4090975188843
 30
0.0
  0
SPLINE
  5
1F1
330
1F
100
AcDbEntity
  8
1
100
AcDbSpline
210
0.0
220
0.0
230
1.0
 70
     8
 71
     3
 72
     8
 73
     4
 74
     0
 42
0.000000001
 43
0.0000000001
 40
0.0
 40
0.0
 40
0.0
 40
0.0
 40
1.0
 40
1.0
 40
1.0
 40
1.0
 10
305.1813564941959
 20
270.4210206769981
 30
0.0
 10
304.4229850732837
 20
270.4147943775832
 30
0.0
 10
303.6641513470816
 20
270.410869350554
 30
0.0
 10
302.9048419452957
 20
270.4090975188844
 30
0.0
  0
SPLINE
  5
1F2
330
1F
100
AcDbEntity
  8
1
100
AcDbSpline
210
0.0
220
0.0
230
1.0
 70
     8
 71
     3
 72
     8
 73
     4
 74
     0
 42
0.000000001
 43
0.0000000001
 40
0.0
 40
0.0
 40
0.0
 40
0.0
 40
1.0
 40
1.0
 40
1.0
 40
1.0
 10
308.4788109849224
 20
270.4740140706239
 30
0.0
 10
307.3806295598156
 20
270.4492346682877
 30
0.0
 10
306.2813394522517
 20
270.431769205807
 30
0.0
 10
305.1813564941958
 20
270.4210206769981
 30
0.0
  0
SPLINE
  5
1F3
330
1F
100
AcDbEntity
  8
1
100
AcDbSpline
210
0.0
220
0.0
230
1.0
 70
     8
 71
     3
 72
   133
 73
   129
 74
     0
 42
0.000000001
 43
0.0000000001
 40
0.0
 40
0.0
 40
0.0
 40
0.0
 40
0.0156250000000016
 40
0.0156250000000016
 40
0.0234375000000024
 40
0.0234375000000024
 40
0.0312500000000033
 40
0.0312500000000033
 40
0.0625000000000041
 40
0.0625000000000041
 40
0.0703125000000044
 40
0.0703125000000044
 40
0.0781250000000048
 40
0.0937500000000053
 40
0.0937500000000053
 40
0.1093750000000058
 40
0.1093750000000058
 40
0.1250000000000064
 40
0.1250000000000064
 40
0.1406250000000069
 40
0.1406250000000069
 40
0.1562500000000074
 40
0.1718750000000079
 40
0.1718750000000079
 40
0.1875000000000085
 40
0.1875000000000085
 40
0.203125000000009
 40
0.203125000000009
 40
0.2109375000000088
 40
0.2109375000000088
 40
0.2187500000000086
 40
0.2187500000000086
 40
0.2500000000000082
 40
0.2500000000000082
 40
0.2578125000000079
 40
0.2578125000000079
 40
0.2656250000000075
 40
0.2812500000000067
 40
0.2812500000000067
 40
0.2890625000000062
 40
0.2890625000000062
 40
0.2968750000000056
 40
0.2968750000000056
 40
0.3125000000000048
 40
0.3125000000000048
 40
0.3437500000000033
 40
0.3437500000000033
 40
0.3593750000000026
 40
0.3593750000000026
 40
0.3750000000000019
 40
0.3750000000000019
 40
0.4062500000000001
 40
0.4062500000000001
 40
0.4374999999999984
 40
0.4374999999999984
 40
0.4531249999999977
 40
0.4531249999999977
 40
0.4687499999999973
 40
0.4843749999999968
 40
0.4843749999999968
 40
0.4921874999999964
 40
0.4921874999999964
 40
0.4999999999999961
 40
0.4999999999999961
 40
0.5312499999999949
 40
0.5312499999999949
 40
0.5390624999999952
 40
0.5390624999999952
 40
0.5468749999999955
 40
0.5624999999999955
 40
0.5624999999999955
 40
0.5703124999999948
 40
0.5703124999999948
 40
0.5781249999999943
 40
0.5781249999999943
 40
0.5937499999999925
 40
0.6093749999999908
 40
0.6093749999999908
 40
0.6171874999999907
 40
0.6171874999999907
 40
0.6249999999999904
 40
0.6406249999999881
 40
0.6406249999999881
 40
0.6484374999999878
 40
0.6484374999999878
 40
0.6562499999999875
 40
0.6562499999999875
 40
0.6874999999999849
 40
0.6874999999999849
 40
0.6953124999999848
 40
0.6953124999999848
 40
0.7031249999999845
 40
0.7187499999999851
 40
0.7187499999999851
 40
0.7343749999999859
 40
0.7343749999999859
 40
0.7499999999999867
 40
0.7656249999999875
 40
0.7656249999999875
 40
0.7812499999999881
 40
0.7812499999999881
 40
0.7968749999999889
 40
0.7968749999999889
 40
0.8124999999999896
 40
0.8124999999999896
 40
0.8281249999999904
 40
0.8281249999999904
 40
0.8437499999999911
 40
0.8437499999999911
 40
0.8749999999999932
 40
0.8749999999999932
 40
0.8828124999999936
 40
0.8828124999999936
 40
0.8906249999999943
 40
0.9062499999999952
 40
0.9062499999999952
 40
0.9140624999999957
 40
0.9140624999999957
 40
0.9218749999999962
 40
0.9218749999999962
 40
0.9374999999999969
 40
0.9531249999999978
 40
0.9531249999999978
 40
0.9687499999999984
 40
0.9687499999999984
 40
0.9843749999999992
 40
0.9843749999999992
 40
1.0
 40
1.0
 40
1.0
 40
1.0
 10
410.3407085880128
 20
283.1534935136933
 30
0.0
 10
410.3315683347955
 20
283.1071137292837
 30
0.0
 10
410.3225513380194
 20
283.0597363114255
 30
0.0
 10
410.309211060278
 20
282.9871710411151
 30
0.0
 10
410.3047951969348
 20
282.9627325472828
 30
0.0
 10
410.2960256381091
 20
282.9133523750654
 30
0.0
 10
410.2916695281713
 20
282.8883958854774
 30
0.0
 10
410.2701250766196
 20
282.7628124025329
 30
0.0
 10
410.2535831863995
 20
282.6594714754322
 30
0.0
 10
410.2337763353246
 20
282.5266884581599
 30
0.0
 10
410.2298598973213
 20
282.4999577848359
 30
0.0
 10
410.2221442613529
 20
282.4463376694445
 30
0.0
 10
410.2107354942983
 20
282.3655943028576
 30
0.0
 10
410.1998180976647
 20
282.2839164720004
 30
0.0
 10
410.1856992165966
 20
282.1741804003549
 30
0.0
 10
410.1788478419754
 20
282.1188006002176
 30
0.0
 10
410.1656775145393
 20
282.0079544943107
 30
0.0
 10
410.1593502206835
 20
281.9524308620917
 30
0.0
 10
410.1472089809146
 20
281.8411833720106
 30
0.0
 10
410.1413931960482
 20
281.7854410326758
 30
0.0
 10
410.1302872073254
 20
281.6738299807811
 30
0.0
 10
410.1197623910015
 20
281.5626549437661
 30
0.0
 10
410.1103869112864
 20
281.4523421773345
 30
0.0
 10
410.1015875400736
 20
281.3424616266789
 30
0.0
 10
410.0974752331215
 20
281.2877109683442
 30
0.0
 10
410.0898882291517
 20
281.1794595745836
 30
0.0
 10
410.0864048834255
 20
281.1258563187766
 30
0.0
 10
410.0816432949196
 20
281.046232057425
 30
0.0
 10
410.08013340325
 20
281.0198208521299
 30
0.0
 10
410.0772687232245
 20
280.9672597044982
 30
0.0
 10
410.0759128828931
 20
280.9410869627246
 30
0.0
 10
410.069543530611
 20
280.8112920667472
 30
0.0
 10
410.0657428227702
 20
280.7106970284846
 30
0.0
 10
410.0626003381973
 20
280.5889791300111
 30
0.0
 10
410.0620525754461
 20
280.5648287280284
 30
0.0
 10
410.0611224645736
 20
280.517106319629
 30
0.0
 10
410.0599736943591
 20
280.4463268637716
 30
0.0
 10
410.0595586541389
 20
280.3779420640573
 30
0.0
 10
410.0596317389103
 20
280.3111503456122
 30
0.0
 10
410.0597375234291
 20
280.2891521774283
 30
0.0
 10
410.0601126043943
 20
280.2456894908303
 30
0.0
 10
410.0603819759778
 20
280.2242451847076
 30
0.0
 10
410.0614292447694
 20
280.1610501026884
 30
0.0
 10
410.0624468137484
 20
280.1203253493248
 30
0.0
 10
410.0664351227284
 20
280.0022676979915
 30
0.0
 10
410.0703374574428
 20
279.9290337766944
 30
0.0
 10
410.078042301036
 20
279.8273287178272
 30
0.0
 10
410.0809201494113
 20
279.7947891138074
 30
0.0
 10
410.0873050792684
 20
279.7324785043738
 30
0.0
 10
410.0908221270396
 20
279.7026463814937
 30
0.0
 10
410.1022268128093
 20
279.6182300211707
 30
0.0
 10
410.1109795547077
 20
279.5684683199416
 30
0.0
 10
410.1307897481786
 20
279.4820076855468
 30
0.0
 10
410.141749940386
 20
279.4457437227894
 30
0.0
 10
410.1597383653257
 20
279.4017909504479
 30
0.0
 10
410.1660067720507
 20
279.3888661888772
 30
0.0
 10
410.1789721953604
 20
279.3667014711918
 30
0.0
 10
410.1923795287166
 20
279.3481717309792
 30
0.0
 10
410.2066634512743
 20
279.3368524672646
 30
0.0
 10
410.2177067922306
 20
279.3310807514464
 30
0.0
 10
410.2214430178628
 20
279.3296101755519
 30
0.0
 10
410.2290265302541
 20
279.3275825687188
 30
0.0
 10
410.232877439516
 20
279.3270260294975
 30
0.0
 10
410.2523394396496
 20
279.3265483143503
 30
0.0
 10
410.2686050532141
 20
279.3334877542238
 30
0.0
 10
410.2898093399276
 20
279.3513377684871
 30
0.0
 10
410.2940976238448
 20
279.3553726842782
 30
0.0
 10
410.3027344901429
 20
279.3643414038749
 30
0.0
 10
410.3157861800566
 20
279.3791462984551
 30
0.0
 10
410.3291254998328
 20
279.397985019508
 30
0.0
 10
410.3426569362783
 20
279.4195180550489
 30
0.0
 10
410.3471994612387
 20
279.4271451604334
 30
0.0
 10
410.3563489921182
 20
279.4433036757671
 30
0.0
 10
410.3609600081856
 20
279.4518432397559
 30
0.0
 10
410.3748459657869
 20
279.4787422852585
 30
0.0
 10
410.3935168573259
 20
279.5180402786968
 30
0.0
 10
410.4124989907945
 20
279.5641744589407
 30
0.0
 10
410.4268533958098
 20
279.6013625874013
 30
0.0
 10
410.4316618922917
 20
279.6142017742276
 30
0.0
 10
410.4412866757166
 20
279.6406625043166
 30
0.0
 10
410.4557427262693
 20
279.6815444034778
 30
0.0
 10
410.4702551256734
 20
279.725981214552
 30
0.0
 10
410.4848051996006
 20
279.7727948196028
 30
0.0
 10
410.4896615086154
 20
279.7887958203966
 30
0.0
 10
410.4993867785952
 20
279.8215960027073
 30
0.0
 10
410.5042592079674
 20
279.8384079488015
 30
0.0
 10
410.5285676041726
 20
279.9241755937975
 30
0.0
 10
410.5478972116547
 20
279.9984058454364
 30
0.0
 10
410.5719118464961
 20
280.0982611939829
 30
0.0
 10
410.576709138022
 20
280.1185955487434
 30
0.0
 10
410.586253077916
 20
280.1598240775903
 30
0.0
 10
410.6005060129001
 20
280.2225601817066
 30
0.0
 10
410.6145708995968
 20
280.2879637881123
 30
0.0
 10
410.6331563349863
 20
280.3775481193449
 30
0.0
 10
410.6423822762367
 20
280.4236208536146
 30
0.0
 10
410.6605544313921
 20
280.5176138471481
 30
0.0
 10
410.6784535172791
 20
280.61347157166
 30
0.0
 10
410.6958081189482
 20
280.7130474611379
 30
0.0
 10
410.7128875425862
 20
280.8145024818754
 30
0.0
 10
410.7212520340658
 20
280.8659483857182
 30
0.0
 10
410.7375999445975
 20
280.9700611722247
 30
0.0
 10
410.7455888853327
 20
281.0227608003225
 30
0.0
 10
410.7611952539701
 20
281.1294516847975
 30
0.0
 10
410.7688216559986
 20
281.1835152792387
 30
0.0
 10
410.7835903821941
 20
281.2921528769406
 30
0.0
 10
410.7907454852893
 20
281.3468092728549
 30
0.0
 10
410.8045984384136
 20
281.4567953931765
 30
0.0
 10
410.8113030736901
 20
281.5121838090349
 30
0.0
 10
410.8306787727668
 20
281.6789833404333
 30
0.0
 10
410.8425290433888
 20
281.7902650076534
 30
0.0
 10
410.8560152488596
 20
281.9294690325526
 30
0.0
 10
410.8586481684324
 20
281.9573405505483
 30
0.0
 10
410.8637638179914
 20
282.0129177720852
 30
0.0
 10
410.8712148611123
 20
282.0960611339436
 30
0.0
 10
410.8780036859021
 20
282.1785421606763
 30
0.0
 10
410.8843520849888
 20
282.2605826840293
 30
0.0
 10
410.8863947508835
 20
282.2878560450554
 30
0.0
 10
410.8903325588706
 20
282.342255217287
 30
0.0
 10
410.8922284315077
 20
282.3693937416994
 30
0.0
 10
410.8976738507161
 20
282.4502890623094
 30
0.0
 10
410.9043032809278
 20
282.5569512297209
 30
0.0
 10
410.9096812530096
 20
282.6612373805988
 30
0.0
 10
410.9144303023608
 20
282.7643294597205
 30
0.0
 10
410.9164825141108
 20
282.8151235357432
 30
0.0
 10
410.9199335643855
 20
282.9148438689755
 30
0.0
 10
410.921335214588
 20
282.9638302144939
 30
0.0
 10
410.9234913544766
 20
283.0600568534217
 30
0.0
 10
410.924245769066
 20
283.10736765306
 30
0.0
 10
410.9246711566702
 20
283.1534935136933
 30
0.0
  0
SPLINE
  5
1F4
330
1F
100
AcDbEntity
  8
1
100
AcDbSpline
210
0.0
220
0.0
230
1.0
 70
     8
 71
     3
 72
    22
 73
    18
 74
     0
 42
0.000000001
 43
0.0000000001
 40
0.0
 40
0.0
 40
0.0
 40
0.0
 40
0.125
 40
0.125
 40
0.25
 40
0.25
 40
0.375
 40
0.375
 40
0.5000000000000001
 40
0.5000000000000001
 40
0.6250000000000001
 40
0.6250000000000001
 40
0.75
 40
0.75
 40
0.875
 40
0.875
 40
1.0
 40
1.0
 40
1.0
 40
1.0
 10
287.9926239639546
 20
270.9315636593885
 30
0.0
 10
288.4578615893718
 20
270.8829362661461
 30
0.0
 10
288.9265292987556
 20
270.8401978603093
 30
0.0
 10
289.8694410315064
 20
270.7637635767107
 30
0.0
 10
290.3436843782003
 20
270.7300716760265
 30
0.0
 10
291.2964516851475
 20
270.6696520807653
 30
0.0
 10
291.774971503538
 20
270.6429262080881
 30
0.0
 10
292.7350498256642
 20
270.5949215795095
 30
0.0
 10
293.2166008745663
 20
270.5736444444524
 30
0.0
 10
294.1817298501146
 20
270.5355379611947
 30
0.0
 10
294.6652994694348
 20
270.5187123064814
 30
0.0
 10
295.6339326779465
 20
270.4889561993673
 30
0.0
 10
296.118991686068
 20
270.4760327422406
 30
0.0
 10
297.090761466865
 20
270.453817318301
 30
0.0
 10
297.5774747571021
 20
270.4445339407027
 30
0.0
 10
298.5534419345461
 20
270.4293801889829
 30
0.0
 10
299.0427041504712
 20
270.4235159669311
 30
0.0
 10
299.5339603362988
 20
270.4191529882209
 30
0.0
  0
SPLINE
  5
1F5
330
1F
100
AcDbEntity
  8
1
100
AcDbSpline
210
0.0
220
0.0
230
1.0
 70
     8
 71
     3
 72
    56
 73
    52
 74
     0
 42
0.000000001
 43
0.0000000001
 40
0.0
 40
0.0
 40
0.0
 40
0.0
 40
0.0312499999999994
 40
0.0312499999999994
 40
0.0624999999999988
 40
0.0624999999999988
 40
0.1249999999999986
 40
0.1249999999999986
 40
0.1562499999999994
 40
0.1562499999999994
 40
0.1875000000000001
 40
0.1875000000000001
 40
0.2187500000000009
 40
0.2187500000000009
 40
0.2500000000000017
 40
0.2812500000000024
 40
0.2812500000000024
 40
0.3125000000000032
 40
0.3125000000000032
 40
0.3750000000000057
 40
0.3750000000000057
 40
0.406250000000007
 40
0.406250000000007
 40
0.4375000000000082
 40
0.4375000000000082
 40
0.4687500000000095
 40
0.4687500000000095
 40
0.5000000000000106
 40
0.5312500000000117
 40
0.5312500000000117
 40
0.5625000000000129
 40
0.5625000000000129
 40
0.6250000000000119
 40
0.6250000000000119
 40
0.6875000000000109
 40
0.6875000000000109
 40
0.7500000000000098
 40
0.7500000000000098
 40
0.7812500000000097
 40
0.7812500000000097
 40
0.7968750000000091
 40
0.7968750000000091
 40
0.8125000000000085
 40
0.8125000000000085
 40
0.8750000000000063
 40
0.8750000000000063
 40
0.9375000000000044
 40
0.9375000000000044
 40
0.9687500000000021
 40
0.9687500000000021
 40
1.0
 40
1.0
 40
1.0
 40
1.0
 10
410.9246711566702
 20
283.1534935136933
 30
0.0
 10
410.9206133343112
 20
283.1961075813443
 30
0.0
 10
410.9163797363426
 20
283.2378088817458
 30
0.0
 10
410.9075614547784
 20
283.3193883657805
 30
0.0
 10
410.9029694206547
 20
283.3593251211452
 30
0.0
 10
410.8887200233223
 20
283.4759035194569
 30
0.0
 10
410.8786067409055
 20
283.5492326940239
 30
0.0
 10
410.8625192259556
 20
283.6526628135975
 30
0.0
 10
410.8570021515792
 20
283.6860413666656
 30
0.0
 10
410.8457301901858
 20
283.7501837473009
 30
0.0
 10
410.8399669972828
 20
283.7810032785034
 30
0.0
 10
410.8281866312595
 20
283.8401433931795
 30
0.0
 10
410.8221671268553
 20
283.868474236329
 30
0.0
 10
410.8098813689935
 20
283.9225707692707
 30
0.0
 10
410.7973974464337
 20
283.9738910515645
 30
0.0
 10
410.7845201646471
 20
284.0197004440781
 30
0.0
 10
410.7714454700755
 20
284.0627441201082
 30
0.0
 10
410.7647995194028
 20
284.0829077233533
 30
0.0
 10
410.7446739244744
 20
284.1388910564186
 30
0.0
 10
410.7309875197312
 20
284.1703061311298
 30
0.0
 10
410.7100510773092
 20
284.2085061060182
 30
0.0
 10
410.7030166456759
 20
284.2197209375212
 30
0.0
 10
410.6888967421634
 20
284.2390275443885
 30
0.0
 10
410.6818024331245
 20
284.2471359382066
 30
0.0
 10
410.6675448924913
 20
284.2602535541083
 30
0.0
 10
410.6603716396182
 20
284.2652669514661
 30
0.0
 10
410.6460043073163
 20
284.2721288631828
 30
0.0
 10
410.6316373639468
 20
284.2758258172963
 30
0.0
 10
410.6172711957881
 20
284.2732144589409
 30
0.0
 10
410.6029054183401
 20
284.2674236737104
 30
0.0
 10
410.5957181693618
 20
284.2629291130342
 30
0.0
 10
410.5742975830016
 20
284.2447358164091
 30
0.0
 10
410.5601594727152
 20
284.2263376438131
 30
0.0
 10
410.5321717858865
 20
284.1768276419494
 30
0.0
 10
410.5185298617012
 20
284.1460800766799
 30
0.0
 10
410.4919505302623
 20
284.0730205400263
 30
0.0
 10
410.4790092745873
 20
284.0307008546285
 30
0.0
 10
410.4601270564104
 20
283.9584192887549
 30
0.0
 10
410.4539215056441
 20
283.9328543656473
 30
0.0
 10
410.4447491924122
 20
283.8922467031108
 30
0.0
 10
410.4417105185355
 20
283.8783148675275
 30
0.0
 10
410.4357010877313
 20
283.8497893691122
 30
0.0
 10
410.4327313275791
 20
283.835202041992
 30
0.0
 10
410.4180565301316
 20
283.7606496939583
 30
0.0
 10
410.4068714700935
 20
283.6958564102571
 30
0.0
 10
410.3856236497483
 20
283.5558486985637
 30
0.0
 10
410.3756720023335
 20
283.4813647988461
 30
0.0
 10
410.3617514721266
 20
283.3629844129914
 30
0.0
 10
410.3572721599575
 20
283.3223363562188
 30
0.0
 10
410.3487029598146
 20
283.2392641245915
 30
0.0
 10
410.3446103105093
 20
283.1968269467887
 30
0.0
 10
410.3407085880128
 20
283.1534935136933
 30
0.0
  0
SPLINE
  5
1F6
330
1F
100
AcDbEntity
  8
1
100
AcDbSpline
210
0.0
220
0.0
230
1.0
 70
     8
 71
     3
 72
     8
 73
     4
 74
     0
 42
0.000000001
 43
0.0000000001
 40
0.0
 40
0.0
 40
0.0
 40
0.0
 40
1.0
 40
1.0
 40
1.0
 40
1.0
 10
394.4719201342982
 20
295.5506278078329
 30
0.0
 10
394.5156723873355
 20
295.517031474672
 30
0.0
 10
394.559242301232
 20
295.4834888451105
 30
0.0
 10
394.6026271169667
 20
295.4500007317514
 30
0.0
  0
SPLINE
  5
1F7
330
1F
100
AcDbEntity
  8
1
100
AcDbSpline
210
0.0
220
0.0
230
1.0
 70
     8
 71
     3
 72
     8
 73
     4
 74
     0
 42
0.000000001
 43
0.0000000001
 40
0.0
 40
0.0
 40
0.0
 40
0.0
 40
1.0
 40
1.0
 40
1.0
 40
1.0
 10
394.4719201342988
 20
295.5506278078335
 30
0.0
 10
394.1842006939286
 20
295.7281479715967
 30
0.0
 10
393.8927404002626
 20
295.9073589058231
 30
0.0
 10
393.5978370599328
 20
296.0881260094952
 30
0.0
  0
SPLINE
  5
1F8
330
1F
100
AcDbEntity
  8
1
100
AcDbSpline
210
0.0
220
0.0
230
1.0
 70
     8
 71
     3
 72
    42
 73
    38
 74
     0
 42
0.000000001
 43
0.0000000001
 40
0.0
 40
0.0
 40
0.0
 40
0.0
 40
0.1249999999999988
 40
0.1249999999999988
 40
0.2499999999999977
 40
0.2499999999999977
 40
0.3749999999999965
 40
0.3749999999999965
 40
0.4374999999999968
 40
0.4374999999999968
 40
0.4999999999999969
 40
0.4999999999999969
 40
0.5624999999999972
 40
0.5624999999999972
 40
0.6249999999999973
 40
0.6249999999999973
 40
0.6562499999999976
 40
0.6562499999999976
 40
0.6874999999999978
 40
0.6874999999999978
 40
0.7499999999999963
 40
0.7499999999999963
 40
0.7812499999999925
 40
0.7812499999999925
 40
0.7968749999999872
 40
0.7968749999999872
 40
0.8124999999999818
 40
0.8437499999999856
 40
0.8593749999999857
 40
0.8593749999999857
 40
0.8749999999999859
 40
0.8749999999999859
 40
0.9062499999999895
 40
0.9062499999999895
 40
0.9374999999999927
 40
0.9374999999999927
 40
1.0
 40
1.0
 40
1.0
 40
1.0
 10
393.5978370599375
 20
296.0881260094926
 30
0.0
 10
393.5620777134364
 20
296.1100454407509
 30
0.0
 10
393.5273913949097
 20
296.1330207418071
 30
0.0
 10
393.4604132236693
 20
296.1813406669952
 30
0.0
 10
393.4281169027838
 20
296.2066809199889
 30
0.0
 10
393.3663828038504
 20
296.2601982733883
 30
0.0
 10
393.3369326315075
 20
296.2883632943512
 30
0.0
 10
393.2955820975629
 20
296.3334134927471
 30
0.0
 10
393.2822735545672
 20
296.3489014137483
 30
0.0
 10
393.2568159289389
 20
296.3810257053538
 30
0.0
 10
393.2447080704043
 20
296.3976200055789
 30
0.0
 10
393.2223166486329
 20
296.4316691722149
 30
0.0
 10
393.2119871290444
 20
296.4491739176165
 30
0.0
 10
393.1935267607375
 20
296.4853970239791
 30
0.0
 10
393.1853864004296
 20
296.5041102669866
 30
0.0
 10
393.1754328079838
 20
296.5334194129927
 30
0.0
 10
393.1725126118036
 20
296.5433563322648
 30
0.0
 10
393.1676486338074
 20
296.5634277744238
 30
0.0
 10
393.1656953856181
 20
296.5735873149358
 30
0.0
 10
393.1615249294475
 20
296.6045004060812
 30
0.0
 10
393.1610240558292
 20
296.6258911195901
 30
0.0
 10
393.1649616088924
 20
296.6576394313725
 30
0.0
 10
393.1670454061634
 20
296.6682077915976
 30
0.0
 10
393.1715074179914
 20
296.6840335248359
 30
0.0
 10
393.1732286788427
 20
296.6893305363343
 30
0.0
 10
393.1770930232418
 20
296.6997524678295
 30
0.0
 10
393.1835158161918
 20
296.7151337779139
 30
0.0
 10
393.1945753157408
 20
296.7346380555927
 30
0.0
 10
393.2047539862269
 20
296.7485059972208
 30
0.0
 10
393.211962724834
 20
296.7575803749609
 30
0.0
 10
393.2157902019479
 20
296.7620420715529
 30
0.0
 10
393.2276818956237
 20
296.7749321517022
 30
0.0
 10
393.2362133077545
 20
296.7829494757697
 30
0.0
 10
393.2543379365663
 20
296.7979698048118
 30
0.0
 10
393.2639849895515
 20
296.8050053833968
 30
0.0
 10
393.293943273516
 20
296.8244809819103
 30
0.0
 10
393.3151235886914
 20
296.8352748069639
 30
0.0
 10
393.3371729297719
 20
296.8444930333661
 30
0.0
  0
SPLINE
  5
1F9
330
1F
100
AcDbEntity
  8
1
100
AcDbSpline
210
0.0
220
0.0
230
1.0
 70
     8
 71
     3
 72
    40
 73
    36
 74
     0
 42
0.000000001
 43
0.0000000001
 40
0.0
 40
0.0
 40
0.0
 40
0.0
 40
0.0531236718424993
 40
0.0531236718424993
 40
0.1062473436849986
 40
0.1062473436849986
 40
0.1593710155274978
 40
0.1593710155274978
 40
0.2124946873699971
 40
0.2124946873699971
 40
0.3187420310549957
 40
0.3187420310549957
 40
0.3718657028974945
 40
0.3718657028974945
 40
0.4249893747399934
 40
0.4249893747399934
 40
0.4781130465824922
 40
0.4781130465824922
 40
0.531236718424991
 40
0.531236718424991
 40
0.5843603902674898
 40
0.5843603902674898
 40
0.6374840621099887
 40
0.6374840621099887
 40
0.6906077339524876
 40
0.6906077339524876
 40
0.7437314057949864
 40
0.7437314057949864
 40
0.7968550776374851
 40
0.7968550776374851
 40
0.8499787494799837
 40
0.8499787494799837
 40
0.9562260931649806
 40
0.9562260931649806
 40
1.0
 40
1.0
 40
1.0
 40
1.0
 10
314.0879308769867
 20
271.4601522039901
 30
0.0
 10
314.487763124985
 20
271.5292090435514
 30
0.0
 10
314.8870212557899
 20
271.6013213510765
 30
0.0
 10
315.6846626712766
 20
271.7511829603716
 30
0.0
 10
316.0830464754828
 20
271.8289320060664
 30
0.0
 10
316.8792701995126
 20
271.989329761129
 30
0.0
 10
317.2771108216897
 20
272.071977412828
 30
0.0
 10
318.0726176177089
 20
272.2411901791094
 30
0.0
 10
318.4702846098295
 20
272.3277534464927
 30
0.0
 10
319.6636011268856
 20
272.5915444542803
 30
0.0
 10
320.459585930773
 20
272.7728927004196
 30
0.0
 10
321.6563671928508
 20
273.0450801637068
 30
0.0
 10
322.0557577515446
 20
273.1358280086687
 30
0.0
 10
322.8557497818167
 20
273.3160299597082
 30
0.0
 10
323.2563516398339
 20
273.4054813788905
 30
0.0
 10
324.0589811091038
 20
273.5818744158327
 30
0.0
 10
324.4610088723547
 20
273.6688138703706
 30
0.0
 10
325.2666265501094
 20
273.8391615626017
 30
0.0
 10
325.6702164022395
 20
273.9225683198471
 30
0.0
 10
326.4790149780554
 20
274.0850790164372
 30
0.0
 10
326.8842234713698
 20
274.1641822013387
 30
0.0
 10
327.6962409624884
 20
274.3175975531525
 30
0.0
 10
328.1030496205036
 20
274.3919096341025
 30
0.0
 10
328.9181827723496
 20
274.535550279611
 30
0.0
 10
329.3265068745233
 20
274.6048793007621
 30
0.0
 10
330.1445311346578
 20
274.7386509327071
 30
0.0
 10
330.5542308962627
 20
274.8030943855944
 30
0.0
 10
331.374823575827
 20
274.9274614852429
 30
0.0
 10
331.7856460316936
 20
274.9873752275358
 30
0.0
 10
332.6078772126929
 20
275.1032388017283
 30
0.0
 10
333.0193317000877
 20
275.159196869492
 30
0.0
 10
334.2544613064891
 20
275.322386252339
 30
0.0
 10
335.0789017183564
 20
275.4248697944301
 30
0.0
 10
336.2434856965423
 20
275.5666440431168
 30
0.0
 10
336.5833498508127
 20
275.6076638530459
 30
0.0
 10
336.9232248540158
 20
275.6486907760548
 30
0.0
  0
SPLINE
  5
1FA
330
1F
100
AcDbEntity
  8
1
100
AcDbSpline
210
0.0
220
0.0
230
1.0
 70
    12
 71
     3
 72
     8
 73
     4
 74
     0
 42
0.000000001
 43
0.0000000001
 40
0.0
 40
0.0
 40
0.0
 40
0.0
 40
1.0
 40
1.0
 40
1.0
 40
1.0
 10
308.4788109849224
 20
270.4740140706239
 30
0.0
 41
1.002012887402667
 10
309.6845824980317
 20
270.7190517748904
 30
0.0
 41
1.002060542986723
 10
310.8759125675131
 20
270.9383928189963
 30
0.0
 41
1.002069911475448
 10
312.0547552329808
 20
271.1365948653074
 30
0.0
 41
1.002051610335531
  0
SPLINE
  5
1FB
330
1F
100
AcDbEntity
  8
1
100
AcDbSpline
210
0.0
220
0.0
230
1.0
 70
     8
 71
     3
 72
    26
 73
    22
 74
     0
 42
0.000000001
 43
0.0000000001
 40
0.0
 40
0.0
 40
0.0
 40
0.0
 40
0.125000000000002
 40
0.125000000000002
 40
0.2500000000000039
 40
0.2500000000000039
 40
0.3750000000000059
 40
0.3750000000000059
 40
0.5000000000000079
 40
0.5000000000000079
 40
0.6250000000000098
 40
0.6250000000000098
 40
0.656250000000009
 40
0.656250000000009
 40
0.6875000000000081
 40
0.6875000000000081
 40
0.7500000000000066
 40
0.7500000000000066
 40
0.8750000000000033
 40
0.8750000000000033
 40
1.0
 40
1.0
 40
1.0
 40
1.0
 10
394.7055398848631
 20
292.4420926520507
 30
0.0
 10
394.4549550784559
 20
292.5636545821623
 30
0.0
 10
394.2025306166743
 20
292.6886938129579
 30
0.0
 10
393.6946975230906
 20
292.9444129269243
 30
0.0
 10
393.4392858336744
 20
293.0750985895697
 30
0.0
 10
392.9259690045097
 20
293.3411830131229
 30
0.0
 10
392.668062139949
 20
293.4765850342553
 30
0.0
 10
392.1501199803734
 20
293.7514122173638
 30
0.0
 10
391.8900836456656
 20
293.8908393445583
 30
0.0
 10
391.3681612232236
 20
294.1731899861265
 30
0.0
 10
391.1062744757414
 20
294.3161147475502
 30
0.0
 10
390.7778954532759
 20
294.4966998061572
 30
0.0
 10
390.7121684917482
 20
294.5329135144626
 30
0.0
 10
390.5806151816741
 20
294.6055287915579
 30
0.0
 10
390.5147626468707
 20
294.6419448811848
 30
0.0
 10
390.3172806236835
 20
294.7513448724623
 30
0.0
 10
390.185749451428
 20
294.8244674873168
 30
0.0
 10
389.7915022453838
 20
295.044366076787
 30
0.0
 10
389.5291317047946
 20
295.1916715434003
 30
0.0
 10
389.0052061815071
 20
295.4875323749662
 30
0.0
 10
388.7436514264672
 20
295.6360880888208
 30
0.0
 10
388.482463341601
 20
295.7852057498368
 30
0.0
  0
SPLINE
  5
1FC
330
1F
100
AcDbEntity
  8
1
100
AcDbSpline
210
0.0
220
0.0
230
1.0
 70
     8
 71
     3
 72
    38
 73
    34
 74
     0
 42
0.000000001
 43
0.0000000001
 40
0.0
 40
0.0
 40
0.0
 40
0.0
 40
0.1039713248010143
 40
0.1039713248010143
 40
0.1679733730295119
 40
0.1679733730295119
 40
0.1999743971437613
 40
0.1999743971437613
 40
0.2319754212580106
 40
0.2319754212580106
 40
0.2959774694865097
 40
0.2959774694865097
 40
0.3599795177150086
 40
0.3599795177150086
 40
0.4239815659435078
 40
0.4239815659435078
 40
0.487983614172007
 40
0.487983614172007
 40
0.5519856624005062
 40
0.5519856624005062
 40
0.6159877106290051
 40
0.6159877106290051
 40
0.6799897588575043
 40
0.6799897588575043
 40
0.7439918070860033
 40
0.7439918070860033
 40
0.8079938553145025
 40
0.8079938553145025
 40
0.8719959035430015
 40
0.8719959035430015
 40
0.9359979517715006
 40
0.9359979517715006
 40
1.0
 40
1.0
 40
1.0
 40
1.0
 10
344.4677630357947
 20
274.1772279534389
 30
0.0
 10
343.2252306371423
 20
273.9495799725834
 30
0.0
 10
341.9808462662211
 20
273.7339420733838
 30
0.0
 10
339.9663310915784
 20
273.4060275516111
 30
0.0
 10
339.1977655472519
 20
273.2858926828145
 30
0.0
 10
338.0439254500844
 20
273.1117866206955
 30
0.0
 10
337.6591128952375
 20
273.0547659366016
 30
0.0
 10
336.8893806173592
 20
272.9426454668577
 30
0.0
 10
336.5045074990155
 20
272.8875523302804
 30
0.0
 10
335.3499476657461
 20
272.7250004920989
 30
0.0
 10
334.5803243447373
 20
272.6202570120705
 30
0.0
 10
333.0415815340182
 20
272.4174155939503
 30
0.0
 10
332.2724620221356
 20
272.3193203113404
 30
0.0
 10
330.7349408293446
 20
272.1295404958152
 30
0.0
 10
329.9665390438651
 20
272.0378585360687
 30
0.0
 10
328.4305458796993
 20
271.8609550291658
 30
0.0
 10
327.6629543816146
 20
271.7757359376909
 30
0.0
 10
326.1285565414885
 20
271.6120167718299
 30
0.0
 10
325.3617501048694
 20
271.5335190524306
 30
0.0
 10
323.8287826506038
 20
271.3836381200779
 30
0.0
 10
323.0626215786736
 20
271.3122572080507
 30
0.0
 10
321.5306929041275
 20
271.1770726234113
 30
0.0
 10
320.764925284735
 20
271.1132712499449
 30
0.0
 10
319.2334203944615
 20
270.9937069140317
 30
0.0
 10
318.4676831301864
 20
270.9379462828755
 30
0.0
 10
316.9357647487424
 20
270.8348536869276
 30
0.0
 10
316.1695836434828
 20
270.7875240787611
 30
0.0
 10
314.6361919501251
 20
270.7015424705682
 30
0.0
 10
313.8689813650601
 20
270.6628927851111
 30
0.0
 10
312.3328333825983
 20
270.5943082488237
 30
0.0
 10
311.5638959778834
 20
270.5643755262179
 30
0.0
 10
310.0234854037907
 20
270.5129831360246
 30
0.0
 10
309.2520122386087
 20
270.4915251779706
 30
0.0
 10
308.4788109849224
 20
270.4740140706239
 30
0.0
  0
SPLINE
  5
1FD
330
1F
100
AcDbEntity
  8
1
100
AcDbSpline
210
0.0
220
0.0
230
1.0
 70
     8
 71
     3
 72
    36
 73
    32
 74
     0
 42
0.000000001
 43
0.0000000001
 40
0.0
 40
0.0
 40
0.0
 40
0.0
 40
0.0625000000000207
 40
0.0625000000000207
 40
0.1250000000000415
 40
0.1250000000000415
 40
0.2500000000000823
 40
0.2500000000000823
 40
0.3750000000001231
 40
0.3750000000001231
 40
0.500000000000164
 40
0.500000000000164
 40
0.562500000000204
 40
0.562500000000204
 40
0.6250000000002439
 40
0.6250000000002439
 40
0.6562500000002438
 40
0.6562500000002438
 40
0.6875000000002438
 40
0.6875000000002438
 40
0.7500000000002033
 40
0.7500000000002033
 40
0.8125000000001628
 40
0.8125000000001628
 40
0.8750000000001223
 40
0.8750000000001223
 40
0.906250000000082
 40
0.906250000000082
 40
0.9375000000000412
 40
0.9375000000000412
 40
1.0
 40
1.0
 40
1.0
 40
1.0
 10
403.1385703493706
 20
294.4535479125759
 30
0.0
 10
403.1049980074921
 20
294.4280403164754
 30
0.0
 10
403.0710143832222
 20
294.4034959082328
 30
0.0
 10
403.0022022779134
 20
294.3562412390264
 30
0.0
 10
402.9673740130828
 20
294.3335313563932
 30
0.0
 10
402.8615919396482
 20
294.2680667068412
 30
0.0
 10
402.7893333555572
 20
294.2279612082017
 30
0.0
 10
402.6411954909134
 20
294.1546864922602
 30
0.0
 10
402.5665521675068
 20
294.1221183880835
 30
0.0
 10
402.415622446716
 20
294.0644272703203
 30
0.0
 10
402.339349702238
 20
294.0393062870091
 30
0.0
 10
402.223143657027
 20
294.0070662629274
 30
0.0
 10
402.1841056123212
 20
293.99723002131
 30
0.0
 10
402.1052533372791
 20
293.9794069299641
 30
0.0
 10
402.0654403404019
 20
293.9714193611907
 30
0.0
 10
402.0049448185562
 20
293.9608850701142
 30
0.0
 10
401.9846494622796
 20
293.9576152953254
 30
0.0
 10
401.9437548090411
 20
293.9515763096697
 30
0.0
 10
401.9231111242086
 20
293.9488018459944
 30
0.0
 10
401.8609573748853
 20
293.9413006648699
 30
0.0
 10
401.8195361265798
 20
293.937430075548
 30
0.0
 10
401.7367492336433
 20
293.931975478706
 30
0.0
 10
401.6953840466046
 20
293.9303922898677
 30
0.0
 10
401.6127118269261
 20
293.9295083872578
 30
0.0
 10
401.5714044025938
 20
293.9302068565815
 30
0.0
 10
401.5094680444867
 20
293.9329368051263
 30
0.0
 10
401.4887920261148
 20
293.9341296278826
 30
0.0
 10
401.4476201115718
 20
293.9370574386135
 30
0.0
 10
401.4271472513438
 20
293.9387894808108
 30
0.0
 10
401.3660058533611
 20
293.9447646214223
 30
0.0
 10
401.3256114891133
 20
293.9497846123081
 30
0.0
 10
401.2854531464568
 20
293.9558026505449
 30
0.0
  0
SPLINE
  5
1FE
330
1F
100
AcDbEntity
  8
1
100
AcDbSpline
210
0.0
220
0.0
230
1.0
 70
     8
 71
     3
 72
    27
 73
    23
 74
     0
 42
0.000000001
 43
0.0000000001
 40
0.0
 40
0.0
 40
0.0
 40
0.0
 40
0.1250000000000161
 40
0.2500000000000323
 40
0.3750000000000483
 40
0.4062500000000494
 40
0.4062500000000494
 40
0.4375000000000505
 40
0.4375000000000505
 40
0.5000000000000468
 40
0.5000000000000468
 40
0.6250000000000336
 40
0.6250000000000336
 40
0.6875000000000298
 40
0.6875000000000298
 40
0.7187500000000277
 40
0.7187500000000277
 40
0.750000000000026
 40
0.750000000000026
 40
0.8750000000000129
 40
0.8750000000000129
 40
1.0
 40
1.0
 40
1.0
 40
1.0
 10
401.2823956729575
 20
293.8613944402912
 30
0.0
 10
400.9907947639556
 20
293.8511508860269
 30
0.0
 10
400.4092526476008
 20
293.8507377390759
 30
0.0
 10
399.5418320264613
 20
293.9092564237067
 30
0.0
 10
398.8949254900597
 20
293.9973299562179
 30
0.0
 10
398.5368183722563
 20
294.0617607886458
 30
0.0
 10
398.3936791065559
 20
294.0887816419599
 30
0.0
 10
398.3221939064673
 20
294.1029103911437
 30
0.0
 10
398.1083894949307
 20
294.1470680328765
 30
0.0
 10
397.9665690587748
 20
294.1788960747855
 30
0.0
 10
397.5432421237205
 20
294.2814962824917
 30
0.0
 10
397.2638674014836
 20
294.3593764019377
 30
0.0
 10
396.8490649785012
 20
294.490355369071
 30
0.0
 10
396.7115080974369
 20
294.5363768678364
 30
0.0
 10
396.5062439174462
 20
294.6089625666929
 30
0.0
 10
396.4379686580647
 20
294.6337625559955
 30
0.0
 10
396.3019971714978
 20
294.684467177703
 30
0.0
 10
396.2342904826349
 20
294.7103747858843
 30
0.0
 10
395.8971467416677
 20
294.8426746790616
 30
0.0
 10
395.6318736590612
 20
294.9573434171904
 30
0.0
 10
395.1101518647438
 20
295.2041128313587
 30
0.0
 10
394.8537031273175
 20
295.3362140239857
 30
0.0
 10
394.6017023233114
 20
295.477030364375
 30
0.0
  0
SPLINE
  5
1FF
330
1F
100
AcDbEntity
  8
1
100
AcDbSpline
210
0.0
220
0.0
230
1.0
 70
     8
 71
     3
 72
     8
 73
     4
 74
     0
 42
0.000000001
 43
0.0000000001
 40
0.0
 40
0.0
 40
0.0
 40
0.0
 40
1.0
 40
1.0
 40
1.0
 40
1.0
 10
401.2823956729575
 20
293.8613944402912
 30
0.0
 10
401.285953277314
 20
293.861519414227
 30
0.0
 10
401.2895118830364
 20
293.8616439889718
 30
0.0
 10
401.2930714918051
 20
293.8617681638559
 30
0.0
  0
SPLINE
  5
200
330
1F
100
AcDbEntity
  8
1
100
AcDbSpline
210
0.0
220
0.0
230
1.0
 70
     8
 71
     3
 72
    27
 73
    23
 74
     0
 42
0.000000001
 43
0.0000000001
 40
0.0
 40
0.0
 40
0.0
 40
0.0
 40
0.1250000000000176
 40
0.1250000000000176
 40
0.2500000000000352
 40
0.2500000000000352
 40
0.3125000000000413
 40
0.3125000000000413
 40
0.3750000000000473
 40
0.3750000000000473
 40
0.5000000000000539
 40
0.5000000000000539
 40
0.5312500000000512
 40
0.5312500000000512
 40
0.5625000000000484
 40
0.5625000000000484
 40
0.6250000000000374
 40
0.6250000000000374
 40
0.7500000000000209
 40
0.8750000000000104
 40
0.8750000000000104
 40
1.0
 40
1.0
 40
1.0
 40
1.0
 10
394.7269155821558
 20
291.8173292343515
 30
0.0
 10
394.9762323661908
 20
291.6631759804585
 30
0.0
 10
395.2306620070428
 20
291.5185692734313
 30
0.0
 10
395.7496566840731
 20
291.2484634316076
 30
0.0
 10
396.0142213713447
 20
291.1229634552346
 30
0.0
 10
396.4187083216041
 20
290.9492391903336
 30
0.0
 10
396.5548845036797
 20
290.8937321019429
 30
0.0
 10
396.8286579384951
 20
290.7880412729178
 30
0.0
 10
396.9663859662487
 20
290.737797896031
 30
0.0
 10
397.3820787853571
 20
290.5948446385273
 30
0.0
 10
397.6625488757648
 20
290.5099015135501
 30
0.0
 10
398.0173136524456
 20
290.4167230062974
 30
0.0
 10
398.0884757352364
 20
290.3987381171684
 30
0.0
 10
398.2312192547819
 20
290.3640744771877
 30
0.0
 10
398.3028489278361
 20
290.347385220339
 30
0.0
 10
398.5179598686327
 20
290.2993752624419
 30
0.0
 10
398.6616244800899
 20
290.2701153870928
 30
0.0
 10
399.0933800488674
 20
290.1904749399975
 30
0.0
 10
399.6710832156473
 20
290.1059694712018
 30
0.0
 10
400.2527902752407
 20
290.0643090646655
 30
0.0
 10
400.836507634534
 20
290.0441758802172
 30
0.0
 10
401.1293713750653
 20
290.0448719622913
 30
0.0
 10
401.4232627296165
 20
290.0565719367617
 30
0.0
  0
SPLINE
  5
201
330
1F
100
AcDbEntity
  8
1
100
AcDbSpline
210
0.0
220
0.0
230
1.0
 70
     8
 71
     3
 72
    30
 73
    26
 74
     0
 42
0.000000001
 43
0.0000000001
 40
0.0
 40
0.0
 40
0.0
 40
0.0
 40
0.0625000000000013
 40
0.0625000000000013
 40
0.1250000000000026
 40
0.1250000000000026
 40
0.1875000000000039
 40
0.1875000000000039
 40
0.2500000000000052
 40
0.2500000000000052
 40
0.3749999999999966
 40
0.3749999999999966
 40
0.4374999999999952
 40
0.4374999999999952
 40
0.4687499999999942
 40
0.4687499999999942
 40
0.4999999999999933
 40
0.4999999999999933
 40
0.6249999999999949
 40
0.6249999999999949
 40
0.7499999999999966
 40
0.7499999999999966
 40
0.8749999999999984
 40
0.8749999999999984
 40
1.0
 40
1.0
 40
1.0
 40
1.0
 10
401.3829379410288
 20
291.2351745522063
 30
0.0
 10
401.2297699636001
 20
291.2273878843607
 30
0.0
 10
401.0780428633738
 20
291.2212881060632
 30
0.0
 10
400.776894592253
 20
291.21271406784
 30
0.0
 10
400.6274746116019
 20
291.2102397655009
 30
0.0
 10
400.3305138874298
 20
291.2091252725013
 30
0.0
 10
400.1829742319728
 20
291.2104847737002
 30
0.0
 10
399.889459369752
 20
291.2172087929411
 30
0.0
 10
399.7434850223823
 20
291.2225729606563
 30
0.0
 10
399.3075600300029
 20
291.244888677205
 30
0.0
 10
399.0195874820154
 20
291.2680666144952
 30
0.0
 10
398.5906891099285
 20
291.3160223523215
 30
0.0
 10
398.4482387850384
 20
291.3342045431079
 30
0.0
 10
398.2352640503287
 20
291.364861738992
 30
0.0
 10
398.1643894853875
 20
291.3756448006147
 30
0.0
 10
398.022864565468
 20
291.3983540403378
 30
0.0
 10
397.9522660745771
 20
291.4102729238425
 30
0.0
 10
397.6009801911341
 20
291.4725381326103
 30
0.0
 10
397.3245288152291
 20
291.5310264805407
 30
0.0
 10
396.7798311243511
 20
291.6653983358905
 30
0.0
 10
396.5115914156866
 20
291.7412800679122
 30
0.0
 10
395.9827695411443
 20
291.9106786411911
 30
0.0
 10
395.7221905829149
 20
292.0041937100312
 30
0.0
 10
395.2083822972338
 20
292.209351773222
 30
0.0
 10
394.9551439909404
 20
292.3210064723511
 30
0.0
 10
394.7055398848631
 20
292.4420926520503
 30
0.0
  0
SPLINE
  5
209
330
1F
100
AcDbEntity
  8
1
100
AcDbSpline
210
0.0
220
0.0
230
1.0
 70
     9
 71
     3
 72
   133
 73
   129
 74
     0
 42
0.000000001
 43
0.0000000001
 40
0.0
 40
0.0
 40
0.0
 40
0.0
 40
0.0312499999999192
 40
0.0312499999999192
 40
0.046874999999879
 40
0.046874999999879
 40
0.0624999999998389
 40
0.0624999999998389
 40
0.0937499999997582
 40
0.0937499999997582
 40
0.1093749999997204
 40
0.1093749999997204
 40
0.1249999999996826
 40
0.1249999999996826
 40
0.1562499999996135
 40
0.1562499999996135
 40
0.1640624999995963
 40
0.1640624999995963
 40
0.1718749999995791
 40
0.1718749999995791
 40
0.1874999999995525
 40
0.203124999999526
 40
0.203124999999526
 40
0.2109374999995171
 40
0.2109374999995171
 40
0.2187499999995083
 40
0.2187499999995083
 40
0.2499999999994903
 40
0.2499999999994903
 40
0.2656249999994858
 40
0.2656249999994858
 40
0.2734374999994791
 40
0.2734374999994791
 40
0.2812499999994725
 40
0.2812499999994725
 40
0.3124999999994634
 40
0.3124999999994634
 40
0.3203124999994653
 40
0.3203124999994653
 40
0.3281249999994671
 40
0.3281249999994671
 40
0.3437499999994706
 40
0.3593749999994742
 40
0.3593749999994742
 40
0.3671874999994794
 40
0.3671874999994794
 40
0.3749999999994845
 40
0.3749999999994845
 40
0.4062499999994936
 40
0.4062499999994936
 40
0.421874999999498
 40
0.421874999999498
 40
0.4296874999995002
 40
0.4296874999995002
 40
0.4374999999995026
 40
0.4374999999995026
 40
0.4687499999995088
 40
0.4687499999995088
 40
0.4765624999995114
 40
0.4765624999995114
 40
0.4843749999995138
 40
0.4843749999995138
 40
0.4999999999995188
 40
0.4999999999995188
 40
0.5312499999995289
 40
0.5312499999995289
 40
0.5390624999995329
 40
0.5390624999995329
 40
0.5468749999995369
 40
0.5468749999995369
 40
0.5624999999995446
 40
0.5781249999995524
 40
0.5781249999995524
 40
0.5859374999995584
 40
0.5859374999995584
 40
0.5937499999995644
 40
0.5937499999995644
 40
0.6249999999995728
 40
0.6249999999995728
 40
0.6406249999995771
 40
0.6406249999995771
 40
0.648437499999579
 40
0.648437499999579
 40
0.656249999999581
 40
0.656249999999581
 40
0.6874999999995966
 40
0.6874999999995966
 40
0.6953124999996046
 40
0.6953124999996046
 40
0.7031249999996126
 40
0.7031249999996126
 40
0.7187499999996286
 40
0.7187499999996286
 40
0.7499999999996693
 40
0.7499999999996693
 40
0.7578124999996773
 40
0.7578124999996773
 40
0.7656249999996853
 40
0.7656249999996853
 40
0.7812499999997012
 40
0.7968749999997171
 40
0.7968749999997171
 40
0.8046874999997292
 40
0.8046874999997292
 40
0.8124999999997413
 40
0.8124999999997413
 40
0.8437499999997818
 40
0.8437499999997818
 40
0.8515624999997919
 40
0.8515624999997919
 40
0.8593749999998022
 40
0.8593749999998022
 40
0.8749999999998225
 40
0.8749999999998225
 40
0.9062499999998564
 40
0.9062499999998564
 40
0.9140624999998687
 40
0.9140624999998687
 40
0.9218749999998809
 40
0.9218749999998809
 40
0.9374999999999056
 40
0.9531249999999303
 40
0.9531249999999303
 40
0.9609374999999428
 40
0.9609374999999428
 40
0.9687499999999554
 40
0.9687499999999554
 40
1.0
 40
1.0
 40
1.0
 40
1.0
 10
405.9691615337857
 20
284.6141862655651
 30
0.0
 10
405.9708110226808
 20
284.7086854210798
 30
0.0
 10
405.981590047759
 20
284.8017043285172
 30
0.0
 10
406.0110802544627
 20
284.9390541285504
 30
0.0
 10
406.0231461684676
 20
284.984471512963
 30
0.0
 10
406.0518772743424
 20
285.0745472306257
 30
0.0
 10
406.0686414205467
 20
285.1193882918946
 30
0.0
 10
406.1249380483889
 20
285.2499738135322
 30
0.0
 10
406.1705818891705
 20
285.3325826209478
 30
0.0
 10
406.2512041301296
 20
285.4497748934825
 30
0.0
 10
406.2801178890827
 20
285.4877112289194
 30
0.0
 10
406.3422005121415
 20
285.5612202594694
 30
0.0
 10
406.3748653570693
 20
285.596192083408
 30
0.0
 10
406.4774408848258
 20
285.6957495725392
 30
0.0
 10
406.5519504700981
 20
285.7551008842417
 30
0.0
 10
406.6529244186988
 20
285.8202602861547
 30
0.0
 10
406.6735396992048
 20
285.8328510176528
 30
0.0
 10
406.7154735750214
 20
285.8570363631871
 30
0.0
 10
406.7366614802096
 20
285.8685573269728
 30
0.0
 10
406.8008748267957
 20
285.901437967692
 30
0.0
 10
406.8882217997416
 20
285.9408009429244
 30
0.0
 10
406.978966092292
 20
285.9713526474066
 30
0.0
 10
407.0483133979087
 20
285.9909188938736
 30
0.0
 10
407.0716444057906
 20
285.9968820479766
 30
0.0
 10
407.118744363382
 20
286.0076705580964
 30
0.0
 10
407.1425825751419
 20
286.0125071854546
 30
0.0
 10
407.2619113733731
 20
286.0336086097842
 30
0.0
 10
407.3576065139247
 20
286.0407563068297
 30
0.0
 10
407.5014865582278
 20
286.0373234585232
 30
0.0
 10
407.5495032201329
 20
286.0338025067585
 30
0.0
 10
407.6216157319167
 20
286.0248501695854
 30
0.0
 10
407.6456940165239
 20
286.0212446907474
 30
0.0
 10
407.6933351632596
 20
286.0128860909224
 30
0.0
 10
407.7169647886907
 20
286.0081264040541
 30
0.0
 10
407.8341748075779
 20
285.9814776940504
 30
0.0
 10
407.9249685029546
 20
285.9511207989294
 30
0.0
 10
408.0347246638961
 20
285.9018498346651
 30
0.0
 10
408.0564873683971
 20
285.891424208346
 30
0.0
 10
408.0996281124469
 20
285.8694079390714
 30
0.0
 10
408.1208866397183
 20
285.8578762541183
 30
0.0
 10
408.1834605386343
 20
285.8218948855207
 30
0.0
 10
408.2639397075263
 20
285.7701052253045
 30
0.0
 10
408.3386564177346
 20
285.710888688035
 30
0.0
 10
408.3925233180705
 20
285.6636857669786
 30
0.0
 10
408.4101165364386
 20
285.6474855496813
 30
0.0
 10
408.4445685892154
 20
285.6141422408104
 30
0.0
 10
408.4614660385861
 20
285.5969573054036
 30
0.0
 10
408.5436098189454
 20
285.5091376764233
 30
0.0
 10
408.6012300910935
 20
285.4336580076008
 30
0.0
 10
408.6760664418031
 20
285.3130171820589
 30
0.0
 10
408.6990653058521
 20
285.2715573995504
 30
0.0
 10
408.7305865901379
 20
285.2074688372715
 30
0.0
 10
408.740617584195
 20
285.1857355443343
 30
0.0
 10
408.7594869168143
 20
285.142054604587
 30
0.0
 10
408.7683446357591
 20
285.1200741472514
 30
0.0
 10
408.8098091222914
 20
285.009489277428
 30
0.0
 10
408.8340211980018
 20
284.9188570204134
 30
0.0
 10
408.8532470817353
 20
284.8029305573821
 30
0.0
 10
408.8565354837108
 20
284.7796122260244
 30
0.0
 10
408.861983157809
 20
284.7327062255411
 30
0.0
 10
408.864140716303
 20
284.70909505751
 30
0.0
 10
408.8688535079996
 20
284.6385959034577
 30
0.0
 10
408.8696868329486
 20
284.5918024812702
 30
0.0
 10
408.8654750340993
 20
284.452022619399
 30
0.0
 10
408.8537805503882
 20
284.3596322613562
 30
0.0
 10
408.8278052606818
 20
284.2451479952938
 30
0.0
 10
408.8220274348683
 20
284.222278034532
 30
0.0
 10
408.8094426087796
 20
284.1771108855888
 30
0.0
 10
408.8026240219987
 20
284.1547558358247
 30
0.0
 10
408.7806152406572
 20
284.0883637675951
 30
0.0
 10
408.7471360375316
 20
284.0016328732657
 30
0.0
 10
408.7054775695683
 20
283.9184288738296
 30
0.0
 10
408.6711106412336
 20
283.8573640611846
 30
0.0
 10
408.6591335557853
 20
283.8372325381183
 30
0.0
 10
408.6341152942581
 20
283.7974238038758
 30
0.0
 10
408.6210384890517
 20
283.7776985608195
 30
0.0
 10
408.5535794090073
 20
283.6811505719845
 30
0.0
 10
408.4928116609129
 20
283.6100588555242
 30
0.0
 10
408.391565303027
 20
283.5124514938367
 30
0.0
 10
408.3561220490484
 20
283.4814315140846
 30
0.0
 10
408.3003139879891
 20
283.4372535888862
 30
0.0
 10
408.2812183034233
 20
283.422884135806
 30
0.0
 10
408.2423754328302
 20
283.3951362055608
 30
0.0
 10
408.2226730275084
 20
283.3817853015892
 30
0.0
 10
408.1227752650008
 20
283.3176053182569
 30
0.0
 10
408.0384630343997
 20
283.2744240278377
 30
0.0
 10
407.9274760686556
 20
283.2307710324397
 30
0.0
 10
407.9049962982546
 20
283.2225613880997
 30
0.0
 10
407.8594587558363
 20
283.2072069458481
 30
0.0
 10
407.8363387659926
 20
283.2000450427521
 30
0.0
 10
407.7665427387167
 20
283.1803311470039
 30
0.0
 10
407.7196923631751
 20
283.1696048137167
 30
0.0
 10
407.5782071732572
 20
283.144473196048
 30
0.0
 10
407.4826473217035
 20
283.1370454882594
 30
0.0
 10
407.3615979568254
 20
283.1398122188605
 30
0.0
 10
407.3372555874362
 20
283.1409805625053
 30
0.0
 10
407.2889682998036
 20
283.1445142510822
 30
0.0
 10
407.2649639402473
 20
283.1468783570124
 30
0.0
 10
407.193360386545
 20
283.1557274490538
 30
0.0
 10
407.098979089839
 20
283.1722023699354
 30
0.0
 10
407.0067389096179
 20
283.1978744812706
 30
0.0
 10
406.9383704716655
 20
283.2206225807436
 30
0.0
 10
406.9156970969878
 20
283.2287962703593
 30
0.0
 10
406.8707070594483
 20
283.2462997374516
 30
0.0
 10
406.848543071979
 20
283.2555689305169
 30
0.0
 10
406.739333687175
 20
283.3044365259834
 30
0.0
 10
406.6570728423802
 20
283.3515250756637
 30
0.0
 10
406.5604171165868
 20
283.4201206012395
 30
0.0
 10
406.5413973778848
 20
283.4343310414558
 30
0.0
 10
406.5039869541756
 20
283.4637465680314
 30
0.0
 10
406.4855742244278
 20
283.4789748487064
 30
0.0
 10
406.4318503856569
 20
283.5256753057913
 30
0.0
 10
406.3978605770525
 20
283.5583003558943
 30
0.0
 10
406.3011654622043
 20
283.6605070605394
 30
0.0
 10
406.243684299224
 20
283.7343790902309
 30
0.0
 10
406.1806757240946
 20
283.8340583691472
 30
0.0
 10
406.1685654310604
 20
283.8542975185849
 30
0.0
 10
406.1454611394214
 20
283.8951224293018
 30
0.0
 10
406.1344429769492
 20
283.9157460417742
 30
0.0
 10
406.1029631489123
 20
283.9782417460451
 30
0.0
 10
406.0651817202961
 20
284.0632328583433
 30
0.0
 10
406.0356803282713
 20
284.1515302227317
 30
0.0
 10
406.0167105992508
 20
284.2190197034737
 30
0.0
 10
406.0109143418627
 20
284.2417276309115
 30
0.0
 10
406.0003961907552
 20
284.2875753479169
 30
0.0
 10
405.9956888813341
 20
284.3106619804876
 30
0.0
 10
405.9750371812198
 20
284.4262124311218
 30
0.0
 10
405.9675120448906
 20
284.5196871100498
 30
0.0
 10
405.9691615337857
 20
284.614186265565
 30
0.0
  0
SPLINE
  5
20A
330
1F
100
AcDbEntity
  8
1
100
AcDbSpline
210
0.0
220
0.0
230
1.0
 70
     8
 71
     3
 72
    22
 73
    18
 74
     0
 42
0.000000001
 43
0.0000000001
 40
0.0
 40
0.0
 40
0.0
 40
0.0
 40
0.1250000000000376
 40
0.1250000000000376
 40
0.2500000000000753
 40
0.2500000000000753
 40
0.5000000000001501
 40
0.5000000000001501
 40
0.6250000000001874
 40
0.6250000000001874
 40
0.687500000000176
 40
0.687500000000176
 40
0.7500000000001648
 40
0.7500000000001648
 40
0.8750000000000824
 40
0.8750000000000824
 40
1.0
 40
1.0
 40
1.0
 40
1.0
 10
401.2854531464568
 20
293.9558026505449
 30
0.0
 10
401.2366412179029
 20
293.9631174955564
 30
0.0
 10
401.1883718826557
 20
293.9718551530723
 30
0.0
 10
401.0926865901188
 20
293.9920835892776
 30
0.0
 10
401.0452725626999
 20
294.003575125769
 30
0.0
 10
400.9040976282078
 20
294.0421441844545
 30
0.0
 10
400.8113977888195
 20
294.0732912711083
 30
0.0
 10
400.6739189510648
 20
294.1284883917751
 30
0.0
 10
400.6283572228731
 20
294.1483062747691
 30
0.0
 10
400.5603508283253
 20
294.1802658801582
 30
0.0
 10
400.5377380421228
 20
294.1912917062786
 30
0.0
 10
400.4926134247311
 20
294.2141128911413
 30
0.0
 10
400.4700569268921
 20
294.2259329212608
 30
0.0
 10
400.402896016416
 20
294.262385481404
 30
0.0
 10
400.358842645257
 20
294.2879781230758
 30
0.0
 10
400.2721357727905
 20
294.3417465833577
 30
0.0
 10
400.229482587871
 20
294.3699222914985
 30
0.0
 10
400.1875109502578
 20
294.3994081570961
 30
0.0
  0
SPLINE
  5
20B
330
1F
100
AcDbEntity
  8
1
100
AcDbSpline
210
0.0
220
0.0
230
1.0
 70
    12
 71
     2
 72
     6
 73
     3
 74
     0
 42
0.000000001
 43
0.0000000001
 40
0.0
 40
0.0
 40
0.0
 40
1.0
 40
1.0
 40
1.0
 10
399.3648559007162
 20
307.349572149902
 30
0.0
 41
0.4999908912562355
 10
399.4770381742345
 20
307.3494166789992
 30
0.0
 41
0.5000091087437646
 10
399.5892197348597
 20
307.3492607950114
 30
0.0
 41
0.4999908912562355
  0
SPLINE
  5
20C
330
1F
100
AcDbEntity
  8
1
100
AcDbSpline
210
0.0
220
0.0
230
1.0
 70
     8
 71
     3
 72
    10
 73
     6
 74
     0
 42
0.000000001
 43
0.0000000001
 40
0.0
 40
0.0
 40
0.0
 40
0.0
 40
0.5
 40
0.5
 40
1.0
 40
1.0
 40
1.0
 40
1.0
 10
397.7160502870388
 20
301.687704781531
 30
0.0
 10
397.6890473199618
 20
302.6273305361118
 30
0.0
 10
397.6654787863673
 20
303.5670434901409
 30
0.0
 10
397.6231059199948
 20
305.4465788043289
 30
0.0
 10
397.6043162651724
 20
306.3863931084303
 30
0.0
 10
397.5872559358847
 20
307.3262410693196
 30
0.0
  0
SPLINE
  5
20D
330
1F
100
AcDbEntity
  8
1
100
AcDbSpline
210
0.0
220
0.0
230
1.0
 70
    28
 71
     4
 72
    13
 73
     8
 74
     0
 42
0.000000001
 43
0.0000000001
 40
0.0
 40
0.0
 40
0.0
 40
0.0
 40
0.0
 40
0.3958607416657363
 40
0.3958607416657363
 40
0.3958607416657363
 40
1.0
 40
1.0
 40
1.0
 40
1.0
 40
1.0
 10
302.9048419452957
 20
282.6366199809454
 30
0.0
 41
0.9970039865930488
 10
302.9048419452957
 20
281.4882335509378
 30
0.0
 41
0.9970039865930488
 10
302.9048419452957
 20
280.2202175519414
 30
0.0
 41
0.9985019932965244
 10
302.9048419452957
 20
278.9105729151631
 30
0.0
 41
1.001498006703475
 10
302.9048419452957
 20
275.7533777518174
 30
0.0
 41
1.001498006703475
 10
302.9048419452957
 20
273.6797886550219
 30
0.0
 41
0.9945199739977244
 10
302.9048419452957
 20
271.8291923911784
 30
0.0
 41
0.9965380999865068
 10
302.9048419452957
 20
270.4090975188847
 30
0.0
 41
0.9991477096423611
  0
SPLINE
  5
20E
330
1F
100
AcDbEntity
  8
1
100
AcDbSpline
210
0.0
220
0.0
230
1.0
 70
     8
 71
     3
 72
    43
 73
    39
 74
     0
 42
0.000000001
 43
0.0000000001
 40
0.0
 40
0.0
 40
0.0
 40
0.0
 40
0.1249999999999998
 40
0.1249999999999998
 40
0.2499999999999997
 40
0.2499999999999997
 40
0.3749999999999995
 40
0.3749999999999995
 40
0.4374999999999994
 40
0.4374999999999994
 40
0.4999999999999993
 40
0.4999999999999993
 40
0.5156249999999987
 40
0.5156249999999987
 40
0.5312499999999981
 40
0.5624999999999965
 40
0.5624999999999965
 40
0.6249999999999937
 40
0.6249999999999937
 40
0.6874999999999908
 40
0.6874999999999908
 40
0.7031249999999929
 40
0.7031249999999929
 40
0.7187499999999952
 40
0.7187499999999952
 40
0.7499999999999972
 40
0.7499999999999972
 40
0.8124999999999984
 40
0.8124999999999984
 40
0.8749999999999996
 40
0.8749999999999996
 40
0.9062499999999996
 40
0.9062499999999996
 40
0.9218749999999996
 40
0.9218749999999996
 40
0.9374999999999996
 40
0.9374999999999996
 40
1.0
 40
1.0
 40
1.0
 40
1.0
 10
393.3371729297719
 20
296.8444930333661
 30
0.0
 10
393.6038882020923
 20
296.9559993934053
 30
0.0
 10
393.8659187001428
 20
297.075069988329
 30
0.0
 10
394.3791265311864
 20
297.3307351579889
 30
0.0
 10
394.6303133643584
 20
297.4673143933342
 30
0.0
 10
395.1198278547096
 20
297.7612358340259
 30
0.0
 10
395.3581751080457
 20
297.9185463985879
 30
0.0
 10
395.703841595155
 20
298.1736528501004
 30
0.0
 10
395.8170791088802
 20
298.2618928316675
 30
0.0
 10
396.0390553415743
 20
298.4456367392884
 30
0.0
 10
396.1477963501934
 20
298.541136968377
 30
0.0
 10
396.2804772751448
 20
298.6657523113601
 30
0.0
 10
396.3068753133822
 20
298.6909625130538
 30
0.0
 10
396.3591696228342
 20
298.7417700697136
 30
0.0
 10
396.4368773946759
 20
298.8185775443959
 30
0.0
 10
396.5123332831049
 20
298.8972147193737
 30
0.0
 10
396.6600886459149
 20
299.0570537188514
 30
0.0
 10
396.7543931117892
 20
299.1670249121236
 30
0.0
 10
396.9335893169099
 20
299.3946153272465
 30
0.0
 10
397.0184861636886
 20
299.5122303991248
 30
0.0
 10
397.1178686910554
 20
299.6647244302238
 30
0.0
 10
397.1374071456594
 20
299.6954979095338
 30
0.0
 10
397.175781438578
 20
299.7576157579365
 30
0.0
 10
397.194625800323
 20
299.7889773464078
 30
0.0
 10
397.2497720760316
 20
299.8834420652038
 30
0.0
 10
397.2847875244369
 20
299.9470817436701
 30
0.0
 10
397.3843963077186
 20
300.1400629475925
 30
0.0
 10
397.4435659325509
 20
300.2714613883113
 30
0.0
 10
397.5461213854542
 20
300.5402441967614
 30
0.0
 10
397.589513215538
 20
300.677626288259
 30
0.0
 10
397.6414010694487
 20
300.888705419094
 30
0.0
 10
397.6564924916087
 20
300.9599011861683
 30
0.0
 10
397.6756020327004
 20
301.0680326586899
 30
0.0
 10
397.6813836988615
 20
301.1043181247973
 30
0.0
 10
397.6916676281226
 20
301.1768520846259
 30
0.0
 10
397.6961813722891
 20
301.2131601715526
 30
0.0
 10
397.7155922132957
 20
301.3949072390682
 30
0.0
 10
397.7210295479592
 20
301.5409652102555
 30
0.0
 10
397.716050287039
 20
301.687704781531
 30
0.0
  0
SPLINE
  5
20F
330
1F
100
AcDbEntity
  8
1
100
AcDbSpline
210
0.0
220
0.0
230
1.0
 70
    12
 71
     3
 72
     9
 73
     5
 74
     0
 42
0.000000001
 43
0.0000000001
 40
0.0
 40
0.0
 40
0.0
 40
0.0
 40
0.4095149657517195
 40
1.0
 40
1.0
 40
1.0
 40
1.0
 10
363.521674743174
 20
301.3964488158816
 30
0.0
 41
1.001637126564849
 10
368.2096337570542
 20
301.4294968782075
 30
0.0
 41
1.001565709867521
 10
379.6834573558315
 20
301.0788879886808
 30
0.0
 41
1.001092880621617
 10
391.0917605714229
 20
300.7061204486429
 30
0.0
 41
1.00175386500988
 10
397.716050287039
 20
301.687704781531
 30
0.0
 41
1.001643315183065
  0
SPLINE
  5
210
330
1F
100
AcDbEntity
  8
1
100
AcDbSpline
210
0.0
220
0.0
230
1.0
 70
     8
 71
     3
 72
    30
 73
    26
 74
     0
 42
0.000000001
 43
0.0000000001
 40
0.0
 40
0.0
 40
0.0
 40
0.0
 40
0.1249999999999996
 40
0.1249999999999996
 40
0.2499999999999991
 40
0.2499999999999991
 40
0.3124999999999993
 40
0.3124999999999993
 40
0.3437499999999994
 40
0.3437499999999994
 40
0.3749999999999996
 40
0.3749999999999996
 40
0.4999999999999992
 40
0.4999999999999992
 40
0.624999999999999
 40
0.624999999999999
 40
0.6562499999999991
 40
0.6562499999999991
 40
0.6874999999999992
 40
0.6874999999999992
 40
0.7499999999999996
 40
0.7499999999999996
 40
0.8749999999999998
 40
0.8749999999999998
 40
1.0
 40
1.0
 40
1.0
 40
1.0
 10
276.9617548781449
 20
276.6858054501376
 30
0.0
 10
276.9120131272353
 20
276.4025160062821
 30
0.0
 10
276.8842743864573
 20
276.1251655196061
 30
0.0
 10
276.8702546233912
 20
275.5821300503888
 30
0.0
 10
276.8839846805205
 20
275.3164455806985
 30
0.0
 10
276.9349807924561
 20
274.9265962664332
 30
0.0
 10
276.9570577657977
 20
274.7980935810084
 30
0.0
 10
276.9978010108773
 20
274.6075085485998
 30
0.0
 10
277.012656143938
 20
274.5443336414772
 30
0.0
 10
277.0449116608181
 20
274.4187400144315
 30
0.0
 10
277.0622315609404
 20
274.3566328237684
 30
0.0
 10
277.1546435586228
 20
274.049449219239
 30
0.0
 10
277.2471140151436
 20
273.8144045937291
 30
0.0
 10
277.466372659034
 20
273.3637126627094
 30
0.0
 10
277.5931742967755
 20
273.1480722317091
 30
0.0
 10
277.7721995561246
 20
272.8897226350949
 30
0.0
 10
277.8090333410574
 20
272.8386137678411
 30
0.0
 10
277.8847446136552
 20
272.7374985974437
 30
0.0
 10
277.9236439352059
 20
272.6874653336017
 30
0.0
 10
278.04325115044
 20
272.5391661455481
 30
0.0
 10
278.1264814505107
 20
272.4431670150114
 30
0.0
 10
278.3861778193185
 20
272.1632056846148
 30
0.0
 10
278.5726244970692
 20
271.9872604848733
 30
0.0
 10
278.9703594544133
 20
271.6543152958587
 30
0.0
 10
279.1816554491013
 20
271.4973223134675
 30
0.0
 10
279.4048419452957
 20
271.3488532488633
 30
0.0
  0
SPLINE
  5
211
330
1F
100
AcDbEntity
  8
1
100
AcDbSpline
210
0.0
220
0.0
230
1.0
 70
     8
 71
     3
 72
    62
 73
    58
 74
     0
 42
0.000000001
 43
0.0000000001
 40
0.0
 40
0.0
 40
0.0
 40
0.0
 40
0.0625000000000016
 40
0.0625000000000016
 40
0.1250000000000031
 40
0.1250000000000031
 40
0.1875000000000047
 40
0.1875000000000047
 40
0.2187500000000054
 40
0.2187500000000054
 40
0.2500000000000061
 40
0.2500000000000061
 40
0.3125000000000073
 40
0.3125000000000073
 40
0.3750000000000084
 40
0.3750000000000084
 40
0.4062500000000093
 40
0.4062500000000093
 40
0.4218750000000094
 40
0.4218750000000094
 40
0.4375000000000095
 40
0.4375000000000095
 40
0.4687500000000093
 40
0.4687500000000093
 40
0.4843750000000089
 40
0.4843750000000089
 40
0.5000000000000086
 40
0.5000000000000086
 40
0.5312500000000079
 40
0.5312500000000079
 40
0.5625000000000072
 40
0.5625000000000072
 40
0.5937500000000066
 40
0.5937500000000066
 40
0.6250000000000059
 40
0.6250000000000059
 40
0.6562500000000053
 40
0.6562500000000053
 40
0.6875000000000046
 40
0.6875000000000046
 40
0.7031250000000044
 40
0.7031250000000044
 40
0.718750000000004
 40
0.718750000000004
 40
0.7500000000000034
 40
0.7500000000000034
 40
0.8125000000000026
 40
0.8125000000000026
 40
0.8437500000000021
 40
0.8437500000000021
 40
0.8750000000000017
 40
0.9062500000000012
 40
0.9375000000000007
 40
0.9375000000000007
 40
0.9687500000000003
 40
0.9687500000000003
 40
1.0
 40
1.0
 40
1.0
 40
1.0
 10
302.9048419452957
 20
282.7864676034366
 30
0.0
 10
304.7747254663122
 20
282.3957368271271
 30
0.0
 10
306.642894601444
 20
282.0044661303523
 30
0.0
 10
310.3756111636793
 20
281.2212107255638
 30
0.0
 10
312.2401559501855
 20
280.8292118447912
 30
0.0
 10
315.9653441300695
 20
280.0448579998232
 30
0.0
 10
317.8259829194217
 20
279.6524830643655
 30
0.0
 10
320.613823227445
 20
279.0643169668714
 30
0.0
 10
321.5425843264905
 20
278.8683337461601
 30
0.0
 10
323.3990527511871
 20
278.4767280827975
 30
0.0
 10
324.3268976535082
 20
278.2810760073697
 30
0.0
 10
327.1072309300647
 20
277.6954658207928
 30
0.0
 10
328.9568150077737
 20
277.3067238254048
 30
0.0
 10
332.6479914512932
 20
276.5364935893895
 30
0.0
 10
334.4895763654778
 20
276.1549972740148
 30
0.0
 10
337.2463604344207
 20
275.5927228423359
 30
0.0
 10
338.1643616279875
 20
275.4069772595697
 30
0.0
 10
339.5400792759342
 20
275.1316016955651
 30
0.0
 10
339.9984382140422
 20
275.0403513823806
 30
0.0
 10
340.9147517159298
 20
274.8590669799803
 30
0.0
 10
341.3726940212308
 20
274.7690057519152
 30
0.0
 10
342.7461375377331
 20
274.501270608004
 30
0.0
 10
343.6612800284223
 20
274.326120595387
 30
0.0
 10
345.0343610947341
 20
274.0710198880947
 30
0.0
 10
345.4920907653379
 20
273.9872530969904
 30
0.0
 10
346.4074800928117
 20
273.8226389984442
 30
0.0
 10
346.8651816409738
 20
273.7417837337692
 30
0.0
 10
348.2385302685329
 20
273.5039682791279
 30
0.0
 10
349.1544275458808
 20
273.3517858774886
 30
0.0
 10
350.9879265905404
 20
273.0615322099876
 30
0.0
 10
351.9055271146857
 20
272.9234534916329
 30
0.0
 10
353.74328908826
 20
272.6619954290054
 30
0.0
 10
354.6634623427904
 20
272.5386086068606
 30
0.0
 10
356.5060033988939
 20
272.3048896121084
 30
0.0
 10
357.4283711248886
 20
272.1945612453795
 30
0.0
 10
359.2750481267256
 20
271.9858036534487
 30
0.0
 10
360.1993584226684
 20
271.887378895513
 30
0.0
 10
362.0497823620447
 20
271.7015993804266
 30
0.0
 10
362.9758968755091
 20
271.6142479090217
 30
0.0
 10
364.3663803488822
 20
271.491056402107
 30
0.0
 10
364.8300940301979
 20
271.4512998342327
 30
0.0
 10
365.7579587473037
 20
271.3743353217272
 30
0.0
 10
366.222123837907
 20
271.337126614665
 30
0.0
 10
367.6147545700837
 20
271.2292724274822
 30
0.0
 10
368.5435273836599
 20
271.1623826732526
 30
0.0
 10
371.3310269987966
 20
270.9760483351337
 30
0.0
 10
373.1909201774789
 20
270.8709391349412
 30
0.0
 10
375.983865130993
 20
270.7393565987904
 30
0.0
 10
376.9153732171029
 20
270.6998477775076
 30
0.0
 10
378.7795874647123
 20
270.6290638445899
 30
0.0
 10
380.6449561717843
 20
270.5664631876746
 30
0.0
 10
383.4457213685357
 20
270.4951227968742
 30
0.0
 10
385.3141212168947
 20
270.4616170960292
 30
0.0
 10
387.1827998568999
 20
270.4348367310831
 30
0.0
 10
388.1172784753255
 20
270.4248083611108
 30
0.0
 10
389.9861440609615
 20
270.4113872784924
 30
0.0
 10
390.9205309497647
 20
270.4079935137005
 30
0.0
 10
391.8546693790288
 20
270.4079935137005
 30
0.0
  0
SPLINE
  5
212
330
1F
100
AcDbEntity
  8
1
100
AcDbSpline
210
0.0
220
0.0
230
1.0
 70
     8
 71
     3
 72
    72
 73
    68
 74
     0
 42
0.000000001
 43
0.0000000001
 40
0.0
 40
0.0
 40
0.0
 40
0.0
 40
0.0560991752953441
 40
0.0560991752953441
 40
0.1190258969423209
 40
0.1190258969423209
 40
0.1504892577658093
 40
0.1504892577658093
 40
0.1819526185892977
 40
0.1819526185892977
 40
0.2134159794127861
 40
0.2134159794127861
 40
0.2448793402362746
 40
0.2448793402362746
 40
0.2763427010597629
 40
0.2763427010597629
 40
0.3078060618832514
 40
0.3078060618832514
 40
0.3392694227067398
 40
0.3392694227067398
 40
0.3707327835302282
 40
0.3707327835302282
 40
0.3864644639419723
 40
0.3864644639419723
 40
0.4021961443537165
 40
0.4021961443537165
 40
0.433659505177205
 40
0.433659505177205
 40
0.4651228660006936
 40
0.4651228660006936
 40
0.4965862268241823
 40
0.4965862268241823
 40
0.5280495876476711
 40
0.5280495876476711
 40
0.5595129484711596
 40
0.5595129484711596
 40
0.5752446288829038
 40
0.5752446288829038
 40
0.5909763092946482
 40
0.5909763092946482
 40
0.6224396701181369
 40
0.6224396701181369
 40
0.6539030309416255
 40
0.6539030309416255
 40
0.685366391765114
 40
0.685366391765114
 40
0.7168297525886027
 40
0.7168297525886027
 40
0.7482931134120915
 40
0.7482931134120915
 40
0.77975647423558
 40
0.77975647423558
 40
0.8112198350590686
 40
0.8112198350590686
 40
0.8426831958825571
 40
0.8426831958825571
 40
0.8741465567060458
 40
0.8741465567060458
 40
0.9056099175295345
 40
0.9056099175295345
 40
0.9370732783530232
 40
0.9370732783530232
 40
0.9528049587647672
 40
0.9528049587647672
 40
0.9685366391765112
 40
0.9685366391765112
 40
1.0
 40
1.0
 40
1.0
 40
1.0
 10
303.4920670591924
 20
307.4079939788278
 30
0.0
 10
305.1001200060691
 20
307.4080415543535
 30
0.0
 10
306.7058948097905
 20
307.399070092395
 30
0.0
 10
310.1079884624638
 20
307.3575673195847
 30
0.0
 10
311.9037061664776
 20
307.3222842856629
 30
0.0
 10
314.5932064659123
 20
307.2458108283783
 30
0.0
 10
315.4890312754812
 20
307.2163941233749
 30
0.0
 10
317.2794336131013
 20
307.1491470401292
 30
0.0
 10
318.1740109965223
 20
307.1113155024574
 30
0.0
 10
319.962065856493
 20
307.0267312978401
 30
0.0
 10
320.8553599504085
 20
306.9799853806082
 30
0.0
 10
322.6403546415841
 20
306.877208975454
 30
0.0
 10
323.5321059776655
 20
306.8211747960667
 30
0.0
 10
325.3143725674997
 20
306.6995579474747
 30
0.0
 10
326.2048879274973
 20
306.6339740545126
 30
0.0
 10
327.984997459833
 20
306.4931727596565
 30
0.0
 10
328.8745919014265
 20
306.4179543985454
 30
0.0
 10
330.6532279562826
 20
306.2580067244429
 30
0.0
 10
331.5422700038181
 20
306.1732768874656
 30
0.0
 10
333.3202125265133
 20
305.9946592961004
 30
0.0
 10
334.2091135779366
 20
305.900771591613
 30
0.0
 10
335.5426881346542
 20
305.7535149323332
 30
0.0
 10
335.9872593114707
 20
305.7033592386036
 30
0.0
 10
336.8763550757882
 20
305.6010260327734
 30
0.0
 10
337.3209010443872
 20
305.5488462497141
 30
0.0
 10
338.6546192954853
 20
305.389432663873
 30
0.0
 10
339.5438723441313
 20
305.2793194759349
 30
0.0
 10
341.3230497053664
 20
305.0524379054814
 30
0.0
 10
342.2130207768603
 20
304.9357722908636
 30
0.0
 10
343.9932759158371
 20
304.6953763612969
 30
0.0
 10
344.8835508667878
 20
304.571625667338
 30
0.0
 10
346.6640753651187
 20
304.3164250839897
 30
0.0
 10
347.5543256498574
 20
304.1849731457172
 30
0.0
 10
349.3346580884133
 20
303.9139846224295
 30
0.0
 10
350.2247413965736
 20
303.7744475962842
 30
0.0
 10
351.5597444670889
 20
303.5589793805935
 30
0.0
 10
352.0047479284628
 20
303.486127892445
 30
0.0
 10
352.8945810211232
 20
303.3384056657769
 30
0.0
 10
353.3394137670047
 20
303.2635260805794
 30
0.0
 10
354.6737260126445
 20
303.0359673630027
 30
0.0
 10
355.5630357105834
 20
302.8804023295784
 30
0.0
 10
357.3416088533062
 20
302.5625524327344
 30
0.0
 10
358.2308714423009
 20
302.4002676529609
 30
0.0
 10
360.0096397437534
 20
302.069777705944
 30
0.0
 10
360.899144779054
 20
301.9015725494087
 30
0.0
 10
362.6785845206267
 20
301.5598408532262
 30
0.0
 10
363.5685187470228
 20
301.3863144537377
 30
0.0
 10
365.3489179816112
 20
301.0343372967006
 30
0.0
 10
366.2393826940217
 20
300.8558869361916
 30
0.0
 10
368.0208701361668
 20
300.4942492769472
 30
0.0
 10
368.9119275155585
 20
300.3110549708036
 30
0.0
 10
370.6938748017299
 20
299.940035334712
 30
0.0
 10
371.5848477636364
 20
299.7521943536549
 30
0.0
 10
373.3666895545358
 20
299.3715654031591
 30
0.0
 10
374.2575585035485
 20
299.1787786835244
 30
0.0
 10
376.039017681925
 20
298.7876912875609
 30
0.0
 10
376.9296091745967
 20
298.5893956951407
 30
0.0
 10
378.7102580706446
 20
298.1863832078938
 30
0.0
 10
379.6002884776091
 20
297.9815804664526
 30
0.0
 10
381.3793736760731
 20
297.5639111045978
 30
0.0
 10
382.2684266667734
 20
297.3510343413694
 30
0.0
 10
383.6012386736517
 20
297.0253378030445
 30
0.0
 10
384.045384273068
 20
296.9157178013163
 30
0.0
 10
384.93345763129
 20
296.6944436958003
 30
0.0
 10
385.3773913982231
 20
296.5827873695091
 30
0.0
 10
386.7087089463593
 20
296.2450997485026
 30
0.0
 10
387.5956695049406
 20
296.0162575143435
 30
0.0
 10
388.482463341586
 20
295.7852057498408
 30
0.0
  0
SPLINE
  5
213
330
1F
100
AcDbEntity
  8
1
100
AcDbSpline
210
0.0
220
0.0
230
1.0
 70
     8
 71
     3
 72
    39
 73
    35
 74
     0
 42
0.000000001
 43
0.0000000001
 40
0.0
 40
0.0
 40
0.0
 40
0.0
 40
0.0589796520275119
 40
0.0589796520275119
 40
0.1179593040550238
 40
0.1179593040550238
 40
0.1769389560825357
 40
0.1769389560825357
 40
0.2359186081100475
 40
0.2359186081100475
 40
0.2948982601375594
 40
0.2948982601375594
 40
0.3243880861513157
 40
0.3243880861513157
 40
0.353877912165072
 40
0.3833677381788284
 40
0.3833677381788284
 40
0.4128575641925847
 40
0.4128575641925847
 40
0.4718372162200973
 40
0.4718372162200973
 40
0.5897965202751218
 40
0.5897965202751218
 40
0.7077558243301462
 40
0.7077558243301462
 40
0.7667354763576584
 40
0.7667354763576584
 40
0.8257151283851705
 40
0.8257151283851705
 40
0.8846947804126827
 40
0.8846947804126827
 40
0.9436744324401947
 40
0.9436744324401947
 40
1.0
 40
1.0
 40
1.0
 40
1.0
 10
397.5872559358847
 20
307.3262410693196
 30
0.0
 10
396.6458466561705
 20
307.3622154375495
 30
0.0
 10
395.6987375183089
 20
307.3846707541869
 30
0.0
 10
393.7926317825213
 20
307.4088533189967
 30
0.0
 10
392.8336387648577
 20
307.4106000844346
 30
0.0
 10
390.9041954377309
 20
307.3990058137341
 30
0.0
 10
389.9337489933138
 20
307.3856766708892
 30
0.0
 10
387.9826290183054
 20
307.3483784257275
 30
0.0
 10
387.0019597725116
 20
307.3244150623548
 30
0.0
 10
385.0323025990104
 20
307.2688452652171
 30
0.0
 10
384.0433194053072
 20
307.2372401791749
 30
0.0
 10
382.5554441270845
 20
307.185185464986
 30
0.0
 10
382.0586813917038
 20
307.167044227746
 30
0.0
 10
381.0646174776313
 20
307.1292462773732
 30
0.0
 10
380.0699148419591
 20
307.0899297487518
 30
0.0
 10
379.0744240725065
 20
307.0474546480673
 30
0.0
 10
378.0787981413311
 20
307.0032445743048
 30
0.0
 10
377.580927729082
 20
306.9802619601625
 30
0.0
 10
376.0874423049584
 20
306.9084137105608
 30
0.0
 10
375.0918763502857
 20
306.8567171491104
 30
0.0
 10
372.1056240873719
 20
306.6899352686974
 30
0.0
 10
370.1153957122804
 20
306.5631928800249
 30
0.0
 10
366.137032519387
 20
306.2758518634282
 30
0.0
 10
364.1488899625124
 20
306.1152582629099
 30
0.0
 10
361.1687095496562
 20
305.8460600971332
 30
0.0
 10
360.1759342513186
 20
305.7516267247236
 30
0.0
 10
358.1918329274063
 20
305.552691410679
 30
0.0
 10
357.2004944961275
 20
305.4481945780513
 30
0.0
 10
355.2194884616846
 20
305.2281693801401
 30
0.0
 10
354.2298183288242
 20
305.1126499127664
 30
0.0
 10
352.2525564530853
 20
304.8691000425748
 30
0.0
 10
351.2649993238387
 20
304.7409858865769
 30
0.0
 10
349.3361249229404
 20
304.477929807339
 30
0.0
 10
348.3947284918309
 20
304.3435479168144
 30
0.0
 10
347.4539842980972
 20
304.2033718848738
 30
0.0
  0
SPLINE
  5
214
330
1F
100
AcDbEntity
  8
1
100
AcDbSpline
210
0.0
220
0.0
230
1.0
 70
     8
 71
     3
 72
    26
 73
    22
 74
     0
 42
0.000000001
 43
0.0000000001
 40
0.0
 40
0.0
 40
0.0
 40
0.0
 40
0.0624999999999997
 40
0.0624999999999997
 40
0.1249999999999993
 40
0.1249999999999993
 40
0.2499999999999991
 40
0.2499999999999991
 40
0.3749999999999988
 40
0.3749999999999988
 40
0.4374999999999988
 40
0.4374999999999988
 40
0.4999999999999988
 40
0.4999999999999988
 40
0.6249999999999992
 40
0.6249999999999992
 40
0.7499999999999993
 40
0.7499999999999993
 40
0.8749999999999996
 40
0.8749999999999996
 40
1.0
 40
1.0
 40
1.0
 40
1.0
 10
287.9926239639546
 20
270.9315636593885
 30
0.0
 10
287.7751806345332
 20
270.9542911898159
 30
0.0
 10
287.5605739512316
 20
270.9744237532165
 30
0.0
 10
287.1365274012168
 20
271.0103071361865
 30
0.0
 10
286.9270887985227
 20
271.0260570596467
 30
0.0
 10
286.3059569868757
 20
271.0678096649054
 30
0.0
 10
285.9014136932891
 20
271.0883368979666
 30
0.0
 10
285.1094393367145
 20
271.1198001282378
 30
0.0
 10
284.7220216709711
 20
271.1307211846764
 30
0.0
 10
284.1529848131376
 20
271.1432573917397
 30
0.0
 10
283.9652840526933
 20
271.1467932053521
 30
0.0
 10
283.5940379997716
 20
271.1531196231751
 30
0.0
 10
283.411194574753
 20
271.1558991922572
 30
0.0
 10
282.8707235875846
 20
271.163919660253
 30
0.0
 10
282.5211340881909
 20
271.1688394206593
 30
0.0
 10
281.8425139961771
 20
271.1821871710402
 30
0.0
 10
281.513487841517
 20
271.1905996435719
 30
0.0
 10
280.8757486365547
 20
271.2155398881163
 30
0.0
 10
280.5670356239884
 20
271.2320464584498
 30
0.0
 10
279.9702368896304
 20
271.278585008525
 30
0.0
 10
279.6821458391536
 20
271.3085811125034
 30
0.0
 10
279.4048419452959
 20
271.3488532488632
 30
0.0
  0
SPLINE
  5
215
330
1F
100
AcDbEntity
  8
1
100
AcDbSpline
210
0.0
220
0.0
230
1.0
 70
     8
 71
     3
 72
     8
 73
     4
 74
     0
 42
0.000000001
 43
0.0000000001
 40
0.0
 40
0.0
 40
0.0
 40
0.0
 40
1.0
 40
1.0
 40
1.0
 40
1.0
 10
401.3417444173783
 20
292.4391683340662
 30
0.0
 10
401.5309485734761
 20
292.4134108364023
 30
0.0
 10
401.7158517345913
 20
292.3863225336326
 30
0.0
 10
401.8958419452957
 20
292.3577140757548
 30
0.0
  0
SPLINE
  5
216
330
1F
100
AcDbEntity
  8
1
100
AcDbSpline
210
0.0
220
0.0
230
1.0
 70
     8
 71
     3
 72
    30
 73
    26
 74
     0
 42
0.000000001
 43
0.0000000001
 40
0.0
 40
0.0
 40
0.0
 40
0.0
 40
0.125000000000003
 40
0.125000000000003
 40
0.2500000000000059
 40
0.2500000000000059
 40
0.3750000000000089
 40
0.3750000000000089
 40
0.5000000000000121
 40
0.5000000000000121
 40
0.6250000000000152
 40
0.6250000000000152
 40
0.6875000000000168
 40
0.6875000000000168
 40
0.7500000000000185
 40
0.7500000000000185
 40
0.7812500000000161
 40
0.7812500000000161
 40
0.8125000000000138
 40
0.8125000000000138
 40
0.8750000000000092
 40
0.8750000000000092
 40
0.9375000000000047
 40
0.9375000000000047
 40
1.0
 40
1.0
 40
1.0
 40
1.0
 10
394.6026271169669
 20
295.4500007317515
 30
0.0
 10
394.8676579728909
 20
295.245427237626
 30
0.0
 10
395.1341531181055
 20
295.052018473915
 30
0.0
 10
395.6701074046589
 20
294.6857435249209
 30
0.0
 10
395.9395649591735
 20
294.5128824562016
 30
0.0
 10
396.4815885437322
 20
294.1864908682324
 30
0.0
 10
396.7541512728936
 20
294.0329625327235
 30
0.0
 10
397.3027095578192
 20
293.7444748207391
 30
0.0
 10
397.5786982608848
 20
293.6095146525485
 30
0.0
 10
398.13475618647
 20
293.3578297194355
 30
0.0
 10
398.4148106548754
 20
293.2410993454963
 30
0.0
 10
398.8389082020772
 20
293.0798158250578
 30
0.0
 10
398.9809494668153
 20
293.0283611110755
 30
0.0
 10
399.2666554199301
 20
292.9301592281772
 30
0.0
 10
399.4103087240027
 20
292.8834096921556
 30
0.0
 10
399.627354752735
 20
292.8169468147717
 30
0.0
 10
399.6999424673106
 20
292.7954107177043
 30
0.0
 10
399.8454264093441
 20
292.753665031514
 30
0.0
 10
399.9183541187975
 20
292.7334456314622
 30
0.0
 10
400.1377915170778
 20
292.6747891390164
 30
0.0
 10
400.2849481758345
 20
292.6383486294004
 30
0.0
 10
400.5816586004447
 20
292.5711211150727
 30
0.0
 10
400.7312087398086
 20
292.5403314546962
 30
0.0
 10
401.0336440003716
 20
292.4849227984949
 30
0.0
 10
401.1865236937398
 20
292.4602994630488
 30
0.0
 10
401.3417444173777
 20
292.4391683340665
 30
0.0
  0
SPLINE
  5
217
330
1F
100
AcDbEntity
  8
1
100
AcDbSpline
210
0.0
220
0.0
230
1.0
 70
     8
 71
     3
 72
    10
 73
     6
 74
     0
 42
0.000000001
 43
0.0000000001
 40
0.0
 40
0.0
 40
0.0
 40
0.0
 40
0.4999999999999992
 40
0.4999999999999992
 40
1.0
 40
1.0
 40
1.0
 40
1.0
 10
291.0988556127701
 20
284.8584599133052
 30
0.0
 10
290.5853386642632
 20
284.9515473579044
 30
0.0
 10
290.0697866515967
 20
285.0172607859238
 30
0.0
 10
289.0344441426431
 20
285.0912619179895
 30
0.0
 10
288.5146569666957
 20
285.0995929342373
 30
0.0
 10
287.9926239639546
 20
285.0774686685074
 30
0.0
  0
SPLINE
  5
218
330
1F
100
AcDbEntity
  8
1
100
AcDbSpline
210
0.0
220
0.0
230
1.0
 70
     8
 71
     3
 72
    32
 73
    28
 74
     0
 42
0.000000001
 43
0.0000000001
 40
0.0
 40
0.0
 40
0.0
 40
0.0
 40
0.124999999999999
 40
0.124999999999999
 40
0.249999999999998
 40
0.249999999999998
 40
0.374999999999997
 40
0.374999999999997
 40
0.4999999999999963
 40
0.4999999999999963
 40
0.5156249999999964
 40
0.5156249999999964
 40
0.5312499999999965
 40
0.5624999999999967
 40
0.5624999999999967
 40
0.6249999999999973
 40
0.6249999999999973
 40
0.7499999999999983
 40
0.7499999999999983
 40
0.8124999999999985
 40
0.8124999999999985
 40
0.8437499999999989
 40
0.8593749999999991
 40
0.8593749999999991
 40
0.8749999999999992
 40
0.8749999999999992
 40
1.0
 40
1.0
 40
1.0
 40
1.0
 10
279.4048419452957
 20
280.8369924447384
 30
0.0
 10
279.6819743089283
 20
281.1415996848002
 30
0.0
 10
279.9697561331377
 20
281.4305433137004
 30
0.0
 10
280.5664373078395
 20
281.9793146503163
 30
0.0
 10
280.8753388840764
 20
282.2391291111201
 30
0.0
 10
281.5148738355258
 20
282.7303490922161
 30
0.0
 10
281.8455028079002
 20
282.9617542708362
 30
0.0
 10
282.5299194098935
 20
283.3956044652548
 30
0.0
 10
282.8836950948976
 20
283.598060519168
 30
0.0
 10
283.2961129857886
 20
283.808425720244
 30
0.0
 10
283.3421093351199
 20
283.8315416564658
 30
0.0
 10
283.4342637156301
 20
283.8771635912547
 30
0.0
 10
283.5728178249919
 20
283.9447224592604
 30
0.0
 10
283.7123436285146
 20
284.0096578102201
 30
0.0
 10
283.992704526788
 20
284.1360175081273
 30
0.0
 10
284.181356413477
 20
284.2155794383521
 30
0.0
 10
284.7526936261622
 20
284.440005857083
 30
0.0
 10
285.1407386653548
 20
284.5706773967863
 30
0.0
 10
285.7344768744502
 20
284.7362795040922
 30
0.0
 10
285.9343398187667
 20
284.7863970519048
 30
0.0
 10
286.2372316146797
 20
284.8535354693976
 30
0.0
 10
286.3894524964472
 20
284.8850932839497
 30
0.0
 10
286.5428744905945
 20
284.9135374511944
 30
0.0
 10
286.6454275195853
 20
284.9317961069195
 30
0.0
 10
286.6968710030592
 20
284.9405784113393
 30
0.0
 10
287.1603411593886
 20
285.0162706756126
 30
0.0
 10
287.5750191509245
 20
285.0597701708931
 30
0.0
 10
287.9926239639546
 20
285.0774686685074
 30
0.0
  0
SPLINE
  5
219
330
1F
100
AcDbEntity
  8
1
100
AcDbSpline
210
0.0
220
0.0
230
1.0
 70
     8
 71
     3
 72
    24
 73
    20
 74
     0
 42
0.000000001
 43
0.0000000001
 40
0.0
 40
0.0
 40
0.0
 40
0.0
 40
0.1250000000000017
 40
0.2500000000000034
 40
0.2500000000000034
 40
0.3750000000000051
 40
0.3750000000000051
 40
0.5000000000000068
 40
0.5000000000000068
 40
0.5312500000000067
 40
0.5312500000000067
 40
0.5625000000000066
 40
0.5625000000000066
 40
0.6250000000000057
 40
0.6250000000000057
 40
0.7500000000000038
 40
0.8750000000000021
 40
0.8750000000000021
 40
1.0
 40
1.0
 40
1.0
 40
1.0
 10
279.4048419452957
 20
280.8369924447384
 30
0.0
 10
279.2469030385584
 20
280.6851509493635
 30
0.0
 10
278.9440536605177
 20
280.3746615128683
 30
0.0
 10
278.6671740898029
 20
280.0511825031277
 30
0.0
 10
278.4034267606849
 20
279.7214174157338
 30
0.0
 10
278.2781184629219
 20
279.5533919354789
 30
0.0
 10
278.0409851668386
 20
279.211161364402
 30
0.0
 10
277.9291587594369
 20
279.0369566656026
 30
0.0
 10
277.7981696371244
 20
278.815336808174
 30
0.0
 10
277.7724121506499
 20
278.7708193505277
 30
0.0
 10
277.7217897688731
 20
278.6813962189581
 30
0.0
 10
277.6969631987774
 20
278.6365565790396
 30
0.0
 10
277.624121706468
 20
278.501997958739
 30
0.0
 10
277.5776670625935
 20
278.4121032132351
 30
0.0
 10
277.4445840142583
 20
278.1419088681163
 30
0.0
 10
277.2838733358935
 20
277.7802931231909
 30
0.0
 10
277.1566076289819
 20
277.4164802208645
 30
0.0
 10
277.0463170272133
 20
277.0517739325279
 30
0.0
 10
276.9996581649742
 20
276.8689740188504
 30
0.0
 10
276.961754878145
 20
276.6858054501376
 30
0.0
  0
SPLINE
  5
21A
330
1F
100
AcDbEntity
  8
1
100
AcDbSpline
210
0.0
220
0.0
230
1.0
 70
    28
 71
     3
 72
     8
 73
     4
 74
     0
 42
0.000000001
 43
0.0000000001
 40
0.0
 40
0.0
 40
0.0
 40
0.0
 40
1.0
 40
1.0
 40
1.0
 40
1.0
 10
302.9048419452958
 20
282.6366199809454
 30
0.0
 41
1.0
 10
302.9048419452958
 20
282.6880775341156
 30
0.0
 41
0.9975195568945537
 10
302.9048419452957
 20
282.7393180294515
 30
0.0
 41
0.9950706232144067
 10
302.9048419452957
 20
282.7903349809453
 30
0.0
 41
0.9926531989595599
  0
SPLINE
  5
21B
330
1F
100
AcDbEntity
  8
95
100
AcDbSpline
210
0.0
220
0.0
230
1.0
 70
     8
 71
     5
 72
    12
 73
     6
 74
     0
 42
0.000000001
 43
0.0000000001
 40
0.0
 40
0.0
 40
0.0
 40
0.0
 40
0.0
 40
0.0
 40
1.0
 40
1.0
 40
1.0
 40
1.0
 40
1.0
 40
1.0
 10
412.5910066880208
 20
298.38440411483
 30
0.0
 10
412.6077016796345
 20
298.3580764106397
 30
0.0
 10
412.6243974690447
 20
298.3317492123504
 30
0.0
 10
412.6410940674644
 20
298.3054225271207
 30
0.0
 10
412.6577914864238
 20
298.2790963623098
 30
0.0
 10
412.6744897377933
 20
298.2527707254933
 30
0.0
  0
SPLINE
  5
21C
330
1F
100
AcDbEntity
  8
1
100
AcDbSpline
210
0.0
220
0.0
230
1.0
 70
     8
 71
     3
 72
    14
 73
    10
 74
     0
 42
0.000000001
 43
0.0000000001
 40
0.0
 40
0.0
 40
0.0
 40
0.0
 40
0.25
 40
0.25
 40
0.5
 40
0.5
 40
0.75
 40
0.75
 40
1.0
 40
1.0
 40
1.0
 40
1.0
 10
305.1813564941956
 20
270.4210206769998
 30
0.0
 10
305.757762005524
 20
270.4612304959281
 30
0.0
 10
306.3334028690519
 20
270.5051939692949
 30
0.0
 10
307.482862717369
 20
270.6023751722941
 30
0.0
 10
308.0566798814625
 20
270.6555995353669
 30
0.0
 10
309.2023304552646
 20
270.7729413382694
 30
0.0
 10
309.7741623045507
 20
270.8370670395942
 30
0.0
 10
310.9158668007709
 20
270.9775075035068
 30
0.0
 10
311.4857386039928
 20
271.0538311956778
 30
0.0
 10
312.0547552329807
 20
271.1365948653074
 30
0.0
  0
SPLINE
  5
21D
330
1F
100
AcDbEntity
  8
1
100
AcDbSpline
210
0.0
220
0.0
230
1.0
 70
     8
 71
     3
 72
     8
 73
     4
 74
     0
 42
0.000000001
 43
0.0000000001
 40
0.0
 40
0.0
 40
0.0
 40
0.0
 40
1.0
 40
1.0
 40
1.0
 40
1.0
 10
312.0547552329811
 20
271.1365948653075
 30
0.0
 10
312.7340481774786
 20
271.2355805650089
 30
0.0
 10
313.4116242232749
 20
271.3435148774644
 30
0.0
 10
314.087930876986
 20
271.46015220399
 30
0.0
  0
SPLINE
  5
21E
330
1F
100
AcDbEntity
  8
1
100
AcDbSpline
210
0.0
220
0.0
230
1.0
 70
    12
 71
     3
 72
     9
 73
     5
 74
     0
 42
0.000000001
 43
0.0000000001
 40
0.0
 40
0.0
 40
0.0
 40
0.0
 40
0.9478975600949008
 40
1.0
 40
1.0
 40
1.0
 40
1.0
 10
314.0879308769735
 20
271.4601522039881
 30
0.0
 41
1.001994152278119
 10
323.3488912265165
 20
272.8534184246666
 30
0.0
 41
1.001622703804945
 10
332.3947283503272
 20
273.0932617335837
 30
0.0
 41
0.9997971639528977
 10
341.5563322086345
 20
274.5525623609874
 30
0.0
 41
1.002385175551153
 10
342.0325882457642
 20
274.631607336106
 30
0.0
 41
1.002527944832109
  0
SPLINE
  5
21F
330
1F
100
AcDbEntity
  8
1
100
AcDbSpline
210
0.0
220
0.0
230
1.0
 70
     8
 71
     3
 72
     8
 73
     4
 74
     0
 42
0.000000001
 43
0.0000000001
 40
0.0
 40
0.0
 40
0.0
 40
0.0
 40
1.0
 40
1.0
 40
1.0
 40
1.0
 10
401.8958419452958
 20
291.2657369912606
 30
0.0
 10
401.725494685739
 20
291.2539319052124
 30
0.0
 10
401.5544689978846
 20
291.2438947519987
 30
0.0
 10
401.3829379410196
 20
291.2351745522059
 30
0.0
  0
SPLINE
  5
220
330
1F
100
AcDbEntity
  8
1
100
AcDbSpline
210
0.0
220
0.0
230
1.0
 70
    24
 71
     3
 72
    14
 73
    10
 74
     0
 42
0.000000001
 43
0.0000000001
 40
0.0
 40
0.0
 40
0.0
 40
0.0
 40
0.2934913545473198
 40
0.2934913545473198
 40
0.5869827090946396
 40
0.5869827090946396
 40
0.8804740636419593
 40
0.8804740636419593
 40
1.0
 40
1.0
 40
1.0
 40
1.0
 10
401.8958419479028
 20
292.3577140759407
 30
0.0
 10
401.8958419479423
 20
292.1689831893506
 30
0.0
 10
401.895841947975
 20
292.0032622146552
 30
0.0
 10
401.8958419480266
 20
291.7204000775749
 30
0.0
 10
401.8958419480453
 20
291.6032600445682
 30
0.0
 10
401.8958419480687
 20
291.4193715800109
 30
0.0
 10
401.8958419480732
 20
291.3526238826683
 30
0.0
 10
401.8958419480695
 20
291.2948762892702
 30
0.0
 10
401.8958419480672
 20
291.2824288946244
 30
0.0
 10
401.8958419480636
 20
291.2742540759303
 30
0.0
  0
LINE
  5
23B
330
1F
100
AcDbEntity
  8
4
100
AcDbLine
 10
264.992624
 20
288.907994
 30
0.0
 11
416.9809629999999
 21
288.907994
 31
0.0
  0
LINE
  5
23C
330
1F
100
AcDbEntity
  8
SK4
100
AcDbLine
 10
210.904842
 20
288.907994
 30
0.0
 11
277.404842
 21
288.907994
 31
0.0
  0
MTEXT
  5
242
330
1F
100
AcDbEntity
  8
SK6
100
AcDbMText
 10
282.146554
 20
243.070881
 30
0.0
 40
3.5
 41
0.0
 71
     7
 72
     5
  1
\W0.7240;803D-38-114-S32
  7
cesky
 73
     2
 44
0.8433729999999998
  0
MTEXT
  5
353
330
1F
100
AcDbEntity
  8
2
100
AcDbMText
 10
310.827842
 20
340.562135
 30
0.0
 40
3.5
 41
0.0
 71
     7
 72
     5
  1
\W0.7969;199
  7
cesky
 73
     2
 44
0.8433729999999998
  0
LINE
  5
354
330
1F
100
AcDbEntity
  8
2
100
AcDbLine
 10
413.404842
 20
309.907994
 30
0.0
 11
413.404842
 21
341.687968
 31
0.0
  0
LINE
  5
355
330
1F
100
AcDbEntity
  8
2
100
AcDbLine
 10
214.404842
 20
302.907994
 30
0.0
 11
214.404842
 21
341.687968
 31
0.0
  0
LINE
  5
356
330
1F
100
AcDbEntity
  8
2
100
AcDbLine
 10
413.404842
 20
340.687968
 30
0.0
 11
214.404842
 21
340.687968
 31
0.0
  0
SOLID
  5
357
330
1F
100
AcDbEntity
  8
2
100
AcDbTrace
 10
413.404842
 20
340.687968
 30
0.0
 11
409.9048439999999
 21
340.070823
 31
0.0
 12
409.90484
 22
341.305112
 32
0.0
 13
409.90484
 23
341.305112
 33
0.0
  0
SOLID
  5
358
330
1F
100
AcDbEntity
  8
2
100
AcDbTrace
 10
214.404842
 20
340.687968
 30
0.0
 11
217.90484
 21
341.305112
 31
0.0
 12
217.904844
 22
340.070823
 32
0.0
 13
217.904844
 23
340.070823
 33
0.0
  0
MTEXT
  5
359
330
1F
100
AcDbEntity
  8
2
100
AcDbMText
 10
242.590342
 20
327.385163
 30
0.0
 40
3.5
 41
0.0
 71
     7
 72
     5
  1
\W0.7045;60
  7
cesky
 73
     2
 44
0.8433729999999998
  0
LINE
  5
35A
330
1F
100
AcDbEntity
  8
2
100
AcDbLine
 10
274.404842
 20
288.907994
 30
0.0
 11
274.404842
 21
328.5109970000001
 31
0.0
  0
LINE
  5
35B
330
1F
100
AcDbEntity
  8
2
100
AcDbLine
 10
214.404842
 20
302.907994
 30
0.0
 11
214.404842
 21
328.5109970000001
 31
0.0
  0
LINE
  5
35C
330
1F
100
AcDbEntity
  8
2
100
AcDbLine
 10
274.404842
 20
327.510997
 30
0.0
 11
214.404842
 21
327.510997
 31
0.0
  0
SOLID
  5
35D
330
1F
100
AcDbEntity
  8
2
100
AcDbTrace
 10
274.404842
 20
327.510997
 30
0.0
 11
270.904844
 21
326.893852
 31
0.0
 12
270.90484
 22
328.128141
 32
0.0
 13
270.90484
 23
328.128141
 33
0.0
  0
SOLID
  5
35E
330
1F
100
AcDbEntity
  8
2
100
AcDbTrace
 10
214.404842
 20
327.510997
 30
0.0
 11
217.90484
 21
328.128141
 31
0.0
 12
217.904844
 22
326.893852
 32
0.0
 13
217.904844
 23
326.893852
 33
0.0
  0
MTEXT
  5
35F
330
1F
100
AcDbEntity
  8
2
100
AcDbMText
 10
345.537615
 20
316.722179
 30
0.0
 40
3.5
 41
0.0
 71
     7
 72
     5
  1
\W0.8654;124,5
  7
cesky
 73
     2
 44
0.8433729999999998
  0
LINE
  5
360
330
1F
100
AcDbEntity
  8
2
100
AcDbLine
 10
413.404842
 20
309.907994
 30
0.0
 11
413.404842
 21
317.848012
 31
0.0
  0
LINE
  5
361
330
1F
100
AcDbEntity
  8
2
100
AcDbLine
 10
288.874387
 20
306.178369
 30
0.0
 11
288.874387
 21
317.848012
 31
0.0
  0
LINE
  5
362
330
1F
100
AcDbEntity
  8
2
100
AcDbLine
 10
413.404842
 20
316.848012
 30
0.0
 11
288.874387
 21
316.848012
 31
0.0
  0
SOLID
  5
363
330
1F
100
AcDbEntity
  8
2
100
AcDbTrace
 10
413.404842
 20
316.848012
 30
0.0
 11
409.9048439999999
 21
316.2308680000001
 31
0.0
 12
409.90484
 22
317.465157
 32
0.0
 13
409.90484
 23
317.465157
 33
0.0
  0
SOLID
  5
364
330
1F
100
AcDbEntity
  8
2
100
AcDbTrace
 10
288.874387
 20
316.848012
 30
0.0
 11
292.374385
 21
317.465157
 31
0.0
 12
292.374389
 22
316.2308680000001
 32
0.0
 13
292.374389
 23
316.2308680000001
 33
0.0
  0
MTEXT
  5
365
330
1F
100
AcDbEntity
  8
2
100
AcDbMText
 10
340.827842
 20
327.385163
 30
0.0
 40
3.5
 41
0.0
 71
     7
 72
     5
  1
\W0.7969;139
  7
cesky
 73
     2
 44
0.8433729999999998
  0
LINE
  5
366
330
1F
100
AcDbEntity
  8
2
100
AcDbLine
 10
413.404842
 20
307.907994
 30
0.0
 11
413.404842
 21
328.5109970000001
 31
0.0
  0
LINE
  5
367
330
1F
100
AcDbEntity
  8
2
100
AcDbLine
 10
274.404842
 20
289.907567
 30
0.0
 11
274.404842
 21
328.5109970000001
 31
0.0
  0
LINE
  5
368
330
1F
100
AcDbEntity
  8
2
100
AcDbLine
 10
413.404842
 20
327.510997
 30
0.0
 11
274.404842
 21
327.510997
 31
0.0
  0
SOLID
  5
369
330
1F
100
AcDbEntity
  8
2
100
AcDbTrace
 10
413.404842
 20
327.510997
 30
0.0
 11
409.9048439999999
 21
326.893852
 31
0.0
 12
409.90484
 22
328.128141
 32
0.0
 13
409.90484
 23
328.128141
 33
0.0
  0
SOLID
  5
36A
330
1F
100
AcDbEntity
  8
2
100
AcDbTrace
 10
274.404842
 20
327.510997
 30
0.0
 11
277.90484
 21
328.128141
 31
0.0
 12
277.904844
 22
326.893852
 32
0.0
 13
277.904844
 23
326.893852
 33
0.0
  0
MTEXT
  5
36B
330
1F
100
AcDbEntity
  8
2
100
AcDbMText
 10
427.146513
 20
289.328307
 30
0.0
 40
3.5
 41
0.0
 71
     7
 72
     5
  1
\W0.7045;38
  7
cesky
 11
0.0000000000000001
 21
1.0
 31
0.0
 73
     2
 44
0.8433729999999998
  0
MTEXT
  5
36C
330
1F
100
AcDbEntity
  8
2
100
AcDbMText
 10
427.146513
 20
282.590807
 30
0.0
 40
3.5
 41
0.0
 71
     7
 72
     5
  1
\W3.0115;\H2.63;%%c\H3.50;
  7
cesky
 11
0.0000000000000001
 21
1.0
 31
0.0
 73
     2
 44
0.8433729999999998
  0
LINE
  5
36D
330
1F
100
AcDbEntity
  8
2
100
AcDbLine
 10
415.4048419999999
 20
307.907994
 30
0.0
 11
428.33393
 21
307.907994
 31
0.0
  0
LINE
  5
36E
330
1F
100
AcDbEntity
  8
2
100
AcDbLine
 10
427.3339299999999
 20
307.907994
 30
0.0
 11
427.3339299999999
 21
282.433307
 31
0.0
  0
SOLID
  5
36F
330
1F
100
AcDbEntity
  8
2
100
AcDbTrace
 10
427.3339299999999
 20
307.907994
 30
0.0
 11
427.951074
 21
304.407996
 31
0.0
 12
426.7167859999999
 22
304.4079910000001
 32
0.0
 13
426.7167859999999
 23
304.4079910000001
 33
0.0
  0
MTEXT
  5
370
330
1F
100
AcDbEntity
  8
SK2
100
AcDbMText
 10
205.691127
 20
290.434244
 30
0.0
 40
3.5
 41
0.0
 71
     7
 72
     5
  1
\W0.7045;32
  7
cesky
 11
0.0000000000000001
 21
1.0
 31
0.0
 73
     2
 44
0.8433729999999998
  0
MTEXT
  5
371
330
1F
100
AcDbEntity
  8
SK2
100
AcDbMText
 10
205.691127
 20
283.696744
 30
0.0
 40
3.5
 41
0.0
 71
     7
 72
     5
  1
\W3.0115;\H2.63;%%c\H3.50;
  7
cesky
 11
0.0000000000000001
 21
1.0
 31
0.0
 73
     2
 44
0.8433729999999998
  0
LINE
  5
372
330
1F
100
AcDbEntity
  8
SK2
100
AcDbLine
 10
216.404842
 20
304.907994
 30
0.0
 11
204.878544
 21
304.907994
 31
0.0
  0
LINE
  5
373
330
1F
100
AcDbEntity
  8
SK2
100
AcDbLine
 10
216.404842
 20
272.907994
 30
0.0
 11
204.878544
 21
272.907994
 31
0.0
  0
LINE
  5
374
330
1F
100
AcDbEntity
  8
SK2
100
AcDbLine
 10
205.878544
 20
304.907994
 30
0.0
 11
205.878544
 21
272.907994
 31
0.0
  0
SOLID
  5
375
330
1F
100
AcDbEntity
  8
SK2
100
AcDbTrace
 10
205.878544
 20
304.907994
 30
0.0
 11
206.495689
 21
301.407996
 31
0.0
 12
205.2614
 22
301.407991
 32
0.0
 13
205.2614
 23
301.407991
 33
0.0
  0
SOLID
  5
376
330
1F
100
AcDbEntity
  8
SK2
100
AcDbTrace
 10
205.878544
 20
272.907994
 30
0.0
 11
205.2614
 21
276.407991
 31
0.0
 12
206.495689
 22
276.407996
 32
0.0
 13
206.495689
 23
276.407996
 33
0.0
  0
MTEXT
  5
377
330
1F
100
AcDbEntity
  8
SK2
100
AcDbMText
 10
193.332501
 20
290.434244
 30
0.0
 40
3.5
 41
0.0
 71
     7
 72
     5
  1
\W0.7045;42
  7
cesky
 11
0.0000000000000001
 21
1.0
 31
0.0
 73
     2
 44
0.8433729999999998
  0
MTEXT
  5
378
330
1F
100
AcDbEntity
  8
SK2
100
AcDbMText
 10
193.332501
 20
283.696744
 30
0.0
 40
3.5
 41
0.0
 71
     7
 72
     5
  1
\W3.0115;\H2.63;%%c\H3.50;
  7
cesky
 11
0.0000000000000001
 21
1.0
 31
0.0
 73
     2
 44
0.8433729999999998
  0
LINE
  5
379
330
1F
100
AcDbEntity
  8
SK2
100
AcDbLine
 10
274.904842
 20
309.907994
 30
0.0
 11
192.519918
 21
309.907994
 31
0.0
  0
LINE
  5
37A
330
1F
100
AcDbEntity
  8
SK2
100
AcDbLine
 10
274.904842
 20
267.907994
 30
0.0
 11
192.519918
 21
267.907994
 31
0.0
  0
LINE
  5
37B
330
1F
100
AcDbEntity
  8
SK2
100
AcDbLine
 10
193.519918
 20
309.907994
 30
0.0
 11
193.519918
 21
267.907994
 31
0.0
  0
SOLID
  5
37C
330
1F
100
AcDbEntity
  8
SK2
100
AcDbTrace
 10
193.519918
 20
309.907994
 30
0.0
 11
194.137062
 21
306.407996
 31
0.0
 12
192.902773
 22
306.407991
 32
0.0
 13
192.902773
 23
306.407991
 33
0.0
  0
SOLID
  5
37D
330
1F
100
AcDbEntity
  8
SK2
100
AcDbTrace
 10
193.519918
 20
267.907994
 30
0.0
 11
192.902773
 21
271.4079910000001
 31
0.0
 12
194.137062
 22
271.407996
 32
0.0
 13
194.137062
 23
271.407996
 33
0.0
  0
LINE
  5
37F
330
1F
100
AcDbEntity
  8
CUT
100
AcDbLine
 10
412.2761911676127
 20
307.1579529786636
 30
0.0
 11
412.5910066880208
 21
298.3844041148298
 31
0.0
  0
LINE
  5
380
330
1F
100
AcDbEntity
  8
CUT
100
AcDbLine
 10
413.2754235247553
 20
297.176114721899
 30
0.0
 11
413.3998607906598
 21
290.0508870445029
 31
0.0
  0
LINE
  5
383
330
1F
100
AcDbEntity
  8
CUT
100
AcDbLine
 10
400.3343635403399
 20
307.4972251080194
 30
0.0
 11
411.4725427394184
 21
307.9044280092425
 31
0.0
  0
LINE
  5
384
330
1F
100
AcDbEntity
  8
CUT
100
AcDbLine
 10
412.6744897377933
 20
298.2527707254933
 30
0.0
 11
413.2334058386329
 21
297.3226372761576
 31
0.0
  0
LINE
  5
385
330
1F
100
AcDbEntity
  8
CUT
100
AcDbLine
 10
413.3998609999999
 20
290.050887
 30
0.0
 11
413.3998609999999
 21
288.907994
 31
0.0
  0
LINE
  5
386
330
1F
100
AcDbEntity
  8
CUT
100
AcDbLine
 10
413.3998609999999
 20
288.907994
 30
0.0
 11
399.586246
 21
288.907994
 31
0.0
  0
LINE
  5
387
330
1F
100
AcDbEntity
  8
CUT
100
AcDbLine
 10
399.586246
 20
288.907994
 30
0.0
 11
399.586246
 21
306.693618
 31
0.0
  0
LINE
  5
388
330
1F
100
AcDbEntity
  8
CUT
100
AcDbLine
 10
399.5862458887959
 20
306.6936176557926
 30
0.0
 11
399.5862458887959
 21
306.6936176557926
 31
0.0
  0
ARC
  5
389
330
1F
100
AcDbEntity
  8
CUT
100
AcDbCircle
 10
400.3680839734764
 20
306.7157996391288
 30
0.0
 40
0.7821526903627954
100
AcDbArc
 50
92.47092100041282
 51
181.6251359514525
  0
LINE
  5
38A
330
1F
100
AcDbEntity
  8
CUT
100
AcDbLine
 10
411.4725427394183
 20
307.9044280092425
 30
0.0
 11
411.4725427394183
 21
307.9044280092425
 31
0.0
  0
ARC
  5
38B
330
1F
100
AcDbEntity
  8
CUT
100
AcDbCircle
 10
411.4962996950747
 20
307.1241666210151
 30
0.0
 40
0.7806229735926515
100
AcDbArc
 50
2.480609279745051
 51
91.74397057710924
  0
LINE
  5
38C
330
1F
100
AcDbEntity
  8
CUT
100
AcDbLine
 10
413.2334058386329
 20
297.3226372761577
 30
0.0
 11
413.2334058386329
 21
297.3226372761577
 31
0.0
  0
ARC
  5
38D
330
1F
100
AcDbEntity
  8
CUT
100
AcDbCircle
 10
412.9810530726106
 20
297.1709851850918
 30
0.0
 40
0.2944151409893618
100
AcDbArc
 50
0.9983035521995471
 51
31.00387869646074
  0
ENDSEC
  0
SECTION
  2
OBJECTS
  0
DICTIONARY
  5
C
330
0
100
AcDbDictionary
281
     1
  3
ACAD_CIP_PREVIOUS_PRODUCT_INFO
350
350
  3
ACAD_COLOR
350
34B
  3
ACAD_DETAILVIEWSTYLE
350
347
  3
ACAD_GROUP
350
D
  3
ACAD_LAYOUT
350
1A
  3
ACAD_MATERIAL
350
43
  3
ACAD_MLEADERSTYLE
350
6B
  3
ACAD_MLINESTYLE
350
17
  3
ACAD_PLOTSETTINGS
350
19
  3
ACAD_PLOTSTYLENAME
350
E
  3
ACAD_SCALELIST
350
47
  3
ACAD_SECTIONVIEWSTYLE
350
348
  3
ACAD_TABLESTYLE
350
69
  3
ACAD_VISUALSTYLE
350
2A
  3
ACDB_RECOMPOSE_DATA
350
3BB
  3
AcDbVariableDictionary
350
304
  0
DICTIONARY
  5
39C
330
10
100
AcDbDictionary
280
     1
281
     1
  3
ADSK_XREC_LAYER_RECONCILED
360
39D
  0
DICTIONARY
  5
39E
330
C2
100
AcDbDictionary
280
     1
281
     1
  3
ADSK_XREC_LAYER_RECONCILED
360
39F
  0
DICTIONARY
  5
3A0
330
38E
100
AcDbDictionary
280
     1
281
     1
  3
ADSK_XREC_LAYER_RECONCILED
360
3A1
  0
DICTIONARY
  5
3A2
330
38F
100
AcDbDictionary
280
     1
281
     1
  3
ADSK_XREC_LAYER_RECONCILED
360
3A3
  0
DICTIONARY
  5
3A4
330
390
100
AcDbDictionary
280
     1
281
     1
  3
ADSK_XREC_LAYER_RECONCILED
360
3A5
  0
DICTIONARY
  5
3A6
330
392
100
AcDbDictionary
280
     1
281
     1
  3
ADSK_XREC_LAYER_RECONCILED
360
3A7
  0
DICTIONARY
  5
3A8
330
393
100
AcDbDictionary
280
     1
281
     1
  3
ADSK_XREC_LAYER_RECONCILED
360
3A9
  0
DICTIONARY
  5
3AA
330
395
100
AcDbDictionary
280
     1
281
     1
  3
ADSK_XREC_LAYER_RECONCILED
360
3AB
  0
DICTIONARY
  5
3AC
330
396
100
AcDbDictionary
280
     1
281
     1
  3
ADSK_XREC_LAYER_RECONCILED
360
3AD
  0
DICTIONARY
  5
3AE
330
397
100
AcDbDictionary
280
     1
281
     1
  3
ADSK_XREC_LAYER_RECONCILED
360
3AF
  0
DICTIONARY
  5
3B0
330
398
100
AcDbDictionary
280
     1
281
     1
  3
ADSK_XREC_LAYER_RECONCILED
360
3B1
  0
DICTIONARY
  5
3B2
330
399
100
AcDbDictionary
280
     1
281
     1
  3
ADSK_XREC_LAYER_RECONCILED
360
3B3
  0
DICTIONARY
  5
3B4
330
39A
100
AcDbDictionary
280
     1
281
     1
  3
ADSK_XREC_LAYER_RECONCILED
360
3B5
  0
DICTIONARY
  5
351
330
1F
100
AcDbDictionary
280
     1
281
     1
  3
ACAD_SORTENTS
360
352
  0
XRECORD
  5
350
102
{ACAD_REACTORS
330
C
102
}
330
C
100
AcDbXrecord
280
     1
300
ACD
300
2019
300
87084ACD_2019_0F
  0
DICTIONARY
  5
34B
102
{ACAD_REACTORS
330
C
102
}
330
C
100
AcDbDictionary
281
     1
  0
DICTIONARY
  5
347
102
{ACAD_REACTORS
330
C
102
}
330
C
100
AcDbDictionary
281
     1
  3
Metric50
350
34D
  0
DICTIONARY
  5
D
102
{ACAD_REACTORS
330
C
102
}
330
C
100
AcDbDictionary
281
     1
  3
NULOVY_BOD
350
39B
  0
DICTIONARY
  5
1A
102
{ACAD_REACTORS
330
C
102
}
330
C
100
AcDbDictionary
281
     1
  3
Layout1
350
1E
  3
Layout2
350
26
  3
Model
350
22
  0
DICTIONARY
  5
43
102
{ACAD_REACTORS
330
C
102
}
330
C
100
AcDbDictionary
281
     1
  3
ByBlock
350
45
  3
ByLayer
350
44
  3
Global
350
46
  0
DICTIONARY
  5
6B
102
{ACAD_REACTORS
330
C
102
}
330
C
100
AcDbDictionary
281
     1
  3
Standard
350
6C
  0
DICTIONARY
  5
17
102
{ACAD_REACTORS
330
C
102
}
330
C
100
AcDbDictionary
281
     1
  3
Standard
350
18
  0
DICTIONARY
  5
19
102
{ACAD_REACTORS
330
C
102
}
330
C
100
AcDbDictionary
281
     1
  0
ACDBDICTIONARYWDFLT
  5
E
102
{ACAD_REACTORS
330
C
102
}
330
C
100
AcDbDictionary
281
     1
  3
Normal
350
F
100
AcDbDictionaryWithDefault
340
F
  0
DICTIONARY
  5
47
102
{ACAD_REACTORS
330
C
102
}
330
C
100
AcDbDictionary
281
     1
  3
A0
350
48
  3
A1
350
49
  3
A2
350
4A
  3
A3
350
4B
  3
A4
350
4C
  3
A5
350
4D
  3
A6
350
4E
  3
A7
350
4F
  3
A8
350
50
  3
A9
350
51
  3
B0
350
52
  3
B1
350
53
  3
B2
350
54
  3
B3
350
55
  3
B4
350
56
  3
B5
350
57
  3
B6
350
58
  3
B7
350
59
  3
B8
350
5A
  3
B9
350
5B
  3
C0
350
5C
  3
C1
350
5D
  3
C2
350
5E
  3
C3
350
5F
  3
C4
350
60
  3
C5
350
61
  3
C6
350
62
  3
C7
350
63
  3
C8
350
64
  3
C9
350
65
  3
D0
350
66
  3
D1
350
67
  3
D2
350
68
  0
DICTIONARY
  5
348
102
{ACAD_REACTORS
330
C
102
}
330
C
100
AcDbDictionary
281
     1
  3
Metric50
350
34C
  0
DICTIONARY
  5
69
102
{ACAD_REACTORS
330
C
102
}
330
C
100
AcDbDictionary
281
     1
  3
Standard
350
6A
  0
DICTIONARY
  5
2A
102
{ACAD_REACTORS
330
C
102
}
330
C
100
AcDbDictionary
281
     1
  3
2dWireframe
350
2F
  3
Basic
350
32
  3
Brighten
350
36
  3
ColorChange
350
3A
  3
Conceptual
350
34
  3
Dim
350
35
  3
EdgeColorOff
350
3D
  3
Facepattern
350
39
  3
Flat
350
2B
  3
FlatWithEdges
350
2C
  3
Gouraud
350
2D
  3
GouraudWithEdges
350
2E
  3
Hidden
350
31
  3
JitterOff
350
3B
  3
Linepattern
350
38
  3
OverhangOff
350
3C
  3
Realistic
350
33
  3
Shaded
350
42
  3
Shaded with edges
350
41
  3
Shades of Gray
350
3E
  3
Sketchy
350
3F
  3
Thicken
350
37
  3
Wireframe
350
30
  3
X-Ray
350
40
  0
XRECORD
  5
3BB
102
{ACAD_REACTORS
330
C
102
}
330
C
100
AcDbXrecord
280
     1
 90
        1
330
6A
  0
DICTIONARY
  5
304
102
{ACAD_REACTORS
330
C
102
}
330
C
100
AcDbDictionary
281
     1
  3
CANNOSCALE
350
305
  3
CMLEADERSTYLE
350
346
  3
CTABLESTYLE
350
345
  3
CVIEWDETAILSTYLE
350
3B6
  3
CVIEWSECTIONSTYLE
350
3B7
  3
MSLTSCALE
350
306
  3
XCLIPFRAME
350
3B8
  0
XRECORD
  5
39D
102
{ACAD_REACTORS
330
39C
102
}
330
39C
100
AcDbXrecord
280
     1
290
     1
  0
XRECORD
  5
39F
102
{ACAD_REACTORS
330
39E
102
}
330
39E
100
AcDbXrecord
280
     1
290
     1
  0
XRECORD
  5
3A1
102
{ACAD_REACTORS
330
3A0
102
}
330
3A0
100
AcDbXrecord
280
     1
290
     1
  0
XRECORD
  5
3A3
102
{ACAD_REACTORS
330
3A2
102
}
330
3A2
100
AcDbXrecord
280
     1
290
     1
  0
XRECORD
  5
3A5
102
{ACAD_REACTORS
330
3A4
102
}
330
3A4
100
AcDbXrecord
280
     1
290
     1
  0
XRECORD
  5
3A7
102
{ACAD_REACTORS
330
3A6
102
}
330
3A6
100
AcDbXrecord
280
     1
290
     1
  0
XRECORD
  5
3A9
102
{ACAD_REACTORS
330
3A8
102
}
330
3A8
100
AcDbXrecord
280
     1
290
     1
  0
XRECORD
  5
3AB
102
{ACAD_REACTORS
330
3AA
102
}
330
3AA
100
AcDbXrecord
280
     1
290
     1
  0
XRECORD
  5
3AD
102
{ACAD_REACTORS
330
3AC
102
}
330
3AC
100
AcDbXrecord
280
     1
290
     1
  0
XRECORD
  5
3AF
102
{ACAD_REACTORS
330
3AE
102
}
330
3AE
100
AcDbXrecord
280
     1
290
     1
  0
XRECORD
  5
3B1
102
{ACAD_REACTORS
330
3B0
102
}
330
3B0
100
AcDbXrecord
280
     1
290
     1
  0
XRECORD
  5
3B3
102
{ACAD_REACTORS
330
3B2
102
}
330
3B2
100
AcDbXrecord
280
     1
290
     1
  0
XRECORD
  5
3B5
102
{ACAD_REACTORS
330
3B4
102
}
330
3B4
100
AcDbXrecord
280
     1
290
     1
  0
SORTENTSTABLE
  5
352
102
{ACAD_REACTORS
330
351
102
}
330
351
100
AcDbSortentsTable
330
1F
331
353
  5
2BE
331
354
  5
2D7
331
355
  5
353
331
356
  5
354
331
357
  5
355
331
358
  5
356
331
359
  5
357
331
35A
  5
358
331
35B
  5
359
331
35C
  5
35A
331
35D
  5
35B
331
35E
  5
35C
331
35F
  5
35D
331
360
  5
35E
331
361
  5
35F
331
362
  5
360
331
363
  5
361
331
364
  5
362
331
365
  5
363
331
366
  5
364
331
367
  5
365
331
368
  5
366
331
369
  5
367
331
36A
  5
368
331
36B
  5
369
331
36C
  5
36A
331
36D
  5
36B
331
36E
  5
36C
331
36F
  5
36D
331
37F
  5
383
331
380
  5
384
331
383
  5
389
331
384
  5
38A
331
385
  5
38B
331
386
  5
38C
331
387
  5
38D
331
388
  5
37F
331
389
  5
380
331
38A
  5
385
331
38B
  5
386
331
38C
  5
387
331
38D
  5
388
  0
ACDBDETAILVIEWSTYLE
  5
34D
102
{ACAD_XDICTIONARY
360
3EF
102
}
102
{ACAD_REACTORS
330
347
102
}
330
347
100
AcDbModelDocViewStyle
 70
     0
  3
Metric50
290
     0
100
AcDbDetailViewStyle
 70
     0
 71
     0
 90
        3
 71
     1
340
11
 62
   256
 40
5.0
340
0
 62
   256
 40
5.0
300

 40
0.0
280
     1
 71
     2
340
16
 90
       25
 62
   256
 71
     3
340
11
 62
   256
 40
5.0
 90
        0
 40
15.0
 90
        1
300
%<\AcVar ViewDetailId>% (%<\AcVar ViewScale \f "%sn">%)
 71
     4
340
16
 90
       25
 62
   256
340
16
 90
       25
 62
   256
280
     0
  0
GROUP
  5
39B
102
{ACAD_REACTORS
330
D
102
}
330
D
100
AcDbGroup
300

 70
     0
 71
     1
340
73
  0
LAYOUT
  5
1E
102
{ACAD_REACTORS
330
1A
102
}
330
1A
100
AcDbPlotSettings
  1

  2
none_device
  4

  6

 40
0.0
 41
0.0
 42
0.0
 43
0.0
 44
0.0
 45
0.0
 46
0.0
 47
0.0
 48
0.0
 49
0.0
140
0.0
141
0.0
142
1.0
143
1.0
 70
   688
 72
     0
 73
     0
 74
     5
  7

 75
    16
147
1.0
 76
     0
 77
     2
 78
   300
148
0.0
149
0.0
100
AcDbLayout
  1
Layout1
 70
     1
 71
     1
 10
-0.5
 20
-0.5
 11
5.0
 21
5.0
 12
0.0
 22
0.0
 32
0.0
 14
-0.5
 24
-0.5
 34
-0.5
 15
5.0
 25
5.0
 35
5.0
146
0.0
 13
0.0
 23
0.0
 33
0.0
 16
1.0
 26
0.0
 36
0.0
 17
0.0
 27
1.0
 37
0.0
 76
     0
330
1B
  0
LAYOUT
  5
26
102
{ACAD_REACTORS
330
1A
102
}
330
1A
100
AcDbPlotSettings
  1

  2
none_device
  4

  6

 40
0.0
 41
0.0
 42
0.0
 43
0.0
 44
0.0
 45
0.0
 46
0.0
 47
0.0
 48
0.0
 49
0.0
140
0.0
141
0.0
142
1.0
143
1.0
 70
   688
 72
     0
 73
     0
 74
     5
  7

 75
    16
147
1.0
 76
     0
 77
     2
 78
   300
148
0.0
149
0.0
100
AcDbLayout
  1
Layout2
 70
     1
 71
     2
 10
0.0
 20
0.0
 11
0.0
 21
0.0
 12
0.0
 22
0.0
 32
0.0
 14
0.0
 24
0.0
 34
0.0
 15
0.0
 25
0.0
 35
0.0
146
0.0
 13
0.0
 23
0.0
 33
0.0
 16
1.0
 26
0.0
 36
0.0
 17
0.0
 27
1.0
 37
0.0
 76
     0
330
23
  0
LAYOUT
  5
22
102
{ACAD_REACTORS
330
1A
102
}
330
1A
100
AcDbPlotSettings
  1

  2
none_device
  4
Letter_(8.50_x_11.00_Inches)
  6

 40
6.349999999999999
 41
6.349999999999999
 42
6.350005
 43
6.350005
 44
215.9
 45
279.4
 46
0.0
 47
0.0
 48
0.0
 49
0.0
140
0.0
141
0.0
142
1.0
143
1.0
 70
  1712
 72
     0
 73
     0
 74
     0
  7

 75
     0
147
1.0
 76
     0
 77
     2
 78
   300
148
0.0
149
0.0
100
AcDbLayout
  1
Model
 70
     1
 71
     0
 10
-0.5
 20
-0.5
 11
5.0
 21
5.0
 12
0.0
 22
0.0
 32
0.0
 14
-0.5
 24
-0.5
 34
-0.5
 15
5.0
 25
5.0
 35
5.0
146
0.0
 13
0.0
 23
0.0
 33
0.0
 16
1.0
 26
0.0
 36
0.0
 17
0.0
 27
1.0
 37
0.0
 76
     0
330
1F
331
29
  0
MATERIAL
  5
45
102
{ACAD_XDICTIONARY
360
33A
102
}
102
{ACAD_REACTORS
330
43
102
}
330
43
100
AcDbMaterial
  1
ByBlock
  0
MATERIAL
  5
44
102
{ACAD_XDICTIONARY
360
338
102
}
102
{ACAD_REACTORS
330
43
102
}
330
43
100
AcDbMaterial
  1
ByLayer
  0
MATERIAL
  5
46
102
{ACAD_XDICTIONARY
360
33C
102
}
102
{ACAD_REACTORS
330
43
102
}
330
43
100
AcDbMaterial
  1
Global
  0
MLEADERSTYLE
  5
6C
102
{ACAD_REACTORS
330
6B
102
}
330
6B
100
AcDbMLeaderStyle
170
     2
171
     1
172
     0
 90
        2
 40
0.0
 41
0.0
173
     1
 91
-1056964608
340
14
 92
       -2
290
     1
 42
0.09
291
     1
 43
0.36
  3
Standard
 44
0.18
300

342
11
174
     1
178
     6
175
     1
176
     0
 93
-1056964608
 45
0.18
292
     0
297
     0
 46
0.18
 94
-1056964608
 47
1.0
 49
1.0
140
1.0
293
     1
141
0.0
294
     1
177
     0
142
1.0
295
     0
296
     0
143
0.125
1001
ACAD_MLEADERVER
1070
     2
  0
MLINESTYLE
  5
18
102
{ACAD_REACTORS
330
17
102
}
330
17
100
AcDbMlineStyle
  2
STANDARD
 70
     0
  3

 62
   256
 51
90.0
 52
90.0
 71
     2
 49
0.5
 62
   256
  6
BYLAYER
 49
-0.5
 62
   256
  6
BYLAYER
  0
ACDBPLACEHOLDER
  5
F
102
{ACAD_REACTORS
330
E
102
}
330
E
  0
SCALE
  5
48
102
{ACAD_REACTORS
330
47
102
}
330
47
100
AcDbScale
 70
     0
300
1:1
140
1.0
141
1.0
290
     1
  0
SCALE
  5
49
102
{ACAD_REACTORS
330
47
102
}
330
47
100
AcDbScale
 70
     0
300
1:2
140
1.0
141
2.0
290
     0
  0
SCALE
  5
4A
102
{ACAD_REACTORS
330
47
102
}
330
47
100
AcDbScale
 70
     0
300
1:4
140
1.0
141
4.0
290
     0
  0
SCALE
  5
4B
102
{ACAD_REACTORS
330
47
102
}
330
47
100
AcDbScale
 70
     0
300
1:5
140
1.0
141
5.0
290
     0
  0
SCALE
  5
4C
102
{ACAD_REACTORS
330
47
102
}
330
47
100
AcDbScale
 70
     0
300
1:8
140
1.0
141
8.0
290
     0
  0
SCALE
  5
4D
102
{ACAD_REACTORS
330
47
102
}
330
47
100
AcDbScale
 70
     0
300
1:10
140
1.0
141
10.0
290
     0
  0
SCALE
  5
4E
102
{ACAD_REACTORS
330
47
102
}
330
47
100
AcDbScale
 70
     0
300
1:16
140
1.0
141
16.0
290
     0
  0
SCALE
  5
4F
102
{ACAD_REACTORS
330
47
102
}
330
47
100
AcDbScale
 70
     0
300
1:20
140
1.0
141
20.0
290
     0
  0
SCALE
  5
50
102
{ACAD_REACTORS
330
47
102
}
330
47
100
AcDbScale
 70
     0
300
1:30
140
1.0
141
30.0
290
     0
  0
SCALE
  5
51
102
{ACAD_REACTORS
330
47
102
}
330
47
100
AcDbScale
 70
     0
300
1:40
140
1.0
141
40.0
290
     0
  0
SCALE
  5
52
102
{ACAD_REACTORS
330
47
102
}
330
47
100
AcDbScale
 70
     0
300
1:50
140
1.0
141
50.0
290
     0
  0
SCALE
  5
53
102
{ACAD_REACTORS
330
47
102
}
330
47
100
AcDbScale
 70
     0
300
1:100
140
1.0
141
100.0
290
     0
  0
SCALE
  5
54
102
{ACAD_REACTORS
330
47
102
}
330
47
100
AcDbScale
 70
     0
300
2:1
140
2.0
141
1.0
290
     0
  0
SCALE
  5
55
102
{ACAD_REACTORS
330
47
102
}
330
47
100
AcDbScale
 70
     0
300
4:1
140
4.0
141
1.0
290
     0
  0
SCALE
  5
56
102
{ACAD_REACTORS
330
47
102
}
330
47
100
AcDbScale
 70
     0
300
8:1
140
8.0
141
1.0
290
     0
  0
SCALE
  5
57
102
{ACAD_REACTORS
330
47
102
}
330
47
100
AcDbScale
 70
     0
300
10:1
140
10.0
141
1.0
290
     0
  0
SCALE
  5
58
102
{ACAD_REACTORS
330
47
102
}
330
47
100
AcDbScale
 70
     0
300
100:1
140
100.0
141
1.0
290
     0
  0
SCALE
  5
59
102
{ACAD_REACTORS
330
47
102
}
330
47
100
AcDbScale
 70
     0
300
1/128" = 1'-0"
140
0.007812
141
12.0
290
     0
  0
SCALE
  5
5A
102
{ACAD_REACTORS
330
47
102
}
330
47
100
AcDbScale
 70
     0
300
1/64" = 1'-0"
140
0.015625
141
12.0
290
     0
  0
SCALE
  5
5B
102
{ACAD_REACTORS
330
47
102
}
330
47
100
AcDbScale
 70
     0
300
1/32" = 1'-0"
140
0.03125
141
12.0
290
     0
  0
SCALE
  5
5C
102
{ACAD_REACTORS
330
47
102
}
330
47
100
AcDbScale
 70
     0
300
1/16" = 1'-0"
140
0.0625
141
12.0
290
     0
  0
SCALE
  5
5D
102
{ACAD_REACTORS
330
47
102
}
330
47
100
AcDbScale
 70
     0
300
3/32" = 1'-0"
140
0.09375
141
12.0
290
     0
  0
SCALE
  5
5E
102
{ACAD_REACTORS
330
47
102
}
330
47
100
AcDbScale
 70
     0
300
1/8" = 1'-0"
140
0.125
141
12.0
290
     0
  0
SCALE
  5
5F
102
{ACAD_REACTORS
330
47
102
}
330
47
100
AcDbScale
 70
     0
300
3/16" = 1'-0"
140
0.1875
141
12.0
290
     0
  0
SCALE
  5
60
102
{ACAD_REACTORS
330
47
102
}
330
47
100
AcDbScale
 70
     0
300
1/4" = 1'-0"
140
0.25
141
12.0
290
     0
  0
SCALE
  5
61
102
{ACAD_REACTORS
330
47
102
}
330
47
100
AcDbScale
 70
     0
300
3/8" = 1'-0"
140
0.375
141
12.0
290
     0
  0
SCALE
  5
62
102
{ACAD_REACTORS
330
47
102
}
330
47
100
AcDbScale
 70
     0
300
1/2" = 1'-0"
140
0.5
141
12.0
290
     0
  0
SCALE
  5
63
102
{ACAD_REACTORS
330
47
102
}
330
47
100
AcDbScale
 70
     0
300
3/4" = 1'-0"
140
0.75
141
12.0
290
     0
  0
SCALE
  5
64
102
{ACAD_REACTORS
330
47
102
}
330
47
100
AcDbScale
 70
     0
300
1" = 1'-0"
140
1.0
141
12.0
290
     0
  0
SCALE
  5
65
102
{ACAD_REACTORS
330
47
102
}
330
47
100
AcDbScale
 70
     0
300
1-1/2" = 1'-0"
140
1.5
141
12.0
290
     0
  0
SCALE
  5
66
102
{ACAD_REACTORS
330
47
102
}
330
47
100
AcDbScale
 70
     0
300
3" = 1'-0"
140
3.0
141
12.0
290
     0
  0
SCALE
  5
67
102
{ACAD_REACTORS
330
47
102
}
330
47
100
AcDbScale
 70
     0
300
6" = 1'-0"
140
6.0
141
12.0
290
     0
  0
SCALE
  5
68
102
{ACAD_REACTORS
330
47
102
}
330
47
100
AcDbScale
 70
     0
300
1'-0" = 1'-0"
140
12.0
141
12.0
290
     0
  0
ACDBSECTIONVIEWSTYLE
  5
34C
102
{ACAD_XDICTIONARY
360
3ED
102
}
102
{ACAD_REACTORS
330
348
102
}
330
348
100
AcDbModelDocViewStyle
 70
     0
  3
Metric50
290
     0
100
AcDbSectionViewStyle
 70
     0
 71
     0
 90
      102
 71
     1
340
11
 62
   256
 40
5.0
340
0
340
0
 62
   256
 40
5.0
300
I, O, Q, S, X, Z
 40
10.0
 90
        0
 40
2.5
 90
        0
 71
     2
340
16
 90
       25
 62
   256
340
16
 90
       50
 62
   256
 40
5.0
 40
2.5
 40
5.0
 71
     3
340
11
 62
   256
 40
5.0
 90
        0
 40
15.0
 90
        1
300
%<\AcVar ViewSectionStartId>%-%<\AcVar ViewSectionEndId>% (%<\AcVar ViewScale \f "%sn">%)
 71
     4
 62
   256
 62
   257
300
ANSI31
 40
1.0
 90
        0
290
     0
290
     0
 90
        6
 40
0.0
 40
1.570796326794896
 40
0.2617993877991494
 40
1.308996938995747
 40
-0.2617993877991494
 40
1.832595714594046
  0
TABLESTYLE
  5
6A
102
{ACAD_XDICTIONARY
360
33E
102
}
102
{ACAD_REACTORS
330
69
102
}
330
69
100
AcDbTableStyle
  3
Standard
 70
     0
 71
     0
 40
0.06
 41
0.06
280
     0
281
     0
  7
Standard
140
0.18
170
     2
 62
     0
 63
     7
283
     0
274
    -2
284
     1
 64
     0
275
    -2
285
     1
 65
     0
276
    -2
286
     1
 66
     0
277
    -2
287
     1
 67
     0
278
    -2
288
     1
 68
     0
279
    -2
289
     1
 69
     0
  7
Standard
140
0.25
170
     5
 62
     0
 63
     7
283
     0
274
    -2
284
     1
 64
     0
275
    -2
285
     1
 65
     0
276
    -2
286
     1
 66
     0
277
    -2
287
     1
 67
     0
278
    -2
288
     1
 68
     0
279
    -2
289
     1
 69
     0
  7
Standard
140
0.18
170
     5
 62
     0
 63
     7
283
     0
274
    -2
284
     1
 64
     0
275
    -2
285
     1
 65
     0
276
    -2
286
     1
 66
     0
277
    -2
287
     1
 67
     0
278
    -2
288
     1
 68
     0
279
    -2
289
     1
 69
     0
  0
VISUALSTYLE
  5
2F
102
{ACAD_XDICTIONARY
360
3C4
102
}
102
{ACAD_REACTORS
330
2A
102
}
330
2A
100
AcDbVisualStyle
  2

 70
     4
 71
     0
 72
     2
 73
     0
 90
        0
 40
-0.6
 41
-30.0
 62
     5
 63
     7
421
 16777215
 74
     1
 91
        4
 64
     7
 65
   257
 75
     1
175
     1
 42
1.0
 92
        0
 66
   257
 43
1.0
 76
     1
 77
     6
 78
     2
 67
     7
 79
     5
170
     0
171
     0
290
     0
174
     0
 93
        1
 44
0.0
173
     0
291
     0
 45
0.0
1001
ACAD
1000
AcDbSavedByObjectVersion
1070
     0
  0
VISUALSTYLE
  5
32
102
{ACAD_XDICTIONARY
360
3CA
102
}
102
{ACAD_REACTORS
330
2A
102
}
330
2A
100
AcDbVisualStyle
  2

 70
     7
 71
     1
 72
     0
 73
     1
 90
        0
 40
-0.6
 41
-30.0
 62
     5
 63
     7
421
 16777215
 74
     0
 91
        4
 64
     7
 65
   257
 75
     1
175
     1
 42
1.0
 92
        8
 66
     7
 43
1.0
 76
     1
 77
     6
 78
     2
 67
     7
 79
     5
170
     0
171
     0
290
     0
174
     0
 93
        1
 44
0.0
173
     0
291
     1
 45
0.0
1001
ACAD
1000
AcDbSavedByObjectVersion
1070
     0
  0
VISUALSTYLE
  5
36
102
{ACAD_XDICTIONARY
360
3D2
102
}
102
{ACAD_REACTORS
330
2A
102
}
330
2A
100
AcDbVisualStyle
  2

 70
    12
 71
     2
 72
     2
 73
     0
 90
        0
 40
-0.6
 41
-30.0
 62
     5
 63
     7
421
 16777215
 74
     1
 91
        4
 64
     7
 65
   257
 75
     1
175
     1
 42
1.0
 92
        8
 66
     7
 43
1.0
 76
     1
 77
     6
 78
     2
 67
     7
 79
     5
170
     0
171
     0
290
     0
174
     0
 93
        1
 44
50.0
173
     0
291
     1
 45
0.0
1001
ACAD
1000
AcDbSavedByObjectVersion
1070
     0
  0
VISUALSTYLE
  5
3A
102
{ACAD_XDICTIONARY
360
3DA
102
}
102
{ACAD_REACTORS
330
2A
102
}
330
2A
100
AcDbVisualStyle
  2

 70
    16
 71
     2
 72
     2
 73
     3
 90
        0
 40
-0.6
 41
-30.0
 62
     5
 63
     8
421
  8421504
 74
     1
 91
        4
 64
     7
 65
   257
 75
     1
175
     1
 42
1.0
 92
        8
 66
     8
424
  8421504
 43
1.0
 76
     1
 77
     6
 78
     2
 67
     7
 79
     5
170
     0
171
     0
290
     0
174
     0
 93
        1
 44
0.0
173
     0
291
     1
 45
0.0
1001
ACAD
1000
AcDbSavedByObjectVersion
1070
     0
  0
VISUALSTYLE
  5
34
102
{ACAD_XDICTIONARY
360
3CE
102
}
102
{ACAD_REACTORS
330
2A
102
}
330
2A
100
AcDbVisualStyle
  2

 70
     9
 71
     3
 72
     2
 73
     0
 90
        0
 40
-0.6
 41
-30.0
 62
     5
 63
     7
421
 16777215
 74
     2
 91
        2
 64
     7
 65
   257
 75
     1
175
     1
 42
179.0
 92
        8
 66
     7
 43
1.0
 76
     1
 77
     6
 78
     2
 67
     7
 79
     3
170
     0
171
     0
290
     0
174
     0
 93
        1
 44
0.0
173
     0
291
     0
 45
0.0
1001
ACAD
1000
AcDbSavedByObjectVersion
1070
     0
  0
VISUALSTYLE
  5
35
102
{ACAD_XDICTIONARY
360
3D0
102
}
102
{ACAD_REACTORS
330
2A
102
}
330
2A
100
AcDbVisualStyle
  2

 70
    11
 71
     2
 72
     2
 73
     0
 90
        0
 40
-0.6
 41
-30.0
 62
     5
 63
     7
421
 16777215
 74
     1
 91
        4
 64
     7
 65
   257
 75
     1
175
     1
 42
1.0
 92
        8
 66
     7
 43
1.0
 76
     1
 77
     6
 78
     2
 67
     7
 79
     5
170
     0
171
     0
290
     0
174
     0
 93
        1
 44
-50.0
173
     0
291
     1
 45
0.0
1001
ACAD
1000
AcDbSavedByObjectVersion
1070
     0
  0
VISUALSTYLE
  5
3D
102
{ACAD_XDICTIONARY
360
3E0
102
}
102
{ACAD_REACTORS
330
2A
102
}
330
2A
100
AcDbVisualStyle
  2

 70
    22
 71
     2
 72
     2
 73
     0
 90
        0
 40
-0.6
 41
-30.0
 62
     5
 63
     7
421
 16777215
 74
     1
 91
        4
 64
     7
 65
   257
 75
     1
175
     1
 42
1.0
 92
        8
 66
     7
 43
1.0
 76
     1
 77
     6
 78
     2
 67
     7
 79
     5
170
     0
171
     0
290
     0
174
     0
 93
        1
 44
0.0
173
     0
291
     1
 45
0.0
1001
ACAD
1000
AcDbSavedByObjectVersion
1070
     0
  0
VISUALSTYLE
  5
39
102
{ACAD_XDICTIONARY
360
3D8
102
}
102
{ACAD_REACTORS
330
2A
102
}
330
2A
100
AcDbVisualStyle
  2

 70
    15
 71
     2
 72
     2
 73
     0
 90
        0
 40
-0.6
 41
-30.0
 62
     5
 63
     7
421
 16777215
 74
     1
 91
        4
 64
     7
 65
   257
 75
     1
175
     1
 42
1.0
 92
        8
 66
     7
 43
1.0
 76
     1
 77
     6
 78
     2
 67
     7
 79
     5
170
     0
171
     0
290
     0
174
     0
 93
        1
 44
0.0
173
     0
291
     1
 45
0.0
1001
ACAD
1000
AcDbSavedByObjectVersion
1070
     0
  0
VISUALSTYLE
  5
2B
102
{ACAD_XDICTIONARY
360
3BC
102
}
102
{ACAD_REACTORS
330
2A
102
}
330
2A
100
AcDbVisualStyle
  2

 70
     0
 71
     2
 72
     1
 73
     1
 90
        2
 40
-0.6
 41
30.0
 62
     5
 63
     7
421
 16777215
 74
     0
 91
        0
 64
     7
 65
   257
 75
     1
175
     1
 42
1.0
 92
        8
 66
     7
 43
1.0
 76
     1
 77
     6
 78
     2
 67
     7
 79
     5
170
     0
171
     0
290
     0
174
     0
 93
       13
 44
0.0
173
     0
291
     1
 45
0.0
1001
ACAD
1000
AcDbSavedByObjectVersion
1070
     0
  0
VISUALSTYLE
  5
2C
102
{ACAD_XDICTIONARY
360
3BE
102
}
102
{ACAD_REACTORS
330
2A
102
}
330
2A
100
AcDbVisualStyle
  2

 70
     1
 71
     2
 72
     1
 73
     1
 90
        2
 40
-0.6
 41
30.0
 62
     5
 63
     7
421
 16777215
 74
     1
 91
        0
 64
     7
 65
   257
 75
     1
175
     1
 42
1.0
 92
        0
 66
   257
 43
1.0
 76
     1
 77
     6
 78
     2
 67
     7
 79
     5
170
     0
171
     0
290
     0
174
     0
 93
       13
 44
0.0
173
     0
291
     1
 45
0.0
1001
ACAD
1000
AcDbSavedByObjectVersion
1070
     0
  0
VISUALSTYLE
  5
2D
102
{ACAD_XDICTIONARY
360
3C0
102
}
102
{ACAD_REACTORS
330
2A
102
}
330
2A
100
AcDbVisualStyle
  2

 70
     2
 71
     2
 72
     2
 73
     1
 90
        2
 40
-0.6
 41
30.0
 62
     5
 63
     7
421
 16777215
 74
     0
 91
        0
 64
     7
 65
   257
 75
     1
175
     1
 42
1.0
 92
        0
 66
     7
 43
1.0
 76
     1
 77
     6
 78
     2
 67
     7
 79
     5
170
     0
171
     0
290
     0
174
     0
 93
       13
 44
0.0
173
     0
291
     1
 45
0.0
1001
ACAD
1000
AcDbSavedByObjectVersion
1070
     0
  0
VISUALSTYLE
  5
2E
102
{ACAD_XDICTIONARY
360
3C2
102
}
102
{ACAD_REACTORS
330
2A
102
}
330
2A
100
AcDbVisualStyle
  2

 70
     3
 71
     2
 72
     2
 73
     1
 90
        2
 40
-0.6
 41
30.0
 62
     5
 63
     7
421
 16777215
 74
     1
 91
        0
 64
     7
 65
   257
 75
     1
175
     1
 42
1.0
 92
        0
 66
   257
 43
1.0
 76
     1
 77
     6
 78
     2
 67
     7
 79
     5
170
     0
171
     0
290
     0
174
     0
 93
       13
 44
0.0
173
     0
291
     1
 45
0.0
1001
ACAD
1000
AcDbSavedByObjectVersion
1070
     0
  0
VISUALSTYLE
  5
31
102
{ACAD_XDICTIONARY
360
3C8
102
}
102
{ACAD_REACTORS
330
2A
102
}
330
2A
100
AcDbVisualStyle
  2

 70
     6
 71
     1
 72
     2
 73
     2
 90
        0
 40
-0.6
 41
-30.0
 62
     5
 63
     7
421
 16777215
 74
     2
 91
        2
 64
     7
 65
   257
 75
     2
175
     1
 42
40.0
 92
        0
 66
   257
 43
1.0
 76
     1
 77
     6
 78
     2
 67
     7
 79
     3
170
     0
171
     0
290
     0
174
     0
 93
        1
 44
0.0
173
     0
291
     0
 45
0.0
1001
ACAD
1000
AcDbSavedByObjectVersion
1070
     0
  0
VISUALSTYLE
  5
3B
102
{ACAD_XDICTIONARY
360
3DC
102
}
102
{ACAD_REACTORS
330
2A
102
}
330
2A
100
AcDbVisualStyle
  2

 70
    20
 71
     2
 72
     2
 73
     0
 90
        0
 40
-0.6
 41
-30.0
 62
     5
 63
     7
421
 16777215
 74
     1
 91
        4
 64
     7
 65
   257
 75
     1
175
     1
 42
1.0
 92
       10
 66
     7
 43
1.0
 76
     1
 77
     6
 78
     2
 67
     7
 79
     5
170
     0
171
     0
290
     0
174
     0
 93
        1
 44
0.0
173
     0
291
     1
 45
0.0
1001
ACAD
1000
AcDbSavedByObjectVersion
1070
     0
  0
VISUALSTYLE
  5
38
102
{ACAD_XDICTIONARY
360
3D6
102
}
102
{ACAD_REACTORS
330
2A
102
}
330
2A
100
AcDbVisualStyle
  2

 70
    14
 71
     2
 72
     2
 73
     0
 90
        0
 40
-0.6
 41
-30.0
 62
     5
 63
     7
421
 16777215
 74
     1
 91
        4
 64
     7
 65
   257
 75
     7
175
     7
 42
1.0
 92
        8
 66
     7
 43
1.0
 76
     1
 77
     6
 78
     2
 67
     7
 79
     5
170
     0
171
     0
290
     0
174
     0
 93
        1
 44
0.0
173
     0
291
     1
 45
0.0
1001
ACAD
1000
AcDbSavedByObjectVersion
1070
     0
  0
VISUALSTYLE
  5
3C
102
{ACAD_XDICTIONARY
360
3DE
102
}
102
{ACAD_REACTORS
330
2A
102
}
330
2A
100
AcDbVisualStyle
  2

 70
    21
 71
     2
 72
     2
 73
     0
 90
        0
 40
-0.6
 41
-30.0
 62
     5
 63
     7
421
 16777215
 74
     1
 91
        4
 64
     7
 65
   257
 75
     1
175
     1
 42
1.0
 92
        9
 66
     7
 43
1.0
 76
     1
 77
     6
 78
     2
 67
     7
 79
     5
170
     0
171
     0
290
     0
174
     0
 93
        1
 44
0.0
173
     0
291
     1
 45
0.0
1001
ACAD
1000
AcDbSavedByObjectVersion
1070
     0
  0
VISUALSTYLE
  5
33
102
{ACAD_XDICTIONARY
360
3CC
102
}
102
{ACAD_REACTORS
330
2A
102
}
330
2A
100
AcDbVisualStyle
  2

 70
     8
 71
     2
 72
     3
 73
     0
 90
        2
 40
-0.6
 41
30.0
 62
     5
 63
     7
421
 16777215
 74
     0
 91
        0
 64
     7
 65
   257
 75
     1
175
     1
 42
1.0
 92
        8
 66
   257
 43
1.0
 76
     1
 77
     6
 78
     2
 67
     7
 79
     3
170
     0
171
     0
290
     0
174
     0
 93
       13
 44
0.0
173
     0
291
     0
 45
0.0
1001
ACAD
1000
AcDbSavedByObjectVersion
1070
     0
  0
VISUALSTYLE
  5
42
102
{ACAD_XDICTIONARY
360
3EA
102
}
102
{ACAD_REACTORS
330
2A
102
}
330
2A
100
AcDbVisualStyle
  2

 70
    27
 71
     2
 72
     2
 73
     1
 90
        2
 40
-0.6
 41
30.0
 62
     5
 63
     7
421
 16777215
 74
     0
 91
        4
 64
     7
 65
   257
 75
     1
175
     1
 42
1.0
 92
        8
 66
   257
 43
1.0
 76
     1
 77
     6
 78
     2
 67
     8
425
  7895160
 79
     3
170
     0
171
     0
290
     0
174
     0
 93
        5
 44
0.0
173
     0
291
     0
 45
0.0
1001
ACAD
1000
AcDbSavedByObjectVersion
1070
     0
  0
VISUALSTYLE
  5
41
102
{ACAD_XDICTIONARY
360
3E8
102
}
102
{ACAD_REACTORS
330
2A
102
}
330
2A
100
AcDbVisualStyle
  2

 70
    26
 71
     2
 72
     2
 73
     1
 90
        2
 40
-0.6
 41
30.0
 62
     5
 63
     7
421
 16777215
 74
     1
 91
       10
 64
     7
 65
   257
 75
     2
175
     1
 42
1.0
 92
        8
 66
   257
 43
1.0
 76
     1
 77
     6
 78
     2
 67
     7
 79
     3
170
     0
171
     0
290
     0
174
     0
 93
        5
 44
0.0
173
     0
291
     0
 45
0.0
1001
ACAD
1000
AcDbSavedByObjectVersion
1070
     0
  0
VISUALSTYLE
  5
3E
102
{ACAD_XDICTIONARY
360
3E2
102
}
102
{ACAD_REACTORS
330
2A
102
}
330
2A
100
AcDbVisualStyle
  2

 70
    23
 71
     2
 72
     2
 73
     3
 90
        0
 40
-0.6
 41
-30.0
 62
     5
 63
     7
421
 16777215
 74
     2
 91
        2
 64
     7
 65
     7
 75
     1
175
     1
 42
40.0
 92
        8
 66
     7
 43
1.0
 76
     1
 77
     6
 78
     2
 67
     7
 79
     3
170
     0
171
     0
290
     0
174
     0
 93
        1
 44
0.0
173
     0
291
     0
 45
0.0
1001
ACAD
1000
AcDbSavedByObjectVersion
1070
     0
  0
VISUALSTYLE
  5
3F
102
{ACAD_XDICTIONARY
360
3E4
102
}
102
{ACAD_REACTORS
330
2A
102
}
330
2A
100
AcDbVisualStyle
  2

 70
    24
 71
     1
 72
     2
 73
     2
 90
        0
 40
-0.6
 41
-30.0
 62
     5
 63
     7
421
 16777215
 74
     2
 91
        2
 64
     7
 65
     7
 75
     1
175
     1
 42
40.0
 92
       11
 66
     7
 43
1.0
 76
     1
 77
     6
 78
     2
 67
     7
 79
     6
170
     0
171
     0
290
     0
174
     0
 93
        1
 44
0.0
173
     0
291
     0
 45
0.0
1001
ACAD
1000
AcDbSavedByObjectVersion
1070
     0
  0
VISUALSTYLE
  5
37
102
{ACAD_XDICTIONARY
360
3D4
102
}
102
{ACAD_REACTORS
330
2A
102
}
330
2A
100
AcDbVisualStyle
  2

 70
    13
 71
     2
 72
     2
 73
     0
 90
        0
 40
-0.6
 41
-30.0
 62
     5
 63
     7
421
 16777215
 74
     1
 91
        4
 64
     7
 65
   257
 75
     1
175
     1
 42
1.0
 92
       12
 66
     7
 43
1.0
 76
     1
 77
     6
 78
     2
 67
     7
 79
     5
170
     0
171
     0
290
     0
174
     0
 93
        1
 44
0.0
173
     0
291
     1
 45
0.0
1001
ACAD
1000
AcDbSavedByObjectVersion
1070
     0
  0
VISUALSTYLE
  5
30
102
{ACAD_XDICTIONARY
360
3C6
102
}
102
{ACAD_REACTORS
330
2A
102
}
330
2A
100
AcDbVisualStyle
  2

 70
     5
 71
     0
 72
     2
 73
     0
 90
        0
 40
-0.6
 41
-30.0
 62
     5
 63
     7
421
 16777215
 74
     1
 91
        4
 64
     7
 65
   257
 75
     1
175
     1
 42
1.0
 92
        0
 66
   257
 43
1.0
 76
     1
 77
     6
 78
     2
 67
     7
 79
     3
170
     0
171
     0
290
     0
174
     0
 93
        1
 44
0.0
173
     0
291
     0
 45
0.0
1001
ACAD
1000
AcDbSavedByObjectVersion
1070
     0
  0
VISUALSTYLE
  5
40
102
{ACAD_XDICTIONARY
360
3E6
102
}
102
{ACAD_REACTORS
330
2A
102
}
330
2A
100
AcDbVisualStyle
  2

 70
    25
 71
     2
 72
     2
 73
     1
 90
        1
 40
0.5
 41
-30.0
 62
     5
 63
     7
421
 16777215
 74
     1
 91
        0
 64
     7
 65
   257
 75
     1
175
     1
 42
1.0
 92
        8
 66
     7
 43
1.0
 76
     1
 77
     6
 78
     2
 67
     7
 79
     3
170
     0
171
     0
290
     0
174
     0
 93
       13
 44
0.0
173
     0
291
     0
 45
0.0
1001
ACAD
1000
AcDbSavedByObjectVersion
1070
     0
  0
DICTIONARYVAR
  5
305
102
{ACAD_REACTORS
330
304
102
}
330
304
100
DictionaryVariables
280
     0
  1
1:1
  0
DICTIONARYVAR
  5
346
102
{ACAD_REACTORS
330
304
102
}
330
304
100
DictionaryVariables
280
     0
  1
STANDARD
  0
DICTIONARYVAR
  5
345
102
{ACAD_REACTORS
330
304
102
}
330
304
100
DictionaryVariables
280
     0
  1
STANDARD
  0
DICTIONARYVAR
  5
3B6
102
{ACAD_REACTORS
330
304
102
}
330
304
100
DictionaryVariables
280
     0
  1
Metric50
  0
DICTIONARYVAR
  5
3B7
102
{ACAD_REACTORS
330
304
102
}
330
304
100
DictionaryVariables
280
     0
  1
Metric50
  0
DICTIONARYVAR
  5
306
102
{ACAD_REACTORS
330
304
102
}
330
304
100
DictionaryVariables
280
     0
  1
1
  0
DICTIONARYVAR
  5
3B8
102
{ACAD_REACTORS
330
304
102
}
330
304
100
DictionaryVariables
280
     0
  1
2
  0
DICTIONARY
  5
3EF
330
34D
100
AcDbDictionary
280
     1
281
     1
  3
ACAD_XREC_ROUNDTRIP
360
3F0
  0
DICTIONARY
  5
33A
330
45
100
AcDbDictionary
280
     1
281
     1
  3
ACAD_XREC_ROUNDTRIP
360
33B
  0
DICTIONARY
  5
338
330
44
100
AcDbDictionary
280
     1
281
     1
  3
ACAD_XREC_ROUNDTRIP
360
339
  0
DICTIONARY
  5
33C
330
46
100
AcDbDictionary
280
     1
281
     1
  3
ACAD_XREC_ROUNDTRIP
360
33D
  0
DICTIONARY
  5
3ED
330
34C
100
AcDbDictionary
280
     1
281
     1
  3
ACAD_XREC_ROUNDTRIP
360
3EE
  0
DICTIONARY
  5
33E
330
6A
100
AcDbDictionary
280
     1
281
     1
  3
ACAD_ROUNDTRIP_2008_TABLESTYLE_CELLSTYLEMAP
360
3BA
  3
ACAD_XREC_ROUNDTRIP
360
3EC
  0
DICTIONARY
  5
3C4
330
2F
100
AcDbDictionary
280
     1
281
     1
  3
ACAD_XREC_ROUNDTRIP
360
3C5
  0
DICTIONARY
  5
3CA
330
32
100
AcDbDictionary
280
     1
281
     1
  3
ACAD_XREC_ROUNDTRIP
360
3CB
  0
DICTIONARY
  5
3D2
330
36
100
AcDbDictionary
280
     1
281
     1
  3
ACAD_XREC_ROUNDTRIP
360
3D3
  0
DICTIONARY
  5
3DA
330
3A
100
AcDbDictionary
280
     1
281
     1
  3
ACAD_XREC_ROUNDTRIP
360
3DB
  0
DICTIONARY
  5
3CE
330
34
100
AcDbDictionary
280
     1
281
     1
  3
ACAD_XREC_ROUNDTRIP
360
3CF
  0
DICTIONARY
  5
3D0
330
35
100
AcDbDictionary
280
     1
281
     1
  3
ACAD_XREC_ROUNDTRIP
360
3D1
  0
DICTIONARY
  5
3E0
330
3D
100
AcDbDictionary
280
     1
281
     1
  3
ACAD_XREC_ROUNDTRIP
360
3E1
  0
DICTIONARY
  5
3D8
330
39
100
AcDbDictionary
280
     1
281
     1
  3
ACAD_XREC_ROUNDTRIP
360
3D9
  0
DICTIONARY
  5
3BC
330
2B
100
AcDbDictionary
280
     1
281
     1
  3
ACAD_XREC_ROUNDTRIP
360
3BD
  0
DICTIONARY
  5
3BE
330
2C
100
AcDbDictionary
280
     1
281
     1
  3
ACAD_XREC_ROUNDTRIP
360
3BF
  0
DICTIONARY
  5
3C0
330
2D
100
AcDbDictionary
280
     1
281
     1
  3
ACAD_XREC_ROUNDTRIP
360
3C1
  0
DICTIONARY
  5
3C2
330
2E
100
AcDbDictionary
280
     1
281
     1
  3
ACAD_XREC_ROUNDTRIP
360
3C3
  0
DICTIONARY
  5
3C8
330
31
100
AcDbDictionary
280
     1
281
     1
  3
ACAD_XREC_ROUNDTRIP
360
3C9
  0
DICTIONARY
  5
3DC
330
3B
100
AcDbDictionary
280
     1
281
     1
  3
ACAD_XREC_ROUNDTRIP
360
3DD
  0
DICTIONARY
  5
3D6
330
38
100
AcDbDictionary
280
     1
281
     1
  3
ACAD_XREC_ROUNDTRIP
360
3D7
  0
DICTIONARY
  5
3DE
330
3C
100
AcDbDictionary
280
     1
281
     1
  3
ACAD_XREC_ROUNDTRIP
360
3DF
  0
DICTIONARY
  5
3CC
330
33
100
AcDbDictionary
280
     1
281
     1
  3
ACAD_XREC_ROUNDTRIP
360
3CD
  0
DICTIONARY
  5
3EA
330
42
100
AcDbDictionary
280
     1
281
     1
  3
ACAD_XREC_ROUNDTRIP
360
3EB
  0
DICTIONARY
  5
3E8
330
41
100
AcDbDictionary
280
     1
281
     1
  3
ACAD_XREC_ROUNDTRIP
360
3E9
  0
DICTIONARY
  5
3E2
330
3E
100
AcDbDictionary
280
     1
281
     1
  3
ACAD_XREC_ROUNDTRIP
360
3E3
  0
DICTIONARY
  5
3E4
330
3F
100
AcDbDictionary
280
     1
281
     1
  3
ACAD_XREC_ROUNDTRIP
360
3E5
  0
DICTIONARY
  5
3D4
330
37
100
AcDbDictionary
280
     1
281
     1
  3
ACAD_XREC_ROUNDTRIP
360
3D5
  0
DICTIONARY
  5
3C6
330
30
100
AcDbDictionary
280
     1
281
     1
  3
ACAD_XREC_ROUNDTRIP
360
3C7
  0
DICTIONARY
  5
3E6
330
40
100
AcDbDictionary
280
     1
281
     1
  3
ACAD_XREC_ROUNDTRIP
360
3E7
  0
XRECORD
  5
3F0
102
{ACAD_REACTORS
330
3EF
102
}
330
3EF
100
AcDbXrecord
280
     1
102
DISPLAYNAME
  1
Metric50
102
FLAGS
 90
        0
  0
XRECORD
  5
33B
102
{ACAD_REACTORS
330
33A
102
}
330
33A
100
AcDbXrecord
280
     1
102
MATERIAL
148
0.0
149
0.0
149
0.0
 93
        0
 94
      127
282
     0
 72
     1
 77
     1
171
     1
175
     1
179
     1
273
     0
  0
XRECORD
  5
339
102
{ACAD_REACTORS
330
338
102
}
330
338
100
AcDbXrecord
280
     1
102
MATERIAL
148
0.0
149
0.0
149
0.0
 93
        0
 94
      127
282
     0
 72
     1
 77
     1
171
     1
175
     1
179
     1
273
     0
  0
XRECORD
  5
33D
102
{ACAD_REACTORS
330
33C
102
}
330
33C
100
AcDbXrecord
280
     1
102
MATERIAL
148
0.0
149
0.0
149
0.0
 93
        0
 94
      127
282
     0
 72
     1
 77
     1
171
     1
175
     1
179
     1
273
     0
  0
XRECORD
  5
3EE
102
{ACAD_REACTORS
330
3ED
102
}
330
3ED
100
AcDbXrecord
280
     1
102
DISPLAYNAME
  1
Metric50
102
FLAGS
 90
        0
  0
CELLSTYLEMAP
  5
3BA
102
{ACAD_REACTORS
330
33E
102
}
330
33E
100
AcDbCellStyleMap
 90
        3
300
CELLSTYLE
  1
TABLEFORMAT_BEGIN
 90
        5
170
     1
 91
        0
 92
    32768
 62
   257
 93
        1
300
CONTENTFORMAT
  1
CONTENTFORMAT_BEGIN
 90
        0
 91
        0
 92
        4
 93
        0
300

 40
0.0
140
1.0
 94
        5
 62
     0
340
11
144
0.25
309
CONTENTFORMAT_END
171
     1
301
MARGIN
  1
CELLMARGIN_BEGIN
 40
0.06
 40
0.06
 40
0.06
 40
0.06
 40
0.18
 40
0.18
309
CELLMARGIN_END
 94
        6
 95
        1
302
GRIDFORMAT
  1
GRIDFORMAT_BEGIN
 90
        0
 91
        1
 62
     0
 92
       -2
340
14
 93
        0
 40
0.045
309
GRIDFORMAT_END
 95
        2
302
GRIDFORMAT
  1
GRIDFORMAT_BEGIN
 90
        0
 91
        1
 62
     0
 92
       -2
340
14
 93
        0
 40
0.045
309
GRIDFORMAT_END
 95
        4
302
GRIDFORMAT
  1
GRIDFORMAT_BEGIN
 90
        0
 91
        1
 62
     0
 92
       -2
340
14
 93
        0
 40
0.045
309
GRIDFORMAT_END
 95
        8
302
GRIDFORMAT
  1
GRIDFORMAT_BEGIN
 90
        0
 91
        1
 62
     0
 92
       -2
340
14
 93
        0
 40
0.045
309
GRIDFORMAT_END
 95
       16
302
GRIDFORMAT
  1
GRIDFORMAT_BEGIN
 90
        0
 91
        1
 62
     0
 92
       -2
340
14
 93
        0
 40
0.045
309
GRIDFORMAT_END
 95
       32
302
GRIDFORMAT
  1
GRIDFORMAT_BEGIN
 90
        0
 91
        1
 62
     0
 92
       -2
340
14
 93
        0
 40
0.045
309
GRIDFORMAT_END
309
TABLEFORMAT_END
  1
CELLSTYLE_BEGIN
 90
        1
 91
        1
300
_TITLE
309
CELLSTYLE_END
300
CELLSTYLE
  1
TABLEFORMAT_BEGIN
 90
        5
170
     1
 91
        0
 92
        0
 62
   257
 93
        1
300
CONTENTFORMAT
  1
CONTENTFORMAT_BEGIN
 90
        0
 91
        0
 92
        4
 93
        0
300

 40
0.0
140
1.0
 94
        5
 62
     0
340
11
144
0.18
309
CONTENTFORMAT_END
171
     1
301
MARGIN
  1
CELLMARGIN_BEGIN
 40
0.06
 40
0.06
 40
0.06
 40
0.06
 40
0.18
 40
0.18
309
CELLMARGIN_END
 94
        6
 95
        1
302
GRIDFORMAT
  1
GRIDFORMAT_BEGIN
 90
        0
 91
        1
 62
     0
 92
       -2
340
14
 93
        0
 40
0.045
309
GRIDFORMAT_END
 95
        2
302
GRIDFORMAT
  1
GRIDFORMAT_BEGIN
 90
        0
 91
        1
 62
     0
 92
       -2
340
14
 93
        0
 40
0.045
309
GRIDFORMAT_END
 95
        4
302
GRIDFORMAT
  1
GRIDFORMAT_BEGIN
 90
        0
 91
        1
 62
     0
 92
       -2
340
14
 93
        0
 40
0.045
309
GRIDFORMAT_END
 95
        8
302
GRIDFORMAT
  1
GRIDFORMAT_BEGIN
 90
        0
 91
        1
 62
     0
 92
       -2
340
14
 93
        0
 40
0.045
309
GRIDFORMAT_END
 95
       16
302
GRIDFORMAT
  1
GRIDFORMAT_BEGIN
 90
        0
 91
        1
 62
     0
 92
       -2
340
14
 93
        0
 40
0.045
309
GRIDFORMAT_END
 95
       32
302
GRIDFORMAT
  1
GRIDFORMAT_BEGIN
 90
        0
 91
        1
 62
     0
 92
       -2
340
14
 93
        0
 40
0.045
309
GRIDFORMAT_END
309
TABLEFORMAT_END
  1
CELLSTYLE_BEGIN
 90
        2
 91
        1
300
_HEADER
309
CELLSTYLE_END
300
CELLSTYLE
  1
TABLEFORMAT_BEGIN
 90
        5
170
     1
 91
        0
 92
        0
 62
   257
 93
        1
300
CONTENTFORMAT
  1
CONTENTFORMAT_BEGIN
 90
        0
 91
        0
 92
        4
 93
        0
300

 40
0.0
140
1.0
 94
        2
 62
     0
340
11
144
0.18
309
CONTENTFORMAT_END
171
     1
301
MARGIN
  1
CELLMARGIN_BEGIN
 40
0.06
 40
0.06
 40
0.06
 40
0.06
 40
0.18
 40
0.18
309
CELLMARGIN_END
 94
        6
 95
        1
302
GRIDFORMAT
  1
GRIDFORMAT_BEGIN
 90
        0
 91
        1
 62
     0
 92
       -2
340
14
 93
        0
 40
0.045
309
GRIDFORMAT_END
 95
        2
302
GRIDFORMAT
  1
GRIDFORMAT_BEGIN
 90
        0
 91
        1
 62
     0
 92
       -2
340
14
 93
        0
 40
0.045
309
GRIDFORMAT_END
 95
        4
302
GRIDFORMAT
  1
GRIDFORMAT_BEGIN
 90
        0
 91
        1
 62
     0
 92
       -2
340
14
 93
        0
 40
0.045
309
GRIDFORMAT_END
 95
        8
302
GRIDFORMAT
  1
GRIDFORMAT_BEGIN
 90
        0
 91
        1
 62
     0
 92
       -2
340
14
 93
        0
 40
0.045
309
GRIDFORMAT_END
 95
       16
302
GRIDFORMAT
  1
GRIDFORMAT_BEGIN
 90
        0
 91
        1
 62
     0
 92
       -2
340
14
 93
        0
 40
0.045
309
GRIDFORMAT_END
 95
       32
302
GRIDFORMAT
  1
GRIDFORMAT_BEGIN
 90
        0
 91
        1
 62
     0
 92
       -2
340
14
 93
        0
 40
0.045
309
GRIDFORMAT_END
309
TABLEFORMAT_END
  1
CELLSTYLE_BEGIN
 90
        3
 91
        2
300
_DATA
309
CELLSTYLE_END
  0
XRECORD
  5
3EC
102
{ACAD_REACTORS
330
33E
102
}
330
33E
100
AcDbXrecord
280
     1
102
ACAD_ROUNDTRIP_PRE2007_TABLESTYLE
 90
        4
 91
        0
  1

 92
        4
 93
        0
  2

 94
        4
 95
        0
  3

  0
XRECORD
  5
3C5
102
{ACAD_REACTORS
330
3C4
102
}
330
3C4
100
AcDbXrecord
280
     1
102
RTVSPost2010Prop28
280
     1
102
RTVSPost2010PropOp28
 70
     1
102
RTVSPost2010Prop29
280
     1
102
RTVSPost2010PropOp29
 70
     1
102
RTVSPost2010Prop30
280
     0
102
RTVSPost2010PropOp30
 70
     1
102
RTVSPost2010Prop31
280
     0
102
RTVSPost2010PropOp31
 70
     1
102
RTVSPost2010Prop32
280
     0
102
RTVSPost2010PropOp32
 70
     1
102
RTVSPost2010Prop33
280
     0
102
RTVSPost2010PropOp33
 70
     1
102
RTVSPost2010Prop34
280
     0
102
RTVSPost2010PropOp34
 70
     1
102
RTVSPost2010Prop35
280
     0
102
RTVSPost2010PropOp35
 70
     1
102
RTVSPost2010Prop36
280
     0
102
RTVSPost2010PropOp36
 70
     1
102
RTVSPost2010Prop37
 90
       50
102
RTVSPost2010PropOp37
 70
     1
102
RTVSPost2010Prop38
140
0.0
102
RTVSPost2010PropOp38
 70
     1
102
RTVSPost2010Prop39
140
1.0
102
RTVSPost2010PropOp39
 70
     1
102
RTVSPost2010Prop40
 90
        0
102
RTVSPost2010PropOp40
 70
     1
102
RTVSPost2010Prop41ColorIndex
 90
       18
102
RTVSPost2010Prop41ColorRGB
 90
        0
102
RTVSPost2010PropOp41
 70
     1
102
RTVSPost2010Prop42
 90
       50
102
RTVSPost2010PropOp42
 70
     1
102
RTVSPost2010Prop43
 90
        3
102
RTVSPost2010PropOp43
 70
     1
102
RTVSPost2010Prop44ColorIndex
 90
        5
102
RTVSPost2010Prop44ColorRGB
 90
      255
102
RTVSPost2010PropOp44
 70
     1
102
RTVSPost2010Prop45
280
     0
102
RTVSPost2010PropOp45
 70
     1
102
RTVSPost2010Prop46
 90
       50
102
RTVSPost2010PropOp46
 70
     1
102
RTVSPost2010Prop47
 90
       50
102
RTVSPost2010PropOp47
 70
     1
102
RTVSPost2010Prop48
 90
       50
102
RTVSPost2010PropOp48
 70
     1
102
RTVSPost2010Prop49
280
     0
102
RTVSPost2010PropOp49
 70
     1
102
RTVSPost2010Prop50
 90
       50
102
RTVSPost2010PropOp50
 70
     1
102
RTVSPost2010Prop51ColorIndex
 90
      256
102
RTVSPost2010Prop51ColorRGB
 90
-16777216
102
RTVSPost2010PropOp51
 70
     0
102
RTVSPost2010Prop52
140
1.0
102
RTVSPost2010PropOp52
 70
     0
102
RTVSPost2010Prop53
 90
        2
102
RTVSPost2010PropOp53
 70
     1
102
RTVSPost2010Prop54
  1
strokes_ogs.tif
102
RTVSPost2010PropOp54
 70
     1
102
RTVSPost2010Prop55
280
     0
102
RTVSPost2010PropOp55
 70
     1
102
RTVSPost2010Prop56
140
1.0
102
RTVSPost2010PropOp56
 70
     1
102
RTVSPost2010Prop57
140
1.0
102
RTVSPost2010PropOp57
 70
     1
102
RTVSPropertyOp0
 70
     1
102
RTVSPropertyOp1
 70
     1
102
RTVSPropertyOp2
 70
     1
102
RTVSPropertyOp3
 70
     1
102
RTVSPropertyOp4
 70
     1
102
RTVSPropertyOp5
 70
     1
102
RTVSPropertyOp6
 70
     1
102
RTVSPropertyOp7
 70
     1
102
RTVSPropertyOp8
 70
     1
102
RTVSPropertyOp9
 70
     1
102
RTVSPropertyOp10
 70
     1
102
RTVSPropertyOp11
 70
     1
102
RTVSPropertyOp12
 70
     1
102
RTVSPropertyOp13
 70
     1
102
RTVSPropertyOp14
 70
     1
102
RTVSPropertyOp15
 70
     1
102
RTVSPropertyOp16
 70
     1
102
RTVSPropertyOp17
 70
     1
102
RTVSPropertyOp18
 70
     1
102
RTVSPropertyOp19
 70
     1
102
RTVSPropertyOp20
 70
     1
102
RTVSPropertyOp21
 70
     1
102
RTVSPropertyOp22
 70
     1
102
RTVSPropertyOp23
 70
     1
102
RTVSPropertyOp24
 70
     1
102
RTVSPropertyOp25
 70
     1
102
RTVSPropertyOp26
 70
     1
102
RTVSPropertyOp27
 70
     1
102
RTVSPropertyOp28
 70
     1
102
RTVSPropertyOp29
 70
     1
102
RTVSPropertyOp30
 70
     1
102
RTVSPropertyOp31
 70
     1
102
RTVSPropertyOp32
 70
     1
102
RTVSPropertyOp33
 70
     1
102
RTVSPropertyOp34
 70
     1
102
RTVSPropertyOp35
 70
     1
102
RTVSPropertyOp36
 70
     1
102
RTVSPropertyOp37
 70
     1
102
RTVSPropertyOp38
 70
     1
102
RTVSPropertyOp39
 70
     1
102
RTVSPropertyOp40
 70
     1
102
RTVSPropertyOp41
 70
     1
102
RTVSPropertyOp42
 70
     1
102
RTVSPropertyOp43
 70
     1
102
RTVSPropertyOp44
 70
     1
102
RTVSPropertyOp45
 70
     1
102
RTVSPropertyOp46
 70
     1
102
RTVSPropertyOp47
 70
     1
102
RTVSPropertyOp48
 70
     1
102
RTVSPropertyOp49
 70
     1
102
RTVSPropertyOp50
 70
     1
102
RTVSPropertyOp51
 70
     0
102
RTVSPropertyOp52
 70
     0
102
RTVSPropertyOp53
 70
     1
102
RTVSPropertyOp54
 70
     1
102
RTVSPropertyOp55
 70
     1
102
RTVSPropertyOp56
 70
     1
102
RTVSPropertyOp57
 70
     1
102
RTVSPropertyOp58
 70
     1
102
RTVSPropertyOp59
 70
     1
102
RTVSPropertyOp60
 70
     1
102
RTVSPropertyOp61
 70
     1
102
RTVSPropertyOp62
 70
     1
  0
XRECORD
  5
3CB
102
{ACAD_REACTORS
330
3CA
102
}
330
3CA
100
AcDbXrecord
280
     1
102
RTVSPost2010Prop28
280
     0
102
RTVSPost2010PropOp28
 70
     1
102
RTVSPost2010Prop29
280
     1
102
RTVSPost2010PropOp29
 70
     1
102
RTVSPost2010Prop30
280
     1
102
RTVSPost2010PropOp30
 70
     1
102
RTVSPost2010Prop31
280
     0
102
RTVSPost2010PropOp31
 70
     1
102
RTVSPost2010Prop32
280
     0
102
RTVSPost2010PropOp32
 70
     1
102
RTVSPost2010Prop33
280
     0
102
RTVSPost2010PropOp33
 70
     1
102
RTVSPost2010Prop34
280
     0
102
RTVSPost2010PropOp34
 70
     1
102
RTVSPost2010Prop35
280
     0
102
RTVSPost2010PropOp35
 70
     1
102
RTVSPost2010Prop36
280
     0
102
RTVSPost2010PropOp36
 70
     1
102
RTVSPost2010Prop37
 90
       50
102
RTVSPost2010PropOp37
 70
     1
102
RTVSPost2010Prop38
140
0.0
102
RTVSPost2010PropOp38
 70
     1
102
RTVSPost2010Prop39
140
1.0
102
RTVSPost2010PropOp39
 70
     1
102
RTVSPost2010Prop40
 90
        0
102
RTVSPost2010PropOp40
 70
     1
102
RTVSPost2010Prop41ColorIndex
 90
       18
102
RTVSPost2010Prop41ColorRGB
 90
        0
102
RTVSPost2010PropOp41
 70
     1
102
RTVSPost2010Prop42
 90
       50
102
RTVSPost2010PropOp42
 70
     1
102
RTVSPost2010Prop43
 90
        3
102
RTVSPost2010PropOp43
 70
     1
102
RTVSPost2010Prop44ColorIndex
 90
        5
102
RTVSPost2010Prop44ColorRGB
 90
      255
102
RTVSPost2010PropOp44
 70
     1
102
RTVSPost2010Prop45
280
     0
102
RTVSPost2010PropOp45
 70
     1
102
RTVSPost2010Prop46
 90
       50
102
RTVSPost2010PropOp46
 70
     1
102
RTVSPost2010Prop47
 90
       50
102
RTVSPost2010PropOp47
 70
     1
102
RTVSPost2010Prop48
 90
       50
102
RTVSPost2010PropOp48
 70
     1
102
RTVSPost2010Prop49
280
     0
102
RTVSPost2010PropOp49
 70
     1
102
RTVSPost2010Prop50
 90
       50
102
RTVSPost2010PropOp50
 70
     1
102
RTVSPost2010Prop51ColorIndex
 90
      256
102
RTVSPost2010Prop51ColorRGB
 90
-16777216
102
RTVSPost2010PropOp51
 70
     0
102
RTVSPost2010Prop52
140
1.0
102
RTVSPost2010PropOp52
 70
     0
102
RTVSPost2010Prop53
 90
        2
102
RTVSPost2010PropOp53
 70
     1
102
RTVSPost2010Prop54
  1
strokes_ogs.tif
102
RTVSPost2010PropOp54
 70
     1
102
RTVSPost2010Prop55
280
     0
102
RTVSPost2010PropOp55
 70
     1
102
RTVSPost2010Prop56
140
1.0
102
RTVSPost2010PropOp56
 70
     1
102
RTVSPost2010Prop57
140
1.0
102
RTVSPost2010PropOp57
 70
     1
102
RTVSPropertyOp0
 70
     1
102
RTVSPropertyOp1
 70
     1
102
RTVSPropertyOp2
 70
     1
102
RTVSPropertyOp3
 70
     1
102
RTVSPropertyOp4
 70
     1
102
RTVSPropertyOp5
 70
     1
102
RTVSPropertyOp6
 70
     1
102
RTVSPropertyOp7
 70
     1
102
RTVSPropertyOp8
 70
     1
102
RTVSPropertyOp9
 70
     1
102
RTVSPropertyOp10
 70
     1
102
RTVSPropertyOp11
 70
     1
102
RTVSPropertyOp12
 70
     1
102
RTVSPropertyOp13
 70
     1
102
RTVSPropertyOp14
 70
     1
102
RTVSPropertyOp15
 70
     1
102
RTVSPropertyOp16
 70
     1
102
RTVSPropertyOp17
 70
     1
102
RTVSPropertyOp18
 70
     1
102
RTVSPropertyOp19
 70
     1
102
RTVSPropertyOp20
 70
     1
102
RTVSPropertyOp21
 70
     1
102
RTVSPropertyOp22
 70
     1
102
RTVSPropertyOp23
 70
     1
102
RTVSPropertyOp24
 70
     1
102
RTVSPropertyOp25
 70
     1
102
RTVSPropertyOp26
 70
     1
102
RTVSPropertyOp27
 70
     1
102
RTVSPropertyOp28
 70
     1
102
RTVSPropertyOp29
 70
     1
102
RTVSPropertyOp30
 70
     1
102
RTVSPropertyOp31
 70
     1
102
RTVSPropertyOp32
 70
     1
102
RTVSPropertyOp33
 70
     1
102
RTVSPropertyOp34
 70
     1
102
RTVSPropertyOp35
 70
     1
102
RTVSPropertyOp36
 70
     1
102
RTVSPropertyOp37
 70
     1
102
RTVSPropertyOp38
 70
     1
102
RTVSPropertyOp39
 70
     1
102
RTVSPropertyOp40
 70
     1
102
RTVSPropertyOp41
 70
     1
102
RTVSPropertyOp42
 70
     1
102
RTVSPropertyOp43
 70
     1
102
RTVSPropertyOp44
 70
     1
102
RTVSPropertyOp45
 70
     1
102
RTVSPropertyOp46
 70
     1
102
RTVSPropertyOp47
 70
     1
102
RTVSPropertyOp48
 70
     1
102
RTVSPropertyOp49
 70
     1
102
RTVSPropertyOp50
 70
     1
102
RTVSPropertyOp51
 70
     0
102
RTVSPropertyOp52
 70
     0
102
RTVSPropertyOp53
 70
     1
102
RTVSPropertyOp54
 70
     1
102
RTVSPropertyOp55
 70
     1
102
RTVSPropertyOp56
 70
     1
102
RTVSPropertyOp57
 70
     1
102
RTVSPropertyOp58
 70
     1
102
RTVSPropertyOp59
 70
     1
102
RTVSPropertyOp60
 70
     1
102
RTVSPropertyOp61
 70
     1
102
RTVSPropertyOp62
 70
     1
  0
XRECORD
  5
3D3
102
{ACAD_REACTORS
330
3D2
102
}
330
3D2
100
AcDbXrecord
280
     1
102
RTVSPost2010Prop28
280
     0
102
RTVSPost2010PropOp28
 70
     1
102
RTVSPost2010Prop29
280
     1
102
RTVSPost2010PropOp29
 70
     1
102
RTVSPost2010Prop30
280
     1
102
RTVSPost2010PropOp30
 70
     1
102
RTVSPost2010Prop31
280
     0
102
RTVSPost2010PropOp31
 70
     1
102
RTVSPost2010Prop32
280
     0
102
RTVSPost2010PropOp32
 70
     1
102
RTVSPost2010Prop33
280
     0
102
RTVSPost2010PropOp33
 70
     1
102
RTVSPost2010Prop34
280
     0
102
RTVSPost2010PropOp34
 70
     1
102
RTVSPost2010Prop35
280
     0
102
RTVSPost2010PropOp35
 70
     1
102
RTVSPost2010Prop36
280
     0
102
RTVSPost2010PropOp36
 70
     1
102
RTVSPost2010Prop37
 90
       50
102
RTVSPost2010PropOp37
 70
     1
102
RTVSPost2010Prop38
140
0.0
102
RTVSPost2010PropOp38
 70
     1
102
RTVSPost2010Prop39
140
1.0
102
RTVSPost2010PropOp39
 70
     1
102
RTVSPost2010Prop40
 90
        0
102
RTVSPost2010PropOp40
 70
     1
102
RTVSPost2010Prop41ColorIndex
 90
       18
102
RTVSPost2010Prop41ColorRGB
 90
        0
102
RTVSPost2010PropOp41
 70
     1
102
RTVSPost2010Prop42
 90
       50
102
RTVSPost2010PropOp42
 70
     1
102
RTVSPost2010Prop43
 90
        3
102
RTVSPost2010PropOp43
 70
     1
102
RTVSPost2010Prop44ColorIndex
 90
        5
102
RTVSPost2010Prop44ColorRGB
 90
      255
102
RTVSPost2010PropOp44
 70
     1
102
RTVSPost2010Prop45
280
     0
102
RTVSPost2010PropOp45
 70
     1
102
RTVSPost2010Prop46
 90
       50
102
RTVSPost2010PropOp46
 70
     1
102
RTVSPost2010Prop47
 90
       50
102
RTVSPost2010PropOp47
 70
     1
102
RTVSPost2010Prop48
 90
       50
102
RTVSPost2010PropOp48
 70
     1
102
RTVSPost2010Prop49
280
     0
102
RTVSPost2010PropOp49
 70
     1
102
RTVSPost2010Prop50
 90
       50
102
RTVSPost2010PropOp50
 70
     1
102
RTVSPost2010Prop51ColorIndex
 90
      256
102
RTVSPost2010Prop51ColorRGB
 90
-16777216
102
RTVSPost2010PropOp51
 70
     0
102
RTVSPost2010Prop52
140
1.0
102
RTVSPost2010PropOp52
 70
     0
102
RTVSPost2010Prop53
 90
        2
102
RTVSPost2010PropOp53
 70
     1
102
RTVSPost2010Prop54
  1
strokes_ogs.tif
102
RTVSPost2010PropOp54
 70
     1
102
RTVSPost2010Prop55
280
     0
102
RTVSPost2010PropOp55
 70
     1
102
RTVSPost2010Prop56
140
1.0
102
RTVSPost2010PropOp56
 70
     1
102
RTVSPost2010Prop57
140
1.0
102
RTVSPost2010PropOp57
 70
     1
102
RTVSPropertyOp0
 70
     1
102
RTVSPropertyOp1
 70
     1
102
RTVSPropertyOp2
 70
     1
102
RTVSPropertyOp3
 70
     1
102
RTVSPropertyOp4
 70
     1
102
RTVSPropertyOp5
 70
     1
102
RTVSPropertyOp6
 70
     1
102
RTVSPropertyOp7
 70
     1
102
RTVSPropertyOp8
 70
     1
102
RTVSPropertyOp9
 70
     1
102
RTVSPropertyOp10
 70
     1
102
RTVSPropertyOp11
 70
     1
102
RTVSPropertyOp12
 70
     1
102
RTVSPropertyOp13
 70
     1
102
RTVSPropertyOp14
 70
     1
102
RTVSPropertyOp15
 70
     1
102
RTVSPropertyOp16
 70
     1
102
RTVSPropertyOp17
 70
     1
102
RTVSPropertyOp18
 70
     1
102
RTVSPropertyOp19
 70
     1
102
RTVSPropertyOp20
 70
     1
102
RTVSPropertyOp21
 70
     1
102
RTVSPropertyOp22
 70
     1
102
RTVSPropertyOp23
 70
     1
102
RTVSPropertyOp24
 70
     1
102
RTVSPropertyOp25
 70
     1
102
RTVSPropertyOp26
 70
     1
102
RTVSPropertyOp27
 70
     1
102
RTVSPropertyOp28
 70
     1
102
RTVSPropertyOp29
 70
     1
102
RTVSPropertyOp30
 70
     1
102
RTVSPropertyOp31
 70
     1
102
RTVSPropertyOp32
 70
     1
102
RTVSPropertyOp33
 70
     1
102
RTVSPropertyOp34
 70
     1
102
RTVSPropertyOp35
 70
     1
102
RTVSPropertyOp36
 70
     1
102
RTVSPropertyOp37
 70
     1
102
RTVSPropertyOp38
 70
     1
102
RTVSPropertyOp39
 70
     1
102
RTVSPropertyOp40
 70
     1
102
RTVSPropertyOp41
 70
     1
102
RTVSPropertyOp42
 70
     1
102
RTVSPropertyOp43
 70
     1
102
RTVSPropertyOp44
 70
     1
102
RTVSPropertyOp45
 70
     1
102
RTVSPropertyOp46
 70
     1
102
RTVSPropertyOp47
 70
     1
102
RTVSPropertyOp48
 70
     1
102
RTVSPropertyOp49
 70
     1
102
RTVSPropertyOp50
 70
     1
102
RTVSPropertyOp51
 70
     0
102
RTVSPropertyOp52
 70
     0
102
RTVSPropertyOp53
 70
     1
102
RTVSPropertyOp54
 70
     1
102
RTVSPropertyOp55
 70
     1
102
RTVSPropertyOp56
 70
     1
102
RTVSPropertyOp57
 70
     1
102
RTVSPropertyOp58
 70
     1
102
RTVSPropertyOp59
 70
     1
102
RTVSPropertyOp60
 70
     1
102
RTVSPropertyOp61
 70
     1
102
RTVSPropertyOp62
 70
     1
  0
XRECORD
  5
3DB
102
{ACAD_REACTORS
330
3DA
102
}
330
3DA
100
AcDbXrecord
280
     1
102
RTVSPost2010Prop28
280
     0
102
RTVSPost2010PropOp28
 70
     1
102
RTVSPost2010Prop29
280
     1
102
RTVSPost2010PropOp29
 70
     1
102
RTVSPost2010Prop30
280
     1
102
RTVSPost2010PropOp30
 70
     1
102
RTVSPost2010Prop31
280
     0
102
RTVSPost2010PropOp31
 70
     1
102
RTVSPost2010Prop32
280
     0
102
RTVSPost2010PropOp32
 70
     1
102
RTVSPost2010Prop33
280
     0
102
RTVSPost2010PropOp33
 70
     1
102
RTVSPost2010Prop34
280
     0
102
RTVSPost2010PropOp34
 70
     1
102
RTVSPost2010Prop35
280
     0
102
RTVSPost2010PropOp35
 70
     1
102
RTVSPost2010Prop36
280
     0
102
RTVSPost2010PropOp36
 70
     1
102
RTVSPost2010Prop37
 90
       50
102
RTVSPost2010PropOp37
 70
     1
102
RTVSPost2010Prop38
140
0.0
102
RTVSPost2010PropOp38
 70
     1
102
RTVSPost2010Prop39
140
1.0
102
RTVSPost2010PropOp39
 70
     1
102
RTVSPost2010Prop40
 90
        0
102
RTVSPost2010PropOp40
 70
     1
102
RTVSPost2010Prop41ColorIndex
 90
       18
102
RTVSPost2010Prop41ColorRGB
 90
        0
102
RTVSPost2010PropOp41
 70
     1
102
RTVSPost2010Prop42
 90
       50
102
RTVSPost2010PropOp42
 70
     1
102
RTVSPost2010Prop43
 90
        3
102
RTVSPost2010PropOp43
 70
     1
102
RTVSPost2010Prop44ColorIndex
 90
        5
102
RTVSPost2010Prop44ColorRGB
 90
      255
102
RTVSPost2010PropOp44
 70
     1
102
RTVSPost2010Prop45
280
     0
102
RTVSPost2010PropOp45
 70
     1
102
RTVSPost2010Prop46
 90
       50
102
RTVSPost2010PropOp46
 70
     1
102
RTVSPost2010Prop47
 90
       50
102
RTVSPost2010PropOp47
 70
     1
102
RTVSPost2010Prop48
 90
       50
102
RTVSPost2010PropOp48
 70
     1
102
RTVSPost2010Prop49
280
     0
102
RTVSPost2010PropOp49
 70
     1
102
RTVSPost2010Prop50
 90
       50
102
RTVSPost2010PropOp50
 70
     1
102
RTVSPost2010Prop51ColorIndex
 90
      256
102
RTVSPost2010Prop51ColorRGB
 90
-16777216
102
RTVSPost2010PropOp51
 70
     0
102
RTVSPost2010Prop52
140
1.0
102
RTVSPost2010PropOp52
 70
     0
102
RTVSPost2010Prop53
 90
        2
102
RTVSPost2010PropOp53
 70
     1
102
RTVSPost2010Prop54
  1
strokes_ogs.tif
102
RTVSPost2010PropOp54
 70
     1
102
RTVSPost2010Prop55
280
     0
102
RTVSPost2010PropOp55
 70
     1
102
RTVSPost2010Prop56
140
1.0
102
RTVSPost2010PropOp56
 70
     1
102
RTVSPost2010Prop57
140
1.0
102
RTVSPost2010PropOp57
 70
     1
102
RTVSPropertyOp0
 70
     1
102
RTVSPropertyOp1
 70
     1
102
RTVSPropertyOp2
 70
     1
102
RTVSPropertyOp3
 70
     1
102
RTVSPropertyOp4
 70
     1
102
RTVSPropertyOp5
 70
     1
102
RTVSPropertyOp6
 70
     1
102
RTVSPropertyOp7
 70
     1
102
RTVSPropertyOp8
 70
     1
102
RTVSPropertyOp9
 70
     1
102
RTVSPropertyOp10
 70
     1
102
RTVSPropertyOp11
 70
     1
102
RTVSPropertyOp12
 70
     1
102
RTVSPropertyOp13
 70
     1
102
RTVSPropertyOp14
 70
     1
102
RTVSPropertyOp15
 70
     1
102
RTVSPropertyOp16
 70
     1
102
RTVSPropertyOp17
 70
     1
102
RTVSPropertyOp18
 70
     1
102
RTVSPropertyOp19
 70
     1
102
RTVSPropertyOp20
 70
     1
102
RTVSPropertyOp21
 70
     1
102
RTVSPropertyOp22
 70
     1
102
RTVSPropertyOp23
 70
     1
102
RTVSPropertyOp24
 70
     1
102
RTVSPropertyOp25
 70
     1
102
RTVSPropertyOp26
 70
     1
102
RTVSPropertyOp27
 70
     1
102
RTVSPropertyOp28
 70
     1
102
RTVSPropertyOp29
 70
     1
102
RTVSPropertyOp30
 70
     1
102
RTVSPropertyOp31
 70
     1
102
RTVSPropertyOp32
 70
     1
102
RTVSPropertyOp33
 70
     1
102
RTVSPropertyOp34
 70
     1
102
RTVSPropertyOp35
 70
     1
102
RTVSPropertyOp36
 70
     1
102
RTVSPropertyOp37
 70
     1
102
RTVSPropertyOp38
 70
     1
102
RTVSPropertyOp39
 70
     1
102
RTVSPropertyOp40
 70
     1
102
RTVSPropertyOp41
 70
     1
102
RTVSPropertyOp42
 70
     1
102
RTVSPropertyOp43
 70
     1
102
RTVSPropertyOp44
 70
     1
102
RTVSPropertyOp45
 70
     1
102
RTVSPropertyOp46
 70
     1
102
RTVSPropertyOp47
 70
     1
102
RTVSPropertyOp48
 70
     1
102
RTVSPropertyOp49
 70
     1
102
RTVSPropertyOp50
 70
     1
102
RTVSPropertyOp51
 70
     0
102
RTVSPropertyOp52
 70
     0
102
RTVSPropertyOp53
 70
     1
102
RTVSPropertyOp54
 70
     1
102
RTVSPropertyOp55
 70
     1
102
RTVSPropertyOp56
 70
     1
102
RTVSPropertyOp57
 70
     1
102
RTVSPropertyOp58
 70
     1
102
RTVSPropertyOp59
 70
     1
102
RTVSPropertyOp60
 70
     1
102
RTVSPropertyOp61
 70
     1
102
RTVSPropertyOp62
 70
     1
  0
XRECORD
  5
3CF
102
{ACAD_REACTORS
330
3CE
102
}
330
3CE
100
AcDbXrecord
280
     1
102
RTVSPost2010Prop28
280
     0
102
RTVSPost2010PropOp28
 70
     1
102
RTVSPost2010Prop29
280
     1
102
RTVSPost2010PropOp29
 70
     1
102
RTVSPost2010Prop30
280
     1
102
RTVSPost2010PropOp30
 70
     1
102
RTVSPost2010Prop31
280
     0
102
RTVSPost2010PropOp31
 70
     1
102
RTVSPost2010Prop32
280
     0
102
RTVSPost2010PropOp32
 70
     1
102
RTVSPost2010Prop33
280
     0
102
RTVSPost2010PropOp33
 70
     1
102
RTVSPost2010Prop34
280
     0
102
RTVSPost2010PropOp34
 70
     1
102
RTVSPost2010Prop35
280
     0
102
RTVSPost2010PropOp35
 70
     1
102
RTVSPost2010Prop36
280
     0
102
RTVSPost2010PropOp36
 70
     1
102
RTVSPost2010Prop37
 90
       50
102
RTVSPost2010PropOp37
 70
     1
102
RTVSPost2010Prop38
140
0.0
102
RTVSPost2010PropOp38
 70
     1
102
RTVSPost2010Prop39
140
1.0
102
RTVSPost2010PropOp39
 70
     1
102
RTVSPost2010Prop40
 90
        0
102
RTVSPost2010PropOp40
 70
     1
102
RTVSPost2010Prop41ColorIndex
 90
       18
102
RTVSPost2010Prop41ColorRGB
 90
        0
102
RTVSPost2010PropOp41
 70
     1
102
RTVSPost2010Prop42
 90
       50
102
RTVSPost2010PropOp42
 70
     1
102
RTVSPost2010Prop43
 90
        3
102
RTVSPost2010PropOp43
 70
     1
102
RTVSPost2010Prop44ColorIndex
 90
        5
102
RTVSPost2010Prop44ColorRGB
 90
      255
102
RTVSPost2010PropOp44
 70
     1
102
RTVSPost2010Prop45
280
     0
102
RTVSPost2010PropOp45
 70
     1
102
RTVSPost2010Prop46
 90
       50
102
RTVSPost2010PropOp46
 70
     1
102
RTVSPost2010Prop47
 90
       50
102
RTVSPost2010PropOp47
 70
     1
102
RTVSPost2010Prop48
 90
       50
102
RTVSPost2010PropOp48
 70
     1
102
RTVSPost2010Prop49
280
     0
102
RTVSPost2010PropOp49
 70
     1
102
RTVSPost2010Prop50
 90
       50
102
RTVSPost2010PropOp50
 70
     1
102
RTVSPost2010Prop51ColorIndex
 90
      256
102
RTVSPost2010Prop51ColorRGB
 90
-16777216
102
RTVSPost2010PropOp51
 70
     0
102
RTVSPost2010Prop52
140
1.0
102
RTVSPost2010PropOp52
 70
     0
102
RTVSPost2010Prop53
 90
        2
102
RTVSPost2010PropOp53
 70
     1
102
RTVSPost2010Prop54
  1
strokes_ogs.tif
102
RTVSPost2010PropOp54
 70
     1
102
RTVSPost2010Prop55
280
     0
102
RTVSPost2010PropOp55
 70
     1
102
RTVSPost2010Prop56
140
1.0
102
RTVSPost2010PropOp56
 70
     1
102
RTVSPost2010Prop57
140
1.0
102
RTVSPost2010PropOp57
 70
     1
102
RTVSPropertyOp0
 70
     1
102
RTVSPropertyOp1
 70
     1
102
RTVSPropertyOp2
 70
     1
102
RTVSPropertyOp3
 70
     1
102
RTVSPropertyOp4
 70
     1
102
RTVSPropertyOp5
 70
     1
102
RTVSPropertyOp6
 70
     1
102
RTVSPropertyOp7
 70
     1
102
RTVSPropertyOp8
 70
     1
102
RTVSPropertyOp9
 70
     1
102
RTVSPropertyOp10
 70
     1
102
RTVSPropertyOp11
 70
     1
102
RTVSPropertyOp12
 70
     1
102
RTVSPropertyOp13
 70
     1
102
RTVSPropertyOp14
 70
     1
102
RTVSPropertyOp15
 70
     1
102
RTVSPropertyOp16
 70
     1
102
RTVSPropertyOp17
 70
     1
102
RTVSPropertyOp18
 70
     1
102
RTVSPropertyOp19
 70
     1
102
RTVSPropertyOp20
 70
     1
102
RTVSPropertyOp21
 70
     1
102
RTVSPropertyOp22
 70
     1
102
RTVSPropertyOp23
 70
     1
102
RTVSPropertyOp24
 70
     1
102
RTVSPropertyOp25
 70
     1
102
RTVSPropertyOp26
 70
     1
102
RTVSPropertyOp27
 70
     1
102
RTVSPropertyOp28
 70
     1
102
RTVSPropertyOp29
 70
     1
102
RTVSPropertyOp30
 70
     1
102
RTVSPropertyOp31
 70
     1
102
RTVSPropertyOp32
 70
     1
102
RTVSPropertyOp33
 70
     1
102
RTVSPropertyOp34
 70
     1
102
RTVSPropertyOp35
 70
     1
102
RTVSPropertyOp36
 70
     1
102
RTVSPropertyOp37
 70
     1
102
RTVSPropertyOp38
 70
     1
102
RTVSPropertyOp39
 70
     1
102
RTVSPropertyOp40
 70
     1
102
RTVSPropertyOp41
 70
     1
102
RTVSPropertyOp42
 70
     1
102
RTVSPropertyOp43
 70
     1
102
RTVSPropertyOp44
 70
     1
102
RTVSPropertyOp45
 70
     1
102
RTVSPropertyOp46
 70
     1
102
RTVSPropertyOp47
 70
     1
102
RTVSPropertyOp48
 70
     1
102
RTVSPropertyOp49
 70
     1
102
RTVSPropertyOp50
 70
     1
102
RTVSPropertyOp51
 70
     0
102
RTVSPropertyOp52
 70
     0
102
RTVSPropertyOp53
 70
     1
102
RTVSPropertyOp54
 70
     1
102
RTVSPropertyOp55
 70
     1
102
RTVSPropertyOp56
 70
     1
102
RTVSPropertyOp57
 70
     1
102
RTVSPropertyOp58
 70
     1
102
RTVSPropertyOp59
 70
     1
102
RTVSPropertyOp60
 70
     1
102
RTVSPropertyOp61
 70
     1
102
RTVSPropertyOp62
 70
     1
  0
XRECORD
  5
3D1
102
{ACAD_REACTORS
330
3D0
102
}
330
3D0
100
AcDbXrecord
280
     1
102
RTVSPost2010Prop28
280
     0
102
RTVSPost2010PropOp28
 70
     1
102
RTVSPost2010Prop29
280
     1
102
RTVSPost2010PropOp29
 70
     1
102
RTVSPost2010Prop30
280
     1
102
RTVSPost2010PropOp30
 70
     1
102
RTVSPost2010Prop31
280
     0
102
RTVSPost2010PropOp31
 70
     1
102
RTVSPost2010Prop32
280
     0
102
RTVSPost2010PropOp32
 70
     1
102
RTVSPost2010Prop33
280
     0
102
RTVSPost2010PropOp33
 70
     1
102
RTVSPost2010Prop34
280
     0
102
RTVSPost2010PropOp34
 70
     1
102
RTVSPost2010Prop35
280
     0
102
RTVSPost2010PropOp35
 70
     1
102
RTVSPost2010Prop36
280
     0
102
RTVSPost2010PropOp36
 70
     1
102
RTVSPost2010Prop37
 90
       50
102
RTVSPost2010PropOp37
 70
     1
102
RTVSPost2010Prop38
140
0.0
102
RTVSPost2010PropOp38
 70
     1
102
RTVSPost2010Prop39
140
1.0
102
RTVSPost2010PropOp39
 70
     1
102
RTVSPost2010Prop40
 90
        0
102
RTVSPost2010PropOp40
 70
     1
102
RTVSPost2010Prop41ColorIndex
 90
       18
102
RTVSPost2010Prop41ColorRGB
 90
        0
102
RTVSPost2010PropOp41
 70
     1
102
RTVSPost2010Prop42
 90
       50
102
RTVSPost2010PropOp42
 70
     1
102
RTVSPost2010Prop43
 90
        3
102
RTVSPost2010PropOp43
 70
     1
102
RTVSPost2010Prop44ColorIndex
 90
        5
102
RTVSPost2010Prop44ColorRGB
 90
      255
102
RTVSPost2010PropOp44
 70
     1
102
RTVSPost2010Prop45
280
     0
102
RTVSPost2010PropOp45
 70
     1
102
RTVSPost2010Prop46
 90
       50
102
RTVSPost2010PropOp46
 70
     1
102
RTVSPost2010Prop47
 90
       50
102
RTVSPost2010PropOp47
 70
     1
102
RTVSPost2010Prop48
 90
       50
102
RTVSPost2010PropOp48
 70
     1
102
RTVSPost2010Prop49
280
     0
102
RTVSPost2010PropOp49
 70
     1
102
RTVSPost2010Prop50
 90
       50
102
RTVSPost2010PropOp50
 70
     1
102
RTVSPost2010Prop51ColorIndex
 90
      256
102
RTVSPost2010Prop51ColorRGB
 90
-16777216
102
RTVSPost2010PropOp51
 70
     0
102
RTVSPost2010Prop52
140
1.0
102
RTVSPost2010PropOp52
 70
     0
102
RTVSPost2010Prop53
 90
        2
102
RTVSPost2010PropOp53
 70
     1
102
RTVSPost2010Prop54
  1
strokes_ogs.tif
102
RTVSPost2010PropOp54
 70
     1
102
RTVSPost2010Prop55
280
     0
102
RTVSPost2010PropOp55
 70
     1
102
RTVSPost2010Prop56
140
1.0
102
RTVSPost2010PropOp56
 70
     1
102
RTVSPost2010Prop57
140
1.0
102
RTVSPost2010PropOp57
 70
     1
102
RTVSPropertyOp0
 70
     1
102
RTVSPropertyOp1
 70
     1
102
RTVSPropertyOp2
 70
     1
102
RTVSPropertyOp3
 70
     1
102
RTVSPropertyOp4
 70
     1
102
RTVSPropertyOp5
 70
     1
102
RTVSPropertyOp6
 70
     1
102
RTVSPropertyOp7
 70
     1
102
RTVSPropertyOp8
 70
     1
102
RTVSPropertyOp9
 70
     1
102
RTVSPropertyOp10
 70
     1
102
RTVSPropertyOp11
 70
     1
102
RTVSPropertyOp12
 70
     1
102
RTVSPropertyOp13
 70
     1
102
RTVSPropertyOp14
 70
     1
102
RTVSPropertyOp15
 70
     1
102
RTVSPropertyOp16
 70
     1
102
RTVSPropertyOp17
 70
     1
102
RTVSPropertyOp18
 70
     1
102
RTVSPropertyOp19
 70
     1
102
RTVSPropertyOp20
 70
     1
102
RTVSPropertyOp21
 70
     1
102
RTVSPropertyOp22
 70
     1
102
RTVSPropertyOp23
 70
     1
102
RTVSPropertyOp24
 70
     1
102
RTVSPropertyOp25
 70
     1
102
RTVSPropertyOp26
 70
     1
102
RTVSPropertyOp27
 70
     1
102
RTVSPropertyOp28
 70
     1
102
RTVSPropertyOp29
 70
     1
102
RTVSPropertyOp30
 70
     1
102
RTVSPropertyOp31
 70
     1
102
RTVSPropertyOp32
 70
     1
102
RTVSPropertyOp33
 70
     1
102
RTVSPropertyOp34
 70
     1
102
RTVSPropertyOp35
 70
     1
102
RTVSPropertyOp36
 70
     1
102
RTVSPropertyOp37
 70
     1
102
RTVSPropertyOp38
 70
     1
102
RTVSPropertyOp39
 70
     1
102
RTVSPropertyOp40
 70
     1
102
RTVSPropertyOp41
 70
     1
102
RTVSPropertyOp42
 70
     1
102
RTVSPropertyOp43
 70
     1
102
RTVSPropertyOp44
 70
     1
102
RTVSPropertyOp45
 70
     1
102
RTVSPropertyOp46
 70
     1
102
RTVSPropertyOp47
 70
     1
102
RTVSPropertyOp48
 70
     1
102
RTVSPropertyOp49
 70
     1
102
RTVSPropertyOp50
 70
     1
102
RTVSPropertyOp51
 70
     0
102
RTVSPropertyOp52
 70
     0
102
RTVSPropertyOp53
 70
     1
102
RTVSPropertyOp54
 70
     1
102
RTVSPropertyOp55
 70
     1
102
RTVSPropertyOp56
 70
     1
102
RTVSPropertyOp57
 70
     1
102
RTVSPropertyOp58
 70
     1
102
RTVSPropertyOp59
 70
     1
102
RTVSPropertyOp60
 70
     1
102
RTVSPropertyOp61
 70
     1
102
RTVSPropertyOp62
 70
     1
  0
XRECORD
  5
3E1
102
{ACAD_REACTORS
330
3E0
102
}
330
3E0
100
AcDbXrecord
280
     1
102
RTVSPost2010Prop28
280
     0
102
RTVSPost2010PropOp28
 70
     0
102
RTVSPost2010Prop29
280
     1
102
RTVSPost2010PropOp29
 70
     0
102
RTVSPost2010Prop30
280
     1
102
RTVSPost2010PropOp30
 70
     0
102
RTVSPost2010Prop31
280
     0
102
RTVSPost2010PropOp31
 70
     0
102
RTVSPost2010Prop32
280
     0
102
RTVSPost2010PropOp32
 70
     0
102
RTVSPost2010Prop33
280
     0
102
RTVSPost2010PropOp33
 70
     0
102
RTVSPost2010Prop34
280
     0
102
RTVSPost2010PropOp34
 70
     0
102
RTVSPost2010Prop35
280
     0
102
RTVSPost2010PropOp35
 70
     0
102
RTVSPost2010Prop36
280
     0
102
RTVSPost2010PropOp36
 70
     0
102
RTVSPost2010Prop37
 90
       50
102
RTVSPost2010PropOp37
 70
     0
102
RTVSPost2010Prop38
140
0.0
102
RTVSPost2010PropOp38
 70
     0
102
RTVSPost2010Prop39
140
1.0
102
RTVSPost2010PropOp39
 70
     0
102
RTVSPost2010Prop40
 90
        0
102
RTVSPost2010PropOp40
 70
     0
102
RTVSPost2010Prop41ColorIndex
 90
       18
102
RTVSPost2010Prop41ColorRGB
 90
        0
102
RTVSPost2010PropOp41
 70
     0
102
RTVSPost2010Prop42
 90
       50
102
RTVSPost2010PropOp42
 70
     0
102
RTVSPost2010Prop43
 90
        3
102
RTVSPost2010PropOp43
 70
     0
102
RTVSPost2010Prop44ColorIndex
 90
        5
102
RTVSPost2010Prop44ColorRGB
 90
      255
102
RTVSPost2010PropOp44
 70
     0
102
RTVSPost2010Prop45
280
     0
102
RTVSPost2010PropOp45
 70
     0
102
RTVSPost2010Prop46
 90
       50
102
RTVSPost2010PropOp46
 70
     0
102
RTVSPost2010Prop47
 90
       50
102
RTVSPost2010PropOp47
 70
     0
102
RTVSPost2010Prop48
 90
       50
102
RTVSPost2010PropOp48
 70
     0
102
RTVSPost2010Prop49
280
     0
102
RTVSPost2010PropOp49
 70
     0
102
RTVSPost2010Prop50
 90
       50
102
RTVSPost2010PropOp50
 70
     0
102
RTVSPost2010Prop51ColorIndex
 90
      256
102
RTVSPost2010Prop51ColorRGB
 90
-16777216
102
RTVSPost2010PropOp51
 70
     0
102
RTVSPost2010Prop52
140
1.0
102
RTVSPost2010PropOp52
 70
     0
102
RTVSPost2010Prop53
 90
        2
102
RTVSPost2010PropOp53
 70
     0
102
RTVSPost2010Prop54
  1
strokes_ogs.tif
102
RTVSPost2010PropOp54
 70
     0
102
RTVSPost2010Prop55
280
     0
102
RTVSPost2010PropOp55
 70
     0
102
RTVSPost2010Prop56
140
1.0
102
RTVSPost2010PropOp56
 70
     0
102
RTVSPost2010Prop57
140
1.0
102
RTVSPost2010PropOp57
 70
     0
102
RTVSPropertyOp0
 70
     0
102
RTVSPropertyOp1
 70
     0
102
RTVSPropertyOp2
 70
     0
102
RTVSPropertyOp3
 70
     0
102
RTVSPropertyOp4
 70
     0
102
RTVSPropertyOp5
 70
     0
102
RTVSPropertyOp6
 70
     0
102
RTVSPropertyOp7
 70
     0
102
RTVSPropertyOp8
 70
     0
102
RTVSPropertyOp9
 70
     0
102
RTVSPropertyOp10
 70
     0
102
RTVSPropertyOp11
 70
     0
102
RTVSPropertyOp12
 70
     0
102
RTVSPropertyOp13
 70
     0
102
RTVSPropertyOp14
 70
     2
102
RTVSPropertyOp15
 70
     0
102
RTVSPropertyOp16
 70
     0
102
RTVSPropertyOp17
 70
     0
102
RTVSPropertyOp18
 70
     0
102
RTVSPropertyOp19
 70
     0
102
RTVSPropertyOp20
 70
     0
102
RTVSPropertyOp21
 70
     0
102
RTVSPropertyOp22
 70
     0
102
RTVSPropertyOp23
 70
     0
102
RTVSPropertyOp24
 70
     0
102
RTVSPropertyOp25
 70
     0
102
RTVSPropertyOp26
 70
     0
102
RTVSPropertyOp27
 70
     0
102
RTVSPropertyOp28
 70
     0
102
RTVSPropertyOp29
 70
     0
102
RTVSPropertyOp30
 70
     0
102
RTVSPropertyOp31
 70
     0
102
RTVSPropertyOp32
 70
     0
102
RTVSPropertyOp33
 70
     0
102
RTVSPropertyOp34
 70
     0
102
RTVSPropertyOp35
 70
     0
102
RTVSPropertyOp36
 70
     0
102
RTVSPropertyOp37
 70
     0
102
RTVSPropertyOp38
 70
     0
102
RTVSPropertyOp39
 70
     0
102
RTVSPropertyOp40
 70
     0
102
RTVSPropertyOp41
 70
     0
102
RTVSPropertyOp42
 70
     0
102
RTVSPropertyOp43
 70
     0
102
RTVSPropertyOp44
 70
     0
102
RTVSPropertyOp45
 70
     0
102
RTVSPropertyOp46
 70
     0
102
RTVSPropertyOp47
 70
     0
102
RTVSPropertyOp48
 70
     0
102
RTVSPropertyOp49
 70
     0
102
RTVSPropertyOp50
 70
     0
102
RTVSPropertyOp51
 70
     0
102
RTVSPropertyOp52
 70
     0
102
RTVSPropertyOp53
 70
     0
102
RTVSPropertyOp54
 70
     0
102
RTVSPropertyOp55
 70
     0
102
RTVSPropertyOp56
 70
     0
102
RTVSPropertyOp57
 70
     0
102
RTVSPropertyOp58
 70
     1
102
RTVSPropertyOp59
 70
     1
102
RTVSPropertyOp60
 70
     1
102
RTVSPropertyOp61
 70
     1
102
RTVSPropertyOp62
 70
     1
  0
XRECORD
  5
3D9
102
{ACAD_REACTORS
330
3D8
102
}
330
3D8
100
AcDbXrecord
280
     1
102
RTVSPost2010Prop28
280
     0
102
RTVSPost2010PropOp28
 70
     1
102
RTVSPost2010Prop29
280
     1
102
RTVSPost2010PropOp29
 70
     1
102
RTVSPost2010Prop30
280
     1
102
RTVSPost2010PropOp30
 70
     1
102
RTVSPost2010Prop31
280
     0
102
RTVSPost2010PropOp31
 70
     1
102
RTVSPost2010Prop32
280
     0
102
RTVSPost2010PropOp32
 70
     1
102
RTVSPost2010Prop33
280
     0
102
RTVSPost2010PropOp33
 70
     1
102
RTVSPost2010Prop34
280
     0
102
RTVSPost2010PropOp34
 70
     1
102
RTVSPost2010Prop35
280
     0
102
RTVSPost2010PropOp35
 70
     1
102
RTVSPost2010Prop36
280
     0
102
RTVSPost2010PropOp36
 70
     1
102
RTVSPost2010Prop37
 90
       50
102
RTVSPost2010PropOp37
 70
     1
102
RTVSPost2010Prop38
140
0.0
102
RTVSPost2010PropOp38
 70
     1
102
RTVSPost2010Prop39
140
1.0
102
RTVSPost2010PropOp39
 70
     1
102
RTVSPost2010Prop40
 90
        0
102
RTVSPost2010PropOp40
 70
     1
102
RTVSPost2010Prop41ColorIndex
 90
       18
102
RTVSPost2010Prop41ColorRGB
 90
        0
102
RTVSPost2010PropOp41
 70
     1
102
RTVSPost2010Prop42
 90
       50
102
RTVSPost2010PropOp42
 70
     1
102
RTVSPost2010Prop43
 90
        3
102
RTVSPost2010PropOp43
 70
     1
102
RTVSPost2010Prop44ColorIndex
 90
        5
102
RTVSPost2010Prop44ColorRGB
 90
      255
102
RTVSPost2010PropOp44
 70
     1
102
RTVSPost2010Prop45
280
     0
102
RTVSPost2010PropOp45
 70
     1
102
RTVSPost2010Prop46
 90
       50
102
RTVSPost2010PropOp46
 70
     1
102
RTVSPost2010Prop47
 90
       50
102
RTVSPost2010PropOp47
 70
     1
102
RTVSPost2010Prop48
 90
       50
102
RTVSPost2010PropOp48
 70
     1
102
RTVSPost2010Prop49
280
     0
102
RTVSPost2010PropOp49
 70
     1
102
RTVSPost2010Prop50
 90
       50
102
RTVSPost2010PropOp50
 70
     1
102
RTVSPost2010Prop51ColorIndex
 90
      256
102
RTVSPost2010Prop51ColorRGB
 90
-16777216
102
RTVSPost2010PropOp51
 70
     0
102
RTVSPost2010Prop52
140
1.0
102
RTVSPost2010PropOp52
 70
     0
102
RTVSPost2010Prop53
 90
        2
102
RTVSPost2010PropOp53
 70
     1
102
RTVSPost2010Prop54
  1
strokes_ogs.tif
102
RTVSPost2010PropOp54
 70
     1
102
RTVSPost2010Prop55
280
     0
102
RTVSPost2010PropOp55
 70
     1
102
RTVSPost2010Prop56
140
1.0
102
RTVSPost2010PropOp56
 70
     1
102
RTVSPost2010Prop57
140
1.0
102
RTVSPost2010PropOp57
 70
     1
102
RTVSPropertyOp0
 70
     1
102
RTVSPropertyOp1
 70
     1
102
RTVSPropertyOp2
 70
     1
102
RTVSPropertyOp3
 70
     1
102
RTVSPropertyOp4
 70
     1
102
RTVSPropertyOp5
 70
     1
102
RTVSPropertyOp6
 70
     1
102
RTVSPropertyOp7
 70
     1
102
RTVSPropertyOp8
 70
     1
102
RTVSPropertyOp9
 70
     1
102
RTVSPropertyOp10
 70
     1
102
RTVSPropertyOp11
 70
     1
102
RTVSPropertyOp12
 70
     1
102
RTVSPropertyOp13
 70
     1
102
RTVSPropertyOp14
 70
     1
102
RTVSPropertyOp15
 70
     1
102
RTVSPropertyOp16
 70
     1
102
RTVSPropertyOp17
 70
     1
102
RTVSPropertyOp18
 70
     1
102
RTVSPropertyOp19
 70
     1
102
RTVSPropertyOp20
 70
     1
102
RTVSPropertyOp21
 70
     1
102
RTVSPropertyOp22
 70
     1
102
RTVSPropertyOp23
 70
     1
102
RTVSPropertyOp24
 70
     1
102
RTVSPropertyOp25
 70
     1
102
RTVSPropertyOp26
 70
     1
102
RTVSPropertyOp27
 70
     1
102
RTVSPropertyOp28
 70
     1
102
RTVSPropertyOp29
 70
     1
102
RTVSPropertyOp30
 70
     1
102
RTVSPropertyOp31
 70
     1
102
RTVSPropertyOp32
 70
     1
102
RTVSPropertyOp33
 70
     1
102
RTVSPropertyOp34
 70
     1
102
RTVSPropertyOp35
 70
     1
102
RTVSPropertyOp36
 70
     1
102
RTVSPropertyOp37
 70
     1
102
RTVSPropertyOp38
 70
     1
102
RTVSPropertyOp39
 70
     1
102
RTVSPropertyOp40
 70
     1
102
RTVSPropertyOp41
 70
     1
102
RTVSPropertyOp42
 70
     1
102
RTVSPropertyOp43
 70
     1
102
RTVSPropertyOp44
 70
     1
102
RTVSPropertyOp45
 70
     1
102
RTVSPropertyOp46
 70
     1
102
RTVSPropertyOp47
 70
     1
102
RTVSPropertyOp48
 70
     1
102
RTVSPropertyOp49
 70
     1
102
RTVSPropertyOp50
 70
     1
102
RTVSPropertyOp51
 70
     0
102
RTVSPropertyOp52
 70
     0
102
RTVSPropertyOp53
 70
     1
102
RTVSPropertyOp54
 70
     1
102
RTVSPropertyOp55
 70
     1
102
RTVSPropertyOp56
 70
     1
102
RTVSPropertyOp57
 70
     1
102
RTVSPropertyOp58
 70
     1
102
RTVSPropertyOp59
 70
     1
102
RTVSPropertyOp60
 70
     1
102
RTVSPropertyOp61
 70
     1
102
RTVSPropertyOp62
 70
     1
  0
XRECORD
  5
3BD
102
{ACAD_REACTORS
330
3BC
102
}
330
3BC
100
AcDbXrecord
280
     1
102
RTVSPost2010Prop28
280
     0
102
RTVSPost2010PropOp28
 70
     1
102
RTVSPost2010Prop29
280
     1
102
RTVSPost2010PropOp29
 70
     1
102
RTVSPost2010Prop30
280
     1
102
RTVSPost2010PropOp30
 70
     1
102
RTVSPost2010Prop31
280
     0
102
RTVSPost2010PropOp31
 70
     1
102
RTVSPost2010Prop32
280
     0
102
RTVSPost2010PropOp32
 70
     1
102
RTVSPost2010Prop33
280
     0
102
RTVSPost2010PropOp33
 70
     1
102
RTVSPost2010Prop34
280
     0
102
RTVSPost2010PropOp34
 70
     1
102
RTVSPost2010Prop35
280
     0
102
RTVSPost2010PropOp35
 70
     1
102
RTVSPost2010Prop36
280
     0
102
RTVSPost2010PropOp36
 70
     1
102
RTVSPost2010Prop37
 90
       50
102
RTVSPost2010PropOp37
 70
     1
102
RTVSPost2010Prop38
140
0.0
102
RTVSPost2010PropOp38
 70
     1
102
RTVSPost2010Prop39
140
1.0
102
RTVSPost2010PropOp39
 70
     1
102
RTVSPost2010Prop40
 90
        0
102
RTVSPost2010PropOp40
 70
     1
102
RTVSPost2010Prop41ColorIndex
 90
       18
102
RTVSPost2010Prop41ColorRGB
 90
        0
102
RTVSPost2010PropOp41
 70
     1
102
RTVSPost2010Prop42
 90
       50
102
RTVSPost2010PropOp42
 70
     1
102
RTVSPost2010Prop43
 90
        3
102
RTVSPost2010PropOp43
 70
     1
102
RTVSPost2010Prop44ColorIndex
 90
        5
102
RTVSPost2010Prop44ColorRGB
 90
      255
102
RTVSPost2010PropOp44
 70
     1
102
RTVSPost2010Prop45
280
     0
102
RTVSPost2010PropOp45
 70
     1
102
RTVSPost2010Prop46
 90
       50
102
RTVSPost2010PropOp46
 70
     1
102
RTVSPost2010Prop47
 90
       50
102
RTVSPost2010PropOp47
 70
     1
102
RTVSPost2010Prop48
 90
       50
102
RTVSPost2010PropOp48
 70
     1
102
RTVSPost2010Prop49
280
     0
102
RTVSPost2010PropOp49
 70
     1
102
RTVSPost2010Prop50
 90
       50
102
RTVSPost2010PropOp50
 70
     1
102
RTVSPost2010Prop51ColorIndex
 90
      256
102
RTVSPost2010Prop51ColorRGB
 90
-16777216
102
RTVSPost2010PropOp51
 70
     0
102
RTVSPost2010Prop52
140
1.0
102
RTVSPost2010PropOp52
 70
     0
102
RTVSPost2010Prop53
 90
        2
102
RTVSPost2010PropOp53
 70
     1
102
RTVSPost2010Prop54
  1
strokes_ogs.tif
102
RTVSPost2010PropOp54
 70
     1
102
RTVSPost2010Prop55
280
     0
102
RTVSPost2010PropOp55
 70
     1
102
RTVSPost2010Prop56
140
1.0
102
RTVSPost2010PropOp56
 70
     1
102
RTVSPost2010Prop57
140
1.0
102
RTVSPost2010PropOp57
 70
     1
102
RTVSPropertyOp0
 70
     1
102
RTVSPropertyOp1
 70
     1
102
RTVSPropertyOp2
 70
     1
102
RTVSPropertyOp3
 70
     1
102
RTVSPropertyOp4
 70
     1
102
RTVSPropertyOp5
 70
     1
102
RTVSPropertyOp6
 70
     1
102
RTVSPropertyOp7
 70
     1
102
RTVSPropertyOp8
 70
     1
102
RTVSPropertyOp9
 70
     1
102
RTVSPropertyOp10
 70
     1
102
RTVSPropertyOp11
 70
     1
102
RTVSPropertyOp12
 70
     1
102
RTVSPropertyOp13
 70
     1
102
RTVSPropertyOp14
 70
     1
102
RTVSPropertyOp15
 70
     1
102
RTVSPropertyOp16
 70
     1
102
RTVSPropertyOp17
 70
     1
102
RTVSPropertyOp18
 70
     1
102
RTVSPropertyOp19
 70
     1
102
RTVSPropertyOp20
 70
     1
102
RTVSPropertyOp21
 70
     1
102
RTVSPropertyOp22
 70
     1
102
RTVSPropertyOp23
 70
     1
102
RTVSPropertyOp24
 70
     1
102
RTVSPropertyOp25
 70
     1
102
RTVSPropertyOp26
 70
     1
102
RTVSPropertyOp27
 70
     1
102
RTVSPropertyOp28
 70
     1
102
RTVSPropertyOp29
 70
     1
102
RTVSPropertyOp30
 70
     1
102
RTVSPropertyOp31
 70
     1
102
RTVSPropertyOp32
 70
     1
102
RTVSPropertyOp33
 70
     1
102
RTVSPropertyOp34
 70
     1
102
RTVSPropertyOp35
 70
     1
102
RTVSPropertyOp36
 70
     1
102
RTVSPropertyOp37
 70
     1
102
RTVSPropertyOp38
 70
     1
102
RTVSPropertyOp39
 70
     1
102
RTVSPropertyOp40
 70
     1
102
RTVSPropertyOp41
 70
     1
102
RTVSPropertyOp42
 70
     1
102
RTVSPropertyOp43
 70
     1
102
RTVSPropertyOp44
 70
     1
102
RTVSPropertyOp45
 70
     1
102
RTVSPropertyOp46
 70
     1
102
RTVSPropertyOp47
 70
     1
102
RTVSPropertyOp48
 70
     1
102
RTVSPropertyOp49
 70
     1
102
RTVSPropertyOp50
 70
     1
102
RTVSPropertyOp51
 70
     0
102
RTVSPropertyOp52
 70
     0
102
RTVSPropertyOp53
 70
     1
102
RTVSPropertyOp54
 70
     1
102
RTVSPropertyOp55
 70
     1
102
RTVSPropertyOp56
 70
     1
102
RTVSPropertyOp57
 70
     1
102
RTVSPropertyOp58
 70
     1
102
RTVSPropertyOp59
 70
     1
102
RTVSPropertyOp60
 70
     1
102
RTVSPropertyOp61
 70
     1
102
RTVSPropertyOp62
 70
     1
  0
XRECORD
  5
3BF
102
{ACAD_REACTORS
330
3BE
102
}
330
3BE
100
AcDbXrecord
280
     1
102
RTVSPost2010Prop28
280
     0
102
RTVSPost2010PropOp28
 70
     1
102
RTVSPost2010Prop29
280
     1
102
RTVSPost2010PropOp29
 70
     1
102
RTVSPost2010Prop30
280
     1
102
RTVSPost2010PropOp30
 70
     1
102
RTVSPost2010Prop31
280
     0
102
RTVSPost2010PropOp31
 70
     1
102
RTVSPost2010Prop32
280
     0
102
RTVSPost2010PropOp32
 70
     1
102
RTVSPost2010Prop33
280
     0
102
RTVSPost2010PropOp33
 70
     1
102
RTVSPost2010Prop34
280
     0
102
RTVSPost2010PropOp34
 70
     1
102
RTVSPost2010Prop35
280
     0
102
RTVSPost2010PropOp35
 70
     1
102
RTVSPost2010Prop36
280
     0
102
RTVSPost2010PropOp36
 70
     1
102
RTVSPost2010Prop37
 90
       50
102
RTVSPost2010PropOp37
 70
     1
102
RTVSPost2010Prop38
140
0.0
102
RTVSPost2010PropOp38
 70
     1
102
RTVSPost2010Prop39
140
1.0
102
RTVSPost2010PropOp39
 70
     1
102
RTVSPost2010Prop40
 90
        0
102
RTVSPost2010PropOp40
 70
     1
102
RTVSPost2010Prop41ColorIndex
 90
       18
102
RTVSPost2010Prop41ColorRGB
 90
        0
102
RTVSPost2010PropOp41
 70
     1
102
RTVSPost2010Prop42
 90
       50
102
RTVSPost2010PropOp42
 70
     1
102
RTVSPost2010Prop43
 90
        3
102
RTVSPost2010PropOp43
 70
     1
102
RTVSPost2010Prop44ColorIndex
 90
        5
102
RTVSPost2010Prop44ColorRGB
 90
      255
102
RTVSPost2010PropOp44
 70
     1
102
RTVSPost2010Prop45
280
     0
102
RTVSPost2010PropOp45
 70
     1
102
RTVSPost2010Prop46
 90
       50
102
RTVSPost2010PropOp46
 70
     1
102
RTVSPost2010Prop47
 90
       50
102
RTVSPost2010PropOp47
 70
     1
102
RTVSPost2010Prop48
 90
       50
102
RTVSPost2010PropOp48
 70
     1
102
RTVSPost2010Prop49
280
     0
102
RTVSPost2010PropOp49
 70
     1
102
RTVSPost2010Prop50
 90
       50
102
RTVSPost2010PropOp50
 70
     1
102
RTVSPost2010Prop51ColorIndex
 90
      256
102
RTVSPost2010Prop51ColorRGB
 90
-16777216
102
RTVSPost2010PropOp51
 70
     0
102
RTVSPost2010Prop52
140
1.0
102
RTVSPost2010PropOp52
 70
     0
102
RTVSPost2010Prop53
 90
        2
102
RTVSPost2010PropOp53
 70
     1
102
RTVSPost2010Prop54
  1
strokes_ogs.tif
102
RTVSPost2010PropOp54
 70
     1
102
RTVSPost2010Prop55
280
     0
102
RTVSPost2010PropOp55
 70
     1
102
RTVSPost2010Prop56
140
1.0
102
RTVSPost2010PropOp56
 70
     1
102
RTVSPost2010Prop57
140
1.0
102
RTVSPost2010PropOp57
 70
     1
102
RTVSPropertyOp0
 70
     1
102
RTVSPropertyOp1
 70
     1
102
RTVSPropertyOp2
 70
     1
102
RTVSPropertyOp3
 70
     1
102
RTVSPropertyOp4
 70
     1
102
RTVSPropertyOp5
 70
     1
102
RTVSPropertyOp6
 70
     1
102
RTVSPropertyOp7
 70
     1
102
RTVSPropertyOp8
 70
     1
102
RTVSPropertyOp9
 70
     1
102
RTVSPropertyOp10
 70
     1
102
RTVSPropertyOp11
 70
     1
102
RTVSPropertyOp12
 70
     1
102
RTVSPropertyOp13
 70
     1
102
RTVSPropertyOp14
 70
     1
102
RTVSPropertyOp15
 70
     1
102
RTVSPropertyOp16
 70
     1
102
RTVSPropertyOp17
 70
     1
102
RTVSPropertyOp18
 70
     1
102
RTVSPropertyOp19
 70
     1
102
RTVSPropertyOp20
 70
     1
102
RTVSPropertyOp21
 70
     1
102
RTVSPropertyOp22
 70
     1
102
RTVSPropertyOp23
 70
     1
102
RTVSPropertyOp24
 70
     1
102
RTVSPropertyOp25
 70
     1
102
RTVSPropertyOp26
 70
     1
102
RTVSPropertyOp27
 70
     1
102
RTVSPropertyOp28
 70
     1
102
RTVSPropertyOp29
 70
     1
102
RTVSPropertyOp30
 70
     1
102
RTVSPropertyOp31
 70
     1
102
RTVSPropertyOp32
 70
     1
102
RTVSPropertyOp33
 70
     1
102
RTVSPropertyOp34
 70
     1
102
RTVSPropertyOp35
 70
     1
102
RTVSPropertyOp36
 70
     1
102
RTVSPropertyOp37
 70
     1
102
RTVSPropertyOp38
 70
     1
102
RTVSPropertyOp39
 70
     1
102
RTVSPropertyOp40
 70
     1
102
RTVSPropertyOp41
 70
     1
102
RTVSPropertyOp42
 70
     1
102
RTVSPropertyOp43
 70
     1
102
RTVSPropertyOp44
 70
     1
102
RTVSPropertyOp45
 70
     1
102
RTVSPropertyOp46
 70
     1
102
RTVSPropertyOp47
 70
     1
102
RTVSPropertyOp48
 70
     1
102
RTVSPropertyOp49
 70
     1
102
RTVSPropertyOp50
 70
     1
102
RTVSPropertyOp51
 70
     0
102
RTVSPropertyOp52
 70
     0
102
RTVSPropertyOp53
 70
     1
102
RTVSPropertyOp54
 70
     1
102
RTVSPropertyOp55
 70
     1
102
RTVSPropertyOp56
 70
     1
102
RTVSPropertyOp57
 70
     1
102
RTVSPropertyOp58
 70
     1
102
RTVSPropertyOp59
 70
     1
102
RTVSPropertyOp60
 70
     1
102
RTVSPropertyOp61
 70
     1
102
RTVSPropertyOp62
 70
     1
  0
XRECORD
  5
3C1
102
{ACAD_REACTORS
330
3C0
102
}
330
3C0
100
AcDbXrecord
280
     1
102
RTVSPost2010Prop28
280
     0
102
RTVSPost2010PropOp28
 70
     1
102
RTVSPost2010Prop29
280
     1
102
RTVSPost2010PropOp29
 70
     1
102
RTVSPost2010Prop30
280
     1
102
RTVSPost2010PropOp30
 70
     1
102
RTVSPost2010Prop31
280
     0
102
RTVSPost2010PropOp31
 70
     1
102
RTVSPost2010Prop32
280
     0
102
RTVSPost2010PropOp32
 70
     1
102
RTVSPost2010Prop33
280
     0
102
RTVSPost2010PropOp33
 70
     1
102
RTVSPost2010Prop34
280
     0
102
RTVSPost2010PropOp34
 70
     1
102
RTVSPost2010Prop35
280
     0
102
RTVSPost2010PropOp35
 70
     1
102
RTVSPost2010Prop36
280
     0
102
RTVSPost2010PropOp36
 70
     1
102
RTVSPost2010Prop37
 90
       50
102
RTVSPost2010PropOp37
 70
     1
102
RTVSPost2010Prop38
140
0.0
102
RTVSPost2010PropOp38
 70
     1
102
RTVSPost2010Prop39
140
1.0
102
RTVSPost2010PropOp39
 70
     1
102
RTVSPost2010Prop40
 90
        0
102
RTVSPost2010PropOp40
 70
     1
102
RTVSPost2010Prop41ColorIndex
 90
       18
102
RTVSPost2010Prop41ColorRGB
 90
        0
102
RTVSPost2010PropOp41
 70
     1
102
RTVSPost2010Prop42
 90
       50
102
RTVSPost2010PropOp42
 70
     1
102
RTVSPost2010Prop43
 90
        3
102
RTVSPost2010PropOp43
 70
     1
102
RTVSPost2010Prop44ColorIndex
 90
        5
102
RTVSPost2010Prop44ColorRGB
 90
      255
102
RTVSPost2010PropOp44
 70
     1
102
RTVSPost2010Prop45
280
     0
102
RTVSPost2010PropOp45
 70
     1
102
RTVSPost2010Prop46
 90
       50
102
RTVSPost2010PropOp46
 70
     1
102
RTVSPost2010Prop47
 90
       50
102
RTVSPost2010PropOp47
 70
     1
102
RTVSPost2010Prop48
 90
       50
102
RTVSPost2010PropOp48
 70
     1
102
RTVSPost2010Prop49
280
     0
102
RTVSPost2010PropOp49
 70
     1
102
RTVSPost2010Prop50
 90
       50
102
RTVSPost2010PropOp50
 70
     1
102
RTVSPost2010Prop51ColorIndex
 90
      256
102
RTVSPost2010Prop51ColorRGB
 90
-16777216
102
RTVSPost2010PropOp51
 70
     0
102
RTVSPost2010Prop52
140
1.0
102
RTVSPost2010PropOp52
 70
     0
102
RTVSPost2010Prop53
 90
        2
102
RTVSPost2010PropOp53
 70
     1
102
RTVSPost2010Prop54
  1
strokes_ogs.tif
102
RTVSPost2010PropOp54
 70
     1
102
RTVSPost2010Prop55
280
     0
102
RTVSPost2010PropOp55
 70
     1
102
RTVSPost2010Prop56
140
1.0
102
RTVSPost2010PropOp56
 70
     1
102
RTVSPost2010Prop57
140
1.0
102
RTVSPost2010PropOp57
 70
     1
102
RTVSPropertyOp0
 70
     1
102
RTVSPropertyOp1
 70
     1
102
RTVSPropertyOp2
 70
     1
102
RTVSPropertyOp3
 70
     1
102
RTVSPropertyOp4
 70
     1
102
RTVSPropertyOp5
 70
     1
102
RTVSPropertyOp6
 70
     1
102
RTVSPropertyOp7
 70
     1
102
RTVSPropertyOp8
 70
     1
102
RTVSPropertyOp9
 70
     1
102
RTVSPropertyOp10
 70
     1
102
RTVSPropertyOp11
 70
     1
102
RTVSPropertyOp12
 70
     1
102
RTVSPropertyOp13
 70
     1
102
RTVSPropertyOp14
 70
     1
102
RTVSPropertyOp15
 70
     1
102
RTVSPropertyOp16
 70
     1
102
RTVSPropertyOp17
 70
     1
102
RTVSPropertyOp18
 70
     1
102
RTVSPropertyOp19
 70
     1
102
RTVSPropertyOp20
 70
     1
102
RTVSPropertyOp21
 70
     1
102
RTVSPropertyOp22
 70
     1
102
RTVSPropertyOp23
 70
     1
102
RTVSPropertyOp24
 70
     1
102
RTVSPropertyOp25
 70
     1
102
RTVSPropertyOp26
 70
     1
102
RTVSPropertyOp27
 70
     1
102
RTVSPropertyOp28
 70
     1
102
RTVSPropertyOp29
 70
     1
102
RTVSPropertyOp30
 70
     1
102
RTVSPropertyOp31
 70
     1
102
RTVSPropertyOp32
 70
     1
102
RTVSPropertyOp33
 70
     1
102
RTVSPropertyOp34
 70
     1
102
RTVSPropertyOp35
 70
     1
102
RTVSPropertyOp36
 70
     1
102
RTVSPropertyOp37
 70
     1
102
RTVSPropertyOp38
 70
     1
102
RTVSPropertyOp39
 70
     1
102
RTVSPropertyOp40
 70
     1
102
RTVSPropertyOp41
 70
     1
102
RTVSPropertyOp42
 70
     1
102
RTVSPropertyOp43
 70
     1
102
RTVSPropertyOp44
 70
     1
102
RTVSPropertyOp45
 70
     1
102
RTVSPropertyOp46
 70
     1
102
RTVSPropertyOp47
 70
     1
102
RTVSPropertyOp48
 70
     1
102
RTVSPropertyOp49
 70
     1
102
RTVSPropertyOp50
 70
     1
102
RTVSPropertyOp51
 70
     0
102
RTVSPropertyOp52
 70
     0
102
RTVSPropertyOp53
 70
     1
102
RTVSPropertyOp54
 70
     1
102
RTVSPropertyOp55
 70
     1
102
RTVSPropertyOp56
 70
     1
102
RTVSPropertyOp57
 70
     1
102
RTVSPropertyOp58
 70
     1
102
RTVSPropertyOp59
 70
     1
102
RTVSPropertyOp60
 70
     1
102
RTVSPropertyOp61
 70
     1
102
RTVSPropertyOp62
 70
     1
  0
XRECORD
  5
3C3
102
{ACAD_REACTORS
330
3C2
102
}
330
3C2
100
AcDbXrecord
280
     1
102
RTVSPost2010Prop28
280
     0
102
RTVSPost2010PropOp28
 70
     1
102
RTVSPost2010Prop29
280
     1
102
RTVSPost2010PropOp29
 70
     1
102
RTVSPost2010Prop30
280
     1
102
RTVSPost2010PropOp30
 70
     1
102
RTVSPost2010Prop31
280
     0
102
RTVSPost2010PropOp31
 70
     1
102
RTVSPost2010Prop32
280
     0
102
RTVSPost2010PropOp32
 70
     1
102
RTVSPost2010Prop33
280
     0
102
RTVSPost2010PropOp33
 70
     1
102
RTVSPost2010Prop34
280
     0
102
RTVSPost2010PropOp34
 70
     1
102
RTVSPost2010Prop35
280
     0
102
RTVSPost2010PropOp35
 70
     1
102
RTVSPost2010Prop36
280
     0
102
RTVSPost2010PropOp36
 70
     1
102
RTVSPost2010Prop37
 90
       50
102
RTVSPost2010PropOp37
 70
     1
102
RTVSPost2010Prop38
140
0.0
102
RTVSPost2010PropOp38
 70
     1
102
RTVSPost2010Prop39
140
1.0
102
RTVSPost2010PropOp39
 70
     1
102
RTVSPost2010Prop40
 90
        0
102
RTVSPost2010PropOp40
 70
     1
102
RTVSPost2010Prop41ColorIndex
 90
       18
102
RTVSPost2010Prop41ColorRGB
 90
        0
102
RTVSPost2010PropOp41
 70
     1
102
RTVSPost2010Prop42
 90
       50
102
RTVSPost2010PropOp42
 70
     1
102
RTVSPost2010Prop43
 90
        3
102
RTVSPost2010PropOp43
 70
     1
102
RTVSPost2010Prop44ColorIndex
 90
        5
102
RTVSPost2010Prop44ColorRGB
 90
      255
102
RTVSPost2010PropOp44
 70
     1
102
RTVSPost2010Prop45
280
     0
102
RTVSPost2010PropOp45
 70
     1
102
RTVSPost2010Prop46
 90
       50
102
RTVSPost2010PropOp46
 70
     1
102
RTVSPost2010Prop47
 90
       50
102
RTVSPost2010PropOp47
 70
     1
102
RTVSPost2010Prop48
 90
       50
102
RTVSPost2010PropOp48
 70
     1
102
RTVSPost2010Prop49
280
     0
102
RTVSPost2010PropOp49
 70
     1
102
RTVSPost2010Prop50
 90
       50
102
RTVSPost2010PropOp50
 70
     1
102
RTVSPost2010Prop51ColorIndex
 90
      256
102
RTVSPost2010Prop51ColorRGB
 90
-16777216
102
RTVSPost2010PropOp51
 70
     0
102
RTVSPost2010Prop52
140
1.0
102
RTVSPost2010PropOp52
 70
     0
102
RTVSPost2010Prop53
 90
        2
102
RTVSPost2010PropOp53
 70
     1
102
RTVSPost2010Prop54
  1
strokes_ogs.tif
102
RTVSPost2010PropOp54
 70
     1
102
RTVSPost2010Prop55
280
     0
102
RTVSPost2010PropOp55
 70
     1
102
RTVSPost2010Prop56
140
1.0
102
RTVSPost2010PropOp56
 70
     1
102
RTVSPost2010Prop57
140
1.0
102
RTVSPost2010PropOp57
 70
     1
102
RTVSPropertyOp0
 70
     1
102
RTVSPropertyOp1
 70
     1
102
RTVSPropertyOp2
 70
     1
102
RTVSPropertyOp3
 70
     1
102
RTVSPropertyOp4
 70
     1
102
RTVSPropertyOp5
 70
     1
102
RTVSPropertyOp6
 70
     1
102
RTVSPropertyOp7
 70
     1
102
RTVSPropertyOp8
 70
     1
102
RTVSPropertyOp9
 70
     1
102
RTVSPropertyOp10
 70
     1
102
RTVSPropertyOp11
 70
     1
102
RTVSPropertyOp12
 70
     1
102
RTVSPropertyOp13
 70
     1
102
RTVSPropertyOp14
 70
     1
102
RTVSPropertyOp15
 70
     1
102
RTVSPropertyOp16
 70
     1
102
RTVSPropertyOp17
 70
     1
102
RTVSPropertyOp18
 70
     1
102
RTVSPropertyOp19
 70
     1
102
RTVSPropertyOp20
 70
     1
102
RTVSPropertyOp21
 70
     1
102
RTVSPropertyOp22
 70
     1
102
RTVSPropertyOp23
 70
     1
102
RTVSPropertyOp24
 70
     1
102
RTVSPropertyOp25
 70
     1
102
RTVSPropertyOp26
 70
     1
102
RTVSPropertyOp27
 70
     1
102
RTVSPropertyOp28
 70
     1
102
RTVSPropertyOp29
 70
     1
102
RTVSPropertyOp30
 70
     1
102
RTVSPropertyOp31
 70
     1
102
RTVSPropertyOp32
 70
     1
102
RTVSPropertyOp33
 70
     1
102
RTVSPropertyOp34
 70
     1
102
RTVSPropertyOp35
 70
     1
102
RTVSPropertyOp36
 70
     1
102
RTVSPropertyOp37
 70
     1
102
RTVSPropertyOp38
 70
     1
102
RTVSPropertyOp39
 70
     1
102
RTVSPropertyOp40
 70
     1
102
RTVSPropertyOp41
 70
     1
102
RTVSPropertyOp42
 70
     1
102
RTVSPropertyOp43
 70
     1
102
RTVSPropertyOp44
 70
     1
102
RTVSPropertyOp45
 70
     1
102
RTVSPropertyOp46
 70
     1
102
RTVSPropertyOp47
 70
     1
102
RTVSPropertyOp48
 70
     1
102
RTVSPropertyOp49
 70
     1
102
RTVSPropertyOp50
 70
     1
102
RTVSPropertyOp51
 70
     0
102
RTVSPropertyOp52
 70
     0
102
RTVSPropertyOp53
 70
     1
102
RTVSPropertyOp54
 70
     1
102
RTVSPropertyOp55
 70
     1
102
RTVSPropertyOp56
 70
     1
102
RTVSPropertyOp57
 70
     1
102
RTVSPropertyOp58
 70
     1
102
RTVSPropertyOp59
 70
     1
102
RTVSPropertyOp60
 70
     1
102
RTVSPropertyOp61
 70
     1
102
RTVSPropertyOp62
 70
     1
  0
XRECORD
  5
3C9
102
{ACAD_REACTORS
330
3C8
102
}
330
3C8
100
AcDbXrecord
280
     1
102
RTVSPost2010Prop28
280
     0
102
RTVSPost2010PropOp28
 70
     1
102
RTVSPost2010Prop29
280
     1
102
RTVSPost2010PropOp29
 70
     1
102
RTVSPost2010Prop30
280
     1
102
RTVSPost2010PropOp30
 70
     1
102
RTVSPost2010Prop31
280
     0
102
RTVSPost2010PropOp31
 70
     1
102
RTVSPost2010Prop32
280
     0
102
RTVSPost2010PropOp32
 70
     1
102
RTVSPost2010Prop33
280
     0
102
RTVSPost2010PropOp33
 70
     1
102
RTVSPost2010Prop34
280
     0
102
RTVSPost2010PropOp34
 70
     1
102
RTVSPost2010Prop35
280
     0
102
RTVSPost2010PropOp35
 70
     1
102
RTVSPost2010Prop36
280
     0
102
RTVSPost2010PropOp36
 70
     1
102
RTVSPost2010Prop37
 90
       50
102
RTVSPost2010PropOp37
 70
     1
102
RTVSPost2010Prop38
140
0.0
102
RTVSPost2010PropOp38
 70
     1
102
RTVSPost2010Prop39
140
1.0
102
RTVSPost2010PropOp39
 70
     1
102
RTVSPost2010Prop40
 90
        0
102
RTVSPost2010PropOp40
 70
     1
102
RTVSPost2010Prop41ColorIndex
 90
       18
102
RTVSPost2010Prop41ColorRGB
 90
        0
102
RTVSPost2010PropOp41
 70
     1
102
RTVSPost2010Prop42
 90
       50
102
RTVSPost2010PropOp42
 70
     1
102
RTVSPost2010Prop43
 90
        3
102
RTVSPost2010PropOp43
 70
     1
102
RTVSPost2010Prop44ColorIndex
 90
        5
102
RTVSPost2010Prop44ColorRGB
 90
      255
102
RTVSPost2010PropOp44
 70
     1
102
RTVSPost2010Prop45
280
     0
102
RTVSPost2010PropOp45
 70
     1
102
RTVSPost2010Prop46
 90
       50
102
RTVSPost2010PropOp46
 70
     1
102
RTVSPost2010Prop47
 90
       50
102
RTVSPost2010PropOp47
 70
     1
102
RTVSPost2010Prop48
 90
       50
102
RTVSPost2010PropOp48
 70
     1
102
RTVSPost2010Prop49
280
     0
102
RTVSPost2010PropOp49
 70
     1
102
RTVSPost2010Prop50
 90
       50
102
RTVSPost2010PropOp50
 70
     1
102
RTVSPost2010Prop51ColorIndex
 90
      256
102
RTVSPost2010Prop51ColorRGB
 90
-16777216
102
RTVSPost2010PropOp51
 70
     0
102
RTVSPost2010Prop52
140
1.0
102
RTVSPost2010PropOp52
 70
     0
102
RTVSPost2010Prop53
 90
        2
102
RTVSPost2010PropOp53
 70
     1
102
RTVSPost2010Prop54
  1
strokes_ogs.tif
102
RTVSPost2010PropOp54
 70
     1
102
RTVSPost2010Prop55
280
     0
102
RTVSPost2010PropOp55
 70
     1
102
RTVSPost2010Prop56
140
1.0
102
RTVSPost2010PropOp56
 70
     1
102
RTVSPost2010Prop57
140
1.0
102
RTVSPost2010PropOp57
 70
     1
102
RTVSPropertyOp0
 70
     1
102
RTVSPropertyOp1
 70
     1
102
RTVSPropertyOp2
 70
     1
102
RTVSPropertyOp3
 70
     1
102
RTVSPropertyOp4
 70
     1
102
RTVSPropertyOp5
 70
     1
102
RTVSPropertyOp6
 70
     1
102
RTVSPropertyOp7
 70
     1
102
RTVSPropertyOp8
 70
     1
102
RTVSPropertyOp9
 70
     1
102
RTVSPropertyOp10
 70
     1
102
RTVSPropertyOp11
 70
     1
102
RTVSPropertyOp12
 70
     1
102
RTVSPropertyOp13
 70
     1
102
RTVSPropertyOp14
 70
     1
102
RTVSPropertyOp15
 70
     1
102
RTVSPropertyOp16
 70
     1
102
RTVSPropertyOp17
 70
     1
102
RTVSPropertyOp18
 70
     1
102
RTVSPropertyOp19
 70
     1
102
RTVSPropertyOp20
 70
     1
102
RTVSPropertyOp21
 70
     1
102
RTVSPropertyOp22
 70
     1
102
RTVSPropertyOp23
 70
     1
102
RTVSPropertyOp24
 70
     1
102
RTVSPropertyOp25
 70
     1
102
RTVSPropertyOp26
 70
     1
102
RTVSPropertyOp27
 70
     1
102
RTVSPropertyOp28
 70
     1
102
RTVSPropertyOp29
 70
     1
102
RTVSPropertyOp30
 70
     1
102
RTVSPropertyOp31
 70
     1
102
RTVSPropertyOp32
 70
     1
102
RTVSPropertyOp33
 70
     1
102
RTVSPropertyOp34
 70
     1
102
RTVSPropertyOp35
 70
     1
102
RTVSPropertyOp36
 70
     1
102
RTVSPropertyOp37
 70
     1
102
RTVSPropertyOp38
 70
     1
102
RTVSPropertyOp39
 70
     1
102
RTVSPropertyOp40
 70
     1
102
RTVSPropertyOp41
 70
     1
102
RTVSPropertyOp42
 70
     1
102
RTVSPropertyOp43
 70
     1
102
RTVSPropertyOp44
 70
     1
102
RTVSPropertyOp45
 70
     1
102
RTVSPropertyOp46
 70
     1
102
RTVSPropertyOp47
 70
     1
102
RTVSPropertyOp48
 70
     1
102
RTVSPropertyOp49
 70
     1
102
RTVSPropertyOp50
 70
     1
102
RTVSPropertyOp51
 70
     0
102
RTVSPropertyOp52
 70
     0
102
RTVSPropertyOp53
 70
     1
102
RTVSPropertyOp54
 70
     1
102
RTVSPropertyOp55
 70
     1
102
RTVSPropertyOp56
 70
     1
102
RTVSPropertyOp57
 70
     1
102
RTVSPropertyOp58
 70
     1
102
RTVSPropertyOp59
 70
     1
102
RTVSPropertyOp60
 70
     1
102
RTVSPropertyOp61
 70
     1
102
RTVSPropertyOp62
 70
     1
  0
XRECORD
  5
3DD
102
{ACAD_REACTORS
330
3DC
102
}
330
3DC
100
AcDbXrecord
280
     1
102
RTVSPost2010Prop28
280
     0
102
RTVSPost2010PropOp28
 70
     0
102
RTVSPost2010Prop29
280
     1
102
RTVSPost2010PropOp29
 70
     0
102
RTVSPost2010Prop30
280
     1
102
RTVSPost2010PropOp30
 70
     0
102
RTVSPost2010Prop31
280
     0
102
RTVSPost2010PropOp31
 70
     0
102
RTVSPost2010Prop32
280
     0
102
RTVSPost2010PropOp32
 70
     0
102
RTVSPost2010Prop33
280
     0
102
RTVSPost2010PropOp33
 70
     0
102
RTVSPost2010Prop34
280
     0
102
RTVSPost2010PropOp34
 70
     0
102
RTVSPost2010Prop35
280
     0
102
RTVSPost2010PropOp35
 70
     0
102
RTVSPost2010Prop36
280
     0
102
RTVSPost2010PropOp36
 70
     0
102
RTVSPost2010Prop37
 90
       50
102
RTVSPost2010PropOp37
 70
     0
102
RTVSPost2010Prop38
140
0.0
102
RTVSPost2010PropOp38
 70
     0
102
RTVSPost2010Prop39
140
1.0
102
RTVSPost2010PropOp39
 70
     0
102
RTVSPost2010Prop40
 90
        0
102
RTVSPost2010PropOp40
 70
     0
102
RTVSPost2010Prop41ColorIndex
 90
       18
102
RTVSPost2010Prop41ColorRGB
 90
        0
102
RTVSPost2010PropOp41
 70
     0
102
RTVSPost2010Prop42
 90
       50
102
RTVSPost2010PropOp42
 70
     0
102
RTVSPost2010Prop43
 90
        3
102
RTVSPost2010PropOp43
 70
     0
102
RTVSPost2010Prop44ColorIndex
 90
        5
102
RTVSPost2010Prop44ColorRGB
 90
      255
102
RTVSPost2010PropOp44
 70
     0
102
RTVSPost2010Prop45
280
     0
102
RTVSPost2010PropOp45
 70
     0
102
RTVSPost2010Prop46
 90
       50
102
RTVSPost2010PropOp46
 70
     0
102
RTVSPost2010Prop47
 90
       50
102
RTVSPost2010PropOp47
 70
     0
102
RTVSPost2010Prop48
 90
       50
102
RTVSPost2010PropOp48
 70
     0
102
RTVSPost2010Prop49
280
     0
102
RTVSPost2010PropOp49
 70
     0
102
RTVSPost2010Prop50
 90
       50
102
RTVSPost2010PropOp50
 70
     0
102
RTVSPost2010Prop51ColorIndex
 90
      256
102
RTVSPost2010Prop51ColorRGB
 90
-16777216
102
RTVSPost2010PropOp51
 70
     0
102
RTVSPost2010Prop52
140
1.0
102
RTVSPost2010PropOp52
 70
     0
102
RTVSPost2010Prop53
 90
        2
102
RTVSPost2010PropOp53
 70
     0
102
RTVSPost2010Prop54
  1
strokes_ogs.tif
102
RTVSPost2010PropOp54
 70
     0
102
RTVSPost2010Prop55
280
     0
102
RTVSPost2010PropOp55
 70
     0
102
RTVSPost2010Prop56
140
1.0
102
RTVSPost2010PropOp56
 70
     0
102
RTVSPost2010Prop57
140
1.0
102
RTVSPost2010PropOp57
 70
     0
102
RTVSPropertyOp0
 70
     0
102
RTVSPropertyOp1
 70
     0
102
RTVSPropertyOp2
 70
     0
102
RTVSPropertyOp3
 70
     0
102
RTVSPropertyOp4
 70
     0
102
RTVSPropertyOp5
 70
     0
102
RTVSPropertyOp6
 70
     0
102
RTVSPropertyOp7
 70
     0
102
RTVSPropertyOp8
 70
     0
102
RTVSPropertyOp9
 70
     0
102
RTVSPropertyOp10
 70
     0
102
RTVSPropertyOp11
 70
     0
102
RTVSPropertyOp12
 70
     0
102
RTVSPropertyOp13
 70
     0
102
RTVSPropertyOp14
 70
     2
102
RTVSPropertyOp15
 70
     0
102
RTVSPropertyOp16
 70
     0
102
RTVSPropertyOp17
 70
     0
102
RTVSPropertyOp18
 70
     0
102
RTVSPropertyOp19
 70
     0
102
RTVSPropertyOp20
 70
     0
102
RTVSPropertyOp21
 70
     0
102
RTVSPropertyOp22
 70
     0
102
RTVSPropertyOp23
 70
     0
102
RTVSPropertyOp24
 70
     0
102
RTVSPropertyOp25
 70
     0
102
RTVSPropertyOp26
 70
     0
102
RTVSPropertyOp27
 70
     0
102
RTVSPropertyOp28
 70
     0
102
RTVSPropertyOp29
 70
     0
102
RTVSPropertyOp30
 70
     0
102
RTVSPropertyOp31
 70
     0
102
RTVSPropertyOp32
 70
     0
102
RTVSPropertyOp33
 70
     0
102
RTVSPropertyOp34
 70
     0
102
RTVSPropertyOp35
 70
     0
102
RTVSPropertyOp36
 70
     0
102
RTVSPropertyOp37
 70
     0
102
RTVSPropertyOp38
 70
     0
102
RTVSPropertyOp39
 70
     0
102
RTVSPropertyOp40
 70
     0
102
RTVSPropertyOp41
 70
     0
102
RTVSPropertyOp42
 70
     0
102
RTVSPropertyOp43
 70
     0
102
RTVSPropertyOp44
 70
     0
102
RTVSPropertyOp45
 70
     0
102
RTVSPropertyOp46
 70
     0
102
RTVSPropertyOp47
 70
     0
102
RTVSPropertyOp48
 70
     0
102
RTVSPropertyOp49
 70
     0
102
RTVSPropertyOp50
 70
     0
102
RTVSPropertyOp51
 70
     0
102
RTVSPropertyOp52
 70
     0
102
RTVSPropertyOp53
 70
     0
102
RTVSPropertyOp54
 70
     0
102
RTVSPropertyOp55
 70
     0
102
RTVSPropertyOp56
 70
     0
102
RTVSPropertyOp57
 70
     0
102
RTVSPropertyOp58
 70
     1
102
RTVSPropertyOp59
 70
     1
102
RTVSPropertyOp60
 70
     1
102
RTVSPropertyOp61
 70
     1
102
RTVSPropertyOp62
 70
     1
  0
XRECORD
  5
3D7
102
{ACAD_REACTORS
330
3D6
102
}
330
3D6
100
AcDbXrecord
280
     1
102
RTVSPost2010Prop28
280
     0
102
RTVSPost2010PropOp28
 70
     1
102
RTVSPost2010Prop29
280
     1
102
RTVSPost2010PropOp29
 70
     1
102
RTVSPost2010Prop30
280
     1
102
RTVSPost2010PropOp30
 70
     1
102
RTVSPost2010Prop31
280
     0
102
RTVSPost2010PropOp31
 70
     1
102
RTVSPost2010Prop32
280
     0
102
RTVSPost2010PropOp32
 70
     1
102
RTVSPost2010Prop33
280
     0
102
RTVSPost2010PropOp33
 70
     1
102
RTVSPost2010Prop34
280
     0
102
RTVSPost2010PropOp34
 70
     1
102
RTVSPost2010Prop35
280
     0
102
RTVSPost2010PropOp35
 70
     1
102
RTVSPost2010Prop36
280
     0
102
RTVSPost2010PropOp36
 70
     1
102
RTVSPost2010Prop37
 90
       50
102
RTVSPost2010PropOp37
 70
     1
102
RTVSPost2010Prop38
140
0.0
102
RTVSPost2010PropOp38
 70
     1
102
RTVSPost2010Prop39
140
1.0
102
RTVSPost2010PropOp39
 70
     1
102
RTVSPost2010Prop40
 90
        0
102
RTVSPost2010PropOp40
 70
     1
102
RTVSPost2010Prop41ColorIndex
 90
       18
102
RTVSPost2010Prop41ColorRGB
 90
        0
102
RTVSPost2010PropOp41
 70
     1
102
RTVSPost2010Prop42
 90
       50
102
RTVSPost2010PropOp42
 70
     1
102
RTVSPost2010Prop43
 90
        3
102
RTVSPost2010PropOp43
 70
     1
102
RTVSPost2010Prop44ColorIndex
 90
        5
102
RTVSPost2010Prop44ColorRGB
 90
      255
102
RTVSPost2010PropOp44
 70
     1
102
RTVSPost2010Prop45
280
     0
102
RTVSPost2010PropOp45
 70
     1
102
RTVSPost2010Prop46
 90
       50
102
RTVSPost2010PropOp46
 70
     1
102
RTVSPost2010Prop47
 90
       50
102
RTVSPost2010PropOp47
 70
     1
102
RTVSPost2010Prop48
 90
       50
102
RTVSPost2010PropOp48
 70
     1
102
RTVSPost2010Prop49
280
     0
102
RTVSPost2010PropOp49
 70
     1
102
RTVSPost2010Prop50
 90
       50
102
RTVSPost2010PropOp50
 70
     1
102
RTVSPost2010Prop51ColorIndex
 90
      256
102
RTVSPost2010Prop51ColorRGB
 90
-16777216
102
RTVSPost2010PropOp51
 70
     0
102
RTVSPost2010Prop52
140
1.0
102
RTVSPost2010PropOp52
 70
     0
102
RTVSPost2010Prop53
 90
        2
102
RTVSPost2010PropOp53
 70
     1
102
RTVSPost2010Prop54
  1
strokes_ogs.tif
102
RTVSPost2010PropOp54
 70
     1
102
RTVSPost2010Prop55
280
     0
102
RTVSPost2010PropOp55
 70
     1
102
RTVSPost2010Prop56
140
1.0
102
RTVSPost2010PropOp56
 70
     1
102
RTVSPost2010Prop57
140
1.0
102
RTVSPost2010PropOp57
 70
     1
102
RTVSPropertyOp0
 70
     1
102
RTVSPropertyOp1
 70
     1
102
RTVSPropertyOp2
 70
     1
102
RTVSPropertyOp3
 70
     1
102
RTVSPropertyOp4
 70
     1
102
RTVSPropertyOp5
 70
     1
102
RTVSPropertyOp6
 70
     1
102
RTVSPropertyOp7
 70
     1
102
RTVSPropertyOp8
 70
     1
102
RTVSPropertyOp9
 70
     1
102
RTVSPropertyOp10
 70
     1
102
RTVSPropertyOp11
 70
     1
102
RTVSPropertyOp12
 70
     1
102
RTVSPropertyOp13
 70
     1
102
RTVSPropertyOp14
 70
     1
102
RTVSPropertyOp15
 70
     1
102
RTVSPropertyOp16
 70
     1
102
RTVSPropertyOp17
 70
     1
102
RTVSPropertyOp18
 70
     1
102
RTVSPropertyOp19
 70
     1
102
RTVSPropertyOp20
 70
     1
102
RTVSPropertyOp21
 70
     1
102
RTVSPropertyOp22
 70
     1
102
RTVSPropertyOp23
 70
     1
102
RTVSPropertyOp24
 70
     1
102
RTVSPropertyOp25
 70
     1
102
RTVSPropertyOp26
 70
     1
102
RTVSPropertyOp27
 70
     1
102
RTVSPropertyOp28
 70
     1
102
RTVSPropertyOp29
 70
     1
102
RTVSPropertyOp30
 70
     1
102
RTVSPropertyOp31
 70
     1
102
RTVSPropertyOp32
 70
     1
102
RTVSPropertyOp33
 70
     1
102
RTVSPropertyOp34
 70
     1
102
RTVSPropertyOp35
 70
     1
102
RTVSPropertyOp36
 70
     1
102
RTVSPropertyOp37
 70
     1
102
RTVSPropertyOp38
 70
     1
102
RTVSPropertyOp39
 70
     1
102
RTVSPropertyOp40
 70
     1
102
RTVSPropertyOp41
 70
     1
102
RTVSPropertyOp42
 70
     1
102
RTVSPropertyOp43
 70
     1
102
RTVSPropertyOp44
 70
     1
102
RTVSPropertyOp45
 70
     1
102
RTVSPropertyOp46
 70
     1
102
RTVSPropertyOp47
 70
     1
102
RTVSPropertyOp48
 70
     1
102
RTVSPropertyOp49
 70
     1
102
RTVSPropertyOp50
 70
     1
102
RTVSPropertyOp51
 70
     0
102
RTVSPropertyOp52
 70
     0
102
RTVSPropertyOp53
 70
     1
102
RTVSPropertyOp54
 70
     1
102
RTVSPropertyOp55
 70
     1
102
RTVSPropertyOp56
 70
     1
102
RTVSPropertyOp57
 70
     1
102
RTVSPropertyOp58
 70
     1
102
RTVSPropertyOp59
 70
     1
102
RTVSPropertyOp60
 70
     1
102
RTVSPropertyOp61
 70
     1
102
RTVSPropertyOp62
 70
     1
  0
XRECORD
  5
3DF
102
{ACAD_REACTORS
330
3DE
102
}
330
3DE
100
AcDbXrecord
280
     1
102
RTVSPost2010Prop28
280
     0
102
RTVSPost2010PropOp28
 70
     0
102
RTVSPost2010Prop29
280
     1
102
RTVSPost2010PropOp29
 70
     0
102
RTVSPost2010Prop30
280
     1
102
RTVSPost2010PropOp30
 70
     0
102
RTVSPost2010Prop31
280
     0
102
RTVSPost2010PropOp31
 70
     0
102
RTVSPost2010Prop32
280
     0
102
RTVSPost2010PropOp32
 70
     0
102
RTVSPost2010Prop33
280
     0
102
RTVSPost2010PropOp33
 70
     0
102
RTVSPost2010Prop34
280
     0
102
RTVSPost2010PropOp34
 70
     0
102
RTVSPost2010Prop35
280
     0
102
RTVSPost2010PropOp35
 70
     0
102
RTVSPost2010Prop36
280
     0
102
RTVSPost2010PropOp36
 70
     0
102
RTVSPost2010Prop37
 90
       50
102
RTVSPost2010PropOp37
 70
     0
102
RTVSPost2010Prop38
140
0.0
102
RTVSPost2010PropOp38
 70
     0
102
RTVSPost2010Prop39
140
1.0
102
RTVSPost2010PropOp39
 70
     0
102
RTVSPost2010Prop40
 90
        0
102
RTVSPost2010PropOp40
 70
     0
102
RTVSPost2010Prop41ColorIndex
 90
       18
102
RTVSPost2010Prop41ColorRGB
 90
        0
102
RTVSPost2010PropOp41
 70
     0
102
RTVSPost2010Prop42
 90
       50
102
RTVSPost2010PropOp42
 70
     0
102
RTVSPost2010Prop43
 90
        3
102
RTVSPost2010PropOp43
 70
     0
102
RTVSPost2010Prop44ColorIndex
 90
        5
102
RTVSPost2010Prop44ColorRGB
 90
      255
102
RTVSPost2010PropOp44
 70
     0
102
RTVSPost2010Prop45
280
     0
102
RTVSPost2010PropOp45
 70
     0
102
RTVSPost2010Prop46
 90
       50
102
RTVSPost2010PropOp46
 70
     0
102
RTVSPost2010Prop47
 90
       50
102
RTVSPost2010PropOp47
 70
     0
102
RTVSPost2010Prop48
 90
       50
102
RTVSPost2010PropOp48
 70
     0
102
RTVSPost2010Prop49
280
     0
102
RTVSPost2010PropOp49
 70
     0
102
RTVSPost2010Prop50
 90
       50
102
RTVSPost2010PropOp50
 70
     0
102
RTVSPost2010Prop51ColorIndex
 90
      256
102
RTVSPost2010Prop51ColorRGB
 90
-16777216
102
RTVSPost2010PropOp51
 70
     0
102
RTVSPost2010Prop52
140
1.0
102
RTVSPost2010PropOp52
 70
     0
102
RTVSPost2010Prop53
 90
        2
102
RTVSPost2010PropOp53
 70
     0
102
RTVSPost2010Prop54
  1
strokes_ogs.tif
102
RTVSPost2010PropOp54
 70
     0
102
RTVSPost2010Prop55
280
     0
102
RTVSPost2010PropOp55
 70
     0
102
RTVSPost2010Prop56
140
1.0
102
RTVSPost2010PropOp56
 70
     0
102
RTVSPost2010Prop57
140
1.0
102
RTVSPost2010PropOp57
 70
     0
102
RTVSPropertyOp0
 70
     0
102
RTVSPropertyOp1
 70
     0
102
RTVSPropertyOp2
 70
     0
102
RTVSPropertyOp3
 70
     0
102
RTVSPropertyOp4
 70
     0
102
RTVSPropertyOp5
 70
     0
102
RTVSPropertyOp6
 70
     0
102
RTVSPropertyOp7
 70
     0
102
RTVSPropertyOp8
 70
     0
102
RTVSPropertyOp9
 70
     0
102
RTVSPropertyOp10
 70
     0
102
RTVSPropertyOp11
 70
     0
102
RTVSPropertyOp12
 70
     0
102
RTVSPropertyOp13
 70
     0
102
RTVSPropertyOp14
 70
     2
102
RTVSPropertyOp15
 70
     0
102
RTVSPropertyOp16
 70
     0
102
RTVSPropertyOp17
 70
     0
102
RTVSPropertyOp18
 70
     0
102
RTVSPropertyOp19
 70
     0
102
RTVSPropertyOp20
 70
     0
102
RTVSPropertyOp21
 70
     0
102
RTVSPropertyOp22
 70
     0
102
RTVSPropertyOp23
 70
     0
102
RTVSPropertyOp24
 70
     0
102
RTVSPropertyOp25
 70
     0
102
RTVSPropertyOp26
 70
     0
102
RTVSPropertyOp27
 70
     0
102
RTVSPropertyOp28
 70
     0
102
RTVSPropertyOp29
 70
     0
102
RTVSPropertyOp30
 70
     0
102
RTVSPropertyOp31
 70
     0
102
RTVSPropertyOp32
 70
     0
102
RTVSPropertyOp33
 70
     0
102
RTVSPropertyOp34
 70
     0
102
RTVSPropertyOp35
 70
     0
102
RTVSPropertyOp36
 70
     0
102
RTVSPropertyOp37
 70
     0
102
RTVSPropertyOp38
 70
     0
102
RTVSPropertyOp39
 70
     0
102
RTVSPropertyOp40
 70
     0
102
RTVSPropertyOp41
 70
     0
102
RTVSPropertyOp42
 70
     0
102
RTVSPropertyOp43
 70
     0
102
RTVSPropertyOp44
 70
     0
102
RTVSPropertyOp45
 70
     0
102
RTVSPropertyOp46
 70
     0
102
RTVSPropertyOp47
 70
     0
102
RTVSPropertyOp48
 70
     0
102
RTVSPropertyOp49
 70
     0
102
RTVSPropertyOp50
 70
     0
102
RTVSPropertyOp51
 70
     0
102
RTVSPropertyOp52
 70
     0
102
RTVSPropertyOp53
 70
     0
102
RTVSPropertyOp54
 70
     0
102
RTVSPropertyOp55
 70
     0
102
RTVSPropertyOp56
 70
     0
102
RTVSPropertyOp57
 70
     0
102
RTVSPropertyOp58
 70
     1
102
RTVSPropertyOp59
 70
     1
102
RTVSPropertyOp60
 70
     1
102
RTVSPropertyOp61
 70
     1
102
RTVSPropertyOp62
 70
     1
  0
XRECORD
  5
3CD
102
{ACAD_REACTORS
330
3CC
102
}
330
3CC
100
AcDbXrecord
280
     1
102
RTVSPost2010Prop28
280
     0
102
RTVSPost2010PropOp28
 70
     1
102
RTVSPost2010Prop29
280
     1
102
RTVSPost2010PropOp29
 70
     1
102
RTVSPost2010Prop30
280
     1
102
RTVSPost2010PropOp30
 70
     1
102
RTVSPost2010Prop31
280
     0
102
RTVSPost2010PropOp31
 70
     1
102
RTVSPost2010Prop32
280
     0
102
RTVSPost2010PropOp32
 70
     1
102
RTVSPost2010Prop33
280
     0
102
RTVSPost2010PropOp33
 70
     1
102
RTVSPost2010Prop34
280
     0
102
RTVSPost2010PropOp34
 70
     1
102
RTVSPost2010Prop35
280
     0
102
RTVSPost2010PropOp35
 70
     1
102
RTVSPost2010Prop36
280
     0
102
RTVSPost2010PropOp36
 70
     1
102
RTVSPost2010Prop37
 90
       50
102
RTVSPost2010PropOp37
 70
     1
102
RTVSPost2010Prop38
140
0.0
102
RTVSPost2010PropOp38
 70
     1
102
RTVSPost2010Prop39
140
1.0
102
RTVSPost2010PropOp39
 70
     1
102
RTVSPost2010Prop40
 90
        0
102
RTVSPost2010PropOp40
 70
     1
102
RTVSPost2010Prop41ColorIndex
 90
       18
102
RTVSPost2010Prop41ColorRGB
 90
        0
102
RTVSPost2010PropOp41
 70
     1
102
RTVSPost2010Prop42
 90
       50
102
RTVSPost2010PropOp42
 70
     1
102
RTVSPost2010Prop43
 90
        3
102
RTVSPost2010PropOp43
 70
     1
102
RTVSPost2010Prop44ColorIndex
 90
        5
102
RTVSPost2010Prop44ColorRGB
 90
      255
102
RTVSPost2010PropOp44
 70
     1
102
RTVSPost2010Prop45
280
     0
102
RTVSPost2010PropOp45
 70
     1
102
RTVSPost2010Prop46
 90
       50
102
RTVSPost2010PropOp46
 70
     1
102
RTVSPost2010Prop47
 90
       50
102
RTVSPost2010PropOp47
 70
     1
102
RTVSPost2010Prop48
 90
       50
102
RTVSPost2010PropOp48
 70
     1
102
RTVSPost2010Prop49
280
     0
102
RTVSPost2010PropOp49
 70
     1
102
RTVSPost2010Prop50
 90
       50
102
RTVSPost2010PropOp50
 70
     1
102
RTVSPost2010Prop51ColorIndex
 90
      256
102
RTVSPost2010Prop51ColorRGB
 90
-16777216
102
RTVSPost2010PropOp51
 70
     0
102
RTVSPost2010Prop52
140
1.0
102
RTVSPost2010PropOp52
 70
     0
102
RTVSPost2010Prop53
 90
        2
102
RTVSPost2010PropOp53
 70
     1
102
RTVSPost2010Prop54
  1
strokes_ogs.tif
102
RTVSPost2010PropOp54
 70
     1
102
RTVSPost2010Prop55
280
     0
102
RTVSPost2010PropOp55
 70
     1
102
RTVSPost2010Prop56
140
1.0
102
RTVSPost2010PropOp56
 70
     1
102
RTVSPost2010Prop57
140
1.0
102
RTVSPost2010PropOp57
 70
     1
102
RTVSPropertyOp0
 70
     1
102
RTVSPropertyOp1
 70
     1
102
RTVSPropertyOp2
 70
     1
102
RTVSPropertyOp3
 70
     1
102
RTVSPropertyOp4
 70
     1
102
RTVSPropertyOp5
 70
     1
102
RTVSPropertyOp6
 70
     1
102
RTVSPropertyOp7
 70
     1
102
RTVSPropertyOp8
 70
     1
102
RTVSPropertyOp9
 70
     1
102
RTVSPropertyOp10
 70
     1
102
RTVSPropertyOp11
 70
     1
102
RTVSPropertyOp12
 70
     1
102
RTVSPropertyOp13
 70
     1
102
RTVSPropertyOp14
 70
     1
102
RTVSPropertyOp15
 70
     1
102
RTVSPropertyOp16
 70
     1
102
RTVSPropertyOp17
 70
     1
102
RTVSPropertyOp18
 70
     1
102
RTVSPropertyOp19
 70
     1
102
RTVSPropertyOp20
 70
     1
102
RTVSPropertyOp21
 70
     1
102
RTVSPropertyOp22
 70
     1
102
RTVSPropertyOp23
 70
     1
102
RTVSPropertyOp24
 70
     1
102
RTVSPropertyOp25
 70
     1
102
RTVSPropertyOp26
 70
     1
102
RTVSPropertyOp27
 70
     1
102
RTVSPropertyOp28
 70
     1
102
RTVSPropertyOp29
 70
     1
102
RTVSPropertyOp30
 70
     1
102
RTVSPropertyOp31
 70
     1
102
RTVSPropertyOp32
 70
     1
102
RTVSPropertyOp33
 70
     1
102
RTVSPropertyOp34
 70
     1
102
RTVSPropertyOp35
 70
     1
102
RTVSPropertyOp36
 70
     1
102
RTVSPropertyOp37
 70
     1
102
RTVSPropertyOp38
 70
     1
102
RTVSPropertyOp39
 70
     1
102
RTVSPropertyOp40
 70
     1
102
RTVSPropertyOp41
 70
     1
102
RTVSPropertyOp42
 70
     1
102
RTVSPropertyOp43
 70
     1
102
RTVSPropertyOp44
 70
     1
102
RTVSPropertyOp45
 70
     1
102
RTVSPropertyOp46
 70
     1
102
RTVSPropertyOp47
 70
     1
102
RTVSPropertyOp48
 70
     1
102
RTVSPropertyOp49
 70
     1
102
RTVSPropertyOp50
 70
     1
102
RTVSPropertyOp51
 70
     0
102
RTVSPropertyOp52
 70
     0
102
RTVSPropertyOp53
 70
     1
102
RTVSPropertyOp54
 70
     1
102
RTVSPropertyOp55
 70
     1
102
RTVSPropertyOp56
 70
     1
102
RTVSPropertyOp57
 70
     1
102
RTVSPropertyOp58
 70
     1
102
RTVSPropertyOp59
 70
     1
102
RTVSPropertyOp60
 70
     1
102
RTVSPropertyOp61
 70
     1
102
RTVSPropertyOp62
 70
     1
  0
XRECORD
  5
3EB
102
{ACAD_REACTORS
330
3EA
102
}
330
3EA
100
AcDbXrecord
280
     1
102
RTVSPost2010Prop28
280
     0
102
RTVSPost2010PropOp28
 70
     1
102
RTVSPost2010Prop29
280
     1
102
RTVSPost2010PropOp29
 70
     1
102
RTVSPost2010Prop30
280
     1
102
RTVSPost2010PropOp30
 70
     1
102
RTVSPost2010Prop31
280
     0
102
RTVSPost2010PropOp31
 70
     1
102
RTVSPost2010Prop32
280
     0
102
RTVSPost2010PropOp32
 70
     1
102
RTVSPost2010Prop33
280
     0
102
RTVSPost2010PropOp33
 70
     1
102
RTVSPost2010Prop34
280
     0
102
RTVSPost2010PropOp34
 70
     1
102
RTVSPost2010Prop35
280
     0
102
RTVSPost2010PropOp35
 70
     1
102
RTVSPost2010Prop36
280
     0
102
RTVSPost2010PropOp36
 70
     1
102
RTVSPost2010Prop37
 90
       50
102
RTVSPost2010PropOp37
 70
     1
102
RTVSPost2010Prop38
140
0.0
102
RTVSPost2010PropOp38
 70
     1
102
RTVSPost2010Prop39
140
1.0
102
RTVSPost2010PropOp39
 70
     1
102
RTVSPost2010Prop40
 90
        0
102
RTVSPost2010PropOp40
 70
     1
102
RTVSPost2010Prop41ColorIndex
 90
       18
102
RTVSPost2010Prop41ColorRGB
 90
        0
102
RTVSPost2010PropOp41
 70
     1
102
RTVSPost2010Prop42
 90
       50
102
RTVSPost2010PropOp42
 70
     1
102
RTVSPost2010Prop43
 90
        3
102
RTVSPost2010PropOp43
 70
     1
102
RTVSPost2010Prop44ColorIndex
 90
        5
102
RTVSPost2010Prop44ColorRGB
 90
      255
102
RTVSPost2010PropOp44
 70
     1
102
RTVSPost2010Prop45
280
     0
102
RTVSPost2010PropOp45
 70
     1
102
RTVSPost2010Prop46
 90
       50
102
RTVSPost2010PropOp46
 70
     1
102
RTVSPost2010Prop47
 90
       50
102
RTVSPost2010PropOp47
 70
     1
102
RTVSPost2010Prop48
 90
       50
102
RTVSPost2010PropOp48
 70
     1
102
RTVSPost2010Prop49
280
     0
102
RTVSPost2010PropOp49
 70
     1
102
RTVSPost2010Prop50
 90
       50
102
RTVSPost2010PropOp50
 70
     1
102
RTVSPost2010Prop51ColorIndex
 90
      256
102
RTVSPost2010Prop51ColorRGB
 90
-16777216
102
RTVSPost2010PropOp51
 70
     0
102
RTVSPost2010Prop52
140
1.0
102
RTVSPost2010PropOp52
 70
     0
102
RTVSPost2010Prop53
 90
        2
102
RTVSPost2010PropOp53
 70
     1
102
RTVSPost2010Prop54
  1
strokes_ogs.tif
102
RTVSPost2010PropOp54
 70
     1
102
RTVSPost2010Prop55
280
     0
102
RTVSPost2010PropOp55
 70
     1
102
RTVSPost2010Prop56
140
1.0
102
RTVSPost2010PropOp56
 70
     1
102
RTVSPost2010Prop57
140
1.0
102
RTVSPost2010PropOp57
 70
     1
102
RTVSPropertyOp0
 70
     1
102
RTVSPropertyOp1
 70
     1
102
RTVSPropertyOp2
 70
     1
102
RTVSPropertyOp3
 70
     1
102
RTVSPropertyOp4
 70
     1
102
RTVSPropertyOp5
 70
     1
102
RTVSPropertyOp6
 70
     1
102
RTVSPropertyOp7
 70
     1
102
RTVSPropertyOp8
 70
     1
102
RTVSPropertyOp9
 70
     1
102
RTVSPropertyOp10
 70
     1
102
RTVSPropertyOp11
 70
     1
102
RTVSPropertyOp12
 70
     1
102
RTVSPropertyOp13
 70
     1
102
RTVSPropertyOp14
 70
     1
102
RTVSPropertyOp15
 70
     1
102
RTVSPropertyOp16
 70
     1
102
RTVSPropertyOp17
 70
     1
102
RTVSPropertyOp18
 70
     1
102
RTVSPropertyOp19
 70
     1
102
RTVSPropertyOp20
 70
     1
102
RTVSPropertyOp21
 70
     1
102
RTVSPropertyOp22
 70
     1
102
RTVSPropertyOp23
 70
     1
102
RTVSPropertyOp24
 70
     1
102
RTVSPropertyOp25
 70
     1
102
RTVSPropertyOp26
 70
     1
102
RTVSPropertyOp27
 70
     1
102
RTVSPropertyOp28
 70
     1
102
RTVSPropertyOp29
 70
     1
102
RTVSPropertyOp30
 70
     1
102
RTVSPropertyOp31
 70
     1
102
RTVSPropertyOp32
 70
     1
102
RTVSPropertyOp33
 70
     1
102
RTVSPropertyOp34
 70
     1
102
RTVSPropertyOp35
 70
     1
102
RTVSPropertyOp36
 70
     1
102
RTVSPropertyOp37
 70
     1
102
RTVSPropertyOp38
 70
     1
102
RTVSPropertyOp39
 70
     1
102
RTVSPropertyOp40
 70
     1
102
RTVSPropertyOp41
 70
     1
102
RTVSPropertyOp42
 70
     1
102
RTVSPropertyOp43
 70
     1
102
RTVSPropertyOp44
 70
     1
102
RTVSPropertyOp45
 70
     1
102
RTVSPropertyOp46
 70
     1
102
RTVSPropertyOp47
 70
     1
102
RTVSPropertyOp48
 70
     1
102
RTVSPropertyOp49
 70
     1
102
RTVSPropertyOp50
 70
     1
102
RTVSPropertyOp51
 70
     0
102
RTVSPropertyOp52
 70
     0
102
RTVSPropertyOp53
 70
     1
102
RTVSPropertyOp54
 70
     1
102
RTVSPropertyOp55
 70
     1
102
RTVSPropertyOp56
 70
     1
102
RTVSPropertyOp57
 70
     1
102
RTVSPropertyOp58
 70
     1
102
RTVSPropertyOp59
 70
     1
102
RTVSPropertyOp60
 70
     1
102
RTVSPropertyOp61
 70
     1
102
RTVSPropertyOp62
 70
     1
  0
XRECORD
  5
3E9
102
{ACAD_REACTORS
330
3E8
102
}
330
3E8
100
AcDbXrecord
280
     1
102
RTVSPost2010Prop28
280
     0
102
RTVSPost2010PropOp28
 70
     1
102
RTVSPost2010Prop29
280
     1
102
RTVSPost2010PropOp29
 70
     1
102
RTVSPost2010Prop30
280
     1
102
RTVSPost2010PropOp30
 70
     1
102
RTVSPost2010Prop31
280
     0
102
RTVSPost2010PropOp31
 70
     1
102
RTVSPost2010Prop32
280
     0
102
RTVSPost2010PropOp32
 70
     1
102
RTVSPost2010Prop33
280
     0
102
RTVSPost2010PropOp33
 70
     1
102
RTVSPost2010Prop34
280
     0
102
RTVSPost2010PropOp34
 70
     1
102
RTVSPost2010Prop35
280
     0
102
RTVSPost2010PropOp35
 70
     1
102
RTVSPost2010Prop36
280
     0
102
RTVSPost2010PropOp36
 70
     1
102
RTVSPost2010Prop37
 90
       50
102
RTVSPost2010PropOp37
 70
     1
102
RTVSPost2010Prop38
140
0.0
102
RTVSPost2010PropOp38
 70
     1
102
RTVSPost2010Prop39
140
1.0
102
RTVSPost2010PropOp39
 70
     1
102
RTVSPost2010Prop40
 90
        0
102
RTVSPost2010PropOp40
 70
     1
102
RTVSPost2010Prop41ColorIndex
 90
       18
102
RTVSPost2010Prop41ColorRGB
 90
        0
102
RTVSPost2010PropOp41
 70
     1
102
RTVSPost2010Prop42
 90
       50
102
RTVSPost2010PropOp42
 70
     1
102
RTVSPost2010Prop43
 90
        3
102
RTVSPost2010PropOp43
 70
     1
102
RTVSPost2010Prop44ColorIndex
 90
        5
102
RTVSPost2010Prop44ColorRGB
 90
      255
102
RTVSPost2010PropOp44
 70
     1
102
RTVSPost2010Prop45
280
     0
102
RTVSPost2010PropOp45
 70
     1
102
RTVSPost2010Prop46
 90
       50
102
RTVSPost2010PropOp46
 70
     1
102
RTVSPost2010Prop47
 90
       50
102
RTVSPost2010PropOp47
 70
     1
102
RTVSPost2010Prop48
 90
       50
102
RTVSPost2010PropOp48
 70
     1
102
RTVSPost2010Prop49
280
     0
102
RTVSPost2010PropOp49
 70
     1
102
RTVSPost2010Prop50
 90
       50
102
RTVSPost2010PropOp50
 70
     1
102
RTVSPost2010Prop51ColorIndex
 90
      256
102
RTVSPost2010Prop51ColorRGB
 90
-16777216
102
RTVSPost2010PropOp51
 70
     0
102
RTVSPost2010Prop52
140
1.0
102
RTVSPost2010PropOp52
 70
     0
102
RTVSPost2010Prop53
 90
        2
102
RTVSPost2010PropOp53
 70
     1
102
RTVSPost2010Prop54
  1
strokes_ogs.tif
102
RTVSPost2010PropOp54
 70
     1
102
RTVSPost2010Prop55
280
     0
102
RTVSPost2010PropOp55
 70
     1
102
RTVSPost2010Prop56
140
1.0
102
RTVSPost2010PropOp56
 70
     1
102
RTVSPost2010Prop57
140
1.0
102
RTVSPost2010PropOp57
 70
     1
102
RTVSPropertyOp0
 70
     1
102
RTVSPropertyOp1
 70
     1
102
RTVSPropertyOp2
 70
     1
102
RTVSPropertyOp3
 70
     1
102
RTVSPropertyOp4
 70
     1
102
RTVSPropertyOp5
 70
     1
102
RTVSPropertyOp6
 70
     1
102
RTVSPropertyOp7
 70
     1
102
RTVSPropertyOp8
 70
     1
102
RTVSPropertyOp9
 70
     1
102
RTVSPropertyOp10
 70
     1
102
RTVSPropertyOp11
 70
     1
102
RTVSPropertyOp12
 70
     1
102
RTVSPropertyOp13
 70
     1
102
RTVSPropertyOp14
 70
     1
102
RTVSPropertyOp15
 70
     1
102
RTVSPropertyOp16
 70
     1
102
RTVSPropertyOp17
 70
     1
102
RTVSPropertyOp18
 70
     1
102
RTVSPropertyOp19
 70
     1
102
RTVSPropertyOp20
 70
     1
102
RTVSPropertyOp21
 70
     1
102
RTVSPropertyOp22
 70
     1
102
RTVSPropertyOp23
 70
     1
102
RTVSPropertyOp24
 70
     1
102
RTVSPropertyOp25
 70
     1
102
RTVSPropertyOp26
 70
     1
102
RTVSPropertyOp27
 70
     1
102
RTVSPropertyOp28
 70
     1
102
RTVSPropertyOp29
 70
     1
102
RTVSPropertyOp30
 70
     1
102
RTVSPropertyOp31
 70
     1
102
RTVSPropertyOp32
 70
     1
102
RTVSPropertyOp33
 70
     1
102
RTVSPropertyOp34
 70
     1
102
RTVSPropertyOp35
 70
     1
102
RTVSPropertyOp36
 70
     1
102
RTVSPropertyOp37
 70
     1
102
RTVSPropertyOp38
 70
     1
102
RTVSPropertyOp39
 70
     1
102
RTVSPropertyOp40
 70
     1
102
RTVSPropertyOp41
 70
     1
102
RTVSPropertyOp42
 70
     1
102
RTVSPropertyOp43
 70
     1
102
RTVSPropertyOp44
 70
     1
102
RTVSPropertyOp45
 70
     1
102
RTVSPropertyOp46
 70
     1
102
RTVSPropertyOp47
 70
     1
102
RTVSPropertyOp48
 70
     1
102
RTVSPropertyOp49
 70
     1
102
RTVSPropertyOp50
 70
     1
102
RTVSPropertyOp51
 70
     0
102
RTVSPropertyOp52
 70
     0
102
RTVSPropertyOp53
 70
     1
102
RTVSPropertyOp54
 70
     1
102
RTVSPropertyOp55
 70
     1
102
RTVSPropertyOp56
 70
     1
102
RTVSPropertyOp57
 70
     1
102
RTVSPropertyOp58
 70
     1
102
RTVSPropertyOp59
 70
     1
102
RTVSPropertyOp60
 70
     1
102
RTVSPropertyOp61
 70
     1
102
RTVSPropertyOp62
 70
     1
  0
XRECORD
  5
3E3
102
{ACAD_REACTORS
330
3E2
102
}
330
3E2
100
AcDbXrecord
280
     1
102
RTVSPost2010Prop28
280
     0
102
RTVSPost2010PropOp28
 70
     1
102
RTVSPost2010Prop29
280
     1
102
RTVSPost2010PropOp29
 70
     1
102
RTVSPost2010Prop30
280
     1
102
RTVSPost2010PropOp30
 70
     1
102
RTVSPost2010Prop31
280
     0
102
RTVSPost2010PropOp31
 70
     1
102
RTVSPost2010Prop32
280
     0
102
RTVSPost2010PropOp32
 70
     1
102
RTVSPost2010Prop33
280
     0
102
RTVSPost2010PropOp33
 70
     1
102
RTVSPost2010Prop34
280
     0
102
RTVSPost2010PropOp34
 70
     1
102
RTVSPost2010Prop35
280
     0
102
RTVSPost2010PropOp35
 70
     1
102
RTVSPost2010Prop36
280
     0
102
RTVSPost2010PropOp36
 70
     1
102
RTVSPost2010Prop37
 90
       50
102
RTVSPost2010PropOp37
 70
     1
102
RTVSPost2010Prop38
140
0.0
102
RTVSPost2010PropOp38
 70
     1
102
RTVSPost2010Prop39
140
1.0
102
RTVSPost2010PropOp39
 70
     1
102
RTVSPost2010Prop40
 90
        0
102
RTVSPost2010PropOp40
 70
     1
102
RTVSPost2010Prop41ColorIndex
 90
       18
102
RTVSPost2010Prop41ColorRGB
 90
        0
102
RTVSPost2010PropOp41
 70
     1
102
RTVSPost2010Prop42
 90
       50
102
RTVSPost2010PropOp42
 70
     1
102
RTVSPost2010Prop43
 90
        3
102
RTVSPost2010PropOp43
 70
     1
102
RTVSPost2010Prop44ColorIndex
 90
        5
102
RTVSPost2010Prop44ColorRGB
 90
      255
102
RTVSPost2010PropOp44
 70
     1
102
RTVSPost2010Prop45
280
     0
102
RTVSPost2010PropOp45
 70
     1
102
RTVSPost2010Prop46
 90
       50
102
RTVSPost2010PropOp46
 70
     1
102
RTVSPost2010Prop47
 90
       50
102
RTVSPost2010PropOp47
 70
     1
102
RTVSPost2010Prop48
 90
       50
102
RTVSPost2010PropOp48
 70
     1
102
RTVSPost2010Prop49
280
     0
102
RTVSPost2010PropOp49
 70
     1
102
RTVSPost2010Prop50
 90
       50
102
RTVSPost2010PropOp50
 70
     1
102
RTVSPost2010Prop51ColorIndex
 90
      256
102
RTVSPost2010Prop51ColorRGB
 90
-16777216
102
RTVSPost2010PropOp51
 70
     0
102
RTVSPost2010Prop52
140
1.0
102
RTVSPost2010PropOp52
 70
     0
102
RTVSPost2010Prop53
 90
        2
102
RTVSPost2010PropOp53
 70
     1
102
RTVSPost2010Prop54
  1
strokes_ogs.tif
102
RTVSPost2010PropOp54
 70
     1
102
RTVSPost2010Prop55
280
     0
102
RTVSPost2010PropOp55
 70
     1
102
RTVSPost2010Prop56
140
1.0
102
RTVSPost2010PropOp56
 70
     1
102
RTVSPost2010Prop57
140
1.0
102
RTVSPost2010PropOp57
 70
     1
102
RTVSPropertyOp0
 70
     1
102
RTVSPropertyOp1
 70
     1
102
RTVSPropertyOp2
 70
     1
102
RTVSPropertyOp3
 70
     1
102
RTVSPropertyOp4
 70
     1
102
RTVSPropertyOp5
 70
     1
102
RTVSPropertyOp6
 70
     1
102
RTVSPropertyOp7
 70
     1
102
RTVSPropertyOp8
 70
     1
102
RTVSPropertyOp9
 70
     1
102
RTVSPropertyOp10
 70
     1
102
RTVSPropertyOp11
 70
     1
102
RTVSPropertyOp12
 70
     1
102
RTVSPropertyOp13
 70
     1
102
RTVSPropertyOp14
 70
     1
102
RTVSPropertyOp15
 70
     1
102
RTVSPropertyOp16
 70
     1
102
RTVSPropertyOp17
 70
     1
102
RTVSPropertyOp18
 70
     1
102
RTVSPropertyOp19
 70
     1
102
RTVSPropertyOp20
 70
     1
102
RTVSPropertyOp21
 70
     1
102
RTVSPropertyOp22
 70
     1
102
RTVSPropertyOp23
 70
     1
102
RTVSPropertyOp24
 70
     1
102
RTVSPropertyOp25
 70
     1
102
RTVSPropertyOp26
 70
     1
102
RTVSPropertyOp27
 70
     1
102
RTVSPropertyOp28
 70
     1
102
RTVSPropertyOp29
 70
     1
102
RTVSPropertyOp30
 70
     1
102
RTVSPropertyOp31
 70
     1
102
RTVSPropertyOp32
 70
     1
102
RTVSPropertyOp33
 70
     1
102
RTVSPropertyOp34
 70
     1
102
RTVSPropertyOp35
 70
     1
102
RTVSPropertyOp36
 70
     1
102
RTVSPropertyOp37
 70
     1
102
RTVSPropertyOp38
 70
     1
102
RTVSPropertyOp39
 70
     1
102
RTVSPropertyOp40
 70
     1
102
RTVSPropertyOp41
 70
     1
102
RTVSPropertyOp42
 70
     1
102
RTVSPropertyOp43
 70
     1
102
RTVSPropertyOp44
 70
     1
102
RTVSPropertyOp45
 70
     1
102
RTVSPropertyOp46
 70
     1
102
RTVSPropertyOp47
 70
     1
102
RTVSPropertyOp48
 70
     1
102
RTVSPropertyOp49
 70
     1
102
RTVSPropertyOp50
 70
     1
102
RTVSPropertyOp51
 70
     0
102
RTVSPropertyOp52
 70
     0
102
RTVSPropertyOp53
 70
     1
102
RTVSPropertyOp54
 70
     1
102
RTVSPropertyOp55
 70
     1
102
RTVSPropertyOp56
 70
     1
102
RTVSPropertyOp57
 70
     1
102
RTVSPropertyOp58
 70
     1
102
RTVSPropertyOp59
 70
     1
102
RTVSPropertyOp60
 70
     1
102
RTVSPropertyOp61
 70
     1
102
RTVSPropertyOp62
 70
     1
  0
XRECORD
  5
3E5
102
{ACAD_REACTORS
330
3E4
102
}
330
3E4
100
AcDbXrecord
280
     1
102
RTVSPost2010Prop28
280
     0
102
RTVSPost2010PropOp28
 70
     1
102
RTVSPost2010Prop29
280
     1
102
RTVSPost2010PropOp29
 70
     1
102
RTVSPost2010Prop30
280
     1
102
RTVSPost2010PropOp30
 70
     1
102
RTVSPost2010Prop31
280
     0
102
RTVSPost2010PropOp31
 70
     1
102
RTVSPost2010Prop32
280
     0
102
RTVSPost2010PropOp32
 70
     1
102
RTVSPost2010Prop33
280
     0
102
RTVSPost2010PropOp33
 70
     1
102
RTVSPost2010Prop34
280
     0
102
RTVSPost2010PropOp34
 70
     1
102
RTVSPost2010Prop35
280
     0
102
RTVSPost2010PropOp35
 70
     1
102
RTVSPost2010Prop36
280
     0
102
RTVSPost2010PropOp36
 70
     1
102
RTVSPost2010Prop37
 90
       50
102
RTVSPost2010PropOp37
 70
     1
102
RTVSPost2010Prop38
140
0.0
102
RTVSPost2010PropOp38
 70
     1
102
RTVSPost2010Prop39
140
1.0
102
RTVSPost2010PropOp39
 70
     1
102
RTVSPost2010Prop40
 90
        0
102
RTVSPost2010PropOp40
 70
     1
102
RTVSPost2010Prop41ColorIndex
 90
       18
102
RTVSPost2010Prop41ColorRGB
 90
        0
102
RTVSPost2010PropOp41
 70
     1
102
RTVSPost2010Prop42
 90
       50
102
RTVSPost2010PropOp42
 70
     1
102
RTVSPost2010Prop43
 90
        3
102
RTVSPost2010PropOp43
 70
     1
102
RTVSPost2010Prop44ColorIndex
 90
        5
102
RTVSPost2010Prop44ColorRGB
 90
      255
102
RTVSPost2010PropOp44
 70
     1
102
RTVSPost2010Prop45
280
     0
102
RTVSPost2010PropOp45
 70
     1
102
RTVSPost2010Prop46
 90
       50
102
RTVSPost2010PropOp46
 70
     1
102
RTVSPost2010Prop47
 90
       50
102
RTVSPost2010PropOp47
 70
     1
102
RTVSPost2010Prop48
 90
       50
102
RTVSPost2010PropOp48
 70
     1
102
RTVSPost2010Prop49
280
     0
102
RTVSPost2010PropOp49
 70
     1
102
RTVSPost2010Prop50
 90
       50
102
RTVSPost2010PropOp50
 70
     1
102
RTVSPost2010Prop51ColorIndex
 90
      256
102
RTVSPost2010Prop51ColorRGB
 90
-16777216
102
RTVSPost2010PropOp51
 70
     0
102
RTVSPost2010Prop52
140
1.0
102
RTVSPost2010PropOp52
 70
     0
102
RTVSPost2010Prop53
 90
        2
102
RTVSPost2010PropOp53
 70
     1
102
RTVSPost2010Prop54
  1
strokes_ogs.tif
102
RTVSPost2010PropOp54
 70
     1
102
RTVSPost2010Prop55
280
     0
102
RTVSPost2010PropOp55
 70
     1
102
RTVSPost2010Prop56
140
1.0
102
RTVSPost2010PropOp56
 70
     1
102
RTVSPost2010Prop57
140
1.0
102
RTVSPost2010PropOp57
 70
     1
102
RTVSPropertyOp0
 70
     1
102
RTVSPropertyOp1
 70
     1
102
RTVSPropertyOp2
 70
     1
102
RTVSPropertyOp3
 70
     1
102
RTVSPropertyOp4
 70
     1
102
RTVSPropertyOp5
 70
     1
102
RTVSPropertyOp6
 70
     1
102
RTVSPropertyOp7
 70
     1
102
RTVSPropertyOp8
 70
     1
102
RTVSPropertyOp9
 70
     1
102
RTVSPropertyOp10
 70
     1
102
RTVSPropertyOp11
 70
     1
102
RTVSPropertyOp12
 70
     1
102
RTVSPropertyOp13
 70
     1
102
RTVSPropertyOp14
 70
     1
102
RTVSPropertyOp15
 70
     1
102
RTVSPropertyOp16
 70
     1
102
RTVSPropertyOp17
 70
     1
102
RTVSPropertyOp18
 70
     1
102
RTVSPropertyOp19
 70
     1
102
RTVSPropertyOp20
 70
     1
102
RTVSPropertyOp21
 70
     1
102
RTVSPropertyOp22
 70
     1
102
RTVSPropertyOp23
 70
     1
102
RTVSPropertyOp24
 70
     1
102
RTVSPropertyOp25
 70
     1
102
RTVSPropertyOp26
 70
     1
102
RTVSPropertyOp27
 70
     1
102
RTVSPropertyOp28
 70
     1
102
RTVSPropertyOp29
 70
     1
102
RTVSPropertyOp30
 70
     1
102
RTVSPropertyOp31
 70
     1
102
RTVSPropertyOp32
 70
     1
102
RTVSPropertyOp33
 70
     1
102
RTVSPropertyOp34
 70
     1
102
RTVSPropertyOp35
 70
     1
102
RTVSPropertyOp36
 70
     1
102
RTVSPropertyOp37
 70
     1
102
RTVSPropertyOp38
 70
     1
102
RTVSPropertyOp39
 70
     1
102
RTVSPropertyOp40
 70
     1
102
RTVSPropertyOp41
 70
     1
102
RTVSPropertyOp42
 70
     1
102
RTVSPropertyOp43
 70
     1
102
RTVSPropertyOp44
 70
     1
102
RTVSPropertyOp45
 70
     1
102
RTVSPropertyOp46
 70
     1
102
RTVSPropertyOp47
 70
     1
102
RTVSPropertyOp48
 70
     1
102
RTVSPropertyOp49
 70
     1
102
RTVSPropertyOp50
 70
     1
102
RTVSPropertyOp51
 70
     0
102
RTVSPropertyOp52
 70
     0
102
RTVSPropertyOp53
 70
     1
102
RTVSPropertyOp54
 70
     1
102
RTVSPropertyOp55
 70
     1
102
RTVSPropertyOp56
 70
     1
102
RTVSPropertyOp57
 70
     1
102
RTVSPropertyOp58
 70
     1
102
RTVSPropertyOp59
 70
     1
102
RTVSPropertyOp60
 70
     1
102
RTVSPropertyOp61
 70
     1
102
RTVSPropertyOp62
 70
     1
  0
XRECORD
  5
3D5
102
{ACAD_REACTORS
330
3D4
102
}
330
3D4
100
AcDbXrecord
280
     1
102
RTVSPost2010Prop28
280
     0
102
RTVSPost2010PropOp28
 70
     1
102
RTVSPost2010Prop29
280
     1
102
RTVSPost2010PropOp29
 70
     1
102
RTVSPost2010Prop30
280
     1
102
RTVSPost2010PropOp30
 70
     1
102
RTVSPost2010Prop31
280
     0
102
RTVSPost2010PropOp31
 70
     1
102
RTVSPost2010Prop32
280
     0
102
RTVSPost2010PropOp32
 70
     1
102
RTVSPost2010Prop33
280
     0
102
RTVSPost2010PropOp33
 70
     1
102
RTVSPost2010Prop34
280
     0
102
RTVSPost2010PropOp34
 70
     1
102
RTVSPost2010Prop35
280
     0
102
RTVSPost2010PropOp35
 70
     1
102
RTVSPost2010Prop36
280
     0
102
RTVSPost2010PropOp36
 70
     1
102
RTVSPost2010Prop37
 90
       50
102
RTVSPost2010PropOp37
 70
     1
102
RTVSPost2010Prop38
140
0.0
102
RTVSPost2010PropOp38
 70
     1
102
RTVSPost2010Prop39
140
1.0
102
RTVSPost2010PropOp39
 70
     1
102
RTVSPost2010Prop40
 90
        0
102
RTVSPost2010PropOp40
 70
     1
102
RTVSPost2010Prop41ColorIndex
 90
       18
102
RTVSPost2010Prop41ColorRGB
 90
        0
102
RTVSPost2010PropOp41
 70
     1
102
RTVSPost2010Prop42
 90
       50
102
RTVSPost2010PropOp42
 70
     1
102
RTVSPost2010Prop43
 90
        3
102
RTVSPost2010PropOp43
 70
     1
102
RTVSPost2010Prop44ColorIndex
 90
        5
102
RTVSPost2010Prop44ColorRGB
 90
      255
102
RTVSPost2010PropOp44
 70
     1
102
RTVSPost2010Prop45
280
     0
102
RTVSPost2010PropOp45
 70
     1
102
RTVSPost2010Prop46
 90
       50
102
RTVSPost2010PropOp46
 70
     1
102
RTVSPost2010Prop47
 90
       50
102
RTVSPost2010PropOp47
 70
     1
102
RTVSPost2010Prop48
 90
       50
102
RTVSPost2010PropOp48
 70
     1
102
RTVSPost2010Prop49
280
     0
102
RTVSPost2010PropOp49
 70
     1
102
RTVSPost2010Prop50
 90
       50
102
RTVSPost2010PropOp50
 70
     1
102
RTVSPost2010Prop51ColorIndex
 90
      256
102
RTVSPost2010Prop51ColorRGB
 90
-16777216
102
RTVSPost2010PropOp51
 70
     0
102
RTVSPost2010Prop52
140
1.0
102
RTVSPost2010PropOp52
 70
     0
102
RTVSPost2010Prop53
 90
        2
102
RTVSPost2010PropOp53
 70
     1
102
RTVSPost2010Prop54
  1
strokes_ogs.tif
102
RTVSPost2010PropOp54
 70
     1
102
RTVSPost2010Prop55
280
     0
102
RTVSPost2010PropOp55
 70
     1
102
RTVSPost2010Prop56
140
1.0
102
RTVSPost2010PropOp56
 70
     1
102
RTVSPost2010Prop57
140
1.0
102
RTVSPost2010PropOp57
 70
     1
102
RTVSPropertyOp0
 70
     1
102
RTVSPropertyOp1
 70
     1
102
RTVSPropertyOp2
 70
     1
102
RTVSPropertyOp3
 70
     1
102
RTVSPropertyOp4
 70
     1
102
RTVSPropertyOp5
 70
     1
102
RTVSPropertyOp6
 70
     1
102
RTVSPropertyOp7
 70
     1
102
RTVSPropertyOp8
 70
     1
102
RTVSPropertyOp9
 70
     1
102
RTVSPropertyOp10
 70
     1
102
RTVSPropertyOp11
 70
     1
102
RTVSPropertyOp12
 70
     1
102
RTVSPropertyOp13
 70
     1
102
RTVSPropertyOp14
 70
     1
102
RTVSPropertyOp15
 70
     1
102
RTVSPropertyOp16
 70
     1
102
RTVSPropertyOp17
 70
     1
102
RTVSPropertyOp18
 70
     1
102
RTVSPropertyOp19
 70
     1
102
RTVSPropertyOp20
 70
     1
102
RTVSPropertyOp21
 70
     1
102
RTVSPropertyOp22
 70
     1
102
RTVSPropertyOp23
 70
     1
102
RTVSPropertyOp24
 70
     1
102
RTVSPropertyOp25
 70
     1
102
RTVSPropertyOp26
 70
     1
102
RTVSPropertyOp27
 70
     1
102
RTVSPropertyOp28
 70
     1
102
RTVSPropertyOp29
 70
     1
102
RTVSPropertyOp30
 70
     1
102
RTVSPropertyOp31
 70
     1
102
RTVSPropertyOp32
 70
     1
102
RTVSPropertyOp33
 70
     1
102
RTVSPropertyOp34
 70
     1
102
RTVSPropertyOp35
 70
     1
102
RTVSPropertyOp36
 70
     1
102
RTVSPropertyOp37
 70
     1
102
RTVSPropertyOp38
 70
     1
102
RTVSPropertyOp39
 70
     1
102
RTVSPropertyOp40
 70
     1
102
RTVSPropertyOp41
 70
     1
102
RTVSPropertyOp42
 70
     1
102
RTVSPropertyOp43
 70
     1
102
RTVSPropertyOp44
 70
     1
102
RTVSPropertyOp45
 70
     1
102
RTVSPropertyOp46
 70
     1
102
RTVSPropertyOp47
 70
     1
102
RTVSPropertyOp48
 70
     1
102
RTVSPropertyOp49
 70
     1
102
RTVSPropertyOp50
 70
     1
102
RTVSPropertyOp51
 70
     0
102
RTVSPropertyOp52
 70
     0
102
RTVSPropertyOp53
 70
     1
102
RTVSPropertyOp54
 70
     1
102
RTVSPropertyOp55
 70
     1
102
RTVSPropertyOp56
 70
     1
102
RTVSPropertyOp57
 70
     1
102
RTVSPropertyOp58
 70
     1
102
RTVSPropertyOp59
 70
     1
102
RTVSPropertyOp60
 70
     1
102
RTVSPropertyOp61
 70
     1
102
RTVSPropertyOp62
 70
     1
  0
XRECORD
  5
3C7
102
{ACAD_REACTORS
330
3C6
102
}
330
3C6
100
AcDbXrecord
280
     1
102
RTVSPost2010Prop28
280
     0
102
RTVSPost2010PropOp28
 70
     1
102
RTVSPost2010Prop29
280
     1
102
RTVSPost2010PropOp29
 70
     1
102
RTVSPost2010Prop30
280
     1
102
RTVSPost2010PropOp30
 70
     1
102
RTVSPost2010Prop31
280
     0
102
RTVSPost2010PropOp31
 70
     1
102
RTVSPost2010Prop32
280
     0
102
RTVSPost2010PropOp32
 70
     1
102
RTVSPost2010Prop33
280
     0
102
RTVSPost2010PropOp33
 70
     1
102
RTVSPost2010Prop34
280
     0
102
RTVSPost2010PropOp34
 70
     1
102
RTVSPost2010Prop35
280
     0
102
RTVSPost2010PropOp35
 70
     1
102
RTVSPost2010Prop36
280
     0
102
RTVSPost2010PropOp36
 70
     1
102
RTVSPost2010Prop37
 90
       50
102
RTVSPost2010PropOp37
 70
     1
102
RTVSPost2010Prop38
140
0.0
102
RTVSPost2010PropOp38
 70
     1
102
RTVSPost2010Prop39
140
1.0
102
RTVSPost2010PropOp39
 70
     1
102
RTVSPost2010Prop40
 90
        0
102
RTVSPost2010PropOp40
 70
     1
102
RTVSPost2010Prop41ColorIndex
 90
       18
102
RTVSPost2010Prop41ColorRGB
 90
        0
102
RTVSPost2010PropOp41
 70
     1
102
RTVSPost2010Prop42
 90
       50
102
RTVSPost2010PropOp42
 70
     1
102
RTVSPost2010Prop43
 90
        3
102
RTVSPost2010PropOp43
 70
     1
102
RTVSPost2010Prop44ColorIndex
 90
        5
102
RTVSPost2010Prop44ColorRGB
 90
      255
102
RTVSPost2010PropOp44
 70
     1
102
RTVSPost2010Prop45
280
     0
102
RTVSPost2010PropOp45
 70
     1
102
RTVSPost2010Prop46
 90
       50
102
RTVSPost2010PropOp46
 70
     1
102
RTVSPost2010Prop47
 90
       50
102
RTVSPost2010PropOp47
 70
     1
102
RTVSPost2010Prop48
 90
       50
102
RTVSPost2010PropOp48
 70
     1
102
RTVSPost2010Prop49
280
     0
102
RTVSPost2010PropOp49
 70
     1
102
RTVSPost2010Prop50
 90
       50
102
RTVSPost2010PropOp50
 70
     1
102
RTVSPost2010Prop51ColorIndex
 90
      256
102
RTVSPost2010Prop51ColorRGB
 90
-16777216
102
RTVSPost2010PropOp51
 70
     0
102
RTVSPost2010Prop52
140
1.0
102
RTVSPost2010PropOp52
 70
     0
102
RTVSPost2010Prop53
 90
        2
102
RTVSPost2010PropOp53
 70
     1
102
RTVSPost2010Prop54
  1
strokes_ogs.tif
102
RTVSPost2010PropOp54
 70
     1
102
RTVSPost2010Prop55
280
     0
102
RTVSPost2010PropOp55
 70
     1
102
RTVSPost2010Prop56
140
1.0
102
RTVSPost2010PropOp56
 70
     1
102
RTVSPost2010Prop57
140
1.0
102
RTVSPost2010PropOp57
 70
     1
102
RTVSPropertyOp0
 70
     1
102
RTVSPropertyOp1
 70
     1
102
RTVSPropertyOp2
 70
     1
102
RTVSPropertyOp3
 70
     1
102
RTVSPropertyOp4
 70
     1
102
RTVSPropertyOp5
 70
     1
102
RTVSPropertyOp6
 70
     1
102
RTVSPropertyOp7
 70
     1
102
RTVSPropertyOp8
 70
     1
102
RTVSPropertyOp9
 70
     1
102
RTVSPropertyOp10
 70
     1
102
RTVSPropertyOp11
 70
     1
102
RTVSPropertyOp12
 70
     1
102
RTVSPropertyOp13
 70
     1
102
RTVSPropertyOp14
 70
     1
102
RTVSPropertyOp15
 70
     1
102
RTVSPropertyOp16
 70
     1
102
RTVSPropertyOp17
 70
     1
102
RTVSPropertyOp18
 70
     1
102
RTVSPropertyOp19
 70
     1
102
RTVSPropertyOp20
 70
     1
102
RTVSPropertyOp21
 70
     1
102
RTVSPropertyOp22
 70
     1
102
RTVSPropertyOp23
 70
     1
102
RTVSPropertyOp24
 70
     1
102
RTVSPropertyOp25
 70
     1
102
RTVSPropertyOp26
 70
     1
102
RTVSPropertyOp27
 70
     1
102
RTVSPropertyOp28
 70
     1
102
RTVSPropertyOp29
 70
     1
102
RTVSPropertyOp30
 70
     1
102
RTVSPropertyOp31
 70
     1
102
RTVSPropertyOp32
 70
     1
102
RTVSPropertyOp33
 70
     1
102
RTVSPropertyOp34
 70
     1
102
RTVSPropertyOp35
 70
     1
102
RTVSPropertyOp36
 70
     1
102
RTVSPropertyOp37
 70
     1
102
RTVSPropertyOp38
 70
     1
102
RTVSPropertyOp39
 70
     1
102
RTVSPropertyOp40
 70
     1
102
RTVSPropertyOp41
 70
     1
102
RTVSPropertyOp42
 70
     1
102
RTVSPropertyOp43
 70
     1
102
RTVSPropertyOp44
 70
     1
102
RTVSPropertyOp45
 70
     1
102
RTVSPropertyOp46
 70
     1
102
RTVSPropertyOp47
 70
     1
102
RTVSPropertyOp48
 70
     1
102
RTVSPropertyOp49
 70
     1
102
RTVSPropertyOp50
 70
     1
102
RTVSPropertyOp51
 70
     0
102
RTVSPropertyOp52
 70
     0
102
RTVSPropertyOp53
 70
     1
102
RTVSPropertyOp54
 70
     1
102
RTVSPropertyOp55
 70
     1
102
RTVSPropertyOp56
 70
     1
102
RTVSPropertyOp57
 70
     1
102
RTVSPropertyOp58
 70
     1
102
RTVSPropertyOp59
 70
     1
102
RTVSPropertyOp60
 70
     1
102
RTVSPropertyOp61
 70
     1
102
RTVSPropertyOp62
 70
     1
  0
XRECORD
  5
3E7
102
{ACAD_REACTORS
330
3E6
102
}
330
3E6
100
AcDbXrecord
280
     1
102
RTVSPost2010Prop28
280
     0
102
RTVSPost2010PropOp28
 70
     1
102
RTVSPost2010Prop29
280
     1
102
RTVSPost2010PropOp29
 70
     1
102
RTVSPost2010Prop30
280
     1
102
RTVSPost2010PropOp30
 70
     1
102
RTVSPost2010Prop31
280
     0
102
RTVSPost2010PropOp31
 70
     1
102
RTVSPost2010Prop32
280
     0
102
RTVSPost2010PropOp32
 70
     1
102
RTVSPost2010Prop33
280
     0
102
RTVSPost2010PropOp33
 70
     1
102
RTVSPost2010Prop34
280
     0
102
RTVSPost2010PropOp34
 70
     1
102
RTVSPost2010Prop35
280
     0
102
RTVSPost2010PropOp35
 70
     1
102
RTVSPost2010Prop36
280
     0
102
RTVSPost2010PropOp36
 70
     1
102
RTVSPost2010Prop37
 90
       50
102
RTVSPost2010PropOp37
 70
     1
102
RTVSPost2010Prop38
140
0.0
102
RTVSPost2010PropOp38
 70
     1
102
RTVSPost2010Prop39
140
1.0
102
RTVSPost2010PropOp39
 70
     1
102
RTVSPost2010Prop40
 90
        0
102
RTVSPost2010PropOp40
 70
     1
102
RTVSPost2010Prop41ColorIndex
 90
       18
102
RTVSPost2010Prop41ColorRGB
 90
        0
102
RTVSPost2010PropOp41
 70
     1
102
RTVSPost2010Prop42
 90
       50
102
RTVSPost2010PropOp42
 70
     1
102
RTVSPost2010Prop43
 90
        3
102
RTVSPost2010PropOp43
 70
     1
102
RTVSPost2010Prop44ColorIndex
 90
        5
102
RTVSPost2010Prop44ColorRGB
 90
      255
102
RTVSPost2010PropOp44
 70
     1
102
RTVSPost2010Prop45
280
     0
102
RTVSPost2010PropOp45
 70
     1
102
RTVSPost2010Prop46
 90
       50
102
RTVSPost2010PropOp46
 70
     1
102
RTVSPost2010Prop47
 90
       50
102
RTVSPost2010PropOp47
 70
     1
102
RTVSPost2010Prop48
 90
       50
102
RTVSPost2010PropOp48
 70
     1
102
RTVSPost2010Prop49
280
     0
102
RTVSPost2010PropOp49
 70
     1
102
RTVSPost2010Prop50
 90
       50
102
RTVSPost2010PropOp50
 70
     1
102
RTVSPost2010Prop51ColorIndex
 90
      256
102
RTVSPost2010Prop51ColorRGB
 90
-16777216
102
RTVSPost2010PropOp51
 70
     0
102
RTVSPost2010Prop52
140
1.0
102
RTVSPost2010PropOp52
 70
     0
102
RTVSPost2010Prop53
 90
        2
102
RTVSPost2010PropOp53
 70
     1
102
RTVSPost2010Prop54
  1
strokes_ogs.tif
102
RTVSPost2010PropOp54
 70
     1
102
RTVSPost2010Prop55
280
     0
102
RTVSPost2010PropOp55
 70
     1
102
RTVSPost2010Prop56
140
1.0
102
RTVSPost2010PropOp56
 70
     1
102
RTVSPost2010Prop57
140
1.0
102
RTVSPost2010PropOp57
 70
     1
102
RTVSPropertyOp0
 70
     1
102
RTVSPropertyOp1
 70
     1
102
RTVSPropertyOp2
 70
     1
102
RTVSPropertyOp3
 70
     1
102
RTVSPropertyOp4
 70
     1
102
RTVSPropertyOp5
 70
     1
102
RTVSPropertyOp6
 70
     1
102
RTVSPropertyOp7
 70
     1
102
RTVSPropertyOp8
 70
     1
102
RTVSPropertyOp9
 70
     1
102
RTVSPropertyOp10
 70
     1
102
RTVSPropertyOp11
 70
     1
102
RTVSPropertyOp12
 70
     1
102
RTVSPropertyOp13
 70
     1
102
RTVSPropertyOp14
 70
     1
102
RTVSPropertyOp15
 70
     1
102
RTVSPropertyOp16
 70
     1
102
RTVSPropertyOp17
 70
     1
102
RTVSPropertyOp18
 70
     1
102
RTVSPropertyOp19
 70
     1
102
RTVSPropertyOp20
 70
     1
102
RTVSPropertyOp21
 70
     1
102
RTVSPropertyOp22
 70
     1
102
RTVSPropertyOp23
 70
     1
102
RTVSPropertyOp24
 70
     1
102
RTVSPropertyOp25
 70
     1
102
RTVSPropertyOp26
 70
     1
102
RTVSPropertyOp27
 70
     1
102
RTVSPropertyOp28
 70
     1
102
RTVSPropertyOp29
 70
     1
102
RTVSPropertyOp30
 70
     1
102
RTVSPropertyOp31
 70
     1
102
RTVSPropertyOp32
 70
     1
102
RTVSPropertyOp33
 70
     1
102
RTVSPropertyOp34
 70
     1
102
RTVSPropertyOp35
 70
     1
102
RTVSPropertyOp36
 70
     1
102
RTVSPropertyOp37
 70
     1
102
RTVSPropertyOp38
 70
     1
102
RTVSPropertyOp39
 70
     1
102
RTVSPropertyOp40
 70
     1
102
RTVSPropertyOp41
 70
     1
102
RTVSPropertyOp42
 70
     1
102
RTVSPropertyOp43
 70
     1
102
RTVSPropertyOp44
 70
     1
102
RTVSPropertyOp45
 70
     1
102
RTVSPropertyOp46
 70
     1
102
RTVSPropertyOp47
 70
     1
102
RTVSPropertyOp48
 70
     1
102
RTVSPropertyOp49
 70
     1
102
RTVSPropertyOp50
 70
     1
102
RTVSPropertyOp51
 70
     0
102
RTVSPropertyOp52
 70
     0
102
RTVSPropertyOp53
 70
     1
102
RTVSPropertyOp54
 70
     1
102
RTVSPropertyOp55
 70
     1
102
RTVSPropertyOp56
 70
     1
102
RTVSPropertyOp57
 70
     1
102
RTVSPropertyOp58
 70
     1
102
RTVSPropertyOp59
 70
     1
102
RTVSPropertyOp60
 70
     1
102
RTVSPropertyOp61
 70
     1
102
RTVSPropertyOp62
 70
     1
  0
ENDSEC
  0
EOF
