  0
SECTION
  2
HEADER
  9
$ACADVER
  1
AC1018
  9
$ACADMAINTVER
 70
   104
  9
$DWGCODEPAGE
  3
ANSI_1250
  9
$LASTSAVEDBY
  1
wq7085
  9
$INSBASE
 10
0.0
 20
0.0
 30
0.0
  9
$EXTMIN
 10
188.6658343333333
 20
118.534924
 30
0.0
  9
$EXTMAX
 10
428.33393
 20
345.2288016666667
 30
0.0
  9
$LIMMIN
 10
-0.5
 20
-0.5
  9
$LIMMAX
 10
5.0
 20
5.0
  9
$ORTHOMODE
 70
     0
  9
$REGENMODE
 70
     1
  9
$FILLMODE
 70
     1
  9
$QTEXTMODE
 70
     0
  9
$MIRRTEXT
 70
     1
  9
$LTSCALE
 40
1.0
  9
$ATTMODE
 70
     1
  9
$TEXTSIZE
 40
0.2
  9
$TRACEWID
 40
0.05
  9
$TEXTSTYLE
  7
Standard
  9
$CLAYER
  8
0
  9
$CELTYPE
  6
ByLayer
  9
$CECOLOR
 62
   256
  9
$CELTSCALE
 40
1.0
  9
$DISPSILH
 70
     0
  9
$DIMSCALE
 40
1.0
  9
$DIMASZ
 40
0.18
  9
$DIMEXO
 40
0.0625
  9
$DIMDLI
 40
0.38
  9
$DIMRND
 40
0.0
  9
$DIMDLE
 40
0.0
  9
$DIMEXE
 40
0.18
  9
$DIMTP
 40
0.0
  9
$DIMTM
 40
0.0
  9
$DIMTXT
 40
0.18
  9
$DIMCEN
 40
0.09
  9
$DIMTSZ
 40
0.0
  9
$DIMTOL
 70
     0
  9
$DIMLIM
 70
     0
  9
$DIMTIH
 70
     1
  9
$DIMTOH
 70
     1
  9
$DIMSE1
 70
     0
  9
$DIMSE2
 70
     0
  9
$DIMTAD
 70
     0
  9
$DIMZIN
 70
     0
  9
$DIMBLK
  1

  9
$DIMASO
 70
     1
  9
$DIMSHO
 70
     1
  9
$DIMPOST
  1

  9
$DIMAPOST
  1

  9
$DIMALT
 70
     0
  9
$DIMALTD
 70
     2
  9
$DIMALTF
 40
25.4
  9
$DIMLFAC
 40
1.0
  9
$DIMTOFL
 70
     0
  9
$DIMTVP
 40
0.0
  9
$DIMTIX
 70
     0
  9
$DIMSOXD
 70
     0
  9
$DIMSAH
 70
     0
  9
$DIMBLK1
  1

  9
$DIMBLK2
  1

  9
$DIMSTYLE
  2
Standard
  9
$DIMCLRD
 70
     0
  9
$DIMCLRE
 70
     0
  9
$DIMCLRT
 70
     0
  9
$DIMTFAC
 40
1.0
  9
$DIMGAP
 40
0.09
  9
$DIMJUST
 70
     0
  9
$DIMSD1
 70
     0
  9
$DIMSD2
 70
     0
  9
$DIMTOLJ
 70
     1
  9
$DIMTZIN
 70
     0
  9
$DIMALTZ
 70
     0
  9
$DIMALTTZ
 70
     0
  9
$DIMUPT
 70
     0
  9
$DIMDEC
 70
     4
  9
$DIMTDEC
 70
     4
  9
$DIMALTU
 70
     2
  9
$DIMALTTD
 70
     2
  9
$DIMTXSTY
  7
Standard
  9
$DIMAUNIT
 70
     0
  9
$DIMADEC
 70
     0
  9
$DIMALTRND
 40
0.0
  9
$DIMAZIN
 70
     0
  9
$DIMDSEP
 70
    46
  9
$DIMATFIT
 70
     3
  9
$DIMFRAC
 70
     0
  9
$DIMLDRBLK
  1

  9
$DIMLUNIT
 70
     2
  9
$DIMLWD
 70
    -2
  9
$DIMLWE
 70
    -2
  9
$DIMTMOVE
 70
     0
  9
$LUNITS
 70
     2
  9
$LUPREC
 70
     4
  9
$SKETCHINC
 40
0.1
  9
$FILLETRAD
 40
0.5
  9
$AUNITS
 70
     0
  9
$AUPREC
 70
     0
  9
$MENU
  1
.
  9
$ELEVATION
 40
0.0
  9
$PELEVATION
 40
0.0
  9
$THICKNESS
 40
0.0
  9
$LIMCHECK
 70
     0
  9
$CHAMFERA
 40
0.0
  9
$CHAMFERB
 40
0.0
  9
$CHAMFERC
 40
0.0
  9
$CHAMFERD
 40
0.0
  9
$SKPOLY
 70
     0
  9
$TDCREATE
 40
2459065.433078704
  9
$TDUCREATE
 40
2459065.349746320
  9
$TDUPDATE
 40
2459065.436006945
  9
$TDUUPDATE
 40
2459065.352673611
  9
$TDINDWG
 40
0.0025231597
  9
$TDUSRTIMER
 40
0.0025231597
  9
$USRTIMER
 70
     1
  9
$ANGBASE
 50
0.0
  9
$ANGDIR
 70
     0
  9
$PDMODE
 70
     0
  9
$PDSIZE
 40
0.0
  9
$PLINEWID
 40
0.0
  9
$SPLFRAME
 70
     0
  9
$SPLINETYPE
 70
     6
  9
$SPLINESEGS
 70
     8
  9
$HANDSEED
  5
3E0
  9
$SURFTAB1
 70
     6
  9
$SURFTAB2
 70
     6
  9
$SURFTYPE
 70
     6
  9
$SURFU
 70
     6
  9
$SURFV
 70
     6
  9
$UCSBASE
  2

  9
$UCSNAME
  2

  9
$UCSORG
 10
274.404842
 20
288.907994
 30
0.0
  9
$UCSXDIR
 10
1.0
 20
0.0
 30
0.0
  9
$UCSYDIR
 10
0.0
 20
1.0
 30
0.0
  9
$UCSORTHOREF
  2

  9
$UCSORTHOVIEW
 70
     0
  9
$UCSORGTOP
 10
0.0
 20
0.0
 30
0.0
  9
$UCSORGBOTTOM
 10
0.0
 20
0.0
 30
0.0
  9
$UCSORGLEFT
 10
0.0
 20
0.0
 30
0.0
  9
$UCSORGRIGHT
 10
0.0
 20
0.0
 30
0.0
  9
$UCSORGFRONT
 10
0.0
 20
0.0
 30
0.0
  9
$UCSORGBACK
 10
0.0
 20
0.0
 30
0.0
  9
$PUCSBASE
  2

  9
$PUCSNAME
  2

  9
$PUCSORG
 10
0.0
 20
0.0
 30
0.0
  9
$PUCSXDIR
 10
1.0
 20
0.0
 30
0.0
  9
$PUCSYDIR
 10
0.0
 20
1.0
 30
0.0
  9
$PUCSORTHOREF
  2

  9
$PUCSORTHOVIEW
 70
     0
  9
$PUCSORGTOP
 10
0.0
 20
0.0
 30
0.0
  9
$PUCSORGBOTTOM
 10
0.0
 20
0.0
 30
0.0
  9
$PUCSORGLEFT
 10
0.0
 20
0.0
 30
0.0
  9
$PUCSORGRIGHT
 10
0.0
 20
0.0
 30
0.0
  9
$PUCSORGFRONT
 10
0.0
 20
0.0
 30
0.0
  9
$PUCSORGBACK
 10
0.0
 20
0.0
 30
0.0
  9
$USERI1
 70
     0
  9
$USERI2
 70
     0
  9
$USERI3
 70
     0
  9
$USERI4
 70
     0
  9
$USERI5
 70
     0
  9
$USERR1
 40
0.0
  9
$USERR2
 40
0.0
  9
$USERR3
 40
0.0
  9
$USERR4
 40
0.0
  9
$USERR5
 40
0.0
  9
$WORLDVIEW
 70
     1
  9
$SHADEDGE
 70
     3
  9
$SHADEDIF
 70
    70
  9
$TILEMODE
 70
     1
  9
$MAXACTVP
 70
    64
  9
$PINSBASE
 10
0.0
 20
0.0
 30
0.0
  9
$PLIMCHECK
 70
     0
  9
$PEXTMIN
 10
-0.5
 20
-0.5
 30
-0.5
  9
$PEXTMAX
 10
5.0
 20
5.0
 30
5.0
  9
$PLIMMIN
 10
-0.5
 20
-0.5
  9
$PLIMMAX
 10
5.0
 20
5.0
  9
$UNITMODE
 70
     0
  9
$VISRETAIN
 70
     1
  9
$PLINEGEN
 70
     0
  9
$PSLTSCALE
 70
     1
  9
$TREEDEPTH
 70
  3020
  9
$CMLSTYLE
  2
Standard
  9
$CMLJUST
 70
     0
  9
$CMLSCALE
 40
1.0
  9
$PROXYGRAPHICS
 70
     1
  9
$MEASUREMENT
 70
     1
  9
$CELWEIGHT
370
    13
  9
$ENDCAPS
280
     0
  9
$JOINSTYLE
280
     0
  9
$LWDISPLAY
290
     0
  9
$INSUNITS
 70
     4
  9
$HYPERLINKBASE
  1

  9
$STYLESHEET
  1

  9
$XEDIT
290
     1
  9
$CEPSNTYPE
380
     0
  9
$PSTYLEMODE
290
     1
  9
$FINGERPRINTGUID
  2
{DE69A954-4D84-4576-BAB2-8EF8C01D0D76}
  9
$VERSIONGUID
  2
{A31A4D38-D505-024A-939E-C45B9977D4EE}
  9
$EXTNAMES
290
     1
  9
$PSVPSCALE
 40
0.0
  9
$OLESTARTUP
290
     0
  9
$SORTENTS
280
   127
  9
$INDEXCTL
280
     0
  9
$HIDETEXT
280
     1
  9
$XCLIPFRAME
290
     0
  9
$HALOGAP
280
     0
  9
$OBSCOLOR
 70
   257
  9
$OBSLTYPE
280
     0
  9
$INTERSECTIONDISPLAY
280
     0
  9
$INTERSECTIONCOLOR
 70
   257
  9
$DIMASSOC
280
     2
  9
$PROJECTNAME
  1

  0
ENDSEC
  0
SECTION
  2
CLASSES
  0
CLASS
  1
ACDBDICTIONARYWDFLT
  2
AcDbDictionaryWithDefault
  3
ObjectDBX Classes
 90
        0
 91
        1
280
     0
281
     0
  0
CLASS
  1
VISUALSTYLE
  2
AcDbVisualStyle
  3
ObjectDBX Classes
 90
     4095
 91
       24
280
     0
281
     0
  0
CLASS
  1
MATERIAL
  2
AcDbMaterial
  3
ObjectDBX Classes
 90
     1153
 91
        3
280
     0
281
     0
  0
CLASS
  1
SCALE
  2
AcDbScale
  3
ObjectDBX Classes
 90
     1153
 91
       33
280
     0
281
     0
  0
CLASS
  1
TABLESTYLE
  2
AcDbTableStyle
  3
ObjectDBX Classes
 90
     4095
 91
        1
280
     0
281
     0
  0
CLASS
  1
MLEADERSTYLE
  2
AcDbMLeaderStyle
  3
ACDB_MLEADERSTYLE_CLASS
 90
     4095
 91
        1
280
     0
281
     0
  0
CLASS
  1
SUN
  2
AcDbSun
  3
SCENEOE
 90
     1153
 91
        0
280
     0
281
     0
  0
CLASS
  1
DIMASSOC
  2
AcDbDimAssoc
  3
"AcDbDimAssoc|Product Desc:     AcDim ARX App For Dimension|Company:          Autodesk, Inc.|WEB Address:      www.autodesk.com"
 90
        0
 91
        7
280
     0
281
     0
  0
CLASS
  1
DICTIONARYVAR
  2
AcDbDictionaryVar
  3
ObjectDBX Classes
 90
        0
 91
        8
280
     0
281
     0
  0
CLASS
  1
CELLSTYLEMAP
  2
AcDbCellStyleMap
  3
ObjectDBX Classes
 90
     1152
 91
        2
280
     0
281
     0
  0
CLASS
  1
ACDBSECTIONVIEWSTYLE
  2
AcDbSectionViewStyle
  3
ObjectDBX Classes
 90
     1025
 91
        1
280
     0
281
     0
  0
CLASS
  1
ACDBDETAILVIEWSTYLE
  2
AcDbDetailViewStyle
  3
ObjectDBX Classes
 90
     1025
 91
        1
280
     0
281
     0
  0
CLASS
  1
SORTENTSTABLE
  2
AcDbSortentsTable
  3
ObjectDBX Classes
 90
        0
 91
        1
280
     0
281
     0
  0
ENDSEC
  0
SECTION
  2
TABLES
  0
TABLE
  2
VPORT
  5
8
330
0
100
AcDbSymbolTable
 70
    16
  0
VPORT
  5
29
330
8
100
AcDbSymbolTableRecord
100
AcDbViewportTableRecord
  2
*Active
 70
     0
 10
0.0
 20
0.0
 11
1.0
 21
1.0
 12
265.3850044309681
 22
301.3165614462756
 13
0.0
 23
0.0
 14
0.5
 24
0.5
 15
0.5
 25
0.5
 16
0.0
 26
0.0
 36
1.0
 17
0.0
 27
0.0
 37
0.0
 40
207.4880576915551
 41
2.292712066905615
 42
50.0
 43
440.135154
 44
-440.135154
 50
0.0
 51
0.0
 71
     0
 72
   100
 73
     1
 74
     3
 75
     0
 76
     0
 77
     0
 78
     0
281
     0
 65
     1
110
274.404842
120
288.907994
130
0.0
111
1.0
121
0.0
131
0.0
112
0.0
122
1.0
132
0.0
 79
     0
146
0.0
1001
ACAD_NAV_VCDISPLAY
1070
     3
  0
VPORT
  5
2E1
330
8
100
AcDbSymbolTableRecord
100
AcDbViewportTableRecord
  2
L1
 70
     0
 10
0.0
 20
0.0
 11
1.0
 21
1.0
 12
307.995674
 22
231.785749
 13
0.0
 23
0.0
 14
0.5
 24
0.5
 15
0.5
 25
0.5
 16
0.0
 26
0.0
 36
1.0
 17
0.0
 27
0.0
 37
0.0
 40
207.433333
 41
0.085602
 42
50.0
 43
440.135154
 44
-440.135154
 50
0.0
 51
0.0
 71
     0
 72
   100
 73
     1
 74
     3
 75
     0
 76
     0
 77
     0
 78
     0
281
     0
 65
     1
110
0.0
120
0.0
130
0.0
111
1.0
121
0.0
131
0.0
112
0.0
122
1.0
132
0.0
 79
     0
146
0.0
  0
VPORT
  5
2E2
330
8
100
AcDbSymbolTableRecord
100
AcDbViewportTableRecord
  2
L2
 70
     0
 10
0.0
 20
0.0
 11
0.5
 21
1.0
 12
0.0
 22
0.0
 13
0.0
 23
0.0
 14
0.5
 24
0.5
 15
0.5
 25
0.5
 16
0.0
 26
-1.0
 36
0.0
 17
0.0
 27
0.0
 37
0.0
 40
1339.368397
 41
0.013258
 42
50.0
 43
690.502282
 44
-690.502282
 50
0.0
 51
0.0
 71
     0
 72
   100
 73
     1
 74
     3
 75
     0
 76
     0
 77
     0
 78
     0
281
     0
 65
     1
110
0.0
120
0.0
130
0.0
111
1.0
121
0.0
131
0.0
112
0.0
122
1.0
132
0.0
 79
     0
146
0.0
  0
VPORT
  5
2E3
330
8
100
AcDbSymbolTableRecord
100
AcDbViewportTableRecord
  2
L2
 70
     0
 10
0.5
 20
0.0
 11
1.0
 21
1.0
 12
0.0
 22
0.0
 13
0.0
 23
0.0
 14
0.5
 24
0.5
 15
0.5
 25
0.5
 16
1.0
 26
0.0
 36
0.0
 17
0.0
 27
0.0
 37
0.0
 40
1339.368397
 41
0.013258
 42
50.0
 43
677.6681139999999
 44
-677.6681139999999
 50
0.0
 51
0.0
 71
     0
 72
   100
 73
     1
 74
     3
 75
     0
 76
     0
 77
     0
 78
     0
281
     0
 65
     1
110
0.0
120
0.0
130
0.0
111
1.0
121
0.0
131
0.0
112
0.0
122
1.0
132
0.0
 79
     0
146
0.0
  0
VPORT
  5
2E4
330
8
100
AcDbSymbolTableRecord
100
AcDbViewportTableRecord
  2
L3
 70
     0
 10
0.0
 20
0.5
 11
1.0
 21
1.0
 12
307.995674
 22
231.785749
 13
0.0
 23
0.0
 14
0.5
 24
0.5
 15
0.5
 25
0.5
 16
0.0
 26
0.0
 36
1.0
 17
0.0
 27
0.0
 37
0.0
 40
207.433333
 41
0.085602
 42
50.0
 43
440.135154
 44
-440.135154
 50
0.0
 51
0.0
 71
     0
 72
   100
 73
     1
 74
     3
 75
     0
 76
     0
 77
     0
 78
     0
281
     0
 65
     1
110
0.0
120
0.0
130
0.0
111
1.0
121
0.0
131
0.0
112
0.0
122
1.0
132
0.0
 79
     0
146
0.0
  0
VPORT
  5
2E5
330
8
100
AcDbSymbolTableRecord
100
AcDbViewportTableRecord
  2
L3
 70
     0
 10
0.0
 20
0.0
 11
1.0
 21
0.5
 12
0.0
 22
0.0
 13
0.0
 23
0.0
 14
0.5
 24
0.5
 15
0.5
 25
0.5
 16
0.0
 26
-1.0
 36
0.0
 17
0.0
 27
0.0
 37
0.0
 40
1339.368397
 41
0.013258
 42
50.0
 43
690.502282
 44
-690.502282
 50
0.0
 51
0.0
 71
     0
 72
   100
 73
     1
 74
     3
 75
     0
 76
     0
 77
     0
 78
     0
281
     0
 65
     1
110
0.0
120
0.0
130
0.0
111
1.0
121
0.0
131
0.0
112
0.0
122
1.0
132
0.0
 79
     0
146
0.0
  0
VPORT
  5
2E6
330
8
100
AcDbSymbolTableRecord
100
AcDbViewportTableRecord
  2
L4
 70
     0
 10
0.0
 20
0.5
 11
0.5
 21
1.0
 12
307.995674
 22
231.785749
 13
0.0
 23
0.0
 14
0.5
 24
0.5
 15
0.5
 25
0.5
 16
0.0
 26
0.0
 36
1.0
 17
0.0
 27
0.0
 37
0.0
 40
207.433333
 41
0.085602
 42
50.0
 43
440.135154
 44
-440.135154
 50
0.0
 51
0.0
 71
     0
 72
   100
 73
     1
 74
     3
 75
     0
 76
     0
 77
     0
 78
     0
281
     0
 65
     1
110
0.0
120
0.0
130
0.0
111
1.0
121
0.0
131
0.0
112
0.0
122
1.0
132
0.0
 79
     0
146
0.0
  0
VPORT
  5
2E7
330
8
100
AcDbSymbolTableRecord
100
AcDbViewportTableRecord
  2
L4
 70
     0
 10
0.0
 20
0.0
 11
0.5
 21
0.5
 12
0.0
 22
0.0
 13
0.0
 23
0.0
 14
0.5
 24
0.5
 15
0.5
 25
0.5
 16
0.0
 26
-1.0
 36
0.0
 17
0.0
 27
0.0
 37
0.0
 40
1339.368397
 41
0.013258
 42
50.0
 43
690.502282
 44
-690.502282
 50
0.0
 51
0.0
 71
     0
 72
   100
 73
     1
 74
     3
 75
     0
 76
     0
 77
     0
 78
     0
281
     0
 65
     1
110
0.0
120
0.0
130
0.0
111
1.0
121
0.0
131
0.0
112
0.0
122
1.0
132
0.0
 79
     0
146
0.0
  0
VPORT
  5
2E8
330
8
100
AcDbSymbolTableRecord
100
AcDbViewportTableRecord
  2
L4
 70
     0
 10
0.5
 20
0.0
 11
1.0
 21
0.5
 12
0.0
 22
0.0
 13
0.0
 23
0.0
 14
0.5
 24
0.5
 15
0.5
 25
0.5
 16
1.0
 26
0.0
 36
0.0
 17
0.0
 27
0.0
 37
0.0
 40
1339.368397
 41
0.013258
 42
50.0
 43
677.6681139999999
 44
-677.6681139999999
 50
0.0
 51
0.0
 71
     0
 72
   100
 73
     1
 74
     3
 75
     0
 76
     0
 77
     0
 78
     0
281
     0
 65
     1
110
0.0
120
0.0
130
0.0
111
1.0
121
0.0
131
0.0
112
0.0
122
1.0
132
0.0
 79
     0
146
0.0
  0
VPORT
  5
2E9
330
8
100
AcDbSymbolTableRecord
100
AcDbViewportTableRecord
  2
L4
 70
     0
 10
0.5
 20
0.5
 11
1.0
 21
1.0
 12
0.0
 22
0.0
 13
0.0
 23
0.0
 14
0.5
 24
0.5
 15
0.5
 25
0.5
 16
0.5773502691896259
 26
-0.5773502691896259
 36
0.5773502691896259
 17
0.0
 27
0.0
 37
0.0
 40
1315.669983
 41
0.013496
 42
50.0
 43
685.3733359999999
 44
-685.3733359999999
 50
0.0
 51
0.0
 71
     0
 72
   100
 73
     1
 74
     3
 75
     0
 76
     0
 77
     0
 78
     0
281
     0
 65
     1
110
0.0
120
0.0
130
0.0
111
1.0
121
0.0
131
0.0
112
0.0
122
1.0
132
0.0
 79
     0
146
0.0
  0
VPORT
  5
2EA
330
8
100
AcDbSymbolTableRecord
100
AcDbViewportTableRecord
  2
L6
 70
     0
 10
0.0
 20
0.5
 11
0.333333
 21
1.0
 12
0.0
 22
0.0
 13
0.0
 23
0.0
 14
0.5
 24
0.5
 15
0.5
 25
0.5
 16
0.7188730927569434
 26
-0.5850486126764433
 36
0.3754192287502549
 17
0.0
 27
0.0
 37
0.0
 40
1388.551873
 41
0.012788
 42
50.0
 43
718.93087
 44
-718.93087
 50
0.0
 51
0.0
 71
     0
 72
   100
 73
     1
 74
     3
 75
     0
 76
     0
 77
     0
 78
     0
281
     0
 65
     1
110
0.0
120
0.0
130
0.0
111
1.0
121
0.0
131
0.0
112
0.0
122
1.0
132
0.0
 79
     0
146
0.0
  0
VPORT
  5
2EB
330
8
100
AcDbSymbolTableRecord
100
AcDbViewportTableRecord
  2
L6
 70
     0
 10
0.0
 20
0.0
 11
0.333333
 21
0.5
 12
0.0
 22
0.0
 13
0.0
 23
0.0
 14
0.5
 24
0.5
 15
0.5
 25
0.5
 16
-1.0
 26
0.0
 36
0.0
 17
0.0
 27
0.0
 37
0.0
 40
1339.368397
 41
0.013258
 42
50.0
 43
677.6681139999999
 44
-677.6681139999999
 50
0.0
 51
0.0
 71
     0
 72
   100
 73
     1
 74
     3
 75
     0
 76
     0
 77
     0
 78
     0
281
     0
 65
     1
110
0.0
120
0.0
130
0.0
111
1.0
121
0.0
131
0.0
112
0.0
122
1.0
132
0.0
 79
     0
146
0.0
  0
VPORT
  5
2EC
330
8
100
AcDbSymbolTableRecord
100
AcDbViewportTableRecord
  2
L6
 70
     0
 10
0.333333
 20
0.5
 11
0.666667
 21
1.0
 12
307.995674
 22
231.785749
 13
0.0
 23
0.0
 14
0.5
 24
0.5
 15
0.5
 25
0.5
 16
0.0
 26
0.0
 36
1.0
 17
0.0
 27
0.0
 37
0.0
 40
207.433333
 41
0.085602
 42
50.0
 43
440.135154
 44
-440.135154
 50
0.0
 51
0.0
 71
     0
 72
   100
 73
     1
 74
     3
 75
     0
 76
     0
 77
     0
 78
     0
281
     0
 65
     1
110
0.0
120
0.0
130
0.0
111
1.0
121
0.0
131
0.0
112
0.0
122
1.0
132
0.0
 79
     0
146
0.0
  0
VPORT
  5
2ED
330
8
100
AcDbSymbolTableRecord
100
AcDbViewportTableRecord
  2
L6
 70
     0
 10
0.333333
 20
0.0
 11
0.666667
 21
0.5
 12
0.0
 22
0.0
 13
0.0
 23
0.0
 14
0.5
 24
0.5
 15
0.5
 25
0.5
 16
0.0
 26
-1.0
 36
0.0
 17
0.0
 27
0.0
 37
0.0
 40
1339.368397
 41
0.013258
 42
50.0
 43
690.502282
 44
-690.502282
 50
0.0
 51
0.0
 71
     0
 72
   100
 73
     1
 74
     3
 75
     0
 76
     0
 77
     0
 78
     0
281
     0
 65
     1
110
0.0
120
0.0
130
0.0
111
1.0
121
0.0
131
0.0
112
0.0
122
1.0
132
0.0
 79
     0
146
0.0
  0
VPORT
  5
2EE
330
8
100
AcDbSymbolTableRecord
100
AcDbViewportTableRecord
  2
L6
 70
     0
 10
0.666667
 20
0.5
 11
1.0
 21
1.0
 12
0.0
 22
0.0
 13
0.0
 23
0.0
 14
0.5
 24
0.5
 15
0.5
 25
0.5
 16
0.5773502691896259
 26
-0.5773502691896259
 36
0.5773502691896259
 17
0.0
 27
0.0
 37
0.0
 40
1315.669983
 41
0.013496
 42
50.0
 43
685.3733359999999
 44
-685.3733359999999
 50
0.0
 51
0.0
 71
     0
 72
   100
 73
     1
 74
     3
 75
     0
 76
     0
 77
     0
 78
     0
281
     0
 65
     1
110
0.0
120
0.0
130
0.0
111
1.0
121
0.0
131
0.0
112
0.0
122
1.0
132
0.0
 79
     0
146
0.0
  0
VPORT
  5
2EF
330
8
100
AcDbSymbolTableRecord
100
AcDbViewportTableRecord
  2
L6
 70
     0
 10
0.666667
 20
0.0
 11
1.0
 21
0.5
 12
0.0
 22
0.0
 13
0.0
 23
0.0
 14
0.5
 24
0.5
 15
0.5
 25
0.5
 16
1.0
 26
0.0
 36
0.0
 17
0.0
 27
0.0
 37
0.0
 40
1339.368397
 41
0.013258
 42
50.0
 43
677.6681139999999
 44
-677.6681139999999
 50
0.0
 51
0.0
 71
     0
 72
   100
 73
     1
 74
     3
 75
     0
 76
     0
 77
     0
 78
     0
281
     0
 65
     1
110
0.0
120
0.0
130
0.0
111
1.0
121
0.0
131
0.0
112
0.0
122
1.0
132
0.0
 79
     0
146
0.0
  0
ENDTAB
  0
TABLE
  2
LTYPE
  5
5
330
0
100
AcDbSymbolTable
 70
     7
  0
LTYPE
  5
14
330
5
100
AcDbSymbolTableRecord
100
AcDbLinetypeTableRecord
  2
ByBlock
 70
     0
  3

 72
    65
 73
     0
 40
0.0
  0
LTYPE
  5
15
330
5
100
AcDbSymbolTableRecord
100
AcDbLinetypeTableRecord
  2
ByLayer
 70
     0
  3

 72
    65
 73
     0
 40
0.0
  0
LTYPE
  5
16
330
5
100
AcDbSymbolTableRecord
100
AcDbLinetypeTableRecord
  2
Continuous
 70
     0
  3
Solid line
 72
    65
 73
     0
 40
0.0
  0
LTYPE
  5
6E
330
5
100
AcDbSymbolTableRecord
100
AcDbLinetypeTableRecord
  2
CENTER
 70
     0
  3
____ _ ____ _ ____ _ ____
 72
    65
 73
     4
 40
47.4
 49
22.0
 74
     4
 75
     0
340
0
 46
0.0
 50
0.0
 44
0.0
 45
0.0
 49
-8.5
 74
     4
 75
     0
340
0
 46
0.0
 50
0.0
 44
0.0
 45
0.0
 49
8.5
 74
     4
 75
     0
340
0
 46
0.0
 50
0.0
 44
0.0
 45
0.0
 49
-8.5
 74
     4
 75
     0
340
0
 46
0.0
 50
0.0
 44
0.0
 45
0.0
  0
LTYPE
  5
6F
330
5
100
AcDbSymbolTableRecord
100
AcDbLinetypeTableRecord
  2
DASHDOT
 70
     0
  3
_._._._._._._._._._._._._._._._.
 72
    65
 73
     4
 40
70.0
 49
31.0
 74
     4
 75
     0
340
0
 46
0.0
 50
0.0
 44
0.0
 45
0.0
 49
-13.0
 74
     4
 75
     0
340
0
 46
0.0
 50
0.0
 44
0.0
 45
0.0
 49
13.0
 74
     4
 75
     0
340
0
 46
0.0
 50
0.0
 44
0.0
 45
0.0
 49
-13.0
 74
     4
 75
     0
340
0
 46
0.0
 50
0.0
 44
0.0
 45
0.0
  0
LTYPE
  5
70
330
5
100
AcDbSymbolTableRecord
100
AcDbLinetypeTableRecord
  2
DASHED
 70
     0
  3
__ __ __ __ __ __ __ __ __
 72
    65
 73
     2
 40
25.72
 49
12.86
 74
     4
 75
     0
340
0
 46
0.0
 50
0.0
 44
0.0
 45
0.0
 49
-12.86
 74
     4
 75
     0
340
0
 46
0.0
 50
0.0
 44
0.0
 45
0.0
  0
LTYPE
  5
71
330
5
100
AcDbSymbolTableRecord
100
AcDbLinetypeTableRecord
  2
DOT
 70
     0
  3
.........................
 72
    65
 73
     2
 40
10.0
 49
0.0
 74
     4
 75
     0
340
0
 46
0.0
 50
0.0
 44
0.0
 45
0.0
 49
-10.0
 74
     4
 75
     0
340
0
 46
0.0
 50
0.0
 44
0.0
 45
0.0
  0
LTYPE
  5
72
330
5
100
AcDbSymbolTableRecord
100
AcDbLinetypeTableRecord
  2
PHANTOM
 70
     0
  3
____ _ _ ____ _ _ _____ _ _ ____
 72
    65
 73
     6
 40
50.5
 49
18.0
 74
     4
 75
     0
340
0
 46
0.0
 50
0.0
 44
0.0
 45
0.0
 49
-6.5
 74
     4
 75
     0
340
0
 46
0.0
 50
0.0
 44
0.0
 45
0.0
 49
6.5
 74
     4
 75
     0
340
0
 46
0.0
 50
0.0
 44
0.0
 45
0.0
 49
-6.5
 74
     4
 75
     0
340
0
 46
0.0
 50
0.0
 44
0.0
 45
0.0
 49
6.5
 74
     4
 75
     0
340
0
 46
0.0
 50
0.0
 44
0.0
 45
0.0
 49
-6.5
 74
     4
 75
     0
340
0
 46
0.0
 50
0.0
 44
0.0
 45
0.0
  0
LTYPE
  5
382
330
5
100
AcDbSymbolTableRecord
100
AcDbLinetypeTableRecord
  2
CENTER2
 70
     0
  3
Center (.5x) ___ _ ___ _ ___ _ ___ _ ___ _ ___
 72
    65
 73
     4
 40
1.125
 49
0.75
 74
     0
 49
-0.125
 74
     0
 49
0.125
 74
     0
 49
-0.125
 74
     0
  0
ENDTAB
  0
TABLE
  2
LAYER
  5
2
330
0
100
AcDbSymbolTable
 70
    22
  0
LAYER
  5
10
102
{ACAD_XDICTIONARY
360
38D
102
}
330
2
100
AcDbSymbolTableRecord
100
AcDbLayerTableRecord
  2
0
 70
     0
 62
     7
  6
Continuous
370
    -3
390
F
  0
LAYER
  5
23B
330
2
100
AcDbSymbolTableRecord
100
AcDbLayerTableRecord
  2
Defpoints
 70
     0
 62
     7
  6
Continuous
290
     0
370
    -3
390
F
  0
LAYER
  5
37F
102
{ACAD_XDICTIONARY
360
38F
102
}
330
2
100
AcDbSymbolTableRecord
100
AcDbLayerTableRecord
  2
1
 70
     0
 62
     4
  6
Continuous
370
    -3
390
F
  0
LAYER
  5
380
102
{ACAD_XDICTIONARY
360
391
102
}
330
2
100
AcDbSymbolTableRecord
100
AcDbLayerTableRecord
  2
2
 70
     0
 62
     7
  6
Continuous
370
    -3
390
F
  0
LAYER
  5
381
102
{ACAD_XDICTIONARY
360
393
102
}
330
2
100
AcDbSymbolTableRecord
100
AcDbLayerTableRecord
  2
4
 70
     0
 62
     2
  6
CENTER2
370
    -3
390
F
  0
LAYER
  5
383
102
{ACAD_XDICTIONARY
360
395
102
}
330
2
100
AcDbSymbolTableRecord
100
AcDbLayerTableRecord
  2
SK1
 70
     0
 62
     4
  6
Continuous
370
    -3
390
F
  0
LAYER
  5
384
102
{ACAD_XDICTIONARY
360
397
102
}
330
2
100
AcDbSymbolTableRecord
100
AcDbLayerTableRecord
  2
SK2
 70
     0
 62
     7
  6
Continuous
370
    -3
390
F
  0
LAYER
  5
386
102
{ACAD_XDICTIONARY
360
399
102
}
330
2
100
AcDbSymbolTableRecord
100
AcDbLayerTableRecord
  2
SK4
 70
     0
 62
     2
  6
CENTER2
370
    -3
390
F
  0
LAYER
  5
387
102
{ACAD_XDICTIONARY
360
39B
102
}
330
2
100
AcDbSymbolTableRecord
100
AcDbLayerTableRecord
  2
SK6
 70
     0
 62
     5
  6
Continuous
370
    -3
390
F
  0
LAYER
  5
388
102
{ACAD_XDICTIONARY
360
39D
102
}
330
2
100
AcDbSymbolTableRecord
100
AcDbLayerTableRecord
  2
CUT
 70
     0
 62
     1
  6
Continuous
370
    -3
390
F
  0
LAYER
  5
389
102
{ACAD_XDICTIONARY
360
39F
102
}
330
2
100
AcDbSymbolTableRecord
100
AcDbLayerTableRecord
  2
NOCUT
 70
     0
 62
     7
  6
Continuous
370
    -3
390
F
  0
LAYER
  5
38A
102
{ACAD_XDICTIONARY
360
3A1
102
}
330
2
100
AcDbSymbolTableRecord
100
AcDbLayerTableRecord
  2
80
 70
     0
 62
     6
  6
Continuous
370
    -3
390
F
  0
LAYER
  5
38B
102
{ACAD_XDICTIONARY
360
3A3
102
}
330
2
100
AcDbSymbolTableRecord
100
AcDbLayerTableRecord
  2
81
 70
     0
 62
     3
  6
Continuous
370
    -3
390
F
  0
ENDTAB
  0
TABLE
  2
STYLE
  5
3
330
0
100
AcDbSymbolTable
 70
     3
  0
STYLE
  5
11
330
3
100
AcDbSymbolTableRecord
100
AcDbTextStyleTableRecord
  2
Standard
 70
     0
 40
0.0
 41
1.0
 50
0.0
 71
     0
 42
0.2
  3
txt
  4

  0
STYLE
  5
234
330
3
100
AcDbSymbolTableRecord
100
AcDbTextStyleTableRecord
  2
cesky
 70
     0
 40
0.0
 41
1.0
 50
0.0
 71
     0
 42
0.2
  3
simplex.shx
  4

  0
STYLE
  5
235
330
3
100
AcDbSymbolTableRecord
100
AcDbTextStyleTableRecord
  2
DWGDirectTextStyle
 70
     0
 40
0.0
 41
1.0
 50
0.0
 71
     0
 42
0.2
  3
simplex
  4

  0
ENDTAB
  0
TABLE
  2
VIEW
  5
6
330
0
100
AcDbSymbolTable
 70
     0
  0
ENDTAB
  0
TABLE
  2
UCS
  5
7
330
0
100
AcDbSymbolTable
 70
     0
  0
ENDTAB
  0
TABLE
  2
APPID
  5
9
330
0
100
AcDbSymbolTable
 70
     7
  0
APPID
  5
12
330
9
100
AcDbSymbolTableRecord
100
AcDbRegAppTableRecord
  2
ACAD
 70
     0
  0
APPID
  5
237
330
9
100
AcDbSymbolTableRecord
100
AcDbRegAppTableRecord
  2
ACAD_DSTYLE_DIMBREAK
 70
     0
  0
APPID
  5
2F0
330
9
100
AcDbSymbolTableRecord
100
AcDbRegAppTableRecord
  2
ACAD_DSTYLE_DIM_LINETYPE
 70
     0
  0
APPID
  5
2F1
330
9
100
AcDbSymbolTableRecord
100
AcDbRegAppTableRecord
  2
ACAD_DSTYLE_DIM_EXT1_LINETYPE
 70
     0
  0
APPID
  5
2F2
330
9
100
AcDbSymbolTableRecord
100
AcDbRegAppTableRecord
  2
ACAD_DSTYLE_DIM_EXT2_LINETYPE
 70
     0
  0
APPID
  5
332
330
9
100
AcDbSymbolTableRecord
100
AcDbRegAppTableRecord
  2
ACAD_MLEADERVER
 70
     0
  0
APPID
  5
3A8
330
9
100
AcDbSymbolTableRecord
100
AcDbRegAppTableRecord
  2
ACAD_NAV_VCDISPLAY
 70
     0
  0
ENDTAB
  0
TABLE
  2
DIMSTYLE
  5
A
330
0
100
AcDbSymbolTable
 70
     1
100
AcDbDimStyleTable
 71
     0
  0
DIMSTYLE
105
27
330
A
100
AcDbSymbolTableRecord
100
AcDbDimStyleTableRecord
  2
Standard
 70
     0
340
11
1001
ACAD_DSTYLE_DIMBREAK
1070
   391
1040
6.349999999999999
  0
ENDTAB
  0
TABLE
  2
BLOCK_RECORD
  5
1
330
0
100
AcDbSymbolTable
 70
    16
  0
BLOCK_RECORD
  5
1F
102
{ACAD_XDICTIONARY
360
342
102
}
330
1
100
AcDbSymbolTableRecord
100
AcDbBlockTableRecord
  2
*Model_Space
340
22
  0
BLOCK_RECORD
  5
1B
330
1
100
AcDbSymbolTableRecord
100
AcDbBlockTableRecord
  2
*Paper_Space
340
1E
  0
BLOCK_RECORD
  5
23
330
1
100
AcDbSymbolTableRecord
100
AcDbBlockTableRecord
  2
*Paper_Space0
340
26
  0
BLOCK_RECORD
  5
22E
330
1
100
AcDbSymbolTableRecord
100
AcDbBlockTableRecord
  2
ASSORTED_DRAFT1
340
0
  0
BLOCK_RECORD
  5
23C
330
1
100
AcDbSymbolTableRecord
100
AcDbBlockTableRecord
  2
*D2
340
0
  0
BLOCK_RECORD
  5
248
330
1
100
AcDbSymbolTableRecord
100
AcDbBlockTableRecord
  2
_U0
340
0
  0
BLOCK_RECORD
  5
254
330
1
100
AcDbSymbolTableRecord
100
AcDbBlockTableRecord
  2
*D4
340
0
  0
BLOCK_RECORD
  5
260
330
1
100
AcDbSymbolTableRecord
100
AcDbBlockTableRecord
  2
_U1
340
0
  0
BLOCK_RECORD
  5
26C
330
1
100
AcDbSymbolTableRecord
100
AcDbBlockTableRecord
  2
*D6
340
0
  0
BLOCK_RECORD
  5
278
330
1
100
AcDbSymbolTableRecord
100
AcDbBlockTableRecord
  2
_U2
340
0
  0
BLOCK_RECORD
  5
284
330
1
100
AcDbSymbolTableRecord
100
AcDbBlockTableRecord
  2
*D8
340
0
  0
BLOCK_RECORD
  5
28F
330
1
100
AcDbSymbolTableRecord
100
AcDbBlockTableRecord
  2
_U3
340
0
  0
BLOCK_RECORD
  5
29A
330
1
100
AcDbSymbolTableRecord
100
AcDbBlockTableRecord
  2
*D10
340
0
  0
BLOCK_RECORD
  5
2A6
330
1
100
AcDbSymbolTableRecord
100
AcDbBlockTableRecord
  2
_U4
340
0
  0
BLOCK_RECORD
  5
2B3
330
1
100
AcDbSymbolTableRecord
100
AcDbBlockTableRecord
  2
*D12
340
0
  0
BLOCK_RECORD
  5
2BF
330
1
100
AcDbSymbolTableRecord
100
AcDbBlockTableRecord
  2
_U5
340
0
  0
BLOCK_RECORD
  5
2CC
330
1
100
AcDbSymbolTableRecord
100
AcDbBlockTableRecord
  2
*D14
340
0
  0
BLOCK_RECORD
  5
2D8
330
1
100
AcDbSymbolTableRecord
100
AcDbBlockTableRecord
  2
_U6
340
0
  0
ENDTAB
  0
ENDSEC
  0
SECTION
  2
BLOCKS
  0
BLOCK
  5
20
330
1F
100
AcDbEntity
  8
0
100
AcDbBlockBegin
  2
*Model_Space
 70
     0
 10
0.0
 20
0.0
 30
0.0
  3
*Model_Space
  1

  0
ENDBLK
  5
21
330
1F
100
AcDbEntity
  8
0
100
AcDbBlockEnd
  0
BLOCK
  5
1C
330
1B
100
AcDbEntity
 67
     1
  8
0
100
AcDbBlockBegin
  2
*Paper_Space
 70
     0
 10
0.0
 20
0.0
 30
0.0
  3
*Paper_Space
  1

  0
ENDBLK
  5
1D
330
1B
100
AcDbEntity
 67
     1
  8
0
100
AcDbBlockEnd
  0
BLOCK
  5
24
330
23
100
AcDbEntity
 67
     1
  8
0
100
AcDbBlockBegin
  2
*Paper_Space0
 70
     0
 10
0.0
 20
0.0
 30
0.0
  3
*Paper_Space0
  1

  0
ENDBLK
  5
25
330
23
100
AcDbEntity
 67
     1
  8
0
100
AcDbBlockEnd
  0
BLOCK
  5
231
330
22E
100
AcDbEntity
  8
0
100
AcDbBlockBegin
  2
ASSORTED_DRAFT1
 70
     0
 10
0.0
 20
0.0
 30
0.0
  3
ASSORTED_DRAFT1
  1

  0
SOLID
  5
22F
330
22E
100
AcDbEntity
  8
0
 62
   254
370
    13
100
AcDbTrace
 10
270.185042
 20
166.867251
 30
0.0
 11
265.185046
 21
165.758777
 31
0.0
 12
265.1850379999999
 22
167.9757239999999
 32
0.0
 13
270.185042
 23
166.867251
 33
0.0
  0
ENDBLK
  5
232
330
22E
100
AcDbEntity
  8
0
100
AcDbBlockEnd
  0
BLOCK
  5
23D
330
23C
100
AcDbEntity
  8
0
100
AcDbBlockBegin
  2
*D2
 70
     1
 10
0.0
 20
0.0
 30
0.0
  3
*D2
  1

  0
LINE
  5
23F
330
23C
100
AcDbEntity
  8
0
 62
   254
370
    -2
100
AcDbLine
 10
410.4048419999999
 20
307.407994
 30
0.0
 11
410.4048419999999
 21
317.848012
 31
0.0
  0
LINE
  5
240
330
23C
100
AcDbEntity
  8
0
 62
   254
370
    -2
100
AcDbLine
 10
290.942809
 20
306.069528
 30
0.0
 11
290.942809
 21
317.848012
 31
0.0
  0
LINE
  5
241
330
23C
100
AcDbEntity
  8
0
 62
   254
370
    -2
100
AcDbLine
 10
406.9048419999999
 20
316.848012
 30
0.0
 11
294.442809
 21
316.848012
 31
0.0
  0
SOLID
  5
242
330
23C
100
AcDbEntity
  8
0
 62
   254
100
AcDbTrace
 10
406.9048419999999
 20
316.264679
 30
0.0
 11
406.9048419999999
 21
317.431346
 31
0.0
 12
410.4048419999999
 22
316.848012
 32
0.0
 13
410.4048419999999
 23
316.848012
 33
0.0
  0
SOLID
  5
243
330
23C
100
AcDbEntity
  8
0
 62
   254
100
AcDbTrace
 10
294.442809
 20
317.431346
 30
0.0
 11
294.442809
 21
316.264679
 31
0.0
 12
290.942809
 22
316.848012
 32
0.0
 13
290.942809
 23
316.848012
 33
0.0
  0
MTEXT
  5
244
330
23C
100
AcDbEntity
  8
0
 62
   254
370
    13
100
AcDbMText
 10
350.673826
 20
322.098012
 30
0.0
 40
3.5
 41
0.0
 71
     5
 72
     1
  1
\A1;119.5
  7
cesky
 73
     1
 44
1.0
  0
POINT
  5
245
330
23C
100
AcDbEntity
  8
Defpoints
 62
     0
100
AcDbPoint
 10
410.4048419999999
 20
307.407994
 30
0.0
  0
POINT
  5
246
330
23C
100
AcDbEntity
  8
Defpoints
 62
     0
100
AcDbPoint
 10
290.942809
 20
306.069528
 30
0.0
  0
POINT
  5
247
330
23C
100
AcDbEntity
  8
Defpoints
 62
     0
100
AcDbPoint
 10
290.942809
 20
316.848012
 30
0.0
  0
ENDBLK
  5
23E
330
23C
100
AcDbEntity
  8
0
100
AcDbBlockEnd
  0
BLOCK
  5
24F
330
248
100
AcDbEntity
  8
0
100
AcDbBlockBegin
  2
_U0
 70
     0
 10
0.0
 20
0.0
 30
0.0
  3
_U0
  1

  0
ENDBLK
  5
250
330
248
100
AcDbEntity
  8
0
100
AcDbBlockEnd
  0
BLOCK
  5
255
330
254
100
AcDbEntity
  8
0
100
AcDbBlockBegin
  2
*D4
 70
     1
 10
0.0
 20
0.0
 30
0.0
  3
*D4
  1

  0
LINE
  5
257
330
254
100
AcDbEntity
  8
0
 62
   254
370
    -2
100
AcDbLine
 10
410.4048419999999
 20
309.407994
 30
0.0
 11
410.4048419999999
 21
341.687968
 31
0.0
  0
LINE
  5
258
330
254
100
AcDbEntity
  8
0
 62
   254
370
    -2
100
AcDbLine
 10
214.404842
 20
302.907994
 30
0.0
 11
214.404842
 21
341.687968
 31
0.0
  0
LINE
  5
259
330
254
100
AcDbEntity
  8
0
 62
   254
370
    -2
100
AcDbLine
 10
406.9048419999999
 20
340.687968
 30
0.0
 11
217.904842
 21
340.687968
 31
0.0
  0
SOLID
  5
25A
330
254
100
AcDbEntity
  8
0
 62
   254
100
AcDbTrace
 10
406.9048419999999
 20
340.104634
 30
0.0
 11
406.9048419999999
 21
341.271301
 31
0.0
 12
410.4048419999999
 22
340.687968
 32
0.0
 13
410.4048419999999
 23
340.687968
 33
0.0
  0
SOLID
  5
25B
330
254
100
AcDbEntity
  8
0
 62
   254
100
AcDbTrace
 10
217.904842
 20
341.271301
 30
0.0
 11
217.904842
 21
340.104634
 31
0.0
 12
214.404842
 22
340.687968
 32
0.0
 13
214.404842
 23
340.687968
 33
0.0
  0
MTEXT
  5
25C
330
254
100
AcDbEntity
  8
0
 62
   254
370
    13
100
AcDbMText
 10
312.404842
 20
345.937968
 30
0.0
 40
3.5
 41
0.0
 71
     5
 72
     1
  1
\A1;196
  7
cesky
 73
     1
 44
1.0
  0
POINT
  5
25D
330
254
100
AcDbEntity
  8
Defpoints
 62
     0
100
AcDbPoint
 10
410.4048419999999
 20
309.407994
 30
0.0
  0
POINT
  5
25E
330
254
100
AcDbEntity
  8
Defpoints
 62
     0
100
AcDbPoint
 10
214.404842
 20
302.907994
 30
0.0
  0
POINT
  5
25F
330
254
100
AcDbEntity
  8
Defpoints
 62
     0
100
AcDbPoint
 10
214.404842
 20
340.687968
 30
0.0
  0
ENDBLK
  5
256
330
254
100
AcDbEntity
  8
0
100
AcDbBlockEnd
  0
BLOCK
  5
267
330
260
100
AcDbEntity
  8
0
100
AcDbBlockBegin
  2
_U1
 70
     0
 10
0.0
 20
0.0
 30
0.0
  3
_U1
  1

  0
ENDBLK
  5
268
330
260
100
AcDbEntity
  8
0
100
AcDbBlockEnd
  0
BLOCK
  5
26D
330
26C
100
AcDbEntity
  8
0
100
AcDbBlockBegin
  2
*D6
 70
     1
 10
0.0
 20
0.0
 30
0.0
  3
*D6
  1

  0
LINE
  5
26F
330
26C
100
AcDbEntity
  8
0
 62
   254
370
    -2
100
AcDbLine
 10
274.404842
 20
288.907994
 30
0.0
 11
274.404842
 21
328.5109970000001
 31
0.0
  0
LINE
  5
270
330
26C
100
AcDbEntity
  8
0
 62
   254
370
    -2
100
AcDbLine
 10
214.404842
 20
295.907994
 30
0.0
 11
214.404842
 21
328.5109970000001
 31
0.0
  0
LINE
  5
271
330
26C
100
AcDbEntity
  8
0
 62
   254
370
    -2
100
AcDbLine
 10
270.904842
 20
327.510997
 30
0.0
 11
217.904842
 21
327.510997
 31
0.0
  0
SOLID
  5
272
330
26C
100
AcDbEntity
  8
0
 62
   254
100
AcDbTrace
 10
270.904842
 20
326.927663
 30
0.0
 11
270.904842
 21
328.09433
 31
0.0
 12
274.404842
 22
327.510997
 32
0.0
 13
274.404842
 23
327.510997
 33
0.0
  0
SOLID
  5
273
330
26C
100
AcDbEntity
  8
0
 62
   254
100
AcDbTrace
 10
217.904842
 20
328.09433
 30
0.0
 11
217.904842
 21
326.927663
 31
0.0
 12
214.404842
 22
327.510997
 32
0.0
 13
214.404842
 23
327.510997
 33
0.0
  0
MTEXT
  5
274
330
26C
100
AcDbEntity
  8
0
 62
   254
370
    13
100
AcDbMText
 10
244.404842
 20
332.7609970000001
 30
0.0
 40
3.5
 41
0.0
 71
     5
 72
     1
  1
\A1;60
  7
cesky
 73
     1
 44
1.0
  0
POINT
  5
275
330
26C
100
AcDbEntity
  8
Defpoints
 62
     0
100
AcDbPoint
 10
274.404842
 20
288.907994
 30
0.0
  0
POINT
  5
276
330
26C
100
AcDbEntity
  8
Defpoints
 62
     0
100
AcDbPoint
 10
214.404842
 20
295.907994
 30
0.0
  0
POINT
  5
277
330
26C
100
AcDbEntity
  8
Defpoints
 62
     0
100
AcDbPoint
 10
214.404842
 20
327.510997
 30
0.0
  0
ENDBLK
  5
26E
330
26C
100
AcDbEntity
  8
0
100
AcDbBlockEnd
  0
BLOCK
  5
27F
330
278
100
AcDbEntity
  8
0
100
AcDbBlockBegin
  2
_U2
 70
     0
 10
0.0
 20
0.0
 30
0.0
  3
_U2
  1

  0
ENDBLK
  5
280
330
278
100
AcDbEntity
  8
0
100
AcDbBlockEnd
  0
BLOCK
  5
285
330
284
100
AcDbEntity
  8
0
100
AcDbBlockBegin
  2
*D8
 70
     1
 10
0.0
 20
0.0
 30
0.0
  3
*D8
  1

  0
LINE
  5
287
330
284
100
AcDbEntity
  8
0
 62
   254
370
    -2
100
AcDbLine
 10
288.732221
 20
288.907994
 30
0.0
 11
428.33393
 21
288.907994
 31
0.0
  0
LINE
  5
288
330
284
100
AcDbEntity
  8
0
 62
   254
370
    -2
100
AcDbLine
 10
330.83929
 20
307.407994
 30
0.0
 11
428.33393
 21
307.407994
 31
0.0
  0
LINE
  5
289
330
284
100
AcDbEntity
  8
0
 62
   254
370
    -2
100
AcDbLine
 10
427.3339299999999
 20
288.907994
 30
0.0
 11
427.3339299999999
 21
307.407994
 31
0.0
  0
SOLID
  5
28A
330
284
100
AcDbEntity
  8
0
 62
   254
100
AcDbTrace
 10
427.9172629999999
 20
303.907994
 30
0.0
 11
426.750597
 21
303.907994
 31
0.0
 12
427.3339299999999
 22
307.407994
 32
0.0
 13
427.3339299999999
 23
307.407994
 33
0.0
  0
MTEXT
  5
28B
330
284
100
AcDbEntity
  8
0
 62
   254
370
    13
100
AcDbMText
 10
422.0839299999999
 20
279.07466
 30
0.0
 40
3.5
 41
0.0
 71
     5
 72
     1
  1
\A1;37
  7
cesky
 11
0.0
 21
1.0
 31
0.0
 73
     1
 44
1.0
  0
POINT
  5
28C
330
284
100
AcDbEntity
  8
Defpoints
 62
     0
100
AcDbPoint
 10
288.732221
 20
288.907994
 30
0.0
  0
POINT
  5
28D
330
284
100
AcDbEntity
  8
Defpoints
 62
     0
100
AcDbPoint
 10
330.83929
 20
307.407994
 30
0.0
  0
POINT
  5
28E
330
284
100
AcDbEntity
  8
Defpoints
 62
     0
100
AcDbPoint
 10
427.3339299999999
 20
307.407994
 30
0.0
  0
ENDBLK
  5
286
330
284
100
AcDbEntity
  8
0
100
AcDbBlockEnd
  0
BLOCK
  5
295
330
28F
100
AcDbEntity
  8
0
100
AcDbBlockBegin
  2
_U3
 70
     0
 10
0.0
 20
0.0
 30
0.0
  3
_U3
  1

  0
ENDBLK
  5
296
330
28F
100
AcDbEntity
  8
0
100
AcDbBlockEnd
  0
BLOCK
  5
29B
330
29A
100
AcDbEntity
  8
0
100
AcDbBlockBegin
  2
*D10
 70
     1
 10
0.0
 20
0.0
 30
0.0
  3
*D10
  1

  0
LINE
  5
29D
330
29A
100
AcDbEntity
  8
0
 62
    95
370
    -2
100
AcDbLine
 10
216.404842
 20
304.907994
 30
0.0
 11
204.878544
 21
304.907994
 31
0.0
  0
LINE
  5
29E
330
29A
100
AcDbEntity
  8
0
 62
    95
370
    -2
100
AcDbLine
 10
216.404842
 20
272.907994
 30
0.0
 11
204.878544
 21
272.907994
 31
0.0
  0
LINE
  5
29F
330
29A
100
AcDbEntity
  8
0
 62
    95
370
    -2
100
AcDbLine
 10
205.878544
 20
301.407994
 30
0.0
 11
205.878544
 21
276.407994
 31
0.0
  0
SOLID
  5
2A0
330
29A
100
AcDbEntity
  8
0
 62
    95
100
AcDbTrace
 10
206.461878
 20
301.407994
 30
0.0
 11
205.295211
 21
301.407994
 31
0.0
 12
205.878544
 22
304.907994
 32
0.0
 13
205.878544
 23
304.907994
 33
0.0
  0
SOLID
  5
2A1
330
29A
100
AcDbEntity
  8
0
 62
    95
100
AcDbTrace
 10
205.295211
 20
276.407994
 30
0.0
 11
206.461878
 21
276.407994
 31
0.0
 12
205.878544
 22
272.907994
 32
0.0
 13
205.878544
 23
272.907994
 33
0.0
  0
MTEXT
  5
2A2
330
29A
100
AcDbEntity
  8
0
 62
    95
370
    13
100
AcDbMText
 10
200.628544
 20
288.907994
 30
0.0
 40
3.5
 41
0.0
 71
     5
 72
     1
  1
\A1;32
  7
cesky
 11
0.0
 21
1.0
 31
0.0
 73
     1
 44
1.0
  0
POINT
  5
2A3
330
29A
100
AcDbEntity
  8
Defpoints
 62
     0
100
AcDbPoint
 10
216.404842
 20
304.907994
 30
0.0
  0
POINT
  5
2A4
330
29A
100
AcDbEntity
  8
Defpoints
 62
     0
100
AcDbPoint
 10
216.404842
 20
272.907994
 30
0.0
  0
POINT
  5
2A5
330
29A
100
AcDbEntity
  8
Defpoints
 62
     0
100
AcDbPoint
 10
205.878544
 20
272.907994
 30
0.0
  0
ENDBLK
  5
29C
330
29A
100
AcDbEntity
  8
0
100
AcDbBlockEnd
  0
BLOCK
  5
2AE
330
2A6
100
AcDbEntity
  8
0
100
AcDbBlockBegin
  2
_U4
 70
     0
 10
0.0
 20
0.0
 30
0.0
  3
_U4
  1

  0
ENDBLK
  5
2AF
330
2A6
100
AcDbEntity
  8
0
100
AcDbBlockEnd
  0
BLOCK
  5
2B4
330
2B3
100
AcDbEntity
  8
0
100
AcDbBlockBegin
  2
*D12
 70
     1
 10
0.0
 20
0.0
 30
0.0
  3
*D12
  1

  0
LINE
  5
2B6
330
2B3
100
AcDbEntity
  8
0
 62
    95
370
    -2
100
AcDbLine
 10
277.154842
 20
309.907994
 30
0.0
 11
192.519918
 21
309.907994
 31
0.0
  0
LINE
  5
2B7
330
2B3
100
AcDbEntity
  8
0
 62
    95
370
    -2
100
AcDbLine
 10
277.154842
 20
267.907994
 30
0.0
 11
192.519918
 21
267.907994
 31
0.0
  0
LINE
  5
2B8
330
2B3
100
AcDbEntity
  8
0
 62
    95
370
    -2
100
AcDbLine
 10
193.519918
 20
306.407994
 30
0.0
 11
193.519918
 21
271.407994
 31
0.0
  0
SOLID
  5
2B9
330
2B3
100
AcDbEntity
  8
0
 62
    95
100
AcDbTrace
 10
194.103251
 20
306.407994
 30
0.0
 11
192.936584
 21
306.407994
 31
0.0
 12
193.519918
 22
309.907994
 32
0.0
 13
193.519918
 23
309.907994
 33
0.0
  0
SOLID
  5
2BA
330
2B3
100
AcDbEntity
  8
0
 62
    95
100
AcDbTrace
 10
192.936584
 20
271.407994
 30
0.0
 11
194.103251
 21
271.407994
 31
0.0
 12
193.519918
 22
267.907994
 32
0.0
 13
193.519918
 23
267.907994
 33
0.0
  0
MTEXT
  5
2BB
330
2B3
100
AcDbEntity
  8
0
 62
    95
370
    13
100
AcDbMText
 10
188.269918
 20
288.907994
 30
0.0
 40
3.5
 41
0.0
 71
     5
 72
     1
  1
\A1;42
  7
cesky
 11
0.0
 21
1.0
 31
0.0
 73
     1
 44
1.0
  0
POINT
  5
2BC
330
2B3
100
AcDbEntity
  8
Defpoints
 62
     0
100
AcDbPoint
 10
277.154842
 20
309.907994
 30
0.0
  0
POINT
  5
2BD
330
2B3
100
AcDbEntity
  8
Defpoints
 62
     0
100
AcDbPoint
 10
277.154842
 20
267.907994
 30
0.0
  0
POINT
  5
2BE
330
2B3
100
AcDbEntity
  8
Defpoints
 62
     0
100
AcDbPoint
 10
193.519918
 20
267.907994
 30
0.0
  0
ENDBLK
  5
2B5
330
2B3
100
AcDbEntity
  8
0
100
AcDbBlockEnd
  0
BLOCK
  5
2C7
330
2BF
100
AcDbEntity
  8
0
100
AcDbBlockBegin
  2
_U5
 70
     0
 10
0.0
 20
0.0
 30
0.0
  3
_U5
  1

  0
ENDBLK
  5
2C8
330
2BF
100
AcDbEntity
  8
0
100
AcDbBlockEnd
  0
BLOCK
  5
2CD
330
2CC
100
AcDbEntity
  8
0
100
AcDbBlockBegin
  2
*D14
 70
     1
 10
0.0
 20
0.0
 30
0.0
  3
*D14
  1

  0
LINE
  5
2CF
330
2CC
100
AcDbEntity
  8
0
 62
   254
370
    -2
100
AcDbLine
 10
410.4048419999999
 20
307.407994
 30
0.0
 11
410.4048419999999
 21
328.5109970000001
 31
0.0
  0
LINE
  5
2D0
330
2CC
100
AcDbEntity
  8
0
 62
   254
370
    -2
100
AcDbLine
 10
274.404842
 20
288.907994
 30
0.0
 11
274.404842
 21
328.5109970000001
 31
0.0
  0
LINE
  5
2D1
330
2CC
100
AcDbEntity
  8
0
 62
   254
370
    -2
100
AcDbLine
 10
406.9048419999999
 20
327.510997
 30
0.0
 11
277.904842
 21
327.510997
 31
0.0
  0
SOLID
  5
2D2
330
2CC
100
AcDbEntity
  8
0
 62
   254
100
AcDbTrace
 10
406.9048419999999
 20
326.927663
 30
0.0
 11
406.9048419999999
 21
328.09433
 31
0.0
 12
410.4048419999999
 22
327.510997
 32
0.0
 13
410.4048419999999
 23
327.510997
 33
0.0
  0
SOLID
  5
2D3
330
2CC
100
AcDbEntity
  8
0
 62
   254
100
AcDbTrace
 10
277.904842
 20
328.09433
 30
0.0
 11
277.904842
 21
326.927663
 31
0.0
 12
274.404842
 22
327.510997
 32
0.0
 13
274.404842
 23
327.510997
 33
0.0
  0
MTEXT
  5
2D4
330
2CC
100
AcDbEntity
  8
0
 62
   254
370
    13
100
AcDbMText
 10
342.404842
 20
332.7609970000001
 30
0.0
 40
3.5
 41
0.0
 71
     5
 72
     1
  1
\A1;136
  7
cesky
 73
     1
 44
1.0
  0
POINT
  5
2D5
330
2CC
100
AcDbEntity
  8
Defpoints
 62
     0
100
AcDbPoint
 10
410.4048419999999
 20
307.407994
 30
0.0
  0
POINT
  5
2D6
330
2CC
100
AcDbEntity
  8
Defpoints
 62
     0
100
AcDbPoint
 10
274.404842
 20
288.907994
 30
0.0
  0
POINT
  5
2D7
330
2CC
100
AcDbEntity
  8
Defpoints
 62
     0
100
AcDbPoint
 10
274.404842
 20
327.510997
 30
0.0
  0
ENDBLK
  5
2CE
330
2CC
100
AcDbEntity
  8
0
100
AcDbBlockEnd
  0
BLOCK
  5
2DF
330
2D8
100
AcDbEntity
  8
0
100
AcDbBlockBegin
  2
_U6
 70
     0
 10
0.0
 20
0.0
 30
0.0
  3
_U6
  1

  0
ENDBLK
  5
2E0
330
2D8
100
AcDbEntity
  8
0
100
AcDbBlockEnd
  0
ENDSEC
  0
SECTION
  2
ENTITIES
  0
POINT
  5
73
102
{ACAD_REACTORS
330
38C
102
}
330
1F
100
AcDbEntity
  8
80
100
AcDbPoint
 10
274.404842
 20
288.907994
 30
0.0
  0
POINT
  5
76
330
1F
100
AcDbEntity
  8
4
 60
     1
100
AcDbPoint
 10
288.732221
 20
288.907994
 30
0.0
  0
POINT
  5
78
330
1F
100
AcDbEntity
  8
4
 60
     1
100
AcDbPoint
 10
409.326737
 20
288.907994
 30
0.0
  0
POINT
  5
79
330
1F
100
AcDbEntity
  8
SK4
 60
     1
100
AcDbPoint
 10
216.404842
 20
288.907994
 30
0.0
  0
POINT
  5
7A
330
1F
100
AcDbEntity
  8
SK4
 60
     1
100
AcDbPoint
 10
274.404842
 20
288.907994
 30
0.0
  0
POINT
  5
7B
330
1F
100
AcDbEntity
  8
SK6
 60
     1
100
AcDbPoint
 10
290.942809
 20
306.069528
 30
0.0
  0
POINT
  5
7C
330
1F
100
AcDbEntity
  8
SK6
 60
     1
100
AcDbPoint
 10
274.404842
 20
288.907994
 30
0.0
  0
LINE
  5
7D
330
1F
100
AcDbEntity
  8
1
100
AcDbLine
 10
274.404842
 20
309.407994
 30
0.0
 11
274.404842
 21
288.907994
 31
0.0
  0
LINE
  5
7F
330
1F
100
AcDbEntity
  8
1
100
AcDbLine
 10
274.404842
 20
288.907994
 30
0.0
 11
274.404842
 21
268.407994
 31
0.0
  0
LINE
  5
80
330
1F
100
AcDbEntity
  8
1
100
AcDbLine
 10
409.237296
 20
288.821736
 30
0.0
 11
409.69747
 21
287.991559
 31
0.0
  0
LINE
  5
82
330
1F
100
AcDbEntity
  8
1
100
AcDbLine
 10
409.5702669999999
 20
280.704096
 30
0.0
 11
409.0813999999999
 21
279.890484
 31
0.0
  0
LINE
  5
83
330
1F
100
AcDbEntity
  8
1
100
AcDbLine
 10
408.971745
 20
279.784592
 30
0.0
 11
408.465493
 21
279.503971
 31
0.0
  0
LINE
  5
84
330
1F
100
AcDbEntity
  8
1
100
AcDbLine
 10
409.734349
 20
287.843649
 30
0.0
 11
409.6122849999999
 21
280.850629
 31
0.0
  0
LINE
  5
85
330
1F
100
AcDbEntity
  8
80
100
AcDbLine
 10
274.404842
 20
287.90842
 30
0.0
 11
274.404842
 21
289.907567
 31
0.0
  0
LINE
  5
86
330
1F
100
AcDbEntity
  8
81
100
AcDbLine
 10
410.4048419999999
 20
309.407994
 30
0.0
 11
410.4048419999999
 21
305.407994
 31
0.0
  0
LINE
  5
87
330
1F
100
AcDbEntity
  8
81
100
AcDbLine
 10
408.404842
 20
307.407994
 30
0.0
 11
412.4048419999999
 21
307.407994
 31
0.0
  0
LINE
  5
88
330
1F
100
AcDbEntity
  8
SK1
100
AcDbLine
 10
216.404842
 20
272.907994
 30
0.0
 11
274.404842
 21
272.907994
 31
0.0
  0
LINE
  5
89
330
1F
100
AcDbEntity
  8
1
100
AcDbLine
 10
274.904842
 20
267.907994
 30
0.0
 11
279.404842
 21
267.907994
 31
0.0
  0
LINE
  5
8A
330
1F
100
AcDbEntity
  8
1
100
AcDbLine
 10
401.781939
 20
301.4121
 30
0.0
 11
401.748112
 21
301.316197
 31
0.0
  0
LINE
  5
8C
330
1F
100
AcDbEntity
  8
1
100
AcDbLine
 10
401.847069
 20
301.35246
 30
0.0
 11
401.812693
 21
301.254998
 31
0.0
  0
LINE
  5
8D
330
1F
100
AcDbEntity
  8
1
100
AcDbLine
 10
404.603086
 20
300.610332
 30
0.0
 11
404.6374779999999
 21
300.707837
 31
0.0
  0
LINE
  5
8E
330
1F
100
AcDbEntity
  8
1
100
AcDbLine
 10
401.895876
 20
299.87015
 30
0.0
 11
401.8615539999999
 21
299.772841
 31
0.0
  0
LINE
  5
8F
330
1F
100
AcDbEntity
  8
1
100
AcDbLine
 10
401.8525649999999
 20
299.849589
 30
0.0
 11
401.818542
 21
299.75313
 31
0.0
  0
LINE
  5
90
330
1F
100
AcDbEntity
  8
1
100
AcDbLine
 10
403.9115799999999
 20
299.301426
 30
0.0
 11
403.9459169999999
 21
299.398775
 31
0.0
  0
LINE
  5
91
330
1F
100
AcDbEntity
  8
1
100
AcDbLine
 10
403.949152
 20
299.258473
 30
0.0
 11
403.983127
 21
299.354796
 31
0.0
  0
LINE
  5
92
330
1F
100
AcDbEntity
  8
1
100
AcDbLine
 10
409.682658
 20
289.357775
 30
0.0
 11
409.1907579999999
 21
288.882752
 31
0.0
  0
LINE
  5
93
330
1F
100
AcDbEntity
  8
1
100
AcDbLine
 10
409.1907579999999
 20
288.882752
 30
0.0
 11
408.852843
 21
288.556432
 31
0.0
  0
LINE
  5
94
330
1F
100
AcDbEntity
  8
1
100
AcDbLine
 10
410.3880619999999
 20
288.08519
 30
0.0
 11
409.7245529999999
 21
287.919759
 31
0.0
  0
LINE
  5
95
330
1F
100
AcDbEntity
  8
1
100
AcDbLine
 10
409.0735079999999
 20
287.757435
 30
0.0
 11
409.7245529999999
 21
287.919759
 31
0.0
  0
LINE
  5
96
330
1F
100
AcDbEntity
  8
1
100
AcDbLine
 10
409.59984
 20
280.774907
 30
0.0
 11
408.9548559999999
 21
280.959853
 31
0.0
  0
LINE
  5
97
330
1F
100
AcDbEntity
  8
1
100
AcDbLine
 10
409.59984
 20
280.774907
 30
0.0
 11
410.264067
 21
280.584443
 31
0.0
  0
LINE
  5
98
330
1F
100
AcDbEntity
  8
1
100
AcDbLine
 10
408.566662
 20
280.313789
 30
0.0
 11
409.032761
 21
279.83113
 31
0.0
  0
LINE
  5
99
330
1F
100
AcDbEntity
  8
1
100
AcDbLine
 10
409.507783
 20
279.33923
 30
0.0
 11
409.032761
 21
279.83113
 31
0.0
  0
LINE
  5
9A
330
1F
100
AcDbEntity
  8
1
100
AcDbLine
 10
394.839535
 20
293.609651
 30
0.0
 11
394.8429
 21
293.619192
 31
0.0
  0
LINE
  5
9B
330
1F
100
AcDbEntity
  8
1
100
AcDbLine
 10
391.555161
 20
294.965992
 30
0.0
 11
390.2139850000001
 21
295.739105
 31
0.0
  0
LINE
  5
9C
330
1F
100
AcDbEntity
  8
1
100
AcDbLine
 10
407.6890439999999
 20
293.617192
 30
0.0
 11
398.285239
 21
293.289146
 31
0.0
  0
LINE
  5
9D
330
1F
100
AcDbEntity
  8
1
100
AcDbLine
 10
399.755054
 20
301.835204
 30
0.0
 11
399.754945
 21
301.834896
 31
0.0
  0
LINE
  5
9E
330
1F
100
AcDbEntity
  8
1
100
AcDbLine
 10
288.732221
 20
270.907994
 30
0.0
 11
299.367459
 21
270.907994
 31
0.0
  0
LINE
  5
9F
330
1F
100
AcDbEntity
  8
1
100
AcDbLine
 10
396.9619
 20
306.907994
 30
0.0
 11
390.934495
 21
306.907994
 31
0.0
  0
LINE
  5
A0
330
1F
100
AcDbEntity
  8
1
100
AcDbLine
 10
300.474223
 20
306.907994
 30
0.0
 11
288.732221
 21
306.907994
 31
0.0
  0
LINE
  5
A1
330
1F
100
AcDbEntity
  8
1
100
AcDbLine
 10
391.533664
 20
294.91539
 30
0.0
 11
391.228212
 21
295.0895089999999
 31
0.0
  0
LINE
  5
A2
330
1F
100
AcDbEntity
  8
1
100
AcDbLine
 10
279.404842
 20
267.907994
 30
0.0
 11
279.404842
 21
271.2715740000001
 31
0.0
  0
LINE
  5
A3
330
1F
100
AcDbEntity
  8
1
100
AcDbLine
 10
279.404842
 20
309.907994
 30
0.0
 11
279.404842
 21
280.609165
 31
0.0
  0
LINE
  5
A4
330
1F
100
AcDbEntity
  8
1
100
AcDbLine
 10
407.027866
 20
283.153494
 30
0.0
 11
407.3878829999999
 21
283.153494
 31
0.0
  0
LINE
  5
A5
330
1F
100
AcDbEntity
  8
1
100
AcDbLine
 10
408.852845
 20
288.164371
 30
0.0
 11
409.0612919999999
 21
287.788323
 31
0.0
  0
LINE
  5
A6
330
1F
100
AcDbEntity
  8
1
100
AcDbLine
 10
408.85283
 20
289.098775
 30
0.0
 11
409.1314029999999
 21
288.931391
 31
0.0
  0
LINE
  5
A7
330
1F
100
AcDbEntity
  8
1
100
AcDbLine
 10
408.95972
 20
280.992711
 30
0.0
 11
409.0772229999999
 21
287.724428
 31
0.0
  0
LINE
  5
A8
330
1F
100
AcDbEntity
  8
1
100
AcDbLine
 10
408.587303
 20
280.339813
 30
0.0
 11
408.941569
 21
280.92941
 31
0.0
  0
LINE
  5
A9
330
1F
100
AcDbEntity
  8
1
100
AcDbLine
 10
410.3593819999999
 20
288.156592
 30
0.0
 11
409.7280109999999
 21
289.295615
 31
0.0
  0
LINE
  5
AA
330
1F
100
AcDbEntity
  8
1
100
AcDbLine
 10
409.623573
 20
289.406675
 30
0.0
 11
409.4381359999999
 21
289.524481
 31
0.0
  0
LINE
  5
AB
330
1F
100
AcDbEntity
  8
1
100
AcDbLine
 10
409.121318
 20
289.714844
 30
0.0
 11
409.4381359999999
 21
289.524481
 31
0.0
  0
LINE
  5
AC
330
1F
100
AcDbEntity
  8
1
100
AcDbLine
 10
409.556683
 20
279.398314
 30
0.0
 11
409.67449
 21
279.583751
 31
0.0
  0
LINE
  5
AD
330
1F
100
AcDbEntity
  8
1
100
AcDbLine
 10
410.233406
 20
280.513944
 30
0.0
 11
409.67449
 21
279.583751
 31
0.0
  0
LINE
  5
AE
330
1F
100
AcDbEntity
  8
1
100
AcDbLine
 10
410.3998609999999
 20
287.789483
 30
0.0
 11
410.275424
 21
280.660477
 31
0.0
  0
LINE
  5
AF
330
1F
100
AcDbEntity
  8
1
100
AcDbLine
 10
410.3998609999999
 20
287.789483
 30
0.0
 11
410.398222
 21
288.009171
 31
0.0
  0
LINE
  5
B0
330
1F
100
AcDbEntity
  8
1
100
AcDbLine
 10
408.6663899999999
 20
278.86194
 30
0.0
 11
409.445624
 21
279.293876
 31
0.0
  0
LINE
  5
B1
330
1F
100
AcDbEntity
  8
1
100
AcDbLine
 10
408.125139
 20
270.907994
 30
0.0
 11
390.8150799999999
 21
270.907994
 31
0.0
  0
LINE
  5
B2
330
1F
100
AcDbEntity
  8
1
100
AcDbLine
 10
274.904842
 20
267.907994
 30
0.0
 11
274.904842
 21
288.907994
 31
0.0
  0
LINE
  5
B3
330
1F
100
AcDbEntity
  8
1
100
AcDbLine
 10
274.904842
 20
288.907994
 30
0.0
 11
274.904842
 21
309.907994
 31
0.0
  0
LINE
  5
B4
330
1F
100
AcDbEntity
  8
1
100
AcDbLine
 10
402.4218929999999
 20
299.244804
 30
0.0
 11
402.456176
 21
299.342002
 31
0.0
  0
LINE
  5
B5
330
1F
100
AcDbEntity
  8
1
100
AcDbLine
 10
403.21766
 20
299.188782
 30
0.0
 11
403.183246
 21
299.091213
 31
0.0
  0
LINE
  5
B6
330
1F
100
AcDbEntity
  8
1
100
AcDbLine
 10
401.847764
 20
300.788585
 30
0.0
 11
401.8832549999999
 21
300.889206
 31
0.0
  0
LINE
  5
B7
330
1F
100
AcDbEntity
  8
1
100
AcDbLine
 10
404.435518
 20
300.439148
 30
0.0
 11
404.4000279999999
 21
300.338526
 31
0.0
  0
LINE
  5
B8
330
1F
100
AcDbEntity
  8
1
100
AcDbLine
 10
403.0645449999999
 20
302.035898
 30
0.0
 11
403.0989589999999
 21
302.133466
 31
0.0
  0
LINE
  5
B9
330
1F
100
AcDbEntity
  8
1
100
AcDbLine
 10
403.841946
 20
301.927804
 30
0.0
 11
403.825899
 21
301.882307
 31
0.0
  0
LINE
  5
BA
330
1F
100
AcDbEntity
  8
1
100
AcDbLine
 10
399.755054
 20
301.835204
 30
0.0
 11
399.738924
 21
301.789474
 31
0.0
  0
LINE
  5
BB
330
1F
100
AcDbEntity
  8
1
100
AcDbLine
 10
406.5289339999999
 20
299.394527
 30
0.0
 11
406.5450629999999
 21
299.440257
 31
0.0
  0
LINE
  5
BC
330
1F
100
AcDbEntity
  8
SK1
100
AcDbLine
 10
214.404842
 20
274.907994
 30
0.0
 11
216.404842
 21
272.907994
 31
0.0
  0
LINE
  5
BD
330
1F
100
AcDbEntity
  8
SK1
100
AcDbLine
 10
216.404842
 20
304.907994
 30
0.0
 11
214.404842
 21
302.907994
 31
0.0
  0
LINE
  5
BE
330
1F
100
AcDbEntity
  8
SK1
100
AcDbLine
 10
274.404842
 20
304.907994
 30
0.0
 11
216.404842
 21
304.907994
 31
0.0
  0
LINE
  5
BF
330
1F
100
AcDbEntity
  8
1
100
AcDbLine
 10
274.904842
 20
267.907994
 30
0.0
 11
274.404842
 21
268.407994
 31
0.0
  0
LINE
  5
C0
330
1F
100
AcDbEntity
  8
1
100
AcDbLine
 10
274.404842
 20
309.407994
 30
0.0
 11
274.904842
 21
309.907994
 31
0.0
  0
LINE
  5
C1
330
1F
100
AcDbEntity
  8
1
100
AcDbLine
 10
279.404842
 20
309.907994
 30
0.0
 11
274.904842
 21
309.907994
 31
0.0
  0
LINE
  5
C6
330
1F
100
AcDbEntity
  8
80
100
AcDbLine
 10
275.404416
 20
288.907994
 30
0.0
 11
273.405268
 21
288.907994
 31
0.0
  0
LINE
  5
C7
330
1F
100
AcDbEntity
  8
1
100
AcDbLine
 10
397.0477160000001
 20
306.745831
 30
0.0
 11
397.042455
 21
306.898936
 31
0.0
  0
LINE
  5
C8
330
1F
100
AcDbEntity
  8
1
100
AcDbLine
 10
400.514203
 20
294.127809
 30
0.0
 11
409.234464
 21
294.43201
 31
0.0
  0
LINE
  5
C9
330
1F
100
AcDbEntity
  8
1
100
AcDbLine
 10
409.2362759999999
 20
294.170874
 30
0.0
 11
409.234464
 21
294.43201
 31
0.0
  0
LINE
  5
CA
330
1F
100
AcDbEntity
  8
1
100
AcDbLine
 10
409.160356
 20
293.640825
 30
0.0
 11
398.293071
 21
293.261726
 31
0.0
  0
LINE
  5
CB
330
1F
100
AcDbEntity
  8
1
100
AcDbLine
 10
409.160356
 20
293.640825
 30
0.0
 11
406.8989059999999
 21
289.89412
 31
0.0
  0
LINE
  5
CC
330
1F
100
AcDbEntity
  8
1
100
AcDbLine
 10
409.276469
 20
294.448128
 30
0.0
 11
400.519435
 21
294.142644
 31
0.0
  0
LINE
  5
CD
330
1F
100
AcDbEntity
  8
1
100
AcDbLine
 10
400.514203
 20
294.127809
 30
0.0
 11
400.519435
 21
294.142644
 31
0.0
  0
LINE
  5
CE
330
1F
100
AcDbEntity
  8
1
100
AcDbLine
 10
408.923111
 20
289.687909
 30
0.0
 11
409.09918
 21
289.684835
 31
0.0
  0
LINE
  5
CF
330
1F
100
AcDbEntity
  8
1
100
AcDbLine
 10
409.09918
 20
289.684835
 30
0.0
 11
409.38268
 21
290.069008
 31
0.0
  0
LINE
  5
D0
330
1F
100
AcDbEntity
  8
1
100
AcDbLine
 10
409.38268
 20
290.307619
 30
0.0
 11
409.38268
 21
290.069008
 31
0.0
  0
LINE
  5
D1
330
1F
100
AcDbEntity
  8
1
100
AcDbLine
 10
409.38268
 20
290.307619
 30
0.0
 11
409.424842
 21
290.306883
 31
0.0
  0
LINE
  5
D2
330
1F
100
AcDbEntity
  8
1
100
AcDbLine
 10
409.424842
 20
294.729735
 30
0.0
 11
409.424842
 21
290.306883
 31
0.0
  0
LINE
  5
D3
330
1F
100
AcDbEntity
  8
1
100
AcDbLine
 10
409.276469
 20
294.448128
 30
0.0
 11
409.2749129999999
 21
294.6722049999999
 31
0.0
  0
LINE
  5
D4
330
1F
100
AcDbEntity
  8
1
100
AcDbLine
 10
409.276469
 20
294.448128
 30
0.0
 11
409.234464
 21
294.43201
 31
0.0
  0
LINE
  5
D5
330
1F
100
AcDbEntity
  8
1
100
AcDbLine
 10
409.160356
 20
293.640825
 30
0.0
 11
409.169736
 21
293.644425
 31
0.0
  0
LINE
  5
D6
330
1F
100
AcDbEntity
  8
1
100
AcDbLine
 10
408.125139
 20
270.907994
 30
0.0
 11
408.905624
 21
278.26154
 31
0.0
  0
LINE
  5
D7
330
1F
100
AcDbEntity
  8
1
100
AcDbLine
 10
408.905624
 20
278.26154
 30
0.0
 11
408.863533
 21
278.262213
 31
0.0
  0
LINE
  5
D8
330
1F
100
AcDbEntity
  8
1
100
AcDbLine
 10
408.8888149999999
 20
278.500413
 30
0.0
 11
408.863533
 21
278.262213
 31
0.0
  0
LINE
  5
D9
330
1F
100
AcDbEntity
  8
1
100
AcDbLine
 10
408.8888149999999
 20
278.500413
 30
0.0
 11
408.6470249999999
 21
278.893394
 31
0.0
  0
LINE
  5
DA
330
1F
100
AcDbEntity
  8
1
100
AcDbLine
 10
408.6470249999999
 20
278.893394
 30
0.0
 11
408.4712549999999
 21
278.896207
 31
0.0
  0
LINE
  5
DB
330
1F
100
AcDbEntity
  8
1
100
AcDbLine
 10
408.454089
 20
279.396546
 30
0.0
 11
408.852841
 21
283.153494
 31
0.0
  0
LINE
  5
DC
330
1F
100
AcDbEntity
  8
1
100
AcDbLine
 10
408.039293
 20
283.153494
 30
0.0
 11
408.852841
 21
283.153494
 31
0.0
  0
LINE
  5
DD
330
1F
100
AcDbEntity
  8
1
100
AcDbLine
 10
408.852841
 20
283.153494
 30
0.0
 11
408.852841
 21
289.189059
 31
0.0
  0
LINE
  5
DE
330
1F
100
AcDbEntity
  8
1
100
AcDbLine
 10
396.777897
 20
306.311105
 30
0.0
 11
396.759398
 21
306.849399
 31
0.0
  0
LINE
  5
DF
330
1F
100
AcDbEntity
  8
SK1
100
AcDbLine
 10
216.404842
 20
304.907994
 30
0.0
 11
216.404842
 21
272.907994
 31
0.0
  0
LINE
  5
E0
330
1F
100
AcDbEntity
  8
SK1
100
AcDbLine
 10
214.404842
 20
302.907994
 30
0.0
 11
214.404842
 21
274.907994
 31
0.0
  0
LINE
  5
E1
330
1F
100
AcDbEntity
  8
1
100
AcDbLine
 10
396.855411
 20
297.527125
 30
0.0
 11
396.850179
 21
297.51229
 31
0.0
  0
LINE
  5
E2
330
1F
100
AcDbEntity
  8
1
100
AcDbLine
 10
396.855411
 20
297.527125
 30
0.0
 11
396.535034
 21
306.849714
 31
0.0
  0
LINE
  5
E3
330
1F
100
AcDbEntity
  8
1
100
AcDbLine
 10
396.530207
 20
306.823083
 30
0.0
 11
396.850179
 21
297.51229
 31
0.0
  0
LINE
  5
E4
330
1F
100
AcDbEntity
  8
1
100
AcDbLine
 10
409.4463779999999
 20
306.560704
 30
0.0
 11
409.844963
 21
295.434119
 31
0.0
  0
LINE
  5
E5
330
1F
100
AcDbEntity
  8
1
100
AcDbLine
 10
397.50455
 20
306.920164
 30
0.0
 11
408.642729
 21
307.308713
 31
0.0
  0
LINE
  5
E6
330
1F
100
AcDbEntity
  8
1
100
AcDbLine
 10
397.155018
 20
294.991437
 30
0.0
 11
396.756432
 21
306.118022
 31
0.0
  0
LINE
  5
E7
330
1F
100
AcDbEntity
  8
1
100
AcDbLine
 10
409.096846
 20
294.631977
 30
0.0
 11
397.958667
 21
294.243428
 31
0.0
  0
LINE
  5
E8
330
1F
100
AcDbEntity
  8
1
100
AcDbLine
 10
398.961034
 20
296.1157379999999
 30
0.0
 11
398.63922
 21
305.099252
 31
0.0
  0
LINE
  5
E9
330
1F
100
AcDbEntity
  8
1
100
AcDbLine
 10
407.9539089999999
 20
296.42945
 30
0.0
 11
398.961034
 21
296.1157379999999
 31
0.0
  0
LINE
  5
EA
330
1F
100
AcDbEntity
  8
1
100
AcDbLine
 10
407.632094
 20
305.412963
 30
0.0
 11
407.9539089999999
 21
296.42945
 31
0.0
  0
LINE
  5
EB
330
1F
100
AcDbEntity
  8
1
100
AcDbLine
 10
398.63922
 20
305.099252
 30
0.0
 11
407.632094
 21
305.412963
 31
0.0
  0
LINE
  5
140
330
1F
100
AcDbEntity
  8
NOCUT
100
AcDbLine
 10
274.404842
 20
304.907994
 30
0.0
 11
216.404842
 21
304.907994
 31
0.0
  0
LINE
  5
141
330
1F
100
AcDbEntity
  8
NOCUT
100
AcDbLine
 10
409.00456
 20
306.907994
 30
0.0
 11
409.424842
 21
294.976049
 31
0.0
  0
LINE
  5
142
330
1F
100
AcDbEntity
  8
NOCUT
100
AcDbLine
 10
409.424842
 20
294.976049
 30
0.0
 11
409.424842
 21
288.907994
 31
0.0
  0
LINE
  5
143
330
1F
100
AcDbEntity
  8
NOCUT
100
AcDbLine
 10
409.424842
 20
288.907994
 30
0.0
 11
214.404842
 21
288.907994
 31
0.0
  0
LINE
  5
144
330
1F
100
AcDbEntity
  8
NOCUT
100
AcDbLine
 10
279.404842
 20
309.907994
 30
0.0
 11
274.904842
 21
309.907994
 31
0.0
  0
LINE
  5
145
330
1F
100
AcDbEntity
  8
NOCUT
100
AcDbLine
 10
214.404842
 20
302.907994
 30
0.0
 11
214.404842
 21
288.907994
 31
0.0
  0
LINE
  5
146
330
1F
100
AcDbEntity
  8
NOCUT
100
AcDbLine
 10
288.732221
 20
306.907994
 30
0.0
 11
409.00456
 21
306.907994
 31
0.0
  0
LINE
  5
147
330
1F
100
AcDbEntity
  8
NOCUT
100
AcDbLine
 10
274.404842
 20
304.907994
 30
0.0
 11
274.404842
 21
309.407994
 31
0.0
  0
LINE
  5
148
330
1F
100
AcDbEntity
  8
NOCUT
100
AcDbLine
 10
274.404842
 20
309.407994
 30
0.0
 11
274.904842
 21
309.907994
 31
0.0
  0
LINE
  5
149
330
1F
100
AcDbEntity
  8
NOCUT
100
AcDbLine
 10
214.404842
 20
302.907994
 30
0.0
 11
216.404842
 21
304.907994
 31
0.0
  0
ARC
  5
152
330
1F
100
AcDbEntity
  8
1
100
AcDbCircle
 10
404.418941
 20
284.60888
 30
0.0
 40
1.75
100
AcDbArc
 50
75.0
 51
345.0
  0
ARC
  5
153
330
1F
100
AcDbEntity
  8
1
100
AcDbCircle
 10
288.732221
 20
254.907994
 30
0.0
 40
16.0
100
AcDbArc
 50
90.0
 51
125.659088
  0
ARC
  5
154
330
1F
100
AcDbEntity
  8
1
100
AcDbCircle
 10
288.732221
 20
322.907994
 30
0.0
 40
16.0
100
AcDbArc
 50
234.340912
 51
270.0
  0
CIRCLE
  5
155
330
1F
100
AcDbEntity
  8
1
100
AcDbCircle
 10
404.418941
 20
284.60888
 30
0.0
 40
1.35
  0
ARC
  5
161
330
1F
100
AcDbEntity
  8
NOCUT
100
AcDbCircle
 10
288.732221
 20
322.907994
 30
0.0
 40
16.0
100
AcDbArc
 50
234.340912
 51
270.0
  0
ELLIPSE
  5
162
330
1F
100
AcDbEntity
  8
1
100
AcDbEllipse
 10
409.3701499999999
 20
287.831396
 30
0.0
 11
0.343277759439539
 21
0.1251912095480309
 31
0.0
210
0.0
220
0.0
230
1.0
 40
0.81881
 41
6.264719808943821
 42
6.411625122404851
  0
ELLIPSE
  5
163
330
1F
100
AcDbEntity
  8
1
100
AcDbEllipse
 10
408.928017
 20
288.6290259999999
 30
0.0
 11
0.2880776818920591
 21
0.2247748264268664
 31
0.0
210
0.0
220
0.0
230
1.0
 40
0.8188099999999998
 41
6.15474550201455
 42
6.301650811526807
  0
ELLIPSE
  5
164
330
1F
100
AcDbEntity
  8
1
100
AcDbEllipse
 10
408.779035
 20
280.0938700000001
 30
0.0
 11
0.2800576342630264
 21
-0.2346916470086008
 31
0.0
210
0.0
220
0.0
230
1.0
 40
0.81881
 41
6.264719813120449
 42
6.411625129721032
  0
ELLIPSE
  5
165
330
1F
100
AcDbEntity
  8
1
100
AcDbEllipse
 10
409.2487359999999
 20
280.875584
 30
0.0
 11
0.338699523702553
 21
-0.1370951617929964
 31
0.0
210
0.0
220
0.0
230
1.0
 40
0.81881
 41
6.154745486540405
 42
6.301650802297415
  0
ELLIPSE
  5
166
330
1F
100
AcDbEntity
  8
1
100
AcDbEllipse
 10
408.779035
 20
280.0938700000001
 30
0.0
 11
0.2247748072035451
 21
-0.2880776492433529
 31
0.0
210
0.0
220
0.0
230
1.0
 40
0.8188100000000002
 41
6.154745484358276
 42
6.30165080143449
  0
ELLIPSE
  5
167
330
1F
100
AcDbEntity
  8
1
100
AcDbEllipse
 10
408.928017
 20
288.6290259999999
 30
0.0
 11
0.2346916559869956
 21
0.280057648630597
 31
0.0
210
0.0
220
0.0
230
1.0
 40
0.81881
 41
6.264719808288193
 42
6.41162512150877
  0
ELLIPSE
  5
168
330
1F
100
AcDbEntity
  8
1
100
AcDbEllipse
 10
409.2487359999999
 20
280.875584
 30
0.0
 11
0.3598828753735412
 21
-0.0632201120455706
 31
0.0
210
0.0
220
0.0
230
0.9999999999999998
 40
0.81881
 41
6.264719805459566
 42
6.411625116858402
  0
ELLIPSE
  5
169
330
1F
100
AcDbEntity
  8
1
100
AcDbEllipse
 10
409.3701499999999
 20
287.831396
 30
0.0
 11
0.3618699702781652
 21
0.0506218684191481
 31
0.0
210
0.0
220
0.0
230
0.9999999999999998
 40
0.8188100000000002
 41
6.154745486660669
 42
6.301650802907968
  0
ELLIPSE
  5
16A
330
1F
100
AcDbEntity
  8
1
100
AcDbEllipse
 10
403.150059
 20
300.637731
 30
0.0
 11
-3.395004864809725
 21
1.197473159581585
 31
0.0
210
0.0
220
0.0
230
0.9999999999999998
 40
0.9986239999999998
 41
3.141585274248861
 42
5.872218228534566
  0
ELLIPSE
  5
16B
330
1F
100
AcDbEntity
  8
1
100
AcDbEllipse
 10
403.150059
 20
300.637731
 30
0.0
 11
-3.395004864809725
 21
1.197473159581585
 31
0.0
210
0.0
220
0.0
230
0.9999999999999998
 40
0.9986239999999998
 41
5.87221822853457
 42
6.283185307179585
  0
ELLIPSE
  5
16C
330
1F
100
AcDbEntity
  8
1
100
AcDbEllipse
 10
408.343623
 20
280.544753
 30
0.0
 11
-0.223038816141459
 21
0.2309634552664429
 31
0.0
210
-0.0000000000000001
220
0.0
230
0.9999999999999998
 40
0.6229040000000001
 41
2.976210626445535
 42
3.306974680734076
  0
ELLIPSE
  5
16D
330
1F
100
AcDbEntity
  8
1
100
AcDbEllipse
 10
301.194741
 20
269.78271
 30
0.0
 11
-24.73526086517431
 21
5.120765459625424
 31
0.0
210
0.0
220
0.0
230
0.9999999999999998
 40
0.516025
 41
4.750015167429155
 42
6.15170283818186
  0
ELLIPSE
  5
16E
330
1F
100
AcDbEntity
  8
1
100
AcDbEllipse
 10
399.41402
 20
310.323759
 30
0.0
 11
7.101139876435761
 21
15.80442206676622
 31
0.0
210
0.0
220
0.0
230
1.0
 40
0.7249660000000001
 41
3.072029319653116
 42
3.078236797886845
  0
ELLIPSE
  5
16F
330
1F
100
AcDbEntity
  8
1
100
AcDbEllipse
 10
402.4003839999999
 20
288.907994
 30
0.0
 11
30.87180534196875
 21
-17.75819781667253
 31
0.0
210
0.0
220
0.0
230
1.0
 40
0.095248
 41
4.149924383166803
 42
4.414545463414174
  0
ELLIPSE
  5
170
330
1F
100
AcDbEntity
  8
1
100
AcDbEllipse
 10
408.761969
 20
287.67976
 30
0.0
 11
-0.3115396276772998
 21
-0.0776755531752887
 31
0.0
210
-0.0000000000000001
220
0.0
230
1.0
 40
0.6229040000000001
 41
2.976210626445514
 42
3.306974680734071
  0
ELLIPSE
  5
171
330
1F
100
AcDbEntity
  8
1
100
AcDbEllipse
 10
408.6462169999999
 20
281.048354
 30
0.0
 11
-0.3086390084417319
 21
0.0885008115358406
 31
0.0
210
0.0
220
0.0
230
0.9999999999999998
 40
0.6229040000000001
 41
2.976210626445484
 42
3.306974680734084
  0
ELLIPSE
  5
172
330
1F
100
AcDbEntity
  8
1
100
AcDbEllipse
 10
409.473427
 20
289.155723
 30
0.0
 11
0.1593661330609566
 21
-0.2546671896323417
 31
0.0
210
0.0
220
0.0
230
1.0
 40
0.9668320000000001
 41
1.515965208576361
 42
2.029724467177573
  0
ELLIPSE
  5
173
330
1F
100
AcDbEntity
  8
1
100
AcDbEllipse
 10
409.9699069999999
 20
280.668792
 30
0.0
 11
-0.2941597133632818
 21
0.0843489404830548
 31
0.0
210
0.0
220
0.0
230
0.9999999999999998
 40
0.9803469999999999
 41
2.884713024277101
 42
3.398472282902498
  0
ELLIPSE
  5
174
330
1F
100
AcDbEntity
  8
1
100
AcDbEllipse
 10
409.3057319999999
 20
279.54846
 30
0.0
 11
0.2546671891284913
 21
0.1593661336256517
 31
0.0
210
0.0
220
0.0
230
1.0
 40
0.9668319999999999
 41
4.657557859574152
 42
5.171317118389278
  0
ELLIPSE
  5
175
330
1F
100
AcDbEntity
  8
1
100
AcDbEllipse
 10
410.105838
 20
288.014824
 30
0.0
 11
0.1315188408467561
 21
-0.270103195629769
 31
0.0
210
0.0
220
0.0
230
1.0
 40
0.9668319999999999
 41
1.111868188032825
 42
1.62562744678802
  0
ELLIPSE
  5
176
330
1F
100
AcDbEntity
  8
1
100
AcDbEllipse
 10
397.162511
 20
288.907854
 30
0.0
 11
0.6019706177305198
 21
-18.00013590132398
 31
0.0
210
0.0
220
0.0
230
1.0
 40
0.0191
 41
3.221445704923096
 42
3.238123269840241
  0
ELLIPSE
  5
177
330
1F
100
AcDbEntity
  8
1
100
AcDbEllipse
 10
324.372743
 20
288.907994
 30
0.0
 11
102.0735201038196
 21
-15.45867755936451
 31
0.0
210
0.0
220
0.0
230
0.9999999999999998
 40
0.090338
 41
4.398222068639066
 42
4.514189405355186
  0
ELLIPSE
  5
178
330
1F
100
AcDbEntity
  8
1
100
AcDbEllipse
 10
397.833024
 20
305.841586
 30
0.0
 11
-11.88251702683404
 21
4.191156058535553
 31
0.0
210
0.0
220
0.0
230
1.0
 40
0.9986239999999998
 41
1.386722154625869
 42
1.945227515264129
  0
ELLIPSE
  5
179
330
1F
100
AcDbEntity
  8
1
100
AcDbEllipse
 10
302.904842
 20
277.490469
 30
0.0
 11
-2.96101604732725
 21
-9.551564477481132
 31
0.0
210
0.0
220
0.0
230
0.9999999999999998
 40
0.179214
 41
4.188226022470717
 42
5.526731357666525
  0
ELLIPSE
  5
17A
330
1F
100
AcDbEntity
  8
1
100
AcDbEllipse
 10
397.63298
 20
288.907993
 30
0.0
 11
0.6019657182254607
 21
-17.99999641739099
 31
0.0
210
0.0
220
0.0
230
1.0
 40
0.0191
 41
3.019331101779372
 42
3.109228726260433
  0
ELLIPSE
  5
17B
330
1F
100
AcDbEntity
  8
1
100
AcDbEllipse
 10
398.79444
 20
295.941327
 30
0.0
 11
2.357642267228976
 21
-0.8315785830427666
 31
0.0
210
0.0
220
0.0
230
1.0
 40
0.9986239999999998
 41
5.633253637681683
 42
5.809792633311543
  0
ELLIPSE
  5
17C
330
1F
100
AcDbEntity
  8
1
100
AcDbEllipse
 10
397.456636
 20
288.907994
 30
0.0
 11
0.5047094091383349
 21
-17.99986023180167
 31
0.0
210
0.0
220
0.0
230
1.0
 40
0.140543
 41
3.105926729803234
 42
3.218361562483311
  0
ELLIPSE
  5
17D
330
1F
100
AcDbEntity
  8
1
100
AcDbEllipse
 10
277.670808
 20
288.907993
 30
0.0
 11
470.3283160621063
 21
17.55344685984233
 31
0.0
210
0.0
220
0.0
230
0.9999999999999998
 40
0.008472
 41
4.971713574081769
 42
4.990414393575018
  0
ELLIPSE
  5
17E
330
1F
100
AcDbEntity
  8
1
100
AcDbEllipse
 10
398.799673
 20
295.956162
 30
0.0
 11
-2.357642267228975
 21
0.831578583042768
 31
0.0
210
0.0
220
0.0
230
1.0
 40
0.9986239999999998
 41
2.66819997972175
 42
2.776747666076896
  0
ELLIPSE
  5
17F
330
1F
100
AcDbEntity
  8
1
100
AcDbEllipse
 10
408.923111
 20
289.187832
 30
0.0
 11
0.0001758288822662
 21
-0.5000776676663996
 31
0.0
210
0.0
220
0.0
230
0.9999999999999998
 40
0.140519
 41
3.139090475969509
 42
4.709886802763135
  0
ELLIPSE
  5
180
330
1F
100
AcDbEntity
  8
1
100
AcDbEllipse
 10
409.1662679999999
 20
294.144011
 30
0.0
 11
0.0003016037634377
 21
0.5003084758556815
 31
0.0
210
0.0
220
0.0
230
0.9999999999999998
 40
0.140101
 41
3.195395734393787
 42
4.766192061193405
  0
ELLIPSE
  5
181
330
1F
100
AcDbEntity
  8
1
100
AcDbEllipse
 10
408.5242399999999
 20
279.395423
 30
0.0
 11
0.0538770024364585
 21
0.4991611425139152
 31
0.0
210
0.0
220
0.0
230
1.0
 40
0.139171
 41
1.583568179257914
 42
3.154364506041845
  0
ELLIPSE
  5
182
330
1F
100
AcDbEntity
  8
1
100
AcDbEllipse
 10
410.035608
 20
288.907994
 30
0.0
 11
1.94829784956485
 21
17.99796429379694
 31
0.0
210
0.0
220
0.0
230
1.0
 40
0.138944
 41
1.911243059568043
 42
3.156632395651103
  0
ELLIPSE
  5
183
330
1F
100
AcDbEntity
  8
1
100
AcDbEllipse
 10
409.424842
 20
288.907994
 30
0.0
 11
0.0
 21
17.99999999938321
 31
0.0
210
0.0
220
0.0
230
1.0
 40
0.140541
 41
1.515984066617309
 42
1.896203317518162
  0
ELLIPSE
  5
184
330
1F
100
AcDbEntity
  8
1
100
AcDbEllipse
 10
398.880952
 20
296.186599
 30
0.0
 11
-2.357642267228974
 21
0.8315785830427676
 31
0.0
210
0.0
220
0.0
230
1.0
 40
0.998624
 41
0.0520252572636118
 42
1.945227431237595
  0
ELLIPSE
  5
185
330
1F
100
AcDbEntity
  8
1
100
AcDbEllipse
 10
398.880952
 20
296.186599
 30
0.0
 11
-2.357642267228974
 21
0.8315785830427676
 31
0.0
210
0.0
220
0.0
230
1.0
 40
0.998624
 41
1.945227431237593
 42
2.645311779347055
  0
ELLIPSE
  5
186
330
1F
100
AcDbEntity
  8
1
100
AcDbEllipse
 10
398.799673
 20
295.956162
 30
0.0
 11
-2.357642267228975
 21
0.831578583042768
 31
0.0
210
0.0
220
0.0
230
1.0
 40
0.9986239999999998
 41
5.822888314034136
 42
5.942244189143316
  0
ELLIPSE
  5
187
330
1F
100
AcDbEntity
  8
1
100
AcDbEllipse
 10
398.79444
 20
295.941327
 30
0.0
 11
2.357642267228976
 21
-0.8315785830427666
 31
0.0
210
0.0
220
0.0
230
1.0
 40
0.9986239999999998
 41
2.80065153555351
 42
4.523257531940902
  0
ELLIPSE
  5
188
330
1F
100
AcDbEntity
  8
1
100
AcDbEllipse
 10
401.745446
 20
301.1875970000001
 30
0.0
 11
-0.0898897536456661
 21
0.0317055708602406
 31
0.0
210
0.0
220
0.0
230
0.9999999999999998
 40
0.998624
 41
3.886489476374912
 42
4.563221393255733
  0
ELLIPSE
  5
189
330
1F
100
AcDbEntity
  8
1
100
AcDbEllipse
 10
401.834785
 20
301.3557120000001
 30
0.0
 11
-0.0898897536456659
 21
0.0317055708602405
 31
0.0
210
0.0
220
0.0
230
1.0
 40
0.998624
 41
0.2212980471868512
 42
1.42162873966551
  0
ELLIPSE
  5
18A
330
1F
100
AcDbEntity
  8
1
100
AcDbEllipse
 10
402.336807
 20
301.296151
 30
0.0
 11
-0.5666776289729544
 21
0.1998763706833383
 31
0.0
210
0.0
220
0.0
230
0.9999999999999998
 40
0.9986239999999998
 41
5.239953310136215
 42
6.5044833543664
  0
ELLIPSE
  5
18B
330
1F
100
AcDbEntity
  8
1
100
AcDbEllipse
 10
402.2418839999999
 20
301.7922089999999
 30
0.0
 11
-0.089889753645668
 21
0.0317055708602412
 31
0.0
210
0.0
220
0.0
230
0.9999999999999998
 40
0.9986239999999998
 41
4.039622617657328
 42
5.239953310136392
  0
ELLIPSE
  5
18C
330
1F
100
AcDbEntity
  8
1
100
AcDbEllipse
 10
402.4034389999999
 20
301.893106
 30
0.0
 11
-0.089889753645668
 21
0.0317055708602412
 31
0.0
210
0.0
220
0.0
230
0.9999999999999998
 40
0.9986239999999998
 41
0.8980299640673477
 42
1.574761880948039
  0
ELLIPSE
  5
18D
330
1F
100
AcDbEntity
  8
1
100
AcDbEllipse
 10
402.569487
 20
302.369901
 30
0.0
 11
-0.5666776289729542
 21
0.1998763706833382
 31
0.0
210
0.0
220
0.0
230
1.0
 40
0.9986239999999998
 41
1.57476188094813
 42
2.839291925178303
  0
ELLIPSE
  5
18E
330
1F
100
AcDbEntity
  8
1
100
AcDbEllipse
 10
402.9746559999999
 20
302.067604
 30
0.0
 11
-0.0898897536456661
 21
0.0317055708602406
 31
0.0
210
0.0
220
0.0
230
0.9999999999999998
 40
0.998624
 41
2.839291925178348
 42
3.516023842058904
  0
ELLIPSE
  5
18F
330
1F
100
AcDbEntity
  8
1
100
AcDbEllipse
 10
403.16514
 20
302.074249
 30
0.0
 11
-0.0898897536456659
 21
0.0317055708602405
 31
0.0
210
0.0
220
0.0
230
1.0
 40
0.998624
 41
5.457285803169906
 42
6.657616495648782
  0
ELLIPSE
  5
190
330
1F
100
AcDbEntity
  8
1
100
AcDbEllipse
 10
403.36489
 20
301.610214
 30
0.0
 11
-0.5666776289729544
 21
0.1998763706833383
 31
0.0
210
0.0
220
0.0
230
0.9999999999999998
 40
0.9986239999999998
 41
4.192755758939631
 42
5.457285803169829
  0
ELLIPSE
  5
191
330
1F
100
AcDbEntity
  8
1
100
AcDbEllipse
 10
403.747416
 20
301.93999
 30
0.0
 11
-0.089889753645668
 21
0.0317055708602412
 31
0.0
210
0.0
220
0.0
230
0.9999999999999998
 40
0.9986239999999998
 41
2.992425066460727
 42
4.192755758939759
  0
ELLIPSE
  5
192
330
1F
100
AcDbEntity
  8
1
100
AcDbEllipse
 10
403.915789
 20
301.850602
 30
0.0
 11
-0.089889753645668
 21
0.0317055708602412
 31
0.0
210
0.0
220
0.0
230
0.9999999999999998
 40
0.9986239999999998
 41
6.134017720050496
 42
6.810749636931011
  0
ELLIPSE
  5
193
330
1F
100
AcDbEntity
  8
1
100
AcDbEllipse
 10
404.412296
 20
301.944996
 30
0.0
 11
-0.5666776289729542
 21
0.1998763706833382
 31
0.0
210
0.0
220
0.0
230
1.0
 40
0.9986239999999998
 41
0.5275643297515382
 42
1.792094373981786
  0
ELLIPSE
  5
194
330
1F
100
AcDbEntity
  8
1
100
AcDbEllipse
 10
404.3531049999999
 20
301.443562
 30
0.0
 11
-0.0898897536456661
 21
0.0317055708602406
 31
0.0
210
0.0
220
0.0
230
0.9999999999999998
 40
0.998624
 41
1.792094373981884
 42
2.468826290862563
  0
ELLIPSE
  5
195
330
1F
100
AcDbEntity
  8
1
100
AcDbEllipse
 10
404.454251
 20
301.282092
 30
0.0
 11
-0.0898897536456659
 21
0.0317055708602405
 31
0.0
210
0.0
220
0.0
230
1.0
 40
0.998624
 41
4.410088251973276
 42
5.610418944452145
  0
ELLIPSE
  5
196
330
1F
100
AcDbEntity
  8
1
100
AcDbEllipse
 10
404.1519789999999
 20
300.877618
 30
0.0
 11
-0.5666776289729544
 21
0.1998763706833383
 31
0.0
210
0.0
220
0.0
230
0.9999999999999998
 40
0.9986239999999998
 41
3.145558207743035
 42
4.41008825197313
  0
ELLIPSE
  5
197
330
1F
100
AcDbEntity
  8
1
100
AcDbEllipse
 10
404.629429
 20
300.711337
 30
0.0
 11
-0.089889753645668
 21
0.0317055708602412
 31
0.0
210
0.0
220
0.0
230
0.9999999999999998
 40
0.9986239999999998
 41
1.945227515263945
 42
3.145558207742971
  0
ELLIPSE
  5
198
330
1F
100
AcDbEntity
  8
1
100
AcDbEllipse
 10
404.636245
 20
300.521051
 30
0.0
 11
-0.089889753645668
 21
0.0317055708602412
 31
0.0
210
0.0
220
0.0
230
0.9999999999999998
 40
0.9986239999999998
 41
5.086820168853931
 42
5.763552085734679
  0
ELLIPSE
  5
199
330
1F
100
AcDbEntity
  8
1
100
AcDbEllipse
 10
404.966705
 20
300.13865
 30
0.0
 11
-0.5666776289729542
 21
0.1998763706833382
 31
0.0
210
0.0
220
0.0
230
1.0
 40
0.9986239999999998
 41
5.763552085734519
 42
7.028082129964675
  0
ELLIPSE
  5
19A
330
1F
100
AcDbEntity
  8
1
100
AcDbEllipse
 10
404.502346
 20
299.939514
 30
0.0
 11
-0.0898897536456661
 21
0.0317055708602406
 31
0.0
210
0.0
220
0.0
230
0.9999999999999998
 40
0.998624
 41
0.7448968227851824
 42
1.421628739665804
  0
ELLIPSE
  5
19B
330
1F
100
AcDbEntity
  8
1
100
AcDbEllipse
 10
404.4130069999999
 20
299.771399
 30
0.0
 11
-0.0898897536456659
 21
0.0317055708602405
 31
0.0
210
0.0
220
0.0
230
1.0
 40
0.998624
 41
3.362890700776498
 42
4.563221393255438
  0
ELLIPSE
  5
19C
330
1F
100
AcDbEntity
  8
1
100
AcDbEllipse
 10
403.910984
 20
299.83096
 30
0.0
 11
-0.5666776289729544
 21
0.1998763706833383
 31
0.0
210
0.0
220
0.0
230
0.9999999999999998
 40
0.9986239999999998
 41
2.098360656546503
 42
3.36289070077658
  0
ELLIPSE
  5
19D
330
1F
100
AcDbEntity
  8
1
100
AcDbEllipse
 10
404.005908
 20
299.334903
 30
0.0
 11
-0.089889753645668
 21
0.0317055708602412
 31
0.0
210
0.0
220
0.0
230
0.9999999999999998
 40
0.9986239999999998
 41
0.8980299640673942
 42
2.098360656546101
  0
ELLIPSE
  5
19E
330
1F
100
AcDbEntity
  8
1
100
AcDbEllipse
 10
403.844352
 20
299.234005
 30
0.0
 11
-0.089889753645668
 21
0.0317055708602412
 31
0.0
210
0.0
220
0.0
230
0.9999999999999998
 40
0.9986239999999998
 41
4.039622617657256
 42
4.716354534537681
  0
ELLIPSE
  5
19F
330
1F
100
AcDbEntity
  8
1
100
AcDbEllipse
 10
403.6783049999999
 20
298.75721
 30
0.0
 11
-0.5666776289729542
 21
0.1998763706833382
 31
0.0
210
0.0
220
0.0
230
1.0
 40
0.9986239999999998
 41
4.7163545345379
 42
5.980884578768081
  0
ELLIPSE
  5
1A0
330
1F
100
AcDbEntity
  8
1
100
AcDbEllipse
 10
403.2731359999999
 20
299.059508
 30
0.0
 11
-0.0898897536456661
 21
0.0317055708602406
 31
0.0
210
0.0
220
0.0
230
0.9999999999999998
 40
0.998624
 41
5.980884578768124
 42
6.657616495648768
  0
ELLIPSE
  5
1A1
330
1F
100
AcDbEntity
  8
1
100
AcDbEllipse
 10
403.0826519999999
 20
299.052863
 30
0.0
 11
-0.0898897536456659
 21
0.0317055708602405
 31
0.0
210
0.0
220
0.0
230
1.0
 40
0.998624
 41
2.315693149580223
 42
3.516023842058973
  0
ELLIPSE
  5
1A2
330
1F
100
AcDbEntity
  8
1
100
AcDbEllipse
 10
402.8829019999999
 20
299.516897
 30
0.0
 11
-0.5666776289729544
 21
0.1998763706833383
 31
0.0
210
0.0
220
0.0
230
0.9999999999999998
 40
0.9986239999999998
 41
1.05116310534976
 42
2.315693149579993
  0
ELLIPSE
  5
1A3
330
1F
100
AcDbEntity
  8
1
100
AcDbEllipse
 10
402.500375
 20
299.187121
 30
0.0
 11
-0.089889753645668
 21
0.0317055708602412
 31
0.0
210
0.0
220
0.0
230
0.9999999999999998
 40
0.9986239999999998
 41
6.134017720050424
 42
7.334348412529405
  0
ELLIPSE
  5
1A4
330
1F
100
AcDbEntity
  8
1
100
AcDbEllipse
 10
402.3320029999999
 20
299.276509
 30
0.0
 11
-0.089889753645668
 21
0.0317055708602412
 31
0.0
210
0.0
220
0.0
230
0.9999999999999998
 40
0.9986239999999998
 41
2.992425066460799
 42
3.669156983341283
  0
ELLIPSE
  5
1A5
330
1F
100
AcDbEntity
  8
1
100
AcDbEllipse
 10
401.835495
 20
299.182116
 30
0.0
 11
-0.5666776289729542
 21
0.1998763706833382
 31
0.0
210
0.0
220
0.0
230
1.0
 40
0.9986239999999998
 41
3.669156983341339
 42
4.933687027571532
  0
ELLIPSE
  5
1A6
330
1F
100
AcDbEntity
  8
1
100
AcDbEllipse
 10
401.8946859999999
 20
299.683549
 30
0.0
 11
-0.0898897536456661
 21
0.0317055708602406
 31
0.0
210
0.0
220
0.0
230
0.9999999999999998
 40
0.998624
 41
4.933687027571693
 42
5.610418944452414
  0
ELLIPSE
  5
1A7
330
1F
100
AcDbEntity
  8
1
100
AcDbEllipse
 10
401.7935409999999
 20
299.845019
 30
0.0
 11
-0.0898897536456659
 21
0.0317055708602405
 31
0.0
210
0.0
220
0.0
230
1.0
 40
0.998624
 41
1.2684955983831
 42
2.468826290862203
  0
ELLIPSE
  5
1A8
330
1F
100
AcDbEntity
  8
1
100
AcDbEllipse
 10
402.0958129999999
 20
300.2494930000001
 30
0.0
 11
-0.5666776289729544
 21
0.1998763706833383
 31
0.0
210
0.0
220
0.0
230
0.9999999999999998
 40
0.9986239999999998
 41
0.0039655541532198
 42
1.268495598383363
  0
ELLIPSE
  5
1A9
330
1F
100
AcDbEntity
  8
1
100
AcDbEllipse
 10
401.6183629999999
 20
300.415774
 30
0.0
 11
-0.089889753645668
 21
0.0317055708602412
 31
0.0
210
0.0
220
0.0
230
0.9999999999999998
 40
0.9986239999999998
 41
5.086820168853626
 42
6.287150861332918
  0
ELLIPSE
  5
1AA
330
1F
100
AcDbEntity
  8
1
100
AcDbEllipse
 10
401.6115459999999
 20
300.60606
 30
0.0
 11
-0.089889753645668
 21
0.0317055708602412
 31
0.0
210
0.0
220
0.0
230
0.9999999999999998
 40
0.9986239999999998
 41
1.945227515264111
 42
2.621959432144747
  0
ELLIPSE
  5
1AB
330
1F
100
AcDbEntity
  8
1
100
AcDbEllipse
 10
401.281086
 20
300.988461
 30
0.0
 11
-0.5666776289729542
 21
0.1998763706833382
 31
0.0
210
0.0
220
0.0
230
1.0
 40
0.9986239999999998
 41
2.621959432144724
 42
3.886489476374912
  0
ELLIPSE
  5
1AC
330
1F
100
AcDbEntity
  8
1
100
AcDbEllipse
 10
403.123896
 20
300.563556
 30
0.0
 11
1.98041950447234
 21
-0.6985260097559243
 31
0.0
210
0.0
220
0.0
230
1.0
 40
0.9986239999999998
 41
0.0
 42
6.283185307179585
  0
ELLIPSE
  5
1AD
330
1F
100
AcDbEntity
  8
1
100
AcDbEllipse
 10
403.133929
 20
300.592001
 30
0.0
 11
3.395004864809725
 21
-1.197473159581583
 31
0.0
210
0.0
220
0.0
230
1.0
 40
0.9986239999999998
 41
0.0
 42
6.283185307179585
  0
ELLIPSE
  5
1AE
330
1F
100
AcDbEntity
  8
1
100
AcDbEllipse
 10
403.319239
 20
300.828636
 30
0.0
 11
3.531988007444662
 21
-1.245789330883937
 31
0.0
210
0.0
220
0.0
230
0.9999999999999998
 40
0.9986239999999998
 41
1.94522755203838
 42
3.356097206659879
  0
ELLIPSE
  5
1AF
330
1F
100
AcDbEntity
  8
1
100
AcDbEllipse
 10
403.319239
 20
300.828636
 30
0.0
 11
3.531988007444662
 21
-1.245789330883937
 31
0.0
210
0.0
220
0.0
230
0.9999999999999998
 40
0.9986239999999998
 41
5.419043491545753
 42
6.283185307179585
  0
ELLIPSE
  5
1B0
330
1F
100
AcDbEntity
  8
1
100
AcDbEllipse
 10
403.319239
 20
300.828636
 30
0.0
 11
3.531988007444662
 21
-1.245789330883937
 31
0.0
210
0.0
220
0.0
230
0.9999999999999998
 40
0.9986239999999998
 41
0.0
 42
1.50893877539691
  0
ELLIPSE
  5
1B1
330
1F
100
AcDbEntity
  8
1
100
AcDbEllipse
 10
403.319239
 20
300.828636
 30
0.0
 11
3.531988007444662
 21
-1.245789330883937
 31
0.0
210
0.0
220
0.0
230
0.9999999999999998
 40
0.9986239999999998
 41
1.632540859458623
 42
1.94522755203838
  0
ELLIPSE
  5
1B2
330
1F
100
AcDbEntity
  8
1
100
AcDbEllipse
 10
398.5467470000001
 20
295.663447
 30
0.0
 11
0.4817434593947937
 21
0.517054578794415
 31
0.0
210
0.0
220
0.0
230
1.0
 40
0.01483
 41
0.5198738242633399
 42
1.536779664506225
  0
ELLIPSE
  5
1B3
330
1F
100
AcDbEntity
  8
1
100
AcDbEllipse
 10
403.2994419999999
 20
300.77251
 30
0.0
 11
3.588083700633127
 21
-1.265575189707758
 31
0.0
210
0.0
220
0.0
230
1.0
 40
0.9986239999999998
 41
1.945227451328571
 42
3.745261875445964
  0
ELLIPSE
  5
1B4
330
1F
100
AcDbEntity
  8
1
100
AcDbEllipse
 10
403.2994419999999
 20
300.77251
 30
0.0
 11
3.588083700633127
 21
-1.265575189707758
 31
0.0
210
0.0
220
0.0
230
1.0
 40
0.9986239999999998
 41
4.874566385899283
 42
6.283185307179585
  0
ELLIPSE
  5
1B5
330
1F
100
AcDbEntity
  8
1
100
AcDbEllipse
 10
403.2994419999999
 20
300.77251
 30
0.0
 11
3.588083700633127
 21
-1.265575189707758
 31
0.0
210
0.0
220
0.0
230
1.0
 40
0.9986239999999998
 41
0.0
 42
1.945227440221053
  0
ELLIPSE
  5
1B6
330
1F
100
AcDbEntity
  8
1
100
AcDbEllipse
 10
408.3894329999999
 20
296.006804
 30
0.0
 11
0.5172967687316687
 21
-0.4819691094967905
 31
0.0
210
0.0
220
0.0
230
1.0
 40
0.033998
 41
1.585610887733541
 42
2.602516728114279
  0
ELLIPSE
  5
1B7
330
1F
100
AcDbEntity
  8
1
100
AcDbEllipse
 10
403.2965639999999
 20
300.764351
 30
0.0
 11
-3.677921936877199
 21
1.297262589546718
 31
0.0
210
0.0
220
0.0
230
1.0
 40
0.9986239999999998
 41
0.0
 42
6.283185307179585
  0
ELLIPSE
  5
1B8
330
1F
100
AcDbEntity
  8
1
100
AcDbEllipse
 10
398.194521
 20
305.495887
 30
0.0
 11
0.5172967687505916
 21
-0.4819691095150925
 31
0.0
210
0.0
220
0.0
230
1.0
 40
0.033998
 41
0.5687050474039337
 42
1.585610887751739
  0
ELLIPSE
  5
1B9
330
1F
100
AcDbEntity
  8
1
100
AcDbEllipse
 10
408.037207
 20
305.839244
 30
0.0
 11
0.4817434593588932
 21
0.5170545787540206
 31
0.0
210
0.0
220
0.0
230
1.0
 40
0.01483
 41
1.53677966462554
 42
2.553685504937373
  0
SPLINE
  5
1CA
330
1F
100
AcDbEntity
  8
1
100
AcDbSpline
210
0.0
220
0.0
230
1.0
 70
     8
 71
     3
 72
     8
 73
     4
 74
     0
 42
0.000000001
 43
0.0000000001
 40
0.0
 40
0.0
 40
0.0
 40
0.0
 40
1.0
 40
1.0
 40
1.0
 40
1.0
 10
409.0081269389876
 20
279.8092402055162
 30
0.0
 10
409.0251824081699
 20
279.8231778142169
 30
0.0
 10
409.0409723155493
 20
279.8384259505285
 30
0.0
 10
409.0554966611258
 20
279.8549846144509
 30
0.0
  0
SPLINE
  5
1CB
330
1F
100
AcDbEntity
  8
1
100
AcDbSpline
210
0.0
220
0.0
230
1.0
 70
     8
 71
     3
 72
     8
 73
     4
 74
     0
 42
0.000000001
 43
0.0000000001
 40
0.0
 40
0.0
 40
0.0
 40
0.0
 40
1.0
 40
1.0
 40
1.0
 40
1.0
 10
409.2126469442886
 20
288.8581183071029
 30
0.0
 10
409.1987093355879
 20
288.8751737762852
 30
0.0
 10
409.1834611992762
 20
288.8909636836646
 30
0.0
 10
409.166902535354
 20
288.9054880292412
 30
0.0
  0
SPLINE
  5
1CC
330
1F
100
AcDbEntity
  8
1
100
AcDbSpline
210
0.0
220
0.0
230
1.0
 70
     8
 71
     3
 72
     8
 73
     4
 74
     0
 42
0.000000001
 43
0.0000000001
 40
0.0
 40
0.0
 40
0.0
 40
0.0
 40
1.0
 40
1.0
 40
1.0
 40
1.0
 10
401.7737608581193
 20
301.4622683589078
 30
0.0
 10
401.7750404332572
 20
301.4732669998978
 30
0.0
 10
401.7766246253641
 20
301.4841987297093
 30
0.0
 10
401.778511743832
 20
301.4950636719661
 30
0.0
  0
SPLINE
  5
1CD
330
1F
100
AcDbEntity
  8
1
100
AcDbSpline
210
0.0
220
0.0
230
1.0
 70
     8
 71
     3
 72
    10
 73
     6
 74
     0
 42
0.000000001
 43
0.0000000001
 40
0.0
 40
0.0
 40
0.0
 40
0.0
 40
0.6628244121585113
 40
0.6628244121585113
 40
1.0
 40
1.0
 40
1.0
 40
1.0
 10
403.1018295681766
 20
302.1433184565818
 30
0.0
 10
403.1013259988293
 20
302.1411469548875
 30
0.0
 10
403.1007412665913
 20
302.1389858353507
 30
0.0
 10
403.0997363505937
 20
302.1357423042302
 30
0.0
 10
403.0993782896748
 20
302.1346569687311
 30
0.0
 10
403.0990008723131
 20
302.1335799834995
 30
0.0
  0
SPLINE
  5
1CE
330
1F
100
AcDbEntity
  8
1
100
AcDbSpline
210
0.0
220
0.0
230
1.0
 70
     8
 71
     3
 72
    27
 73
    23
 74
     0
 42
0.000000001
 43
0.0000000001
 40
0.0
 40
0.0
 40
0.0
 40
0.0
 40
0.1249999999998281
 40
0.1249999999998281
 40
0.1874999999997941
 40
0.1874999999997941
 40
0.24999999999976
 40
0.24999999999976
 40
0.3749999999998003
 40
0.3749999999998003
 40
0.4374999999998201
 40
0.4374999999998201
 40
0.4999999999998401
 40
0.4999999999998401
 40
0.6249999999998798
 40
0.6249999999998798
 40
0.6874999999999011
 40
0.6874999999999011
 40
0.7499999999999223
 40
0.7499999999999223
 40
0.874999999999961
 40
1.0
 40
1.0
 40
1.0
 40
1.0
 10
403.1539349937633
 20
299.0607049068508
 30
0.0
 10
403.1247190180464
 20
299.0479834590937
 30
0.0
 10
403.0947810709641
 20
299.0376913765459
 30
0.0
 10
403.0488122186197
 20
299.0258412174248
 30
0.0
 10
403.0333114515653
 20
299.0224919009965
 30
0.0
 10
403.0019476746677
 20
299.0170190716057
 30
0.0
 10
402.9860386008601
 20
299.0148956685292
 30
0.0
 10
402.9385229756553
 20
299.0104826581012
 30
0.0
 10
402.9069115940846
 20
299.0100860056596
 30
0.0
 10
402.8595921516894
 20
299.0132482169082
 30
0.0
 10
402.8438353467678
 20
299.0149314048575
 30
0.0
 10
402.8123551438173
 20
299.0195816652158
 30
0.0
 10
402.7965598922502
 20
299.0225678226149
 30
0.0
 10
402.7499308282013
 20
299.0333514095871
 30
0.0
 10
402.7197782146447
 20
299.0429444052635
 30
0.0
 10
402.6759074158418
 20
299.0608309507796
 30
0.0
 10
402.6615112676628
 20
299.0673787893209
 30
0.0
 10
402.6331798781841
 20
299.0816609744095
 30
0.0
 10
402.619194380925
 20
299.0894265396818
 30
0.0
 10
402.5783103197501
 20
299.1143381861117
 30
0.0
 10
402.5271823991391
 20
299.151462208295
 30
0.0
 10
402.4825337088735
 20
299.1960563624986
 30
0.0
 10
402.4618802977276
 20
299.2202753765543
 30
0.0
  0
SPLINE
  5
1CF
330
1F
100
AcDbEntity
  8
1
100
AcDbSpline
210
0.0
220
0.0
230
1.0
 70
     8
 71
     3
 72
    16
 73
    12
 74
     0
 42
0.000000001
 43
0.0000000001
 40
0.0
 40
0.0
 40
0.0
 40
0.0
 40
0.3587940320764265
 40
0.3587940320764265
 40
0.5381910481146112
 40
0.5381910481146112
 40
0.7175880641527959
 40
0.7175880641527959
 40
0.8969850801909805
 40
0.8969850801909805
 40
1.0
 40
1.0
 40
1.0
 40
1.0
 10
402.4618802977276
 20
299.2202753765543
 30
0.0
 10
402.4554134446273
 20
299.2278586665504
 30
0.0
 10
402.4502272206552
 20
299.2363947791778
 30
0.0
 10
402.4446131630411
 20
299.2498044101893
 30
0.0
 10
402.4430840483129
 20
299.2544007399376
 30
0.0
 10
402.4407154225306
 20
299.2638475189165
 30
0.0
 10
402.4398931506987
 20
299.2686521643475
 30
0.0
 10
402.438972546608
 20
299.2781958095728
 30
0.0
 10
402.4388654948435
 20
299.2829684467251
 30
0.0
 10
402.4392447672592
 20
299.2904823945798
 30
0.0
 10
402.4395011458937
 20
299.2932354584952
 30
0.0
 10
402.439871169115
 20
299.2959694323328
 30
0.0
  0
SPLINE
  5
1D0
330
1F
100
AcDbEntity
  8
1
100
AcDbSpline
210
0.0
220
0.0
230
1.0
 70
     8
 71
     3
 72
    10
 73
     6
 74
     0
 42
0.000000001
 43
0.0000000001
 40
0.0
 40
0.0
 40
0.0
 40
0.0
 40
0.1325035073225254
 40
0.1325035073225254
 40
1.0
 40
1.0
 40
1.0
 40
1.0
 10
403.1820058069159
 20
299.0794179284761
 30
0.0
 10
403.1809269463668
 20
299.0783835658633
 30
0.0
 10
403.1798223775662
 20
299.0773724208066
 30
0.0
 10
403.1713051026097
 20
299.0699355400329
 30
0.0
 10
403.1630696123538
 20
299.0646823736419
 30
0.0
 10
403.1539349937633
 20
299.0607049068508
 30
0.0
  0
SPLINE
  5
1D1
330
1F
100
AcDbEntity
  8
1
100
AcDbSpline
210
0.0
220
0.0
230
1.0
 70
     8
 71
     3
 72
    10
 73
     6
 74
     0
 42
0.000000001
 43
0.0000000001
 40
0.0
 40
0.0
 40
0.0
 40
0.0
 40
0.6419716905424425
 40
0.6419716905424425
 40
1.0
 40
1.0
 40
1.0
 40
1.0
 10
402.4601834632921
 20
299.3923246584446
 30
0.0
 10
402.4621988748881
 20
299.3813578683457
 30
0.0
 10
402.4623010523619
 20
299.370374488591
 30
0.0
 10
402.4596549597054
 20
299.3534850507391
 30
0.0
 10
402.4581742240583
 20
299.3476214622405
 30
0.0
 10
402.4561639942488
 20
299.3419395058182
 30
0.0
  0
SPLINE
  5
1D2
330
1F
100
AcDbEntity
  8
1
100
AcDbSpline
210
0.0
220
0.0
230
1.0
 70
     8
 71
     3
 72
     8
 73
     4
 74
     0
 42
0.000000001
 43
0.0000000001
 40
0.0
 40
0.0
 40
0.0
 40
0.0
 40
1.0
 40
1.0
 40
1.0
 40
1.0
 10
403.2176216073088
 20
299.1886765724217
 30
0.0
 10
403.2208522106601
 20
299.1978932348088
 30
0.0
 10
403.2253950113991
 20
299.2065170800757
 30
0.0
 10
403.2313216097708
 20
299.2145195269359
 30
0.0
  0
SPLINE
  5
1D3
330
1F
100
AcDbEntity
  8
1
100
AcDbSpline
210
0.0
220
0.0
230
1.0
 70
     8
 71
     3
 72
    20
 73
    16
 74
     0
 42
0.000000001
 43
0.0000000001
 40
0.0
 40
0.0
 40
0.0
 40
0.0
 40
0.1250000000000017
 40
0.1250000000000017
 40
0.2500000000000033
 40
0.2500000000000033
 40
0.3750000000000049
 40
0.3750000000000049
 40
0.5000000000000067
 40
0.5000000000000067
 40
0.6250000000000085
 40
0.6250000000000085
 40
0.75000000000001
 40
0.75000000000001
 40
1.0
 40
1.0
 40
1.0
 40
1.0
 10
401.8783085139539
 20
299.8612315503338
 30
0.0
 10
401.8742929409118
 20
299.8586576742462
 30
0.0
 10
401.8701198960437
 20
299.8563938360309
 30
0.0
 10
401.8614610547659
 20
299.8524822412631
 30
0.0
 10
401.8569675858761
 20
299.850837366541
 30
0.0
 10
401.8478778216687
 20
299.8482454359754
 30
0.0
 10
401.843256113513
 20
299.8472851198774
 30
0.0
 10
401.8338571201622
 20
299.8460470177171
 30
0.0
 10
401.8290416996721
 20
299.8457717601283
 30
0.0
 10
401.8194825142371
 20
299.8459495567615
 30
0.0
 10
401.8147342680975
 20
299.8463950968939
 30
0.0
 10
401.8053019034692
 20
299.8480064167584
 30
0.0
 10
401.8005870571585
 20
299.8491827123817
 30
0.0
 10
401.7867646964163
 20
299.8538030582837
 30
0.0
 10
401.7781501678051
 20
299.8582305981579
 30
0.0
 10
401.7701765289853
 20
299.8640901835162
 30
0.0
  0
SPLINE
  5
1D4
330
1F
100
AcDbEntity
  8
1
100
AcDbSpline
210
0.0
220
0.0
230
1.0
 70
     8
 71
     3
 72
    10
 73
     6
 74
     0
 42
0.000000001
 43
0.0000000001
 40
0.0
 40
0.0
 40
0.0
 40
0.0
 40
0.5
 40
0.5
 40
1.0
 40
1.0
 40
1.0
 40
1.0
 10
401.8783085139539
 20
299.8612315503338
 30
0.0
 10
401.8874872126903
 20
299.8671148534004
 30
0.0
 10
401.8974125936958
 20
299.8713675088718
 30
0.0
 10
401.9186261655332
 20
299.8764886980037
 30
0.0
 10
401.9294203098598
 20
299.8772501588957
 30
0.0
 10
401.9404184987569
 20
299.8761045587858
 30
0.0
  0
SPLINE
  5
1D5
330
1F
100
AcDbEntity
  8
1
100
AcDbSpline
210
0.0
220
0.0
230
1.0
 70
     8
 71
     3
 72
    24
 73
    20
 74
     0
 42
0.000000001
 43
0.0000000001
 40
0.0
 40
0.0
 40
0.0
 40
0.0
 40
0.1250000000001262
 40
0.1250000000001262
 40
0.2500000000002525
 40
0.2500000000002525
 40
0.3125000000002672
 40
0.3125000000002672
 40
0.3750000000002821
 40
0.3750000000002821
 40
0.5000000000002257
 40
0.5000000000002257
 40
0.6250000000001693
 40
0.6250000000001693
 40
0.7500000000001128
 40
0.7500000000001128
 40
0.8750000000000564
 40
0.8750000000000564
 40
1.0
 40
1.0
 40
1.0
 40
1.0
 10
401.9404184987569
 20
299.8761045587858
 30
0.0
 10
401.9715668721202
 20
299.87286006278
 30
0.0
 10
402.0021985815198
 20
299.8672070140422
 30
0.0
 10
402.0624763230326
 20
299.8510839355486
 30
0.0
 10
402.0921227802902
 20
299.8406162616984
 30
0.0
 10
402.1358300008128
 20
299.821001909528
 30
0.0
 10
402.1501778714648
 20
299.8138438979517
 30
0.0
 10
402.1780864033776
 20
299.7984669796638
 30
0.0
 10
402.1917011914691
 20
299.7902243062114
 30
0.0
 10
402.2315296509613
 20
299.7638325109938
 30
0.0
 10
402.2567718055098
 20
299.7439964625946
 30
0.0
 10
402.3042569193458
 20
299.6997862093697
 30
0.0
 10
402.3258091838759
 20
299.6760666063704
 30
0.0
 10
402.3647844486205
 20
299.6255792521294
 30
0.0
 10
402.3822122035106
 20
299.5988006433448
 30
0.0
 10
402.4128422647098
 20
299.5421696743801
 30
0.0
 10
402.4256018240223
 20
299.5131457194693
 30
0.0
 10
402.4464196370829
 20
299.4537537236031
 30
0.0
 10
402.4544753753842
 20
299.4233850145905
 30
0.0
 10
402.4601834632921
 20
299.3923246584446
 30
0.0
  0
SPLINE
  5
1D6
330
1F
100
AcDbEntity
  8
1
100
AcDbSpline
210
0.0
220
0.0
230
1.0
 70
     8
 71
     3
 72
    18
 73
    14
 74
     0
 42
0.000000001
 43
0.0000000001
 40
0.0
 40
0.0
 40
0.0
 40
0.0
 40
0.2500000000000029
 40
0.2500000000000029
 40
0.375000000000007
 40
0.375000000000007
 40
0.5000000000000112
 40
0.5000000000000112
 40
0.6250000000000155
 40
0.6250000000000155
 40
0.7500000000000196
 40
0.7500000000000196
 40
1.0
 40
1.0
 40
1.0
 40
1.0
 10
404.0574277221727
 20
299.3367073779124
 30
0.0
 10
404.0476991764978
 20
299.3349240751317
 30
0.0
 10
404.0378081379433
 20
299.3347302314603
 30
0.0
 10
404.023554365521
 20
299.3366208314258
 30
0.0
 10
404.0188690305546
 20
299.3376112948407
 30
0.0
 10
404.0096319481662
 20
299.340317835549
 30
0.0
 10
404.0051279021964
 20
299.342025779105
 30
0.0
 10
403.9965429861898
 20
299.3460359724494
 30
0.0
 10
403.9924290780166
 20
299.3483476124242
 30
0.0
 10
403.9845537555691
 20
299.3535745099048
 30
0.0
 10
403.9807662914268
 20
299.3565168450789
 30
0.0
 10
403.9702412496381
 20
299.3660204261698
 30
0.0
 10
403.9642606833007
 20
299.3732572161301
 30
0.0
 10
403.9593251318904
 20
299.3814012694516
 30
0.0
  0
SPLINE
  5
1D7
330
1F
100
AcDbEntity
  8
1
100
AcDbSpline
210
0.0
220
0.0
230
1.0
 70
     8
 71
     3
 72
    10
 73
     6
 74
     0
 42
0.000000001
 43
0.0000000001
 40
0.0
 40
0.0
 40
0.0
 40
0.0
 40
0.500000000000001
 40
0.500000000000001
 40
1.0
 40
1.0
 40
1.0
 40
1.0
 10
291.5013933789936
 20
284.9153034633973
 30
0.0
 10
291.0437936746332
 20
284.9984068821186
 30
0.0
 10
290.5842965825124
 20
285.0608302652971
 30
0.0
 10
289.6613099131161
 20
285.1418476243953
 30
0.0
 10
289.1978228333148
 20
285.1604678651932
 30
0.0
 10
288.7322209983845
 20
285.1558232271994
 30
0.0
  0
SPLINE
  5
1D8
330
1F
100
AcDbEntity
  8
1
100
AcDbSpline
210
0.0
220
0.0
230
1.0
 70
     8
 71
     3
 72
    37
 73
    33
 74
     0
 42
0.000000001
 43
0.0000000001
 40
0.0
 40
0.0
 40
0.0
 40
0.0
 40
0.0624999999999999
 40
0.0624999999999999
 40
0.1249999999999996
 40
0.1249999999999996
 40
0.2499999999999991
 40
0.2499999999999991
 40
0.3749999999999985
 40
0.3749999999999985
 40
0.4374999999999983
 40
0.4374999999999983
 40
0.4531249999999984
 40
0.4531249999999984
 40
0.4687499999999984
 40
0.4687499999999984
 40
0.4999999999999983
 40
0.4999999999999983
 40
0.6249999999999982
 40
0.6249999999999982
 40
0.7499999999999982
 40
0.7499999999999982
 40
0.8124999999999978
 40
0.8124999999999978
 40
0.8281249999999982
 40
0.8281249999999982
 40
0.8437499999999984
 40
0.8749999999999987
 40
0.8749999999999987
 40
0.9374999999999994
 40
0.9374999999999994
 40
1.0
 40
1.0
 40
1.0
 40
1.0
 10
279.4048419452957
 20
280.6091650230267
 30
0.0
 10
279.5520999912478
 20
280.7770849265189
 30
0.0
 10
279.7024847935063
 20
280.9405306200465
 30
0.0
 10
280.0094713607024
 20
281.2588936212979
 30
0.0
 10
280.1660733418399
 20
281.4138099311045
 30
0.0
 10
280.6452475525487
 20
281.8661849628404
 30
0.0
 10
280.9771573414843
 20
282.1513198064981
 30
0.0
 10
281.6668564301697
 20
282.6895951348433
 30
0.0
 10
282.0246378342628
 20
282.942735869041
 30
0.0
 10
282.5822433453339
 20
283.2979044527398
 30
0.0
 10
282.7716098455188
 20
283.4121909668344
 30
0.0
 10
283.0129321581651
 20
283.549757946951
 30
0.0
 10
283.0614275810457
 20
283.5770064773417
 30
0.0
 10
283.1588874426082
 20
283.6309684697388
 30
0.0
 10
283.2078700388422
 20
283.6576911611849
 30
0.0
 10
283.355128694571
 20
283.7368338515341
 30
0.0
 10
283.4538377387492
 20
283.7882976437998
 30
0.0
 10
283.9500935494166
 20
284.0391230980194
 30
0.0
 10
284.3557418810498
 20
284.2190910886401
 30
0.0
 10
285.1854926204242
 20
284.5362008096575
 30
0.0
 10
285.6095848099562
 20
284.6733663791459
 30
0.0
 10
286.261116966332
 20
284.8440279414021
 30
0.0
 10
286.4808680325519
 20
284.8950454930649
 30
0.0
 10
286.7590119975221
 20
284.9509667447808
 30
0.0
 10
286.8148244535059
 20
284.9617590747964
 30
0.0
 10
286.926472885513
 20
284.9824837418622
 30
0.0
 10
287.0941006310146
 20
285.0123054562201
 30
0.0
 10
287.2621969066057
 20
285.0383056187109
 30
0.0
 10
287.5990244007683
 20
285.085125027487
 30
0.0
 10
287.8244220232399
 20
285.1094368117298
 30
0.0
 10
288.2769782794767
 20
285.1436477232368
 30
0.0
 10
288.5041368168503
 20
285.1535479602742
 30
0.0
 10
288.7322209983845
 20
285.1558232271994
 30
0.0
  0
SPLINE
  5
1D9
330
1F
100
AcDbEntity
  8
1
100
AcDbSpline
210
0.0
220
0.0
230
1.0
 70
     8
 71
     3
 72
    24
 73
    20
 74
     0
 42
0.000000001
 43
0.0000000001
 40
0.0
 40
0.0
 40
0.0
 40
0.0
 40
0.1249999999999998
 40
0.2499999999999997
 40
0.2499999999999997
 40
0.3749999999999995
 40
0.3749999999999995
 40
0.4999999999999993
 40
0.4999999999999993
 40
0.531249999999999
 40
0.531249999999999
 40
0.5624999999999984
 40
0.5624999999999984
 40
0.6249999999999984
 40
0.6249999999999984
 40
0.749999999999999
 40
0.8749999999999994
 40
0.8749999999999994
 40
1.0
 40
1.0
 40
1.0
 40
1.0
 10
279.4048419452957
 20
280.6091650230267
 30
0.0
 10
279.2508486575581
 20
280.4590653232451
 30
0.0
 10
278.9556010357424
 20
280.1524775331157
 30
0.0
 10
278.6857270756994
 20
279.8337307322643
 30
0.0
 10
278.4286685519899
 20
279.5091184324203
 30
0.0
 10
278.306546343227
 20
279.3438795935994
 30
0.0
 10
278.0754378431383
 20
279.0076569527981
 30
0.0
 10
277.9664502992077
 20
278.8366734622905
 30
0.0
 10
277.8387638505724
 20
278.6193671732685
 30
0.0
 10
277.8136545582311
 20
278.5757268119367
 30
0.0
 10
277.7643029634328
 20
278.4880871522088
 30
0.0
 10
277.7400480085128
 20
278.4440624343541
 30
0.0
 10
277.6688868220001
 20
278.3119887700097
 30
0.0
 10
277.6234893954066
 20
278.2237774488228
 30
0.0
 10
277.4933887088826
 20
277.958711626316
 30
0.0
 10
277.3361506290481
 20
277.6041422890366
 30
0.0
 10
277.2113240137059
 20
277.2477771954169
 30
0.0
 10
277.1029265230358
 20
276.8907162779005
 30
0.0
 10
277.0569413640493
 20
276.7118378188908
 30
0.0
 10
277.0194146570335
 20
276.5326902400777
 30
0.0
  0
SPLINE
  5
1DA
330
1F
100
AcDbEntity
  8
1
100
AcDbSpline
210
0.0
220
0.0
230
1.0
 70
    28
 71
     3
 72
     8
 73
     4
 74
     0
 42
0.000000001
 43
0.0000000001
 40
0.0
 40
0.0
 40
0.0
 40
0.0
 40
1.0
 40
1.0
 40
1.0
 40
1.0
 10
302.9048419452956
 20
282.7303278772703
 30
0.0
 41
1.0
 10
302.9048419452956
 20
282.7924982251732
 30
0.0
 41
0.996985632968866
 10
302.9048419452956
 20
282.8543391153139
 30
0.0
 41
0.994017800346937
 10
302.9048419452957
 20
282.9158388772703
 30
0.0
 41
0.9910965021342125
  0
SPLINE
  5
1DB
330
1F
100
AcDbEntity
  8
1
100
AcDbSpline
210
0.0
220
0.0
230
1.0
 70
     8
 71
     3
 72
    19
 73
    15
 74
     0
 42
0.000000001
 43
0.0000000001
 40
0.0
 40
0.0
 40
0.0
 40
0.0
 40
0.2500000000000037
 40
0.2500000000000037
 40
0.5000000000000075
 40
0.5000000000000075
 40
0.6250000000000079
 40
0.6250000000000079
 40
0.6875000000000066
 40
0.6875000000000066
 40
0.7187500000000059
 40
0.7187500000000059
 40
0.7500000000000053
 40
1.0
 40
1.0
 40
1.0
 40
1.0
 10
299.5765018360719
 20
270.9080736992139
 30
0.0
 10
299.8361086128578
 20
270.9084567730454
 30
0.0
 10
300.1004976608005
 20
270.9101504014181
 30
0.0
 10
300.6389942214983
 20
270.9144485831085
 30
0.0
 10
300.9131005619312
 20
270.9170540999878
 30
0.0
 10
301.3318606086944
 20
270.9206574115911
 30
0.0
 10
301.4727162004553
 20
270.9218106302769
 30
0.0
 10
301.6859638027356
 20
270.9233719977049
 30
0.0
 10
301.7573738690203
 20
270.9238645682307
 30
0.0
 10
301.8649894465641
 20
270.9245512964641
 30
0.0
 10
301.9009531198388
 20
270.9247715602363
 30
0.0
 10
301.9728036275001
 20
270.9251918186699
 30
0.0
 10
302.2960550708909
 20
270.9269964315853
 30
0.0
 10
302.6186301445993
 20
270.92792186978
 30
0.0
 10
302.9048419452958
 20
270.92792186978
 30
0.0
  0
SPLINE
  5
1DC
330
1F
100
AcDbEntity
  8
1
100
AcDbSpline
210
0.0
220
0.0
230
1.0
 70
     8
 71
     3
 72
     8
 73
     4
 74
     0
 42
0.000000001
 43
0.0000000001
 40
0.0
 40
0.0
 40
0.0
 40
0.0
 40
1.0
 40
1.0
 40
1.0
 40
1.0
 10
307.9083641475424
 20
271.0048754001656
 30
0.0
 10
306.2446652411626
 20
270.9677272370773
 30
0.0
 10
304.5772473524529
 20
270.9430015744071
 30
0.0
 10
302.9048419452958
 20
270.9279218697808
 30
0.0
  0
SPLINE
  5
1DD
330
1F
100
AcDbEntity
  8
1
100
AcDbSpline
210
0.0
220
0.0
230
1.0
 70
     8
 71
     3
 72
     8
 73
     4
 74
     0
 42
0.000000001
 43
0.0000000001
 40
0.0
 40
0.0
 40
0.0
 40
0.0
 40
1.0
 40
1.0
 40
1.0
 40
1.0
 10
310.8989492612357
 20
271.1079189558433
 30
0.0
 10
309.9028345830934
 20
271.0669920577741
 30
0.0
 10
308.9060009496941
 20
271.0327699267346
 30
0.0
 10
307.9083641475423
 20
271.0048754001656
 30
0.0
  0
SPLINE
  5
1DE
330
1F
100
AcDbEntity
  8
1
100
AcDbSpline
210
0.0
220
0.0
230
1.0
 70
     8
 71
     3
 72
   108
 73
   104
 74
     0
 42
0.000000001
 43
0.0000000001
 40
0.0
 40
0.0
 40
0.0
 40
0.0
 40
0.015625
 40
0.015625
 40
0.0312500000000001
 40
0.0312500000000001
 40
0.0624999999999999
 40
0.0624999999999999
 40
0.0781249999999998
 40
0.0781249999999998
 40
0.0937499999999997
 40
0.1093749999999996
 40
0.1093749999999996
 40
0.1249999999999996
 40
0.1249999999999996
 40
0.1406249999999995
 40
0.1406249999999995
 40
0.1562499999999994
 40
0.1562499999999994
 40
0.1874999999999984
 40
0.1874999999999984
 40
0.203124999999998
 40
0.203124999999998
 40
0.2187499999999975
 40
0.234374999999997
 40
0.234374999999997
 40
0.2499999999999966
 40
0.2499999999999966
 40
0.2656249999999961
 40
0.2656249999999961
 40
0.2812499999999956
 40
0.2812499999999956
 40
0.3124999999999951
 40
0.3124999999999951
 40
0.3281249999999947
 40
0.3281249999999947
 40
0.3437499999999943
 40
0.3437499999999943
 40
0.3749999999999937
 40
0.3749999999999937
 40
0.3906249999999932
 40
0.3906249999999932
 40
0.4062499999999928
 40
0.4062499999999928
 40
0.4374999999999921
 40
0.4374999999999921
 40
0.4531249999999921
 40
0.4531249999999921
 40
0.4687499999999921
 40
0.4687499999999921
 40
0.484374999999992
 40
0.484374999999992
 40
0.499999999999992
 40
0.499999999999992
 40
0.531249999999992
 40
0.531249999999992
 40
0.5468749999999917
 40
0.5468749999999917
 40
0.5624999999999913
 40
0.5781249999999911
 40
0.5781249999999911
 40
0.5937499999999907
 40
0.5937499999999907
 40
0.6249999999999916
 40
0.6249999999999916
 40
0.6406249999999912
 40
0.6406249999999912
 40
0.656249999999991
 40
0.656249999999991
 40
0.6718749999999907
 40
0.6718749999999907
 40
0.6874999999999904
 40
0.7031249999999901
 40
0.7031249999999901
 40
0.7187499999999897
 40
0.7187499999999897
 40
0.7499999999999912
 40
0.7499999999999912
 40
0.7656249999999921
 40
0.7656249999999921
 40
0.7812499999999928
 40
0.7812499999999928
 40
0.7968749999999935
 40
0.7968749999999935
 40
0.8124999999999939
 40
0.8281249999999944
 40
0.8281249999999944
 40
0.843749999999995
 40
0.843749999999995
 40
0.8749999999999952
 40
0.8749999999999952
 40
0.8906249999999957
 40
0.8906249999999957
 40
0.9062499999999964
 40
0.9062499999999964
 40
0.9218749999999969
 40
0.9218749999999969
 40
0.9374999999999975
 40
0.953124999999998
 40
0.953124999999998
 40
0.9687499999999987
 40
0.9687499999999987
 40
1.0
 40
1.0
 40
1.0
 40
1.0
 10
407.3878831113441
 20
283.153493513693
 30
0.0
 10
407.3804518690856
 20
283.1067057952617
 30
0.0
 10
407.3731696993456
 20
283.0593865242623
 30
0.0
 10
407.3589040916134
 20
282.9636827850759
 30
0.0
 10
407.3519093792086
 20
282.9152163763774
 30
0.0
 10
407.3314706397582
 20
282.7688597186239
 30
0.0
 10
407.3185856749051
 20
282.6701544407003
 30
0.0
 10
407.3003674686238
 20
282.5203984047902
 30
0.0
 10
407.2944769596356
 20
282.4701608678847
 30
0.0
 10
407.2831472480318
 20
282.3697977843472
 30
0.0
 10
407.2722481956652
 20
282.269383097827
 30
0.0
 10
407.2622072131258
 20
282.1688655946049
 30
0.0
 10
407.2525984618891
 20
282.0682963000302
 30
0.0
 10
407.2480271414759
 20
282.0181592807178
 30
0.0
 10
407.239368794019
 20
281.9184250235924
 30
0.0
 10
407.2352779646575
 20
281.8687881176246
 30
0.0
 10
407.227572555602
 20
281.7699743267742
 30
0.0
 10
407.2239529170629
 20
281.7207223409767
 30
0.0
 10
407.2138543381286
 20
281.5742340338847
 30
0.0
 10
407.208145415511
 20
281.4784888205278
 30
0.0
 10
407.2011066070693
 20
281.3377216313064
 30
0.0
 10
407.1990141724423
 20
281.2912332552934
 30
0.0
 10
407.1953663517
 20
281.1998120691856
 30
0.0
 10
407.1922475775758
 20
281.109804946152
 30
0.0
 10
407.1901808421526
 20
281.022609766392
 30
0.0
 10
407.1886429475908
 20
280.9368280997491
 30
0.0
 10
407.1881410479396
 20
280.8947593581519
 30
0.0
 10
407.1876696731263
 20
280.8125308757079
 30
0.0
 10
407.1876993635111
 20
280.7723265334647
 30
0.0
 10
407.1882883315425
 20
280.6937336411174
 30
0.0
 10
407.1888488023629
 20
280.6552954673399
 30
0.0
 10
407.1913231412406
 20
280.5430865324813
 30
0.0
 10
407.1940182708106
 20
280.4726507228144
 30
0.0
 10
407.1996170067781
 20
280.3735007606832
 30
0.0
 10
407.2017484325156
 20
280.3414885624181
 30
0.0
 10
407.2064900964557
 20
280.2802156212478
 30
0.0
 10
407.2091030655436
 20
280.2508868306296
 30
0.0
 10
407.2176538895708
 20
280.1667452195312
 30
0.0
 10
407.2243011749328
 20
280.1157637321387
 30
0.0
 10
407.2356812999231
 20
280.0469019766035
 30
0.0
 10
407.2397101679516
 20
280.0252198561639
 30
0.0
 10
407.2482447081756
 20
279.9844306325415
 30
0.0
 10
407.2527532177327
 20
279.9653128207372
 30
0.0
 10
407.2669930630535
 20
279.9119787106889
 30
0.0
 10
407.2773181374792
 20
279.8821986815461
 30
0.0
 10
407.2940421345617
 20
279.8461136792356
 30
0.0
 10
407.2998294623671
 20
279.8355112899899
 30
0.0
 10
407.311793804131
 20
279.8172518340304
 30
0.0
 10
407.3179614882779
 20
279.8096050726315
 30
0.0
 10
407.3306677748747
 20
279.7972766178411
 30
0.0
 10
407.3372053026738
 20
279.7925995654883
 30
0.0
 10
407.3506065816263
 20
279.7862487472781
 30
0.0
 10
407.3574835446952
 20
279.784569336577
 30
0.0
 10
407.3785649785434
 20
279.7840430066881
 30
0.0
 10
407.3931872011287
 20
279.789677036841
 30
0.0
 10
407.4159718050935
 20
279.8070988188166
 30
0.0
 10
407.4237205046727
 20
279.8144209921894
 30
0.0
 10
407.439412043991
 20
279.8319947725225
 30
0.0
 10
407.4553121248964
 20
279.8525008295641
 30
0.0
 10
407.4716281471824
 20
279.8788553854033
 30
0.0
 10
407.4881538601782
 20
279.9081583756195
 30
0.0
 10
407.4965206137482
 20
279.9242880098392
 30
0.0
 10
407.5217693339015
 20
279.9767919856479
 30
0.0
 10
407.5388539611153
 20
280.0173581546139
 30
0.0
 10
407.5648635166186
 20
280.0866496377665
 30
0.0
 10
407.5735659300596
 20
280.1110758484589
 30
0.0
 10
407.5909992940989
 20
280.1624698425335
 30
0.0
 10
407.5997360461149
 20
280.1894530221687
 30
0.0
 10
407.6172498184867
 20
280.2459999717101
 30
0.0
 10
407.6260388920908
 20
280.2756064413422
 30
0.0
 10
407.6436002498279
 20
280.3372330886167
 30
0.0
 10
407.6611130320801
 20
280.4011543070026
 30
0.0
 10
407.6785291500696
 20
280.4696416769199
 30
0.0
 10
407.6958966407901
 20
280.5404260640794
 30
0.0
 10
407.7045682984627
 20
280.577022958949
 30
0.0
 10
407.7303486189105
 20
280.6896014754251
 30
0.0
 10
407.7472623139776
 20
280.7685043492721
 30
0.0
 10
407.7722203127484
 20
280.8926734406972
 30
0.0
 10
407.7804606574247
 20
280.9349898865605
 30
0.0
 10
407.796693020864
 20
281.0210032081819
 30
0.0
 10
407.8046981342292
 20
281.0647645081803
 30
0.0
 10
407.8204861036205
 20
281.1537972061536
 30
0.0
 10
407.8282742812631
 20
281.1991005953339
 30
0.0
 10
407.8436031103524
 20
281.2910990859854
 30
0.0
 10
407.8586282133882
 20
281.3841478483911
 30
0.0
 10
407.873050661517
 20
281.479280565791
 30
0.0
 10
407.8871707918237
 20
281.5754586853415
 30
0.0
 10
407.8940907011711
 20
281.6241530639151
 30
0.0
 10
407.9142756204221
 20
281.7709771819588
 30
0.0
 10
407.9269866289616
 20
281.8699487325246
 30
0.0
 10
407.9449338542862
 20
282.0200405527644
 30
0.0
 10
407.9507252853248
 20
282.0703194351395
 30
0.0
 10
407.9618549703923
 20
282.1707371578436
 30
0.0
 10
407.9672035296637
 20
282.2209606610907
 30
0.0
 10
407.977469144471
 20
282.3214368794263
 30
0.0
 10
407.9823876891728
 20
282.3717055213356
 30
0.0
 10
407.9917833870931
 20
282.4722069400264
 30
0.0
 10
408.0006957953598
 20
282.5722212437145
 30
0.0
 10
408.0086519887598
 20
282.671271763874
 30
0.0
 10
408.0161298817161
 20
282.7698401977312
 30
0.0
 10
408.0196348767346
 20
282.8189654208486
 30
0.0
 10
408.0293744115553
 20
282.964840523436
 30
0.0
 10
408.0348434212178
 20
283.0601387642631
 30
0.0
 10
408.0392927908447
 20
283.153493513693
 30
0.0
  0
SPLINE
  5
1DF
330
1F
100
AcDbEntity
  8
1
100
AcDbSpline
210
0.0
220
0.0
230
1.0
 70
     8
 71
     3
 72
    22
 73
    18
 74
     0
 42
0.000000001
 43
0.0000000001
 40
0.0
 40
0.0
 40
0.0
 40
0.0
 40
0.125
 40
0.125
 40
0.25
 40
0.25
 40
0.375
 40
0.375
 40
0.5
 40
0.5
 40
0.625
 40
0.625
 40
0.75
 40
0.75
 40
0.875
 40
0.875
 40
1.0
 40
1.0
 40
1.0
 40
1.0
 10
288.7322209983845
 20
271.2494439940565
 30
0.0
 10
289.1702064606358
 20
271.2123259727551
 30
0.0
 10
289.610885242553
 20
271.1798408585114
 30
0.0
 10
290.4966644283547
 20
271.1221915998467
 30
0.0
 10
290.9417631436327
 20
271.0970303598001
 30
0.0
 10
291.8354791050306
 20
271.0525778859881
 30
0.0
 10
292.2840928821261
 20
271.0332890561391
 30
0.0
 10
293.1840756847311
 20
270.9995402518433
 30
0.0
 10
293.6354402960781
 20
270.9850833154692
 30
0.0
 10
294.5404238031588
 20
270.9602895264449
 30
0.0
 10
294.9940391166739
 20
270.9499569954816
 30
0.0
 10
295.9034129524811
 20
270.9329269310393
 30
0.0
 10
296.3591706761693
 20
270.926234574385
 30
0.0
 10
297.2731808111516
 20
270.9160780289063
 30
0.0
 10
297.7314358952069
 20
270.9126183047026
 30
0.0
 10
298.6512274530984
 20
270.9084470117316
 30
0.0
 10
299.112768834197
 20
270.9077374630893
 30
0.0
 10
299.5765018360715
 20
270.9080736992139
 30
0.0
  0
SPLINE
  5
1E0
330
1F
100
AcDbEntity
  8
1
100
AcDbSpline
210
0.0
220
0.0
230
1.0
 70
     8
 71
     3
 72
    73
 73
    69
 74
     0
 42
0.000000001
 43
0.0000000001
 40
0.0
 40
0.0
 40
0.0
 40
0.0
 40
0.062500000000007
 40
0.062500000000007
 40
0.0781250000000088
 40
0.0781250000000088
 40
0.0937500000000107
 40
0.1250000000000132
 40
0.1250000000000132
 40
0.1406250000000142
 40
0.1406250000000142
 40
0.1562500000000151
 40
0.1875000000000175
 40
0.1875000000000175
 40
0.2187500000000198
 40
0.2187500000000198
 40
0.2500000000000222
 40
0.2500000000000222
 40
0.2656250000000229
 40
0.2656250000000229
 40
0.2812500000000237
 40
0.2812500000000237
 40
0.3125000000000263
 40
0.3125000000000263
 40
0.3750000000000298
 40
0.3750000000000298
 40
0.4062500000000306
 40
0.4062500000000306
 40
0.4375000000000315
 40
0.4375000000000315
 40
0.4687500000000322
 40
0.4687500000000322
 40
0.4843750000000317
 40
0.4843750000000317
 40
0.5000000000000311
 40
0.5312500000000301
 40
0.5312500000000301
 40
0.5625000000000289
 40
0.5625000000000289
 40
0.5937500000000279
 40
0.5937500000000279
 40
0.6093750000000277
 40
0.6093750000000277
 40
0.6250000000000276
 40
0.6250000000000276
 40
0.6562500000000274
 40
0.6562500000000274
 40
0.687500000000027
 40
0.687500000000027
 40
0.7500000000000248
 40
0.7500000000000248
 40
0.7656250000000233
 40
0.7656250000000233
 40
0.7812500000000219
 40
0.8125000000000179
 40
0.8125000000000179
 40
0.828125000000017
 40
0.828125000000017
 40
0.8437500000000158
 40
0.8750000000000127
 40
0.8750000000000127
 40
0.9062500000000095
 40
0.9062500000000095
 40
0.9375000000000063
 40
0.9375000000000063
 40
0.9687500000000031
 40
0.9687500000000031
 40
1.0
 40
1.0
 40
1.0
 40
1.0
 10
408.0392927908447
 20
283.153493513693
 30
0.0
 10
408.0326427201861
 20
283.2695720219713
 30
0.0
 10
408.0248396993658
 20
283.3814451663636
 30
0.0
 10
408.0136576545696
 20
283.516077013554
 30
0.0
 10
408.0113496880306
 20
283.5427359836822
 30
0.0
 10
408.0066082962308
 20
283.5953239567399
 30
0.0
 10
407.9993014877468
 20
283.673189121523
 30
0.0
 10
407.9914144625831
 20
283.7480245054422
 30
0.0
 10
407.9831398553022
 20
283.8208360094536
 30
0.0
 10
407.9803142033621
 20
283.8447908844009
 30
0.0
 10
407.9745509863458
 20
283.8918732721249
 30
0.0
 10
407.9657365209359
 20
283.9612756152001
 30
0.0
 10
407.9564169409644
 20
284.0270416356353
 30
0.0
 10
407.9435416192051
 20
284.1114957605695
 30
0.0
 10
407.9368701217363
 20
284.1521486821008
 30
0.0
 10
407.9231742279466
 20
284.2296137387252
 30
0.0
 10
407.9161399637498
 20
284.2664983389541
 30
0.0
 10
407.9053093013503
 20
284.3190554284805
 30
0.0
 10
407.9016524883511
 20
284.3361123486179
 30
0.0
 10
407.8942451325358
 20
284.3692965599213
 30
0.0
 10
407.8904973706007
 20
284.3854091654026
 30
0.0
 10
407.8791786027227
 20
284.4320835478831
 30
0.0
 10
407.8715118594772
 20
284.4610769251564
 30
0.0
 10
407.8481560752193
 20
284.541813787365
 30
0.0
 10
407.8321133815998
 20
284.5873473988699
 30
0.0
 10
407.8073344268875
 20
284.6430944597507
 30
0.0
 10
407.7989551525631
 20
284.6595763279166
 30
0.0
 10
407.7819501832855
 20
284.6882131035998
 30
0.0
 10
407.7733928115693
 20
284.7002503783522
 30
0.0
 10
407.7561941287841
 20
284.7197554986118
 30
0.0
 10
407.7475486914409
 20
284.7272303347054
 30
0.0
 10
407.7345107691124
 20
284.734995248947
 30
0.0
 10
407.7301488059255
 20
284.7370092473852
 30
0.0
 10
407.7214317575405
 20
284.7398667969833
 30
0.0
 10
407.7083616827753
 20
284.7424030165318
 30
0.0
 10
407.6953080150308
 20
284.7397164299834
 30
0.0
 10
407.6779177847586
 20
284.7314676161088
 30
0.0
 10
407.6692148979163
 20
284.7249881886319
 30
0.0
 10
407.6519550702077
 20
284.7074171272901
 30
0.0
 10
407.6433864164606
 20
284.6963282317386
 30
0.0
 10
407.6306254817203
 20
284.6762339860625
 30
0.0
 10
407.6263871938198
 20
284.6689584842796
 30
0.0
 10
407.6179415536047
 20
284.6532443103476
 30
0.0
 10
407.6137310015331
 20
284.6447977593244
 30
0.0
 10
407.601195745826
 20
284.6178057125238
 30
0.0
 10
407.5929536100415
 20
284.5975884301728
 30
0.0
 10
407.5766982628693
 20
284.552717964791
 30
0.0
 10
407.5686797527159
 20
284.528046712048
 30
0.0
 10
407.5450060400685
 20
284.4473933127518
 30
0.0
 10
407.5298850196976
 20
284.3853500411782
 30
0.0
 10
407.5118147348426
 20
284.2974008370122
 30
0.0
 10
407.5082449959825
 20
284.2792991592265
 30
0.0
 10
407.5012188603727
 20
284.2422011842776
 30
0.0
 10
407.4908390596033
 20
284.1851598944743
 30
0.0
 10
407.480935291985
 20
284.123954645829
 30
0.0
 10
407.4713510890742
 20
284.0599540996576
 30
0.0
 10
407.4682066971631
 20
284.0381317462554
 30
0.0
 10
407.4620483426771
 20
283.9937128147711
 30
0.0
 10
407.4530012639206
 20
283.9258918782343
 30
0.0
 10
407.4445217869612
 20
283.8545168493336
 30
0.0
 10
407.433721799812
 20
283.7561818891416
 30
0.0
 10
407.4285699412913
 20
283.7053613871734
 30
0.0
 10
407.4188595174224
 20
283.6013805632796
 30
0.0
 10
407.4142899834295
 20
283.5481302157443
 30
0.0
 10
407.4057216321683
 20
283.4391124684013
 30
0.0
 10
407.4017157431696
 20
283.3832251915713
 30
0.0
 10
407.3943342099583
 20
283.2697117065532
 30
0.0
 10
407.3909541191311
 20
283.2120518514375
 30
0.0
 10
407.3878831113441
 20
283.153493513693
 30
0.0
  0
SPLINE
  5
1E1
330
1F
100
AcDbEntity
  8
1
100
AcDbSpline
210
0.0
220
0.0
230
1.0
 70
     8
 71
     3
 72
    13
 73
     9
 74
     0
 42
0.000000001
 43
0.0000000001
 40
0.0
 40
0.0
 40
0.0
 40
0.0
 40
0.3262776433496029
 40
0.3262776433496029
 40
0.6525552866992057
 40
0.9788329300488085
 40
0.9788329300488085
 40
1.0
 40
1.0
 40
1.0
 40
1.0
 10
302.9048419452104
 20
306.9044840348636
 30
0.0
 10
302.6356068773939
 20
306.9044840348636
 30
0.0
 10
302.3679781985127
 20
306.9047499549375
 30
0.0
 10
301.8358512658242
 20
306.9056410391961
 30
0.0
 10
301.3068551186368
 20
306.9068901894298
 30
0.0
 10
300.7840784098348
 20
306.9079169566819
 30
0.0
 10
300.5074087841053
 20
306.9079903907595
 30
0.0
 10
300.4905569574292
 20
306.9079929358272
 30
0.0
 10
300.473713025337
 20
306.9079934230062
 30
0.0
  0
SPLINE
  5
1E2
330
1F
100
AcDbEntity
  8
1
100
AcDbSpline
210
0.0
220
0.0
230
1.0
 70
     8
 71
     3
 72
     8
 73
     4
 74
     0
 42
0.000000001
 43
0.0000000001
 40
0.0
 40
0.0
 40
0.0
 40
0.0
 40
1.0
 40
1.0
 40
1.0
 40
1.0
 10
391.2282122436297
 20
295.0895089304588
 30
0.0
 10
391.3556672814411
 20
294.9889893364952
 30
0.0
 10
391.4811856053715
 20
294.8891075204311
 30
0.0
 10
391.6046822705256
 20
294.7898914554112
 30
0.0
  0
SPLINE
  5
1E3
330
1F
100
AcDbEntity
  8
1
100
AcDbSpline
210
0.0
220
0.0
230
1.0
 70
     8
 71
     3
 72
     8
 73
     4
 74
     0
 42
0.000000001
 43
0.0000000001
 40
0.0
 40
0.0
 40
0.0
 40
0.0
 40
1.0
 40
1.0
 40
1.0
 40
1.0
 10
391.2282122436299
 20
295.0895089304588
 30
0.0
 10
390.9540600105237
 20
295.2597241533472
 30
0.0
 10
390.6758013575293
 20
295.4318465275108
 30
0.0
 10
390.3937387017482
 20
295.6057356008828
 30
0.0
  0
SPLINE
  5
1E4
330
1F
100
AcDbEntity
  8
1
100
AcDbSpline
210
0.0
220
0.0
230
1.0
 70
     8
 71
     3
 72
    37
 73
    33
 74
     0
 42
0.000000001
 43
0.0000000001
 40
0.0
 40
0.0
 40
0.0
 40
0.0
 40
0.1249999999999985
 40
0.1249999999999985
 40
0.249999999999997
 40
0.249999999999997
 40
0.3749999999999955
 40
0.3749999999999955
 40
0.499999999999994
 40
0.499999999999994
 40
0.5624999999999857
 40
0.5624999999999857
 40
0.6249999999999775
 40
0.6249999999999775
 40
0.6562499999999743
 40
0.6562499999999743
 40
0.6874999999999712
 40
0.6874999999999712
 40
0.718749999999968
 40
0.718749999999968
 40
0.7499999999999649
 40
0.7812499999999618
 40
0.7812499999999618
 40
0.8124999999999584
 40
0.8124999999999584
 40
0.8437499999999554
 40
0.8437499999999554
 40
0.8749999999999522
 40
0.8749999999999522
 40
0.937499999999976
 40
0.937499999999976
 40
1.0
 40
1.0
 40
1.0
 40
1.0
 10
390.3937387017517
 20
295.6057356008812
 30
0.0
 10
390.36065053854
 20
295.6261341539067
 30
0.0
 10
390.3287114533317
 20
295.6475964268486
 30
0.0
 10
390.2674695006321
 20
295.6929731700086
 30
0.0
 10
390.2381597684528
 20
295.716881321635
 30
0.0
 10
390.1828046040879
 20
295.7677410075369
 30
0.0
 10
390.1567383090425
 20
295.794673392254
 30
0.0
 10
390.1091546045984
 20
295.8527759416163
 30
0.0
 10
390.0880063037738
 20
295.8834239365416
 30
0.0
 10
390.0623762815492
 20
295.9330325136238
 30
0.0
 10
390.0549524979386
 20
295.9500347568953
 30
0.0
 10
390.0430217828582
 20
295.9850083271581
 30
0.0
 10
390.0384888282155
 20
296.0030023657671
 30
0.0
 10
390.0346272493814
 20
296.031026221798
 30
0.0
 10
390.0338429625845
 20
296.0405407331681
 30
0.0
 10
390.0334557490416
 20
296.059561158348
 30
0.0
 10
390.0338443816257
 20
296.0691133619816
 30
0.0
 10
390.035941489535
 20
296.0883112628063
 30
0.0
 10
390.0376569280947
 20
296.0979866628725
 30
0.0
 10
390.0425866139454
 20
296.1173178370394
 30
0.0
 10
390.0489226271004
 20
296.1362871462006
 30
0.0
 10
390.0581422670133
 20
296.1545108707636
 30
0.0
 10
390.0688609901541
 20
296.1723451356115
 30
0.0
 10
390.0750329559072
 20
296.1811345034238
 30
0.0
 10
390.0885082655749
 20
296.1977891967919
 30
0.0
 10
390.0958227937632
 20
296.2056992570018
 30
0.0
 10
390.1115066595543
 20
296.2207551568823
 30
0.0
 10
390.1199086971999
 20
296.2279253304347
 30
0.0
 10
390.1463724209502
 20
296.2482065973729
 30
0.0
 10
390.1652455892318
 20
296.2598094379193
 30
0.0
 10
390.2047922287405
 20
296.2802067080603
 30
0.0
 10
390.2255601838506
 20
296.2890136782283
 30
0.0
 10
390.2467263283866
 20
296.296588700934
 30
0.0
  0
SPLINE
  5
1E5
330
1F
100
AcDbEntity
  8
1
100
AcDbSpline
210
0.0
220
0.0
230
1.0
 70
     8
 71
     3
 72
    46
 73
    42
 74
     0
 42
0.000000001
 43
0.0000000001
 40
0.0
 40
0.0
 40
0.0
 40
0.0
 40
0.0896780562885052
 40
0.0896780562885052
 40
0.1793561125770104
 40
0.1793561125770104
 40
0.2241951407212634
 40
0.2241951407212634
 40
0.2690341688655163
 40
0.2690341688655163
 40
0.3138731970097693
 40
0.3138731970097693
 40
0.3587122251540223
 40
0.3587122251540223
 40
0.4035512532982753
 40
0.4035512532982753
 40
0.4483902814425282
 40
0.4483902814425282
 40
0.4932293095867812
 40
0.4932293095867812
 40
0.5380683377310344
 40
0.5380683377310344
 40
0.5829073658752874
 40
0.5829073658752874
 40
0.6277463940195404
 40
0.6277463940195404
 40
0.6725854221637934
 40
0.6725854221637934
 40
0.7174244503080464
 40
0.7174244503080464
 40
0.7622634784522995
 40
0.7622634784522995
 40
0.8071025065965525
 40
0.8071025065965525
 40
0.8519415347408054
 40
0.8519415347408054
 40
0.8967805628850582
 40
0.8967805628850582
 40
0.9864586191735639
 40
0.9864586191735639
 40
1.0
 40
1.0
 40
1.0
 40
1.0
 10
307.9083641475422
 20
271.0048754001672
 30
0.0
 10
308.7597939777702
 20
271.1084320432906
 30
0.0
 10
309.6087968387554
 20
271.221894948362
 30
0.0
 10
311.3024087687567
 20
271.4708260249774
 30
0.0
 10
312.1470140060917
 20
271.6063288614502
 30
0.0
 10
313.4115363325313
 20
271.8261673781756
 30
0.0
 10
313.8326525856748
 20
271.9021906614616
 30
0.0
 10
314.6743299566361
 20
272.0594484396774
 30
0.0
 10
315.0948913119059
 20
272.140683508178
 30
0.0
 10
315.935731055589
 20
272.3078717242124
 30
0.0
 10
316.3560098292638
 20
272.3938250090936
 30
0.0
 10
317.1965919817282
 20
272.5697267826246
 30
0.0
 10
317.6168958846802
 20
272.65967483284
 30
0.0
 10
318.4578575793378
 20
272.8426174920128
 30
0.0
 10
318.8785160081488
 20
272.9356109603498
 30
0.0
 10
319.7205202107489
 20
273.1234932581049
 30
0.0
 10
320.1418666889589
 20
273.2183801620137
 30
0.0
 10
320.9855642967827
 20
273.408741315987
 30
0.0
 10
321.4078091052604
 20
273.5041885075138
 30
0.0
 10
322.2533118095987
 20
273.6942152068551
 30
0.0
 10
322.6765787299699
 20
273.7887933086718
 30
0.0
 10
323.5243705064029
 20
273.9757025516276
 30
0.0
 10
323.948895842064
 20
274.068030158475
 30
0.0
 10
324.7993700208202
 20
274.2491711057413
 30
0.0
 10
325.2253191466771
 20
274.3379811518092
 30
0.0
 10
326.0787323475989
 20
274.5110397944714
 30
0.0
 10
326.506196467631
 20
274.5952858408215
 30
0.0
 10
327.3626519310299
 20
274.7584790231204
 30
0.0
 10
327.7916430847657
 20
274.8374247491638
 30
0.0
 10
328.6510879508849
 20
274.9896503198607
 30
0.0
 10
329.0815412873978
 20
275.0629300572722
 30
0.0
 10
329.9437776248784
 20
275.2038502927397
 30
0.0
 10
330.3755601420182
 20
275.2714918697004
 30
0.0
 10
331.2402669345946
 20
275.4015407559473
 30
0.0
 10
331.6731907020519
 20
275.4639499921403
 30
0.0
 10
332.5399522739285
 20
275.5842709383718
 30
0.0
 10
332.9737896134667
 20
275.6421849874662
 30
0.0
 10
334.2762936305947
 20
275.8106850427918
 30
0.0
 10
335.1459528789164
 20
275.9159724539843
 30
0.0
 10
336.1472282657398
 20
276.0348463094006
 30
0.0
 10
336.2785897455523
 20
276.0503965479293
 30
0.0
 10
336.4099525130315
 20
276.0659214682663
 30
0.0
  0
SPLINE
  5
1E6
330
1F
100
AcDbEntity
  8
1
100
AcDbSpline
210
0.0
220
0.0
230
1.0
 70
    12
 71
     3
 72
     9
 73
     5
 74
     0
 42
0.000000001
 43
0.0000000001
 40
0.0
 40
0.0
 40
0.0
 40
0.0
 40
0.9151786663655347
 40
1.0
 40
1.0
 40
1.0
 40
1.0
 10
310.8989492612357
 20
271.1079189558433
 30
0.0
 41
1.002925486973844
 10
321.0368903791232
 20
272.975975008645
 30
0.0
 41
1.000608595826733
 10
331.0875933253337
 20
273.1096290642358
 30
0.0
 41
1.001508902798144
 10
341.1883382923668
 20
274.7806231693156
 30
0.0
 41
1.001572119258328
 10
342.0457298587868
 20
274.9330067326663
 30
0.0
 41
1.001573238510701
  0
SPLINE
  5
1E7
330
1F
100
AcDbEntity
  8
1
100
AcDbSpline
210
0.0
220
0.0
230
1.0
 70
     8
 71
     3
 72
    29
 73
    25
 74
     0
 42
0.000000001
 43
0.0000000001
 40
0.0
 40
0.0
 40
0.0
 40
0.0
 40
0.0625000000000006
 40
0.0625000000000006
 40
0.1250000000000011
 40
0.1250000000000011
 40
0.1875000000000017
 40
0.1875000000000017
 40
0.2500000000000023
 40
0.2500000000000023
 40
0.3749999999999991
 40
0.3749999999999991
 40
0.4062499999999992
 40
0.4062499999999992
 40
0.4374999999999992
 40
0.4999999999999992
 40
0.4999999999999992
 40
0.6249999999999993
 40
0.6249999999999993
 40
0.7499999999999996
 40
0.7499999999999996
 40
0.8749999999999998
 40
0.8749999999999998
 40
1.0
 40
1.0
 40
1.0
 40
1.0
 10
391.6966137116631
 20
292.1029427878344
 30
0.0
 10
391.5570972109676
 20
292.1658919996768
 30
0.0
 10
391.4162529979302
 20
292.2305811303019
 30
0.0
 10
391.1322064987018
 20
292.3630495607398
 30
0.0
 10
390.989003636438
 20
292.4308296154756
 30
0.0
 10
390.7004796765436
 20
292.5691655954303
 30
0.0
 10
390.5551580041491
 20
292.6397222738565
 30
0.0
 10
390.2625094405342
 20
292.7834633971213
 30
0.0
 10
390.1151951585687
 20
292.8566313179899
 30
0.0
 10
389.6705609417842
 20
293.0796620243545
 30
0.0
 10
389.3705598427385
 20
293.2330383781508
 30
0.0
 10
388.9918258542707
 20
293.4296502762864
 30
0.0
 10
388.9158361719083
 20
293.4692473338155
 30
0.0
 10
388.7637812204744
 20
293.5487639004099
 30
0.0
 10
388.5356995025834
 20
293.6684622441963
 30
0.0
 10
388.3076197961049
 20
293.7893615870872
 30
0.0
 10
387.8514628005549
 20
294.0326036890174
 30
0.0
 10
387.5473613495877
 20
294.1966833890851
 30
0.0
 10
386.9391637751436
 20
294.5280237938366
 30
0.0
 10
386.6350676554085
 20
294.6952867326876
 30
0.0
 10
386.0268799484322
 20
295.0325189286736
 30
0.0
 10
385.7227883634891
 20
295.2024895580288
 30
0.0
 10
385.1146091348098
 20
295.5447840818376
 30
0.0
 10
384.8105214925641
 20
295.7171088663122
 30
0.0
 10
384.5064355997736
 20
295.8904782374425
 30
0.0
  0
SPLINE
  5
1E8
330
1F
100
AcDbEntity
  8
1
100
AcDbSpline
210
0.0
220
0.0
230
1.0
 70
     8
 71
     3
 72
    38
 73
    34
 74
     0
 42
0.000000001
 43
0.0000000001
 40
0.0
 40
0.0
 40
0.0
 40
0.0
 40
0.0714640890268209
 40
0.0714640890268209
 40
0.1046260858472911
 40
0.1046260858472911
 40
0.137788082667761
 40
0.137788082667761
 40
0.2041120763087025
 40
0.2041120763087025
 40
0.2704360699496438
 40
0.2704360699496438
 40
0.3367600635905854
 40
0.3367600635905854
 40
0.403084057231527
 40
0.403084057231527
 40
0.4694080508724682
 40
0.4694080508724682
 40
0.5357320445134098
 40
0.5357320445134098
 40
0.6020560381543513
 40
0.6020560381543513
 40
0.6683800317952928
 40
0.6683800317952928
 40
0.7347040254362342
 40
0.7347040254362342
 40
0.8010280190771755
 40
0.8010280190771755
 40
0.867352012718117
 40
0.867352012718117
 40
0.9336760063590585
 40
0.9336760063590585
 40
1.0
 40
1.0
 40
1.0
 40
1.0
 10
343.2338067414492
 20
274.7064220021385
 30
0.0
 10
342.4656974094224
 20
274.5673496573312
 30
0.0
 10
341.6968739723913
 20
274.4327827068713
 30
0.0
 10
340.5700390850137
 20
274.2425676756017
 30
0.0
 10
340.2126975608907
 20
274.1832737236365
 30
0.0
 10
339.4976220173124
 20
274.0666940352917
 30
0.0
 10
339.1398804749862
 20
274.0094224403362
 30
0.0
 10
338.0661135467386
 20
273.8404761120965
 30
0.0
 10
337.3494544820981
 20
273.7316074056638
 30
0.0
 10
335.9162019284821
 20
273.5204323851605
 30
0.0
 10
335.1995222569388
 20
273.4181132203905
 30
0.0
 10
333.7664126480543
 20
273.2192631108222
 30
0.0
 10
333.0499827022932
 20
273.1227343757088
 30
0.0
 10
331.6176212300236
 20
272.9350721848726
 30
0.0
 10
330.9016895705572
 20
272.8439409379538
 30
0.0
 10
329.4704675768254
 20
272.6669653607643
 30
0.0
 10
328.7551770623236
 20
272.5811231406898
 30
0.0
 10
327.325279463862
 20
272.4148367268558
 30
0.0
 10
326.6106722056043
 20
272.3343945080562
 30
0.0
 10
325.1820879284232
 20
272.1791773080041
 30
0.0
 10
324.4681107717098
 20
272.1044041754255
 30
0.0
 10
323.040642991717
 20
271.9608951740827
 30
0.0
 10
322.3271522793841
 20
271.8921610634859
 30
0.0
 10
320.9004266038165
 20
271.7611469996024
 30
0.0
 10
320.1871915996505
 20
271.6988687577124
 30
0.0
 10
318.7606614160775
 20
271.5811783171714
 30
0.0
 10
318.0473662360615
 20
271.5257678175453
 30
0.0
 10
316.6203152253066
 20
271.4221687001323
 30
0.0
 10
315.9065594247386
 20
271.3739817788191
 30
0.0
 10
314.4781016668734
 20
271.2850786833017
 30
0.0
 10
313.7633997646272
 20
271.2443641748122
 30
0.0
 10
312.332477972268
 20
271.1704972090487
 30
0.0
 10
311.6162581657217
 20
271.1373463083981
 30
0.0
 10
310.8989492612357
 20
271.1079189558433
 30
0.0
  0
SPLINE
  5
1E9
330
1F
100
AcDbEntity
  8
1
100
AcDbSpline
210
0.0
220
0.0
230
1.0
 70
     8
 71
     3
 72
     8
 73
     4
 74
     0
 42
0.000000001
 43
0.0000000001
 40
0.0
 40
0.0
 40
0.0
 40
0.0
 40
1.0
 40
1.0
 40
1.0
 40
1.0
 10
409.7311931720171
 20
287.8874807728481
 30
0.0
 10
409.7276505834055
 20
287.9092200467838
 30
0.0
 10
409.722340263689
 20
287.9305185758535
 30
0.0
 10
409.7152622128679
 20
287.9513763600573
 30
0.0
  0
SPLINE
  5
1EA
330
1F
100
AcDbEntity
  8
1
100
AcDbSpline
210
0.0
220
0.0
230
1.0
 70
     8
 71
     3
 72
     8
 73
     4
 74
     0
 42
0.000000001
 43
0.0000000001
 40
0.0
 40
0.0
 40
0.0
 40
0.0
 40
1.0
 40
1.0
 40
1.0
 40
1.0
 10
409.5894505876547
 20
280.7436331788933
 30
0.0
 10
409.5972522528897
 20
280.7642312366872
 30
0.0
 10
409.6033026456479
 20
280.7853314637831
 30
0.0
 10
409.6076017659293
 20
280.8069338601809
 30
0.0
  0
SPLINE
  5
1EB
330
1F
100
AcDbEntity
  8
1
100
AcDbSpline
210
0.0
220
0.0
230
1.0
 70
    12
 71
     2
 72
     6
 73
     3
 74
     0
 42
0.000000001
 43
0.0000000001
 40
0.0
 40
0.0
 40
0.0
 40
1.0
 40
1.0
 40
1.0
 10
396.5350341251415
 20
306.8497141730157
 30
0.0
 41
0.5000046035043628
 10
396.6472164898839
 20
306.8495567475027
 30
0.0
 41
0.4999953964956373
 10
396.7593980940216
 20
306.8493988974426
 30
0.0
 41
0.5000046035043628
  0
SPLINE
  5
1EC
330
1F
100
AcDbEntity
  8
1
100
AcDbSpline
210
0.0
220
0.0
230
1.0
 70
     8
 71
     3
 72
    10
 73
     6
 74
     0
 42
0.000000001
 43
0.0000000001
 40
0.0
 40
0.0
 40
0.0
 40
0.0
 40
0.5
 40
0.5
 40
1.0
 40
1.0
 40
1.0
 40
1.0
 10
395.7939360831914
 20
301.9357947704122
 30
0.0
 10
395.7352057835215
 20
302.7499933315099
 30
0.0
 10
395.6826712461191
 20
303.5645886329143
 30
0.0
 10
395.5867596994361
 20
305.1943656301582
 30
0.0
 10
395.5434014081874
 20
306.0094991187638
 30
0.0
 10
395.5035321753529
 20
306.8248133322533
 30
0.0
  0
SPLINE
  5
1ED
330
1F
100
AcDbEntity
  8
1
100
AcDbSpline
210
0.0
220
0.0
230
1.0
 70
    12
 71
     2
 72
     6
 73
     3
 74
     0
 42
0.000000001
 43
0.0000000001
 40
0.0
 40
0.0
 40
0.0
 40
1.0
 40
1.0
 40
1.0
 10
395.5035321753085
 20
306.8248133322368
 30
0.0
 41
0.5000000132985103
 10
396.0168816514581
 20
306.8239524761968
 30
0.0
 41
0.4999999867014898
 10
396.5302069784906
 20
306.823082731967
 30
0.0
 41
0.5000000132985103
  0
SPLINE
  5
1EE
330
1F
100
AcDbEntity
  8
1
100
AcDbSpline
210
0.0
220
0.0
230
1.0
 70
    28
 71
     4
 72
    13
 73
     8
 74
     0
 42
0.000000001
 43
0.0000000001
 40
0.0
 40
0.0
 40
0.0
 40
0.0
 40
0.0
 40
0.4184136458797501
 40
0.4184136458797501
 40
0.4184136458797501
 40
1.0
 40
1.0
 40
1.0
 40
1.0
 40
1.0
 10
302.9048419452958
 20
282.7303278772707
 30
0.0
 41
1.005405995360787
 10
302.9048419452958
 20
281.7265580591843
 30
0.0
 41
1.005405995360787
 10
302.9048419452958
 20
280.5465440992693
 30
0.0
 41
0.9990170917525848
 10
302.9048419452958
 20
279.2436519164854
 30
0.0
 41
0.992628188144382
 10
302.9048419452958
 20
276.002639040175
 30
0.0
 41
0.9824486227452199
 10
302.9048419452958
 20
274.0478432918906
 30
0.0
 41
0.9806428714265276
 10
302.9048419452958
 20
272.3041347641284
 30
0.0
 41
0.98867079797387
 10
302.9048419452958
 20
270.9279218697822
 30
0.0
 41
0.9963525813738536
  0
SPLINE
  5
1EF
330
1F
100
AcDbEntity
  8
1
100
AcDbSpline
210
0.0
220
0.0
230
1.0
 70
     8
 71
     3
 72
    44
 73
    40
 74
     0
 42
0.000000001
 43
0.0000000001
 40
0.0
 40
0.0
 40
0.0
 40
0.0
 40
0.1249999999999982
 40
0.1249999999999982
 40
0.2499999999999964
 40
0.2499999999999964
 40
0.3124999999999978
 40
0.3124999999999978
 40
0.3749999999999992
 40
0.3749999999999992
 40
0.4375000000000006
 40
0.4375000000000006
 40
0.5000000000000019
 40
0.5000000000000019
 40
0.5156250000000025
 40
0.5156250000000025
 40
0.5312500000000031
 40
0.5625000000000009
 40
0.5625000000000009
 40
0.6249999999999961
 40
0.6249999999999961
 40
0.6874999999999915
 40
0.6874999999999915
 40
0.703124999999991
 40
0.703124999999991
 40
0.7187499999999904
 40
0.7499999999999913
 40
0.7499999999999913
 40
0.8124999999999909
 40
0.8124999999999909
 40
0.8749999999999904
 40
0.8749999999999904
 40
0.8828124999999914
 40
0.8828124999999914
 40
0.8906249999999927
 40
0.9062499999999943
 40
0.937499999999996
 40
0.937499999999996
 40
1.0
 40
1.0
 40
1.0
 40
1.0
 10
390.2467263283861
 20
296.2965887009336
 30
0.0
 10
390.5776858300802
 20
296.4150337836361
 30
0.0
 10
390.903554292587
 20
296.5430022392758
 30
0.0
 10
391.5435098776529
 20
296.8209774986985
 30
0.0
 10
391.8576087442712
 20
296.9709623338712
 30
0.0
 10
392.3182819154914
 20
297.2155345167763
 30
0.0
 10
392.4700881176725
 20
297.3003349997873
 30
0.0
 10
392.7698264626495
 20
297.4771828383923
 30
0.0
 10
392.9177597444517
 20
297.5692280633444
 30
0.0
 10
393.2092866099237
 20
297.761436416535
 30
0.0
 10
393.3528820084255
 20
297.861596149922
 30
0.0
 10
393.6351283576108
 20
298.0711647736578
 30
0.0
 10
393.7737823694874
 20
298.1805679376935
 30
0.0
 10
393.9435006535542
 20
298.3240546668801
 30
0.0
 10
393.9772623386323
 20
298.3530900499462
 30
0.0
 10
394.0441510935262
 20
298.4116351012791
 30
0.0
 10
394.1436290721059
 20
298.5002455704856
 30
0.0
 10
394.2404750786845
 20
298.5912963845558
 30
0.0
 10
394.4304533530085
 20
298.7768413637217
 30
0.0
 10
394.5521682729069
 20
298.9051158100168
 30
0.0
 10
394.7843425732238
 20
299.172100755099
 30
0.0
 10
394.8948109524575
 20
299.3108029102515
 30
0.0
 10
395.0246533991509
 20
299.4918234778422
 30
0.0
 10
395.0501688467011
 20
299.5283593279816
 30
0.0
 10
395.1000931410088
 20
299.6018592112221
 30
0.0
 10
395.173398212751
 20
299.7128612624188
 30
0.0
 10
395.2418511662237
 20
299.8261713704247
 30
0.0
 10
395.3719447415415
 20
300.0560320780166
 30
0.0
 10
395.4496198692448
 20
300.2135793218253
 30
0.0
 10
395.5844450541924
 20
300.5384371799949
 30
0.0
 10
395.6416138835481
 20
300.7057388648333
 30
0.0
 10
395.6923906484417
 20
300.9003930994156
 30
0.0
 10
395.6978456221053
 20
300.9221220600515
 30
0.0
 10
395.7083256086897
 20
300.9655775413488
 30
0.0
 10
395.7234183105549
 20
301.0308222002575
 30
0.0
 10
395.7542260056134
 20
301.183491526422
 30
0.0
 10
395.7730094275723
 20
301.3150975789471
 30
0.0
 10
395.8001750216031
 20
301.5793284048646
 30
0.0
 10
395.8044443550907
 20
301.7568379123525
 30
0.0
 10
395.7939360831914
 20
301.9357947704122
 30
0.0
  0
SPLINE
  5
1F0
330
1F
100
AcDbEntity
  8
1
100
AcDbSpline
210
0.0
220
0.0
230
1.0
 70
    12
 71
     3
 72
     9
 73
     5
 74
     0
 42
0.000000001
 43
0.0000000001
 40
0.0
 40
0.0
 40
0.0
 40
0.0
 40
0.4367388759997208
 40
1.0
 40
1.0
 40
1.0
 40
1.0
 10
359.3989142013633
 20
301.3551728655123
 30
0.0
 41
1.000835938867659
 10
364.7160487275659
 20
301.4722231954912
 30
0.0
 41
1.000932072566506
 10
376.8039347137359
 20
301.094901022702
 30
0.0
 41
1.003388720568367
 10
389.1297786097414
 20
300.7379665485499
 30
0.0
 41
1.000308994106434
 10
395.7939360831914
 20
301.9357947704122
 30
0.0
 41
1.000986438254589
  0
SPLINE
  5
1F1
330
1F
100
AcDbEntity
  8
1
100
AcDbSpline
210
0.0
220
0.0
230
1.0
 70
     8
 71
     3
 72
    32
 73
    28
 74
     0
 42
0.000000001
 43
0.0000000001
 40
0.0
 40
0.0
 40
0.0
 40
0.0
 40
0.1250000000000008
 40
0.1250000000000008
 40
0.2500000000000016
 40
0.2500000000000016
 40
0.3125000000000019
 40
0.3125000000000019
 40
0.3437500000000024
 40
0.3437500000000024
 40
0.3593750000000023
 40
0.3593750000000023
 40
0.3750000000000023
 40
0.3750000000000023
 40
0.5000000000000017
 40
0.5000000000000017
 40
0.6250000000000018
 40
0.6250000000000018
 40
0.6875000000000022
 40
0.6875000000000022
 40
0.7187500000000025
 40
0.7187500000000025
 40
0.7500000000000028
 40
0.7500000000000028
 40
0.8750000000000014
 40
0.8750000000000014
 40
1.0
 40
1.0
 40
1.0
 40
1.0
 10
277.0194146570335
 20
276.5326902400776
 30
0.0
 10
276.9697768222673
 20
276.2535759452618
 30
0.0
 10
276.9416937361184
 20
275.9803375173589
 30
0.0
 10
276.9261761617914
 20
275.4454109718252
 30
0.0
 10
276.938752179879
 20
275.1837233230175
 30
0.0
 10
276.9874317400919
 20
274.7997873773518
 30
0.0
 10
277.0086385518503
 20
274.6732421373229
 30
0.0
 10
277.0479290109781
 20
274.4855730517868
 30
0.0
 10
277.0622731834342
 20
274.4233748674659
 30
0.0
 10
277.0856675068888
 20
274.3306151222147
 30
0.0
 10
277.093772708297
 20
274.2998105999728
 30
0.0
 10
277.1105513990695
 20
274.2385815856704
 30
0.0
 10
277.1192304840036
 20
274.2081346338109
 30
0.0
 10
277.1999183008885
 20
273.9355994367421
 30
0.0
 10
277.289898196316
 20
273.7038967141735
 30
0.0
 10
277.5036656925741
 20
273.2596269315383
 30
0.0
 10
277.6274663022044
 20
273.0470665102569
 30
0.0
 10
277.8374319596801
 20
272.7414903243057
 30
0.0
 10
277.9114729658581
 20
272.6418456314309
 30
0.0
 10
278.028542196175
 20
272.4955880004258
 30
0.0
 10
278.0684991292568
 20
272.4474580950706
 30
0.0
 10
278.1500462781624
 20
272.3526392551749
 30
0.0
 10
278.1916662159211
 20
272.3059129829335
 30
0.0
 10
278.4039067855815
 20
272.0755864073634
 30
0.0
 10
278.5869169670207
 20
271.9018751697433
 30
0.0
 10
278.977619002228
 20
271.5731558348633
 30
0.0
 10
279.1853183561084
 20
271.4181545253897
 30
0.0
 10
279.4048419452957
 20
271.2715735177651
 30
0.0
  0
SPLINE
  5
1F2
330
1F
100
AcDbEntity
  8
1
100
AcDbSpline
210
0.0
220
0.0
230
1.0
 70
     8
 71
     3
 72
    68
 73
    64
 74
     0
 42
0.000000001
 43
0.0000000001
 40
0.0
 40
0.0
 40
0.0
 40
0.0
 40
0.0625000000000009
 40
0.0625000000000009
 40
0.1250000000000017
 40
0.1250000000000017
 40
0.1875000000000026
 40
0.1875000000000026
 40
0.2187500000000029
 40
0.2187500000000029
 40
0.2343750000000031
 40
0.2343750000000031
 40
0.2500000000000033
 40
0.2500000000000033
 40
0.3125000000000042
 40
0.3125000000000042
 40
0.3437500000000045
 40
0.3437500000000045
 40
0.3750000000000048
 40
0.3750000000000048
 40
0.4062500000000052
 40
0.4062500000000052
 40
0.4218750000000053
 40
0.4218750000000053
 40
0.4375000000000055
 40
0.4375000000000055
 40
0.4687500000000058
 40
0.4687500000000058
 40
0.4843750000000057
 40
0.4843750000000057
 40
0.5000000000000057
 40
0.5000000000000057
 40
0.5312500000000055
 40
0.5312500000000055
 40
0.5468750000000055
 40
0.5468750000000055
 40
0.5625000000000055
 40
0.5625000000000055
 40
0.5937500000000055
 40
0.5937500000000055
 40
0.6250000000000054
 40
0.6250000000000054
 40
0.6562500000000053
 40
0.6562500000000053
 40
0.6875000000000052
 40
0.6875000000000052
 40
0.7187500000000052
 40
0.7187500000000052
 40
0.7500000000000048
 40
0.7500000000000048
 40
0.812500000000004
 40
0.812500000000004
 40
0.8281250000000039
 40
0.8281250000000039
 40
0.8437500000000039
 40
0.8437500000000039
 40
0.8750000000000031
 40
0.9062500000000024
 40
0.9375000000000015
 40
0.9375000000000015
 40
0.9687500000000007
 40
0.9687500000000007
 40
1.0
 40
1.0
 40
1.0
 40
1.0
 10
302.9048419452958
 20
282.9112686678198
 30
0.0
 10
304.7527684449357
 20
282.5330562893322
 30
0.0
 10
306.599408840315
 20
282.1556867718347
 30
0.0
 10
310.2898572885636
 20
281.4024157125032
 30
0.0
 10
312.1336645708752
 20
281.0265041805237
 30
0.0
 10
315.8179564018541
 20
280.2753898113962
 30
0.0
 10
317.6584373542266
 20
279.9001658369402
 30
0.0
 10
320.4161703677869
 20
279.3372292791928
 30
0.0
 10
321.3349156267241
 20
279.1495683455568
 30
0.0
 10
322.71222106599
 20
278.8680218659551
 30
0.0
 10
323.1711874904876
 20
278.774164329188
 30
0.0
 10
324.0888395483773
 20
278.5864337584883
 30
0.0
 10
324.5475178652422
 20
278.4925621681252
 30
0.0
 10
326.8394094957434
 20
278.0233449505971
 30
0.0
 10
328.6687063433536
 20
277.6481968019033
 30
0.0
 10
331.4056574803087
 20
277.0873864068073
 30
0.0
 10
332.3168121482813
 20
276.9007883650599
 30
0.0
 10
334.1367505468431
 20
276.5288293673092
 30
0.0
 10
335.0455335859348
 20
276.3434674030863
 30
0.0
 10
336.860750737201
 20
275.9747844689513
 30
0.0
 10
337.7671841899449
 20
275.7914630489868
 30
0.0
 10
339.125156717455
 20
275.5188169488474
 30
0.0
 10
339.5775301040923
 20
275.4283140605053
 30
0.0
 10
340.4817681993741
 20
275.2483094160311
 30
0.0
 10
340.9336485404333
 20
275.158845896901
 30
0.0
 10
342.2889071691488
 20
274.892960537827
 30
0.0
 10
343.1919123583309
 20
274.7190852259693
 30
0.0
 10
344.5468463913991
 20
274.4661456543378
 30
0.0
 10
344.9986045902242
 20
274.3831262915943
 30
0.0
 10
345.9021310089336
 20
274.2200904551884
 30
0.0
 10
346.353910378691
 20
274.140071366521
 30
0.0
 10
347.7095272084953
 20
273.9049092535182
 30
0.0
 10
348.6136501743508
 20
273.7546903752249
 30
0.0
 10
349.9711929141117
 20
273.5402001609926
 30
0.0
 10
350.4239317638832
 20
273.4705020780401
 30
0.0
 10
351.3299720967274
 20
273.3347912886595
 30
0.0
 10
351.7832842549209
 20
273.2687967983506
 30
0.0
 10
353.1441105411508
 20
273.0762200708673
 30
0.0
 10
354.0524773818968
 20
272.9549702107244
 30
0.0
 10
355.8712364511385
 20
272.725361743456
 30
0.0
 10
356.7816298143303
 20
272.6170089866399
 30
0.0
 10
358.6043149995411
 20
272.4122457135286
 30
0.0
 10
359.5166078958265
 20
272.315839678047
 30
0.0
 10
361.3430757948203
 20
272.1342806921004
 30
0.0
 10
362.2572517243308
 20
272.0491310216054
 30
0.0
 10
364.0875495973984
 20
271.8895397549269
 30
0.0
 10
365.0036995271932
 20
271.8150983791955
 30
0.0
 10
366.8379533205748
 20
271.6764486696989
 30
0.0
 10
367.7555687328099
 20
271.6122782740092
 30
0.0
 10
370.5101431806956
 20
271.4344556545126
 30
0.0
 10
372.3488200600116
 20
271.33551711806
 30
0.0
 10
374.6510848959012
 20
271.2335524227883
 30
0.0
 10
375.1117380610291
 20
271.2142457894553
 30
0.0
 10
376.0334504281398
 20
271.1777077267129
 30
0.0
 10
376.4945038387766
 20
271.1604709278234
 30
0.0
 10
377.8781784008089
 20
271.1116623759301
 30
0.0
 10
379.7244513782124
 20
271.0543052628169
 30
0.0
 10
382.4966695026173
 20
270.9889437750351
 30
0.0
 10
384.3457508416095
 20
270.9580509040834
 30
0.0
 10
386.1948006049193
 20
270.9332355763374
 30
0.0
 10
387.1193098881504
 20
270.9238657757385
 30
0.0
 10
388.9677628555284
 20
270.9112455703866
 30
0.0
 10
389.8917069184359
 20
270.9079935137005
 30
0.0
 10
390.8150797504226
 20
270.9079935137005
 30
0.0
  0
SPLINE
  5
1F3
330
1F
100
AcDbEntity
  8
1
100
AcDbSpline
210
0.0
220
0.0
230
1.0
 70
     8
 71
     3
 72
    70
 73
    66
 74
     0
 42
0.000000001
 43
0.0000000001
 40
0.0
 40
0.0
 40
0.0
 40
0.0
 40
0.0312500000000001
 40
0.0312500000000001
 40
0.0625000000000002
 40
0.0625000000000002
 40
0.0937500000000004
 40
0.0937500000000004
 40
0.1250000000000005
 40
0.1250000000000005
 40
0.1875000000000005
 40
0.1875000000000005
 40
0.2187500000000005
 40
0.2187500000000005
 40
0.2500000000000006
 40
0.2500000000000006
 40
0.3125000000000003
 40
0.3125000000000003
 40
0.3437500000000003
 40
0.3437500000000003
 40
0.3750000000000002
 40
0.3750000000000002
 40
0.4062500000000001
 40
0.4062500000000001
 40
0.4375
 40
0.4375
 40
0.4531250000000002
 40
0.4531250000000002
 40
0.4687500000000003
 40
0.4687500000000003
 40
0.5000000000000007
 40
0.5000000000000007
 40
0.531250000000001
 40
0.531250000000001
 40
0.5625000000000014
 40
0.5625000000000014
 40
0.5781250000000014
 40
0.5781250000000014
 40
0.5937500000000013
 40
0.5937500000000013
 40
0.6250000000000011
 40
0.6250000000000011
 40
0.6562500000000011
 40
0.6562500000000011
 40
0.687500000000001
 40
0.687500000000001
 40
0.7187500000000009
 40
0.7187500000000009
 40
0.7500000000000008
 40
0.7500000000000008
 40
0.7812500000000007
 40
0.7812500000000007
 40
0.8125000000000005
 40
0.8125000000000005
 40
0.8437500000000003
 40
0.8437500000000003
 40
0.8750000000000003
 40
0.8750000000000003
 40
0.9062500000000003
 40
0.9062500000000003
 40
0.9375000000000001
 40
0.9375000000000001
 40
0.96875
 40
0.96875
 40
1.0
 40
1.0
 40
1.0
 40
1.0
 10
302.904841945296
 20
306.9044840348636
 30
0.0
 10
303.7677823608329
 20
306.901308976147
 30
0.0
 10
304.6294568844047
 20
306.8958701442099
 30
0.0
 10
306.3504088531859
 20
306.8795915386222
 30
0.0
 10
307.2096866760602
 20
306.8687503635949
 30
0.0
 10
308.9260396655718
 20
306.8408290589616
 30
0.0
 10
309.7831151532404
 20
306.8237476734979
 30
0.0
 10
311.4953062562915
 20
306.7825862937231
 30
0.0
 10
312.3504221560976
 20
306.7585052059184
 30
0.0
 10
314.9132533148231
 20
306.6747950746433
 30
0.0
 10
316.6184421474773
 20
306.6036135130318
 30
0.0
 10
319.173119915852
 20
306.4712661069151
 30
0.0
 10
320.0239338231012
 20
306.4229197471763
 30
0.0
 10
321.7240473148164
 20
306.3176484523652
 30
0.0
 10
322.5734073895152
 20
306.2607208080097
 30
0.0
 10
325.1199455913161
 20
306.0771171676694
 30
0.0
 10
326.81559507234
 20
305.9375601551397
 30
0.0
 10
329.358087052387
 20
305.7040340863772
 30
0.0
 10
330.2054180453655
 20
305.6221770692724
 30
0.0
 10
331.9000442125875
 20
305.4508349506272
 30
0.0
 10
332.747339712209
 20
305.3613514299853
 30
0.0
 10
334.4421434477831
 20
305.1751999364766
 30
0.0
 10
335.2896519230019
 20
305.07853359418
 30
0.0
 10
336.9850726425569
 20
304.878450525184
 30
0.0
 10
337.8329850800486
 20
304.7750354842264
 30
0.0
 10
339.1052519533432
 20
304.6151312644025
 30
0.0
 10
339.5294078721996
 20
304.5610344429867
 30
0.0
 10
340.3778559540325
 20
304.4512729467367
 30
0.0
 10
340.8021418874162
 20
304.3955970258938
 30
0.0
 10
342.0750760124138
 20
304.2259798475998
 30
0.0
 10
342.923791258016
 20
304.1094364300577
 30
0.0
 10
344.6210406272637
 20
303.8685653174382
 30
0.0
 10
345.4695751609712
 20
303.7442324106879
 30
0.0
 10
347.1663885262662
 20
303.4873871885503
 30
0.0
 10
348.014668998416
 20
303.3548728763876
 30
0.0
 10
349.2870386755138
 20
303.1501092383978
 30
0.0
 10
349.7111845055643
 20
303.0808558528491
 30
0.0
 10
350.5593148854425
 20
302.9404727349582
 30
0.0
 10
350.9833058829612
 20
302.8693422741763
 30
0.0
 10
352.2551352924988
 20
302.6533081580511
 30
0.0
 10
353.1028371184691
 20
302.5057730320729
 30
0.0
 10
354.7983591018302
 20
302.2048945316222
 30
0.0
 10
355.6461780112294
 20
302.0515511642166
 30
0.0
 10
357.3422369566733
 20
301.7399475405102
 30
0.0
 10
358.1904757939552
 20
301.5816865669012
 30
0.0
 10
359.8875336498783
 20
301.2608268018364
 30
0.0
 10
360.7363516268971
 20
301.0982269753883
 30
0.0
 10
362.4346168618404
 20
300.7689835780405
 30
0.0
 10
363.2840632625084
 20
300.6023388893303
 30
0.0
 10
364.9835531531629
 20
300.2650482913226
 30
0.0
 10
365.8336262796717
 20
300.0943950750604
 30
0.0
 10
367.5336715737756
 20
299.7490333662711
 30
0.0
 10
368.3837173995884
 20
299.5743103839798
 30
0.0
 10
370.0837218916853
 20
299.220399652777
 30
0.0
 10
370.9336807641738
 20
299.0412131602955
 30
0.0
 10
372.6333265917098
 20
298.6777714594705
 30
0.0
 10
373.483014217254
 20
298.4935192334705
 30
0.0
 10
375.1818690573778
 20
298.1190570098376
 30
0.0
 10
376.0310347692534
 20
297.928843174705
 30
0.0
 10
377.7285155722846
 20
297.5411954816591
 30
0.0
 10
378.5768227719221
 20
297.3437323767792
 30
0.0
 10
380.2724774398408
 20
296.9409683977079
 30
0.0
 10
381.1198218478849
 20
296.7356517837208
 30
0.0
 10
382.8138066280771
 20
296.3178119908412
 30
0.0
 10
383.6602371372308
 20
296.1053203854343
 30
0.0
 10
384.5064355997607
 20
295.8904782374458
 30
0.0
  0
SPLINE
  5
1F4
330
1F
100
AcDbEntity
  8
1
100
AcDbSpline
210
0.0
220
0.0
230
1.0
 70
     8
 71
     3
 72
    40
 73
    36
 74
     0
 42
0.000000001
 43
0.0000000001
 40
0.0
 40
0.0
 40
0.0
 40
0.0
 40
0.0582750578617724
 40
0.0582750578617724
 40
0.1165501157235447
 40
0.1165501157235447
 40
0.1748251735853171
 40
0.1748251735853171
 40
0.2331002314470895
 40
0.2331002314470895
 40
0.2913752893088619
 40
0.2913752893088619
 40
0.3205128182397476
 40
0.3205128182397476
 40
0.3496503471706334
 40
0.3496503471706334
 40
0.4079254050324043
 40
0.4079254050324043
 40
0.4662004628941749
 40
0.4662004628941749
 40
0.5827505786177156
 40
0.5827505786177156
 40
0.6993006943412564
 40
0.6993006943412564
 40
0.7575757522030271
 40
0.7575757522030271
 40
0.8158508100647978
 40
0.8158508100647978
 40
0.8741258679265685
 40
0.8741258679265685
 40
0.9324009257883393
 40
0.9324009257883393
 40
0.99067598365011
 40
0.99067598365011
 40
1.0
 40
1.0
 40
1.0
 40
1.0
 10
395.5035321753537
 20
306.8248133322367
 30
0.0
 10
394.5852834212236
 20
306.8615775073977
 30
0.0
 10
393.6614320556182
 20
306.884447336557
 30
0.0
 10
391.8020943483531
 20
306.9089731636203
 30
0.0
 10
390.8666119242873
 20
306.9106460181887
 30
0.0
 10
388.9844057765723
 20
306.8985910679199
 30
0.0
 10
388.0376853111335
 20
306.8848731922567
 30
0.0
 10
386.1341043982268
 20
306.8466435048762
 30
0.0
 10
385.1772469702532
 20
306.822136676079
 30
0.0
 10
383.2551084223342
 20
306.7655129164706
 30
0.0
 10
382.2898303839347
 20
306.7333976791588
 30
0.0
 10
380.8372762113196
 20
306.6807677336259
 30
0.0
 10
380.3523224480797
 20
306.6624696134924
 30
0.0
 10
379.381197733583
 20
306.6244279799263
 30
0.0
 10
378.894984396087
 20
306.6046825022528
 30
0.0
 10
377.4358187762322
 20
306.5432644345149
 30
0.0
 10
376.4620634358551
 20
306.4994487792396
 30
0.0
 10
374.5146607517451
 20
306.4046542180244
 30
0.0
 10
373.541076191087
 20
306.3535613253598
 30
0.0
 10
370.6208504443242
 20
306.1888719565283
 30
0.0
 10
368.6747397781556
 20
306.0639028850198
 30
0.0
 10
364.7846785614762
 20
305.7810308360932
 30
0.0
 10
362.8407233785975
 20
305.6231200051649
 30
0.0
 10
359.9266723246433
 20
305.3591198861572
 30
0.0
 10
358.9555316861016
 20
305.266584364967
 30
0.0
 10
357.0146102100819
 20
305.071995586083
 30
0.0
 10
356.0447995562943
 20
304.9699466860996
 30
0.0
 10
354.1066532637983
 20
304.7555812147497
 30
0.0
 10
353.1383149929003
 20
304.6432732906642
 30
0.0
 10
351.2034397530896
 20
304.4071907937877
 30
0.0
 10
350.2369572814961
 20
304.2832984724636
 30
0.0
 10
348.3057580092808
 20
304.0233933429182
 30
0.0
 10
347.3410329499144
 20
303.8873940604329
 30
0.0
 10
346.2227806208097
 20
303.7226354877797
 30
0.0
 10
346.0685571777392
 20
303.699755411241
 30
0.0
 10
345.9143510305082
 20
303.6767219069782
 30
0.0
  0
SPLINE
  5
1F5
330
1F
100
AcDbEntity
  8
1
100
AcDbSpline
210
0.0
220
0.0
230
1.0
 70
     8
 71
     3
 72
    30
 73
    26
 74
     0
 42
0.000000001
 43
0.0000000001
 40
0.0
 40
0.0
 40
0.0
 40
0.0
 40
0.0625000000000001
 40
0.0625000000000001
 40
0.1250000000000002
 40
0.1250000000000002
 40
0.1875000000000003
 40
0.1875000000000003
 40
0.2500000000000004
 40
0.2500000000000004
 40
0.3750000000000005
 40
0.3750000000000005
 40
0.4375000000000008
 40
0.4375000000000008
 40
0.4687500000000007
 40
0.4687500000000007
 40
0.5000000000000007
 40
0.5000000000000007
 40
0.6250000000000006
 40
0.6250000000000006
 40
0.7500000000000004
 40
0.7500000000000004
 40
0.8750000000000001
 40
0.8750000000000001
 40
1.0
 40
1.0
 40
1.0
 40
1.0
 10
288.7322209983845
 20
271.2494439940565
 30
0.0
 10
288.493218846044
 20
271.269698746203
 30
0.0
 10
288.2576689137682
 20
271.2865156279025
 30
0.0
 10
287.7927869124211
 20
271.3143793999884
 30
0.0
 10
287.5634567555584
 20
271.325424728921
 30
0.0
 10
287.11050905504
 20
271.3426965072409
 30
0.0
 10
286.8868927648774
 20
271.3489218247988
 30
0.0
 10
286.4449968872803
 20
271.3573940246214
 30
0.0
 10
286.2267181474067
 20
271.3596400386173
 30
0.0
 10
285.5794711478748
 20
271.3615492319246
 30
0.0
 10
285.1580623451568
 20
271.3564006807396
 30
0.0
 10
284.5400725398658
 20
271.343140133154
 30
0.0
 10
284.3364379455812
 20
271.3377917523497
 30
0.0
 10
284.0344658527943
 20
271.3288590224442
 30
0.0
 10
283.9343888417957
 20
271.3257296403996
 30
0.0
 10
283.7353893708187
 20
271.319246979241
 30
0.0
 10
283.6364295962539
 20
271.3158923783868
 30
0.0
 10
283.1449148038612
 20
271.2987736608117
 30
0.0
 10
282.7643657050247
 20
271.2840545555957
 30
0.0
 10
282.0274504447807
 20
271.2577229472053
 30
0.0
 10
281.671090880485
 20
271.2460892592478
 30
0.0
 10
280.9822191213563
 20
271.2313099730179
 30
0.0
 10
280.6497076330538
 20
271.2281354802422
 30
0.0
 10
280.0088700846957
 20
271.2366427713415
 30
0.0
 10
279.700537649109
 20
271.2482738959074
 30
0.0
 10
279.4048419452957
 20
271.2715735177651
 30
0.0
  0
SPLINE
  5
1FD
330
1F
100
AcDbEntity
  8
1
100
AcDbSpline
210
0.0
220
0.0
230
1.0
 70
     8
 71
     3
 72
    26
 73
    22
 74
     0
 42
0.000000001
 43
0.0000000001
 40
0.0
 40
0.0
 40
0.0
 40
0.0
 40
0.1250000000000228
 40
0.1250000000000228
 40
0.2500000000000457
 40
0.2500000000000457
 40
0.3125000000000569
 40
0.3125000000000569
 40
0.3750000000000681
 40
0.3750000000000681
 40
0.5000000000000503
 40
0.5000000000000503
 40
0.6250000000000327
 40
0.6250000000000327
 40
0.6875000000000342
 40
0.6875000000000342
 40
0.7500000000000357
 40
0.7500000000000357
 40
0.8750000000000179
 40
0.8750000000000179
 40
1.0
 40
1.0
 40
1.0
 40
1.0
 10
400.1688960925734
 20
293.8545640351751
 30
0.0
 10
400.0991128720075
 20
293.8087336026645
 30
0.0
 10
400.0279360126365
 20
293.7667622925072
 30
0.0
 10
399.8826082207403
 20
293.690047380923
 30
0.0
 10
399.8084610820089
 20
293.6553076983743
 30
0.0
 10
399.6948241089003
 20
293.608551904768
 30
0.0
 10
399.6565415356777
 20
293.5938616139171
 30
0.0
 10
399.5791228356833
 20
293.5662912589027
 30
0.0
 10
399.5399898967317
 20
293.5534183660621
 30
0.0
 10
399.4222637735497
 20
293.5178569940264
 30
0.0
 10
399.3430090802241
 20
293.4980876476426
 30
0.0
 10
399.1826009555357
 20
293.4664731304153
 30
0.0
 10
399.1014429488533
 20
293.4546294933864
 30
0.0
 10
398.9779832959148
 20
293.4431306960204
 30
0.0
 10
398.9365240552131
 20
293.4403443216604
 30
0.0
 10
398.8530738234452
 20
293.4369513165261
 30
0.0
 10
398.8115697252591
 20
293.4363635997075
 30
0.0
 10
398.6876840466816
 20
293.4378190590291
 30
0.0
 10
398.6059332990417
 20
293.4430709871102
 30
0.0
 10
398.443720202583
 20
293.4617398058061
 30
0.0
 10
398.3632514130277
 20
293.4751537277165
 30
0.0
 10
398.2832003795384
 20
293.4926222698558
 30
0.0
  0
SPLINE
  5
1FE
330
1F
100
AcDbEntity
  8
1
100
AcDbSpline
210
0.0
220
0.0
230
1.0
 70
     8
 71
     3
 72
    27
 73
    23
 74
     0
 42
0.000000001
 43
0.0000000001
 40
0.0
 40
0.0
 40
0.0
 40
0.0
 40
0.1249999999999832
 40
0.2499999999999665
 40
0.3749999999999496
 40
0.4062499999999499
 40
0.4062499999999499
 40
0.43749999999995
 40
0.43749999999995
 40
0.4999999999999563
 40
0.4999999999999563
 40
0.6249999999999631
 40
0.6249999999999631
 40
0.6874999999999693
 40
0.6874999999999693
 40
0.7187499999999724
 40
0.7187499999999724
 40
0.7499999999999753
 40
0.7499999999999753
 40
0.8749999999999877
 40
0.8749999999999877
 40
1.0
 40
1.0
 40
1.0
 40
1.0
 10
398.2823956729576
 20
293.2613526669551
 30
0.0
 10
397.9907947639556
 20
293.2511091126908
 30
0.0
 10
397.4092526476009
 20
293.2506959657397
 30
0.0
 10
396.5418320264615
 20
293.3092146503706
 30
0.0
 10
395.8949254900597
 20
293.3972881828818
 30
0.0
 10
395.5368183722564
 20
293.4617190153098
 30
0.0
 10
395.393679106556
 20
293.4887398686238
 30
0.0
 10
395.3221939064674
 20
293.5028686178076
 30
0.0
 10
395.1083894949308
 20
293.5470262595404
 30
0.0
 10
394.9665690587748
 20
293.5788543014494
 30
0.0
 10
394.5432421237206
 20
293.6814545091556
 30
0.0
 10
394.2638674014837
 20
293.7593346286015
 30
0.0
 10
393.8490649785014
 20
293.8903135957348
 30
0.0
 10
393.7115080974369
 20
293.9363350945002
 30
0.0
 10
393.5062439174462
 20
294.0089207933568
 30
0.0
 10
393.4379686580648
 20
294.0337207826594
 30
0.0
 10
393.3019971714979
 20
294.0844254043668
 30
0.0
 10
393.2342904826351
 20
294.1103330125482
 30
0.0
 10
392.8971467416677
 20
294.2426329057254
 30
0.0
 10
392.6318736590613
 20
294.3573016438543
 30
0.0
 10
392.1101518647439
 20
294.6040710580224
 30
0.0
 10
391.8537031273175
 20
294.7361722506496
 30
0.0
 10
391.6017023233114
 20
294.8769885910389
 30
0.0
  0
SPLINE
  5
1FF
330
1F
100
AcDbEntity
  8
1
100
AcDbSpline
210
0.0
220
0.0
230
1.0
 70
     8
 71
     3
 72
     8
 73
     4
 74
     0
 42
0.000000001
 43
0.0000000001
 40
0.0
 40
0.0
 40
0.0
 40
0.0
 40
1.0
 40
1.0
 40
1.0
 40
1.0
 10
398.2823956729576
 20
293.2613526669551
 30
0.0
 10
398.285953295672
 20
293.2614776415357
 30
0.0
 10
398.2895119014149
 20
293.2616022162768
 30
0.0
 10
398.2930714918052
 20
293.2617263905198
 30
0.0
  0
SPLINE
  5
200
330
1F
100
AcDbEntity
  8
1
100
AcDbSpline
210
0.0
220
0.0
230
1.0
 70
     8
 71
     3
 72
    27
 73
    23
 74
     0
 42
0.000000001
 43
0.0000000001
 40
0.0
 40
0.0
 40
0.0
 40
0.0
 40
0.125000000000007
 40
0.125000000000007
 40
0.250000000000014
 40
0.250000000000014
 40
0.3125000000000148
 40
0.3125000000000148
 40
0.3750000000000155
 40
0.3750000000000155
 40
0.5000000000000171
 40
0.5000000000000171
 40
0.5312500000000174
 40
0.5312500000000174
 40
0.5625000000000178
 40
0.5625000000000178
 40
0.6250000000000128
 40
0.6250000000000128
 40
0.7500000000000086
 40
0.8750000000000042
 40
0.8750000000000042
 40
1.0
 40
1.0
 40
1.0
 40
1.0
 10
391.7238020307196
 20
291.3082895466949
 30
0.0
 10
391.9735350724902
 20
291.1547529634698
 30
0.0
 10
392.2283062867728
 20
291.0108022542048
 30
0.0
 10
392.747826647
 20
290.7420365253211
 30
0.0
 10
393.0125754917044
 20
290.6172207738568
 30
0.0
 10
393.4172132527226
 20
290.4445096249613
 30
0.0
 10
393.5534372492557
 20
290.3893304002809
 30
0.0
 10
393.8272908570336
 20
290.2842748956313
 30
0.0
 10
393.965040840669
 20
290.2343432564314
 30
0.0
 10
394.3807447016563
 20
290.0923004189053
 30
0.0
 10
394.6611491583541
 20
290.0079311751806
 30
0.0
 10
395.0157377788031
 20
289.915406061881
 30
0.0
 10
395.0868599163895
 20
289.8975486545479
 30
0.0
 10
395.2295140108835
 20
289.863133015714
 30
0.0
 10
395.3010817833451
 20
289.8465669192806
 30
0.0
 10
395.5161511929709
 20
289.7988804609701
 30
0.0
 10
395.6597805095243
 20
289.7698209153834
 30
0.0
 10
396.0914076730118
 20
289.6907331450861
 30
0.0
 10
396.6688796674109
 20
289.6068357838683
 30
0.0
 10
397.2502366286932
 20
289.5655004103778
 30
0.0
 10
397.8335434100736
 20
289.545536112195
 30
0.0
 10
398.1261716292718
 20
289.5462386166191
 30
0.0
 10
398.4197958893036
 20
289.5578580861025
 30
0.0
  0
SPLINE
  5
201
330
1F
100
AcDbEntity
  8
1
100
AcDbSpline
210
0.0
220
0.0
230
1.0
 70
     8
 71
     3
 72
    83
 73
    79
 74
     0
 42
0.000000001
 43
0.0000000001
 40
0.0
 40
0.0
 40
0.0
 40
0.0
 40
0.062500000000007
 40
0.062500000000007
 40
0.1250000000000139
 40
0.1250000000000139
 40
0.1875000000000209
 40
0.1875000000000209
 40
0.2500000000000278
 40
0.2500000000000278
 40
0.2812500000000305
 40
0.2812500000000305
 40
0.312500000000033
 40
0.312500000000033
 40
0.3437500000000356
 40
0.3437500000000356
 40
0.3750000000000382
 40
0.3750000000000382
 40
0.4062500000000408
 40
0.4062500000000408
 40
0.4375000000000435
 40
0.4375000000000435
 40
0.468750000000046
 40
0.468750000000046
 40
0.4843750000000473
 40
0.4843750000000473
 40
0.5000000000000485
 40
0.5000000000000485
 40
0.51562500000005
 40
0.51562500000005
 40
0.5312500000000512
 40
0.5312500000000512
 40
0.5351562500000515
 40
0.5351562500000515
 40
0.5390625000000516
 40
0.5390625000000516
 40
0.5468750000000514
 40
0.5468750000000514
 40
0.5625000000000505
 40
0.5625000000000505
 40
0.5781250000000494
 40
0.5781250000000494
 40
0.5937500000000485
 40
0.5937500000000485
 40
0.6093750000000476
 40
0.6093750000000476
 40
0.6171875000000471
 40
0.6171875000000471
 40
0.6210937500000473
 40
0.6210937500000473
 40
0.6250000000000476
 40
0.6562500000000444
 40
0.6562500000000444
 40
0.6640625000000439
 40
0.6640625000000439
 40
0.6718750000000436
 40
0.6718750000000436
 40
0.6875000000000413
 40
0.6875000000000413
 40
0.7031250000000391
 40
0.7031250000000391
 40
0.7187500000000368
 40
0.7187500000000368
 40
0.7500000000000342
 40
0.7500000000000342
 40
0.7812500000000318
 40
0.7812500000000318
 40
0.7968750000000294
 40
0.7968750000000294
 40
0.8125000000000271
 40
0.8125000000000271
 40
0.8437500000000227
 40
0.8437500000000227
 40
0.8750000000000181
 40
0.8750000000000181
 40
0.9375000000000092
 40
0.9375000000000092
 40
1.0
 40
1.0
 40
1.0
 40
1.0
 10
391.6046822705259
 20
294.7898914554112
 30
0.0
 10
391.8301483472902
 20
294.6087541194022
 30
0.0
 10
392.0556266216098
 20
294.4361209085473
 30
0.0
 10
392.506151121025
 20
294.1063812902147
 30
0.0
 10
392.7312002954167
 20
293.9492786939904
 30
0.0
 10
393.180279957627
 20
293.6494098717966
 30
0.0
 10
393.4043160924826
 20
293.5066469833878
 30
0.0
 10
393.8505270110383
 20
293.2344443816869
 30
0.0
 10
394.0727131033001
 20
293.1050087294639
 30
0.0
 10
394.4035922005088
 20
292.9201412989091
 30
0.0
 10
394.5134944014215
 20
292.8600657486978
 30
0.0
 10
394.7321764609668
 20
292.7428905065704
 30
0.0
 10
394.8408226661557
 20
292.6858005339001
 30
0.0
 10
395.0562550329261
 20
292.5744559418339
 30
0.0
 10
395.1630435346396
 20
292.520201869694
 30
0.0
 10
395.3741212225015
 20
292.4143357750268
 30
0.0
 10
395.478414395582
 20
292.3627246096208
 30
0.0
 10
395.6835990131386
 20
292.2618964672472
 30
0.0
 10
395.7844977192269
 20
292.212680918837
 30
0.0
 10
395.9815669176957
 20
292.1163085337667
 30
0.0
 10
396.0777518399341
 20
292.0691542667057
 30
0.0
 10
396.2633367062904
 20
291.9764241200268
 30
0.0
 10
396.3519877377623
 20
291.9312291159879
 30
0.0
 10
396.4762183780694
 20
291.8647764318617
 30
0.0
 10
396.5161602492252
 20
291.8428475074865
 30
0.0
 10
396.5925030658636
 20
291.79934696386
 30
0.0
 10
396.6289061695595
 20
291.777775413639
 30
0.0
 10
396.6973857908181
 20
291.7348891078352
 30
0.0
 10
396.7294657032863
 20
291.7135744012643
 30
0.0
 10
396.7882480062668
 20
291.6710853876717
 30
0.0
 10
396.8149559755523
 20
291.6499110549128
 30
0.0
 10
396.8440759614842
 20
291.6234478257292
 30
0.0
 10
396.8496854784518
 20
291.6181553764058
 30
0.0
 10
396.8604473451205
 20
291.6075686535404
 30
0.0
 10
396.8655984253542
 20
291.6022748386293
 30
0.0
 10
396.8802503278827
 20
291.5864675353764
 30
0.0
 10
396.8889774162684
 20
291.5760021511616
 30
0.0
 10
396.9117557229358
 20
291.5448213077946
 30
0.0
 10
396.9224134047658
 20
291.5243188311956
 30
0.0
 10
396.9329616911352
 20
291.4839111920378
 30
0.0
 10
396.9328525818905
 20
291.4640044581153
 30
0.0
 10
396.9198517261719
 20
291.4249068031407
 30
0.0
 10
396.9070946238422
 20
291.4062081702476
 30
0.0
 10
396.8690225274958
 20
291.3706605268922
 30
0.0
 10
396.8437060822633
 20
291.3538085071607
 30
0.0
 10
396.7965204929261
 20
291.330057871467
 30
0.0
 10
396.7792594382481
 20
291.3223960244293
 30
0.0
 10
396.7511181960223
 20
291.3113074845568
 30
0.0
 10
396.7413495558928
 20
291.307674018331
 30
0.0
 10
396.7211331895058
 20
291.3005668115437
 30
0.0
 10
396.6273968508676
 20
291.269400512744
 30
0.0
 10
396.5101309330886
 20
291.2454844670444
 30
0.0
 10
396.3653154991301
 20
291.2251641875879
 30
0.0
 10
396.335617935278
 20
291.2214132152935
 30
0.0
 10
396.2749030745996
 20
291.2145262067994
 30
0.0
 10
396.2438277829552
 20
291.2113854437252
 30
0.0
 10
396.1493544870865
 20
291.2029159070757
 30
0.0
 10
396.0847053191034
 20
291.198528707096
 30
0.0
 10
395.9528981599218
 20
291.1920572808128
 30
0.0
 10
395.8857372181967
 20
291.1899739270647
 30
0.0
 10
395.7495026544397
 20
291.187957685947
 30
0.0
 10
395.680427189916
 20
291.1880253145632
 30
0.0
 10
395.4710007318808
 20
291.1912850963677
 30
0.0
 10
395.3284845044096
 20
291.1975249067408
 30
0.0
 10
395.040072687832
 20
291.2175411383237
 30
0.0
 10
394.8941587938417
 20
291.2313220236616
 30
0.0
 10
394.6738368157259
 20
291.2573958657708
 30
0.0
 10
394.600148724067
 20
291.2669891296589
 30
0.0
 10
394.4524089646067
 20
291.2879526635341
 30
0.0
 10
394.3783034166153
 20
291.2993325067899
 30
0.0
 10
394.1561809612297
 20
291.3360095858996
 30
0.0
 10
394.0082666157881
 20
291.363849251425
 30
0.0
 10
393.71328960515
 20
291.4260784220106
 30
0.0
 10
393.5662239608801
 20
291.4604688957897
 30
0.0
 10
393.1268035225751
 20
291.5732753487542
 30
0.0
 10
392.8362532778638
 20
291.661296247698
 30
0.0
 10
392.2614969320683
 20
291.862812665963
 30
0.0
 10
391.9772682818275
 20
291.9763127196791
 30
0.0
 10
391.6966137116632
 20
292.1029427878344
 30
0.0
  0
SPLINE
  5
202
330
1F
100
AcDbEntity
  8
1
100
AcDbSpline
210
0.0
220
0.0
230
1.0
 70
     9
 71
     3
 72
   133
 73
   129
 74
     0
 42
0.000000001
 43
0.0000000001
 40
0.0
 40
0.0
 40
0.0
 40
0.0
 40
0.0312500000000055
 40
0.0312500000000055
 40
0.046875000000009
 40
0.046875000000009
 40
0.0625000000000126
 40
0.0625000000000126
 40
0.0937500000000162
 40
0.0937500000000162
 40
0.109375000000018
 40
0.109375000000018
 40
0.1250000000000198
 40
0.1250000000000198
 40
0.1562500000000236
 40
0.1562500000000236
 40
0.1640625000000265
 40
0.1640625000000265
 40
0.1718750000000293
 40
0.1718750000000293
 40
0.1875000000000428
 40
0.2031250000000563
 40
0.2031250000000563
 40
0.2109375000000631
 40
0.2109375000000631
 40
0.2187500000000698
 40
0.2187500000000698
 40
0.2500000000000879
 40
0.2500000000000879
 40
0.2656250000000969
 40
0.2656250000000969
 40
0.2734375000001059
 40
0.2734375000001059
 40
0.2812500000001149
 40
0.2812500000001149
 40
0.3125000000001595
 40
0.3125000000001595
 40
0.3203125000001726
 40
0.3203125000001726
 40
0.3281250000001858
 40
0.3281250000001858
 40
0.3437500000002121
 40
0.3593750000002384
 40
0.3593750000002384
 40
0.3671875000002483
 40
0.3671875000002483
 40
0.3750000000002582
 40
0.3750000000002582
 40
0.4062500000002796
 40
0.4062500000002796
 40
0.4218750000002904
 40
0.4218750000002904
 40
0.4296875000002957
 40
0.4296875000002957
 40
0.4375000000003011
 40
0.4375000000003011
 40
0.4687500000003131
 40
0.4687500000003131
 40
0.4765625000003162
 40
0.4765625000003162
 40
0.4843750000003194
 40
0.4843750000003194
 40
0.5000000000003256
 40
0.5000000000003256
 40
0.5312500000003379
 40
0.5312500000003379
 40
0.5390625000003416
 40
0.5390625000003416
 40
0.5468750000003454
 40
0.5468750000003454
 40
0.56250000000035
 40
0.5781250000003546
 40
0.5781250000003546
 40
0.5859375000003545
 40
0.5859375000003545
 40
0.5937500000003544
 40
0.5937500000003544
 40
0.6250000000003634
 40
0.6250000000003634
 40
0.6406250000003678
 40
0.6406250000003678
 40
0.6484375000003667
 40
0.6484375000003667
 40
0.6562500000003653
 40
0.6562500000003653
 40
0.6875000000003605
 40
0.6875000000003605
 40
0.6953125000003528
 40
0.6953125000003528
 40
0.7031250000003454
 40
0.7031250000003454
 40
0.7187500000003303
 40
0.7187500000003303
 40
0.7500000000002912
 40
0.7500000000002912
 40
0.7578125000002835
 40
0.7578125000002835
 40
0.7656250000002758
 40
0.7656250000002758
 40
0.7812500000002519
 40
0.7968750000002279
 40
0.7968750000002279
 40
0.8046875000002156
 40
0.8046875000002156
 40
0.8125000000002035
 40
0.8125000000002035
 40
0.8437500000001719
 40
0.8437500000001719
 40
0.8515625000001657
 40
0.8515625000001657
 40
0.8593750000001596
 40
0.8593750000001596
 40
0.8750000000001472
 40
0.8750000000001472
 40
0.9062500000001165
 40
0.9062500000001165
 40
0.9140625000001064
 40
0.9140625000001064
 40
0.9218750000000962
 40
0.9218750000000962
 40
0.9375000000000763
 40
0.9531250000000566
 40
0.9531250000000566
 40
0.9609375000000479
 40
0.9609375000000479
 40
0.9687500000000392
 40
0.9687500000000392
 40
1.0
 40
1.0
 40
1.0
 40
1.0
 10
402.9691615337858
 20
284.6341862655651
 30
0.0
 10
402.9708099895153
 20
284.7286262310586
 30
0.0
 10
402.9815769482281
 20
284.8216001349491
 30
0.0
 10
403.0110426353656
 20
284.9589004616113
 30
0.0
 10
403.0230992541178
 20
285.0043043762794
 30
0.0
 10
403.0518107994536
 20
285.094358798414
 30
0.0
 10
403.0685653221018
 20
285.1391942187293
 30
0.0
 10
403.1248383363161
 20
285.2697775148446
 30
0.0
 10
403.1704693599435
 20
285.3523947515205
 30
0.0
 10
403.2510816099081
 20
285.4696089066744
 30
0.0
 10
403.2799935618973
 20
285.5075540965582
 30
0.0
 10
403.3420763796148
 20
285.5810831630773
 30
0.0
 10
403.3747562515177
 20
285.6160798850961
 30
0.0
 10
403.4773633563175
 20
285.7156869037703
 30
0.0
 10
403.5519012744968
 20
285.775067867663
 30
0.0
 10
403.6529198197102
 20
285.840257635806
 30
0.0
 10
403.6735409371583
 20
285.8528520789599
 30
0.0
 10
403.7155035539485
 20
285.8770533059445
 30
0.0
 10
403.7367060341203
 20
285.8885813816275
 30
0.0
 10
403.8009636754838
 20
285.9214809372708
 30
0.0
 10
403.8883711389193
 20
285.9608628502316
 30
0.0
 10
403.9791784326591
 20
285.9914212827879
 30
0.0
 10
404.0485738419778
 20
286.0109879812295
 30
0.0
 10
404.0719210273961
 20
286.0169505180115
 30
0.0
 10
404.1190536226705
 20
286.0277362234774
 30
0.0
 10
404.1429081591781
 20
286.0325706660589
 30
0.0
 10
404.2623334224327
 20
286.0536594030615
 30
0.0
 10
404.3581011819679
 20
286.0607816867856
 30
0.0
 10
404.5020834835561
 20
286.0572904612799
 30
0.0
 10
404.5501331119078
 20
286.0537466198529
 30
0.0
 10
404.6222933451034
 20
286.0447546610181
 30
0.0
 10
404.6463871044078
 20
286.0411350845597
 30
0.0
 10
404.6940574985188
 20
286.0327470007689
 30
0.0
 10
404.7177010768315
 20
286.0279718735317
 30
0.0
 10
404.8349775829222
 20
286.0012426474033
 30
0.0
 10
404.9258141217583
 20
285.9708109135248
 30
0.0
 10
405.0356106565255
 20
285.9214342324502
 30
0.0
 10
405.0573807680189
 20
285.9109868434473
 30
0.0
 10
405.1005349483008
 20
285.888925788239
 30
0.0
 10
405.1217937728187
 20
285.8773742799013
 30
0.0
 10
405.1843732338173
 20
285.8413294586132
 30
0.0
 10
405.2648534792793
 20
285.7894538263465
 30
0.0
 10
405.3395587492347
 20
285.7301493926865
 30
0.0
 10
405.393412280314
 20
285.6828801053377
 30
0.0
 10
405.4110002425418
 20
285.6666576917855
 30
0.0
 10
405.4454401491733
 20
285.6332698881876
 30
0.0
 10
405.4623323731885
 20
285.6160606953618
 30
0.0
 10
405.5444146998445
 20
285.528154891307
 30
0.0
 10
405.6019775431217
 20
285.4526123314872
 30
0.0
 10
405.6767158611878
 20
285.331889001187
 30
0.0
 10
405.6996800661959
 20
285.2904037039961
 30
0.0
 10
405.7311464736821
 20
285.2262803635737
 30
0.0
 10
405.7411570826118
 20
285.2045391658085
 30
0.0
 10
405.7599817228811
 20
285.1608536902826
 30
0.0
 10
405.768817283858
 20
285.1388715956807
 30
0.0
 10
405.8101718728846
 20
285.0282817568494
 30
0.0
 10
405.8342987244204
 20
284.9376557569342
 30
0.0
 10
405.8534224072803
 20
284.8217515699218
 30
0.0
 10
405.8566905954763
 20
284.798438420527
 30
0.0
 10
405.8620983591923
 20
284.7515442963482
 30
0.0
 10
405.8642354313289
 20
284.7279475174119
 30
0.0
 10
405.8688896722975
 20
284.6574963477385
 30
0.0
 10
405.8696875371096
 20
284.6107357894305
 30
0.0
 10
405.8653791485035
 20
284.4710572022705
 30
0.0
 10
405.8536332021261
 20
284.3787379814065
 30
0.0
 10
405.8276092480605
 20
284.264346673813
 30
0.0
 10
405.8218238306442
 20
284.2415010901922
 30
0.0
 10
405.8092266732441
 20
284.1963836612286
 30
0.0
 10
405.802402909814
 20
284.17405284241
 30
0.0
 10
405.7803812783573
 20
284.1077316425028
 30
0.0
 10
405.7468920686497
 20
284.0210903917311
 30
0.0
 10
405.7052352869751
 20
283.9379665516261
 30
0.0
 10
405.6708731322275
 20
283.8769582056553
 30
0.0
 10
405.6588982231607
 20
283.8568448943304
 30
0.0
 10
405.6338853343058
 20
283.8170713277739
 30
0.0
 10
405.6208120940936
 20
283.7973636617791
 30
0.0
 10
405.5533762973657
 20
283.7009038508218
 30
0.0
 10
405.4926318839003
 20
283.6298657423613
 30
0.0
 10
405.3914167449313
 20
283.5323182090867
 30
0.0
 10
405.3559832676027
 20
283.5013147111019
 30
0.0
 10
405.3001873239031
 20
283.457156810793
 30
0.0
 10
405.2810965243705
 20
283.4427941029267
 30
0.0
 10
405.2422519906853
 20
283.4150510806015
 30
0.0
 10
405.2225483738181
 20
283.4017023039463
 30
0.0
 10
405.1226423642037
 20
283.3375316336301
 30
0.0
 10
405.0383166480123
 20
283.2943534538023
 30
0.0
 10
404.9272986643748
 20
283.2507045215656
 30
0.0
 10
404.9048119738045
 20
283.2424957068309
 30
0.0
 10
404.8592589756761
 20
283.2271431438289
 30
0.0
 10
404.8361335817386
 20
283.2199830956035
 30
0.0
 10
404.766285003733
 20
283.2002663929586
 30
0.0
 10
404.7194002420308
 20
283.189541851325
 30
0.0
 10
404.5778137847821
 20
283.1644255821124
 30
0.0
 10
404.4821889220369
 20
283.1570212254153
 30
0.0
 10
404.3610615280622
 20
283.1598332816381
 30
0.0
 10
404.3367009822924
 20
283.1610116311312
 30
0.0
 10
404.2883761429106
 20
283.1645673316584
 30
0.0
 10
404.2643542698491
 20
283.1669432920883
 30
0.0
 10
404.1927017908268
 20
283.175830077523
 30
0.0
 10
404.0982648806471
 20
283.1923609014349
 30
0.0
 10
404.0059870139958
 20
283.2180966763453
 30
0.0
 10
403.9375967438756
 20
283.2408943683154
 30
0.0
 10
403.9149138586744
 20
283.2490862140963
 30
0.0
 10
403.8699215930736
 20
283.266620625804
 30
0.0
 10
403.8477576531623
 20
283.2759051180753
 30
0.0
 10
403.7385537439446
 20
283.3248479655975
 30
0.0
 10
403.6563138154647
 20
283.3719926145793
 30
0.0
 10
403.5596985115716
 20
283.4406487909161
 30
0.0
 10
403.5406875837252
 20
283.4548708936826
 30
0.0
 10
403.5032961181423
 20
283.4843087171088
 30
0.0
 10
403.4849001627388
 20
283.4995423032694
 30
0.0
 10
403.4312316161073
 20
283.5462511902736
 30
0.0
 10
403.3972777440145
 20
283.5788792100789
 30
0.0
 10
403.3006871567048
 20
283.6810879871757
 30
0.0
 10
403.2432712784478
 20
283.7549523090825
 30
0.0
 10
403.1803376022971
 20
283.854613673383
 30
0.0
 10
403.168252460371
 20
283.8748312293708
 30
0.0
 10
403.1451873090544
 20
283.9156260837611
 30
0.0
 10
403.1341874113726
 20
283.9362346747528
 30
0.0
 10
403.10275879522
 20
283.9986855516918
 30
0.0
 10
403.0650361179701
 20
284.083617534691
 30
0.0
 10
403.0355773987128
 20
284.171859153405
 30
0.0
 10
403.0166346177346
 20
284.2393088483136
 30
0.0
 10
403.0108464991742
 20
284.2620038509126
 30
0.0
 10
403.0003430935133
 20
284.3078265204256
 30
0.0
 10
402.995644972983
 20
284.3308884494697
 30
0.0
 10
402.9750282957303
 20
284.4463394073411
 30
0.0
 10
402.9675130780563
 20
284.5397463000715
 30
0.0
 10
402.9691615337857
 20
284.6341862655649
 30
0.0
  0
SPLINE
  5
203
330
1F
100
AcDbEntity
  8
1
100
AcDbSpline
210
0.0
220
0.0
230
1.0
 70
     8
 71
     3
 72
    12
 73
     8
 74
     0
 42
0.000000001
 43
0.0000000001
 40
0.0
 40
0.0
 40
0.0
 40
0.0
 40
0.5
 40
0.5
 40
0.75
 40
0.75
 40
1.0
 40
1.0
 40
1.0
 40
1.0
 10
398.2832003795384
 20
293.4926222698558
 30
0.0
 10
398.1517692696017
 20
293.5213028475106
 30
0.0
 10
398.0242519601269
 20
293.560159431299
 30
0.0
 10
397.8376567365139
 20
293.6331958645796
 30
0.0
 10
397.776247230001
 20
293.6600177672712
 30
0.0
 10
397.6548647679823
 20
293.7187469586573
 30
0.0
 10
397.5948937627198
 20
293.7506524557317
 30
0.0
 10
397.5355634873835
 20
293.7852534729192
 30
0.0
  0
SPLINE
  5
204
330
1F
100
AcDbEntity
  8
1
100
AcDbSpline
210
0.0
220
0.0
230
1.0
 70
     8
 71
     3
 72
    10
 73
     6
 74
     0
 42
0.000000001
 43
0.0000000001
 40
0.0
 40
0.0
 40
0.0
 40
0.0
 40
0.5
 40
0.5
 40
1.0
 40
1.0
 40
1.0
 40
1.0
 10
403.9102305403863
 20
299.4219152663632
 30
0.0
 10
403.9205853213083
 20
299.4181373929596
 30
0.0
 10
403.9299807942811
 20
299.4126926939127
 30
0.0
 10
403.9467018756203
 20
299.3988237704362
 30
0.0
 10
403.9536898426226
 20
299.3906999460252
 30
0.0
 10
403.9593251318904
 20
299.3814012694516
 30
0.0
  0
SPLINE
  5
205
330
1F
100
AcDbEntity
  8
1
100
AcDbSpline
210
0.0
220
0.0
230
1.0
 70
     8
 71
     3
 72
    24
 73
    20
 74
     0
 42
0.000000001
 43
0.0000000001
 40
0.0
 40
0.0
 40
0.0
 40
0.0
 40
0.125
 40
0.125
 40
0.25
 40
0.25
 40
0.3125
 40
0.3125
 40
0.375
 40
0.375
 40
0.5
 40
0.5
 40
0.625
 40
0.625
 40
0.75
 40
0.75
 40
0.875
 40
0.875
 40
1.0
 40
1.0
 40
1.0
 40
1.0
 10
403.2313216097708
 20
299.2145195269359
 30
0.0
 10
403.2501372684783
 20
299.2399255523661
 30
0.0
 10
403.270743371498
 20
299.2636710676182
 30
0.0
 10
403.3155494245843
 20
299.3078804057913
 30
0.0
 10
403.3397476017573
 20
299.3283457864624
 30
0.0
 10
403.3789746261938
 20
299.3564096092455
 30
0.0
 10
403.3924623044525
 20
299.3652595086591
 30
0.0
 10
403.4199312572603
 20
299.3817410524907
 30
0.0
 10
403.4339605564392
 20
299.3894076329995
 30
0.0
 10
403.4769336867125
 20
299.4106861230569
 30
0.0
 10
403.5068056263383
 20
299.4226037651554
 30
0.0
 10
403.5688400073563
 20
299.4415444603659
 30
0.0
 10
403.6000913665533
 20
299.4482982326874
 30
0.0
 10
403.6630427741668
 20
299.456682591777
 30
0.0
 10
403.6947550692655
 20
299.4583118230645
 30
0.0
 10
403.7586075165636
 20
299.4563523457541
 30
0.0
 10
403.7898176582168
 20
299.4527970012523
 30
0.0
 10
403.8509664831233
 20
299.4409294407694
 30
0.0
 10
403.8809044288681
 20
299.4326147043882
 30
0.0
 10
403.9102305403863
 20
299.4219152663632
 30
0.0
  0
SPLINE
  5
206
330
1F
100
AcDbEntity
  8
1
100
AcDbSpline
210
0.0
220
0.0
230
1.0
 70
     8
 71
     3
 72
    27
 73
    23
 74
     0
 42
0.000000001
 43
0.0000000001
 40
0.0
 40
0.0
 40
0.0
 40
0.0
 40
0.1358119458609194
 40
0.1358119458609194
 40
0.2037179187913817
 40
0.2037179187913817
 40
0.271623891721844
 40
0.271623891721844
 40
0.4074358375828368
 40
0.4074358375828368
 40
0.4753418105133333
 40
0.4753418105133333
 40
0.5432477834438295
 40
0.5432477834438295
 40
0.6790597293047949
 40
0.6790597293047949
 40
0.7469657022352775
 40
0.7469657022352775
 40
0.8148716751657602
 40
0.8148716751657602
 40
0.9506836210267204
 40
1.0
 40
1.0
 40
1.0
 40
1.0
 10
401.7701765289853
 20
299.8640901835162
 30
0.0
 10
401.7446743428958
 20
299.8828309666884
 30
0.0
 10
401.7208968442922
 20
299.9034325040295
 30
0.0
 10
401.6877816598645
 20
299.9370771923643
 30
0.0
 10
401.6771703780702
 20
299.9487512694896
 30
0.0
 10
401.6568198597187
 20
299.9730355954831
 30
0.0
 10
401.6470576813578
 20
299.9856857169688
 30
0.0
 10
401.6195579011984
 20
300.0244488747717
 30
0.0
 10
401.6034440386792
 20
300.0515285909841
 30
0.0
 10
401.5825502135272
 20
300.0939735357897
 30
0.0
 10
401.5761343044824
 20
300.1084275084706
 30
0.0
 10
401.5644223401833
 20
300.1379591034766
 30
0.0
 10
401.5591068211744
 20
300.1531084525694
 30
0.0
 10
401.5451059951986
 20
300.1988313582808
 30
0.0
 10
401.5383035575461
 20
300.2297293510737
 30
0.0
 10
401.5317822580506
 20
300.2766816601826
 30
0.0
 10
401.5302251791419
 20
300.2924338053947
 30
0.0
 10
401.5283603320391
 20
300.3241435111209
 30
0.0
 10
401.5280543071883
 20
300.3401602389392
 30
0.0
 10
401.5290585153601
 20
300.3881068689428
 30
0.0
 10
401.5334101017301
 20
300.43104246165
 30
0.0
 10
401.5422425066688
 20
300.4731470716279
 30
0.0
 10
401.5449167503423
 20
300.4843036366189
 30
0.0
  0
SPLINE
  5
207
330
1F
100
AcDbEntity
  8
1
100
AcDbSpline
210
0.0
220
0.0
230
1.0
 70
     8
 71
     3
 72
    21
 73
    17
 74
     0
 42
0.000000001
 43
0.0000000001
 40
0.0
 40
0.0
 40
0.0
 40
0.0
 40
0.124362081917215
 40
0.124362081917215
 40
0.2119258737254917
 40
0.2119258737254917
 40
0.2994896655337685
 40
0.2994896655337685
 40
0.4746172491503219
 40
0.4746172491503219
 40
0.5621810409586016
 40
0.5621810409586016
 40
0.6497448327668813
 40
0.6497448327668813
 40
0.8248724163834404
 40
1.0
 40
1.0
 40
1.0
 40
1.0
 10
404.47728716542
 20
299.6478795477295
 30
0.0
 10
404.4669020232838
 20
299.627906510121
 30
0.0
 10
404.455441073804
 20
299.6086047757799
 30
0.0
 10
404.4340977003458
 20
299.5768436968583
 30
0.0
 10
404.424749203607
 20
299.5640512023001
 30
0.0
 10
404.4049709293309
 20
299.5391408819787
 30
0.0
 10
404.3944887380731
 20
299.5269704132132
 30
0.0
 10
404.361860177676
 20
299.4920311516426
 30
0.0
 10
404.3385201996128
 20
299.470755441221
 30
0.0
 10
404.301201312298
 20
299.441776401575
 30
0.0
 10
404.2883750143045
 20
299.432608176989
 30
0.0
 10
404.2619392764862
 20
299.4152674888987
 30
0.0
 10
404.2482780875681
 20
299.4070673137164
 30
0.0
 10
404.2064507366206
 20
299.384206557409
 30
0.0
 10
404.1490387381825
 20
299.3586211817964
 30
0.0
 10
404.0884987573197
 20
299.3424028914278
 30
0.0
 10
404.0574277221727
 20
299.3367073779124
 30
0.0
  0
SPLINE
  5
208
330
1F
100
AcDbEntity
  8
1
100
AcDbSpline
210
0.0
220
0.0
230
1.0
 70
     8
 71
     3
 72
    18
 73
    14
 74
     0
 42
0.000000001
 43
0.0000000001
 40
0.0
 40
0.0
 40
0.0
 40
0.0
 40
0.2127774583469658
 40
0.2127774583469658
 40
0.4255549166939315
 40
0.4255549166939315
 40
0.5319436458674057
 40
0.5319436458674057
 40
0.6383323750408801
 40
0.6383323750408801
 40
0.851109833387817
 40
0.851109833387817
 40
1.0
 40
1.0
 40
1.0
 40
1.0
 10
401.8675655810687
 20
301.3231597092877
 30
0.0
 10
401.8800512613661
 20
301.2949421635577
 30
0.0
 10
401.8902163935871
 20
301.2659384072922
 30
0.0
 10
401.9059365928965
 20
301.2063090520239
 30
0.0
 10
401.9114938780056
 20
301.175684305467
 30
0.0
 10
401.9161098330178
 20
301.1283900816288
 30
0.0
 10
401.9170099753183
 20
301.1124964151773
 30
0.0
 10
401.9175185026432
 20
301.0808341533576
 30
0.0
 10
401.9171330276921
 20
301.0650074567395
 30
0.0
 10
401.9140586221939
 20
301.0175367653387
 30
0.0
 10
401.9094535852486
 20
300.9858515377418
 30
0.0
 10
401.8970880120362
 20
300.9321816735881
 30
0.0
 10
401.8907984103776
 20
300.9105927497715
 30
0.0
 10
401.8833568853661
 20
300.8894893159157
 30
0.0
  0
SPLINE
  5
209
330
1F
100
AcDbEntity
  8
1
100
AcDbSpline
210
0.0
220
0.0
230
1.0
 70
     8
 71
     3
 72
    10
 73
     6
 74
     0
 42
0.000000001
 43
0.0000000001
 40
0.0
 40
0.0
 40
0.0
 40
0.0
 40
0.5
 40
0.5
 40
1.0
 40
1.0
 40
1.0
 40
1.0
 10
401.8243102518611
 20
301.3686019396841
 30
0.0
 10
401.8338732482804
 20
301.3637546980306
 30
0.0
 10
401.8424001708471
 20
301.3574433304662
 30
0.0
 10
401.8572082656363
 20
301.341944806293
 30
0.0
 10
401.863156859763
 20
301.3331233870442
 30
0.0
 10
401.8675655810687
 20
301.3231597092877
 30
0.0
  0
SPLINE
  5
20A
330
1F
100
AcDbEntity
  8
1
100
AcDbSpline
210
0.0
220
0.0
230
1.0
 70
     8
 71
     3
 72
    20
 73
    16
 74
     0
 42
0.000000001
 43
0.0000000001
 40
0.0
 40
0.0
 40
0.0
 40
0.0
 40
0.1249999999999999
 40
0.1249999999999999
 40
0.2499999999999998
 40
0.2499999999999998
 40
0.3749999999999998
 40
0.3749999999999998
 40
0.4999999999999998
 40
0.4999999999999998
 40
0.6249999999999997
 40
0.6249999999999997
 40
0.7499999999999997
 40
0.7499999999999997
 40
1.0
 40
1.0
 40
1.0
 40
1.0
 10
401.8243102518611
 20
301.3686019396841
 30
0.0
 10
401.8201264960008
 20
301.3707225799924
 30
0.0
 10
401.816132367441
 20
301.3731346468597
 30
0.0
 10
401.808520979141
 20
301.378537658281
 30
0.0
 10
401.8049020039842
 20
301.3815369510411
 30
0.0
 10
401.7982143866961
 20
301.3879767709306
 30
0.0
 10
401.7951218840861
 20
301.3914322028968
 30
0.0
 10
401.789448183823
 20
301.3988212507367
 30
0.0
 10
401.7868504088559
 20
301.4027886899994
 30
0.0
 10
401.7823163938058
 20
301.4110322748019
 30
0.0
 10
401.7803718657534
 20
301.4153078221141
 30
0.0
 10
401.7771344287366
 20
301.4241685249499
 30
0.0
 10
401.7758355646181
 20
301.4287848178934
 30
0.0
 10
401.7730361241104
 20
301.4429142434926
 30
0.0
 10
401.7726247536207
 20
301.4525029257265
 30
0.0
 10
401.7737608581193
 20
301.4622683589078
 30
0.0
  0
SPLINE
  5
20B
330
1F
100
AcDbEntity
  8
1
100
AcDbSpline
210
0.0
220
0.0
230
1.0
 70
     8
 71
     3
 72
    14
 73
    10
 74
     0
 42
0.000000001
 43
0.0000000001
 40
0.0
 40
0.0
 40
0.0
 40
0.0
 40
0.0909779694523723
 40
0.0909779694523723
 40
0.3939853129682482
 40
0.3939853129682482
 40
0.6969926564841243
 40
0.6969926564841243
 40
1.0
 40
1.0
 40
1.0
 40
1.0
 10
404.4355453835437
 20
300.4392307637218
 30
0.0
 10
404.4387184938438
 20
300.4482293895963
 30
0.0
 10
404.4420995406828
 20
300.4571268703402
 30
0.0
 10
404.4576262001088
 20
300.4952281308602
 30
0.0
 10
404.4718413484063
 20
300.5234404270531
 30
0.0
 10
404.5048830047647
 20
300.5775979851961
 30
0.0
 10
404.5232246628335
 20
300.6027574797248
 30
0.0
 10
404.5633074547851
 20
300.6495779349671
 30
0.0
 10
404.5850503434971
 20
300.6712369849346
 30
0.0
 10
404.608515769177
 20
300.6911652853563
 30
0.0
  0
SPLINE
  5
20C
330
1F
100
AcDbEntity
  8
1
100
AcDbSpline
210
0.0
220
0.0
230
1.0
 70
     8
 71
     3
 72
    10
 73
     6
 74
     0
 42
0.000000001
 43
0.0000000001
 40
0.0
 40
0.0
 40
0.0
 40
0.0
 40
0.5
 40
0.5
 40
1.0
 40
1.0
 40
1.0
 40
1.0
 10
404.608515769177
 20
300.6911652853563
 30
0.0
 10
404.6168015763128
 20
300.6982021086422
 30
0.0
 10
404.6260327259656
 20
300.7035695597324
 30
0.0
 10
404.6460246549936
 20
300.7110200578185
 30
0.0
 10
404.6563598559854
 20
300.7129603795355
 30
0.0
 10
404.6670318176596
 20
300.713141586494
 30
0.0
  0
SPLINE
  5
20D
330
1F
100
AcDbEntity
  8
1
100
AcDbSpline
210
0.0
220
0.0
230
1.0
 70
     8
 71
     3
 72
    16
 73
    12
 74
     0
 42
0.000000001
 43
0.0000000001
 40
0.0
 40
0.0
 40
0.0
 40
0.0
 40
0.0631184671092214
 40
0.0631184671092214
 40
0.2504947736875628
 40
0.2504947736875628
 40
0.4378710802659044
 40
0.4378710802659044
 40
0.6252473868442459
 40
0.6252473868442459
 40
1.0
 40
1.0
 40
1.0
 40
1.0
 10
404.7333845504176
 20
300.7426032034971
 30
0.0
 10
404.7322981602387
 20
300.7414354436655
 30
0.0
 10
404.7311804974116
 20
300.740294897033
 30
0.0
 10
404.7266205445528
 20
300.7358767707305
 30
0.0
 10
404.7229623072403
 20
300.7328482748313
 30
0.0
 10
404.7153478607426
 20
300.7274570642015
 30
0.0
 10
404.7113671041568
 20
300.7250701323485
 30
0.0
 10
404.7030645827589
 20
300.7209047003624
 30
0.0
 10
404.6987068358293
 20
300.7191172177104
 30
0.0
 10
404.6854653263098
 20
300.7148177843233
 30
0.0
 10
404.6763784514886
 20
300.7133002897522
 30
0.0
 10
404.6670318176598
 20
300.713141586494
 30
0.0
  0
SPLINE
  5
20E
330
1F
100
AcDbEntity
  8
1
100
AcDbSpline
210
0.0
220
0.0
230
1.0
 70
     8
 71
     3
 72
    36
 73
    32
 74
     0
 42
0.000000001
 43
0.0000000001
 40
0.0
 40
0.0
 40
0.0
 40
0.0
 40
0.1249999999998231
 40
0.1249999999998231
 40
0.1874999999997387
 40
0.1874999999997387
 40
0.2187499999996966
 40
0.2187499999996966
 40
0.2499999999996544
 40
0.2499999999996544
 40
0.3749999999995664
 40
0.3749999999995664
 40
0.4062499999995697
 40
0.4062499999995697
 40
0.437499999999573
 40
0.437499999999573
 40
0.4999999999995345
 40
0.4999999999995345
 40
0.6249999999994574
 40
0.6249999999994574
 40
0.6562499999994681
 40
0.6562499999994681
 40
0.6874999999994788
 40
0.7499999999995041
 40
0.8124999999995292
 40
0.8124999999995292
 40
0.8437499999995736
 40
0.8437499999995736
 40
0.8749999999996182
 40
0.8749999999996182
 40
1.0
 40
1.0
 40
1.0
 40
1.0
 10
409.4463777168563
 20
306.5607036972874
 30
0.0
 10
409.4445465202733
 20
306.6118218518204
 30
0.0
 10
409.4375856961733
 20
306.6618808180757
 30
0.0
 10
409.4198899786309
 20
306.735471329913
 30
0.0
 10
409.4127725239988
 20
306.759749820331
 30
0.0
 10
409.4002382621447
 20
306.7957838913646
 30
0.0
 10
409.3957373269383
 20
306.8077615020876
 30
0.0
 10
409.3861671311972
 20
306.8314299535189
 30
0.0
 10
409.3811078482151
 20
306.8431012864914
 30
0.0
 10
409.3544707933505
 20
306.900661480246
 30
0.0
 10
409.3289104883843
 20
306.9441843272977
 30
0.0
 10
409.2917190664783
 20
306.9954741959075
 30
0.0
 10
409.2840162900437
 20
307.0055750355099
 30
0.0
 10
409.2680736345825
 20
307.025457623302
 30
0.0
 10
409.2598136893466
 20
307.0352603696073
 30
0.0
 10
409.2344674804076
 20
307.0638975922902
 30
0.0
 10
409.2167638965993
 20
307.0820374177835
 30
0.0
 10
409.1613035796312
 20
307.133683109591
 30
0.0
 10
409.1212204206611
 20
307.1644425088955
 30
0.0
 10
409.0671051419398
 20
307.1981561737292
 30
0.0
 10
409.0560591508091
 20
307.2046696325104
 30
0.0
 10
409.0337936067997
 20
307.2170773164446
 30
0.0
 10
409.0000597293657
 20
307.2348094847332
 30
0.0
 10
408.9421889476539
 20
307.2600453319045
 30
0.0
 10
408.8941496142718
 20
307.2756671450778
 30
0.0
 10
408.8574523525181
 20
307.2856335977435
 30
0.0
 10
408.8451084327206
 20
307.2886635586609
 30
0.0
 10
408.8201925675479
 20
307.2941259266174
 30
0.0
 10
408.8076022819834
 20
307.2965600312086
 30
0.0
 10
408.7446537262211
 20
307.3071057713266
 30
0.0
 10
408.6938961198245
 20
307.310497786283
 30
0.0
 10
408.6427292886618
 20
307.3087128611007
 30
0.0
  0
SPLINE
  5
20F
330
1F
100
AcDbEntity
  8
1
100
AcDbSpline
210
0.0
220
0.0
230
1.0
 70
     8
 71
     3
 72
    36
 73
    32
 74
     0
 42
0.000000001
 43
0.0000000001
 40
0.0
 40
0.0
 40
0.0
 40
0.0
 40
0.1250000000000815
 40
0.1250000000000815
 40
0.1875000000001212
 40
0.1875000000001212
 40
0.218750000000125
 40
0.218750000000125
 40
0.2500000000001287
 40
0.2500000000001287
 40
0.3750000000001163
 40
0.3750000000001163
 40
0.406250000000105
 40
0.406250000000105
 40
0.4375000000000938
 40
0.4375000000000938
 40
0.5000000000001023
 40
0.5000000000001023
 40
0.6250000000001132
 40
0.6250000000001132
 40
0.6562500000001104
 40
0.6562500000001104
 40
0.6875000000001077
 40
0.7500000000000871
 40
0.8125000000000664
 40
0.8125000000000664
 40
0.8437500000000557
 40
0.8437500000000557
 40
0.8750000000000452
 40
0.8750000000000452
 40
1.0
 40
1.0
 40
1.0
 40
1.0
 10
397.5045500895836
 20
306.9201639499017
 30
0.0
 10
397.4533786687227
 20
306.9183788646105
 30
0.0
 10
397.4032720029894
 20
306.9114687311783
 30
0.0
 10
397.3296178147493
 20
306.8938555259359
 30
0.0
 10
397.3053194216369
 20
306.8867666635374
 30
0.0
 10
397.2692575130145
 20
306.8742769487988
 30
0.0
 10
397.2572709381426
 20
306.8697911792768
 30
0.0
 10
397.2335853569606
 20
306.8602516759408
 30
0.0
 10
397.2219058707001
 20
306.8552078921444
 30
0.0
 10
397.1643069229801
 20
306.8286490812249
 30
0.0
 10
397.1207594535487
 20
306.8031537430933
 30
0.0
 10
397.0694466744447
 20
306.7660464539965
 30
0.0
 10
397.0593416497803
 20
306.7583606516984
 30
0.0
 10
397.0394514981249
 20
306.7424522441894
 30
0.0
 10
397.0296453678188
 20
306.7342096123972
 30
0.0
 10
397.0009993095734
 20
306.7089152844988
 30
0.0
 10
396.9828553110232
 20
306.6912463295204
 30
0.0
 10
396.9312021054971
 20
306.6358900199116
 30
0.0
 10
396.9004443216871
 20
306.5958763591509
 30
0.0
 10
396.8667412218532
 20
306.5418481595485
 30
0.0
 10
396.8602303146204
 20
306.530819625
 30
0.0
 10
396.8478285481008
 20
306.5085886452291
 30
0.0
 10
396.8301064892718
 20
306.4749062140744
 30
0.0
 10
396.804893547057
 20
306.4171192117217
 30
0.0
 10
396.7892964630768
 20
306.3691448240561
 30
0.0
 10
396.7793510116275
 20
306.3324954754403
 30
0.0
 10
396.7763284609249
 20
306.3201673937522
 30
0.0
 10
396.7708817514934
 20
306.2952829329309
 30
0.0
 10
396.7684559092311
 20
306.2827082347184
 30
0.0
 10
396.75795322161
 20
306.2198362093401
 30
0.0
 10
396.7546014057015
 20
306.1691358974291
 30
0.0
 10
396.7564324380396
 20
306.1180223278168
 30
0.0
  0
SPLINE
  5
210
330
1F
100
AcDbEntity
  8
1
100
AcDbSpline
210
0.0
220
0.0
230
1.0
 70
     8
 71
     3
 72
    36
 73
    32
 74
     0
 42
0.000000001
 43
0.0000000001
 40
0.0
 40
0.0
 40
0.0
 40
0.0
 40
0.1250000000000286
 40
0.1250000000000286
 40
0.1875000000000428
 40
0.1875000000000428
 40
0.2187500000000444
 40
0.2187500000000444
 40
0.2500000000000459
 40
0.2500000000000459
 40
0.3750000000000501
 40
0.3750000000000501
 40
0.4062500000000508
 40
0.4062500000000508
 40
0.4375000000000515
 40
0.4375000000000515
 40
0.5000000000000526
 40
0.5000000000000526
 40
0.6250000000000565
 40
0.6250000000000565
 40
0.6562500000000579
 40
0.6562500000000579
 40
0.6875000000000591
 40
0.7500000000000606
 40
0.8125000000000623
 40
0.8125000000000623
 40
0.843750000000063
 40
0.843750000000063
 40
0.8750000000000641
 40
0.8750000000000641
 40
1.0
 40
1.0
 40
1.0
 40
1.0
 10
397.1550181201678
 20
294.9914372939214
 30
0.0
 10
397.1568493167508
 20
294.9403191393885
 30
0.0
 10
397.1638101408509
 20
294.8902601731333
 30
0.0
 10
397.1815058583933
 20
294.8166696612959
 30
0.0
 10
397.1886233130252
 20
294.7923911708778
 30
0.0
 10
397.2011575748794
 20
294.7563570998443
 30
0.0
 10
397.2056585100859
 20
294.7443794891213
 30
0.0
 10
397.2152287058269
 20
294.72071103769
 30
0.0
 10
397.220287988809
 20
294.7090397047174
 30
0.0
 10
397.2469250436737
 20
294.651479510963
 30
0.0
 10
397.2724853486399
 20
294.6079566639113
 30
0.0
 10
397.3096767705456
 20
294.5566667953013
 30
0.0
 10
397.3173795469803
 20
294.546565955699
 30
0.0
 10
397.3333222024417
 20
294.5266833679069
 30
0.0
 10
397.3415821476775
 20
294.5168806216016
 30
0.0
 10
397.3669283566166
 20
294.4882433989187
 30
0.0
 10
397.3846319404248
 20
294.4701035734255
 30
0.0
 10
397.440092257393
 20
294.4184578816179
 30
0.0
 10
397.4801754163631
 20
294.3876984823135
 30
0.0
 10
397.5342906950843
 20
294.3539848174798
 30
0.0
 10
397.5453366862152
 20
294.3474713586985
 30
0.0
 10
397.5676022302245
 20
294.3350636747643
 30
0.0
 10
397.6013361076584
 20
294.3173315064758
 30
0.0
 10
397.6592068602765
 20
294.2920955830624
 30
0.0
 10
397.7072462227523
 20
294.2764738461311
 30
0.0
 10
397.743943484506
 20
294.2665073934654
 30
0.0
 10
397.7562874043035
 20
294.2634774325481
 30
0.0
 10
397.7812032694762
 20
294.2580150645915
 30
0.0
 10
397.7937935550408
 20
294.2555809600003
 30
0.0
 10
397.8567421108032
 20
294.2450352198824
 30
0.0
 10
397.9074997171996
 20
294.2416432049259
 30
0.0
 10
397.9586665483624
 20
294.2434281301082
 30
0.0
  0
SPLINE
  5
211
330
1F
100
AcDbEntity
  8
1
100
AcDbSpline
210
0.0
220
0.0
230
1.0
 70
     8
 71
     3
 72
    36
 73
    32
 74
     0
 42
0.000000001
 43
0.0000000001
 40
0.0
 40
0.0
 40
0.0
 40
0.0
 40
0.1250000000000046
 40
0.1250000000000046
 40
0.1875000000000401
 40
0.1875000000000401
 40
0.2187500000000578
 40
0.2187500000000578
 40
0.2500000000000756
 40
0.2500000000000756
 40
0.3750000000001491
 40
0.3750000000001491
 40
0.406250000000181
 40
0.406250000000181
 40
0.4375000000002129
 40
0.4375000000002129
 40
0.5000000000002272
 40
0.5000000000002272
 40
0.6250000000002089
 40
0.6250000000002089
 40
0.6562500000002044
 40
0.6562500000002044
 40
0.6875000000002
 40
0.7500000000001586
 40
0.812500000000117
 40
0.812500000000117
 40
0.8437500000000953
 40
0.8437500000000953
 40
0.8750000000000735
 40
0.8750000000000735
 40
1.0
 40
1.0
 40
1.0
 40
1.0
 10
409.0968457474406
 20
294.6319770413072
 30
0.0
 10
409.1480171683014
 20
294.6337621265985
 30
0.0
 10
409.1981238340348
 20
294.6406722600307
 30
0.0
 10
409.2717780222749
 20
294.6582854652731
 30
0.0
 10
409.2960764153871
 20
294.6653743276714
 30
0.0
 10
409.3321383240096
 20
294.6778640424101
 30
0.0
 10
409.3441248988815
 20
294.6823498119321
 30
0.0
 10
409.3678104800636
 20
294.691889315268
 30
0.0
 10
409.3794899663241
 20
294.6969330990645
 30
0.0
 10
409.437088914044
 20
294.7234919099841
 30
0.0
 10
409.4806363834754
 20
294.7489872481157
 30
0.0
 10
409.5319491625795
 20
294.7860945372124
 30
0.0
 10
409.5420541872436
 20
294.7937803395105
 30
0.0
 10
409.5619443388993
 20
294.8096887470195
 30
0.0
 10
409.5717504692053
 20
294.8179313788117
 30
0.0
 10
409.6003965274507
 20
294.8432257067101
 30
0.0
 10
409.6185405260009
 20
294.8608946616886
 30
0.0
 10
409.6701937315271
 20
294.9162509712973
 30
0.0
 10
409.7009515153371
 20
294.956264632058
 30
0.0
 10
409.7346546151711
 20
295.0102928316604
 30
0.0
 10
409.7411655224037
 20
295.021321366209
 30
0.0
 10
409.7535672889233
 20
295.0435523459799
 30
0.0
 10
409.7712893477523
 20
295.0772347771345
 30
0.0
 10
409.7965023663161
 20
295.1350217503587
 30
0.0
 10
409.8120993739473
 20
295.1829961671529
 30
0.0
 10
409.8220448253966
 20
295.2196455157686
 30
0.0
 10
409.8250673760992
 20
295.2319735974569
 30
0.0
 10
409.8305140855307
 20
295.256858058278
 30
0.0
 10
409.8329399277931
 20
295.2694327564905
 30
0.0
 10
409.8434426154141
 20
295.3323047818687
 30
0.0
 10
409.8467944313227
 20
295.3830050937798
 30
0.0
 10
409.8449633989845
 20
295.4341186633921
 30
0.0
  0
LINE
  5
22C
330
1F
100
AcDbEntity
  8
4
100
AcDbLine
 10
265.732221
 20
288.907994
 30
0.0
 11
414.1267369999999
 21
288.907994
 31
0.0
  0
LINE
  5
22D
330
1F
100
AcDbEntity
  8
SK4
100
AcDbLine
 10
210.904842
 20
288.907994
 30
0.0
 11
277.404842
 21
288.907994
 31
0.0
  0
MTEXT
  5
233
330
1F
100
AcDbEntity
  8
SK6
100
AcDbMText
 10
282.146554
 20
243.070881
 30
0.0
 40
3.5
 41
0.0
 71
     7
 72
     5
  1
\W0.7336;803D-37-111-S32
  7
cesky
 73
     2
 44
0.8433729999999998
  0
MTEXT
  5
344
330
1F
100
AcDbEntity
  8
2
100
AcDbMText
 10
345.071826
 20
316.722179
 30
0.0
 40
3.5
 41
0.0
 71
     7
 72
     5
  1
\W0.9110;119,5
  7
cesky
 73
     2
 44
0.8433729999999998
  0
LINE
  5
345
330
1F
100
AcDbEntity
  8
2
100
AcDbLine
 10
410.4048419999999
 20
309.407994
 30
0.0
 11
410.4048419999999
 21
317.848012
 31
0.0
  0
LINE
  5
346
330
1F
100
AcDbEntity
  8
2
100
AcDbLine
 10
290.942809
 20
306.069528
 30
0.0
 11
290.942809
 21
317.848012
 31
0.0
  0
LINE
  5
347
330
1F
100
AcDbEntity
  8
2
100
AcDbLine
 10
410.4048419999999
 20
316.848012
 30
0.0
 11
290.942809
 21
316.848012
 31
0.0
  0
SOLID
  5
348
330
1F
100
AcDbEntity
  8
2
100
AcDbTrace
 10
410.4048419999999
 20
316.848012
 30
0.0
 11
406.9048439999999
 21
316.2308680000001
 31
0.0
 12
406.9048399999999
 22
317.465157
 32
0.0
 13
406.9048399999999
 23
317.465157
 33
0.0
  0
SOLID
  5
349
330
1F
100
AcDbEntity
  8
2
100
AcDbTrace
 10
290.942809
 20
316.848012
 30
0.0
 11
294.442807
 21
317.465157
 31
0.0
 12
294.442812
 22
316.2308680000001
 32
0.0
 13
294.442812
 23
316.2308680000001
 33
0.0
  0
MTEXT
  5
34A
330
1F
100
AcDbEntity
  8
2
100
AcDbMText
 10
309.327842
 20
340.562135
 30
0.0
 40
3.5
 41
0.0
 71
     7
 72
     5
  1
\W0.7969;196
  7
cesky
 73
     2
 44
0.8433729999999998
  0
LINE
  5
34B
330
1F
100
AcDbEntity
  8
2
100
AcDbLine
 10
410.4048419999999
 20
309.407994
 30
0.0
 11
410.4048419999999
 21
341.687968
 31
0.0
  0
LINE
  5
34C
330
1F
100
AcDbEntity
  8
2
100
AcDbLine
 10
214.404842
 20
302.907994
 30
0.0
 11
214.404842
 21
341.687968
 31
0.0
  0
LINE
  5
34D
330
1F
100
AcDbEntity
  8
2
100
AcDbLine
 10
410.4048419999999
 20
340.687968
 30
0.0
 11
214.404842
 21
340.687968
 31
0.0
  0
SOLID
  5
34E
330
1F
100
AcDbEntity
  8
2
100
AcDbTrace
 10
410.4048419999999
 20
340.687968
 30
0.0
 11
406.9048439999999
 21
340.070823
 31
0.0
 12
406.9048399999999
 22
341.305112
 32
0.0
 13
406.9048399999999
 23
341.305112
 33
0.0
  0
SOLID
  5
34F
330
1F
100
AcDbEntity
  8
2
100
AcDbTrace
 10
214.404842
 20
340.687968
 30
0.0
 11
217.90484
 21
341.305112
 31
0.0
 12
217.904844
 22
340.070823
 32
0.0
 13
217.904844
 23
340.070823
 33
0.0
  0
MTEXT
  5
350
330
1F
100
AcDbEntity
  8
2
100
AcDbMText
 10
242.590342
 20
327.385163
 30
0.0
 40
3.5
 41
0.0
 71
     7
 72
     5
  1
\W0.7045;60
  7
cesky
 73
     2
 44
0.8433729999999998
  0
LINE
  5
351
330
1F
100
AcDbEntity
  8
2
100
AcDbLine
 10
274.404842
 20
288.907994
 30
0.0
 11
274.404842
 21
328.5109970000001
 31
0.0
  0
LINE
  5
352
330
1F
100
AcDbEntity
  8
2
100
AcDbLine
 10
214.404842
 20
302.907994
 30
0.0
 11
214.404842
 21
328.5109970000001
 31
0.0
  0
LINE
  5
353
330
1F
100
AcDbEntity
  8
2
100
AcDbLine
 10
274.404842
 20
327.510997
 30
0.0
 11
214.404842
 21
327.510997
 31
0.0
  0
SOLID
  5
354
330
1F
100
AcDbEntity
  8
2
100
AcDbTrace
 10
274.404842
 20
327.510997
 30
0.0
 11
270.904844
 21
326.893852
 31
0.0
 12
270.90484
 22
328.128141
 32
0.0
 13
270.90484
 23
328.128141
 33
0.0
  0
SOLID
  5
355
330
1F
100
AcDbEntity
  8
2
100
AcDbTrace
 10
214.404842
 20
327.510997
 30
0.0
 11
217.90484
 21
328.128141
 31
0.0
 12
217.904844
 22
326.893852
 32
0.0
 13
217.904844
 23
326.893852
 33
0.0
  0
MTEXT
  5
356
330
1F
100
AcDbEntity
  8
2
100
AcDbMText
 10
427.146513
 20
289.328307
 30
0.0
 40
3.5
 41
0.0
 71
     7
 72
     5
  1
\W0.7045;37
  7
cesky
 11
0.0000000000000001
 21
1.0
 31
0.0
 73
     2
 44
0.8433729999999998
  0
MTEXT
  5
357
330
1F
100
AcDbEntity
  8
2
100
AcDbMText
 10
427.146513
 20
282.590807
 30
0.0
 40
3.5
 41
0.0
 71
     7
 72
     5
  1
\W3.0115;\H2.63;%%c\H3.50;
  7
cesky
 11
0.0000000000000001
 21
1.0
 31
0.0
 73
     2
 44
0.8433729999999998
  0
LINE
  5
358
330
1F
100
AcDbEntity
  8
2
100
AcDbLine
 10
412.4048419999999
 20
307.407994
 30
0.0
 11
428.33393
 21
307.407994
 31
0.0
  0
LINE
  5
359
330
1F
100
AcDbEntity
  8
2
100
AcDbLine
 10
427.3339299999999
 20
307.407994
 30
0.0
 11
427.3339299999999
 21
282.433307
 31
0.0
  0
SOLID
  5
35A
330
1F
100
AcDbEntity
  8
2
100
AcDbTrace
 10
427.3339299999999
 20
307.407994
 30
0.0
 11
427.951074
 21
303.907996
 31
0.0
 12
426.7167859999999
 22
303.907991
 32
0.0
 13
426.7167859999999
 23
303.907991
 33
0.0
  0
MTEXT
  5
35B
330
1F
100
AcDbEntity
  8
2
100
AcDbMText
 10
339.327842
 20
327.385163
 30
0.0
 40
3.5
 41
0.0
 71
     7
 72
     5
  1
\W0.7969;136
  7
cesky
 73
     2
 44
0.8433729999999998
  0
LINE
  5
35C
330
1F
100
AcDbEntity
  8
2
100
AcDbLine
 10
410.4048419999999
 20
307.407994
 30
0.0
 11
410.4048419999999
 21
328.5109970000001
 31
0.0
  0
LINE
  5
35D
330
1F
100
AcDbEntity
  8
2
100
AcDbLine
 10
274.404842
 20
289.907567
 30
0.0
 11
274.404842
 21
328.5109970000001
 31
0.0
  0
LINE
  5
35E
330
1F
100
AcDbEntity
  8
2
100
AcDbLine
 10
410.4048419999999
 20
327.510997
 30
0.0
 11
274.404842
 21
327.510997
 31
0.0
  0
SOLID
  5
35F
330
1F
100
AcDbEntity
  8
2
100
AcDbTrace
 10
410.4048419999999
 20
327.510997
 30
0.0
 11
406.9048439999999
 21
326.893852
 31
0.0
 12
406.9048399999999
 22
328.128141
 32
0.0
 13
406.9048399999999
 23
328.128141
 33
0.0
  0
SOLID
  5
360
330
1F
100
AcDbEntity
  8
2
100
AcDbTrace
 10
274.404842
 20
327.510997
 30
0.0
 11
277.90484
 21
328.128141
 31
0.0
 12
277.904844
 22
326.893852
 32
0.0
 13
277.904844
 23
326.893852
 33
0.0
  0
MTEXT
  5
361
330
1F
100
AcDbEntity
  8
SK2
100
AcDbMText
 10
205.691127
 20
290.434244
 30
0.0
 40
3.5
 41
0.0
 71
     7
 72
     5
  1
\W0.7045;32
  7
cesky
 11
0.0000000000000001
 21
1.0
 31
0.0
 73
     2
 44
0.8433729999999998
  0
MTEXT
  5
362
330
1F
100
AcDbEntity
  8
SK2
100
AcDbMText
 10
205.691127
 20
283.696744
 30
0.0
 40
3.5
 41
0.0
 71
     7
 72
     5
  1
\W3.0115;\H2.63;%%c\H3.50;
  7
cesky
 11
0.0000000000000001
 21
1.0
 31
0.0
 73
     2
 44
0.8433729999999998
  0
LINE
  5
363
330
1F
100
AcDbEntity
  8
SK2
100
AcDbLine
 10
216.404842
 20
304.907994
 30
0.0
 11
204.878544
 21
304.907994
 31
0.0
  0
LINE
  5
364
330
1F
100
AcDbEntity
  8
SK2
100
AcDbLine
 10
216.404842
 20
272.907994
 30
0.0
 11
204.878544
 21
272.907994
 31
0.0
  0
LINE
  5
365
330
1F
100
AcDbEntity
  8
SK2
100
AcDbLine
 10
205.878544
 20
304.907994
 30
0.0
 11
205.878544
 21
272.907994
 31
0.0
  0
SOLID
  5
366
330
1F
100
AcDbEntity
  8
SK2
100
AcDbTrace
 10
205.878544
 20
304.907994
 30
0.0
 11
206.495689
 21
301.407996
 31
0.0
 12
205.2614
 22
301.407991
 32
0.0
 13
205.2614
 23
301.407991
 33
0.0
  0
SOLID
  5
367
330
1F
100
AcDbEntity
  8
SK2
100
AcDbTrace
 10
205.878544
 20
272.907994
 30
0.0
 11
205.2614
 21
276.407991
 31
0.0
 12
206.495689
 22
276.407996
 32
0.0
 13
206.495689
 23
276.407996
 33
0.0
  0
MTEXT
  5
368
330
1F
100
AcDbEntity
  8
SK2
100
AcDbMText
 10
193.332501
 20
290.434244
 30
0.0
 40
3.5
 41
0.0
 71
     7
 72
     5
  1
\W0.7045;42
  7
cesky
 11
0.0000000000000001
 21
1.0
 31
0.0
 73
     2
 44
0.8433729999999998
  0
MTEXT
  5
369
330
1F
100
AcDbEntity
  8
SK2
100
AcDbMText
 10
193.332501
 20
283.696744
 30
0.0
 40
3.5
 41
0.0
 71
     7
 72
     5
  1
\W3.0115;\H2.63;%%c\H3.50;
  7
cesky
 11
0.0000000000000001
 21
1.0
 31
0.0
 73
     2
 44
0.8433729999999998
  0
LINE
  5
36A
330
1F
100
AcDbEntity
  8
SK2
100
AcDbLine
 10
274.904842
 20
309.907994
 30
0.0
 11
192.519918
 21
309.907994
 31
0.0
  0
LINE
  5
36B
330
1F
100
AcDbEntity
  8
SK2
100
AcDbLine
 10
274.904842
 20
267.907994
 30
0.0
 11
192.519918
 21
267.907994
 31
0.0
  0
LINE
  5
36C
330
1F
100
AcDbEntity
  8
SK2
100
AcDbLine
 10
193.519918
 20
309.907994
 30
0.0
 11
193.519918
 21
267.907994
 31
0.0
  0
SOLID
  5
36D
330
1F
100
AcDbEntity
  8
SK2
100
AcDbTrace
 10
193.519918
 20
309.907994
 30
0.0
 11
194.137062
 21
306.407996
 31
0.0
 12
192.902773
 22
306.407991
 32
0.0
 13
192.902773
 23
306.407991
 33
0.0
  0
SOLID
  5
36E
330
1F
100
AcDbEntity
  8
SK2
100
AcDbTrace
 10
193.519918
 20
267.907994
 30
0.0
 11
192.902773
 21
271.4079910000001
 31
0.0
 12
194.137062
 22
271.407996
 32
0.0
 13
194.137062
 23
271.407996
 33
0.0
  0
LINE
  5
370
330
1F
100
AcDbEntity
  8
CUT
100
AcDbLine
 10
409.4463777168563
 20
306.6582945291699
 30
0.0
 11
409.7534797270134
 21
298.1013181225452
 31
0.0
  0
LINE
  5
371
330
1F
100
AcDbEntity
  8
CUT
100
AcDbLine
 10
410.2754235247553
 20
297.1561161883041
 30
0.0
 11
410.3998607906598
 21
290.0309651127017
 31
0.0
  0
LINE
  5
374
330
1F
100
AcDbEntity
  8
CUT
100
AcDbLine
 10
397.5045500895836
 20
306.9972300692129
 30
0.0
 11
408.6427292886618
 21
307.4046831512871
 31
0.0
  0
LINE
  5
375
330
1F
100
AcDbEntity
  8
CUT
100
AcDbLine
 10
409.7534797270134
 20
298.1013181225452
 30
0.0
 11
410.2334058386329
 21
297.3026386918773
 31
0.0
  0
LINE
  5
376
330
1F
100
AcDbEntity
  8
CUT
100
AcDbLine
 10
410.3998609999999
 20
290.030965
 30
0.0
 11
410.3998609999999
 21
288.907994
 31
0.0
  0
LINE
  5
377
330
1F
100
AcDbEntity
  8
CUT
100
AcDbLine
 10
410.3998609999999
 20
288.907994
 30
0.0
 11
396.756432
 21
288.907994
 31
0.0
  0
LINE
  5
378
330
1F
100
AcDbEntity
  8
CUT
100
AcDbLine
 10
396.756432
 20
288.907994
 30
0.0
 11
396.756432
 21
306.193652
 31
0.0
  0
LINE
  5
379
330
1F
100
AcDbEntity
  8
CUT
100
AcDbLine
 10
396.7564324380396
 20
306.1936516452627
 30
0.0
 11
396.7564324380396
 21
306.1936516452627
 31
0.0
  0
ARC
  5
37A
330
1F
100
AcDbEntity
  8
CUT
100
AcDbCircle
 10
397.5382659300756
 20
306.2158096767677
 30
0.0
 40
0.7821474206499159
100
AcDbArc
 50
92.47060091384675
 51
181.6233916202213
  0
LINE
  5
37B
330
1F
100
AcDbEntity
  8
CUT
100
AcDbLine
 10
408.6427292886618
 20
307.4046831512871
 30
0.0
 11
408.6427292886618
 21
307.4046831512871
 31
0.0
  0
ARC
  5
37C
330
1F
100
AcDbEntity
  8
CUT
100
AcDbCircle
 10
408.6665371611461
 20
306.6244726696077
 30
0.0
 40
0.7805736419548654
100
AcDbArc
 50
2.483374514045183
 51
91.74781996901376
  0
LINE
  5
37D
330
1F
100
AcDbEntity
  8
CUT
100
AcDbLine
 10
410.2334058386329
 20
297.3026386918775
 30
0.0
 11
410.2334058386329
 21
297.3026386918775
 31
0.0
  0
ARC
  5
37E
330
1F
100
AcDbEntity
  8
CUT
100
AcDbCircle
 10
409.9810532454206
 20
297.1509866485932
 30
0.0
 40
0.2944149682561721
100
AcDbArc
 50
0.9983047031413109
 51
31.00388804909265
  0
ENDSEC
  0
SECTION
  2
OBJECTS
  0
DICTIONARY
  5
C
330
0
100
AcDbDictionary
281
     1
  3
ACAD_CIP_PREVIOUS_PRODUCT_INFO
350
341
  3
ACAD_COLOR
350
33C
  3
ACAD_DETAILVIEWSTYLE
350
338
  3
ACAD_GROUP
350
D
  3
ACAD_LAYOUT
350
1A
  3
ACAD_MATERIAL
350
43
  3
ACAD_MLEADERSTYLE
350
6B
  3
ACAD_MLINESTYLE
350
17
  3
ACAD_PLOTSETTINGS
350
19
  3
ACAD_PLOTSTYLENAME
350
E
  3
ACAD_SCALELIST
350
47
  3
ACAD_SECTIONVIEWSTYLE
350
339
  3
ACAD_TABLESTYLE
350
69
  3
ACAD_VISUALSTYLE
350
2A
  3
ACDB_RECOMPOSE_DATA
350
3AA
  3
AcDbVariableDictionary
350
2F5
  0
DICTIONARY
  5
38D
330
10
100
AcDbDictionary
280
     1
281
     1
  3
ADSK_XREC_LAYER_RECONCILED
360
38E
  0
DICTIONARY
  5
38F
330
37F
100
AcDbDictionary
280
     1
281
     1
  3
ADSK_XREC_LAYER_RECONCILED
360
390
  0
DICTIONARY
  5
391
330
380
100
AcDbDictionary
280
     1
281
     1
  3
ADSK_XREC_LAYER_RECONCILED
360
392
  0
DICTIONARY
  5
393
330
381
100
AcDbDictionary
280
     1
281
     1
  3
ADSK_XREC_LAYER_RECONCILED
360
394
  0
DICTIONARY
  5
395
330
383
100
AcDbDictionary
280
     1
281
     1
  3
ADSK_XREC_LAYER_RECONCILED
360
396
  0
DICTIONARY
  5
397
330
384
100
AcDbDictionary
280
     1
281
     1
  3
ADSK_XREC_LAYER_RECONCILED
360
398
  0
DICTIONARY
  5
399
330
386
100
AcDbDictionary
280
     1
281
     1
  3
ADSK_XREC_LAYER_RECONCILED
360
39A
  0
DICTIONARY
  5
39B
330
387
100
AcDbDictionary
280
     1
281
     1
  3
ADSK_XREC_LAYER_RECONCILED
360
39C
  0
DICTIONARY
  5
39D
330
388
100
AcDbDictionary
280
     1
281
     1
  3
ADSK_XREC_LAYER_RECONCILED
360
39E
  0
DICTIONARY
  5
39F
330
389
100
AcDbDictionary
280
     1
281
     1
  3
ADSK_XREC_LAYER_RECONCILED
360
3A0
  0
DICTIONARY
  5
3A1
330
38A
100
AcDbDictionary
280
     1
281
     1
  3
ADSK_XREC_LAYER_RECONCILED
360
3A2
  0
DICTIONARY
  5
3A3
330
38B
100
AcDbDictionary
280
     1
281
     1
  3
ADSK_XREC_LAYER_RECONCILED
360
3A4
  0
DICTIONARY
  5
342
330
1F
100
AcDbDictionary
280
     1
281
     1
  3
ACAD_SORTENTS
360
343
  0
XRECORD
  5
341
102
{ACAD_REACTORS
330
C
102
}
330
C
100
AcDbXrecord
280
     1
300
ACD
300
2019
300
87084ACD_2019_0F
  0
DICTIONARY
  5
33C
102
{ACAD_REACTORS
330
C
102
}
330
C
100
AcDbDictionary
281
     1
  0
DICTIONARY
  5
338
102
{ACAD_REACTORS
330
C
102
}
330
C
100
AcDbDictionary
281
     1
  3
Metric50
350
33E
  0
DICTIONARY
  5
D
102
{ACAD_REACTORS
330
C
102
}
330
C
100
AcDbDictionary
281
     1
  3
NULOVY_BOD
350
38C
  0
DICTIONARY
  5
1A
102
{ACAD_REACTORS
330
C
102
}
330
C
100
AcDbDictionary
281
     1
  3
Layout1
350
1E
  3
Layout2
350
26
  3
Model
350
22
  0
DICTIONARY
  5
43
102
{ACAD_REACTORS
330
C
102
}
330
C
100
AcDbDictionary
281
     1
  3
ByBlock
350
45
  3
ByLayer
350
44
  3
Global
350
46
  0
DICTIONARY
  5
6B
102
{ACAD_REACTORS
330
C
102
}
330
C
100
AcDbDictionary
281
     1
  3
Standard
350
6C
  0
DICTIONARY
  5
17
102
{ACAD_REACTORS
330
C
102
}
330
C
100
AcDbDictionary
281
     1
  3
Standard
350
18
  0
DICTIONARY
  5
19
102
{ACAD_REACTORS
330
C
102
}
330
C
100
AcDbDictionary
281
     1
  0
ACDBDICTIONARYWDFLT
  5
E
102
{ACAD_REACTORS
330
C
102
}
330
C
100
AcDbDictionary
281
     1
  3
Normal
350
F
100
AcDbDictionaryWithDefault
340
F
  0
DICTIONARY
  5
47
102
{ACAD_REACTORS
330
C
102
}
330
C
100
AcDbDictionary
281
     1
  3
A0
350
48
  3
A1
350
49
  3
A2
350
4A
  3
A3
350
4B
  3
A4
350
4C
  3
A5
350
4D
  3
A6
350
4E
  3
A7
350
4F
  3
A8
350
50
  3
A9
350
51
  3
B0
350
52
  3
B1
350
53
  3
B2
350
54
  3
B3
350
55
  3
B4
350
56
  3
B5
350
57
  3
B6
350
58
  3
B7
350
59
  3
B8
350
5A
  3
B9
350
5B
  3
C0
350
5C
  3
C1
350
5D
  3
C2
350
5E
  3
C3
350
5F
  3
C4
350
60
  3
C5
350
61
  3
C6
350
62
  3
C7
350
63
  3
C8
350
64
  3
C9
350
65
  3
D0
350
66
  3
D1
350
67
  3
D2
350
68
  0
DICTIONARY
  5
339
102
{ACAD_REACTORS
330
C
102
}
330
C
100
AcDbDictionary
281
     1
  3
Metric50
350
33D
  0
DICTIONARY
  5
69
102
{ACAD_REACTORS
330
C
102
}
330
C
100
AcDbDictionary
281
     1
  3
Standard
350
6A
  0
DICTIONARY
  5
2A
102
{ACAD_REACTORS
330
C
102
}
330
C
100
AcDbDictionary
281
     1
  3
2dWireframe
350
2F
  3
Basic
350
32
  3
Brighten
350
36
  3
ColorChange
350
3A
  3
Conceptual
350
34
  3
Dim
350
35
  3
EdgeColorOff
350
3D
  3
Facepattern
350
39
  3
Flat
350
2B
  3
FlatWithEdges
350
2C
  3
Gouraud
350
2D
  3
GouraudWithEdges
350
2E
  3
Hidden
350
31
  3
JitterOff
350
3B
  3
Linepattern
350
38
  3
OverhangOff
350
3C
  3
Realistic
350
33
  3
Shaded
350
42
  3
Shaded with edges
350
41
  3
Shades of Gray
350
3E
  3
Sketchy
350
3F
  3
Thicken
350
37
  3
Wireframe
350
30
  3
X-Ray
350
40
  0
XRECORD
  5
3AA
102
{ACAD_REACTORS
330
C
102
}
330
C
100
AcDbXrecord
280
     1
 90
        1
330
6A
  0
DICTIONARY
  5
2F5
102
{ACAD_REACTORS
330
C
102
}
330
C
100
AcDbDictionary
281
     1
  3
CANNOSCALE
350
2F6
  3
CMLEADERSTYLE
350
337
  3
CTABLESTYLE
350
336
  3
CVIEWDETAILSTYLE
350
3A5
  3
CVIEWSECTIONSTYLE
350
3A6
  3
MSLTSCALE
350
2F7
  3
XCLIPFRAME
350
3A7
  0
XRECORD
  5
38E
102
{ACAD_REACTORS
330
38D
102
}
330
38D
100
AcDbXrecord
280
     1
290
     1
  0
XRECORD
  5
390
102
{ACAD_REACTORS
330
38F
102
}
330
38F
100
AcDbXrecord
280
     1
290
     1
  0
XRECORD
  5
392
102
{ACAD_REACTORS
330
391
102
}
330
391
100
AcDbXrecord
280
     1
290
     1
  0
XRECORD
  5
394
102
{ACAD_REACTORS
330
393
102
}
330
393
100
AcDbXrecord
280
     1
290
     1
  0
XRECORD
  5
396
102
{ACAD_REACTORS
330
395
102
}
330
395
100
AcDbXrecord
280
     1
290
     1
  0
XRECORD
  5
398
102
{ACAD_REACTORS
330
397
102
}
330
397
100
AcDbXrecord
280
     1
290
     1
  0
XRECORD
  5
39A
102
{ACAD_REACTORS
330
399
102
}
330
399
100
AcDbXrecord
280
     1
290
     1
  0
XRECORD
  5
39C
102
{ACAD_REACTORS
330
39B
102
}
330
39B
100
AcDbXrecord
280
     1
290
     1
  0
XRECORD
  5
39E
102
{ACAD_REACTORS
330
39D
102
}
330
39D
100
AcDbXrecord
280
     1
290
     1
  0
XRECORD
  5
3A0
102
{ACAD_REACTORS
330
39F
102
}
330
39F
100
AcDbXrecord
280
     1
290
     1
  0
XRECORD
  5
3A2
102
{ACAD_REACTORS
330
3A1
102
}
330
3A1
100
AcDbXrecord
280
     1
290
     1
  0
XRECORD
  5
3A4
102
{ACAD_REACTORS
330
3A3
102
}
330
3A3
100
AcDbXrecord
280
     1
290
     1
  0
SORTENTSTABLE
  5
343
102
{ACAD_REACTORS
330
342
102
}
330
342
100
AcDbSortentsTable
330
1F
331
344
  5
297
331
345
  5
2B0
331
346
  5
344
331
347
  5
345
331
348
  5
346
331
349
  5
347
331
34A
  5
348
331
34B
  5
349
331
34C
  5
34A
331
34D
  5
34B
331
34E
  5
34C
331
34F
  5
34D
331
350
  5
34E
331
351
  5
34F
331
352
  5
350
331
353
  5
351
331
354
  5
352
331
355
  5
353
331
356
  5
354
331
357
  5
355
331
358
  5
356
331
359
  5
357
331
35A
  5
358
331
35B
  5
369
331
35C
  5
36A
331
35D
  5
36B
331
35E
  5
36C
331
35F
  5
36D
331
360
  5
36E
331
361
  5
35B
331
362
  5
35C
331
363
  5
35D
331
364
  5
35E
331
365
  5
35F
331
366
  5
360
331
367
  5
361
331
368
  5
362
331
369
  5
363
331
36A
  5
364
331
36B
  5
365
331
36C
  5
366
331
36D
  5
367
331
36E
  5
368
331
370
  5
374
331
371
  5
375
331
374
  5
37A
331
375
  5
37B
331
376
  5
37C
331
377
  5
37D
331
378
  5
37E
331
379
  5
370
331
37A
  5
371
331
37B
  5
376
331
37C
  5
377
331
37D
  5
378
331
37E
  5
379
  0
ACDBDETAILVIEWSTYLE
  5
33E
102
{ACAD_XDICTIONARY
360
3DE
102
}
102
{ACAD_REACTORS
330
338
102
}
330
338
100
AcDbModelDocViewStyle
 70
     0
  3
Metric50
290
     0
100
AcDbDetailViewStyle
 70
     0
 71
     0
 90
        3
 71
     1
340
11
 62
   256
 40
5.0
340
0
 62
   256
 40
5.0
300

 40
0.0
280
     1
 71
     2
340
16
 90
       25
 62
   256
 71
     3
340
11
 62
   256
 40
5.0
 90
        0
 40
15.0
 90
        1
300
%<\AcVar ViewDetailId>% (%<\AcVar ViewScale \f "%sn">%)
 71
     4
340
16
 90
       25
 62
   256
340
16
 90
       25
 62
   256
280
     0
  0
GROUP
  5
38C
102
{ACAD_REACTORS
330
D
102
}
330
D
100
AcDbGroup
300

 70
     0
 71
     1
340
73
  0
LAYOUT
  5
1E
102
{ACAD_REACTORS
330
1A
102
}
330
1A
100
AcDbPlotSettings
  1

  2
none_device
  4

  6

 40
0.0
 41
0.0
 42
0.0
 43
0.0
 44
0.0
 45
0.0
 46
0.0
 47
0.0
 48
0.0
 49
0.0
140
0.0
141
0.0
142
1.0
143
1.0
 70
   688
 72
     0
 73
     0
 74
     5
  7

 75
    16
147
1.0
 76
     0
 77
     2
 78
   300
148
0.0
149
0.0
100
AcDbLayout
  1
Layout1
 70
     1
 71
     1
 10
-0.5
 20
-0.5
 11
5.0
 21
5.0
 12
0.0
 22
0.0
 32
0.0
 14
-0.5
 24
-0.5
 34
-0.5
 15
5.0
 25
5.0
 35
5.0
146
0.0
 13
0.0
 23
0.0
 33
0.0
 16
1.0
 26
0.0
 36
0.0
 17
0.0
 27
1.0
 37
0.0
 76
     0
330
1B
  0
LAYOUT
  5
26
102
{ACAD_REACTORS
330
1A
102
}
330
1A
100
AcDbPlotSettings
  1

  2
none_device
  4

  6

 40
0.0
 41
0.0
 42
0.0
 43
0.0
 44
0.0
 45
0.0
 46
0.0
 47
0.0
 48
0.0
 49
0.0
140
0.0
141
0.0
142
1.0
143
1.0
 70
   688
 72
     0
 73
     0
 74
     5
  7

 75
    16
147
1.0
 76
     0
 77
     2
 78
   300
148
0.0
149
0.0
100
AcDbLayout
  1
Layout2
 70
     1
 71
     2
 10
0.0
 20
0.0
 11
0.0
 21
0.0
 12
0.0
 22
0.0
 32
0.0
 14
0.0
 24
0.0
 34
0.0
 15
0.0
 25
0.0
 35
0.0
146
0.0
 13
0.0
 23
0.0
 33
0.0
 16
1.0
 26
0.0
 36
0.0
 17
0.0
 27
1.0
 37
0.0
 76
     0
330
23
  0
LAYOUT
  5
22
102
{ACAD_REACTORS
330
1A
102
}
330
1A
100
AcDbPlotSettings
  1

  2
none_device
  4
Letter_(8.50_x_11.00_Inches)
  6

 40
6.349999999999999
 41
6.349999999999999
 42
6.350005
 43
6.350005
 44
215.9
 45
279.4
 46
0.0
 47
0.0
 48
0.0
 49
0.0
140
0.0
141
0.0
142
1.0
143
1.0
 70
  1712
 72
     0
 73
     0
 74
     0
  7

 75
     0
147
1.0
 76
     0
 77
     2
 78
   300
148
0.0
149
0.0
100
AcDbLayout
  1
Model
 70
     1
 71
     0
 10
-0.5
 20
-0.5
 11
5.0
 21
5.0
 12
0.0
 22
0.0
 32
0.0
 14
-0.5
 24
-0.5
 34
-0.5
 15
5.0
 25
5.0
 35
5.0
146
0.0
 13
0.0
 23
0.0
 33
0.0
 16
1.0
 26
0.0
 36
0.0
 17
0.0
 27
1.0
 37
0.0
 76
     0
330
1F
331
29
  0
MATERIAL
  5
45
102
{ACAD_XDICTIONARY
360
32B
102
}
102
{ACAD_REACTORS
330
43
102
}
330
43
100
AcDbMaterial
  1
ByBlock
  0
MATERIAL
  5
44
102
{ACAD_XDICTIONARY
360
329
102
}
102
{ACAD_REACTORS
330
43
102
}
330
43
100
AcDbMaterial
  1
ByLayer
  0
MATERIAL
  5
46
102
{ACAD_XDICTIONARY
360
32D
102
}
102
{ACAD_REACTORS
330
43
102
}
330
43
100
AcDbMaterial
  1
Global
  0
MLEADERSTYLE
  5
6C
102
{ACAD_REACTORS
330
6B
102
}
330
6B
100
AcDbMLeaderStyle
170
     2
171
     1
172
     0
 90
        2
 40
0.0
 41
0.0
173
     1
 91
-1056964608
340
14
 92
       -2
290
     1
 42
0.09
291
     1
 43
0.36
  3
Standard
 44
0.18
300

342
11
174
     1
178
     6
175
     1
176
     0
 93
-1056964608
 45
0.18
292
     0
297
     0
 46
0.18
 94
-1056964608
 47
1.0
 49
1.0
140
1.0
293
     1
141
0.0
294
     1
177
     0
142
1.0
295
     0
296
     0
143
0.125
1001
ACAD_MLEADERVER
1070
     2
  0
MLINESTYLE
  5
18
102
{ACAD_REACTORS
330
17
102
}
330
17
100
AcDbMlineStyle
  2
STANDARD
 70
     0
  3

 62
   256
 51
90.0
 52
90.0
 71
     2
 49
0.5
 62
   256
  6
BYLAYER
 49
-0.5
 62
   256
  6
BYLAYER
  0
ACDBPLACEHOLDER
  5
F
102
{ACAD_REACTORS
330
E
102
}
330
E
  0
SCALE
  5
48
102
{ACAD_REACTORS
330
47
102
}
330
47
100
AcDbScale
 70
     0
300
1:1
140
1.0
141
1.0
290
     1
  0
SCALE
  5
49
102
{ACAD_REACTORS
330
47
102
}
330
47
100
AcDbScale
 70
     0
300
1:2
140
1.0
141
2.0
290
     0
  0
SCALE
  5
4A
102
{ACAD_REACTORS
330
47
102
}
330
47
100
AcDbScale
 70
     0
300
1:4
140
1.0
141
4.0
290
     0
  0
SCALE
  5
4B
102
{ACAD_REACTORS
330
47
102
}
330
47
100
AcDbScale
 70
     0
300
1:5
140
1.0
141
5.0
290
     0
  0
SCALE
  5
4C
102
{ACAD_REACTORS
330
47
102
}
330
47
100
AcDbScale
 70
     0
300
1:8
140
1.0
141
8.0
290
     0
  0
SCALE
  5
4D
102
{ACAD_REACTORS
330
47
102
}
330
47
100
AcDbScale
 70
     0
300
1:10
140
1.0
141
10.0
290
     0
  0
SCALE
  5
4E
102
{ACAD_REACTORS
330
47
102
}
330
47
100
AcDbScale
 70
     0
300
1:16
140
1.0
141
16.0
290
     0
  0
SCALE
  5
4F
102
{ACAD_REACTORS
330
47
102
}
330
47
100
AcDbScale
 70
     0
300
1:20
140
1.0
141
20.0
290
     0
  0
SCALE
  5
50
102
{ACAD_REACTORS
330
47
102
}
330
47
100
AcDbScale
 70
     0
300
1:30
140
1.0
141
30.0
290
     0
  0
SCALE
  5
51
102
{ACAD_REACTORS
330
47
102
}
330
47
100
AcDbScale
 70
     0
300
1:40
140
1.0
141
40.0
290
     0
  0
SCALE
  5
52
102
{ACAD_REACTORS
330
47
102
}
330
47
100
AcDbScale
 70
     0
300
1:50
140
1.0
141
50.0
290
     0
  0
SCALE
  5
53
102
{ACAD_REACTORS
330
47
102
}
330
47
100
AcDbScale
 70
     0
300
1:100
140
1.0
141
100.0
290
     0
  0
SCALE
  5
54
102
{ACAD_REACTORS
330
47
102
}
330
47
100
AcDbScale
 70
     0
300
2:1
140
2.0
141
1.0
290
     0
  0
SCALE
  5
55
102
{ACAD_REACTORS
330
47
102
}
330
47
100
AcDbScale
 70
     0
300
4:1
140
4.0
141
1.0
290
     0
  0
SCALE
  5
56
102
{ACAD_REACTORS
330
47
102
}
330
47
100
AcDbScale
 70
     0
300
8:1
140
8.0
141
1.0
290
     0
  0
SCALE
  5
57
102
{ACAD_REACTORS
330
47
102
}
330
47
100
AcDbScale
 70
     0
300
10:1
140
10.0
141
1.0
290
     0
  0
SCALE
  5
58
102
{ACAD_REACTORS
330
47
102
}
330
47
100
AcDbScale
 70
     0
300
100:1
140
100.0
141
1.0
290
     0
  0
SCALE
  5
59
102
{ACAD_REACTORS
330
47
102
}
330
47
100
AcDbScale
 70
     0
300
1/128" = 1'-0"
140
0.007812
141
12.0
290
     0
  0
SCALE
  5
5A
102
{ACAD_REACTORS
330
47
102
}
330
47
100
AcDbScale
 70
     0
300
1/64" = 1'-0"
140
0.015625
141
12.0
290
     0
  0
SCALE
  5
5B
102
{ACAD_REACTORS
330
47
102
}
330
47
100
AcDbScale
 70
     0
300
1/32" = 1'-0"
140
0.03125
141
12.0
290
     0
  0
SCALE
  5
5C
102
{ACAD_REACTORS
330
47
102
}
330
47
100
AcDbScale
 70
     0
300
1/16" = 1'-0"
140
0.0625
141
12.0
290
     0
  0
SCALE
  5
5D
102
{ACAD_REACTORS
330
47
102
}
330
47
100
AcDbScale
 70
     0
300
3/32" = 1'-0"
140
0.09375
141
12.0
290
     0
  0
SCALE
  5
5E
102
{ACAD_REACTORS
330
47
102
}
330
47
100
AcDbScale
 70
     0
300
1/8" = 1'-0"
140
0.125
141
12.0
290
     0
  0
SCALE
  5
5F
102
{ACAD_REACTORS
330
47
102
}
330
47
100
AcDbScale
 70
     0
300
3/16" = 1'-0"
140
0.1875
141
12.0
290
     0
  0
SCALE
  5
60
102
{ACAD_REACTORS
330
47
102
}
330
47
100
AcDbScale
 70
     0
300
1/4" = 1'-0"
140
0.25
141
12.0
290
     0
  0
SCALE
  5
61
102
{ACAD_REACTORS
330
47
102
}
330
47
100
AcDbScale
 70
     0
300
3/8" = 1'-0"
140
0.375
141
12.0
290
     0
  0
SCALE
  5
62
102
{ACAD_REACTORS
330
47
102
}
330
47
100
AcDbScale
 70
     0
300
1/2" = 1'-0"
140
0.5
141
12.0
290
     0
  0
SCALE
  5
63
102
{ACAD_REACTORS
330
47
102
}
330
47
100
AcDbScale
 70
     0
300
3/4" = 1'-0"
140
0.75
141
12.0
290
     0
  0
SCALE
  5
64
102
{ACAD_REACTORS
330
47
102
}
330
47
100
AcDbScale
 70
     0
300
1" = 1'-0"
140
1.0
141
12.0
290
     0
  0
SCALE
  5
65
102
{ACAD_REACTORS
330
47
102
}
330
47
100
AcDbScale
 70
     0
300
1-1/2" = 1'-0"
140
1.5
141
12.0
290
     0
  0
SCALE
  5
66
102
{ACAD_REACTORS
330
47
102
}
330
47
100
AcDbScale
 70
     0
300
3" = 1'-0"
140
3.0
141
12.0
290
     0
  0
SCALE
  5
67
102
{ACAD_REACTORS
330
47
102
}
330
47
100
AcDbScale
 70
     0
300
6" = 1'-0"
140
6.0
141
12.0
290
     0
  0
SCALE
  5
68
102
{ACAD_REACTORS
330
47
102
}
330
47
100
AcDbScale
 70
     0
300
1'-0" = 1'-0"
140
12.0
141
12.0
290
     0
  0
ACDBSECTIONVIEWSTYLE
  5
33D
102
{ACAD_XDICTIONARY
360
3DC
102
}
102
{ACAD_REACTORS
330
339
102
}
330
339
100
AcDbModelDocViewStyle
 70
     0
  3
Metric50
290
     0
100
AcDbSectionViewStyle
 70
     0
 71
     0
 90
      102
 71
     1
340
11
 62
   256
 40
5.0
340
0
340
0
 62
   256
 40
5.0
300
I, O, Q, S, X, Z
 40
10.0
 90
        0
 40
2.5
 90
        0
 71
     2
340
16
 90
       25
 62
   256
340
16
 90
       50
 62
   256
 40
5.0
 40
2.5
 40
5.0
 71
     3
340
11
 62
   256
 40
5.0
 90
        0
 40
15.0
 90
        1
300
%<\AcVar ViewSectionStartId>%-%<\AcVar ViewSectionEndId>% (%<\AcVar ViewScale \f "%sn">%)
 71
     4
 62
   256
 62
   257
300
ANSI31
 40
1.0
 90
        0
290
     0
290
     0
 90
        6
 40
0.0
 40
1.570796326794896
 40
0.2617993877991494
 40
1.308996938995747
 40
-0.2617993877991494
 40
1.832595714594046
  0
TABLESTYLE
  5
6A
102
{ACAD_XDICTIONARY
360
32F
102
}
102
{ACAD_REACTORS
330
69
102
}
330
69
100
AcDbTableStyle
  3
Standard
 70
     0
 71
     0
 40
0.06
 41
0.06
280
     0
281
     0
  7
Standard
140
0.18
170
     2
 62
     0
 63
     7
283
     0
274
    -2
284
     1
 64
     0
275
    -2
285
     1
 65
     0
276
    -2
286
     1
 66
     0
277
    -2
287
     1
 67
     0
278
    -2
288
     1
 68
     0
279
    -2
289
     1
 69
     0
  7
Standard
140
0.25
170
     5
 62
     0
 63
     7
283
     0
274
    -2
284
     1
 64
     0
275
    -2
285
     1
 65
     0
276
    -2
286
     1
 66
     0
277
    -2
287
     1
 67
     0
278
    -2
288
     1
 68
     0
279
    -2
289
     1
 69
     0
  7
Standard
140
0.18
170
     5
 62
     0
 63
     7
283
     0
274
    -2
284
     1
 64
     0
275
    -2
285
     1
 65
     0
276
    -2
286
     1
 66
     0
277
    -2
287
     1
 67
     0
278
    -2
288
     1
 68
     0
279
    -2
289
     1
 69
     0
  0
VISUALSTYLE
  5
2F
102
{ACAD_XDICTIONARY
360
3B3
102
}
102
{ACAD_REACTORS
330
2A
102
}
330
2A
100
AcDbVisualStyle
  2

 70
     4
 71
     0
 72
     2
 73
     0
 90
        0
 40
-0.6
 41
-30.0
 62
     5
 63
     7
421
 16777215
 74
     1
 91
        4
 64
     7
 65
   257
 75
     1
175
     1
 42
1.0
 92
        0
 66
   257
 43
1.0
 76
     1
 77
     6
 78
     2
 67
     7
 79
     5
170
     0
171
     0
290
     0
174
     0
 93
        1
 44
0.0
173
     0
291
     0
 45
0.0
1001
ACAD
1000
AcDbSavedByObjectVersion
1070
     0
  0
VISUALSTYLE
  5
32
102
{ACAD_XDICTIONARY
360
3B9
102
}
102
{ACAD_REACTORS
330
2A
102
}
330
2A
100
AcDbVisualStyle
  2

 70
     7
 71
     1
 72
     0
 73
     1
 90
        0
 40
-0.6
 41
-30.0
 62
     5
 63
     7
421
 16777215
 74
     0
 91
        4
 64
     7
 65
   257
 75
     1
175
     1
 42
1.0
 92
        8
 66
     7
 43
1.0
 76
     1
 77
     6
 78
     2
 67
     7
 79
     5
170
     0
171
     0
290
     0
174
     0
 93
        1
 44
0.0
173
     0
291
     1
 45
0.0
1001
ACAD
1000
AcDbSavedByObjectVersion
1070
     0
  0
VISUALSTYLE
  5
36
102
{ACAD_XDICTIONARY
360
3C1
102
}
102
{ACAD_REACTORS
330
2A
102
}
330
2A
100
AcDbVisualStyle
  2

 70
    12
 71
     2
 72
     2
 73
     0
 90
        0
 40
-0.6
 41
-30.0
 62
     5
 63
     7
421
 16777215
 74
     1
 91
        4
 64
     7
 65
   257
 75
     1
175
     1
 42
1.0
 92
        8
 66
     7
 43
1.0
 76
     1
 77
     6
 78
     2
 67
     7
 79
     5
170
     0
171
     0
290
     0
174
     0
 93
        1
 44
50.0
173
     0
291
     1
 45
0.0
1001
ACAD
1000
AcDbSavedByObjectVersion
1070
     0
  0
VISUALSTYLE
  5
3A
102
{ACAD_XDICTIONARY
360
3C9
102
}
102
{ACAD_REACTORS
330
2A
102
}
330
2A
100
AcDbVisualStyle
  2

 70
    16
 71
     2
 72
     2
 73
     3
 90
        0
 40
-0.6
 41
-30.0
 62
     5
 63
     8
421
  8421504
 74
     1
 91
        4
 64
     7
 65
   257
 75
     1
175
     1
 42
1.0
 92
        8
 66
     8
424
  8421504
 43
1.0
 76
     1
 77
     6
 78
     2
 67
     7
 79
     5
170
     0
171
     0
290
     0
174
     0
 93
        1
 44
0.0
173
     0
291
     1
 45
0.0
1001
ACAD
1000
AcDbSavedByObjectVersion
1070
     0
  0
VISUALSTYLE
  5
34
102
{ACAD_XDICTIONARY
360
3BD
102
}
102
{ACAD_REACTORS
330
2A
102
}
330
2A
100
AcDbVisualStyle
  2

 70
     9
 71
     3
 72
     2
 73
     0
 90
        0
 40
-0.6
 41
-30.0
 62
     5
 63
     7
421
 16777215
 74
     2
 91
        2
 64
     7
 65
   257
 75
     1
175
     1
 42
179.0
 92
        8
 66
     7
 43
1.0
 76
     1
 77
     6
 78
     2
 67
     7
 79
     3
170
     0
171
     0
290
     0
174
     0
 93
        1
 44
0.0
173
     0
291
     0
 45
0.0
1001
ACAD
1000
AcDbSavedByObjectVersion
1070
     0
  0
VISUALSTYLE
  5
35
102
{ACAD_XDICTIONARY
360
3BF
102
}
102
{ACAD_REACTORS
330
2A
102
}
330
2A
100
AcDbVisualStyle
  2

 70
    11
 71
     2
 72
     2
 73
     0
 90
        0
 40
-0.6
 41
-30.0
 62
     5
 63
     7
421
 16777215
 74
     1
 91
        4
 64
     7
 65
   257
 75
     1
175
     1
 42
1.0
 92
        8
 66
     7
 43
1.0
 76
     1
 77
     6
 78
     2
 67
     7
 79
     5
170
     0
171
     0
290
     0
174
     0
 93
        1
 44
-50.0
173
     0
291
     1
 45
0.0
1001
ACAD
1000
AcDbSavedByObjectVersion
1070
     0
  0
VISUALSTYLE
  5
3D
102
{ACAD_XDICTIONARY
360
3CF
102
}
102
{ACAD_REACTORS
330
2A
102
}
330
2A
100
AcDbVisualStyle
  2

 70
    22
 71
     2
 72
     2
 73
     0
 90
        0
 40
-0.6
 41
-30.0
 62
     5
 63
     7
421
 16777215
 74
     1
 91
        4
 64
     7
 65
   257
 75
     1
175
     1
 42
1.0
 92
        8
 66
     7
 43
1.0
 76
     1
 77
     6
 78
     2
 67
     7
 79
     5
170
     0
171
     0
290
     0
174
     0
 93
        1
 44
0.0
173
     0
291
     1
 45
0.0
1001
ACAD
1000
AcDbSavedByObjectVersion
1070
     0
  0
VISUALSTYLE
  5
39
102
{ACAD_XDICTIONARY
360
3C7
102
}
102
{ACAD_REACTORS
330
2A
102
}
330
2A
100
AcDbVisualStyle
  2

 70
    15
 71
     2
 72
     2
 73
     0
 90
        0
 40
-0.6
 41
-30.0
 62
     5
 63
     7
421
 16777215
 74
     1
 91
        4
 64
     7
 65
   257
 75
     1
175
     1
 42
1.0
 92
        8
 66
     7
 43
1.0
 76
     1
 77
     6
 78
     2
 67
     7
 79
     5
170
     0
171
     0
290
     0
174
     0
 93
        1
 44
0.0
173
     0
291
     1
 45
0.0
1001
ACAD
1000
AcDbSavedByObjectVersion
1070
     0
  0
VISUALSTYLE
  5
2B
102
{ACAD_XDICTIONARY
360
3AB
102
}
102
{ACAD_REACTORS
330
2A
102
}
330
2A
100
AcDbVisualStyle
  2

 70
     0
 71
     2
 72
     1
 73
     1
 90
        2
 40
-0.6
 41
30.0
 62
     5
 63
     7
421
 16777215
 74
     0
 91
        0
 64
     7
 65
   257
 75
     1
175
     1
 42
1.0
 92
        8
 66
     7
 43
1.0
 76
     1
 77
     6
 78
     2
 67
     7
 79
     5
170
     0
171
     0
290
     0
174
     0
 93
       13
 44
0.0
173
     0
291
     1
 45
0.0
1001
ACAD
1000
AcDbSavedByObjectVersion
1070
     0
  0
VISUALSTYLE
  5
2C
102
{ACAD_XDICTIONARY
360
3AD
102
}
102
{ACAD_REACTORS
330
2A
102
}
330
2A
100
AcDbVisualStyle
  2

 70
     1
 71
     2
 72
     1
 73
     1
 90
        2
 40
-0.6
 41
30.0
 62
     5
 63
     7
421
 16777215
 74
     1
 91
        0
 64
     7
 65
   257
 75
     1
175
     1
 42
1.0
 92
        0
 66
   257
 43
1.0
 76
     1
 77
     6
 78
     2
 67
     7
 79
     5
170
     0
171
     0
290
     0
174
     0
 93
       13
 44
0.0
173
     0
291
     1
 45
0.0
1001
ACAD
1000
AcDbSavedByObjectVersion
1070
     0
  0
VISUALSTYLE
  5
2D
102
{ACAD_XDICTIONARY
360
3AF
102
}
102
{ACAD_REACTORS
330
2A
102
}
330
2A
100
AcDbVisualStyle
  2

 70
     2
 71
     2
 72
     2
 73
     1
 90
        2
 40
-0.6
 41
30.0
 62
     5
 63
     7
421
 16777215
 74
     0
 91
        0
 64
     7
 65
   257
 75
     1
175
     1
 42
1.0
 92
        0
 66
     7
 43
1.0
 76
     1
 77
     6
 78
     2
 67
     7
 79
     5
170
     0
171
     0
290
     0
174
     0
 93
       13
 44
0.0
173
     0
291
     1
 45
0.0
1001
ACAD
1000
AcDbSavedByObjectVersion
1070
     0
  0
VISUALSTYLE
  5
2E
102
{ACAD_XDICTIONARY
360
3B1
102
}
102
{ACAD_REACTORS
330
2A
102
}
330
2A
100
AcDbVisualStyle
  2

 70
     3
 71
     2
 72
     2
 73
     1
 90
        2
 40
-0.6
 41
30.0
 62
     5
 63
     7
421
 16777215
 74
     1
 91
        0
 64
     7
 65
   257
 75
     1
175
     1
 42
1.0
 92
        0
 66
   257
 43
1.0
 76
     1
 77
     6
 78
     2
 67
     7
 79
     5
170
     0
171
     0
290
     0
174
     0
 93
       13
 44
0.0
173
     0
291
     1
 45
0.0
1001
ACAD
1000
AcDbSavedByObjectVersion
1070
     0
  0
VISUALSTYLE
  5
31
102
{ACAD_XDICTIONARY
360
3B7
102
}
102
{ACAD_REACTORS
330
2A
102
}
330
2A
100
AcDbVisualStyle
  2

 70
     6
 71
     1
 72
     2
 73
     2
 90
        0
 40
-0.6
 41
-30.0
 62
     5
 63
     7
421
 16777215
 74
     2
 91
        2
 64
     7
 65
   257
 75
     2
175
     1
 42
40.0
 92
        0
 66
   257
 43
1.0
 76
     1
 77
     6
 78
     2
 67
     7
 79
     3
170
     0
171
     0
290
     0
174
     0
 93
        1
 44
0.0
173
     0
291
     0
 45
0.0
1001
ACAD
1000
AcDbSavedByObjectVersion
1070
     0
  0
VISUALSTYLE
  5
3B
102
{ACAD_XDICTIONARY
360
3CB
102
}
102
{ACAD_REACTORS
330
2A
102
}
330
2A
100
AcDbVisualStyle
  2

 70
    20
 71
     2
 72
     2
 73
     0
 90
        0
 40
-0.6
 41
-30.0
 62
     5
 63
     7
421
 16777215
 74
     1
 91
        4
 64
     7
 65
   257
 75
     1
175
     1
 42
1.0
 92
       10
 66
     7
 43
1.0
 76
     1
 77
     6
 78
     2
 67
     7
 79
     5
170
     0
171
     0
290
     0
174
     0
 93
        1
 44
0.0
173
     0
291
     1
 45
0.0
1001
ACAD
1000
AcDbSavedByObjectVersion
1070
     0
  0
VISUALSTYLE
  5
38
102
{ACAD_XDICTIONARY
360
3C5
102
}
102
{ACAD_REACTORS
330
2A
102
}
330
2A
100
AcDbVisualStyle
  2

 70
    14
 71
     2
 72
     2
 73
     0
 90
        0
 40
-0.6
 41
-30.0
 62
     5
 63
     7
421
 16777215
 74
     1
 91
        4
 64
     7
 65
   257
 75
     7
175
     7
 42
1.0
 92
        8
 66
     7
 43
1.0
 76
     1
 77
     6
 78
     2
 67
     7
 79
     5
170
     0
171
     0
290
     0
174
     0
 93
        1
 44
0.0
173
     0
291
     1
 45
0.0
1001
ACAD
1000
AcDbSavedByObjectVersion
1070
     0
  0
VISUALSTYLE
  5
3C
102
{ACAD_XDICTIONARY
360
3CD
102
}
102
{ACAD_REACTORS
330
2A
102
}
330
2A
100
AcDbVisualStyle
  2

 70
    21
 71
     2
 72
     2
 73
     0
 90
        0
 40
-0.6
 41
-30.0
 62
     5
 63
     7
421
 16777215
 74
     1
 91
        4
 64
     7
 65
   257
 75
     1
175
     1
 42
1.0
 92
        9
 66
     7
 43
1.0
 76
     1
 77
     6
 78
     2
 67
     7
 79
     5
170
     0
171
     0
290
     0
174
     0
 93
        1
 44
0.0
173
     0
291
     1
 45
0.0
1001
ACAD
1000
AcDbSavedByObjectVersion
1070
     0
  0
VISUALSTYLE
  5
33
102
{ACAD_XDICTIONARY
360
3BB
102
}
102
{ACAD_REACTORS
330
2A
102
}
330
2A
100
AcDbVisualStyle
  2

 70
     8
 71
     2
 72
     3
 73
     0
 90
        2
 40
-0.6
 41
30.0
 62
     5
 63
     7
421
 16777215
 74
     0
 91
        0
 64
     7
 65
   257
 75
     1
175
     1
 42
1.0
 92
        8
 66
   257
 43
1.0
 76
     1
 77
     6
 78
     2
 67
     7
 79
     3
170
     0
171
     0
290
     0
174
     0
 93
       13
 44
0.0
173
     0
291
     0
 45
0.0
1001
ACAD
1000
AcDbSavedByObjectVersion
1070
     0
  0
VISUALSTYLE
  5
42
102
{ACAD_XDICTIONARY
360
3D9
102
}
102
{ACAD_REACTORS
330
2A
102
}
330
2A
100
AcDbVisualStyle
  2

 70
    27
 71
     2
 72
     2
 73
     1
 90
        2
 40
-0.6
 41
30.0
 62
     5
 63
     7
421
 16777215
 74
     0
 91
        4
 64
     7
 65
   257
 75
     1
175
     1
 42
1.0
 92
        8
 66
   257
 43
1.0
 76
     1
 77
     6
 78
     2
 67
     8
425
  7895160
 79
     3
170
     0
171
     0
290
     0
174
     0
 93
        5
 44
0.0
173
     0
291
     0
 45
0.0
1001
ACAD
1000
AcDbSavedByObjectVersion
1070
     0
  0
VISUALSTYLE
  5
41
102
{ACAD_XDICTIONARY
360
3D7
102
}
102
{ACAD_REACTORS
330
2A
102
}
330
2A
100
AcDbVisualStyle
  2

 70
    26
 71
     2
 72
     2
 73
     1
 90
        2
 40
-0.6
 41
30.0
 62
     5
 63
     7
421
 16777215
 74
     1
 91
       10
 64
     7
 65
   257
 75
     2
175
     1
 42
1.0
 92
        8
 66
   257
 43
1.0
 76
     1
 77
     6
 78
     2
 67
     7
 79
     3
170
     0
171
     0
290
     0
174
     0
 93
        5
 44
0.0
173
     0
291
     0
 45
0.0
1001
ACAD
1000
AcDbSavedByObjectVersion
1070
     0
  0
VISUALSTYLE
  5
3E
102
{ACAD_XDICTIONARY
360
3D1
102
}
102
{ACAD_REACTORS
330
2A
102
}
330
2A
100
AcDbVisualStyle
  2

 70
    23
 71
     2
 72
     2
 73
     3
 90
        0
 40
-0.6
 41
-30.0
 62
     5
 63
     7
421
 16777215
 74
     2
 91
        2
 64
     7
 65
     7
 75
     1
175
     1
 42
40.0
 92
        8
 66
     7
 43
1.0
 76
     1
 77
     6
 78
     2
 67
     7
 79
     3
170
     0
171
     0
290
     0
174
     0
 93
        1
 44
0.0
173
     0
291
     0
 45
0.0
1001
ACAD
1000
AcDbSavedByObjectVersion
1070
     0
  0
VISUALSTYLE
  5
3F
102
{ACAD_XDICTIONARY
360
3D3
102
}
102
{ACAD_REACTORS
330
2A
102
}
330
2A
100
AcDbVisualStyle
  2

 70
    24
 71
     1
 72
     2
 73
     2
 90
        0
 40
-0.6
 41
-30.0
 62
     5
 63
     7
421
 16777215
 74
     2
 91
        2
 64
     7
 65
     7
 75
     1
175
     1
 42
40.0
 92
       11
 66
     7
 43
1.0
 76
     1
 77
     6
 78
     2
 67
     7
 79
     6
170
     0
171
     0
290
     0
174
     0
 93
        1
 44
0.0
173
     0
291
     0
 45
0.0
1001
ACAD
1000
AcDbSavedByObjectVersion
1070
     0
  0
VISUALSTYLE
  5
37
102
{ACAD_XDICTIONARY
360
3C3
102
}
102
{ACAD_REACTORS
330
2A
102
}
330
2A
100
AcDbVisualStyle
  2

 70
    13
 71
     2
 72
     2
 73
     0
 90
        0
 40
-0.6
 41
-30.0
 62
     5
 63
     7
421
 16777215
 74
     1
 91
        4
 64
     7
 65
   257
 75
     1
175
     1
 42
1.0
 92
       12
 66
     7
 43
1.0
 76
     1
 77
     6
 78
     2
 67
     7
 79
     5
170
     0
171
     0
290
     0
174
     0
 93
        1
 44
0.0
173
     0
291
     1
 45
0.0
1001
ACAD
1000
AcDbSavedByObjectVersion
1070
     0
  0
VISUALSTYLE
  5
30
102
{ACAD_XDICTIONARY
360
3B5
102
}
102
{ACAD_REACTORS
330
2A
102
}
330
2A
100
AcDbVisualStyle
  2

 70
     5
 71
     0
 72
     2
 73
     0
 90
        0
 40
-0.6
 41
-30.0
 62
     5
 63
     7
421
 16777215
 74
     1
 91
        4
 64
     7
 65
   257
 75
     1
175
     1
 42
1.0
 92
        0
 66
   257
 43
1.0
 76
     1
 77
     6
 78
     2
 67
     7
 79
     3
170
     0
171
     0
290
     0
174
     0
 93
        1
 44
0.0
173
     0
291
     0
 45
0.0
1001
ACAD
1000
AcDbSavedByObjectVersion
1070
     0
  0
VISUALSTYLE
  5
40
102
{ACAD_XDICTIONARY
360
3D5
102
}
102
{ACAD_REACTORS
330
2A
102
}
330
2A
100
AcDbVisualStyle
  2

 70
    25
 71
     2
 72
     2
 73
     1
 90
        1
 40
0.5
 41
-30.0
 62
     5
 63
     7
421
 16777215
 74
     1
 91
        0
 64
     7
 65
   257
 75
     1
175
     1
 42
1.0
 92
        8
 66
     7
 43
1.0
 76
     1
 77
     6
 78
     2
 67
     7
 79
     3
170
     0
171
     0
290
     0
174
     0
 93
       13
 44
0.0
173
     0
291
     0
 45
0.0
1001
ACAD
1000
AcDbSavedByObjectVersion
1070
     0
  0
DICTIONARYVAR
  5
2F6
102
{ACAD_REACTORS
330
2F5
102
}
330
2F5
100
DictionaryVariables
280
     0
  1
1:1
  0
DICTIONARYVAR
  5
337
102
{ACAD_REACTORS
330
2F5
102
}
330
2F5
100
DictionaryVariables
280
     0
  1
STANDARD
  0
DICTIONARYVAR
  5
336
102
{ACAD_REACTORS
330
2F5
102
}
330
2F5
100
DictionaryVariables
280
     0
  1
STANDARD
  0
DICTIONARYVAR
  5
3A5
102
{ACAD_REACTORS
330
2F5
102
}
330
2F5
100
DictionaryVariables
280
     0
  1
Metric50
  0
DICTIONARYVAR
  5
3A6
102
{ACAD_REACTORS
330
2F5
102
}
330
2F5
100
DictionaryVariables
280
     0
  1
Metric50
  0
DICTIONARYVAR
  5
2F7
102
{ACAD_REACTORS
330
2F5
102
}
330
2F5
100
DictionaryVariables
280
     0
  1
1
  0
DICTIONARYVAR
  5
3A7
102
{ACAD_REACTORS
330
2F5
102
}
330
2F5
100
DictionaryVariables
280
     0
  1
2
  0
DICTIONARY
  5
3DE
330
33E
100
AcDbDictionary
280
     1
281
     1
  3
ACAD_XREC_ROUNDTRIP
360
3DF
  0
DICTIONARY
  5
32B
330
45
100
AcDbDictionary
280
     1
281
     1
  3
ACAD_XREC_ROUNDTRIP
360
32C
  0
DICTIONARY
  5
329
330
44
100
AcDbDictionary
280
     1
281
     1
  3
ACAD_XREC_ROUNDTRIP
360
32A
  0
DICTIONARY
  5
32D
330
46
100
AcDbDictionary
280
     1
281
     1
  3
ACAD_XREC_ROUNDTRIP
360
32E
  0
DICTIONARY
  5
3DC
330
33D
100
AcDbDictionary
280
     1
281
     1
  3
ACAD_XREC_ROUNDTRIP
360
3DD
  0
DICTIONARY
  5
32F
330
6A
100
AcDbDictionary
280
     1
281
     1
  3
ACAD_ROUNDTRIP_2008_TABLESTYLE_CELLSTYLEMAP
360
3A9
  3
ACAD_XREC_ROUNDTRIP
360
3DB
  0
DICTIONARY
  5
3B3
330
2F
100
AcDbDictionary
280
     1
281
     1
  3
ACAD_XREC_ROUNDTRIP
360
3B4
  0
DICTIONARY
  5
3B9
330
32
100
AcDbDictionary
280
     1
281
     1
  3
ACAD_XREC_ROUNDTRIP
360
3BA
  0
DICTIONARY
  5
3C1
330
36
100
AcDbDictionary
280
     1
281
     1
  3
ACAD_XREC_ROUNDTRIP
360
3C2
  0
DICTIONARY
  5
3C9
330
3A
100
AcDbDictionary
280
     1
281
     1
  3
ACAD_XREC_ROUNDTRIP
360
3CA
  0
DICTIONARY
  5
3BD
330
34
100
AcDbDictionary
280
     1
281
     1
  3
ACAD_XREC_ROUNDTRIP
360
3BE
  0
DICTIONARY
  5
3BF
330
35
100
AcDbDictionary
280
     1
281
     1
  3
ACAD_XREC_ROUNDTRIP
360
3C0
  0
DICTIONARY
  5
3CF
330
3D
100
AcDbDictionary
280
     1
281
     1
  3
ACAD_XREC_ROUNDTRIP
360
3D0
  0
DICTIONARY
  5
3C7
330
39
100
AcDbDictionary
280
     1
281
     1
  3
ACAD_XREC_ROUNDTRIP
360
3C8
  0
DICTIONARY
  5
3AB
330
2B
100
AcDbDictionary
280
     1
281
     1
  3
ACAD_XREC_ROUNDTRIP
360
3AC
  0
DICTIONARY
  5
3AD
330
2C
100
AcDbDictionary
280
     1
281
     1
  3
ACAD_XREC_ROUNDTRIP
360
3AE
  0
DICTIONARY
  5
3AF
330
2D
100
AcDbDictionary
280
     1
281
     1
  3
ACAD_XREC_ROUNDTRIP
360
3B0
  0
DICTIONARY
  5
3B1
330
2E
100
AcDbDictionary
280
     1
281
     1
  3
ACAD_XREC_ROUNDTRIP
360
3B2
  0
DICTIONARY
  5
3B7
330
31
100
AcDbDictionary
280
     1
281
     1
  3
ACAD_XREC_ROUNDTRIP
360
3B8
  0
DICTIONARY
  5
3CB
330
3B
100
AcDbDictionary
280
     1
281
     1
  3
ACAD_XREC_ROUNDTRIP
360
3CC
  0
DICTIONARY
  5
3C5
330
38
100
AcDbDictionary
280
     1
281
     1
  3
ACAD_XREC_ROUNDTRIP
360
3C6
  0
DICTIONARY
  5
3CD
330
3C
100
AcDbDictionary
280
     1
281
     1
  3
ACAD_XREC_ROUNDTRIP
360
3CE
  0
DICTIONARY
  5
3BB
330
33
100
AcDbDictionary
280
     1
281
     1
  3
ACAD_XREC_ROUNDTRIP
360
3BC
  0
DICTIONARY
  5
3D9
330
42
100
AcDbDictionary
280
     1
281
     1
  3
ACAD_XREC_ROUNDTRIP
360
3DA
  0
DICTIONARY
  5
3D7
330
41
100
AcDbDictionary
280
     1
281
     1
  3
ACAD_XREC_ROUNDTRIP
360
3D8
  0
DICTIONARY
  5
3D1
330
3E
100
AcDbDictionary
280
     1
281
     1
  3
ACAD_XREC_ROUNDTRIP
360
3D2
  0
DICTIONARY
  5
3D3
330
3F
100
AcDbDictionary
280
     1
281
     1
  3
ACAD_XREC_ROUNDTRIP
360
3D4
  0
DICTIONARY
  5
3C3
330
37
100
AcDbDictionary
280
     1
281
     1
  3
ACAD_XREC_ROUNDTRIP
360
3C4
  0
DICTIONARY
  5
3B5
330
30
100
AcDbDictionary
280
     1
281
     1
  3
ACAD_XREC_ROUNDTRIP
360
3B6
  0
DICTIONARY
  5
3D5
330
40
100
AcDbDictionary
280
     1
281
     1
  3
ACAD_XREC_ROUNDTRIP
360
3D6
  0
XRECORD
  5
3DF
102
{ACAD_REACTORS
330
3DE
102
}
330
3DE
100
AcDbXrecord
280
     1
102
DISPLAYNAME
  1
Metric50
102
FLAGS
 90
        0
  0
XRECORD
  5
32C
102
{ACAD_REACTORS
330
32B
102
}
330
32B
100
AcDbXrecord
280
     1
102
MATERIAL
148
0.0
149
0.0
149
0.0
 93
        0
 94
      127
282
     0
 72
     1
 77
     1
171
     1
175
     1
179
     1
273
     0
  0
XRECORD
  5
32A
102
{ACAD_REACTORS
330
329
102
}
330
329
100
AcDbXrecord
280
     1
102
MATERIAL
148
0.0
149
0.0
149
0.0
 93
        0
 94
      127
282
     0
 72
     1
 77
     1
171
     1
175
     1
179
     1
273
     0
  0
XRECORD
  5
32E
102
{ACAD_REACTORS
330
32D
102
}
330
32D
100
AcDbXrecord
280
     1
102
MATERIAL
148
0.0
149
0.0
149
0.0
 93
        0
 94
      127
282
     0
 72
     1
 77
     1
171
     1
175
     1
179
     1
273
     0
  0
XRECORD
  5
3DD
102
{ACAD_REACTORS
330
3DC
102
}
330
3DC
100
AcDbXrecord
280
     1
102
DISPLAYNAME
  1
Metric50
102
FLAGS
 90
        0
  0
CELLSTYLEMAP
  5
3A9
102
{ACAD_REACTORS
330
32F
102
}
330
32F
100
AcDbCellStyleMap
 90
        3
300
CELLSTYLE
  1
TABLEFORMAT_BEGIN
 90
        5
170
     1
 91
        0
 92
    32768
 62
   257
 93
        1
300
CONTENTFORMAT
  1
CONTENTFORMAT_BEGIN
 90
        0
 91
        0
 92
        4
 93
        0
300

 40
0.0
140
1.0
 94
        5
 62
     0
340
11
144
0.25
309
CONTENTFORMAT_END
171
     1
301
MARGIN
  1
CELLMARGIN_BEGIN
 40
0.06
 40
0.06
 40
0.06
 40
0.06
 40
0.18
 40
0.18
309
CELLMARGIN_END
 94
        6
 95
        1
302
GRIDFORMAT
  1
GRIDFORMAT_BEGIN
 90
        0
 91
        1
 62
     0
 92
       -2
340
14
 93
        0
 40
0.045
309
GRIDFORMAT_END
 95
        2
302
GRIDFORMAT
  1
GRIDFORMAT_BEGIN
 90
        0
 91
        1
 62
     0
 92
       -2
340
14
 93
        0
 40
0.045
309
GRIDFORMAT_END
 95
        4
302
GRIDFORMAT
  1
GRIDFORMAT_BEGIN
 90
        0
 91
        1
 62
     0
 92
       -2
340
14
 93
        0
 40
0.045
309
GRIDFORMAT_END
 95
        8
302
GRIDFORMAT
  1
GRIDFORMAT_BEGIN
 90
        0
 91
        1
 62
     0
 92
       -2
340
14
 93
        0
 40
0.045
309
GRIDFORMAT_END
 95
       16
302
GRIDFORMAT
  1
GRIDFORMAT_BEGIN
 90
        0
 91
        1
 62
     0
 92
       -2
340
14
 93
        0
 40
0.045
309
GRIDFORMAT_END
 95
       32
302
GRIDFORMAT
  1
GRIDFORMAT_BEGIN
 90
        0
 91
        1
 62
     0
 92
       -2
340
14
 93
        0
 40
0.045
309
GRIDFORMAT_END
309
TABLEFORMAT_END
  1
CELLSTYLE_BEGIN
 90
        1
 91
        1
300
_TITLE
309
CELLSTYLE_END
300
CELLSTYLE
  1
TABLEFORMAT_BEGIN
 90
        5
170
     1
 91
        0
 92
        0
 62
   257
 93
        1
300
CONTENTFORMAT
  1
CONTENTFORMAT_BEGIN
 90
        0
 91
        0
 92
        4
 93
        0
300

 40
0.0
140
1.0
 94
        5
 62
     0
340
11
144
0.18
309
CONTENTFORMAT_END
171
     1
301
MARGIN
  1
CELLMARGIN_BEGIN
 40
0.06
 40
0.06
 40
0.06
 40
0.06
 40
0.18
 40
0.18
309
CELLMARGIN_END
 94
        6
 95
        1
302
GRIDFORMAT
  1
GRIDFORMAT_BEGIN
 90
        0
 91
        1
 62
     0
 92
       -2
340
14
 93
        0
 40
0.045
309
GRIDFORMAT_END
 95
        2
302
GRIDFORMAT
  1
GRIDFORMAT_BEGIN
 90
        0
 91
        1
 62
     0
 92
       -2
340
14
 93
        0
 40
0.045
309
GRIDFORMAT_END
 95
        4
302
GRIDFORMAT
  1
GRIDFORMAT_BEGIN
 90
        0
 91
        1
 62
     0
 92
       -2
340
14
 93
        0
 40
0.045
309
GRIDFORMAT_END
 95
        8
302
GRIDFORMAT
  1
GRIDFORMAT_BEGIN
 90
        0
 91
        1
 62
     0
 92
       -2
340
14
 93
        0
 40
0.045
309
GRIDFORMAT_END
 95
       16
302
GRIDFORMAT
  1
GRIDFORMAT_BEGIN
 90
        0
 91
        1
 62
     0
 92
       -2
340
14
 93
        0
 40
0.045
309
GRIDFORMAT_END
 95
       32
302
GRIDFORMAT
  1
GRIDFORMAT_BEGIN
 90
        0
 91
        1
 62
     0
 92
       -2
340
14
 93
        0
 40
0.045
309
GRIDFORMAT_END
309
TABLEFORMAT_END
  1
CELLSTYLE_BEGIN
 90
        2
 91
        1
300
_HEADER
309
CELLSTYLE_END
300
CELLSTYLE
  1
TABLEFORMAT_BEGIN
 90
        5
170
     1
 91
        0
 92
        0
 62
   257
 93
        1
300
CONTENTFORMAT
  1
CONTENTFORMAT_BEGIN
 90
        0
 91
        0
 92
        4
 93
        0
300

 40
0.0
140
1.0
 94
        2
 62
     0
340
11
144
0.18
309
CONTENTFORMAT_END
171
     1
301
MARGIN
  1
CELLMARGIN_BEGIN
 40
0.06
 40
0.06
 40
0.06
 40
0.06
 40
0.18
 40
0.18
309
CELLMARGIN_END
 94
        6
 95
        1
302
GRIDFORMAT
  1
GRIDFORMAT_BEGIN
 90
        0
 91
        1
 62
     0
 92
       -2
340
14
 93
        0
 40
0.045
309
GRIDFORMAT_END
 95
        2
302
GRIDFORMAT
  1
GRIDFORMAT_BEGIN
 90
        0
 91
        1
 62
     0
 92
       -2
340
14
 93
        0
 40
0.045
309
GRIDFORMAT_END
 95
        4
302
GRIDFORMAT
  1
GRIDFORMAT_BEGIN
 90
        0
 91
        1
 62
     0
 92
       -2
340
14
 93
        0
 40
0.045
309
GRIDFORMAT_END
 95
        8
302
GRIDFORMAT
  1
GRIDFORMAT_BEGIN
 90
        0
 91
        1
 62
     0
 92
       -2
340
14
 93
        0
 40
0.045
309
GRIDFORMAT_END
 95
       16
302
GRIDFORMAT
  1
GRIDFORMAT_BEGIN
 90
        0
 91
        1
 62
     0
 92
       -2
340
14
 93
        0
 40
0.045
309
GRIDFORMAT_END
 95
       32
302
GRIDFORMAT
  1
GRIDFORMAT_BEGIN
 90
        0
 91
        1
 62
     0
 92
       -2
340
14
 93
        0
 40
0.045
309
GRIDFORMAT_END
309
TABLEFORMAT_END
  1
CELLSTYLE_BEGIN
 90
        3
 91
        2
300
_DATA
309
CELLSTYLE_END
  0
XRECORD
  5
3DB
102
{ACAD_REACTORS
330
32F
102
}
330
32F
100
AcDbXrecord
280
     1
102
ACAD_ROUNDTRIP_PRE2007_TABLESTYLE
 90
        4
 91
        0
  1

 92
        4
 93
        0
  2

 94
        4
 95
        0
  3

  0
XRECORD
  5
3B4
102
{ACAD_REACTORS
330
3B3
102
}
330
3B3
100
AcDbXrecord
280
     1
102
RTVSPost2010Prop28
280
     1
102
RTVSPost2010PropOp28
 70
     1
102
RTVSPost2010Prop29
280
     1
102
RTVSPost2010PropOp29
 70
     1
102
RTVSPost2010Prop30
280
     0
102
RTVSPost2010PropOp30
 70
     1
102
RTVSPost2010Prop31
280
     0
102
RTVSPost2010PropOp31
 70
     1
102
RTVSPost2010Prop32
280
     0
102
RTVSPost2010PropOp32
 70
     1
102
RTVSPost2010Prop33
280
     0
102
RTVSPost2010PropOp33
 70
     1
102
RTVSPost2010Prop34
280
     0
102
RTVSPost2010PropOp34
 70
     1
102
RTVSPost2010Prop35
280
     0
102
RTVSPost2010PropOp35
 70
     1
102
RTVSPost2010Prop36
280
     0
102
RTVSPost2010PropOp36
 70
     1
102
RTVSPost2010Prop37
 90
       50
102
RTVSPost2010PropOp37
 70
     1
102
RTVSPost2010Prop38
140
0.0
102
RTVSPost2010PropOp38
 70
     1
102
RTVSPost2010Prop39
140
1.0
102
RTVSPost2010PropOp39
 70
     1
102
RTVSPost2010Prop40
 90
        0
102
RTVSPost2010PropOp40
 70
     1
102
RTVSPost2010Prop41ColorIndex
 90
       18
102
RTVSPost2010Prop41ColorRGB
 90
        0
102
RTVSPost2010PropOp41
 70
     1
102
RTVSPost2010Prop42
 90
       50
102
RTVSPost2010PropOp42
 70
     1
102
RTVSPost2010Prop43
 90
        3
102
RTVSPost2010PropOp43
 70
     1
102
RTVSPost2010Prop44ColorIndex
 90
        5
102
RTVSPost2010Prop44ColorRGB
 90
      255
102
RTVSPost2010PropOp44
 70
     1
102
RTVSPost2010Prop45
280
     0
102
RTVSPost2010PropOp45
 70
     1
102
RTVSPost2010Prop46
 90
       50
102
RTVSPost2010PropOp46
 70
     1
102
RTVSPost2010Prop47
 90
       50
102
RTVSPost2010PropOp47
 70
     1
102
RTVSPost2010Prop48
 90
       50
102
RTVSPost2010PropOp48
 70
     1
102
RTVSPost2010Prop49
280
     0
102
RTVSPost2010PropOp49
 70
     1
102
RTVSPost2010Prop50
 90
       50
102
RTVSPost2010PropOp50
 70
     1
102
RTVSPost2010Prop51ColorIndex
 90
      256
102
RTVSPost2010Prop51ColorRGB
 90
-16777216
102
RTVSPost2010PropOp51
 70
     0
102
RTVSPost2010Prop52
140
1.0
102
RTVSPost2010PropOp52
 70
     0
102
RTVSPost2010Prop53
 90
        2
102
RTVSPost2010PropOp53
 70
     1
102
RTVSPost2010Prop54
  1
strokes_ogs.tif
102
RTVSPost2010PropOp54
 70
     1
102
RTVSPost2010Prop55
280
     0
102
RTVSPost2010PropOp55
 70
     1
102
RTVSPost2010Prop56
140
1.0
102
RTVSPost2010PropOp56
 70
     1
102
RTVSPost2010Prop57
140
1.0
102
RTVSPost2010PropOp57
 70
     1
102
RTVSPropertyOp0
 70
     1
102
RTVSPropertyOp1
 70
     1
102
RTVSPropertyOp2
 70
     1
102
RTVSPropertyOp3
 70
     1
102
RTVSPropertyOp4
 70
     1
102
RTVSPropertyOp5
 70
     1
102
RTVSPropertyOp6
 70
     1
102
RTVSPropertyOp7
 70
     1
102
RTVSPropertyOp8
 70
     1
102
RTVSPropertyOp9
 70
     1
102
RTVSPropertyOp10
 70
     1
102
RTVSPropertyOp11
 70
     1
102
RTVSPropertyOp12
 70
     1
102
RTVSPropertyOp13
 70
     1
102
RTVSPropertyOp14
 70
     1
102
RTVSPropertyOp15
 70
     1
102
RTVSPropertyOp16
 70
     1
102
RTVSPropertyOp17
 70
     1
102
RTVSPropertyOp18
 70
     1
102
RTVSPropertyOp19
 70
     1
102
RTVSPropertyOp20
 70
     1
102
RTVSPropertyOp21
 70
     1
102
RTVSPropertyOp22
 70
     1
102
RTVSPropertyOp23
 70
     1
102
RTVSPropertyOp24
 70
     1
102
RTVSPropertyOp25
 70
     1
102
RTVSPropertyOp26
 70
     1
102
RTVSPropertyOp27
 70
     1
102
RTVSPropertyOp28
 70
     1
102
RTVSPropertyOp29
 70
     1
102
RTVSPropertyOp30
 70
     1
102
RTVSPropertyOp31
 70
     1
102
RTVSPropertyOp32
 70
     1
102
RTVSPropertyOp33
 70
     1
102
RTVSPropertyOp34
 70
     1
102
RTVSPropertyOp35
 70
     1
102
RTVSPropertyOp36
 70
     1
102
RTVSPropertyOp37
 70
     1
102
RTVSPropertyOp38
 70
     1
102
RTVSPropertyOp39
 70
     1
102
RTVSPropertyOp40
 70
     1
102
RTVSPropertyOp41
 70
     1
102
RTVSPropertyOp42
 70
     1
102
RTVSPropertyOp43
 70
     1
102
RTVSPropertyOp44
 70
     1
102
RTVSPropertyOp45
 70
     1
102
RTVSPropertyOp46
 70
     1
102
RTVSPropertyOp47
 70
     1
102
RTVSPropertyOp48
 70
     1
102
RTVSPropertyOp49
 70
     1
102
RTVSPropertyOp50
 70
     1
102
RTVSPropertyOp51
 70
     0
102
RTVSPropertyOp52
 70
     0
102
RTVSPropertyOp53
 70
     1
102
RTVSPropertyOp54
 70
     1
102
RTVSPropertyOp55
 70
     1
102
RTVSPropertyOp56
 70
     1
102
RTVSPropertyOp57
 70
     1
102
RTVSPropertyOp58
 70
     1
102
RTVSPropertyOp59
 70
     1
102
RTVSPropertyOp60
 70
     1
102
RTVSPropertyOp61
 70
     1
102
RTVSPropertyOp62
 70
     1
  0
XRECORD
  5
3BA
102
{ACAD_REACTORS
330
3B9
102
}
330
3B9
100
AcDbXrecord
280
     1
102
RTVSPost2010Prop28
280
     0
102
RTVSPost2010PropOp28
 70
     1
102
RTVSPost2010Prop29
280
     1
102
RTVSPost2010PropOp29
 70
     1
102
RTVSPost2010Prop30
280
     1
102
RTVSPost2010PropOp30
 70
     1
102
RTVSPost2010Prop31
280
     0
102
RTVSPost2010PropOp31
 70
     1
102
RTVSPost2010Prop32
280
     0
102
RTVSPost2010PropOp32
 70
     1
102
RTVSPost2010Prop33
280
     0
102
RTVSPost2010PropOp33
 70
     1
102
RTVSPost2010Prop34
280
     0
102
RTVSPost2010PropOp34
 70
     1
102
RTVSPost2010Prop35
280
     0
102
RTVSPost2010PropOp35
 70
     1
102
RTVSPost2010Prop36
280
     0
102
RTVSPost2010PropOp36
 70
     1
102
RTVSPost2010Prop37
 90
       50
102
RTVSPost2010PropOp37
 70
     1
102
RTVSPost2010Prop38
140
0.0
102
RTVSPost2010PropOp38
 70
     1
102
RTVSPost2010Prop39
140
1.0
102
RTVSPost2010PropOp39
 70
     1
102
RTVSPost2010Prop40
 90
        0
102
RTVSPost2010PropOp40
 70
     1
102
RTVSPost2010Prop41ColorIndex
 90
       18
102
RTVSPost2010Prop41ColorRGB
 90
        0
102
RTVSPost2010PropOp41
 70
     1
102
RTVSPost2010Prop42
 90
       50
102
RTVSPost2010PropOp42
 70
     1
102
RTVSPost2010Prop43
 90
        3
102
RTVSPost2010PropOp43
 70
     1
102
RTVSPost2010Prop44ColorIndex
 90
        5
102
RTVSPost2010Prop44ColorRGB
 90
      255
102
RTVSPost2010PropOp44
 70
     1
102
RTVSPost2010Prop45
280
     0
102
RTVSPost2010PropOp45
 70
     1
102
RTVSPost2010Prop46
 90
       50
102
RTVSPost2010PropOp46
 70
     1
102
RTVSPost2010Prop47
 90
       50
102
RTVSPost2010PropOp47
 70
     1
102
RTVSPost2010Prop48
 90
       50
102
RTVSPost2010PropOp48
 70
     1
102
RTVSPost2010Prop49
280
     0
102
RTVSPost2010PropOp49
 70
     1
102
RTVSPost2010Prop50
 90
       50
102
RTVSPost2010PropOp50
 70
     1
102
RTVSPost2010Prop51ColorIndex
 90
      256
102
RTVSPost2010Prop51ColorRGB
 90
-16777216
102
RTVSPost2010PropOp51
 70
     0
102
RTVSPost2010Prop52
140
1.0
102
RTVSPost2010PropOp52
 70
     0
102
RTVSPost2010Prop53
 90
        2
102
RTVSPost2010PropOp53
 70
     1
102
RTVSPost2010Prop54
  1
strokes_ogs.tif
102
RTVSPost2010PropOp54
 70
     1
102
RTVSPost2010Prop55
280
     0
102
RTVSPost2010PropOp55
 70
     1
102
RTVSPost2010Prop56
140
1.0
102
RTVSPost2010PropOp56
 70
     1
102
RTVSPost2010Prop57
140
1.0
102
RTVSPost2010PropOp57
 70
     1
102
RTVSPropertyOp0
 70
     1
102
RTVSPropertyOp1
 70
     1
102
RTVSPropertyOp2
 70
     1
102
RTVSPropertyOp3
 70
     1
102
RTVSPropertyOp4
 70
     1
102
RTVSPropertyOp5
 70
     1
102
RTVSPropertyOp6
 70
     1
102
RTVSPropertyOp7
 70
     1
102
RTVSPropertyOp8
 70
     1
102
RTVSPropertyOp9
 70
     1
102
RTVSPropertyOp10
 70
     1
102
RTVSPropertyOp11
 70
     1
102
RTVSPropertyOp12
 70
     1
102
RTVSPropertyOp13
 70
     1
102
RTVSPropertyOp14
 70
     1
102
RTVSPropertyOp15
 70
     1
102
RTVSPropertyOp16
 70
     1
102
RTVSPropertyOp17
 70
     1
102
RTVSPropertyOp18
 70
     1
102
RTVSPropertyOp19
 70
     1
102
RTVSPropertyOp20
 70
     1
102
RTVSPropertyOp21
 70
     1
102
RTVSPropertyOp22
 70
     1
102
RTVSPropertyOp23
 70
     1
102
RTVSPropertyOp24
 70
     1
102
RTVSPropertyOp25
 70
     1
102
RTVSPropertyOp26
 70
     1
102
RTVSPropertyOp27
 70
     1
102
RTVSPropertyOp28
 70
     1
102
RTVSPropertyOp29
 70
     1
102
RTVSPropertyOp30
 70
     1
102
RTVSPropertyOp31
 70
     1
102
RTVSPropertyOp32
 70
     1
102
RTVSPropertyOp33
 70
     1
102
RTVSPropertyOp34
 70
     1
102
RTVSPropertyOp35
 70
     1
102
RTVSPropertyOp36
 70
     1
102
RTVSPropertyOp37
 70
     1
102
RTVSPropertyOp38
 70
     1
102
RTVSPropertyOp39
 70
     1
102
RTVSPropertyOp40
 70
     1
102
RTVSPropertyOp41
 70
     1
102
RTVSPropertyOp42
 70
     1
102
RTVSPropertyOp43
 70
     1
102
RTVSPropertyOp44
 70
     1
102
RTVSPropertyOp45
 70
     1
102
RTVSPropertyOp46
 70
     1
102
RTVSPropertyOp47
 70
     1
102
RTVSPropertyOp48
 70
     1
102
RTVSPropertyOp49
 70
     1
102
RTVSPropertyOp50
 70
     1
102
RTVSPropertyOp51
 70
     0
102
RTVSPropertyOp52
 70
     0
102
RTVSPropertyOp53
 70
     1
102
RTVSPropertyOp54
 70
     1
102
RTVSPropertyOp55
 70
     1
102
RTVSPropertyOp56
 70
     1
102
RTVSPropertyOp57
 70
     1
102
RTVSPropertyOp58
 70
     1
102
RTVSPropertyOp59
 70
     1
102
RTVSPropertyOp60
 70
     1
102
RTVSPropertyOp61
 70
     1
102
RTVSPropertyOp62
 70
     1
  0
XRECORD
  5
3C2
102
{ACAD_REACTORS
330
3C1
102
}
330
3C1
100
AcDbXrecord
280
     1
102
RTVSPost2010Prop28
280
     0
102
RTVSPost2010PropOp28
 70
     1
102
RTVSPost2010Prop29
280
     1
102
RTVSPost2010PropOp29
 70
     1
102
RTVSPost2010Prop30
280
     1
102
RTVSPost2010PropOp30
 70
     1
102
RTVSPost2010Prop31
280
     0
102
RTVSPost2010PropOp31
 70
     1
102
RTVSPost2010Prop32
280
     0
102
RTVSPost2010PropOp32
 70
     1
102
RTVSPost2010Prop33
280
     0
102
RTVSPost2010PropOp33
 70
     1
102
RTVSPost2010Prop34
280
     0
102
RTVSPost2010PropOp34
 70
     1
102
RTVSPost2010Prop35
280
     0
102
RTVSPost2010PropOp35
 70
     1
102
RTVSPost2010Prop36
280
     0
102
RTVSPost2010PropOp36
 70
     1
102
RTVSPost2010Prop37
 90
       50
102
RTVSPost2010PropOp37
 70
     1
102
RTVSPost2010Prop38
140
0.0
102
RTVSPost2010PropOp38
 70
     1
102
RTVSPost2010Prop39
140
1.0
102
RTVSPost2010PropOp39
 70
     1
102
RTVSPost2010Prop40
 90
        0
102
RTVSPost2010PropOp40
 70
     1
102
RTVSPost2010Prop41ColorIndex
 90
       18
102
RTVSPost2010Prop41ColorRGB
 90
        0
102
RTVSPost2010PropOp41
 70
     1
102
RTVSPost2010Prop42
 90
       50
102
RTVSPost2010PropOp42
 70
     1
102
RTVSPost2010Prop43
 90
        3
102
RTVSPost2010PropOp43
 70
     1
102
RTVSPost2010Prop44ColorIndex
 90
        5
102
RTVSPost2010Prop44ColorRGB
 90
      255
102
RTVSPost2010PropOp44
 70
     1
102
RTVSPost2010Prop45
280
     0
102
RTVSPost2010PropOp45
 70
     1
102
RTVSPost2010Prop46
 90
       50
102
RTVSPost2010PropOp46
 70
     1
102
RTVSPost2010Prop47
 90
       50
102
RTVSPost2010PropOp47
 70
     1
102
RTVSPost2010Prop48
 90
       50
102
RTVSPost2010PropOp48
 70
     1
102
RTVSPost2010Prop49
280
     0
102
RTVSPost2010PropOp49
 70
     1
102
RTVSPost2010Prop50
 90
       50
102
RTVSPost2010PropOp50
 70
     1
102
RTVSPost2010Prop51ColorIndex
 90
      256
102
RTVSPost2010Prop51ColorRGB
 90
-16777216
102
RTVSPost2010PropOp51
 70
     0
102
RTVSPost2010Prop52
140
1.0
102
RTVSPost2010PropOp52
 70
     0
102
RTVSPost2010Prop53
 90
        2
102
RTVSPost2010PropOp53
 70
     1
102
RTVSPost2010Prop54
  1
strokes_ogs.tif
102
RTVSPost2010PropOp54
 70
     1
102
RTVSPost2010Prop55
280
     0
102
RTVSPost2010PropOp55
 70
     1
102
RTVSPost2010Prop56
140
1.0
102
RTVSPost2010PropOp56
 70
     1
102
RTVSPost2010Prop57
140
1.0
102
RTVSPost2010PropOp57
 70
     1
102
RTVSPropertyOp0
 70
     1
102
RTVSPropertyOp1
 70
     1
102
RTVSPropertyOp2
 70
     1
102
RTVSPropertyOp3
 70
     1
102
RTVSPropertyOp4
 70
     1
102
RTVSPropertyOp5
 70
     1
102
RTVSPropertyOp6
 70
     1
102
RTVSPropertyOp7
 70
     1
102
RTVSPropertyOp8
 70
     1
102
RTVSPropertyOp9
 70
     1
102
RTVSPropertyOp10
 70
     1
102
RTVSPropertyOp11
 70
     1
102
RTVSPropertyOp12
 70
     1
102
RTVSPropertyOp13
 70
     1
102
RTVSPropertyOp14
 70
     1
102
RTVSPropertyOp15
 70
     1
102
RTVSPropertyOp16
 70
     1
102
RTVSPropertyOp17
 70
     1
102
RTVSPropertyOp18
 70
     1
102
RTVSPropertyOp19
 70
     1
102
RTVSPropertyOp20
 70
     1
102
RTVSPropertyOp21
 70
     1
102
RTVSPropertyOp22
 70
     1
102
RTVSPropertyOp23
 70
     1
102
RTVSPropertyOp24
 70
     1
102
RTVSPropertyOp25
 70
     1
102
RTVSPropertyOp26
 70
     1
102
RTVSPropertyOp27
 70
     1
102
RTVSPropertyOp28
 70
     1
102
RTVSPropertyOp29
 70
     1
102
RTVSPropertyOp30
 70
     1
102
RTVSPropertyOp31
 70
     1
102
RTVSPropertyOp32
 70
     1
102
RTVSPropertyOp33
 70
     1
102
RTVSPropertyOp34
 70
     1
102
RTVSPropertyOp35
 70
     1
102
RTVSPropertyOp36
 70
     1
102
RTVSPropertyOp37
 70
     1
102
RTVSPropertyOp38
 70
     1
102
RTVSPropertyOp39
 70
     1
102
RTVSPropertyOp40
 70
     1
102
RTVSPropertyOp41
 70
     1
102
RTVSPropertyOp42
 70
     1
102
RTVSPropertyOp43
 70
     1
102
RTVSPropertyOp44
 70
     1
102
RTVSPropertyOp45
 70
     1
102
RTVSPropertyOp46
 70
     1
102
RTVSPropertyOp47
 70
     1
102
RTVSPropertyOp48
 70
     1
102
RTVSPropertyOp49
 70
     1
102
RTVSPropertyOp50
 70
     1
102
RTVSPropertyOp51
 70
     0
102
RTVSPropertyOp52
 70
     0
102
RTVSPropertyOp53
 70
     1
102
RTVSPropertyOp54
 70
     1
102
RTVSPropertyOp55
 70
     1
102
RTVSPropertyOp56
 70
     1
102
RTVSPropertyOp57
 70
     1
102
RTVSPropertyOp58
 70
     1
102
RTVSPropertyOp59
 70
     1
102
RTVSPropertyOp60
 70
     1
102
RTVSPropertyOp61
 70
     1
102
RTVSPropertyOp62
 70
     1
  0
XRECORD
  5
3CA
102
{ACAD_REACTORS
330
3C9
102
}
330
3C9
100
AcDbXrecord
280
     1
102
RTVSPost2010Prop28
280
     0
102
RTVSPost2010PropOp28
 70
     1
102
RTVSPost2010Prop29
280
     1
102
RTVSPost2010PropOp29
 70
     1
102
RTVSPost2010Prop30
280
     1
102
RTVSPost2010PropOp30
 70
     1
102
RTVSPost2010Prop31
280
     0
102
RTVSPost2010PropOp31
 70
     1
102
RTVSPost2010Prop32
280
     0
102
RTVSPost2010PropOp32
 70
     1
102
RTVSPost2010Prop33
280
     0
102
RTVSPost2010PropOp33
 70
     1
102
RTVSPost2010Prop34
280
     0
102
RTVSPost2010PropOp34
 70
     1
102
RTVSPost2010Prop35
280
     0
102
RTVSPost2010PropOp35
 70
     1
102
RTVSPost2010Prop36
280
     0
102
RTVSPost2010PropOp36
 70
     1
102
RTVSPost2010Prop37
 90
       50
102
RTVSPost2010PropOp37
 70
     1
102
RTVSPost2010Prop38
140
0.0
102
RTVSPost2010PropOp38
 70
     1
102
RTVSPost2010Prop39
140
1.0
102
RTVSPost2010PropOp39
 70
     1
102
RTVSPost2010Prop40
 90
        0
102
RTVSPost2010PropOp40
 70
     1
102
RTVSPost2010Prop41ColorIndex
 90
       18
102
RTVSPost2010Prop41ColorRGB
 90
        0
102
RTVSPost2010PropOp41
 70
     1
102
RTVSPost2010Prop42
 90
       50
102
RTVSPost2010PropOp42
 70
     1
102
RTVSPost2010Prop43
 90
        3
102
RTVSPost2010PropOp43
 70
     1
102
RTVSPost2010Prop44ColorIndex
 90
        5
102
RTVSPost2010Prop44ColorRGB
 90
      255
102
RTVSPost2010PropOp44
 70
     1
102
RTVSPost2010Prop45
280
     0
102
RTVSPost2010PropOp45
 70
     1
102
RTVSPost2010Prop46
 90
       50
102
RTVSPost2010PropOp46
 70
     1
102
RTVSPost2010Prop47
 90
       50
102
RTVSPost2010PropOp47
 70
     1
102
RTVSPost2010Prop48
 90
       50
102
RTVSPost2010PropOp48
 70
     1
102
RTVSPost2010Prop49
280
     0
102
RTVSPost2010PropOp49
 70
     1
102
RTVSPost2010Prop50
 90
       50
102
RTVSPost2010PropOp50
 70
     1
102
RTVSPost2010Prop51ColorIndex
 90
      256
102
RTVSPost2010Prop51ColorRGB
 90
-16777216
102
RTVSPost2010PropOp51
 70
     0
102
RTVSPost2010Prop52
140
1.0
102
RTVSPost2010PropOp52
 70
     0
102
RTVSPost2010Prop53
 90
        2
102
RTVSPost2010PropOp53
 70
     1
102
RTVSPost2010Prop54
  1
strokes_ogs.tif
102
RTVSPost2010PropOp54
 70
     1
102
RTVSPost2010Prop55
280
     0
102
RTVSPost2010PropOp55
 70
     1
102
RTVSPost2010Prop56
140
1.0
102
RTVSPost2010PropOp56
 70
     1
102
RTVSPost2010Prop57
140
1.0
102
RTVSPost2010PropOp57
 70
     1
102
RTVSPropertyOp0
 70
     1
102
RTVSPropertyOp1
 70
     1
102
RTVSPropertyOp2
 70
     1
102
RTVSPropertyOp3
 70
     1
102
RTVSPropertyOp4
 70
     1
102
RTVSPropertyOp5
 70
     1
102
RTVSPropertyOp6
 70
     1
102
RTVSPropertyOp7
 70
     1
102
RTVSPropertyOp8
 70
     1
102
RTVSPropertyOp9
 70
     1
102
RTVSPropertyOp10
 70
     1
102
RTVSPropertyOp11
 70
     1
102
RTVSPropertyOp12
 70
     1
102
RTVSPropertyOp13
 70
     1
102
RTVSPropertyOp14
 70
     1
102
RTVSPropertyOp15
 70
     1
102
RTVSPropertyOp16
 70
     1
102
RTVSPropertyOp17
 70
     1
102
RTVSPropertyOp18
 70
     1
102
RTVSPropertyOp19
 70
     1
102
RTVSPropertyOp20
 70
     1
102
RTVSPropertyOp21
 70
     1
102
RTVSPropertyOp22
 70
     1
102
RTVSPropertyOp23
 70
     1
102
RTVSPropertyOp24
 70
     1
102
RTVSPropertyOp25
 70
     1
102
RTVSPropertyOp26
 70
     1
102
RTVSPropertyOp27
 70
     1
102
RTVSPropertyOp28
 70
     1
102
RTVSPropertyOp29
 70
     1
102
RTVSPropertyOp30
 70
     1
102
RTVSPropertyOp31
 70
     1
102
RTVSPropertyOp32
 70
     1
102
RTVSPropertyOp33
 70
     1
102
RTVSPropertyOp34
 70
     1
102
RTVSPropertyOp35
 70
     1
102
RTVSPropertyOp36
 70
     1
102
RTVSPropertyOp37
 70
     1
102
RTVSPropertyOp38
 70
     1
102
RTVSPropertyOp39
 70
     1
102
RTVSPropertyOp40
 70
     1
102
RTVSPropertyOp41
 70
     1
102
RTVSPropertyOp42
 70
     1
102
RTVSPropertyOp43
 70
     1
102
RTVSPropertyOp44
 70
     1
102
RTVSPropertyOp45
 70
     1
102
RTVSPropertyOp46
 70
     1
102
RTVSPropertyOp47
 70
     1
102
RTVSPropertyOp48
 70
     1
102
RTVSPropertyOp49
 70
     1
102
RTVSPropertyOp50
 70
     1
102
RTVSPropertyOp51
 70
     0
102
RTVSPropertyOp52
 70
     0
102
RTVSPropertyOp53
 70
     1
102
RTVSPropertyOp54
 70
     1
102
RTVSPropertyOp55
 70
     1
102
RTVSPropertyOp56
 70
     1
102
RTVSPropertyOp57
 70
     1
102
RTVSPropertyOp58
 70
     1
102
RTVSPropertyOp59
 70
     1
102
RTVSPropertyOp60
 70
     1
102
RTVSPropertyOp61
 70
     1
102
RTVSPropertyOp62
 70
     1
  0
XRECORD
  5
3BE
102
{ACAD_REACTORS
330
3BD
102
}
330
3BD
100
AcDbXrecord
280
     1
102
RTVSPost2010Prop28
280
     0
102
RTVSPost2010PropOp28
 70
     1
102
RTVSPost2010Prop29
280
     1
102
RTVSPost2010PropOp29
 70
     1
102
RTVSPost2010Prop30
280
     1
102
RTVSPost2010PropOp30
 70
     1
102
RTVSPost2010Prop31
280
     0
102
RTVSPost2010PropOp31
 70
     1
102
RTVSPost2010Prop32
280
     0
102
RTVSPost2010PropOp32
 70
     1
102
RTVSPost2010Prop33
280
     0
102
RTVSPost2010PropOp33
 70
     1
102
RTVSPost2010Prop34
280
     0
102
RTVSPost2010PropOp34
 70
     1
102
RTVSPost2010Prop35
280
     0
102
RTVSPost2010PropOp35
 70
     1
102
RTVSPost2010Prop36
280
     0
102
RTVSPost2010PropOp36
 70
     1
102
RTVSPost2010Prop37
 90
       50
102
RTVSPost2010PropOp37
 70
     1
102
RTVSPost2010Prop38
140
0.0
102
RTVSPost2010PropOp38
 70
     1
102
RTVSPost2010Prop39
140
1.0
102
RTVSPost2010PropOp39
 70
     1
102
RTVSPost2010Prop40
 90
        0
102
RTVSPost2010PropOp40
 70
     1
102
RTVSPost2010Prop41ColorIndex
 90
       18
102
RTVSPost2010Prop41ColorRGB
 90
        0
102
RTVSPost2010PropOp41
 70
     1
102
RTVSPost2010Prop42
 90
       50
102
RTVSPost2010PropOp42
 70
     1
102
RTVSPost2010Prop43
 90
        3
102
RTVSPost2010PropOp43
 70
     1
102
RTVSPost2010Prop44ColorIndex
 90
        5
102
RTVSPost2010Prop44ColorRGB
 90
      255
102
RTVSPost2010PropOp44
 70
     1
102
RTVSPost2010Prop45
280
     0
102
RTVSPost2010PropOp45
 70
     1
102
RTVSPost2010Prop46
 90
       50
102
RTVSPost2010PropOp46
 70
     1
102
RTVSPost2010Prop47
 90
       50
102
RTVSPost2010PropOp47
 70
     1
102
RTVSPost2010Prop48
 90
       50
102
RTVSPost2010PropOp48
 70
     1
102
RTVSPost2010Prop49
280
     0
102
RTVSPost2010PropOp49
 70
     1
102
RTVSPost2010Prop50
 90
       50
102
RTVSPost2010PropOp50
 70
     1
102
RTVSPost2010Prop51ColorIndex
 90
      256
102
RTVSPost2010Prop51ColorRGB
 90
-16777216
102
RTVSPost2010PropOp51
 70
     0
102
RTVSPost2010Prop52
140
1.0
102
RTVSPost2010PropOp52
 70
     0
102
RTVSPost2010Prop53
 90
        2
102
RTVSPost2010PropOp53
 70
     1
102
RTVSPost2010Prop54
  1
strokes_ogs.tif
102
RTVSPost2010PropOp54
 70
     1
102
RTVSPost2010Prop55
280
     0
102
RTVSPost2010PropOp55
 70
     1
102
RTVSPost2010Prop56
140
1.0
102
RTVSPost2010PropOp56
 70
     1
102
RTVSPost2010Prop57
140
1.0
102
RTVSPost2010PropOp57
 70
     1
102
RTVSPropertyOp0
 70
     1
102
RTVSPropertyOp1
 70
     1
102
RTVSPropertyOp2
 70
     1
102
RTVSPropertyOp3
 70
     1
102
RTVSPropertyOp4
 70
     1
102
RTVSPropertyOp5
 70
     1
102
RTVSPropertyOp6
 70
     1
102
RTVSPropertyOp7
 70
     1
102
RTVSPropertyOp8
 70
     1
102
RTVSPropertyOp9
 70
     1
102
RTVSPropertyOp10
 70
     1
102
RTVSPropertyOp11
 70
     1
102
RTVSPropertyOp12
 70
     1
102
RTVSPropertyOp13
 70
     1
102
RTVSPropertyOp14
 70
     1
102
RTVSPropertyOp15
 70
     1
102
RTVSPropertyOp16
 70
     1
102
RTVSPropertyOp17
 70
     1
102
RTVSPropertyOp18
 70
     1
102
RTVSPropertyOp19
 70
     1
102
RTVSPropertyOp20
 70
     1
102
RTVSPropertyOp21
 70
     1
102
RTVSPropertyOp22
 70
     1
102
RTVSPropertyOp23
 70
     1
102
RTVSPropertyOp24
 70
     1
102
RTVSPropertyOp25
 70
     1
102
RTVSPropertyOp26
 70
     1
102
RTVSPropertyOp27
 70
     1
102
RTVSPropertyOp28
 70
     1
102
RTVSPropertyOp29
 70
     1
102
RTVSPropertyOp30
 70
     1
102
RTVSPropertyOp31
 70
     1
102
RTVSPropertyOp32
 70
     1
102
RTVSPropertyOp33
 70
     1
102
RTVSPropertyOp34
 70
     1
102
RTVSPropertyOp35
 70
     1
102
RTVSPropertyOp36
 70
     1
102
RTVSPropertyOp37
 70
     1
102
RTVSPropertyOp38
 70
     1
102
RTVSPropertyOp39
 70
     1
102
RTVSPropertyOp40
 70
     1
102
RTVSPropertyOp41
 70
     1
102
RTVSPropertyOp42
 70
     1
102
RTVSPropertyOp43
 70
     1
102
RTVSPropertyOp44
 70
     1
102
RTVSPropertyOp45
 70
     1
102
RTVSPropertyOp46
 70
     1
102
RTVSPropertyOp47
 70
     1
102
RTVSPropertyOp48
 70
     1
102
RTVSPropertyOp49
 70
     1
102
RTVSPropertyOp50
 70
     1
102
RTVSPropertyOp51
 70
     0
102
RTVSPropertyOp52
 70
     0
102
RTVSPropertyOp53
 70
     1
102
RTVSPropertyOp54
 70
     1
102
RTVSPropertyOp55
 70
     1
102
RTVSPropertyOp56
 70
     1
102
RTVSPropertyOp57
 70
     1
102
RTVSPropertyOp58
 70
     1
102
RTVSPropertyOp59
 70
     1
102
RTVSPropertyOp60
 70
     1
102
RTVSPropertyOp61
 70
     1
102
RTVSPropertyOp62
 70
     1
  0
XRECORD
  5
3C0
102
{ACAD_REACTORS
330
3BF
102
}
330
3BF
100
AcDbXrecord
280
     1
102
RTVSPost2010Prop28
280
     0
102
RTVSPost2010PropOp28
 70
     1
102
RTVSPost2010Prop29
280
     1
102
RTVSPost2010PropOp29
 70
     1
102
RTVSPost2010Prop30
280
     1
102
RTVSPost2010PropOp30
 70
     1
102
RTVSPost2010Prop31
280
     0
102
RTVSPost2010PropOp31
 70
     1
102
RTVSPost2010Prop32
280
     0
102
RTVSPost2010PropOp32
 70
     1
102
RTVSPost2010Prop33
280
     0
102
RTVSPost2010PropOp33
 70
     1
102
RTVSPost2010Prop34
280
     0
102
RTVSPost2010PropOp34
 70
     1
102
RTVSPost2010Prop35
280
     0
102
RTVSPost2010PropOp35
 70
     1
102
RTVSPost2010Prop36
280
     0
102
RTVSPost2010PropOp36
 70
     1
102
RTVSPost2010Prop37
 90
       50
102
RTVSPost2010PropOp37
 70
     1
102
RTVSPost2010Prop38
140
0.0
102
RTVSPost2010PropOp38
 70
     1
102
RTVSPost2010Prop39
140
1.0
102
RTVSPost2010PropOp39
 70
     1
102
RTVSPost2010Prop40
 90
        0
102
RTVSPost2010PropOp40
 70
     1
102
RTVSPost2010Prop41ColorIndex
 90
       18
102
RTVSPost2010Prop41ColorRGB
 90
        0
102
RTVSPost2010PropOp41
 70
     1
102
RTVSPost2010Prop42
 90
       50
102
RTVSPost2010PropOp42
 70
     1
102
RTVSPost2010Prop43
 90
        3
102
RTVSPost2010PropOp43
 70
     1
102
RTVSPost2010Prop44ColorIndex
 90
        5
102
RTVSPost2010Prop44ColorRGB
 90
      255
102
RTVSPost2010PropOp44
 70
     1
102
RTVSPost2010Prop45
280
     0
102
RTVSPost2010PropOp45
 70
     1
102
RTVSPost2010Prop46
 90
       50
102
RTVSPost2010PropOp46
 70
     1
102
RTVSPost2010Prop47
 90
       50
102
RTVSPost2010PropOp47
 70
     1
102
RTVSPost2010Prop48
 90
       50
102
RTVSPost2010PropOp48
 70
     1
102
RTVSPost2010Prop49
280
     0
102
RTVSPost2010PropOp49
 70
     1
102
RTVSPost2010Prop50
 90
       50
102
RTVSPost2010PropOp50
 70
     1
102
RTVSPost2010Prop51ColorIndex
 90
      256
102
RTVSPost2010Prop51ColorRGB
 90
-16777216
102
RTVSPost2010PropOp51
 70
     0
102
RTVSPost2010Prop52
140
1.0
102
RTVSPost2010PropOp52
 70
     0
102
RTVSPost2010Prop53
 90
        2
102
RTVSPost2010PropOp53
 70
     1
102
RTVSPost2010Prop54
  1
strokes_ogs.tif
102
RTVSPost2010PropOp54
 70
     1
102
RTVSPost2010Prop55
280
     0
102
RTVSPost2010PropOp55
 70
     1
102
RTVSPost2010Prop56
140
1.0
102
RTVSPost2010PropOp56
 70
     1
102
RTVSPost2010Prop57
140
1.0
102
RTVSPost2010PropOp57
 70
     1
102
RTVSPropertyOp0
 70
     1
102
RTVSPropertyOp1
 70
     1
102
RTVSPropertyOp2
 70
     1
102
RTVSPropertyOp3
 70
     1
102
RTVSPropertyOp4
 70
     1
102
RTVSPropertyOp5
 70
     1
102
RTVSPropertyOp6
 70
     1
102
RTVSPropertyOp7
 70
     1
102
RTVSPropertyOp8
 70
     1
102
RTVSPropertyOp9
 70
     1
102
RTVSPropertyOp10
 70
     1
102
RTVSPropertyOp11
 70
     1
102
RTVSPropertyOp12
 70
     1
102
RTVSPropertyOp13
 70
     1
102
RTVSPropertyOp14
 70
     1
102
RTVSPropertyOp15
 70
     1
102
RTVSPropertyOp16
 70
     1
102
RTVSPropertyOp17
 70
     1
102
RTVSPropertyOp18
 70
     1
102
RTVSPropertyOp19
 70
     1
102
RTVSPropertyOp20
 70
     1
102
RTVSPropertyOp21
 70
     1
102
RTVSPropertyOp22
 70
     1
102
RTVSPropertyOp23
 70
     1
102
RTVSPropertyOp24
 70
     1
102
RTVSPropertyOp25
 70
     1
102
RTVSPropertyOp26
 70
     1
102
RTVSPropertyOp27
 70
     1
102
RTVSPropertyOp28
 70
     1
102
RTVSPropertyOp29
 70
     1
102
RTVSPropertyOp30
 70
     1
102
RTVSPropertyOp31
 70
     1
102
RTVSPropertyOp32
 70
     1
102
RTVSPropertyOp33
 70
     1
102
RTVSPropertyOp34
 70
     1
102
RTVSPropertyOp35
 70
     1
102
RTVSPropertyOp36
 70
     1
102
RTVSPropertyOp37
 70
     1
102
RTVSPropertyOp38
 70
     1
102
RTVSPropertyOp39
 70
     1
102
RTVSPropertyOp40
 70
     1
102
RTVSPropertyOp41
 70
     1
102
RTVSPropertyOp42
 70
     1
102
RTVSPropertyOp43
 70
     1
102
RTVSPropertyOp44
 70
     1
102
RTVSPropertyOp45
 70
     1
102
RTVSPropertyOp46
 70
     1
102
RTVSPropertyOp47
 70
     1
102
RTVSPropertyOp48
 70
     1
102
RTVSPropertyOp49
 70
     1
102
RTVSPropertyOp50
 70
     1
102
RTVSPropertyOp51
 70
     0
102
RTVSPropertyOp52
 70
     0
102
RTVSPropertyOp53
 70
     1
102
RTVSPropertyOp54
 70
     1
102
RTVSPropertyOp55
 70
     1
102
RTVSPropertyOp56
 70
     1
102
RTVSPropertyOp57
 70
     1
102
RTVSPropertyOp58
 70
     1
102
RTVSPropertyOp59
 70
     1
102
RTVSPropertyOp60
 70
     1
102
RTVSPropertyOp61
 70
     1
102
RTVSPropertyOp62
 70
     1
  0
XRECORD
  5
3D0
102
{ACAD_REACTORS
330
3CF
102
}
330
3CF
100
AcDbXrecord
280
     1
102
RTVSPost2010Prop28
280
     0
102
RTVSPost2010PropOp28
 70
     0
102
RTVSPost2010Prop29
280
     1
102
RTVSPost2010PropOp29
 70
     0
102
RTVSPost2010Prop30
280
     1
102
RTVSPost2010PropOp30
 70
     0
102
RTVSPost2010Prop31
280
     0
102
RTVSPost2010PropOp31
 70
     0
102
RTVSPost2010Prop32
280
     0
102
RTVSPost2010PropOp32
 70
     0
102
RTVSPost2010Prop33
280
     0
102
RTVSPost2010PropOp33
 70
     0
102
RTVSPost2010Prop34
280
     0
102
RTVSPost2010PropOp34
 70
     0
102
RTVSPost2010Prop35
280
     0
102
RTVSPost2010PropOp35
 70
     0
102
RTVSPost2010Prop36
280
     0
102
RTVSPost2010PropOp36
 70
     0
102
RTVSPost2010Prop37
 90
       50
102
RTVSPost2010PropOp37
 70
     0
102
RTVSPost2010Prop38
140
0.0
102
RTVSPost2010PropOp38
 70
     0
102
RTVSPost2010Prop39
140
1.0
102
RTVSPost2010PropOp39
 70
     0
102
RTVSPost2010Prop40
 90
        0
102
RTVSPost2010PropOp40
 70
     0
102
RTVSPost2010Prop41ColorIndex
 90
       18
102
RTVSPost2010Prop41ColorRGB
 90
        0
102
RTVSPost2010PropOp41
 70
     0
102
RTVSPost2010Prop42
 90
       50
102
RTVSPost2010PropOp42
 70
     0
102
RTVSPost2010Prop43
 90
        3
102
RTVSPost2010PropOp43
 70
     0
102
RTVSPost2010Prop44ColorIndex
 90
        5
102
RTVSPost2010Prop44ColorRGB
 90
      255
102
RTVSPost2010PropOp44
 70
     0
102
RTVSPost2010Prop45
280
     0
102
RTVSPost2010PropOp45
 70
     0
102
RTVSPost2010Prop46
 90
       50
102
RTVSPost2010PropOp46
 70
     0
102
RTVSPost2010Prop47
 90
       50
102
RTVSPost2010PropOp47
 70
     0
102
RTVSPost2010Prop48
 90
       50
102
RTVSPost2010PropOp48
 70
     0
102
RTVSPost2010Prop49
280
     0
102
RTVSPost2010PropOp49
 70
     0
102
RTVSPost2010Prop50
 90
       50
102
RTVSPost2010PropOp50
 70
     0
102
RTVSPost2010Prop51ColorIndex
 90
      256
102
RTVSPost2010Prop51ColorRGB
 90
-16777216
102
RTVSPost2010PropOp51
 70
     0
102
RTVSPost2010Prop52
140
1.0
102
RTVSPost2010PropOp52
 70
     0
102
RTVSPost2010Prop53
 90
        2
102
RTVSPost2010PropOp53
 70
     0
102
RTVSPost2010Prop54
  1
strokes_ogs.tif
102
RTVSPost2010PropOp54
 70
     0
102
RTVSPost2010Prop55
280
     0
102
RTVSPost2010PropOp55
 70
     0
102
RTVSPost2010Prop56
140
1.0
102
RTVSPost2010PropOp56
 70
     0
102
RTVSPost2010Prop57
140
1.0
102
RTVSPost2010PropOp57
 70
     0
102
RTVSPropertyOp0
 70
     0
102
RTVSPropertyOp1
 70
     0
102
RTVSPropertyOp2
 70
     0
102
RTVSPropertyOp3
 70
     0
102
RTVSPropertyOp4
 70
     0
102
RTVSPropertyOp5
 70
     0
102
RTVSPropertyOp6
 70
     0
102
RTVSPropertyOp7
 70
     0
102
RTVSPropertyOp8
 70
     0
102
RTVSPropertyOp9
 70
     0
102
RTVSPropertyOp10
 70
     0
102
RTVSPropertyOp11
 70
     0
102
RTVSPropertyOp12
 70
     0
102
RTVSPropertyOp13
 70
     0
102
RTVSPropertyOp14
 70
     2
102
RTVSPropertyOp15
 70
     0
102
RTVSPropertyOp16
 70
     0
102
RTVSPropertyOp17
 70
     0
102
RTVSPropertyOp18
 70
     0
102
RTVSPropertyOp19
 70
     0
102
RTVSPropertyOp20
 70
     0
102
RTVSPropertyOp21
 70
     0
102
RTVSPropertyOp22
 70
     0
102
RTVSPropertyOp23
 70
     0
102
RTVSPropertyOp24
 70
     0
102
RTVSPropertyOp25
 70
     0
102
RTVSPropertyOp26
 70
     0
102
RTVSPropertyOp27
 70
     0
102
RTVSPropertyOp28
 70
     0
102
RTVSPropertyOp29
 70
     0
102
RTVSPropertyOp30
 70
     0
102
RTVSPropertyOp31
 70
     0
102
RTVSPropertyOp32
 70
     0
102
RTVSPropertyOp33
 70
     0
102
RTVSPropertyOp34
 70
     0
102
RTVSPropertyOp35
 70
     0
102
RTVSPropertyOp36
 70
     0
102
RTVSPropertyOp37
 70
     0
102
RTVSPropertyOp38
 70
     0
102
RTVSPropertyOp39
 70
     0
102
RTVSPropertyOp40
 70
     0
102
RTVSPropertyOp41
 70
     0
102
RTVSPropertyOp42
 70
     0
102
RTVSPropertyOp43
 70
     0
102
RTVSPropertyOp44
 70
     0
102
RTVSPropertyOp45
 70
     0
102
RTVSPropertyOp46
 70
     0
102
RTVSPropertyOp47
 70
     0
102
RTVSPropertyOp48
 70
     0
102
RTVSPropertyOp49
 70
     0
102
RTVSPropertyOp50
 70
     0
102
RTVSPropertyOp51
 70
     0
102
RTVSPropertyOp52
 70
     0
102
RTVSPropertyOp53
 70
     0
102
RTVSPropertyOp54
 70
     0
102
RTVSPropertyOp55
 70
     0
102
RTVSPropertyOp56
 70
     0
102
RTVSPropertyOp57
 70
     0
102
RTVSPropertyOp58
 70
     1
102
RTVSPropertyOp59
 70
     1
102
RTVSPropertyOp60
 70
     1
102
RTVSPropertyOp61
 70
     1
102
RTVSPropertyOp62
 70
     1
  0
XRECORD
  5
3C8
102
{ACAD_REACTORS
330
3C7
102
}
330
3C7
100
AcDbXrecord
280
     1
102
RTVSPost2010Prop28
280
     0
102
RTVSPost2010PropOp28
 70
     1
102
RTVSPost2010Prop29
280
     1
102
RTVSPost2010PropOp29
 70
     1
102
RTVSPost2010Prop30
280
     1
102
RTVSPost2010PropOp30
 70
     1
102
RTVSPost2010Prop31
280
     0
102
RTVSPost2010PropOp31
 70
     1
102
RTVSPost2010Prop32
280
     0
102
RTVSPost2010PropOp32
 70
     1
102
RTVSPost2010Prop33
280
     0
102
RTVSPost2010PropOp33
 70
     1
102
RTVSPost2010Prop34
280
     0
102
RTVSPost2010PropOp34
 70
     1
102
RTVSPost2010Prop35
280
     0
102
RTVSPost2010PropOp35
 70
     1
102
RTVSPost2010Prop36
280
     0
102
RTVSPost2010PropOp36
 70
     1
102
RTVSPost2010Prop37
 90
       50
102
RTVSPost2010PropOp37
 70
     1
102
RTVSPost2010Prop38
140
0.0
102
RTVSPost2010PropOp38
 70
     1
102
RTVSPost2010Prop39
140
1.0
102
RTVSPost2010PropOp39
 70
     1
102
RTVSPost2010Prop40
 90
        0
102
RTVSPost2010PropOp40
 70
     1
102
RTVSPost2010Prop41ColorIndex
 90
       18
102
RTVSPost2010Prop41ColorRGB
 90
        0
102
RTVSPost2010PropOp41
 70
     1
102
RTVSPost2010Prop42
 90
       50
102
RTVSPost2010PropOp42
 70
     1
102
RTVSPost2010Prop43
 90
        3
102
RTVSPost2010PropOp43
 70
     1
102
RTVSPost2010Prop44ColorIndex
 90
        5
102
RTVSPost2010Prop44ColorRGB
 90
      255
102
RTVSPost2010PropOp44
 70
     1
102
RTVSPost2010Prop45
280
     0
102
RTVSPost2010PropOp45
 70
     1
102
RTVSPost2010Prop46
 90
       50
102
RTVSPost2010PropOp46
 70
     1
102
RTVSPost2010Prop47
 90
       50
102
RTVSPost2010PropOp47
 70
     1
102
RTVSPost2010Prop48
 90
       50
102
RTVSPost2010PropOp48
 70
     1
102
RTVSPost2010Prop49
280
     0
102
RTVSPost2010PropOp49
 70
     1
102
RTVSPost2010Prop50
 90
       50
102
RTVSPost2010PropOp50
 70
     1
102
RTVSPost2010Prop51ColorIndex
 90
      256
102
RTVSPost2010Prop51ColorRGB
 90
-16777216
102
RTVSPost2010PropOp51
 70
     0
102
RTVSPost2010Prop52
140
1.0
102
RTVSPost2010PropOp52
 70
     0
102
RTVSPost2010Prop53
 90
        2
102
RTVSPost2010PropOp53
 70
     1
102
RTVSPost2010Prop54
  1
strokes_ogs.tif
102
RTVSPost2010PropOp54
 70
     1
102
RTVSPost2010Prop55
280
     0
102
RTVSPost2010PropOp55
 70
     1
102
RTVSPost2010Prop56
140
1.0
102
RTVSPost2010PropOp56
 70
     1
102
RTVSPost2010Prop57
140
1.0
102
RTVSPost2010PropOp57
 70
     1
102
RTVSPropertyOp0
 70
     1
102
RTVSPropertyOp1
 70
     1
102
RTVSPropertyOp2
 70
     1
102
RTVSPropertyOp3
 70
     1
102
RTVSPropertyOp4
 70
     1
102
RTVSPropertyOp5
 70
     1
102
RTVSPropertyOp6
 70
     1
102
RTVSPropertyOp7
 70
     1
102
RTVSPropertyOp8
 70
     1
102
RTVSPropertyOp9
 70
     1
102
RTVSPropertyOp10
 70
     1
102
RTVSPropertyOp11
 70
     1
102
RTVSPropertyOp12
 70
     1
102
RTVSPropertyOp13
 70
     1
102
RTVSPropertyOp14
 70
     1
102
RTVSPropertyOp15
 70
     1
102
RTVSPropertyOp16
 70
     1
102
RTVSPropertyOp17
 70
     1
102
RTVSPropertyOp18
 70
     1
102
RTVSPropertyOp19
 70
     1
102
RTVSPropertyOp20
 70
     1
102
RTVSPropertyOp21
 70
     1
102
RTVSPropertyOp22
 70
     1
102
RTVSPropertyOp23
 70
     1
102
RTVSPropertyOp24
 70
     1
102
RTVSPropertyOp25
 70
     1
102
RTVSPropertyOp26
 70
     1
102
RTVSPropertyOp27
 70
     1
102
RTVSPropertyOp28
 70
     1
102
RTVSPropertyOp29
 70
     1
102
RTVSPropertyOp30
 70
     1
102
RTVSPropertyOp31
 70
     1
102
RTVSPropertyOp32
 70
     1
102
RTVSPropertyOp33
 70
     1
102
RTVSPropertyOp34
 70
     1
102
RTVSPropertyOp35
 70
     1
102
RTVSPropertyOp36
 70
     1
102
RTVSPropertyOp37
 70
     1
102
RTVSPropertyOp38
 70
     1
102
RTVSPropertyOp39
 70
     1
102
RTVSPropertyOp40
 70
     1
102
RTVSPropertyOp41
 70
     1
102
RTVSPropertyOp42
 70
     1
102
RTVSPropertyOp43
 70
     1
102
RTVSPropertyOp44
 70
     1
102
RTVSPropertyOp45
 70
     1
102
RTVSPropertyOp46
 70
     1
102
RTVSPropertyOp47
 70
     1
102
RTVSPropertyOp48
 70
     1
102
RTVSPropertyOp49
 70
     1
102
RTVSPropertyOp50
 70
     1
102
RTVSPropertyOp51
 70
     0
102
RTVSPropertyOp52
 70
     0
102
RTVSPropertyOp53
 70
     1
102
RTVSPropertyOp54
 70
     1
102
RTVSPropertyOp55
 70
     1
102
RTVSPropertyOp56
 70
     1
102
RTVSPropertyOp57
 70
     1
102
RTVSPropertyOp58
 70
     1
102
RTVSPropertyOp59
 70
     1
102
RTVSPropertyOp60
 70
     1
102
RTVSPropertyOp61
 70
     1
102
RTVSPropertyOp62
 70
     1
  0
XRECORD
  5
3AC
102
{ACAD_REACTORS
330
3AB
102
}
330
3AB
100
AcDbXrecord
280
     1
102
RTVSPost2010Prop28
280
     0
102
RTVSPost2010PropOp28
 70
     1
102
RTVSPost2010Prop29
280
     1
102
RTVSPost2010PropOp29
 70
     1
102
RTVSPost2010Prop30
280
     1
102
RTVSPost2010PropOp30
 70
     1
102
RTVSPost2010Prop31
280
     0
102
RTVSPost2010PropOp31
 70
     1
102
RTVSPost2010Prop32
280
     0
102
RTVSPost2010PropOp32
 70
     1
102
RTVSPost2010Prop33
280
     0
102
RTVSPost2010PropOp33
 70
     1
102
RTVSPost2010Prop34
280
     0
102
RTVSPost2010PropOp34
 70
     1
102
RTVSPost2010Prop35
280
     0
102
RTVSPost2010PropOp35
 70
     1
102
RTVSPost2010Prop36
280
     0
102
RTVSPost2010PropOp36
 70
     1
102
RTVSPost2010Prop37
 90
       50
102
RTVSPost2010PropOp37
 70
     1
102
RTVSPost2010Prop38
140
0.0
102
RTVSPost2010PropOp38
 70
     1
102
RTVSPost2010Prop39
140
1.0
102
RTVSPost2010PropOp39
 70
     1
102
RTVSPost2010Prop40
 90
        0
102
RTVSPost2010PropOp40
 70
     1
102
RTVSPost2010Prop41ColorIndex
 90
       18
102
RTVSPost2010Prop41ColorRGB
 90
        0
102
RTVSPost2010PropOp41
 70
     1
102
RTVSPost2010Prop42
 90
       50
102
RTVSPost2010PropOp42
 70
     1
102
RTVSPost2010Prop43
 90
        3
102
RTVSPost2010PropOp43
 70
     1
102
RTVSPost2010Prop44ColorIndex
 90
        5
102
RTVSPost2010Prop44ColorRGB
 90
      255
102
RTVSPost2010PropOp44
 70
     1
102
RTVSPost2010Prop45
280
     0
102
RTVSPost2010PropOp45
 70
     1
102
RTVSPost2010Prop46
 90
       50
102
RTVSPost2010PropOp46
 70
     1
102
RTVSPost2010Prop47
 90
       50
102
RTVSPost2010PropOp47
 70
     1
102
RTVSPost2010Prop48
 90
       50
102
RTVSPost2010PropOp48
 70
     1
102
RTVSPost2010Prop49
280
     0
102
RTVSPost2010PropOp49
 70
     1
102
RTVSPost2010Prop50
 90
       50
102
RTVSPost2010PropOp50
 70
     1
102
RTVSPost2010Prop51ColorIndex
 90
      256
102
RTVSPost2010Prop51ColorRGB
 90
-16777216
102
RTVSPost2010PropOp51
 70
     0
102
RTVSPost2010Prop52
140
1.0
102
RTVSPost2010PropOp52
 70
     0
102
RTVSPost2010Prop53
 90
        2
102
RTVSPost2010PropOp53
 70
     1
102
RTVSPost2010Prop54
  1
strokes_ogs.tif
102
RTVSPost2010PropOp54
 70
     1
102
RTVSPost2010Prop55
280
     0
102
RTVSPost2010PropOp55
 70
     1
102
RTVSPost2010Prop56
140
1.0
102
RTVSPost2010PropOp56
 70
     1
102
RTVSPost2010Prop57
140
1.0
102
RTVSPost2010PropOp57
 70
     1
102
RTVSPropertyOp0
 70
     1
102
RTVSPropertyOp1
 70
     1
102
RTVSPropertyOp2
 70
     1
102
RTVSPropertyOp3
 70
     1
102
RTVSPropertyOp4
 70
     1
102
RTVSPropertyOp5
 70
     1
102
RTVSPropertyOp6
 70
     1
102
RTVSPropertyOp7
 70
     1
102
RTVSPropertyOp8
 70
     1
102
RTVSPropertyOp9
 70
     1
102
RTVSPropertyOp10
 70
     1
102
RTVSPropertyOp11
 70
     1
102
RTVSPropertyOp12
 70
     1
102
RTVSPropertyOp13
 70
     1
102
RTVSPropertyOp14
 70
     1
102
RTVSPropertyOp15
 70
     1
102
RTVSPropertyOp16
 70
     1
102
RTVSPropertyOp17
 70
     1
102
RTVSPropertyOp18
 70
     1
102
RTVSPropertyOp19
 70
     1
102
RTVSPropertyOp20
 70
     1
102
RTVSPropertyOp21
 70
     1
102
RTVSPropertyOp22
 70
     1
102
RTVSPropertyOp23
 70
     1
102
RTVSPropertyOp24
 70
     1
102
RTVSPropertyOp25
 70
     1
102
RTVSPropertyOp26
 70
     1
102
RTVSPropertyOp27
 70
     1
102
RTVSPropertyOp28
 70
     1
102
RTVSPropertyOp29
 70
     1
102
RTVSPropertyOp30
 70
     1
102
RTVSPropertyOp31
 70
     1
102
RTVSPropertyOp32
 70
     1
102
RTVSPropertyOp33
 70
     1
102
RTVSPropertyOp34
 70
     1
102
RTVSPropertyOp35
 70
     1
102
RTVSPropertyOp36
 70
     1
102
RTVSPropertyOp37
 70
     1
102
RTVSPropertyOp38
 70
     1
102
RTVSPropertyOp39
 70
     1
102
RTVSPropertyOp40
 70
     1
102
RTVSPropertyOp41
 70
     1
102
RTVSPropertyOp42
 70
     1
102
RTVSPropertyOp43
 70
     1
102
RTVSPropertyOp44
 70
     1
102
RTVSPropertyOp45
 70
     1
102
RTVSPropertyOp46
 70
     1
102
RTVSPropertyOp47
 70
     1
102
RTVSPropertyOp48
 70
     1
102
RTVSPropertyOp49
 70
     1
102
RTVSPropertyOp50
 70
     1
102
RTVSPropertyOp51
 70
     0
102
RTVSPropertyOp52
 70
     0
102
RTVSPropertyOp53
 70
     1
102
RTVSPropertyOp54
 70
     1
102
RTVSPropertyOp55
 70
     1
102
RTVSPropertyOp56
 70
     1
102
RTVSPropertyOp57
 70
     1
102
RTVSPropertyOp58
 70
     1
102
RTVSPropertyOp59
 70
     1
102
RTVSPropertyOp60
 70
     1
102
RTVSPropertyOp61
 70
     1
102
RTVSPropertyOp62
 70
     1
  0
XRECORD
  5
3AE
102
{ACAD_REACTORS
330
3AD
102
}
330
3AD
100
AcDbXrecord
280
     1
102
RTVSPost2010Prop28
280
     0
102
RTVSPost2010PropOp28
 70
     1
102
RTVSPost2010Prop29
280
     1
102
RTVSPost2010PropOp29
 70
     1
102
RTVSPost2010Prop30
280
     1
102
RTVSPost2010PropOp30
 70
     1
102
RTVSPost2010Prop31
280
     0
102
RTVSPost2010PropOp31
 70
     1
102
RTVSPost2010Prop32
280
     0
102
RTVSPost2010PropOp32
 70
     1
102
RTVSPost2010Prop33
280
     0
102
RTVSPost2010PropOp33
 70
     1
102
RTVSPost2010Prop34
280
     0
102
RTVSPost2010PropOp34
 70
     1
102
RTVSPost2010Prop35
280
     0
102
RTVSPost2010PropOp35
 70
     1
102
RTVSPost2010Prop36
280
     0
102
RTVSPost2010PropOp36
 70
     1
102
RTVSPost2010Prop37
 90
       50
102
RTVSPost2010PropOp37
 70
     1
102
RTVSPost2010Prop38
140
0.0
102
RTVSPost2010PropOp38
 70
     1
102
RTVSPost2010Prop39
140
1.0
102
RTVSPost2010PropOp39
 70
     1
102
RTVSPost2010Prop40
 90
        0
102
RTVSPost2010PropOp40
 70
     1
102
RTVSPost2010Prop41ColorIndex
 90
       18
102
RTVSPost2010Prop41ColorRGB
 90
        0
102
RTVSPost2010PropOp41
 70
     1
102
RTVSPost2010Prop42
 90
       50
102
RTVSPost2010PropOp42
 70
     1
102
RTVSPost2010Prop43
 90
        3
102
RTVSPost2010PropOp43
 70
     1
102
RTVSPost2010Prop44ColorIndex
 90
        5
102
RTVSPost2010Prop44ColorRGB
 90
      255
102
RTVSPost2010PropOp44
 70
     1
102
RTVSPost2010Prop45
280
     0
102
RTVSPost2010PropOp45
 70
     1
102
RTVSPost2010Prop46
 90
       50
102
RTVSPost2010PropOp46
 70
     1
102
RTVSPost2010Prop47
 90
       50
102
RTVSPost2010PropOp47
 70
     1
102
RTVSPost2010Prop48
 90
       50
102
RTVSPost2010PropOp48
 70
     1
102
RTVSPost2010Prop49
280
     0
102
RTVSPost2010PropOp49
 70
     1
102
RTVSPost2010Prop50
 90
       50
102
RTVSPost2010PropOp50
 70
     1
102
RTVSPost2010Prop51ColorIndex
 90
      256
102
RTVSPost2010Prop51ColorRGB
 90
-16777216
102
RTVSPost2010PropOp51
 70
     0
102
RTVSPost2010Prop52
140
1.0
102
RTVSPost2010PropOp52
 70
     0
102
RTVSPost2010Prop53
 90
        2
102
RTVSPost2010PropOp53
 70
     1
102
RTVSPost2010Prop54
  1
strokes_ogs.tif
102
RTVSPost2010PropOp54
 70
     1
102
RTVSPost2010Prop55
280
     0
102
RTVSPost2010PropOp55
 70
     1
102
RTVSPost2010Prop56
140
1.0
102
RTVSPost2010PropOp56
 70
     1
102
RTVSPost2010Prop57
140
1.0
102
RTVSPost2010PropOp57
 70
     1
102
RTVSPropertyOp0
 70
     1
102
RTVSPropertyOp1
 70
     1
102
RTVSPropertyOp2
 70
     1
102
RTVSPropertyOp3
 70
     1
102
RTVSPropertyOp4
 70
     1
102
RTVSPropertyOp5
 70
     1
102
RTVSPropertyOp6
 70
     1
102
RTVSPropertyOp7
 70
     1
102
RTVSPropertyOp8
 70
     1
102
RTVSPropertyOp9
 70
     1
102
RTVSPropertyOp10
 70
     1
102
RTVSPropertyOp11
 70
     1
102
RTVSPropertyOp12
 70
     1
102
RTVSPropertyOp13
 70
     1
102
RTVSPropertyOp14
 70
     1
102
RTVSPropertyOp15
 70
     1
102
RTVSPropertyOp16
 70
     1
102
RTVSPropertyOp17
 70
     1
102
RTVSPropertyOp18
 70
     1
102
RTVSPropertyOp19
 70
     1
102
RTVSPropertyOp20
 70
     1
102
RTVSPropertyOp21
 70
     1
102
RTVSPropertyOp22
 70
     1
102
RTVSPropertyOp23
 70
     1
102
RTVSPropertyOp24
 70
     1
102
RTVSPropertyOp25
 70
     1
102
RTVSPropertyOp26
 70
     1
102
RTVSPropertyOp27
 70
     1
102
RTVSPropertyOp28
 70
     1
102
RTVSPropertyOp29
 70
     1
102
RTVSPropertyOp30
 70
     1
102
RTVSPropertyOp31
 70
     1
102
RTVSPropertyOp32
 70
     1
102
RTVSPropertyOp33
 70
     1
102
RTVSPropertyOp34
 70
     1
102
RTVSPropertyOp35
 70
     1
102
RTVSPropertyOp36
 70
     1
102
RTVSPropertyOp37
 70
     1
102
RTVSPropertyOp38
 70
     1
102
RTVSPropertyOp39
 70
     1
102
RTVSPropertyOp40
 70
     1
102
RTVSPropertyOp41
 70
     1
102
RTVSPropertyOp42
 70
     1
102
RTVSPropertyOp43
 70
     1
102
RTVSPropertyOp44
 70
     1
102
RTVSPropertyOp45
 70
     1
102
RTVSPropertyOp46
 70
     1
102
RTVSPropertyOp47
 70
     1
102
RTVSPropertyOp48
 70
     1
102
RTVSPropertyOp49
 70
     1
102
RTVSPropertyOp50
 70
     1
102
RTVSPropertyOp51
 70
     0
102
RTVSPropertyOp52
 70
     0
102
RTVSPropertyOp53
 70
     1
102
RTVSPropertyOp54
 70
     1
102
RTVSPropertyOp55
 70
     1
102
RTVSPropertyOp56
 70
     1
102
RTVSPropertyOp57
 70
     1
102
RTVSPropertyOp58
 70
     1
102
RTVSPropertyOp59
 70
     1
102
RTVSPropertyOp60
 70
     1
102
RTVSPropertyOp61
 70
     1
102
RTVSPropertyOp62
 70
     1
  0
XRECORD
  5
3B0
102
{ACAD_REACTORS
330
3AF
102
}
330
3AF
100
AcDbXrecord
280
     1
102
RTVSPost2010Prop28
280
     0
102
RTVSPost2010PropOp28
 70
     1
102
RTVSPost2010Prop29
280
     1
102
RTVSPost2010PropOp29
 70
     1
102
RTVSPost2010Prop30
280
     1
102
RTVSPost2010PropOp30
 70
     1
102
RTVSPost2010Prop31
280
     0
102
RTVSPost2010PropOp31
 70
     1
102
RTVSPost2010Prop32
280
     0
102
RTVSPost2010PropOp32
 70
     1
102
RTVSPost2010Prop33
280
     0
102
RTVSPost2010PropOp33
 70
     1
102
RTVSPost2010Prop34
280
     0
102
RTVSPost2010PropOp34
 70
     1
102
RTVSPost2010Prop35
280
     0
102
RTVSPost2010PropOp35
 70
     1
102
RTVSPost2010Prop36
280
     0
102
RTVSPost2010PropOp36
 70
     1
102
RTVSPost2010Prop37
 90
       50
102
RTVSPost2010PropOp37
 70
     1
102
RTVSPost2010Prop38
140
0.0
102
RTVSPost2010PropOp38
 70
     1
102
RTVSPost2010Prop39
140
1.0
102
RTVSPost2010PropOp39
 70
     1
102
RTVSPost2010Prop40
 90
        0
102
RTVSPost2010PropOp40
 70
     1
102
RTVSPost2010Prop41ColorIndex
 90
       18
102
RTVSPost2010Prop41ColorRGB
 90
        0
102
RTVSPost2010PropOp41
 70
     1
102
RTVSPost2010Prop42
 90
       50
102
RTVSPost2010PropOp42
 70
     1
102
RTVSPost2010Prop43
 90
        3
102
RTVSPost2010PropOp43
 70
     1
102
RTVSPost2010Prop44ColorIndex
 90
        5
102
RTVSPost2010Prop44ColorRGB
 90
      255
102
RTVSPost2010PropOp44
 70
     1
102
RTVSPost2010Prop45
280
     0
102
RTVSPost2010PropOp45
 70
     1
102
RTVSPost2010Prop46
 90
       50
102
RTVSPost2010PropOp46
 70
     1
102
RTVSPost2010Prop47
 90
       50
102
RTVSPost2010PropOp47
 70
     1
102
RTVSPost2010Prop48
 90
       50
102
RTVSPost2010PropOp48
 70
     1
102
RTVSPost2010Prop49
280
     0
102
RTVSPost2010PropOp49
 70
     1
102
RTVSPost2010Prop50
 90
       50
102
RTVSPost2010PropOp50
 70
     1
102
RTVSPost2010Prop51ColorIndex
 90
      256
102
RTVSPost2010Prop51ColorRGB
 90
-16777216
102
RTVSPost2010PropOp51
 70
     0
102
RTVSPost2010Prop52
140
1.0
102
RTVSPost2010PropOp52
 70
     0
102
RTVSPost2010Prop53
 90
        2
102
RTVSPost2010PropOp53
 70
     1
102
RTVSPost2010Prop54
  1
strokes_ogs.tif
102
RTVSPost2010PropOp54
 70
     1
102
RTVSPost2010Prop55
280
     0
102
RTVSPost2010PropOp55
 70
     1
102
RTVSPost2010Prop56
140
1.0
102
RTVSPost2010PropOp56
 70
     1
102
RTVSPost2010Prop57
140
1.0
102
RTVSPost2010PropOp57
 70
     1
102
RTVSPropertyOp0
 70
     1
102
RTVSPropertyOp1
 70
     1
102
RTVSPropertyOp2
 70
     1
102
RTVSPropertyOp3
 70
     1
102
RTVSPropertyOp4
 70
     1
102
RTVSPropertyOp5
 70
     1
102
RTVSPropertyOp6
 70
     1
102
RTVSPropertyOp7
 70
     1
102
RTVSPropertyOp8
 70
     1
102
RTVSPropertyOp9
 70
     1
102
RTVSPropertyOp10
 70
     1
102
RTVSPropertyOp11
 70
     1
102
RTVSPropertyOp12
 70
     1
102
RTVSPropertyOp13
 70
     1
102
RTVSPropertyOp14
 70
     1
102
RTVSPropertyOp15
 70
     1
102
RTVSPropertyOp16
 70
     1
102
RTVSPropertyOp17
 70
     1
102
RTVSPropertyOp18
 70
     1
102
RTVSPropertyOp19
 70
     1
102
RTVSPropertyOp20
 70
     1
102
RTVSPropertyOp21
 70
     1
102
RTVSPropertyOp22
 70
     1
102
RTVSPropertyOp23
 70
     1
102
RTVSPropertyOp24
 70
     1
102
RTVSPropertyOp25
 70
     1
102
RTVSPropertyOp26
 70
     1
102
RTVSPropertyOp27
 70
     1
102
RTVSPropertyOp28
 70
     1
102
RTVSPropertyOp29
 70
     1
102
RTVSPropertyOp30
 70
     1
102
RTVSPropertyOp31
 70
     1
102
RTVSPropertyOp32
 70
     1
102
RTVSPropertyOp33
 70
     1
102
RTVSPropertyOp34
 70
     1
102
RTVSPropertyOp35
 70
     1
102
RTVSPropertyOp36
 70
     1
102
RTVSPropertyOp37
 70
     1
102
RTVSPropertyOp38
 70
     1
102
RTVSPropertyOp39
 70
     1
102
RTVSPropertyOp40
 70
     1
102
RTVSPropertyOp41
 70
     1
102
RTVSPropertyOp42
 70
     1
102
RTVSPropertyOp43
 70
     1
102
RTVSPropertyOp44
 70
     1
102
RTVSPropertyOp45
 70
     1
102
RTVSPropertyOp46
 70
     1
102
RTVSPropertyOp47
 70
     1
102
RTVSPropertyOp48
 70
     1
102
RTVSPropertyOp49
 70
     1
102
RTVSPropertyOp50
 70
     1
102
RTVSPropertyOp51
 70
     0
102
RTVSPropertyOp52
 70
     0
102
RTVSPropertyOp53
 70
     1
102
RTVSPropertyOp54
 70
     1
102
RTVSPropertyOp55
 70
     1
102
RTVSPropertyOp56
 70
     1
102
RTVSPropertyOp57
 70
     1
102
RTVSPropertyOp58
 70
     1
102
RTVSPropertyOp59
 70
     1
102
RTVSPropertyOp60
 70
     1
102
RTVSPropertyOp61
 70
     1
102
RTVSPropertyOp62
 70
     1
  0
XRECORD
  5
3B2
102
{ACAD_REACTORS
330
3B1
102
}
330
3B1
100
AcDbXrecord
280
     1
102
RTVSPost2010Prop28
280
     0
102
RTVSPost2010PropOp28
 70
     1
102
RTVSPost2010Prop29
280
     1
102
RTVSPost2010PropOp29
 70
     1
102
RTVSPost2010Prop30
280
     1
102
RTVSPost2010PropOp30
 70
     1
102
RTVSPost2010Prop31
280
     0
102
RTVSPost2010PropOp31
 70
     1
102
RTVSPost2010Prop32
280
     0
102
RTVSPost2010PropOp32
 70
     1
102
RTVSPost2010Prop33
280
     0
102
RTVSPost2010PropOp33
 70
     1
102
RTVSPost2010Prop34
280
     0
102
RTVSPost2010PropOp34
 70
     1
102
RTVSPost2010Prop35
280
     0
102
RTVSPost2010PropOp35
 70
     1
102
RTVSPost2010Prop36
280
     0
102
RTVSPost2010PropOp36
 70
     1
102
RTVSPost2010Prop37
 90
       50
102
RTVSPost2010PropOp37
 70
     1
102
RTVSPost2010Prop38
140
0.0
102
RTVSPost2010PropOp38
 70
     1
102
RTVSPost2010Prop39
140
1.0
102
RTVSPost2010PropOp39
 70
     1
102
RTVSPost2010Prop40
 90
        0
102
RTVSPost2010PropOp40
 70
     1
102
RTVSPost2010Prop41ColorIndex
 90
       18
102
RTVSPost2010Prop41ColorRGB
 90
        0
102
RTVSPost2010PropOp41
 70
     1
102
RTVSPost2010Prop42
 90
       50
102
RTVSPost2010PropOp42
 70
     1
102
RTVSPost2010Prop43
 90
        3
102
RTVSPost2010PropOp43
 70
     1
102
RTVSPost2010Prop44ColorIndex
 90
        5
102
RTVSPost2010Prop44ColorRGB
 90
      255
102
RTVSPost2010PropOp44
 70
     1
102
RTVSPost2010Prop45
280
     0
102
RTVSPost2010PropOp45
 70
     1
102
RTVSPost2010Prop46
 90
       50
102
RTVSPost2010PropOp46
 70
     1
102
RTVSPost2010Prop47
 90
       50
102
RTVSPost2010PropOp47
 70
     1
102
RTVSPost2010Prop48
 90
       50
102
RTVSPost2010PropOp48
 70
     1
102
RTVSPost2010Prop49
280
     0
102
RTVSPost2010PropOp49
 70
     1
102
RTVSPost2010Prop50
 90
       50
102
RTVSPost2010PropOp50
 70
     1
102
RTVSPost2010Prop51ColorIndex
 90
      256
102
RTVSPost2010Prop51ColorRGB
 90
-16777216
102
RTVSPost2010PropOp51
 70
     0
102
RTVSPost2010Prop52
140
1.0
102
RTVSPost2010PropOp52
 70
     0
102
RTVSPost2010Prop53
 90
        2
102
RTVSPost2010PropOp53
 70
     1
102
RTVSPost2010Prop54
  1
strokes_ogs.tif
102
RTVSPost2010PropOp54
 70
     1
102
RTVSPost2010Prop55
280
     0
102
RTVSPost2010PropOp55
 70
     1
102
RTVSPost2010Prop56
140
1.0
102
RTVSPost2010PropOp56
 70
     1
102
RTVSPost2010Prop57
140
1.0
102
RTVSPost2010PropOp57
 70
     1
102
RTVSPropertyOp0
 70
     1
102
RTVSPropertyOp1
 70
     1
102
RTVSPropertyOp2
 70
     1
102
RTVSPropertyOp3
 70
     1
102
RTVSPropertyOp4
 70
     1
102
RTVSPropertyOp5
 70
     1
102
RTVSPropertyOp6
 70
     1
102
RTVSPropertyOp7
 70
     1
102
RTVSPropertyOp8
 70
     1
102
RTVSPropertyOp9
 70
     1
102
RTVSPropertyOp10
 70
     1
102
RTVSPropertyOp11
 70
     1
102
RTVSPropertyOp12
 70
     1
102
RTVSPropertyOp13
 70
     1
102
RTVSPropertyOp14
 70
     1
102
RTVSPropertyOp15
 70
     1
102
RTVSPropertyOp16
 70
     1
102
RTVSPropertyOp17
 70
     1
102
RTVSPropertyOp18
 70
     1
102
RTVSPropertyOp19
 70
     1
102
RTVSPropertyOp20
 70
     1
102
RTVSPropertyOp21
 70
     1
102
RTVSPropertyOp22
 70
     1
102
RTVSPropertyOp23
 70
     1
102
RTVSPropertyOp24
 70
     1
102
RTVSPropertyOp25
 70
     1
102
RTVSPropertyOp26
 70
     1
102
RTVSPropertyOp27
 70
     1
102
RTVSPropertyOp28
 70
     1
102
RTVSPropertyOp29
 70
     1
102
RTVSPropertyOp30
 70
     1
102
RTVSPropertyOp31
 70
     1
102
RTVSPropertyOp32
 70
     1
102
RTVSPropertyOp33
 70
     1
102
RTVSPropertyOp34
 70
     1
102
RTVSPropertyOp35
 70
     1
102
RTVSPropertyOp36
 70
     1
102
RTVSPropertyOp37
 70
     1
102
RTVSPropertyOp38
 70
     1
102
RTVSPropertyOp39
 70
     1
102
RTVSPropertyOp40
 70
     1
102
RTVSPropertyOp41
 70
     1
102
RTVSPropertyOp42
 70
     1
102
RTVSPropertyOp43
 70
     1
102
RTVSPropertyOp44
 70
     1
102
RTVSPropertyOp45
 70
     1
102
RTVSPropertyOp46
 70
     1
102
RTVSPropertyOp47
 70
     1
102
RTVSPropertyOp48
 70
     1
102
RTVSPropertyOp49
 70
     1
102
RTVSPropertyOp50
 70
     1
102
RTVSPropertyOp51
 70
     0
102
RTVSPropertyOp52
 70
     0
102
RTVSPropertyOp53
 70
     1
102
RTVSPropertyOp54
 70
     1
102
RTVSPropertyOp55
 70
     1
102
RTVSPropertyOp56
 70
     1
102
RTVSPropertyOp57
 70
     1
102
RTVSPropertyOp58
 70
     1
102
RTVSPropertyOp59
 70
     1
102
RTVSPropertyOp60
 70
     1
102
RTVSPropertyOp61
 70
     1
102
RTVSPropertyOp62
 70
     1
  0
XRECORD
  5
3B8
102
{ACAD_REACTORS
330
3B7
102
}
330
3B7
100
AcDbXrecord
280
     1
102
RTVSPost2010Prop28
280
     0
102
RTVSPost2010PropOp28
 70
     1
102
RTVSPost2010Prop29
280
     1
102
RTVSPost2010PropOp29
 70
     1
102
RTVSPost2010Prop30
280
     1
102
RTVSPost2010PropOp30
 70
     1
102
RTVSPost2010Prop31
280
     0
102
RTVSPost2010PropOp31
 70
     1
102
RTVSPost2010Prop32
280
     0
102
RTVSPost2010PropOp32
 70
     1
102
RTVSPost2010Prop33
280
     0
102
RTVSPost2010PropOp33
 70
     1
102
RTVSPost2010Prop34
280
     0
102
RTVSPost2010PropOp34
 70
     1
102
RTVSPost2010Prop35
280
     0
102
RTVSPost2010PropOp35
 70
     1
102
RTVSPost2010Prop36
280
     0
102
RTVSPost2010PropOp36
 70
     1
102
RTVSPost2010Prop37
 90
       50
102
RTVSPost2010PropOp37
 70
     1
102
RTVSPost2010Prop38
140
0.0
102
RTVSPost2010PropOp38
 70
     1
102
RTVSPost2010Prop39
140
1.0
102
RTVSPost2010PropOp39
 70
     1
102
RTVSPost2010Prop40
 90
        0
102
RTVSPost2010PropOp40
 70
     1
102
RTVSPost2010Prop41ColorIndex
 90
       18
102
RTVSPost2010Prop41ColorRGB
 90
        0
102
RTVSPost2010PropOp41
 70
     1
102
RTVSPost2010Prop42
 90
       50
102
RTVSPost2010PropOp42
 70
     1
102
RTVSPost2010Prop43
 90
        3
102
RTVSPost2010PropOp43
 70
     1
102
RTVSPost2010Prop44ColorIndex
 90
        5
102
RTVSPost2010Prop44ColorRGB
 90
      255
102
RTVSPost2010PropOp44
 70
     1
102
RTVSPost2010Prop45
280
     0
102
RTVSPost2010PropOp45
 70
     1
102
RTVSPost2010Prop46
 90
       50
102
RTVSPost2010PropOp46
 70
     1
102
RTVSPost2010Prop47
 90
       50
102
RTVSPost2010PropOp47
 70
     1
102
RTVSPost2010Prop48
 90
       50
102
RTVSPost2010PropOp48
 70
     1
102
RTVSPost2010Prop49
280
     0
102
RTVSPost2010PropOp49
 70
     1
102
RTVSPost2010Prop50
 90
       50
102
RTVSPost2010PropOp50
 70
     1
102
RTVSPost2010Prop51ColorIndex
 90
      256
102
RTVSPost2010Prop51ColorRGB
 90
-16777216
102
RTVSPost2010PropOp51
 70
     0
102
RTVSPost2010Prop52
140
1.0
102
RTVSPost2010PropOp52
 70
     0
102
RTVSPost2010Prop53
 90
        2
102
RTVSPost2010PropOp53
 70
     1
102
RTVSPost2010Prop54
  1
strokes_ogs.tif
102
RTVSPost2010PropOp54
 70
     1
102
RTVSPost2010Prop55
280
     0
102
RTVSPost2010PropOp55
 70
     1
102
RTVSPost2010Prop56
140
1.0
102
RTVSPost2010PropOp56
 70
     1
102
RTVSPost2010Prop57
140
1.0
102
RTVSPost2010PropOp57
 70
     1
102
RTVSPropertyOp0
 70
     1
102
RTVSPropertyOp1
 70
     1
102
RTVSPropertyOp2
 70
     1
102
RTVSPropertyOp3
 70
     1
102
RTVSPropertyOp4
 70
     1
102
RTVSPropertyOp5
 70
     1
102
RTVSPropertyOp6
 70
     1
102
RTVSPropertyOp7
 70
     1
102
RTVSPropertyOp8
 70
     1
102
RTVSPropertyOp9
 70
     1
102
RTVSPropertyOp10
 70
     1
102
RTVSPropertyOp11
 70
     1
102
RTVSPropertyOp12
 70
     1
102
RTVSPropertyOp13
 70
     1
102
RTVSPropertyOp14
 70
     1
102
RTVSPropertyOp15
 70
     1
102
RTVSPropertyOp16
 70
     1
102
RTVSPropertyOp17
 70
     1
102
RTVSPropertyOp18
 70
     1
102
RTVSPropertyOp19
 70
     1
102
RTVSPropertyOp20
 70
     1
102
RTVSPropertyOp21
 70
     1
102
RTVSPropertyOp22
 70
     1
102
RTVSPropertyOp23
 70
     1
102
RTVSPropertyOp24
 70
     1
102
RTVSPropertyOp25
 70
     1
102
RTVSPropertyOp26
 70
     1
102
RTVSPropertyOp27
 70
     1
102
RTVSPropertyOp28
 70
     1
102
RTVSPropertyOp29
 70
     1
102
RTVSPropertyOp30
 70
     1
102
RTVSPropertyOp31
 70
     1
102
RTVSPropertyOp32
 70
     1
102
RTVSPropertyOp33
 70
     1
102
RTVSPropertyOp34
 70
     1
102
RTVSPropertyOp35
 70
     1
102
RTVSPropertyOp36
 70
     1
102
RTVSPropertyOp37
 70
     1
102
RTVSPropertyOp38
 70
     1
102
RTVSPropertyOp39
 70
     1
102
RTVSPropertyOp40
 70
     1
102
RTVSPropertyOp41
 70
     1
102
RTVSPropertyOp42
 70
     1
102
RTVSPropertyOp43
 70
     1
102
RTVSPropertyOp44
 70
     1
102
RTVSPropertyOp45
 70
     1
102
RTVSPropertyOp46
 70
     1
102
RTVSPropertyOp47
 70
     1
102
RTVSPropertyOp48
 70
     1
102
RTVSPropertyOp49
 70
     1
102
RTVSPropertyOp50
 70
     1
102
RTVSPropertyOp51
 70
     0
102
RTVSPropertyOp52
 70
     0
102
RTVSPropertyOp53
 70
     1
102
RTVSPropertyOp54
 70
     1
102
RTVSPropertyOp55
 70
     1
102
RTVSPropertyOp56
 70
     1
102
RTVSPropertyOp57
 70
     1
102
RTVSPropertyOp58
 70
     1
102
RTVSPropertyOp59
 70
     1
102
RTVSPropertyOp60
 70
     1
102
RTVSPropertyOp61
 70
     1
102
RTVSPropertyOp62
 70
     1
  0
XRECORD
  5
3CC
102
{ACAD_REACTORS
330
3CB
102
}
330
3CB
100
AcDbXrecord
280
     1
102
RTVSPost2010Prop28
280
     0
102
RTVSPost2010PropOp28
 70
     0
102
RTVSPost2010Prop29
280
     1
102
RTVSPost2010PropOp29
 70
     0
102
RTVSPost2010Prop30
280
     1
102
RTVSPost2010PropOp30
 70
     0
102
RTVSPost2010Prop31
280
     0
102
RTVSPost2010PropOp31
 70
     0
102
RTVSPost2010Prop32
280
     0
102
RTVSPost2010PropOp32
 70
     0
102
RTVSPost2010Prop33
280
     0
102
RTVSPost2010PropOp33
 70
     0
102
RTVSPost2010Prop34
280
     0
102
RTVSPost2010PropOp34
 70
     0
102
RTVSPost2010Prop35
280
     0
102
RTVSPost2010PropOp35
 70
     0
102
RTVSPost2010Prop36
280
     0
102
RTVSPost2010PropOp36
 70
     0
102
RTVSPost2010Prop37
 90
       50
102
RTVSPost2010PropOp37
 70
     0
102
RTVSPost2010Prop38
140
0.0
102
RTVSPost2010PropOp38
 70
     0
102
RTVSPost2010Prop39
140
1.0
102
RTVSPost2010PropOp39
 70
     0
102
RTVSPost2010Prop40
 90
        0
102
RTVSPost2010PropOp40
 70
     0
102
RTVSPost2010Prop41ColorIndex
 90
       18
102
RTVSPost2010Prop41ColorRGB
 90
        0
102
RTVSPost2010PropOp41
 70
     0
102
RTVSPost2010Prop42
 90
       50
102
RTVSPost2010PropOp42
 70
     0
102
RTVSPost2010Prop43
 90
        3
102
RTVSPost2010PropOp43
 70
     0
102
RTVSPost2010Prop44ColorIndex
 90
        5
102
RTVSPost2010Prop44ColorRGB
 90
      255
102
RTVSPost2010PropOp44
 70
     0
102
RTVSPost2010Prop45
280
     0
102
RTVSPost2010PropOp45
 70
     0
102
RTVSPost2010Prop46
 90
       50
102
RTVSPost2010PropOp46
 70
     0
102
RTVSPost2010Prop47
 90
       50
102
RTVSPost2010PropOp47
 70
     0
102
RTVSPost2010Prop48
 90
       50
102
RTVSPost2010PropOp48
 70
     0
102
RTVSPost2010Prop49
280
     0
102
RTVSPost2010PropOp49
 70
     0
102
RTVSPost2010Prop50
 90
       50
102
RTVSPost2010PropOp50
 70
     0
102
RTVSPost2010Prop51ColorIndex
 90
      256
102
RTVSPost2010Prop51ColorRGB
 90
-16777216
102
RTVSPost2010PropOp51
 70
     0
102
RTVSPost2010Prop52
140
1.0
102
RTVSPost2010PropOp52
 70
     0
102
RTVSPost2010Prop53
 90
        2
102
RTVSPost2010PropOp53
 70
     0
102
RTVSPost2010Prop54
  1
strokes_ogs.tif
102
RTVSPost2010PropOp54
 70
     0
102
RTVSPost2010Prop55
280
     0
102
RTVSPost2010PropOp55
 70
     0
102
RTVSPost2010Prop56
140
1.0
102
RTVSPost2010PropOp56
 70
     0
102
RTVSPost2010Prop57
140
1.0
102
RTVSPost2010PropOp57
 70
     0
102
RTVSPropertyOp0
 70
     0
102
RTVSPropertyOp1
 70
     0
102
RTVSPropertyOp2
 70
     0
102
RTVSPropertyOp3
 70
     0
102
RTVSPropertyOp4
 70
     0
102
RTVSPropertyOp5
 70
     0
102
RTVSPropertyOp6
 70
     0
102
RTVSPropertyOp7
 70
     0
102
RTVSPropertyOp8
 70
     0
102
RTVSPropertyOp9
 70
     0
102
RTVSPropertyOp10
 70
     0
102
RTVSPropertyOp11
 70
     0
102
RTVSPropertyOp12
 70
     0
102
RTVSPropertyOp13
 70
     0
102
RTVSPropertyOp14
 70
     2
102
RTVSPropertyOp15
 70
     0
102
RTVSPropertyOp16
 70
     0
102
RTVSPropertyOp17
 70
     0
102
RTVSPropertyOp18
 70
     0
102
RTVSPropertyOp19
 70
     0
102
RTVSPropertyOp20
 70
     0
102
RTVSPropertyOp21
 70
     0
102
RTVSPropertyOp22
 70
     0
102
RTVSPropertyOp23
 70
     0
102
RTVSPropertyOp24
 70
     0
102
RTVSPropertyOp25
 70
     0
102
RTVSPropertyOp26
 70
     0
102
RTVSPropertyOp27
 70
     0
102
RTVSPropertyOp28
 70
     0
102
RTVSPropertyOp29
 70
     0
102
RTVSPropertyOp30
 70
     0
102
RTVSPropertyOp31
 70
     0
102
RTVSPropertyOp32
 70
     0
102
RTVSPropertyOp33
 70
     0
102
RTVSPropertyOp34
 70
     0
102
RTVSPropertyOp35
 70
     0
102
RTVSPropertyOp36
 70
     0
102
RTVSPropertyOp37
 70
     0
102
RTVSPropertyOp38
 70
     0
102
RTVSPropertyOp39
 70
     0
102
RTVSPropertyOp40
 70
     0
102
RTVSPropertyOp41
 70
     0
102
RTVSPropertyOp42
 70
     0
102
RTVSPropertyOp43
 70
     0
102
RTVSPropertyOp44
 70
     0
102
RTVSPropertyOp45
 70
     0
102
RTVSPropertyOp46
 70
     0
102
RTVSPropertyOp47
 70
     0
102
RTVSPropertyOp48
 70
     0
102
RTVSPropertyOp49
 70
     0
102
RTVSPropertyOp50
 70
     0
102
RTVSPropertyOp51
 70
     0
102
RTVSPropertyOp52
 70
     0
102
RTVSPropertyOp53
 70
     0
102
RTVSPropertyOp54
 70
     0
102
RTVSPropertyOp55
 70
     0
102
RTVSPropertyOp56
 70
     0
102
RTVSPropertyOp57
 70
     0
102
RTVSPropertyOp58
 70
     1
102
RTVSPropertyOp59
 70
     1
102
RTVSPropertyOp60
 70
     1
102
RTVSPropertyOp61
 70
     1
102
RTVSPropertyOp62
 70
     1
  0
XRECORD
  5
3C6
102
{ACAD_REACTORS
330
3C5
102
}
330
3C5
100
AcDbXrecord
280
     1
102
RTVSPost2010Prop28
280
     0
102
RTVSPost2010PropOp28
 70
     1
102
RTVSPost2010Prop29
280
     1
102
RTVSPost2010PropOp29
 70
     1
102
RTVSPost2010Prop30
280
     1
102
RTVSPost2010PropOp30
 70
     1
102
RTVSPost2010Prop31
280
     0
102
RTVSPost2010PropOp31
 70
     1
102
RTVSPost2010Prop32
280
     0
102
RTVSPost2010PropOp32
 70
     1
102
RTVSPost2010Prop33
280
     0
102
RTVSPost2010PropOp33
 70
     1
102
RTVSPost2010Prop34
280
     0
102
RTVSPost2010PropOp34
 70
     1
102
RTVSPost2010Prop35
280
     0
102
RTVSPost2010PropOp35
 70
     1
102
RTVSPost2010Prop36
280
     0
102
RTVSPost2010PropOp36
 70
     1
102
RTVSPost2010Prop37
 90
       50
102
RTVSPost2010PropOp37
 70
     1
102
RTVSPost2010Prop38
140
0.0
102
RTVSPost2010PropOp38
 70
     1
102
RTVSPost2010Prop39
140
1.0
102
RTVSPost2010PropOp39
 70
     1
102
RTVSPost2010Prop40
 90
        0
102
RTVSPost2010PropOp40
 70
     1
102
RTVSPost2010Prop41ColorIndex
 90
       18
102
RTVSPost2010Prop41ColorRGB
 90
        0
102
RTVSPost2010PropOp41
 70
     1
102
RTVSPost2010Prop42
 90
       50
102
RTVSPost2010PropOp42
 70
     1
102
RTVSPost2010Prop43
 90
        3
102
RTVSPost2010PropOp43
 70
     1
102
RTVSPost2010Prop44ColorIndex
 90
        5
102
RTVSPost2010Prop44ColorRGB
 90
      255
102
RTVSPost2010PropOp44
 70
     1
102
RTVSPost2010Prop45
280
     0
102
RTVSPost2010PropOp45
 70
     1
102
RTVSPost2010Prop46
 90
       50
102
RTVSPost2010PropOp46
 70
     1
102
RTVSPost2010Prop47
 90
       50
102
RTVSPost2010PropOp47
 70
     1
102
RTVSPost2010Prop48
 90
       50
102
RTVSPost2010PropOp48
 70
     1
102
RTVSPost2010Prop49
280
     0
102
RTVSPost2010PropOp49
 70
     1
102
RTVSPost2010Prop50
 90
       50
102
RTVSPost2010PropOp50
 70
     1
102
RTVSPost2010Prop51ColorIndex
 90
      256
102
RTVSPost2010Prop51ColorRGB
 90
-16777216
102
RTVSPost2010PropOp51
 70
     0
102
RTVSPost2010Prop52
140
1.0
102
RTVSPost2010PropOp52
 70
     0
102
RTVSPost2010Prop53
 90
        2
102
RTVSPost2010PropOp53
 70
     1
102
RTVSPost2010Prop54
  1
strokes_ogs.tif
102
RTVSPost2010PropOp54
 70
     1
102
RTVSPost2010Prop55
280
     0
102
RTVSPost2010PropOp55
 70
     1
102
RTVSPost2010Prop56
140
1.0
102
RTVSPost2010PropOp56
 70
     1
102
RTVSPost2010Prop57
140
1.0
102
RTVSPost2010PropOp57
 70
     1
102
RTVSPropertyOp0
 70
     1
102
RTVSPropertyOp1
 70
     1
102
RTVSPropertyOp2
 70
     1
102
RTVSPropertyOp3
 70
     1
102
RTVSPropertyOp4
 70
     1
102
RTVSPropertyOp5
 70
     1
102
RTVSPropertyOp6
 70
     1
102
RTVSPropertyOp7
 70
     1
102
RTVSPropertyOp8
 70
     1
102
RTVSPropertyOp9
 70
     1
102
RTVSPropertyOp10
 70
     1
102
RTVSPropertyOp11
 70
     1
102
RTVSPropertyOp12
 70
     1
102
RTVSPropertyOp13
 70
     1
102
RTVSPropertyOp14
 70
     1
102
RTVSPropertyOp15
 70
     1
102
RTVSPropertyOp16
 70
     1
102
RTVSPropertyOp17
 70
     1
102
RTVSPropertyOp18
 70
     1
102
RTVSPropertyOp19
 70
     1
102
RTVSPropertyOp20
 70
     1
102
RTVSPropertyOp21
 70
     1
102
RTVSPropertyOp22
 70
     1
102
RTVSPropertyOp23
 70
     1
102
RTVSPropertyOp24
 70
     1
102
RTVSPropertyOp25
 70
     1
102
RTVSPropertyOp26
 70
     1
102
RTVSPropertyOp27
 70
     1
102
RTVSPropertyOp28
 70
     1
102
RTVSPropertyOp29
 70
     1
102
RTVSPropertyOp30
 70
     1
102
RTVSPropertyOp31
 70
     1
102
RTVSPropertyOp32
 70
     1
102
RTVSPropertyOp33
 70
     1
102
RTVSPropertyOp34
 70
     1
102
RTVSPropertyOp35
 70
     1
102
RTVSPropertyOp36
 70
     1
102
RTVSPropertyOp37
 70
     1
102
RTVSPropertyOp38
 70
     1
102
RTVSPropertyOp39
 70
     1
102
RTVSPropertyOp40
 70
     1
102
RTVSPropertyOp41
 70
     1
102
RTVSPropertyOp42
 70
     1
102
RTVSPropertyOp43
 70
     1
102
RTVSPropertyOp44
 70
     1
102
RTVSPropertyOp45
 70
     1
102
RTVSPropertyOp46
 70
     1
102
RTVSPropertyOp47
 70
     1
102
RTVSPropertyOp48
 70
     1
102
RTVSPropertyOp49
 70
     1
102
RTVSPropertyOp50
 70
     1
102
RTVSPropertyOp51
 70
     0
102
RTVSPropertyOp52
 70
     0
102
RTVSPropertyOp53
 70
     1
102
RTVSPropertyOp54
 70
     1
102
RTVSPropertyOp55
 70
     1
102
RTVSPropertyOp56
 70
     1
102
RTVSPropertyOp57
 70
     1
102
RTVSPropertyOp58
 70
     1
102
RTVSPropertyOp59
 70
     1
102
RTVSPropertyOp60
 70
     1
102
RTVSPropertyOp61
 70
     1
102
RTVSPropertyOp62
 70
     1
  0
XRECORD
  5
3CE
102
{ACAD_REACTORS
330
3CD
102
}
330
3CD
100
AcDbXrecord
280
     1
102
RTVSPost2010Prop28
280
     0
102
RTVSPost2010PropOp28
 70
     0
102
RTVSPost2010Prop29
280
     1
102
RTVSPost2010PropOp29
 70
     0
102
RTVSPost2010Prop30
280
     1
102
RTVSPost2010PropOp30
 70
     0
102
RTVSPost2010Prop31
280
     0
102
RTVSPost2010PropOp31
 70
     0
102
RTVSPost2010Prop32
280
     0
102
RTVSPost2010PropOp32
 70
     0
102
RTVSPost2010Prop33
280
     0
102
RTVSPost2010PropOp33
 70
     0
102
RTVSPost2010Prop34
280
     0
102
RTVSPost2010PropOp34
 70
     0
102
RTVSPost2010Prop35
280
     0
102
RTVSPost2010PropOp35
 70
     0
102
RTVSPost2010Prop36
280
     0
102
RTVSPost2010PropOp36
 70
     0
102
RTVSPost2010Prop37
 90
       50
102
RTVSPost2010PropOp37
 70
     0
102
RTVSPost2010Prop38
140
0.0
102
RTVSPost2010PropOp38
 70
     0
102
RTVSPost2010Prop39
140
1.0
102
RTVSPost2010PropOp39
 70
     0
102
RTVSPost2010Prop40
 90
        0
102
RTVSPost2010PropOp40
 70
     0
102
RTVSPost2010Prop41ColorIndex
 90
       18
102
RTVSPost2010Prop41ColorRGB
 90
        0
102
RTVSPost2010PropOp41
 70
     0
102
RTVSPost2010Prop42
 90
       50
102
RTVSPost2010PropOp42
 70
     0
102
RTVSPost2010Prop43
 90
        3
102
RTVSPost2010PropOp43
 70
     0
102
RTVSPost2010Prop44ColorIndex
 90
        5
102
RTVSPost2010Prop44ColorRGB
 90
      255
102
RTVSPost2010PropOp44
 70
     0
102
RTVSPost2010Prop45
280
     0
102
RTVSPost2010PropOp45
 70
     0
102
RTVSPost2010Prop46
 90
       50
102
RTVSPost2010PropOp46
 70
     0
102
RTVSPost2010Prop47
 90
       50
102
RTVSPost2010PropOp47
 70
     0
102
RTVSPost2010Prop48
 90
       50
102
RTVSPost2010PropOp48
 70
     0
102
RTVSPost2010Prop49
280
     0
102
RTVSPost2010PropOp49
 70
     0
102
RTVSPost2010Prop50
 90
       50
102
RTVSPost2010PropOp50
 70
     0
102
RTVSPost2010Prop51ColorIndex
 90
      256
102
RTVSPost2010Prop51ColorRGB
 90
-16777216
102
RTVSPost2010PropOp51
 70
     0
102
RTVSPost2010Prop52
140
1.0
102
RTVSPost2010PropOp52
 70
     0
102
RTVSPost2010Prop53
 90
        2
102
RTVSPost2010PropOp53
 70
     0
102
RTVSPost2010Prop54
  1
strokes_ogs.tif
102
RTVSPost2010PropOp54
 70
     0
102
RTVSPost2010Prop55
280
     0
102
RTVSPost2010PropOp55
 70
     0
102
RTVSPost2010Prop56
140
1.0
102
RTVSPost2010PropOp56
 70
     0
102
RTVSPost2010Prop57
140
1.0
102
RTVSPost2010PropOp57
 70
     0
102
RTVSPropertyOp0
 70
     0
102
RTVSPropertyOp1
 70
     0
102
RTVSPropertyOp2
 70
     0
102
RTVSPropertyOp3
 70
     0
102
RTVSPropertyOp4
 70
     0
102
RTVSPropertyOp5
 70
     0
102
RTVSPropertyOp6
 70
     0
102
RTVSPropertyOp7
 70
     0
102
RTVSPropertyOp8
 70
     0
102
RTVSPropertyOp9
 70
     0
102
RTVSPropertyOp10
 70
     0
102
RTVSPropertyOp11
 70
     0
102
RTVSPropertyOp12
 70
     0
102
RTVSPropertyOp13
 70
     0
102
RTVSPropertyOp14
 70
     2
102
RTVSPropertyOp15
 70
     0
102
RTVSPropertyOp16
 70
     0
102
RTVSPropertyOp17
 70
     0
102
RTVSPropertyOp18
 70
     0
102
RTVSPropertyOp19
 70
     0
102
RTVSPropertyOp20
 70
     0
102
RTVSPropertyOp21
 70
     0
102
RTVSPropertyOp22
 70
     0
102
RTVSPropertyOp23
 70
     0
102
RTVSPropertyOp24
 70
     0
102
RTVSPropertyOp25
 70
     0
102
RTVSPropertyOp26
 70
     0
102
RTVSPropertyOp27
 70
     0
102
RTVSPropertyOp28
 70
     0
102
RTVSPropertyOp29
 70
     0
102
RTVSPropertyOp30
 70
     0
102
RTVSPropertyOp31
 70
     0
102
RTVSPropertyOp32
 70
     0
102
RTVSPropertyOp33
 70
     0
102
RTVSPropertyOp34
 70
     0
102
RTVSPropertyOp35
 70
     0
102
RTVSPropertyOp36
 70
     0
102
RTVSPropertyOp37
 70
     0
102
RTVSPropertyOp38
 70
     0
102
RTVSPropertyOp39
 70
     0
102
RTVSPropertyOp40
 70
     0
102
RTVSPropertyOp41
 70
     0
102
RTVSPropertyOp42
 70
     0
102
RTVSPropertyOp43
 70
     0
102
RTVSPropertyOp44
 70
     0
102
RTVSPropertyOp45
 70
     0
102
RTVSPropertyOp46
 70
     0
102
RTVSPropertyOp47
 70
     0
102
RTVSPropertyOp48
 70
     0
102
RTVSPropertyOp49
 70
     0
102
RTVSPropertyOp50
 70
     0
102
RTVSPropertyOp51
 70
     0
102
RTVSPropertyOp52
 70
     0
102
RTVSPropertyOp53
 70
     0
102
RTVSPropertyOp54
 70
     0
102
RTVSPropertyOp55
 70
     0
102
RTVSPropertyOp56
 70
     0
102
RTVSPropertyOp57
 70
     0
102
RTVSPropertyOp58
 70
     1
102
RTVSPropertyOp59
 70
     1
102
RTVSPropertyOp60
 70
     1
102
RTVSPropertyOp61
 70
     1
102
RTVSPropertyOp62
 70
     1
  0
XRECORD
  5
3BC
102
{ACAD_REACTORS
330
3BB
102
}
330
3BB
100
AcDbXrecord
280
     1
102
RTVSPost2010Prop28
280
     0
102
RTVSPost2010PropOp28
 70
     1
102
RTVSPost2010Prop29
280
     1
102
RTVSPost2010PropOp29
 70
     1
102
RTVSPost2010Prop30
280
     1
102
RTVSPost2010PropOp30
 70
     1
102
RTVSPost2010Prop31
280
     0
102
RTVSPost2010PropOp31
 70
     1
102
RTVSPost2010Prop32
280
     0
102
RTVSPost2010PropOp32
 70
     1
102
RTVSPost2010Prop33
280
     0
102
RTVSPost2010PropOp33
 70
     1
102
RTVSPost2010Prop34
280
     0
102
RTVSPost2010PropOp34
 70
     1
102
RTVSPost2010Prop35
280
     0
102
RTVSPost2010PropOp35
 70
     1
102
RTVSPost2010Prop36
280
     0
102
RTVSPost2010PropOp36
 70
     1
102
RTVSPost2010Prop37
 90
       50
102
RTVSPost2010PropOp37
 70
     1
102
RTVSPost2010Prop38
140
0.0
102
RTVSPost2010PropOp38
 70
     1
102
RTVSPost2010Prop39
140
1.0
102
RTVSPost2010PropOp39
 70
     1
102
RTVSPost2010Prop40
 90
        0
102
RTVSPost2010PropOp40
 70
     1
102
RTVSPost2010Prop41ColorIndex
 90
       18
102
RTVSPost2010Prop41ColorRGB
 90
        0
102
RTVSPost2010PropOp41
 70
     1
102
RTVSPost2010Prop42
 90
       50
102
RTVSPost2010PropOp42
 70
     1
102
RTVSPost2010Prop43
 90
        3
102
RTVSPost2010PropOp43
 70
     1
102
RTVSPost2010Prop44ColorIndex
 90
        5
102
RTVSPost2010Prop44ColorRGB
 90
      255
102
RTVSPost2010PropOp44
 70
     1
102
RTVSPost2010Prop45
280
     0
102
RTVSPost2010PropOp45
 70
     1
102
RTVSPost2010Prop46
 90
       50
102
RTVSPost2010PropOp46
 70
     1
102
RTVSPost2010Prop47
 90
       50
102
RTVSPost2010PropOp47
 70
     1
102
RTVSPost2010Prop48
 90
       50
102
RTVSPost2010PropOp48
 70
     1
102
RTVSPost2010Prop49
280
     0
102
RTVSPost2010PropOp49
 70
     1
102
RTVSPost2010Prop50
 90
       50
102
RTVSPost2010PropOp50
 70
     1
102
RTVSPost2010Prop51ColorIndex
 90
      256
102
RTVSPost2010Prop51ColorRGB
 90
-16777216
102
RTVSPost2010PropOp51
 70
     0
102
RTVSPost2010Prop52
140
1.0
102
RTVSPost2010PropOp52
 70
     0
102
RTVSPost2010Prop53
 90
        2
102
RTVSPost2010PropOp53
 70
     1
102
RTVSPost2010Prop54
  1
strokes_ogs.tif
102
RTVSPost2010PropOp54
 70
     1
102
RTVSPost2010Prop55
280
     0
102
RTVSPost2010PropOp55
 70
     1
102
RTVSPost2010Prop56
140
1.0
102
RTVSPost2010PropOp56
 70
     1
102
RTVSPost2010Prop57
140
1.0
102
RTVSPost2010PropOp57
 70
     1
102
RTVSPropertyOp0
 70
     1
102
RTVSPropertyOp1
 70
     1
102
RTVSPropertyOp2
 70
     1
102
RTVSPropertyOp3
 70
     1
102
RTVSPropertyOp4
 70
     1
102
RTVSPropertyOp5
 70
     1
102
RTVSPropertyOp6
 70
     1
102
RTVSPropertyOp7
 70
     1
102
RTVSPropertyOp8
 70
     1
102
RTVSPropertyOp9
 70
     1
102
RTVSPropertyOp10
 70
     1
102
RTVSPropertyOp11
 70
     1
102
RTVSPropertyOp12
 70
     1
102
RTVSPropertyOp13
 70
     1
102
RTVSPropertyOp14
 70
     1
102
RTVSPropertyOp15
 70
     1
102
RTVSPropertyOp16
 70
     1
102
RTVSPropertyOp17
 70
     1
102
RTVSPropertyOp18
 70
     1
102
RTVSPropertyOp19
 70
     1
102
RTVSPropertyOp20
 70
     1
102
RTVSPropertyOp21
 70
     1
102
RTVSPropertyOp22
 70
     1
102
RTVSPropertyOp23
 70
     1
102
RTVSPropertyOp24
 70
     1
102
RTVSPropertyOp25
 70
     1
102
RTVSPropertyOp26
 70
     1
102
RTVSPropertyOp27
 70
     1
102
RTVSPropertyOp28
 70
     1
102
RTVSPropertyOp29
 70
     1
102
RTVSPropertyOp30
 70
     1
102
RTVSPropertyOp31
 70
     1
102
RTVSPropertyOp32
 70
     1
102
RTVSPropertyOp33
 70
     1
102
RTVSPropertyOp34
 70
     1
102
RTVSPropertyOp35
 70
     1
102
RTVSPropertyOp36
 70
     1
102
RTVSPropertyOp37
 70
     1
102
RTVSPropertyOp38
 70
     1
102
RTVSPropertyOp39
 70
     1
102
RTVSPropertyOp40
 70
     1
102
RTVSPropertyOp41
 70
     1
102
RTVSPropertyOp42
 70
     1
102
RTVSPropertyOp43
 70
     1
102
RTVSPropertyOp44
 70
     1
102
RTVSPropertyOp45
 70
     1
102
RTVSPropertyOp46
 70
     1
102
RTVSPropertyOp47
 70
     1
102
RTVSPropertyOp48
 70
     1
102
RTVSPropertyOp49
 70
     1
102
RTVSPropertyOp50
 70
     1
102
RTVSPropertyOp51
 70
     0
102
RTVSPropertyOp52
 70
     0
102
RTVSPropertyOp53
 70
     1
102
RTVSPropertyOp54
 70
     1
102
RTVSPropertyOp55
 70
     1
102
RTVSPropertyOp56
 70
     1
102
RTVSPropertyOp57
 70
     1
102
RTVSPropertyOp58
 70
     1
102
RTVSPropertyOp59
 70
     1
102
RTVSPropertyOp60
 70
     1
102
RTVSPropertyOp61
 70
     1
102
RTVSPropertyOp62
 70
     1
  0
XRECORD
  5
3DA
102
{ACAD_REACTORS
330
3D9
102
}
330
3D9
100
AcDbXrecord
280
     1
102
RTVSPost2010Prop28
280
     0
102
RTVSPost2010PropOp28
 70
     1
102
RTVSPost2010Prop29
280
     1
102
RTVSPost2010PropOp29
 70
     1
102
RTVSPost2010Prop30
280
     1
102
RTVSPost2010PropOp30
 70
     1
102
RTVSPost2010Prop31
280
     0
102
RTVSPost2010PropOp31
 70
     1
102
RTVSPost2010Prop32
280
     0
102
RTVSPost2010PropOp32
 70
     1
102
RTVSPost2010Prop33
280
     0
102
RTVSPost2010PropOp33
 70
     1
102
RTVSPost2010Prop34
280
     0
102
RTVSPost2010PropOp34
 70
     1
102
RTVSPost2010Prop35
280
     0
102
RTVSPost2010PropOp35
 70
     1
102
RTVSPost2010Prop36
280
     0
102
RTVSPost2010PropOp36
 70
     1
102
RTVSPost2010Prop37
 90
       50
102
RTVSPost2010PropOp37
 70
     1
102
RTVSPost2010Prop38
140
0.0
102
RTVSPost2010PropOp38
 70
     1
102
RTVSPost2010Prop39
140
1.0
102
RTVSPost2010PropOp39
 70
     1
102
RTVSPost2010Prop40
 90
        0
102
RTVSPost2010PropOp40
 70
     1
102
RTVSPost2010Prop41ColorIndex
 90
       18
102
RTVSPost2010Prop41ColorRGB
 90
        0
102
RTVSPost2010PropOp41
 70
     1
102
RTVSPost2010Prop42
 90
       50
102
RTVSPost2010PropOp42
 70
     1
102
RTVSPost2010Prop43
 90
        3
102
RTVSPost2010PropOp43
 70
     1
102
RTVSPost2010Prop44ColorIndex
 90
        5
102
RTVSPost2010Prop44ColorRGB
 90
      255
102
RTVSPost2010PropOp44
 70
     1
102
RTVSPost2010Prop45
280
     0
102
RTVSPost2010PropOp45
 70
     1
102
RTVSPost2010Prop46
 90
       50
102
RTVSPost2010PropOp46
 70
     1
102
RTVSPost2010Prop47
 90
       50
102
RTVSPost2010PropOp47
 70
     1
102
RTVSPost2010Prop48
 90
       50
102
RTVSPost2010PropOp48
 70
     1
102
RTVSPost2010Prop49
280
     0
102
RTVSPost2010PropOp49
 70
     1
102
RTVSPost2010Prop50
 90
       50
102
RTVSPost2010PropOp50
 70
     1
102
RTVSPost2010Prop51ColorIndex
 90
      256
102
RTVSPost2010Prop51ColorRGB
 90
-16777216
102
RTVSPost2010PropOp51
 70
     0
102
RTVSPost2010Prop52
140
1.0
102
RTVSPost2010PropOp52
 70
     0
102
RTVSPost2010Prop53
 90
        2
102
RTVSPost2010PropOp53
 70
     1
102
RTVSPost2010Prop54
  1
strokes_ogs.tif
102
RTVSPost2010PropOp54
 70
     1
102
RTVSPost2010Prop55
280
     0
102
RTVSPost2010PropOp55
 70
     1
102
RTVSPost2010Prop56
140
1.0
102
RTVSPost2010PropOp56
 70
     1
102
RTVSPost2010Prop57
140
1.0
102
RTVSPost2010PropOp57
 70
     1
102
RTVSPropertyOp0
 70
     1
102
RTVSPropertyOp1
 70
     1
102
RTVSPropertyOp2
 70
     1
102
RTVSPropertyOp3
 70
     1
102
RTVSPropertyOp4
 70
     1
102
RTVSPropertyOp5
 70
     1
102
RTVSPropertyOp6
 70
     1
102
RTVSPropertyOp7
 70
     1
102
RTVSPropertyOp8
 70
     1
102
RTVSPropertyOp9
 70
     1
102
RTVSPropertyOp10
 70
     1
102
RTVSPropertyOp11
 70
     1
102
RTVSPropertyOp12
 70
     1
102
RTVSPropertyOp13
 70
     1
102
RTVSPropertyOp14
 70
     1
102
RTVSPropertyOp15
 70
     1
102
RTVSPropertyOp16
 70
     1
102
RTVSPropertyOp17
 70
     1
102
RTVSPropertyOp18
 70
     1
102
RTVSPropertyOp19
 70
     1
102
RTVSPropertyOp20
 70
     1
102
RTVSPropertyOp21
 70
     1
102
RTVSPropertyOp22
 70
     1
102
RTVSPropertyOp23
 70
     1
102
RTVSPropertyOp24
 70
     1
102
RTVSPropertyOp25
 70
     1
102
RTVSPropertyOp26
 70
     1
102
RTVSPropertyOp27
 70
     1
102
RTVSPropertyOp28
 70
     1
102
RTVSPropertyOp29
 70
     1
102
RTVSPropertyOp30
 70
     1
102
RTVSPropertyOp31
 70
     1
102
RTVSPropertyOp32
 70
     1
102
RTVSPropertyOp33
 70
     1
102
RTVSPropertyOp34
 70
     1
102
RTVSPropertyOp35
 70
     1
102
RTVSPropertyOp36
 70
     1
102
RTVSPropertyOp37
 70
     1
102
RTVSPropertyOp38
 70
     1
102
RTVSPropertyOp39
 70
     1
102
RTVSPropertyOp40
 70
     1
102
RTVSPropertyOp41
 70
     1
102
RTVSPropertyOp42
 70
     1
102
RTVSPropertyOp43
 70
     1
102
RTVSPropertyOp44
 70
     1
102
RTVSPropertyOp45
 70
     1
102
RTVSPropertyOp46
 70
     1
102
RTVSPropertyOp47
 70
     1
102
RTVSPropertyOp48
 70
     1
102
RTVSPropertyOp49
 70
     1
102
RTVSPropertyOp50
 70
     1
102
RTVSPropertyOp51
 70
     0
102
RTVSPropertyOp52
 70
     0
102
RTVSPropertyOp53
 70
     1
102
RTVSPropertyOp54
 70
     1
102
RTVSPropertyOp55
 70
     1
102
RTVSPropertyOp56
 70
     1
102
RTVSPropertyOp57
 70
     1
102
RTVSPropertyOp58
 70
     1
102
RTVSPropertyOp59
 70
     1
102
RTVSPropertyOp60
 70
     1
102
RTVSPropertyOp61
 70
     1
102
RTVSPropertyOp62
 70
     1
  0
XRECORD
  5
3D8
102
{ACAD_REACTORS
330
3D7
102
}
330
3D7
100
AcDbXrecord
280
     1
102
RTVSPost2010Prop28
280
     0
102
RTVSPost2010PropOp28
 70
     1
102
RTVSPost2010Prop29
280
     1
102
RTVSPost2010PropOp29
 70
     1
102
RTVSPost2010Prop30
280
     1
102
RTVSPost2010PropOp30
 70
     1
102
RTVSPost2010Prop31
280
     0
102
RTVSPost2010PropOp31
 70
     1
102
RTVSPost2010Prop32
280
     0
102
RTVSPost2010PropOp32
 70
     1
102
RTVSPost2010Prop33
280
     0
102
RTVSPost2010PropOp33
 70
     1
102
RTVSPost2010Prop34
280
     0
102
RTVSPost2010PropOp34
 70
     1
102
RTVSPost2010Prop35
280
     0
102
RTVSPost2010PropOp35
 70
     1
102
RTVSPost2010Prop36
280
     0
102
RTVSPost2010PropOp36
 70
     1
102
RTVSPost2010Prop37
 90
       50
102
RTVSPost2010PropOp37
 70
     1
102
RTVSPost2010Prop38
140
0.0
102
RTVSPost2010PropOp38
 70
     1
102
RTVSPost2010Prop39
140
1.0
102
RTVSPost2010PropOp39
 70
     1
102
RTVSPost2010Prop40
 90
        0
102
RTVSPost2010PropOp40
 70
     1
102
RTVSPost2010Prop41ColorIndex
 90
       18
102
RTVSPost2010Prop41ColorRGB
 90
        0
102
RTVSPost2010PropOp41
 70
     1
102
RTVSPost2010Prop42
 90
       50
102
RTVSPost2010PropOp42
 70
     1
102
RTVSPost2010Prop43
 90
        3
102
RTVSPost2010PropOp43
 70
     1
102
RTVSPost2010Prop44ColorIndex
 90
        5
102
RTVSPost2010Prop44ColorRGB
 90
      255
102
RTVSPost2010PropOp44
 70
     1
102
RTVSPost2010Prop45
280
     0
102
RTVSPost2010PropOp45
 70
     1
102
RTVSPost2010Prop46
 90
       50
102
RTVSPost2010PropOp46
 70
     1
102
RTVSPost2010Prop47
 90
       50
102
RTVSPost2010PropOp47
 70
     1
102
RTVSPost2010Prop48
 90
       50
102
RTVSPost2010PropOp48
 70
     1
102
RTVSPost2010Prop49
280
     0
102
RTVSPost2010PropOp49
 70
     1
102
RTVSPost2010Prop50
 90
       50
102
RTVSPost2010PropOp50
 70
     1
102
RTVSPost2010Prop51ColorIndex
 90
      256
102
RTVSPost2010Prop51ColorRGB
 90
-16777216
102
RTVSPost2010PropOp51
 70
     0
102
RTVSPost2010Prop52
140
1.0
102
RTVSPost2010PropOp52
 70
     0
102
RTVSPost2010Prop53
 90
        2
102
RTVSPost2010PropOp53
 70
     1
102
RTVSPost2010Prop54
  1
strokes_ogs.tif
102
RTVSPost2010PropOp54
 70
     1
102
RTVSPost2010Prop55
280
     0
102
RTVSPost2010PropOp55
 70
     1
102
RTVSPost2010Prop56
140
1.0
102
RTVSPost2010PropOp56
 70
     1
102
RTVSPost2010Prop57
140
1.0
102
RTVSPost2010PropOp57
 70
     1
102
RTVSPropertyOp0
 70
     1
102
RTVSPropertyOp1
 70
     1
102
RTVSPropertyOp2
 70
     1
102
RTVSPropertyOp3
 70
     1
102
RTVSPropertyOp4
 70
     1
102
RTVSPropertyOp5
 70
     1
102
RTVSPropertyOp6
 70
     1
102
RTVSPropertyOp7
 70
     1
102
RTVSPropertyOp8
 70
     1
102
RTVSPropertyOp9
 70
     1
102
RTVSPropertyOp10
 70
     1
102
RTVSPropertyOp11
 70
     1
102
RTVSPropertyOp12
 70
     1
102
RTVSPropertyOp13
 70
     1
102
RTVSPropertyOp14
 70
     1
102
RTVSPropertyOp15
 70
     1
102
RTVSPropertyOp16
 70
     1
102
RTVSPropertyOp17
 70
     1
102
RTVSPropertyOp18
 70
     1
102
RTVSPropertyOp19
 70
     1
102
RTVSPropertyOp20
 70
     1
102
RTVSPropertyOp21
 70
     1
102
RTVSPropertyOp22
 70
     1
102
RTVSPropertyOp23
 70
     1
102
RTVSPropertyOp24
 70
     1
102
RTVSPropertyOp25
 70
     1
102
RTVSPropertyOp26
 70
     1
102
RTVSPropertyOp27
 70
     1
102
RTVSPropertyOp28
 70
     1
102
RTVSPropertyOp29
 70
     1
102
RTVSPropertyOp30
 70
     1
102
RTVSPropertyOp31
 70
     1
102
RTVSPropertyOp32
 70
     1
102
RTVSPropertyOp33
 70
     1
102
RTVSPropertyOp34
 70
     1
102
RTVSPropertyOp35
 70
     1
102
RTVSPropertyOp36
 70
     1
102
RTVSPropertyOp37
 70
     1
102
RTVSPropertyOp38
 70
     1
102
RTVSPropertyOp39
 70
     1
102
RTVSPropertyOp40
 70
     1
102
RTVSPropertyOp41
 70
     1
102
RTVSPropertyOp42
 70
     1
102
RTVSPropertyOp43
 70
     1
102
RTVSPropertyOp44
 70
     1
102
RTVSPropertyOp45
 70
     1
102
RTVSPropertyOp46
 70
     1
102
RTVSPropertyOp47
 70
     1
102
RTVSPropertyOp48
 70
     1
102
RTVSPropertyOp49
 70
     1
102
RTVSPropertyOp50
 70
     1
102
RTVSPropertyOp51
 70
     0
102
RTVSPropertyOp52
 70
     0
102
RTVSPropertyOp53
 70
     1
102
RTVSPropertyOp54
 70
     1
102
RTVSPropertyOp55
 70
     1
102
RTVSPropertyOp56
 70
     1
102
RTVSPropertyOp57
 70
     1
102
RTVSPropertyOp58
 70
     1
102
RTVSPropertyOp59
 70
     1
102
RTVSPropertyOp60
 70
     1
102
RTVSPropertyOp61
 70
     1
102
RTVSPropertyOp62
 70
     1
  0
XRECORD
  5
3D2
102
{ACAD_REACTORS
330
3D1
102
}
330
3D1
100
AcDbXrecord
280
     1
102
RTVSPost2010Prop28
280
     0
102
RTVSPost2010PropOp28
 70
     1
102
RTVSPost2010Prop29
280
     1
102
RTVSPost2010PropOp29
 70
     1
102
RTVSPost2010Prop30
280
     1
102
RTVSPost2010PropOp30
 70
     1
102
RTVSPost2010Prop31
280
     0
102
RTVSPost2010PropOp31
 70
     1
102
RTVSPost2010Prop32
280
     0
102
RTVSPost2010PropOp32
 70
     1
102
RTVSPost2010Prop33
280
     0
102
RTVSPost2010PropOp33
 70
     1
102
RTVSPost2010Prop34
280
     0
102
RTVSPost2010PropOp34
 70
     1
102
RTVSPost2010Prop35
280
     0
102
RTVSPost2010PropOp35
 70
     1
102
RTVSPost2010Prop36
280
     0
102
RTVSPost2010PropOp36
 70
     1
102
RTVSPost2010Prop37
 90
       50
102
RTVSPost2010PropOp37
 70
     1
102
RTVSPost2010Prop38
140
0.0
102
RTVSPost2010PropOp38
 70
     1
102
RTVSPost2010Prop39
140
1.0
102
RTVSPost2010PropOp39
 70
     1
102
RTVSPost2010Prop40
 90
        0
102
RTVSPost2010PropOp40
 70
     1
102
RTVSPost2010Prop41ColorIndex
 90
       18
102
RTVSPost2010Prop41ColorRGB
 90
        0
102
RTVSPost2010PropOp41
 70
     1
102
RTVSPost2010Prop42
 90
       50
102
RTVSPost2010PropOp42
 70
     1
102
RTVSPost2010Prop43
 90
        3
102
RTVSPost2010PropOp43
 70
     1
102
RTVSPost2010Prop44ColorIndex
 90
        5
102
RTVSPost2010Prop44ColorRGB
 90
      255
102
RTVSPost2010PropOp44
 70
     1
102
RTVSPost2010Prop45
280
     0
102
RTVSPost2010PropOp45
 70
     1
102
RTVSPost2010Prop46
 90
       50
102
RTVSPost2010PropOp46
 70
     1
102
RTVSPost2010Prop47
 90
       50
102
RTVSPost2010PropOp47
 70
     1
102
RTVSPost2010Prop48
 90
       50
102
RTVSPost2010PropOp48
 70
     1
102
RTVSPost2010Prop49
280
     0
102
RTVSPost2010PropOp49
 70
     1
102
RTVSPost2010Prop50
 90
       50
102
RTVSPost2010PropOp50
 70
     1
102
RTVSPost2010Prop51ColorIndex
 90
      256
102
RTVSPost2010Prop51ColorRGB
 90
-16777216
102
RTVSPost2010PropOp51
 70
     0
102
RTVSPost2010Prop52
140
1.0
102
RTVSPost2010PropOp52
 70
     0
102
RTVSPost2010Prop53
 90
        2
102
RTVSPost2010PropOp53
 70
     1
102
RTVSPost2010Prop54
  1
strokes_ogs.tif
102
RTVSPost2010PropOp54
 70
     1
102
RTVSPost2010Prop55
280
     0
102
RTVSPost2010PropOp55
 70
     1
102
RTVSPost2010Prop56
140
1.0
102
RTVSPost2010PropOp56
 70
     1
102
RTVSPost2010Prop57
140
1.0
102
RTVSPost2010PropOp57
 70
     1
102
RTVSPropertyOp0
 70
     1
102
RTVSPropertyOp1
 70
     1
102
RTVSPropertyOp2
 70
     1
102
RTVSPropertyOp3
 70
     1
102
RTVSPropertyOp4
 70
     1
102
RTVSPropertyOp5
 70
     1
102
RTVSPropertyOp6
 70
     1
102
RTVSPropertyOp7
 70
     1
102
RTVSPropertyOp8
 70
     1
102
RTVSPropertyOp9
 70
     1
102
RTVSPropertyOp10
 70
     1
102
RTVSPropertyOp11
 70
     1
102
RTVSPropertyOp12
 70
     1
102
RTVSPropertyOp13
 70
     1
102
RTVSPropertyOp14
 70
     1
102
RTVSPropertyOp15
 70
     1
102
RTVSPropertyOp16
 70
     1
102
RTVSPropertyOp17
 70
     1
102
RTVSPropertyOp18
 70
     1
102
RTVSPropertyOp19
 70
     1
102
RTVSPropertyOp20
 70
     1
102
RTVSPropertyOp21
 70
     1
102
RTVSPropertyOp22
 70
     1
102
RTVSPropertyOp23
 70
     1
102
RTVSPropertyOp24
 70
     1
102
RTVSPropertyOp25
 70
     1
102
RTVSPropertyOp26
 70
     1
102
RTVSPropertyOp27
 70
     1
102
RTVSPropertyOp28
 70
     1
102
RTVSPropertyOp29
 70
     1
102
RTVSPropertyOp30
 70
     1
102
RTVSPropertyOp31
 70
     1
102
RTVSPropertyOp32
 70
     1
102
RTVSPropertyOp33
 70
     1
102
RTVSPropertyOp34
 70
     1
102
RTVSPropertyOp35
 70
     1
102
RTVSPropertyOp36
 70
     1
102
RTVSPropertyOp37
 70
     1
102
RTVSPropertyOp38
 70
     1
102
RTVSPropertyOp39
 70
     1
102
RTVSPropertyOp40
 70
     1
102
RTVSPropertyOp41
 70
     1
102
RTVSPropertyOp42
 70
     1
102
RTVSPropertyOp43
 70
     1
102
RTVSPropertyOp44
 70
     1
102
RTVSPropertyOp45
 70
     1
102
RTVSPropertyOp46
 70
     1
102
RTVSPropertyOp47
 70
     1
102
RTVSPropertyOp48
 70
     1
102
RTVSPropertyOp49
 70
     1
102
RTVSPropertyOp50
 70
     1
102
RTVSPropertyOp51
 70
     0
102
RTVSPropertyOp52
 70
     0
102
RTVSPropertyOp53
 70
     1
102
RTVSPropertyOp54
 70
     1
102
RTVSPropertyOp55
 70
     1
102
RTVSPropertyOp56
 70
     1
102
RTVSPropertyOp57
 70
     1
102
RTVSPropertyOp58
 70
     1
102
RTVSPropertyOp59
 70
     1
102
RTVSPropertyOp60
 70
     1
102
RTVSPropertyOp61
 70
     1
102
RTVSPropertyOp62
 70
     1
  0
XRECORD
  5
3D4
102
{ACAD_REACTORS
330
3D3
102
}
330
3D3
100
AcDbXrecord
280
     1
102
RTVSPost2010Prop28
280
     0
102
RTVSPost2010PropOp28
 70
     1
102
RTVSPost2010Prop29
280
     1
102
RTVSPost2010PropOp29
 70
     1
102
RTVSPost2010Prop30
280
     1
102
RTVSPost2010PropOp30
 70
     1
102
RTVSPost2010Prop31
280
     0
102
RTVSPost2010PropOp31
 70
     1
102
RTVSPost2010Prop32
280
     0
102
RTVSPost2010PropOp32
 70
     1
102
RTVSPost2010Prop33
280
     0
102
RTVSPost2010PropOp33
 70
     1
102
RTVSPost2010Prop34
280
     0
102
RTVSPost2010PropOp34
 70
     1
102
RTVSPost2010Prop35
280
     0
102
RTVSPost2010PropOp35
 70
     1
102
RTVSPost2010Prop36
280
     0
102
RTVSPost2010PropOp36
 70
     1
102
RTVSPost2010Prop37
 90
       50
102
RTVSPost2010PropOp37
 70
     1
102
RTVSPost2010Prop38
140
0.0
102
RTVSPost2010PropOp38
 70
     1
102
RTVSPost2010Prop39
140
1.0
102
RTVSPost2010PropOp39
 70
     1
102
RTVSPost2010Prop40
 90
        0
102
RTVSPost2010PropOp40
 70
     1
102
RTVSPost2010Prop41ColorIndex
 90
       18
102
RTVSPost2010Prop41ColorRGB
 90
        0
102
RTVSPost2010PropOp41
 70
     1
102
RTVSPost2010Prop42
 90
       50
102
RTVSPost2010PropOp42
 70
     1
102
RTVSPost2010Prop43
 90
        3
102
RTVSPost2010PropOp43
 70
     1
102
RTVSPost2010Prop44ColorIndex
 90
        5
102
RTVSPost2010Prop44ColorRGB
 90
      255
102
RTVSPost2010PropOp44
 70
     1
102
RTVSPost2010Prop45
280
     0
102
RTVSPost2010PropOp45
 70
     1
102
RTVSPost2010Prop46
 90
       50
102
RTVSPost2010PropOp46
 70
     1
102
RTVSPost2010Prop47
 90
       50
102
RTVSPost2010PropOp47
 70
     1
102
RTVSPost2010Prop48
 90
       50
102
RTVSPost2010PropOp48
 70
     1
102
RTVSPost2010Prop49
280
     0
102
RTVSPost2010PropOp49
 70
     1
102
RTVSPost2010Prop50
 90
       50
102
RTVSPost2010PropOp50
 70
     1
102
RTVSPost2010Prop51ColorIndex
 90
      256
102
RTVSPost2010Prop51ColorRGB
 90
-16777216
102
RTVSPost2010PropOp51
 70
     0
102
RTVSPost2010Prop52
140
1.0
102
RTVSPost2010PropOp52
 70
     0
102
RTVSPost2010Prop53
 90
        2
102
RTVSPost2010PropOp53
 70
     1
102
RTVSPost2010Prop54
  1
strokes_ogs.tif
102
RTVSPost2010PropOp54
 70
     1
102
RTVSPost2010Prop55
280
     0
102
RTVSPost2010PropOp55
 70
     1
102
RTVSPost2010Prop56
140
1.0
102
RTVSPost2010PropOp56
 70
     1
102
RTVSPost2010Prop57
140
1.0
102
RTVSPost2010PropOp57
 70
     1
102
RTVSPropertyOp0
 70
     1
102
RTVSPropertyOp1
 70
     1
102
RTVSPropertyOp2
 70
     1
102
RTVSPropertyOp3
 70
     1
102
RTVSPropertyOp4
 70
     1
102
RTVSPropertyOp5
 70
     1
102
RTVSPropertyOp6
 70
     1
102
RTVSPropertyOp7
 70
     1
102
RTVSPropertyOp8
 70
     1
102
RTVSPropertyOp9
 70
     1
102
RTVSPropertyOp10
 70
     1
102
RTVSPropertyOp11
 70
     1
102
RTVSPropertyOp12
 70
     1
102
RTVSPropertyOp13
 70
     1
102
RTVSPropertyOp14
 70
     1
102
RTVSPropertyOp15
 70
     1
102
RTVSPropertyOp16
 70
     1
102
RTVSPropertyOp17
 70
     1
102
RTVSPropertyOp18
 70
     1
102
RTVSPropertyOp19
 70
     1
102
RTVSPropertyOp20
 70
     1
102
RTVSPropertyOp21
 70
     1
102
RTVSPropertyOp22
 70
     1
102
RTVSPropertyOp23
 70
     1
102
RTVSPropertyOp24
 70
     1
102
RTVSPropertyOp25
 70
     1
102
RTVSPropertyOp26
 70
     1
102
RTVSPropertyOp27
 70
     1
102
RTVSPropertyOp28
 70
     1
102
RTVSPropertyOp29
 70
     1
102
RTVSPropertyOp30
 70
     1
102
RTVSPropertyOp31
 70
     1
102
RTVSPropertyOp32
 70
     1
102
RTVSPropertyOp33
 70
     1
102
RTVSPropertyOp34
 70
     1
102
RTVSPropertyOp35
 70
     1
102
RTVSPropertyOp36
 70
     1
102
RTVSPropertyOp37
 70
     1
102
RTVSPropertyOp38
 70
     1
102
RTVSPropertyOp39
 70
     1
102
RTVSPropertyOp40
 70
     1
102
RTVSPropertyOp41
 70
     1
102
RTVSPropertyOp42
 70
     1
102
RTVSPropertyOp43
 70
     1
102
RTVSPropertyOp44
 70
     1
102
RTVSPropertyOp45
 70
     1
102
RTVSPropertyOp46
 70
     1
102
RTVSPropertyOp47
 70
     1
102
RTVSPropertyOp48
 70
     1
102
RTVSPropertyOp49
 70
     1
102
RTVSPropertyOp50
 70
     1
102
RTVSPropertyOp51
 70
     0
102
RTVSPropertyOp52
 70
     0
102
RTVSPropertyOp53
 70
     1
102
RTVSPropertyOp54
 70
     1
102
RTVSPropertyOp55
 70
     1
102
RTVSPropertyOp56
 70
     1
102
RTVSPropertyOp57
 70
     1
102
RTVSPropertyOp58
 70
     1
102
RTVSPropertyOp59
 70
     1
102
RTVSPropertyOp60
 70
     1
102
RTVSPropertyOp61
 70
     1
102
RTVSPropertyOp62
 70
     1
  0
XRECORD
  5
3C4
102
{ACAD_REACTORS
330
3C3
102
}
330
3C3
100
AcDbXrecord
280
     1
102
RTVSPost2010Prop28
280
     0
102
RTVSPost2010PropOp28
 70
     1
102
RTVSPost2010Prop29
280
     1
102
RTVSPost2010PropOp29
 70
     1
102
RTVSPost2010Prop30
280
     1
102
RTVSPost2010PropOp30
 70
     1
102
RTVSPost2010Prop31
280
     0
102
RTVSPost2010PropOp31
 70
     1
102
RTVSPost2010Prop32
280
     0
102
RTVSPost2010PropOp32
 70
     1
102
RTVSPost2010Prop33
280
     0
102
RTVSPost2010PropOp33
 70
     1
102
RTVSPost2010Prop34
280
     0
102
RTVSPost2010PropOp34
 70
     1
102
RTVSPost2010Prop35
280
     0
102
RTVSPost2010PropOp35
 70
     1
102
RTVSPost2010Prop36
280
     0
102
RTVSPost2010PropOp36
 70
     1
102
RTVSPost2010Prop37
 90
       50
102
RTVSPost2010PropOp37
 70
     1
102
RTVSPost2010Prop38
140
0.0
102
RTVSPost2010PropOp38
 70
     1
102
RTVSPost2010Prop39
140
1.0
102
RTVSPost2010PropOp39
 70
     1
102
RTVSPost2010Prop40
 90
        0
102
RTVSPost2010PropOp40
 70
     1
102
RTVSPost2010Prop41ColorIndex
 90
       18
102
RTVSPost2010Prop41ColorRGB
 90
        0
102
RTVSPost2010PropOp41
 70
     1
102
RTVSPost2010Prop42
 90
       50
102
RTVSPost2010PropOp42
 70
     1
102
RTVSPost2010Prop43
 90
        3
102
RTVSPost2010PropOp43
 70
     1
102
RTVSPost2010Prop44ColorIndex
 90
        5
102
RTVSPost2010Prop44ColorRGB
 90
      255
102
RTVSPost2010PropOp44
 70
     1
102
RTVSPost2010Prop45
280
     0
102
RTVSPost2010PropOp45
 70
     1
102
RTVSPost2010Prop46
 90
       50
102
RTVSPost2010PropOp46
 70
     1
102
RTVSPost2010Prop47
 90
       50
102
RTVSPost2010PropOp47
 70
     1
102
RTVSPost2010Prop48
 90
       50
102
RTVSPost2010PropOp48
 70
     1
102
RTVSPost2010Prop49
280
     0
102
RTVSPost2010PropOp49
 70
     1
102
RTVSPost2010Prop50
 90
       50
102
RTVSPost2010PropOp50
 70
     1
102
RTVSPost2010Prop51ColorIndex
 90
      256
102
RTVSPost2010Prop51ColorRGB
 90
-16777216
102
RTVSPost2010PropOp51
 70
     0
102
RTVSPost2010Prop52
140
1.0
102
RTVSPost2010PropOp52
 70
     0
102
RTVSPost2010Prop53
 90
        2
102
RTVSPost2010PropOp53
 70
     1
102
RTVSPost2010Prop54
  1
strokes_ogs.tif
102
RTVSPost2010PropOp54
 70
     1
102
RTVSPost2010Prop55
280
     0
102
RTVSPost2010PropOp55
 70
     1
102
RTVSPost2010Prop56
140
1.0
102
RTVSPost2010PropOp56
 70
     1
102
RTVSPost2010Prop57
140
1.0
102
RTVSPost2010PropOp57
 70
     1
102
RTVSPropertyOp0
 70
     1
102
RTVSPropertyOp1
 70
     1
102
RTVSPropertyOp2
 70
     1
102
RTVSPropertyOp3
 70
     1
102
RTVSPropertyOp4
 70
     1
102
RTVSPropertyOp5
 70
     1
102
RTVSPropertyOp6
 70
     1
102
RTVSPropertyOp7
 70
     1
102
RTVSPropertyOp8
 70
     1
102
RTVSPropertyOp9
 70
     1
102
RTVSPropertyOp10
 70
     1
102
RTVSPropertyOp11
 70
     1
102
RTVSPropertyOp12
 70
     1
102
RTVSPropertyOp13
 70
     1
102
RTVSPropertyOp14
 70
     1
102
RTVSPropertyOp15
 70
     1
102
RTVSPropertyOp16
 70
     1
102
RTVSPropertyOp17
 70
     1
102
RTVSPropertyOp18
 70
     1
102
RTVSPropertyOp19
 70
     1
102
RTVSPropertyOp20
 70
     1
102
RTVSPropertyOp21
 70
     1
102
RTVSPropertyOp22
 70
     1
102
RTVSPropertyOp23
 70
     1
102
RTVSPropertyOp24
 70
     1
102
RTVSPropertyOp25
 70
     1
102
RTVSPropertyOp26
 70
     1
102
RTVSPropertyOp27
 70
     1
102
RTVSPropertyOp28
 70
     1
102
RTVSPropertyOp29
 70
     1
102
RTVSPropertyOp30
 70
     1
102
RTVSPropertyOp31
 70
     1
102
RTVSPropertyOp32
 70
     1
102
RTVSPropertyOp33
 70
     1
102
RTVSPropertyOp34
 70
     1
102
RTVSPropertyOp35
 70
     1
102
RTVSPropertyOp36
 70
     1
102
RTVSPropertyOp37
 70
     1
102
RTVSPropertyOp38
 70
     1
102
RTVSPropertyOp39
 70
     1
102
RTVSPropertyOp40
 70
     1
102
RTVSPropertyOp41
 70
     1
102
RTVSPropertyOp42
 70
     1
102
RTVSPropertyOp43
 70
     1
102
RTVSPropertyOp44
 70
     1
102
RTVSPropertyOp45
 70
     1
102
RTVSPropertyOp46
 70
     1
102
RTVSPropertyOp47
 70
     1
102
RTVSPropertyOp48
 70
     1
102
RTVSPropertyOp49
 70
     1
102
RTVSPropertyOp50
 70
     1
102
RTVSPropertyOp51
 70
     0
102
RTVSPropertyOp52
 70
     0
102
RTVSPropertyOp53
 70
     1
102
RTVSPropertyOp54
 70
     1
102
RTVSPropertyOp55
 70
     1
102
RTVSPropertyOp56
 70
     1
102
RTVSPropertyOp57
 70
     1
102
RTVSPropertyOp58
 70
     1
102
RTVSPropertyOp59
 70
     1
102
RTVSPropertyOp60
 70
     1
102
RTVSPropertyOp61
 70
     1
102
RTVSPropertyOp62
 70
     1
  0
XRECORD
  5
3B6
102
{ACAD_REACTORS
330
3B5
102
}
330
3B5
100
AcDbXrecord
280
     1
102
RTVSPost2010Prop28
280
     0
102
RTVSPost2010PropOp28
 70
     1
102
RTVSPost2010Prop29
280
     1
102
RTVSPost2010PropOp29
 70
     1
102
RTVSPost2010Prop30
280
     1
102
RTVSPost2010PropOp30
 70
     1
102
RTVSPost2010Prop31
280
     0
102
RTVSPost2010PropOp31
 70
     1
102
RTVSPost2010Prop32
280
     0
102
RTVSPost2010PropOp32
 70
     1
102
RTVSPost2010Prop33
280
     0
102
RTVSPost2010PropOp33
 70
     1
102
RTVSPost2010Prop34
280
     0
102
RTVSPost2010PropOp34
 70
     1
102
RTVSPost2010Prop35
280
     0
102
RTVSPost2010PropOp35
 70
     1
102
RTVSPost2010Prop36
280
     0
102
RTVSPost2010PropOp36
 70
     1
102
RTVSPost2010Prop37
 90
       50
102
RTVSPost2010PropOp37
 70
     1
102
RTVSPost2010Prop38
140
0.0
102
RTVSPost2010PropOp38
 70
     1
102
RTVSPost2010Prop39
140
1.0
102
RTVSPost2010PropOp39
 70
     1
102
RTVSPost2010Prop40
 90
        0
102
RTVSPost2010PropOp40
 70
     1
102
RTVSPost2010Prop41ColorIndex
 90
       18
102
RTVSPost2010Prop41ColorRGB
 90
        0
102
RTVSPost2010PropOp41
 70
     1
102
RTVSPost2010Prop42
 90
       50
102
RTVSPost2010PropOp42
 70
     1
102
RTVSPost2010Prop43
 90
        3
102
RTVSPost2010PropOp43
 70
     1
102
RTVSPost2010Prop44ColorIndex
 90
        5
102
RTVSPost2010Prop44ColorRGB
 90
      255
102
RTVSPost2010PropOp44
 70
     1
102
RTVSPost2010Prop45
280
     0
102
RTVSPost2010PropOp45
 70
     1
102
RTVSPost2010Prop46
 90
       50
102
RTVSPost2010PropOp46
 70
     1
102
RTVSPost2010Prop47
 90
       50
102
RTVSPost2010PropOp47
 70
     1
102
RTVSPost2010Prop48
 90
       50
102
RTVSPost2010PropOp48
 70
     1
102
RTVSPost2010Prop49
280
     0
102
RTVSPost2010PropOp49
 70
     1
102
RTVSPost2010Prop50
 90
       50
102
RTVSPost2010PropOp50
 70
     1
102
RTVSPost2010Prop51ColorIndex
 90
      256
102
RTVSPost2010Prop51ColorRGB
 90
-16777216
102
RTVSPost2010PropOp51
 70
     0
102
RTVSPost2010Prop52
140
1.0
102
RTVSPost2010PropOp52
 70
     0
102
RTVSPost2010Prop53
 90
        2
102
RTVSPost2010PropOp53
 70
     1
102
RTVSPost2010Prop54
  1
strokes_ogs.tif
102
RTVSPost2010PropOp54
 70
     1
102
RTVSPost2010Prop55
280
     0
102
RTVSPost2010PropOp55
 70
     1
102
RTVSPost2010Prop56
140
1.0
102
RTVSPost2010PropOp56
 70
     1
102
RTVSPost2010Prop57
140
1.0
102
RTVSPost2010PropOp57
 70
     1
102
RTVSPropertyOp0
 70
     1
102
RTVSPropertyOp1
 70
     1
102
RTVSPropertyOp2
 70
     1
102
RTVSPropertyOp3
 70
     1
102
RTVSPropertyOp4
 70
     1
102
RTVSPropertyOp5
 70
     1
102
RTVSPropertyOp6
 70
     1
102
RTVSPropertyOp7
 70
     1
102
RTVSPropertyOp8
 70
     1
102
RTVSPropertyOp9
 70
     1
102
RTVSPropertyOp10
 70
     1
102
RTVSPropertyOp11
 70
     1
102
RTVSPropertyOp12
 70
     1
102
RTVSPropertyOp13
 70
     1
102
RTVSPropertyOp14
 70
     1
102
RTVSPropertyOp15
 70
     1
102
RTVSPropertyOp16
 70
     1
102
RTVSPropertyOp17
 70
     1
102
RTVSPropertyOp18
 70
     1
102
RTVSPropertyOp19
 70
     1
102
RTVSPropertyOp20
 70
     1
102
RTVSPropertyOp21
 70
     1
102
RTVSPropertyOp22
 70
     1
102
RTVSPropertyOp23
 70
     1
102
RTVSPropertyOp24
 70
     1
102
RTVSPropertyOp25
 70
     1
102
RTVSPropertyOp26
 70
     1
102
RTVSPropertyOp27
 70
     1
102
RTVSPropertyOp28
 70
     1
102
RTVSPropertyOp29
 70
     1
102
RTVSPropertyOp30
 70
     1
102
RTVSPropertyOp31
 70
     1
102
RTVSPropertyOp32
 70
     1
102
RTVSPropertyOp33
 70
     1
102
RTVSPropertyOp34
 70
     1
102
RTVSPropertyOp35
 70
     1
102
RTVSPropertyOp36
 70
     1
102
RTVSPropertyOp37
 70
     1
102
RTVSPropertyOp38
 70
     1
102
RTVSPropertyOp39
 70
     1
102
RTVSPropertyOp40
 70
     1
102
RTVSPropertyOp41
 70
     1
102
RTVSPropertyOp42
 70
     1
102
RTVSPropertyOp43
 70
     1
102
RTVSPropertyOp44
 70
     1
102
RTVSPropertyOp45
 70
     1
102
RTVSPropertyOp46
 70
     1
102
RTVSPropertyOp47
 70
     1
102
RTVSPropertyOp48
 70
     1
102
RTVSPropertyOp49
 70
     1
102
RTVSPropertyOp50
 70
     1
102
RTVSPropertyOp51
 70
     0
102
RTVSPropertyOp52
 70
     0
102
RTVSPropertyOp53
 70
     1
102
RTVSPropertyOp54
 70
     1
102
RTVSPropertyOp55
 70
     1
102
RTVSPropertyOp56
 70
     1
102
RTVSPropertyOp57
 70
     1
102
RTVSPropertyOp58
 70
     1
102
RTVSPropertyOp59
 70
     1
102
RTVSPropertyOp60
 70
     1
102
RTVSPropertyOp61
 70
     1
102
RTVSPropertyOp62
 70
     1
  0
XRECORD
  5
3D6
102
{ACAD_REACTORS
330
3D5
102
}
330
3D5
100
AcDbXrecord
280
     1
102
RTVSPost2010Prop28
280
     0
102
RTVSPost2010PropOp28
 70
     1
102
RTVSPost2010Prop29
280
     1
102
RTVSPost2010PropOp29
 70
     1
102
RTVSPost2010Prop30
280
     1
102
RTVSPost2010PropOp30
 70
     1
102
RTVSPost2010Prop31
280
     0
102
RTVSPost2010PropOp31
 70
     1
102
RTVSPost2010Prop32
280
     0
102
RTVSPost2010PropOp32
 70
     1
102
RTVSPost2010Prop33
280
     0
102
RTVSPost2010PropOp33
 70
     1
102
RTVSPost2010Prop34
280
     0
102
RTVSPost2010PropOp34
 70
     1
102
RTVSPost2010Prop35
280
     0
102
RTVSPost2010PropOp35
 70
     1
102
RTVSPost2010Prop36
280
     0
102
RTVSPost2010PropOp36
 70
     1
102
RTVSPost2010Prop37
 90
       50
102
RTVSPost2010PropOp37
 70
     1
102
RTVSPost2010Prop38
140
0.0
102
RTVSPost2010PropOp38
 70
     1
102
RTVSPost2010Prop39
140
1.0
102
RTVSPost2010PropOp39
 70
     1
102
RTVSPost2010Prop40
 90
        0
102
RTVSPost2010PropOp40
 70
     1
102
RTVSPost2010Prop41ColorIndex
 90
       18
102
RTVSPost2010Prop41ColorRGB
 90
        0
102
RTVSPost2010PropOp41
 70
     1
102
RTVSPost2010Prop42
 90
       50
102
RTVSPost2010PropOp42
 70
     1
102
RTVSPost2010Prop43
 90
        3
102
RTVSPost2010PropOp43
 70
     1
102
RTVSPost2010Prop44ColorIndex
 90
        5
102
RTVSPost2010Prop44ColorRGB
 90
      255
102
RTVSPost2010PropOp44
 70
     1
102
RTVSPost2010Prop45
280
     0
102
RTVSPost2010PropOp45
 70
     1
102
RTVSPost2010Prop46
 90
       50
102
RTVSPost2010PropOp46
 70
     1
102
RTVSPost2010Prop47
 90
       50
102
RTVSPost2010PropOp47
 70
     1
102
RTVSPost2010Prop48
 90
       50
102
RTVSPost2010PropOp48
 70
     1
102
RTVSPost2010Prop49
280
     0
102
RTVSPost2010PropOp49
 70
     1
102
RTVSPost2010Prop50
 90
       50
102
RTVSPost2010PropOp50
 70
     1
102
RTVSPost2010Prop51ColorIndex
 90
      256
102
RTVSPost2010Prop51ColorRGB
 90
-16777216
102
RTVSPost2010PropOp51
 70
     0
102
RTVSPost2010Prop52
140
1.0
102
RTVSPost2010PropOp52
 70
     0
102
RTVSPost2010Prop53
 90
        2
102
RTVSPost2010PropOp53
 70
     1
102
RTVSPost2010Prop54
  1
strokes_ogs.tif
102
RTVSPost2010PropOp54
 70
     1
102
RTVSPost2010Prop55
280
     0
102
RTVSPost2010PropOp55
 70
     1
102
RTVSPost2010Prop56
140
1.0
102
RTVSPost2010PropOp56
 70
     1
102
RTVSPost2010Prop57
140
1.0
102
RTVSPost2010PropOp57
 70
     1
102
RTVSPropertyOp0
 70
     1
102
RTVSPropertyOp1
 70
     1
102
RTVSPropertyOp2
 70
     1
102
RTVSPropertyOp3
 70
     1
102
RTVSPropertyOp4
 70
     1
102
RTVSPropertyOp5
 70
     1
102
RTVSPropertyOp6
 70
     1
102
RTVSPropertyOp7
 70
     1
102
RTVSPropertyOp8
 70
     1
102
RTVSPropertyOp9
 70
     1
102
RTVSPropertyOp10
 70
     1
102
RTVSPropertyOp11
 70
     1
102
RTVSPropertyOp12
 70
     1
102
RTVSPropertyOp13
 70
     1
102
RTVSPropertyOp14
 70
     1
102
RTVSPropertyOp15
 70
     1
102
RTVSPropertyOp16
 70
     1
102
RTVSPropertyOp17
 70
     1
102
RTVSPropertyOp18
 70
     1
102
RTVSPropertyOp19
 70
     1
102
RTVSPropertyOp20
 70
     1
102
RTVSPropertyOp21
 70
     1
102
RTVSPropertyOp22
 70
     1
102
RTVSPropertyOp23
 70
     1
102
RTVSPropertyOp24
 70
     1
102
RTVSPropertyOp25
 70
     1
102
RTVSPropertyOp26
 70
     1
102
RTVSPropertyOp27
 70
     1
102
RTVSPropertyOp28
 70
     1
102
RTVSPropertyOp29
 70
     1
102
RTVSPropertyOp30
 70
     1
102
RTVSPropertyOp31
 70
     1
102
RTVSPropertyOp32
 70
     1
102
RTVSPropertyOp33
 70
     1
102
RTVSPropertyOp34
 70
     1
102
RTVSPropertyOp35
 70
     1
102
RTVSPropertyOp36
 70
     1
102
RTVSPropertyOp37
 70
     1
102
RTVSPropertyOp38
 70
     1
102
RTVSPropertyOp39
 70
     1
102
RTVSPropertyOp40
 70
     1
102
RTVSPropertyOp41
 70
     1
102
RTVSPropertyOp42
 70
     1
102
RTVSPropertyOp43
 70
     1
102
RTVSPropertyOp44
 70
     1
102
RTVSPropertyOp45
 70
     1
102
RTVSPropertyOp46
 70
     1
102
RTVSPropertyOp47
 70
     1
102
RTVSPropertyOp48
 70
     1
102
RTVSPropertyOp49
 70
     1
102
RTVSPropertyOp50
 70
     1
102
RTVSPropertyOp51
 70
     0
102
RTVSPropertyOp52
 70
     0
102
RTVSPropertyOp53
 70
     1
102
RTVSPropertyOp54
 70
     1
102
RTVSPropertyOp55
 70
     1
102
RTVSPropertyOp56
 70
     1
102
RTVSPropertyOp57
 70
     1
102
RTVSPropertyOp58
 70
     1
102
RTVSPropertyOp59
 70
     1
102
RTVSPropertyOp60
 70
     1
102
RTVSPropertyOp61
 70
     1
102
RTVSPropertyOp62
 70
     1
  0
ENDSEC
  0
EOF
