  0
SECTION
  2
HEADER
  9
$ACADVER
  1
AC1018
  9
$ACADMAINTVER
 70
   104
  9
$DWGCODEPAGE
  3
ANSI_1250
  9
$LASTSAVEDBY
  1
wq7085
  9
$INSBASE
 10
0.0
 20
0.0
 30
0.0
  9
$EXTMIN
 10
188.6658343333333
 20
118.534924
 30
0.0
  9
$EXTMAX
 10
424.604465
 20
345.2288016666667
 30
0.0
  9
$LIMMIN
 10
-0.5
 20
-0.5
  9
$LIMMAX
 10
5.0
 20
5.0
  9
$ORTHOMODE
 70
     0
  9
$REGENMODE
 70
     1
  9
$FILLMODE
 70
     1
  9
$QTEXTMODE
 70
     0
  9
$MIRRTEXT
 70
     1
  9
$LTSCALE
 40
1.0
  9
$ATTMODE
 70
     1
  9
$TEXTSIZE
 40
0.2
  9
$TRACEWID
 40
0.05
  9
$TEXTSTYLE
  7
Standard
  9
$CLAYER
  8
0
  9
$CELTYPE
  6
ByLayer
  9
$CECOLOR
 62
   256
  9
$CELTSCALE
 40
1.0
  9
$DISPSILH
 70
     0
  9
$DIMSCALE
 40
1.0
  9
$DIMASZ
 40
0.18
  9
$DIMEXO
 40
0.0625
  9
$DIMDLI
 40
0.38
  9
$DIMRND
 40
0.0
  9
$DIMDLE
 40
0.0
  9
$DIMEXE
 40
0.18
  9
$DIMTP
 40
0.0
  9
$DIMTM
 40
0.0
  9
$DIMTXT
 40
0.18
  9
$DIMCEN
 40
0.09
  9
$DIMTSZ
 40
0.0
  9
$DIMTOL
 70
     0
  9
$DIMLIM
 70
     0
  9
$DIMTIH
 70
     1
  9
$DIMTOH
 70
     1
  9
$DIMSE1
 70
     0
  9
$DIMSE2
 70
     0
  9
$DIMTAD
 70
     0
  9
$DIMZIN
 70
     0
  9
$DIMBLK
  1

  9
$DIMASO
 70
     1
  9
$DIMSHO
 70
     1
  9
$DIMPOST
  1

  9
$DIMAPOST
  1

  9
$DIMALT
 70
     0
  9
$DIMALTD
 70
     2
  9
$DIMALTF
 40
25.4
  9
$DIMLFAC
 40
1.0
  9
$DIMTOFL
 70
     0
  9
$DIMTVP
 40
0.0
  9
$DIMTIX
 70
     0
  9
$DIMSOXD
 70
     0
  9
$DIMSAH
 70
     0
  9
$DIMBLK1
  1

  9
$DIMBLK2
  1

  9
$DIMSTYLE
  2
Standard
  9
$DIMCLRD
 70
     0
  9
$DIMCLRE
 70
     0
  9
$DIMCLRT
 70
     0
  9
$DIMTFAC
 40
1.0
  9
$DIMGAP
 40
0.09
  9
$DIMJUST
 70
     0
  9
$DIMSD1
 70
     0
  9
$DIMSD2
 70
     0
  9
$DIMTOLJ
 70
     1
  9
$DIMTZIN
 70
     0
  9
$DIMALTZ
 70
     0
  9
$DIMALTTZ
 70
     0
  9
$DIMUPT
 70
     0
  9
$DIMDEC
 70
     4
  9
$DIMTDEC
 70
     4
  9
$DIMALTU
 70
     2
  9
$DIMALTTD
 70
     2
  9
$DIMTXSTY
  7
Standard
  9
$DIMAUNIT
 70
     0
  9
$DIMADEC
 70
     0
  9
$DIMALTRND
 40
0.0
  9
$DIMAZIN
 70
     0
  9
$DIMDSEP
 70
    46
  9
$DIMATFIT
 70
     3
  9
$DIMFRAC
 70
     0
  9
$DIMLDRBLK
  1

  9
$DIMLUNIT
 70
     2
  9
$DIMLWD
 70
    -2
  9
$DIMLWE
 70
    -2
  9
$DIMTMOVE
 70
     0
  9
$LUNITS
 70
     2
  9
$LUPREC
 70
     4
  9
$SKETCHINC
 40
0.1
  9
$FILLETRAD
 40
0.5
  9
$AUNITS
 70
     0
  9
$AUPREC
 70
     0
  9
$MENU
  1
.
  9
$ELEVATION
 40
0.0
  9
$PELEVATION
 40
0.0
  9
$THICKNESS
 40
0.0
  9
$LIMCHECK
 70
     0
  9
$CHAMFERA
 40
0.0
  9
$CHAMFERB
 40
0.0
  9
$CHAMFERC
 40
0.0
  9
$CHAMFERD
 40
0.0
  9
$SKPOLY
 70
     0
  9
$TDCREATE
 40
2459065.422858796
  9
$TDUCREATE
 40
2459065.339530116
  9
$TDUPDATE
 40
2459065.423807871
  9
$TDUUPDATE
 40
2459065.340474537
  9
$TDINDWG
 40
0.0003356597
  9
$TDUSRTIMER
 40
0.0003356597
  9
$USRTIMER
 70
     1
  9
$ANGBASE
 50
0.0
  9
$ANGDIR
 70
     0
  9
$PDMODE
 70
     0
  9
$PDSIZE
 40
0.0
  9
$PLINEWID
 40
0.0
  9
$SPLFRAME
 70
     0
  9
$SPLINETYPE
 70
     6
  9
$SPLINESEGS
 70
     8
  9
$HANDSEED
  5
3E4
  9
$SURFTAB1
 70
     6
  9
$SURFTAB2
 70
     6
  9
$SURFTYPE
 70
     6
  9
$SURFU
 70
     6
  9
$SURFV
 70
     6
  9
$UCSBASE
  2

  9
$UCSNAME
  2

  9
$UCSORG
 10
274.404842
 20
288.907994
 30
0.0
  9
$UCSXDIR
 10
1.0
 20
0.0
 30
0.0
  9
$UCSYDIR
 10
0.0
 20
1.0
 30
0.0
  9
$UCSORTHOREF
  2

  9
$UCSORTHOVIEW
 70
     0
  9
$UCSORGTOP
 10
0.0
 20
0.0
 30
0.0
  9
$UCSORGBOTTOM
 10
0.0
 20
0.0
 30
0.0
  9
$UCSORGLEFT
 10
0.0
 20
0.0
 30
0.0
  9
$UCSORGRIGHT
 10
0.0
 20
0.0
 30
0.0
  9
$UCSORGFRONT
 10
0.0
 20
0.0
 30
0.0
  9
$UCSORGBACK
 10
0.0
 20
0.0
 30
0.0
  9
$PUCSBASE
  2

  9
$PUCSNAME
  2

  9
$PUCSORG
 10
0.0
 20
0.0
 30
0.0
  9
$PUCSXDIR
 10
1.0
 20
0.0
 30
0.0
  9
$PUCSYDIR
 10
0.0
 20
1.0
 30
0.0
  9
$PUCSORTHOREF
  2

  9
$PUCSORTHOVIEW
 70
     0
  9
$PUCSORGTOP
 10
0.0
 20
0.0
 30
0.0
  9
$PUCSORGBOTTOM
 10
0.0
 20
0.0
 30
0.0
  9
$PUCSORGLEFT
 10
0.0
 20
0.0
 30
0.0
  9
$PUCSORGRIGHT
 10
0.0
 20
0.0
 30
0.0
  9
$PUCSORGFRONT
 10
0.0
 20
0.0
 30
0.0
  9
$PUCSORGBACK
 10
0.0
 20
0.0
 30
0.0
  9
$USERI1
 70
     0
  9
$USERI2
 70
     0
  9
$USERI3
 70
     0
  9
$USERI4
 70
     0
  9
$USERI5
 70
     0
  9
$USERR1
 40
0.0
  9
$USERR2
 40
0.0
  9
$USERR3
 40
0.0
  9
$USERR4
 40
0.0
  9
$USERR5
 40
0.0
  9
$WORLDVIEW
 70
     1
  9
$SHADEDGE
 70
     3
  9
$SHADEDIF
 70
    70
  9
$TILEMODE
 70
     1
  9
$MAXACTVP
 70
    64
  9
$PINSBASE
 10
0.0
 20
0.0
 30
0.0
  9
$PLIMCHECK
 70
     0
  9
$PEXTMIN
 10
-0.5
 20
-0.5
 30
-0.5
  9
$PEXTMAX
 10
5.0
 20
5.0
 30
5.0
  9
$PLIMMIN
 10
-0.5
 20
-0.5
  9
$PLIMMAX
 10
5.0
 20
5.0
  9
$UNITMODE
 70
     0
  9
$VISRETAIN
 70
     1
  9
$PLINEGEN
 70
     0
  9
$PSLTSCALE
 70
     1
  9
$TREEDEPTH
 70
  3020
  9
$CMLSTYLE
  2
Standard
  9
$CMLJUST
 70
     0
  9
$CMLSCALE
 40
1.0
  9
$PROXYGRAPHICS
 70
     1
  9
$MEASUREMENT
 70
     1
  9
$CELWEIGHT
370
    13
  9
$ENDCAPS
280
     0
  9
$JOINSTYLE
280
     0
  9
$LWDISPLAY
290
     0
  9
$INSUNITS
 70
     4
  9
$HYPERLINKBASE
  1

  9
$STYLESHEET
  1

  9
$XEDIT
290
     1
  9
$CEPSNTYPE
380
     0
  9
$PSTYLEMODE
290
     1
  9
$FINGERPRINTGUID
  2
{5E39350F-CAD0-4C89-846E-83B61B869527}
  9
$VERSIONGUID
  2
{6C350C5B-5C8E-9F4F-AB15-ECC3723A4CC0}
  9
$EXTNAMES
290
     1
  9
$PSVPSCALE
 40
0.0
  9
$OLESTARTUP
290
     0
  9
$SORTENTS
280
   127
  9
$INDEXCTL
280
     0
  9
$HIDETEXT
280
     1
  9
$XCLIPFRAME
290
     0
  9
$HALOGAP
280
     0
  9
$OBSCOLOR
 70
   257
  9
$OBSLTYPE
280
     0
  9
$INTERSECTIONDISPLAY
280
     0
  9
$INTERSECTIONCOLOR
 70
   257
  9
$DIMASSOC
280
     2
  9
$PROJECTNAME
  1

  0
ENDSEC
  0
SECTION
  2
CLASSES
  0
CLASS
  1
ACDBDICTIONARYWDFLT
  2
AcDbDictionaryWithDefault
  3
ObjectDBX Classes
 90
        0
 91
        1
280
     0
281
     0
  0
CLASS
  1
VISUALSTYLE
  2
AcDbVisualStyle
  3
ObjectDBX Classes
 90
     4095
 91
       24
280
     0
281
     0
  0
CLASS
  1
MATERIAL
  2
AcDbMaterial
  3
ObjectDBX Classes
 90
     1153
 91
        3
280
     0
281
     0
  0
CLASS
  1
SCALE
  2
AcDbScale
  3
ObjectDBX Classes
 90
     1153
 91
       33
280
     0
281
     0
  0
CLASS
  1
TABLESTYLE
  2
AcDbTableStyle
  3
ObjectDBX Classes
 90
     4095
 91
        1
280
     0
281
     0
  0
CLASS
  1
MLEADERSTYLE
  2
AcDbMLeaderStyle
  3
ACDB_MLEADERSTYLE_CLASS
 90
     4095
 91
        1
280
     0
281
     0
  0
CLASS
  1
SUN
  2
AcDbSun
  3
SCENEOE
 90
     1153
 91
        0
280
     0
281
     0
  0
CLASS
  1
DIMASSOC
  2
AcDbDimAssoc
  3
"AcDbDimAssoc|Product Desc:     AcDim ARX App For Dimension|Company:          Autodesk, Inc.|WEB Address:      www.autodesk.com"
 90
        0
 91
        7
280
     0
281
     0
  0
CLASS
  1
DICTIONARYVAR
  2
AcDbDictionaryVar
  3
ObjectDBX Classes
 90
        0
 91
        8
280
     0
281
     0
  0
CLASS
  1
CELLSTYLEMAP
  2
AcDbCellStyleMap
  3
ObjectDBX Classes
 90
     1152
 91
        2
280
     0
281
     0
  0
CLASS
  1
ACDBSECTIONVIEWSTYLE
  2
AcDbSectionViewStyle
  3
ObjectDBX Classes
 90
     1025
 91
        1
280
     0
281
     0
  0
CLASS
  1
ACDBDETAILVIEWSTYLE
  2
AcDbDetailViewStyle
  3
ObjectDBX Classes
 90
     1025
 91
        1
280
     0
281
     0
  0
CLASS
  1
SORTENTSTABLE
  2
AcDbSortentsTable
  3
ObjectDBX Classes
 90
        0
 91
        1
280
     0
281
     0
  0
ENDSEC
  0
SECTION
  2
TABLES
  0
TABLE
  2
VPORT
  5
8
330
0
100
AcDbSymbolTable
 70
    16
  0
VPORT
  5
29
330
8
100
AcDbSymbolTableRecord
100
AcDbViewportTableRecord
  2
*Active
 70
     0
 10
0.0
 20
0.0
 11
1.0
 21
1.0
 12
300.5162973336253
 22
291.3993716780403
 13
0.0
 23
0.0
 14
0.5
 24
0.5
 15
0.5
 25
0.5
 16
0.0
 26
0.0
 36
1.0
 17
0.0
 27
0.0
 37
0.0
 40
208.2006410614007
 41
2.292712066905615
 42
50.0
 43
436.820575
 44
-436.820575
 50
0.0
 51
0.0
 71
     0
 72
   100
 73
     1
 74
     3
 75
     0
 76
     0
 77
     0
 78
     0
281
     0
 65
     1
110
274.404842
120
288.907994
130
0.0
111
1.0
121
0.0
131
0.0
112
0.0
122
1.0
132
0.0
 79
     0
146
0.0
1001
ACAD_NAV_VCDISPLAY
1070
     3
  0
VPORT
  5
2E5
330
8
100
AcDbSymbolTableRecord
100
AcDbViewportTableRecord
  2
L1
 70
     0
 10
0.0
 20
0.0
 11
1.0
 21
1.0
 12
306.130943
 22
231.804802
 13
0.0
 23
0.0
 14
0.5
 24
0.5
 15
0.5
 25
0.5
 16
0.0
 26
0.0
 36
1.0
 17
0.0
 27
0.0
 37
0.0
 40
207.433333
 41
0.085602
 42
50.0
 43
436.820575
 44
-436.820575
 50
0.0
 51
0.0
 71
     0
 72
   100
 73
     1
 74
     3
 75
     0
 76
     0
 77
     0
 78
     0
281
     0
 65
     1
110
0.0
120
0.0
130
0.0
111
1.0
121
0.0
131
0.0
112
0.0
122
1.0
132
0.0
 79
     0
146
0.0
  0
VPORT
  5
2E6
330
8
100
AcDbSymbolTableRecord
100
AcDbViewportTableRecord
  2
L2
 70
     0
 10
0.0
 20
0.0
 11
0.5
 21
1.0
 12
0.0
 22
0.0
 13
0.0
 23
0.0
 14
0.5
 24
0.5
 15
0.5
 25
0.5
 16
0.0
 26
-1.0
 36
0.0
 17
0.0
 27
0.0
 37
0.0
 40
1339.368397
 41
0.013258
 42
50.0
 43
690.502282
 44
-690.502282
 50
0.0
 51
0.0
 71
     0
 72
   100
 73
     1
 74
     3
 75
     0
 76
     0
 77
     0
 78
     0
281
     0
 65
     1
110
0.0
120
0.0
130
0.0
111
1.0
121
0.0
131
0.0
112
0.0
122
1.0
132
0.0
 79
     0
146
0.0
  0
VPORT
  5
2E7
330
8
100
AcDbSymbolTableRecord
100
AcDbViewportTableRecord
  2
L2
 70
     0
 10
0.5
 20
0.0
 11
1.0
 21
1.0
 12
0.0
 22
0.0
 13
0.0
 23
0.0
 14
0.5
 24
0.5
 15
0.5
 25
0.5
 16
1.0
 26
0.0
 36
0.0
 17
0.0
 27
0.0
 37
0.0
 40
1339.368397
 41
0.013258
 42
50.0
 43
677.6681139999999
 44
-677.6681139999999
 50
0.0
 51
0.0
 71
     0
 72
   100
 73
     1
 74
     3
 75
     0
 76
     0
 77
     0
 78
     0
281
     0
 65
     1
110
0.0
120
0.0
130
0.0
111
1.0
121
0.0
131
0.0
112
0.0
122
1.0
132
0.0
 79
     0
146
0.0
  0
VPORT
  5
2E8
330
8
100
AcDbSymbolTableRecord
100
AcDbViewportTableRecord
  2
L3
 70
     0
 10
0.0
 20
0.5
 11
1.0
 21
1.0
 12
306.130943
 22
231.804802
 13
0.0
 23
0.0
 14
0.5
 24
0.5
 15
0.5
 25
0.5
 16
0.0
 26
0.0
 36
1.0
 17
0.0
 27
0.0
 37
0.0
 40
207.433333
 41
0.085602
 42
50.0
 43
436.820575
 44
-436.820575
 50
0.0
 51
0.0
 71
     0
 72
   100
 73
     1
 74
     3
 75
     0
 76
     0
 77
     0
 78
     0
281
     0
 65
     1
110
0.0
120
0.0
130
0.0
111
1.0
121
0.0
131
0.0
112
0.0
122
1.0
132
0.0
 79
     0
146
0.0
  0
VPORT
  5
2E9
330
8
100
AcDbSymbolTableRecord
100
AcDbViewportTableRecord
  2
L3
 70
     0
 10
0.0
 20
0.0
 11
1.0
 21
0.5
 12
0.0
 22
0.0
 13
0.0
 23
0.0
 14
0.5
 24
0.5
 15
0.5
 25
0.5
 16
0.0
 26
-1.0
 36
0.0
 17
0.0
 27
0.0
 37
0.0
 40
1339.368397
 41
0.013258
 42
50.0
 43
690.502282
 44
-690.502282
 50
0.0
 51
0.0
 71
     0
 72
   100
 73
     1
 74
     3
 75
     0
 76
     0
 77
     0
 78
     0
281
     0
 65
     1
110
0.0
120
0.0
130
0.0
111
1.0
121
0.0
131
0.0
112
0.0
122
1.0
132
0.0
 79
     0
146
0.0
  0
VPORT
  5
2EA
330
8
100
AcDbSymbolTableRecord
100
AcDbViewportTableRecord
  2
L4
 70
     0
 10
0.0
 20
0.5
 11
0.5
 21
1.0
 12
306.130943
 22
231.804802
 13
0.0
 23
0.0
 14
0.5
 24
0.5
 15
0.5
 25
0.5
 16
0.0
 26
0.0
 36
1.0
 17
0.0
 27
0.0
 37
0.0
 40
207.433333
 41
0.085602
 42
50.0
 43
436.820575
 44
-436.820575
 50
0.0
 51
0.0
 71
     0
 72
   100
 73
     1
 74
     3
 75
     0
 76
     0
 77
     0
 78
     0
281
     0
 65
     1
110
0.0
120
0.0
130
0.0
111
1.0
121
0.0
131
0.0
112
0.0
122
1.0
132
0.0
 79
     0
146
0.0
  0
VPORT
  5
2EB
330
8
100
AcDbSymbolTableRecord
100
AcDbViewportTableRecord
  2
L4
 70
     0
 10
0.0
 20
0.0
 11
0.5
 21
0.5
 12
0.0
 22
0.0
 13
0.0
 23
0.0
 14
0.5
 24
0.5
 15
0.5
 25
0.5
 16
0.0
 26
-1.0
 36
0.0
 17
0.0
 27
0.0
 37
0.0
 40
1339.368397
 41
0.013258
 42
50.0
 43
690.502282
 44
-690.502282
 50
0.0
 51
0.0
 71
     0
 72
   100
 73
     1
 74
     3
 75
     0
 76
     0
 77
     0
 78
     0
281
     0
 65
     1
110
0.0
120
0.0
130
0.0
111
1.0
121
0.0
131
0.0
112
0.0
122
1.0
132
0.0
 79
     0
146
0.0
  0
VPORT
  5
2EC
330
8
100
AcDbSymbolTableRecord
100
AcDbViewportTableRecord
  2
L4
 70
     0
 10
0.5
 20
0.0
 11
1.0
 21
0.5
 12
0.0
 22
0.0
 13
0.0
 23
0.0
 14
0.5
 24
0.5
 15
0.5
 25
0.5
 16
1.0
 26
0.0
 36
0.0
 17
0.0
 27
0.0
 37
0.0
 40
1339.368397
 41
0.013258
 42
50.0
 43
677.6681139999999
 44
-677.6681139999999
 50
0.0
 51
0.0
 71
     0
 72
   100
 73
     1
 74
     3
 75
     0
 76
     0
 77
     0
 78
     0
281
     0
 65
     1
110
0.0
120
0.0
130
0.0
111
1.0
121
0.0
131
0.0
112
0.0
122
1.0
132
0.0
 79
     0
146
0.0
  0
VPORT
  5
2ED
330
8
100
AcDbSymbolTableRecord
100
AcDbViewportTableRecord
  2
L4
 70
     0
 10
0.5
 20
0.5
 11
1.0
 21
1.0
 12
0.0
 22
0.0
 13
0.0
 23
0.0
 14
0.5
 24
0.5
 15
0.5
 25
0.5
 16
0.5773502691896259
 26
-0.5773502691896259
 36
0.5773502691896259
 17
0.0
 27
0.0
 37
0.0
 40
1315.669983
 41
0.013496
 42
50.0
 43
685.3733359999999
 44
-685.3733359999999
 50
0.0
 51
0.0
 71
     0
 72
   100
 73
     1
 74
     3
 75
     0
 76
     0
 77
     0
 78
     0
281
     0
 65
     1
110
0.0
120
0.0
130
0.0
111
1.0
121
0.0
131
0.0
112
0.0
122
1.0
132
0.0
 79
     0
146
0.0
  0
VPORT
  5
2EE
330
8
100
AcDbSymbolTableRecord
100
AcDbViewportTableRecord
  2
L6
 70
     0
 10
0.0
 20
0.5
 11
0.333333
 21
1.0
 12
0.0
 22
0.0
 13
0.0
 23
0.0
 14
0.5
 24
0.5
 15
0.5
 25
0.5
 16
0.7188730927569434
 26
-0.5850486126764433
 36
0.3754192287502549
 17
0.0
 27
0.0
 37
0.0
 40
1388.551873
 41
0.012788
 42
50.0
 43
718.93087
 44
-718.93087
 50
0.0
 51
0.0
 71
     0
 72
   100
 73
     1
 74
     3
 75
     0
 76
     0
 77
     0
 78
     0
281
     0
 65
     1
110
0.0
120
0.0
130
0.0
111
1.0
121
0.0
131
0.0
112
0.0
122
1.0
132
0.0
 79
     0
146
0.0
  0
VPORT
  5
2EF
330
8
100
AcDbSymbolTableRecord
100
AcDbViewportTableRecord
  2
L6
 70
     0
 10
0.0
 20
0.0
 11
0.333333
 21
0.5
 12
0.0
 22
0.0
 13
0.0
 23
0.0
 14
0.5
 24
0.5
 15
0.5
 25
0.5
 16
-1.0
 26
0.0
 36
0.0
 17
0.0
 27
0.0
 37
0.0
 40
1339.368397
 41
0.013258
 42
50.0
 43
677.6681139999999
 44
-677.6681139999999
 50
0.0
 51
0.0
 71
     0
 72
   100
 73
     1
 74
     3
 75
     0
 76
     0
 77
     0
 78
     0
281
     0
 65
     1
110
0.0
120
0.0
130
0.0
111
1.0
121
0.0
131
0.0
112
0.0
122
1.0
132
0.0
 79
     0
146
0.0
  0
VPORT
  5
2F0
330
8
100
AcDbSymbolTableRecord
100
AcDbViewportTableRecord
  2
L6
 70
     0
 10
0.333333
 20
0.5
 11
0.666667
 21
1.0
 12
306.130943
 22
231.804802
 13
0.0
 23
0.0
 14
0.5
 24
0.5
 15
0.5
 25
0.5
 16
0.0
 26
0.0
 36
1.0
 17
0.0
 27
0.0
 37
0.0
 40
207.433333
 41
0.085602
 42
50.0
 43
436.820575
 44
-436.820575
 50
0.0
 51
0.0
 71
     0
 72
   100
 73
     1
 74
     3
 75
     0
 76
     0
 77
     0
 78
     0
281
     0
 65
     1
110
0.0
120
0.0
130
0.0
111
1.0
121
0.0
131
0.0
112
0.0
122
1.0
132
0.0
 79
     0
146
0.0
  0
VPORT
  5
2F1
330
8
100
AcDbSymbolTableRecord
100
AcDbViewportTableRecord
  2
L6
 70
     0
 10
0.333333
 20
0.0
 11
0.666667
 21
0.5
 12
0.0
 22
0.0
 13
0.0
 23
0.0
 14
0.5
 24
0.5
 15
0.5
 25
0.5
 16
0.0
 26
-1.0
 36
0.0
 17
0.0
 27
0.0
 37
0.0
 40
1339.368397
 41
0.013258
 42
50.0
 43
690.502282
 44
-690.502282
 50
0.0
 51
0.0
 71
     0
 72
   100
 73
     1
 74
     3
 75
     0
 76
     0
 77
     0
 78
     0
281
     0
 65
     1
110
0.0
120
0.0
130
0.0
111
1.0
121
0.0
131
0.0
112
0.0
122
1.0
132
0.0
 79
     0
146
0.0
  0
VPORT
  5
2F2
330
8
100
AcDbSymbolTableRecord
100
AcDbViewportTableRecord
  2
L6
 70
     0
 10
0.666667
 20
0.5
 11
1.0
 21
1.0
 12
0.0
 22
0.0
 13
0.0
 23
0.0
 14
0.5
 24
0.5
 15
0.5
 25
0.5
 16
0.5773502691896259
 26
-0.5773502691896259
 36
0.5773502691896259
 17
0.0
 27
0.0
 37
0.0
 40
1315.669983
 41
0.013496
 42
50.0
 43
685.3733359999999
 44
-685.3733359999999
 50
0.0
 51
0.0
 71
     0
 72
   100
 73
     1
 74
     3
 75
     0
 76
     0
 77
     0
 78
     0
281
     0
 65
     1
110
0.0
120
0.0
130
0.0
111
1.0
121
0.0
131
0.0
112
0.0
122
1.0
132
0.0
 79
     0
146
0.0
  0
VPORT
  5
2F3
330
8
100
AcDbSymbolTableRecord
100
AcDbViewportTableRecord
  2
L6
 70
     0
 10
0.666667
 20
0.0
 11
1.0
 21
0.5
 12
0.0
 22
0.0
 13
0.0
 23
0.0
 14
0.5
 24
0.5
 15
0.5
 25
0.5
 16
1.0
 26
0.0
 36
0.0
 17
0.0
 27
0.0
 37
0.0
 40
1339.368397
 41
0.013258
 42
50.0
 43
677.6681139999999
 44
-677.6681139999999
 50
0.0
 51
0.0
 71
     0
 72
   100
 73
     1
 74
     3
 75
     0
 76
     0
 77
     0
 78
     0
281
     0
 65
     1
110
0.0
120
0.0
130
0.0
111
1.0
121
0.0
131
0.0
112
0.0
122
1.0
132
0.0
 79
     0
146
0.0
  0
ENDTAB
  0
TABLE
  2
LTYPE
  5
5
330
0
100
AcDbSymbolTable
 70
     7
  0
LTYPE
  5
14
330
5
100
AcDbSymbolTableRecord
100
AcDbLinetypeTableRecord
  2
ByBlock
 70
     0
  3

 72
    65
 73
     0
 40
0.0
  0
LTYPE
  5
15
330
5
100
AcDbSymbolTableRecord
100
AcDbLinetypeTableRecord
  2
ByLayer
 70
     0
  3

 72
    65
 73
     0
 40
0.0
  0
LTYPE
  5
16
330
5
100
AcDbSymbolTableRecord
100
AcDbLinetypeTableRecord
  2
Continuous
 70
     0
  3
Solid line
 72
    65
 73
     0
 40
0.0
  0
LTYPE
  5
6E
330
5
100
AcDbSymbolTableRecord
100
AcDbLinetypeTableRecord
  2
CENTER
 70
     0
  3
____ _ ____ _ ____ _ ____
 72
    65
 73
     4
 40
47.4
 49
22.0
 74
     4
 75
     0
340
0
 46
0.0
 50
0.0
 44
0.0
 45
0.0
 49
-8.5
 74
     4
 75
     0
340
0
 46
0.0
 50
0.0
 44
0.0
 45
0.0
 49
8.5
 74
     4
 75
     0
340
0
 46
0.0
 50
0.0
 44
0.0
 45
0.0
 49
-8.5
 74
     4
 75
     0
340
0
 46
0.0
 50
0.0
 44
0.0
 45
0.0
  0
LTYPE
  5
6F
330
5
100
AcDbSymbolTableRecord
100
AcDbLinetypeTableRecord
  2
DASHDOT
 70
     0
  3
_._._._._._._._._._._._._._._._.
 72
    65
 73
     4
 40
70.0
 49
31.0
 74
     4
 75
     0
340
0
 46
0.0
 50
0.0
 44
0.0
 45
0.0
 49
-13.0
 74
     4
 75
     0
340
0
 46
0.0
 50
0.0
 44
0.0
 45
0.0
 49
13.0
 74
     4
 75
     0
340
0
 46
0.0
 50
0.0
 44
0.0
 45
0.0
 49
-13.0
 74
     4
 75
     0
340
0
 46
0.0
 50
0.0
 44
0.0
 45
0.0
  0
LTYPE
  5
70
330
5
100
AcDbSymbolTableRecord
100
AcDbLinetypeTableRecord
  2
DASHED
 70
     0
  3
__ __ __ __ __ __ __ __ __
 72
    65
 73
     2
 40
25.72
 49
12.86
 74
     4
 75
     0
340
0
 46
0.0
 50
0.0
 44
0.0
 45
0.0
 49
-12.86
 74
     4
 75
     0
340
0
 46
0.0
 50
0.0
 44
0.0
 45
0.0
  0
LTYPE
  5
71
330
5
100
AcDbSymbolTableRecord
100
AcDbLinetypeTableRecord
  2
DOT
 70
     0
  3
.........................
 72
    65
 73
     2
 40
10.0
 49
0.0
 74
     4
 75
     0
340
0
 46
0.0
 50
0.0
 44
0.0
 45
0.0
 49
-10.0
 74
     4
 75
     0
340
0
 46
0.0
 50
0.0
 44
0.0
 45
0.0
  0
LTYPE
  5
72
330
5
100
AcDbSymbolTableRecord
100
AcDbLinetypeTableRecord
  2
PHANTOM
 70
     0
  3
____ _ _ ____ _ _ _____ _ _ ____
 72
    65
 73
     6
 40
50.5
 49
18.0
 74
     4
 75
     0
340
0
 46
0.0
 50
0.0
 44
0.0
 45
0.0
 49
-6.5
 74
     4
 75
     0
340
0
 46
0.0
 50
0.0
 44
0.0
 45
0.0
 49
6.5
 74
     4
 75
     0
340
0
 46
0.0
 50
0.0
 44
0.0
 45
0.0
 49
-6.5
 74
     4
 75
     0
340
0
 46
0.0
 50
0.0
 44
0.0
 45
0.0
 49
6.5
 74
     4
 75
     0
340
0
 46
0.0
 50
0.0
 44
0.0
 45
0.0
 49
-6.5
 74
     4
 75
     0
340
0
 46
0.0
 50
0.0
 44
0.0
 45
0.0
  0
LTYPE
  5
386
330
5
100
AcDbSymbolTableRecord
100
AcDbLinetypeTableRecord
  2
CENTER2
 70
     0
  3
Center (.5x) ___ _ ___ _ ___ _ ___ _ ___ _ ___
 72
    65
 73
     4
 40
1.125
 49
0.75
 74
     0
 49
-0.125
 74
     0
 49
0.125
 74
     0
 49
-0.125
 74
     0
  0
ENDTAB
  0
TABLE
  2
LAYER
  5
2
330
0
100
AcDbSymbolTable
 70
    22
  0
LAYER
  5
10
102
{ACAD_XDICTIONARY
360
391
102
}
330
2
100
AcDbSymbolTableRecord
100
AcDbLayerTableRecord
  2
0
 70
     0
 62
     7
  6
Continuous
370
    -3
390
F
  0
LAYER
  5
23F
330
2
100
AcDbSymbolTableRecord
100
AcDbLayerTableRecord
  2
Defpoints
 70
     0
 62
     7
  6
Continuous
290
     0
370
    -3
390
F
  0
LAYER
  5
383
102
{ACAD_XDICTIONARY
360
393
102
}
330
2
100
AcDbSymbolTableRecord
100
AcDbLayerTableRecord
  2
1
 70
     0
 62
     4
  6
Continuous
370
    -3
390
F
  0
LAYER
  5
384
102
{ACAD_XDICTIONARY
360
395
102
}
330
2
100
AcDbSymbolTableRecord
100
AcDbLayerTableRecord
  2
2
 70
     0
 62
     7
  6
Continuous
370
    -3
390
F
  0
LAYER
  5
385
102
{ACAD_XDICTIONARY
360
397
102
}
330
2
100
AcDbSymbolTableRecord
100
AcDbLayerTableRecord
  2
4
 70
     0
 62
     2
  6
CENTER2
370
    -3
390
F
  0
LAYER
  5
387
102
{ACAD_XDICTIONARY
360
399
102
}
330
2
100
AcDbSymbolTableRecord
100
AcDbLayerTableRecord
  2
SK1
 70
     0
 62
     4
  6
Continuous
370
    -3
390
F
  0
LAYER
  5
388
102
{ACAD_XDICTIONARY
360
39B
102
}
330
2
100
AcDbSymbolTableRecord
100
AcDbLayerTableRecord
  2
SK2
 70
     0
 62
     7
  6
Continuous
370
    -3
390
F
  0
LAYER
  5
38A
102
{ACAD_XDICTIONARY
360
39D
102
}
330
2
100
AcDbSymbolTableRecord
100
AcDbLayerTableRecord
  2
SK4
 70
     0
 62
     2
  6
CENTER2
370
    -3
390
F
  0
LAYER
  5
38B
102
{ACAD_XDICTIONARY
360
39F
102
}
330
2
100
AcDbSymbolTableRecord
100
AcDbLayerTableRecord
  2
SK6
 70
     0
 62
     5
  6
Continuous
370
    -3
390
F
  0
LAYER
  5
38C
102
{ACAD_XDICTIONARY
360
3A1
102
}
330
2
100
AcDbSymbolTableRecord
100
AcDbLayerTableRecord
  2
CUT
 70
     0
 62
     1
  6
Continuous
370
    -3
390
F
  0
LAYER
  5
38D
102
{ACAD_XDICTIONARY
360
3A3
102
}
330
2
100
AcDbSymbolTableRecord
100
AcDbLayerTableRecord
  2
NOCUT
 70
     0
 62
     7
  6
Continuous
370
    -3
390
F
  0
LAYER
  5
38E
102
{ACAD_XDICTIONARY
360
3A5
102
}
330
2
100
AcDbSymbolTableRecord
100
AcDbLayerTableRecord
  2
80
 70
     0
 62
     6
  6
Continuous
370
    -3
390
F
  0
LAYER
  5
38F
102
{ACAD_XDICTIONARY
360
3A7
102
}
330
2
100
AcDbSymbolTableRecord
100
AcDbLayerTableRecord
  2
81
 70
     0
 62
     3
  6
Continuous
370
    -3
390
F
  0
ENDTAB
  0
TABLE
  2
STYLE
  5
3
330
0
100
AcDbSymbolTable
 70
     3
  0
STYLE
  5
11
330
3
100
AcDbSymbolTableRecord
100
AcDbTextStyleTableRecord
  2
Standard
 70
     0
 40
0.0
 41
1.0
 50
0.0
 71
     0
 42
0.2
  3
txt
  4

  0
STYLE
  5
238
330
3
100
AcDbSymbolTableRecord
100
AcDbTextStyleTableRecord
  2
cesky
 70
     0
 40
0.0
 41
1.0
 50
0.0
 71
     0
 42
0.2
  3
simplex.shx
  4

  0
STYLE
  5
239
330
3
100
AcDbSymbolTableRecord
100
AcDbTextStyleTableRecord
  2
DWGDirectTextStyle
 70
     0
 40
0.0
 41
1.0
 50
0.0
 71
     0
 42
0.2
  3
simplex
  4

  0
ENDTAB
  0
TABLE
  2
VIEW
  5
6
330
0
100
AcDbSymbolTable
 70
     0
  0
ENDTAB
  0
TABLE
  2
UCS
  5
7
330
0
100
AcDbSymbolTable
 70
     0
  0
ENDTAB
  0
TABLE
  2
APPID
  5
9
330
0
100
AcDbSymbolTable
 70
     7
  0
APPID
  5
12
330
9
100
AcDbSymbolTableRecord
100
AcDbRegAppTableRecord
  2
ACAD
 70
     0
  0
APPID
  5
23B
330
9
100
AcDbSymbolTableRecord
100
AcDbRegAppTableRecord
  2
ACAD_DSTYLE_DIMBREAK
 70
     0
  0
APPID
  5
2F4
330
9
100
AcDbSymbolTableRecord
100
AcDbRegAppTableRecord
  2
ACAD_DSTYLE_DIM_LINETYPE
 70
     0
  0
APPID
  5
2F5
330
9
100
AcDbSymbolTableRecord
100
AcDbRegAppTableRecord
  2
ACAD_DSTYLE_DIM_EXT1_LINETYPE
 70
     0
  0
APPID
  5
2F6
330
9
100
AcDbSymbolTableRecord
100
AcDbRegAppTableRecord
  2
ACAD_DSTYLE_DIM_EXT2_LINETYPE
 70
     0
  0
APPID
  5
336
330
9
100
AcDbSymbolTableRecord
100
AcDbRegAppTableRecord
  2
ACAD_MLEADERVER
 70
     0
  0
APPID
  5
3AC
330
9
100
AcDbSymbolTableRecord
100
AcDbRegAppTableRecord
  2
ACAD_NAV_VCDISPLAY
 70
     0
  0
ENDTAB
  0
TABLE
  2
DIMSTYLE
  5
A
330
0
100
AcDbSymbolTable
 70
     1
100
AcDbDimStyleTable
 71
     0
  0
DIMSTYLE
105
27
330
A
100
AcDbSymbolTableRecord
100
AcDbDimStyleTableRecord
  2
Standard
 70
     0
340
11
1001
ACAD_DSTYLE_DIMBREAK
1070
   391
1040
6.349999999999999
  0
ENDTAB
  0
TABLE
  2
BLOCK_RECORD
  5
1
330
0
100
AcDbSymbolTable
 70
    16
  0
BLOCK_RECORD
  5
1F
102
{ACAD_XDICTIONARY
360
346
102
}
330
1
100
AcDbSymbolTableRecord
100
AcDbBlockTableRecord
  2
*Model_Space
340
22
  0
BLOCK_RECORD
  5
1B
330
1
100
AcDbSymbolTableRecord
100
AcDbBlockTableRecord
  2
*Paper_Space
340
1E
  0
BLOCK_RECORD
  5
23
330
1
100
AcDbSymbolTableRecord
100
AcDbBlockTableRecord
  2
*Paper_Space0
340
26
  0
BLOCK_RECORD
  5
232
330
1
100
AcDbSymbolTableRecord
100
AcDbBlockTableRecord
  2
ASSORTED_DRAFT1
340
0
  0
BLOCK_RECORD
  5
240
330
1
100
AcDbSymbolTableRecord
100
AcDbBlockTableRecord
  2
*D2
340
0
  0
BLOCK_RECORD
  5
24C
330
1
100
AcDbSymbolTableRecord
100
AcDbBlockTableRecord
  2
_U0
340
0
  0
BLOCK_RECORD
  5
258
330
1
100
AcDbSymbolTableRecord
100
AcDbBlockTableRecord
  2
*D4
340
0
  0
BLOCK_RECORD
  5
264
330
1
100
AcDbSymbolTableRecord
100
AcDbBlockTableRecord
  2
_U1
340
0
  0
BLOCK_RECORD
  5
270
330
1
100
AcDbSymbolTableRecord
100
AcDbBlockTableRecord
  2
*D6
340
0
  0
BLOCK_RECORD
  5
27C
330
1
100
AcDbSymbolTableRecord
100
AcDbBlockTableRecord
  2
_U2
340
0
  0
BLOCK_RECORD
  5
288
330
1
100
AcDbSymbolTableRecord
100
AcDbBlockTableRecord
  2
*D8
340
0
  0
BLOCK_RECORD
  5
294
330
1
100
AcDbSymbolTableRecord
100
AcDbBlockTableRecord
  2
_U3
340
0
  0
BLOCK_RECORD
  5
2A0
330
1
100
AcDbSymbolTableRecord
100
AcDbBlockTableRecord
  2
*D10
340
0
  0
BLOCK_RECORD
  5
2AB
330
1
100
AcDbSymbolTableRecord
100
AcDbBlockTableRecord
  2
_U4
340
0
  0
BLOCK_RECORD
  5
2B6
330
1
100
AcDbSymbolTableRecord
100
AcDbBlockTableRecord
  2
*D12
340
0
  0
BLOCK_RECORD
  5
2C2
330
1
100
AcDbSymbolTableRecord
100
AcDbBlockTableRecord
  2
_U5
340
0
  0
BLOCK_RECORD
  5
2CF
330
1
100
AcDbSymbolTableRecord
100
AcDbBlockTableRecord
  2
*D14
340
0
  0
BLOCK_RECORD
  5
2DB
330
1
100
AcDbSymbolTableRecord
100
AcDbBlockTableRecord
  2
_U6
340
0
  0
ENDTAB
  0
ENDSEC
  0
SECTION
  2
BLOCKS
  0
BLOCK
  5
20
330
1F
100
AcDbEntity
  8
0
100
AcDbBlockBegin
  2
*Model_Space
 70
     0
 10
0.0
 20
0.0
 30
0.0
  3
*Model_Space
  1

  0
ENDBLK
  5
21
330
1F
100
AcDbEntity
  8
0
100
AcDbBlockEnd
  0
BLOCK
  5
1C
330
1B
100
AcDbEntity
 67
     1
  8
0
100
AcDbBlockBegin
  2
*Paper_Space
 70
     0
 10
0.0
 20
0.0
 30
0.0
  3
*Paper_Space
  1

  0
ENDBLK
  5
1D
330
1B
100
AcDbEntity
 67
     1
  8
0
100
AcDbBlockEnd
  0
BLOCK
  5
24
330
23
100
AcDbEntity
 67
     1
  8
0
100
AcDbBlockBegin
  2
*Paper_Space0
 70
     0
 10
0.0
 20
0.0
 30
0.0
  3
*Paper_Space0
  1

  0
ENDBLK
  5
25
330
23
100
AcDbEntity
 67
     1
  8
0
100
AcDbBlockEnd
  0
BLOCK
  5
235
330
232
100
AcDbEntity
  8
0
100
AcDbBlockBegin
  2
ASSORTED_DRAFT1
 70
     0
 10
0.0
 20
0.0
 30
0.0
  3
ASSORTED_DRAFT1
  1

  0
SOLID
  5
233
330
232
100
AcDbEntity
  8
0
 62
   254
370
    13
100
AcDbTrace
 10
270.185042
 20
166.474902
 30
0.0
 11
265.185046
 21
165.366428
 31
0.0
 12
265.1850379999999
 22
167.583375
 32
0.0
 13
270.185042
 23
166.474902
 33
0.0
  0
ENDBLK
  5
236
330
232
100
AcDbEntity
  8
0
100
AcDbBlockEnd
  0
BLOCK
  5
241
330
240
100
AcDbEntity
  8
0
100
AcDbBlockBegin
  2
*D2
 70
     1
 10
0.0
 20
0.0
 30
0.0
  3
*D2
  1

  0
LINE
  5
243
330
240
100
AcDbEntity
  8
0
 62
   254
370
    -2
100
AcDbLine
 10
407.4048419999999
 20
306.907994
 30
0.0
 11
407.4048419999999
 21
328.5109970000001
 31
0.0
  0
LINE
  5
244
330
240
100
AcDbEntity
  8
0
 62
   254
370
    -2
100
AcDbLine
 10
274.404842
 20
288.907994
 30
0.0
 11
274.404842
 21
328.5109970000001
 31
0.0
  0
LINE
  5
245
330
240
100
AcDbEntity
  8
0
 62
   254
370
    -2
100
AcDbLine
 10
403.9048419999999
 20
327.510997
 30
0.0
 11
277.904842
 21
327.510997
 31
0.0
  0
SOLID
  5
246
330
240
100
AcDbEntity
  8
0
 62
   254
100
AcDbTrace
 10
403.9048419999999
 20
326.927663
 30
0.0
 11
403.9048419999999
 21
328.09433
 31
0.0
 12
407.4048419999999
 22
327.510997
 32
0.0
 13
407.4048419999999
 23
327.510997
 33
0.0
  0
SOLID
  5
247
330
240
100
AcDbEntity
  8
0
 62
   254
100
AcDbTrace
 10
277.904842
 20
328.09433
 30
0.0
 11
277.904842
 21
326.927663
 31
0.0
 12
274.404842
 22
327.510997
 32
0.0
 13
274.404842
 23
327.510997
 33
0.0
  0
MTEXT
  5
248
330
240
100
AcDbEntity
  8
0
 62
   254
370
    13
100
AcDbMText
 10
340.904842
 20
332.7609970000001
 30
0.0
 40
3.5
 41
0.0
 71
     5
 72
     1
  1
\A1;133
  7
cesky
 73
     1
 44
1.0
  0
POINT
  5
249
330
240
100
AcDbEntity
  8
Defpoints
 62
     0
100
AcDbPoint
 10
407.4048419999999
 20
306.907994
 30
0.0
  0
POINT
  5
24A
330
240
100
AcDbEntity
  8
Defpoints
 62
     0
100
AcDbPoint
 10
274.404842
 20
288.907994
 30
0.0
  0
POINT
  5
24B
330
240
100
AcDbEntity
  8
Defpoints
 62
     0
100
AcDbPoint
 10
274.404842
 20
327.510997
 30
0.0
  0
ENDBLK
  5
242
330
240
100
AcDbEntity
  8
0
100
AcDbBlockEnd
  0
BLOCK
  5
253
330
24C
100
AcDbEntity
  8
0
100
AcDbBlockBegin
  2
_U0
 70
     0
 10
0.0
 20
0.0
 30
0.0
  3
_U0
  1

  0
ENDBLK
  5
254
330
24C
100
AcDbEntity
  8
0
100
AcDbBlockEnd
  0
BLOCK
  5
259
330
258
100
AcDbEntity
  8
0
100
AcDbBlockBegin
  2
*D4
 70
     1
 10
0.0
 20
0.0
 30
0.0
  3
*D4
  1

  0
LINE
  5
25B
330
258
100
AcDbEntity
  8
0
 62
   254
370
    -2
100
AcDbLine
 10
407.4048419999999
 20
308.907994
 30
0.0
 11
407.4048419999999
 21
341.687968
 31
0.0
  0
LINE
  5
25C
330
258
100
AcDbEntity
  8
0
 62
   254
370
    -2
100
AcDbLine
 10
214.404842
 20
302.907994
 30
0.0
 11
214.404842
 21
341.687968
 31
0.0
  0
LINE
  5
25D
330
258
100
AcDbEntity
  8
0
 62
   254
370
    -2
100
AcDbLine
 10
403.9048419999999
 20
340.687968
 30
0.0
 11
217.904842
 21
340.687968
 31
0.0
  0
SOLID
  5
25E
330
258
100
AcDbEntity
  8
0
 62
   254
100
AcDbTrace
 10
403.9048419999999
 20
340.104634
 30
0.0
 11
403.9048419999999
 21
341.271301
 31
0.0
 12
407.4048419999999
 22
340.687968
 32
0.0
 13
407.4048419999999
 23
340.687968
 33
0.0
  0
SOLID
  5
25F
330
258
100
AcDbEntity
  8
0
 62
   254
100
AcDbTrace
 10
217.904842
 20
341.271301
 30
0.0
 11
217.904842
 21
340.104634
 31
0.0
 12
214.404842
 22
340.687968
 32
0.0
 13
214.404842
 23
340.687968
 33
0.0
  0
MTEXT
  5
260
330
258
100
AcDbEntity
  8
0
 62
   254
370
    13
100
AcDbMText
 10
310.904842
 20
345.937968
 30
0.0
 40
3.5
 41
0.0
 71
     5
 72
     1
  1
\A1;193
  7
cesky
 73
     1
 44
1.0
  0
POINT
  5
261
330
258
100
AcDbEntity
  8
Defpoints
 62
     0
100
AcDbPoint
 10
407.4048419999999
 20
308.907994
 30
0.0
  0
POINT
  5
262
330
258
100
AcDbEntity
  8
Defpoints
 62
     0
100
AcDbPoint
 10
214.404842
 20
302.907994
 30
0.0
  0
POINT
  5
263
330
258
100
AcDbEntity
  8
Defpoints
 62
     0
100
AcDbPoint
 10
214.404842
 20
340.687968
 30
0.0
  0
ENDBLK
  5
25A
330
258
100
AcDbEntity
  8
0
100
AcDbBlockEnd
  0
BLOCK
  5
26B
330
264
100
AcDbEntity
  8
0
100
AcDbBlockBegin
  2
_U1
 70
     0
 10
0.0
 20
0.0
 30
0.0
  3
_U1
  1

  0
ENDBLK
  5
26C
330
264
100
AcDbEntity
  8
0
100
AcDbBlockEnd
  0
BLOCK
  5
271
330
270
100
AcDbEntity
  8
0
100
AcDbBlockBegin
  2
*D6
 70
     1
 10
0.0
 20
0.0
 30
0.0
  3
*D6
  1

  0
LINE
  5
273
330
270
100
AcDbEntity
  8
0
 62
   254
370
    -2
100
AcDbLine
 10
274.404842
 20
288.907994
 30
0.0
 11
274.404842
 21
328.5109970000001
 31
0.0
  0
LINE
  5
274
330
270
100
AcDbEntity
  8
0
 62
   254
370
    -2
100
AcDbLine
 10
214.404842
 20
295.907994
 30
0.0
 11
214.404842
 21
328.5109970000001
 31
0.0
  0
LINE
  5
275
330
270
100
AcDbEntity
  8
0
 62
   254
370
    -2
100
AcDbLine
 10
270.904842
 20
327.510997
 30
0.0
 11
217.904842
 21
327.510997
 31
0.0
  0
SOLID
  5
276
330
270
100
AcDbEntity
  8
0
 62
   254
100
AcDbTrace
 10
270.904842
 20
326.927663
 30
0.0
 11
270.904842
 21
328.09433
 31
0.0
 12
274.404842
 22
327.510997
 32
0.0
 13
274.404842
 23
327.510997
 33
0.0
  0
SOLID
  5
277
330
270
100
AcDbEntity
  8
0
 62
   254
100
AcDbTrace
 10
217.904842
 20
328.09433
 30
0.0
 11
217.904842
 21
326.927663
 31
0.0
 12
214.404842
 22
327.510997
 32
0.0
 13
214.404842
 23
327.510997
 33
0.0
  0
MTEXT
  5
278
330
270
100
AcDbEntity
  8
0
 62
   254
370
    13
100
AcDbMText
 10
244.404842
 20
332.7609970000001
 30
0.0
 40
3.5
 41
0.0
 71
     5
 72
     1
  1
\A1;60
  7
cesky
 73
     1
 44
1.0
  0
POINT
  5
279
330
270
100
AcDbEntity
  8
Defpoints
 62
     0
100
AcDbPoint
 10
274.404842
 20
288.907994
 30
0.0
  0
POINT
  5
27A
330
270
100
AcDbEntity
  8
Defpoints
 62
     0
100
AcDbPoint
 10
214.404842
 20
295.907994
 30
0.0
  0
POINT
  5
27B
330
270
100
AcDbEntity
  8
Defpoints
 62
     0
100
AcDbPoint
 10
214.404842
 20
327.510997
 30
0.0
  0
ENDBLK
  5
272
330
270
100
AcDbEntity
  8
0
100
AcDbBlockEnd
  0
BLOCK
  5
283
330
27C
100
AcDbEntity
  8
0
100
AcDbBlockBegin
  2
_U2
 70
     0
 10
0.0
 20
0.0
 30
0.0
  3
_U2
  1

  0
ENDBLK
  5
284
330
27C
100
AcDbEntity
  8
0
100
AcDbBlockEnd
  0
BLOCK
  5
289
330
288
100
AcDbEntity
  8
0
100
AcDbBlockBegin
  2
*D8
 70
     1
 10
0.0
 20
0.0
 30
0.0
  3
*D8
  1

  0
LINE
  5
28B
330
288
100
AcDbEntity
  8
0
 62
   254
370
    -2
100
AcDbLine
 10
407.4048419999999
 20
306.907994
 30
0.0
 11
407.4048419999999
 21
317.848012
 31
0.0
  0
LINE
  5
28C
330
288
100
AcDbEntity
  8
0
 62
   254
370
    -2
100
AcDbLine
 10
291.367121
 20
306.078605
 30
0.0
 11
291.367121
 21
317.848012
 31
0.0
  0
LINE
  5
28D
330
288
100
AcDbEntity
  8
0
 62
   254
370
    -2
100
AcDbLine
 10
403.9048419999999
 20
316.848012
 30
0.0
 11
294.867121
 21
316.848012
 31
0.0
  0
SOLID
  5
28E
330
288
100
AcDbEntity
  8
0
 62
   254
100
AcDbTrace
 10
403.9048419999999
 20
316.264679
 30
0.0
 11
403.9048419999999
 21
317.431346
 31
0.0
 12
407.4048419999999
 22
316.848012
 32
0.0
 13
407.4048419999999
 23
316.848012
 33
0.0
  0
SOLID
  5
28F
330
288
100
AcDbEntity
  8
0
 62
   254
100
AcDbTrace
 10
294.867121
 20
317.431346
 30
0.0
 11
294.867121
 21
316.264679
 31
0.0
 12
291.367121
 22
316.848012
 32
0.0
 13
291.367121
 23
316.848012
 33
0.0
  0
MTEXT
  5
290
330
288
100
AcDbEntity
  8
0
 62
   254
370
    13
100
AcDbMText
 10
349.385981
 20
322.098012
 30
0.0
 40
3.5
 41
0.0
 71
     5
 72
     1
  1
\A1;116
  7
cesky
 73
     1
 44
1.0
  0
POINT
  5
291
330
288
100
AcDbEntity
  8
Defpoints
 62
     0
100
AcDbPoint
 10
407.4048419999999
 20
306.907994
 30
0.0
  0
POINT
  5
292
330
288
100
AcDbEntity
  8
Defpoints
 62
     0
100
AcDbPoint
 10
291.367121
 20
306.078605
 30
0.0
  0
POINT
  5
293
330
288
100
AcDbEntity
  8
Defpoints
 62
     0
100
AcDbPoint
 10
291.367121
 20
316.848012
 30
0.0
  0
ENDBLK
  5
28A
330
288
100
AcDbEntity
  8
0
100
AcDbBlockEnd
  0
BLOCK
  5
29B
330
294
100
AcDbEntity
  8
0
100
AcDbBlockBegin
  2
_U3
 70
     0
 10
0.0
 20
0.0
 30
0.0
  3
_U3
  1

  0
ENDBLK
  5
29C
330
294
100
AcDbEntity
  8
0
100
AcDbBlockEnd
  0
BLOCK
  5
2A1
330
2A0
100
AcDbEntity
  8
0
100
AcDbBlockBegin
  2
*D10
 70
     1
 10
0.0
 20
0.0
 30
0.0
  3
*D10
  1

  0
LINE
  5
2A3
330
2A0
100
AcDbEntity
  8
0
 62
   254
370
    -2
100
AcDbLine
 10
289.392334
 20
288.907994
 30
0.0
 11
424.604465
 21
288.907994
 31
0.0
  0
LINE
  5
2A4
330
2A0
100
AcDbEntity
  8
0
 62
   254
370
    -2
100
AcDbLine
 10
330.83929
 20
306.907994
 30
0.0
 11
424.604465
 21
306.907994
 31
0.0
  0
LINE
  5
2A5
330
2A0
100
AcDbEntity
  8
0
 62
   254
370
    -2
100
AcDbLine
 10
423.6044650000001
 20
288.907994
 30
0.0
 11
423.6044650000001
 21
306.907994
 31
0.0
  0
SOLID
  5
2A6
330
2A0
100
AcDbEntity
  8
0
 62
   254
100
AcDbTrace
 10
424.187798
 20
303.407994
 30
0.0
 11
423.021132
 21
303.407994
 31
0.0
 12
423.6044650000001
 22
306.907994
 32
0.0
 13
423.6044650000001
 23
306.907994
 33
0.0
  0
MTEXT
  5
2A7
330
2A0
100
AcDbEntity
  8
0
 62
   254
370
    13
100
AcDbMText
 10
418.3544649999999
 20
279.157994
 30
0.0
 40
3.5
 41
0.0
 71
     5
 72
     1
  1
\A1;36
  7
cesky
 11
0.0
 21
1.0
 31
0.0
 73
     1
 44
1.0
  0
POINT
  5
2A8
330
2A0
100
AcDbEntity
  8
Defpoints
 62
     0
100
AcDbPoint
 10
289.392334
 20
288.907994
 30
0.0
  0
POINT
  5
2A9
330
2A0
100
AcDbEntity
  8
Defpoints
 62
     0
100
AcDbPoint
 10
330.83929
 20
306.907994
 30
0.0
  0
POINT
  5
2AA
330
2A0
100
AcDbEntity
  8
Defpoints
 62
     0
100
AcDbPoint
 10
423.6044650000001
 20
306.907994
 30
0.0
  0
ENDBLK
  5
2A2
330
2A0
100
AcDbEntity
  8
0
100
AcDbBlockEnd
  0
BLOCK
  5
2B1
330
2AB
100
AcDbEntity
  8
0
100
AcDbBlockBegin
  2
_U4
 70
     0
 10
0.0
 20
0.0
 30
0.0
  3
_U4
  1

  0
ENDBLK
  5
2B2
330
2AB
100
AcDbEntity
  8
0
100
AcDbBlockEnd
  0
BLOCK
  5
2B7
330
2B6
100
AcDbEntity
  8
0
100
AcDbBlockBegin
  2
*D12
 70
     1
 10
0.0
 20
0.0
 30
0.0
  3
*D12
  1

  0
LINE
  5
2B9
330
2B6
100
AcDbEntity
  8
0
 62
    95
370
    -2
100
AcDbLine
 10
216.404842
 20
304.907994
 30
0.0
 11
204.878544
 21
304.907994
 31
0.0
  0
LINE
  5
2BA
330
2B6
100
AcDbEntity
  8
0
 62
    95
370
    -2
100
AcDbLine
 10
216.404842
 20
272.907994
 30
0.0
 11
204.878544
 21
272.907994
 31
0.0
  0
LINE
  5
2BB
330
2B6
100
AcDbEntity
  8
0
 62
    95
370
    -2
100
AcDbLine
 10
205.878544
 20
301.407994
 30
0.0
 11
205.878544
 21
276.407994
 31
0.0
  0
SOLID
  5
2BC
330
2B6
100
AcDbEntity
  8
0
 62
    95
100
AcDbTrace
 10
206.461878
 20
301.407994
 30
0.0
 11
205.295211
 21
301.407994
 31
0.0
 12
205.878544
 22
304.907994
 32
0.0
 13
205.878544
 23
304.907994
 33
0.0
  0
SOLID
  5
2BD
330
2B6
100
AcDbEntity
  8
0
 62
    95
100
AcDbTrace
 10
205.295211
 20
276.407994
 30
0.0
 11
206.461878
 21
276.407994
 31
0.0
 12
205.878544
 22
272.907994
 32
0.0
 13
205.878544
 23
272.907994
 33
0.0
  0
MTEXT
  5
2BE
330
2B6
100
AcDbEntity
  8
0
 62
    95
370
    13
100
AcDbMText
 10
200.628544
 20
288.907994
 30
0.0
 40
3.5
 41
0.0
 71
     5
 72
     1
  1
\A1;32
  7
cesky
 11
0.0
 21
1.0
 31
0.0
 73
     1
 44
1.0
  0
POINT
  5
2BF
330
2B6
100
AcDbEntity
  8
Defpoints
 62
     0
100
AcDbPoint
 10
216.404842
 20
304.907994
 30
0.0
  0
POINT
  5
2C0
330
2B6
100
AcDbEntity
  8
Defpoints
 62
     0
100
AcDbPoint
 10
216.404842
 20
272.907994
 30
0.0
  0
POINT
  5
2C1
330
2B6
100
AcDbEntity
  8
Defpoints
 62
     0
100
AcDbPoint
 10
205.878544
 20
272.907994
 30
0.0
  0
ENDBLK
  5
2B8
330
2B6
100
AcDbEntity
  8
0
100
AcDbBlockEnd
  0
BLOCK
  5
2CA
330
2C2
100
AcDbEntity
  8
0
100
AcDbBlockBegin
  2
_U5
 70
     0
 10
0.0
 20
0.0
 30
0.0
  3
_U5
  1

  0
ENDBLK
  5
2CB
330
2C2
100
AcDbEntity
  8
0
100
AcDbBlockEnd
  0
BLOCK
  5
2D0
330
2CF
100
AcDbEntity
  8
0
100
AcDbBlockBegin
  2
*D14
 70
     1
 10
0.0
 20
0.0
 30
0.0
  3
*D14
  1

  0
LINE
  5
2D2
330
2CF
100
AcDbEntity
  8
0
 62
    95
370
    -2
100
AcDbLine
 10
277.154842
 20
309.907994
 30
0.0
 11
192.519918
 21
309.907994
 31
0.0
  0
LINE
  5
2D3
330
2CF
100
AcDbEntity
  8
0
 62
    95
370
    -2
100
AcDbLine
 10
277.154842
 20
267.907994
 30
0.0
 11
192.519918
 21
267.907994
 31
0.0
  0
LINE
  5
2D4
330
2CF
100
AcDbEntity
  8
0
 62
    95
370
    -2
100
AcDbLine
 10
193.519918
 20
306.407994
 30
0.0
 11
193.519918
 21
271.407994
 31
0.0
  0
SOLID
  5
2D5
330
2CF
100
AcDbEntity
  8
0
 62
    95
100
AcDbTrace
 10
194.103251
 20
306.407994
 30
0.0
 11
192.936584
 21
306.407994
 31
0.0
 12
193.519918
 22
309.907994
 32
0.0
 13
193.519918
 23
309.907994
 33
0.0
  0
SOLID
  5
2D6
330
2CF
100
AcDbEntity
  8
0
 62
    95
100
AcDbTrace
 10
192.936584
 20
271.407994
 30
0.0
 11
194.103251
 21
271.407994
 31
0.0
 12
193.519918
 22
267.907994
 32
0.0
 13
193.519918
 23
267.907994
 33
0.0
  0
MTEXT
  5
2D7
330
2CF
100
AcDbEntity
  8
0
 62
    95
370
    13
100
AcDbMText
 10
188.269918
 20
288.907994
 30
0.0
 40
3.5
 41
0.0
 71
     5
 72
     1
  1
\A1;42
  7
cesky
 11
0.0
 21
1.0
 31
0.0
 73
     1
 44
1.0
  0
POINT
  5
2D8
330
2CF
100
AcDbEntity
  8
Defpoints
 62
     0
100
AcDbPoint
 10
277.154842
 20
309.907994
 30
0.0
  0
POINT
  5
2D9
330
2CF
100
AcDbEntity
  8
Defpoints
 62
     0
100
AcDbPoint
 10
277.154842
 20
267.907994
 30
0.0
  0
POINT
  5
2DA
330
2CF
100
AcDbEntity
  8
Defpoints
 62
     0
100
AcDbPoint
 10
193.519918
 20
267.907994
 30
0.0
  0
ENDBLK
  5
2D1
330
2CF
100
AcDbEntity
  8
0
100
AcDbBlockEnd
  0
BLOCK
  5
2E3
330
2DB
100
AcDbEntity
  8
0
100
AcDbBlockBegin
  2
_U6
 70
     0
 10
0.0
 20
0.0
 30
0.0
  3
_U6
  1

  0
ENDBLK
  5
2E4
330
2DB
100
AcDbEntity
  8
0
100
AcDbBlockEnd
  0
ENDSEC
  0
SECTION
  2
ENTITIES
  0
POINT
  5
73
102
{ACAD_REACTORS
330
390
102
}
330
1F
100
AcDbEntity
  8
80
100
AcDbPoint
 10
274.404842
 20
288.907994
 30
0.0
  0
POINT
  5
76
330
1F
100
AcDbEntity
  8
4
 60
     1
100
AcDbPoint
 10
289.392334
 20
288.907994
 30
0.0
  0
POINT
  5
78
330
1F
100
AcDbEntity
  8
4
 60
     1
100
AcDbPoint
 10
406.4629209999999
 20
288.907994
 30
0.0
  0
POINT
  5
79
330
1F
100
AcDbEntity
  8
SK4
 60
     1
100
AcDbPoint
 10
216.404842
 20
288.907994
 30
0.0
  0
POINT
  5
7A
330
1F
100
AcDbEntity
  8
SK4
 60
     1
100
AcDbPoint
 10
274.404842
 20
288.907994
 30
0.0
  0
POINT
  5
7B
330
1F
100
AcDbEntity
  8
SK6
 60
     1
100
AcDbPoint
 10
274.404842
 20
288.907994
 30
0.0
  0
POINT
  5
7C
330
1F
100
AcDbEntity
  8
SK6
 60
     1
100
AcDbPoint
 10
291.367121
 20
306.078605
 30
0.0
  0
LINE
  5
7D
330
1F
100
AcDbEntity
  8
1
100
AcDbLine
 10
398.942114
 20
300.9119609999999
 30
0.0
 11
398.908287
 21
300.816057
 31
0.0
  0
LINE
  5
7F
330
1F
100
AcDbEntity
  8
1
100
AcDbLine
 10
399.007245
 20
300.85232
 30
0.0
 11
398.972868
 21
300.754858
 31
0.0
  0
LINE
  5
80
330
1F
100
AcDbEntity
  8
1
100
AcDbLine
 10
401.7632609999999
 20
300.110192
 30
0.0
 11
401.7976529999999
 21
300.207697
 31
0.0
  0
LINE
  5
81
330
1F
100
AcDbEntity
  8
1
100
AcDbLine
 10
399.056052
 20
299.37001
 30
0.0
 11
399.021729
 21
299.272701
 31
0.0
  0
LINE
  5
82
330
1F
100
AcDbEntity
  8
1
100
AcDbLine
 10
399.012741
 20
299.3494490000001
 30
0.0
 11
398.978718
 21
299.25299
 31
0.0
  0
LINE
  5
83
330
1F
100
AcDbEntity
  8
1
100
AcDbLine
 10
401.0717559999999
 20
298.801286
 30
0.0
 11
401.106092
 21
298.898635
 31
0.0
  0
LINE
  5
84
330
1F
100
AcDbEntity
  8
1
100
AcDbLine
 10
401.1093279999999
 20
298.758333
 30
0.0
 11
401.143302
 21
298.8546559999999
 31
0.0
  0
LINE
  5
85
330
1F
100
AcDbEntity
  8
1
100
AcDbLine
 10
406.6826579999999
 20
289.357775
 30
0.0
 11
406.190758
 21
288.882752
 31
0.0
  0
LINE
  5
87
330
1F
100
AcDbEntity
  8
1
100
AcDbLine
 10
405.886018
 20
288.588469
 30
0.0
 11
405.708098
 21
288.416653
 31
0.0
  0
LINE
  5
88
330
1F
100
AcDbEntity
  8
1
100
AcDbLine
 10
407.3880619999999
 20
288.08519
 30
0.0
 11
406.7245529999999
 21
287.919759
 31
0.0
  0
LINE
  5
89
330
1F
100
AcDbEntity
  8
1
100
AcDbLine
 10
406.0735079999999
 20
287.757435
 30
0.0
 11
406.7245529999999
 21
287.919759
 31
0.0
  0
LINE
  5
8A
330
1F
100
AcDbEntity
  8
1
100
AcDbLine
 10
406.5998399999999
 20
280.774907
 30
0.0
 11
405.954856
 21
280.959853
 31
0.0
  0
LINE
  5
8B
330
1F
100
AcDbEntity
  8
1
100
AcDbLine
 10
406.5998399999999
 20
280.774907
 30
0.0
 11
407.264067
 21
280.584443
 31
0.0
  0
LINE
  5
8C
330
1F
100
AcDbEntity
  8
1
100
AcDbLine
 10
405.697111
 20
280.178705
 30
0.0
 11
406.0327609999999
 21
279.83113
 31
0.0
  0
LINE
  5
8D
330
1F
100
AcDbEntity
  8
1
100
AcDbLine
 10
406.5077829999999
 20
279.33923
 30
0.0
 11
406.0327609999999
 21
279.83113
 31
0.0
  0
LINE
  5
8E
330
1F
100
AcDbEntity
  8
1
100
AcDbLine
 10
391.839535
 20
293.109511
 30
0.0
 11
391.8429
 21
293.119052
 31
0.0
  0
LINE
  5
90
330
1F
100
AcDbEntity
  8
1
100
AcDbLine
 10
406.6065529999999
 20
306.060564
 30
0.0
 11
407.0051389999999
 21
294.933979
 31
0.0
  0
LINE
  5
91
330
1F
100
AcDbEntity
  8
1
100
AcDbLine
 10
394.664726
 20
306.420024
 30
0.0
 11
405.802905
 21
306.808573
 31
0.0
  0
LINE
  5
92
330
1F
100
AcDbEntity
  8
1
100
AcDbLine
 10
394.315194
 20
294.491297
 30
0.0
 11
393.916608
 21
305.617882
 31
0.0
  0
LINE
  5
93
330
1F
100
AcDbEntity
  8
1
100
AcDbLine
 10
406.257021
 20
294.131837
 30
0.0
 11
395.118842
 21
293.743288
 31
0.0
  0
LINE
  5
94
330
1F
100
AcDbEntity
  8
1
100
AcDbLine
 10
396.12121
 20
295.615599
 30
0.0
 11
395.799395
 21
304.599112
 31
0.0
  0
LINE
  5
95
330
1F
100
AcDbEntity
  8
1
100
AcDbLine
 10
405.114084
 20
295.92931
 30
0.0
 11
396.12121
 21
295.615599
 31
0.0
  0
LINE
  5
96
330
1F
100
AcDbEntity
  8
1
100
AcDbLine
 10
404.7922699999999
 20
304.912823
 30
0.0
 11
405.114084
 21
295.92931
 31
0.0
  0
LINE
  5
97
330
1F
100
AcDbEntity
  8
1
100
AcDbLine
 10
395.799395
 20
304.599112
 30
0.0
 11
404.7922699999999
 21
304.912823
 31
0.0
  0
LINE
  5
98
330
1F
100
AcDbEntity
  8
1
100
AcDbLine
 10
406.012832
 20
289.002636
 30
0.0
 11
406.131403
 21
288.931391
 31
0.0
  0
LINE
  5
99
330
1F
100
AcDbEntity
  8
1
100
AcDbLine
 10
405.9597199999999
 20
280.992711
 30
0.0
 11
405.994406
 21
282.97983
 31
0.0
  0
LINE
  5
9A
330
1F
100
AcDbEntity
  8
1
100
AcDbLine
 10
406.012843
 20
284.036078
 30
0.0
 11
406.077223
 21
287.724428
 31
0.0
  0
LINE
  5
9B
330
1F
100
AcDbEntity
  8
1
100
AcDbLine
 10
405.7414309999999
 20
280.596325
 30
0.0
 11
405.9415689999999
 21
280.92941
 31
0.0
  0
LINE
  5
9C
330
1F
100
AcDbEntity
  8
1
100
AcDbLine
 10
407.359382
 20
288.156592
 30
0.0
 11
406.7280109999999
 21
289.295615
 31
0.0
  0
LINE
  5
9D
330
1F
100
AcDbEntity
  8
1
100
AcDbLine
 10
406.623573
 20
289.406675
 30
0.0
 11
406.4381359999999
 21
289.524481
 31
0.0
  0
LINE
  5
9E
330
1F
100
AcDbEntity
  8
1
100
AcDbLine
 10
406.1734089999999
 20
289.6835450000001
 30
0.0
 11
406.4381359999999
 21
289.524481
 31
0.0
  0
LINE
  5
9F
330
1F
100
AcDbEntity
  8
1
100
AcDbLine
 10
406.5566829999999
 20
279.398314
 30
0.0
 11
406.6744899999999
 21
279.583751
 31
0.0
  0
LINE
  5
A0
330
1F
100
AcDbEntity
  8
1
100
AcDbLine
 10
407.233406
 20
280.513944
 30
0.0
 11
406.6744899999999
 21
279.583751
 31
0.0
  0
LINE
  5
A1
330
1F
100
AcDbEntity
  8
1
100
AcDbLine
 10
407.399861
 20
287.789483
 30
0.0
 11
407.275424
 21
280.660477
 31
0.0
  0
LINE
  5
A2
330
1F
100
AcDbEntity
  8
1
100
AcDbLine
 10
407.399861
 20
287.789483
 30
0.0
 11
407.398222
 21
288.009171
 31
0.0
  0
LINE
  5
A3
330
1F
100
AcDbEntity
  8
1
100
AcDbLine
 10
405.7210089999999
 20
278.892216
 30
0.0
 11
406.445624
 21
279.293876
 31
0.0
  0
LINE
  5
A4
330
1F
100
AcDbEntity
  8
1
100
AcDbLine
 10
406.237296
 20
288.821736
 30
0.0
 11
406.69747
 21
287.991559
 31
0.0
  0
LINE
  5
A5
330
1F
100
AcDbEntity
  8
1
100
AcDbLine
 10
406.570267
 20
280.704096
 30
0.0
 11
406.0813999999999
 21
279.890484
 31
0.0
  0
LINE
  5
A6
330
1F
100
AcDbEntity
  8
1
100
AcDbLine
 10
405.9717449999999
 20
279.784592
 30
0.0
 11
405.635484
 21
279.598199
 31
0.0
  0
LINE
  5
A7
330
1F
100
AcDbEntity
  8
1
100
AcDbLine
 10
406.7343489999999
 20
287.843649
 30
0.0
 11
406.612285
 21
280.850629
 31
0.0
  0
LINE
  5
A8
330
1F
100
AcDbEntity
  8
1
100
AcDbLine
 10
388.533664
 20
294.41525
 30
0.0
 11
388.000546
 21
294.719147
 31
0.0
  0
LINE
  5
A9
330
1F
100
AcDbEntity
  8
1
100
AcDbLine
 10
406.584842
 20
294.229468
 30
0.0
 11
406.584842
 21
290.30409
 31
0.0
  0
LINE
  5
AA
330
1F
100
AcDbEntity
  8
1
100
AcDbLine
 10
406.4395479999999
 20
293.94809
 30
0.0
 11
406.437993
 21
294.172166
 31
0.0
  0
LINE
  5
AB
330
1F
100
AcDbEntity
  8
1
100
AcDbLine
 10
406.4395479999999
 20
293.94809
 30
0.0
 11
406.397543
 21
293.931972
 31
0.0
  0
LINE
  5
AC
330
1F
100
AcDbEntity
  8
1
100
AcDbLine
 10
406.3233969999999
 20
293.146373
 30
0.0
 11
406.3327769999999
 21
293.1499720000001
 31
0.0
  0
LINE
  5
AD
330
1F
100
AcDbEntity
  8
1
100
AcDbLine
 10
405.338208
 20
271.407994
 30
0.0
 11
406.0653529999999
 21
278.258984
 31
0.0
  0
LINE
  5
AE
330
1F
100
AcDbEntity
  8
1
100
AcDbLine
 10
406.0653529999999
 20
278.258984
 30
0.0
 11
406.0232619999999
 21
278.259657
 31
0.0
  0
LINE
  5
AF
330
1F
100
AcDbEntity
  8
1
100
AcDbLine
 10
406.0485439999999
 20
278.497858
 30
0.0
 11
406.0232619999999
 21
278.259657
 31
0.0
  0
LINE
  5
B0
330
1F
100
AcDbEntity
  8
1
100
AcDbLine
 10
406.0485439999999
 20
278.497858
 30
0.0
 11
405.806754
 21
278.890839
 31
0.0
  0
LINE
  5
B1
330
1F
100
AcDbEntity
  8
1
100
AcDbLine
 10
405.806754
 20
278.890839
 30
0.0
 11
405.6309839999999
 21
278.893651
 31
0.0
  0
LINE
  5
B2
330
1F
100
AcDbEntity
  8
1
100
AcDbLine
 10
405.613818
 20
279.39399
 30
0.0
 11
406.012841
 21
283.153494
 31
0.0
  0
LINE
  5
B3
330
1F
100
AcDbEntity
  8
1
100
AcDbLine
 10
405.2445539999999
 20
283.153494
 30
0.0
 11
406.012841
 21
283.153494
 31
0.0
  0
LINE
  5
B4
330
1F
100
AcDbEntity
  8
1
100
AcDbLine
 10
406.012841
 20
283.153494
 30
0.0
 11
406.012841
 21
289.186266
 31
0.0
  0
LINE
  5
B5
330
1F
100
AcDbEntity
  8
1
100
AcDbLine
 10
393.938073
 20
305.810938
 30
0.0
 11
393.919564
 21
306.349532
 31
0.0
  0
LINE
  5
B6
330
1F
100
AcDbEntity
  8
SK1
100
AcDbLine
 10
216.404842
 20
304.907994
 30
0.0
 11
216.404842
 21
272.907994
 31
0.0
  0
LINE
  5
B7
330
1F
100
AcDbEntity
  8
SK1
100
AcDbLine
 10
214.404842
 20
302.907994
 30
0.0
 11
214.404842
 21
274.907994
 31
0.0
  0
LINE
  5
B8
330
1F
100
AcDbEntity
  8
1
100
AcDbLine
 10
394.015587
 20
297.026985
 30
0.0
 11
394.010354
 21
297.01215
 31
0.0
  0
LINE
  5
B9
330
1F
100
AcDbEntity
  8
1
100
AcDbLine
 10
394.015587
 20
297.026985
 30
0.0
 11
393.6952
 21
306.349851
 31
0.0
  0
LINE
  5
BA
330
1F
100
AcDbEntity
  8
1
100
AcDbLine
 10
393.690386
 20
306.322834
 30
0.0
 11
394.010354
 21
297.01215
 31
0.0
  0
LINE
  5
BB
330
1F
100
AcDbEntity
  8
1
100
AcDbLine
 10
405.338208
 20
271.407994
 30
0.0
 11
387.300392
 21
271.407994
 31
0.0
  0
LINE
  5
BC
330
1F
100
AcDbEntity
  8
1
100
AcDbLine
 10
274.904842
 20
267.907994
 30
0.0
 11
274.904842
 21
288.907994
 31
0.0
  0
LINE
  5
BD
330
1F
100
AcDbEntity
  8
1
100
AcDbLine
 10
274.904842
 20
288.907994
 30
0.0
 11
274.904842
 21
309.907994
 31
0.0
  0
LINE
  5
BE
330
1F
100
AcDbEntity
  8
1
100
AcDbLine
 10
396.915229
 20
301.335064
 30
0.0
 11
396.8991
 21
301.289334
 31
0.0
  0
LINE
  5
BF
330
1F
100
AcDbEntity
  8
1
100
AcDbLine
 10
403.689109
 20
298.894388
 30
0.0
 11
403.705239
 21
298.9401180000001
 31
0.0
  0
LINE
  5
C0
330
1F
100
AcDbEntity
  8
1
100
AcDbLine
 10
388.555161
 20
294.465853
 30
0.0
 11
386.935537
 21
295.399476
 31
0.0
  0
LINE
  5
C1
330
1F
100
AcDbEntity
  8
1
100
AcDbLine
 10
404.852144
 20
293.122742
 30
0.0
 11
395.285239
 21
292.789006
 31
0.0
  0
LINE
  5
C2
330
1F
100
AcDbEntity
  8
1
100
AcDbLine
 10
396.915229
 20
301.335064
 30
0.0
 11
396.915121
 21
301.334756
 31
0.0
  0
LINE
  5
C3
330
1F
100
AcDbEntity
  8
SK1
100
AcDbLine
 10
214.404842
 20
274.907994
 30
0.0
 11
216.404842
 21
272.907994
 31
0.0
  0
LINE
  5
C4
330
1F
100
AcDbEntity
  8
SK1
100
AcDbLine
 10
216.404842
 20
304.907994
 30
0.0
 11
214.404842
 21
302.907994
 31
0.0
  0
LINE
  5
C5
330
1F
100
AcDbEntity
  8
SK1
100
AcDbLine
 10
274.404842
 20
304.907994
 30
0.0
 11
216.404842
 21
304.907994
 31
0.0
  0
LINE
  5
C6
330
1F
100
AcDbEntity
  8
1
100
AcDbLine
 10
274.904842
 20
267.907994
 30
0.0
 11
274.404842
 21
268.407994
 31
0.0
  0
LINE
  5
C7
330
1F
100
AcDbEntity
  8
1
100
AcDbLine
 10
274.404842
 20
309.407994
 30
0.0
 11
274.904842
 21
309.907994
 31
0.0
  0
LINE
  5
C8
330
1F
100
AcDbEntity
  8
1
100
AcDbLine
 10
279.404842
 20
309.907994
 30
0.0
 11
274.904842
 21
309.907994
 31
0.0
  0
LINE
  5
CD
330
1F
100
AcDbEntity
  8
80
100
AcDbLine
 10
275.404416
 20
288.907994
 30
0.0
 11
273.405268
 21
288.907994
 31
0.0
  0
LINE
  5
CE
330
1F
100
AcDbEntity
  8
1
100
AcDbLine
 10
279.404842
 20
267.907994
 30
0.0
 11
279.404842
 21
271.7368
 31
0.0
  0
LINE
  5
CF
330
1F
100
AcDbEntity
  8
1
100
AcDbLine
 10
279.404842
 20
309.907994
 30
0.0
 11
279.404842
 21
279.872293
 31
0.0
  0
LINE
  5
D0
330
1F
100
AcDbEntity
  8
1
100
AcDbLine
 10
404.262149
 20
283.153494
 30
0.0
 11
404.595654
 21
283.153494
 31
0.0
  0
LINE
  5
D1
330
1F
100
AcDbEntity
  8
1
100
AcDbLine
 10
394.207892
 20
306.245683
 30
0.0
 11
394.202659
 21
306.397945
 31
0.0
  0
LINE
  5
D2
330
1F
100
AcDbEntity
  8
1
100
AcDbLine
 10
397.674378
 20
293.627669
 30
0.0
 11
406.397543
 21
293.931972
 31
0.0
  0
LINE
  5
D3
330
1F
100
AcDbEntity
  8
1
100
AcDbLine
 10
406.3993169999999
 20
293.676422
 30
0.0
 11
406.397543
 21
293.931972
 31
0.0
  0
LINE
  5
D4
330
1F
100
AcDbEntity
  8
1
100
AcDbLine
 10
406.3233969999999
 20
293.146373
 30
0.0
 11
395.293071
 21
292.761587
 31
0.0
  0
LINE
  5
D5
330
1F
100
AcDbEntity
  8
1
100
AcDbLine
 10
406.3233969999999
 20
293.146373
 30
0.0
 11
404.126819
 21
289.507146
 31
0.0
  0
LINE
  5
D6
330
1F
100
AcDbEntity
  8
1
100
AcDbLine
 10
406.4395479999999
 20
293.94809
 30
0.0
 11
397.679611
 21
293.6425040000001
 31
0.0
  0
LINE
  5
D7
330
1F
100
AcDbEntity
  8
1
100
AcDbLine
 10
397.674378
 20
293.627669
 30
0.0
 11
397.679611
 21
293.6425040000001
 31
0.0
  0
LINE
  5
D8
330
1F
100
AcDbEntity
  8
1
100
AcDbLine
 10
406.0831109999999
 20
289.685116
 30
0.0
 11
406.2591799999999
 21
289.682042
 31
0.0
  0
LINE
  5
D9
330
1F
100
AcDbEntity
  8
1
100
AcDbLine
 10
406.2591799999999
 20
289.682042
 30
0.0
 11
406.54268
 21
290.066215
 31
0.0
  0
LINE
  5
DA
330
1F
100
AcDbEntity
  8
1
100
AcDbLine
 10
406.54268
 20
290.304826
 30
0.0
 11
406.54268
 21
290.066215
 31
0.0
  0
LINE
  5
DB
330
1F
100
AcDbEntity
  8
1
100
AcDbLine
 10
406.54268
 20
290.304826
 30
0.0
 11
406.584842
 21
290.30409
 31
0.0
  0
LINE
  5
DC
330
1F
100
AcDbEntity
  8
1
100
AcDbLine
 10
274.404842
 20
309.407994
 30
0.0
 11
274.404842
 21
288.907994
 31
0.0
  0
LINE
  5
DD
330
1F
100
AcDbEntity
  8
1
100
AcDbLine
 10
274.404842
 20
288.907994
 30
0.0
 11
274.404842
 21
268.407994
 31
0.0
  0
LINE
  5
DE
330
1F
100
AcDbEntity
  8
80
100
AcDbLine
 10
274.404842
 20
287.90842
 30
0.0
 11
274.404842
 21
289.907567
 31
0.0
  0
LINE
  5
DF
330
1F
100
AcDbEntity
  8
81
100
AcDbLine
 10
407.4048419999999
 20
308.907994
 30
0.0
 11
407.4048419999999
 21
304.907994
 31
0.0
  0
LINE
  5
E0
330
1F
100
AcDbEntity
  8
81
100
AcDbLine
 10
405.4048419999999
 20
306.907994
 30
0.0
 11
409.404842
 21
306.907994
 31
0.0
  0
LINE
  5
E1
330
1F
100
AcDbEntity
  8
SK1
100
AcDbLine
 10
216.404842
 20
272.907994
 30
0.0
 11
274.404842
 21
272.907994
 31
0.0
  0
LINE
  5
E2
330
1F
100
AcDbEntity
  8
1
100
AcDbLine
 10
274.904842
 20
267.907994
 30
0.0
 11
279.404842
 21
267.907994
 31
0.0
  0
LINE
  5
E3
330
1F
100
AcDbEntity
  8
1
100
AcDbLine
 10
289.392334
 20
271.407994
 30
0.0
 11
297.833631
 21
271.407994
 31
0.0
  0
LINE
  5
E4
330
1F
100
AcDbEntity
  8
1
100
AcDbLine
 10
394.1189819999999
 20
306.407994
 30
0.0
 11
387.860724
 21
306.407994
 31
0.0
  0
LINE
  5
E5
330
1F
100
AcDbEntity
  8
1
100
AcDbLine
 10
298.746582
 20
306.407994
 30
0.0
 11
289.392334
 21
306.407994
 31
0.0
  0
LINE
  5
E6
330
1F
100
AcDbEntity
  8
1
100
AcDbLine
 10
399.582068
 20
298.744664
 30
0.0
 11
399.616352
 21
298.841862
 31
0.0
  0
LINE
  5
E7
330
1F
100
AcDbEntity
  8
1
100
AcDbLine
 10
400.377836
 20
298.688642
 30
0.0
 11
400.343422
 21
298.591073
 31
0.0
  0
LINE
  5
E8
330
1F
100
AcDbEntity
  8
1
100
AcDbLine
 10
399.007939
 20
300.288445
 30
0.0
 11
399.04343
 21
300.389066
 31
0.0
  0
LINE
  5
E9
330
1F
100
AcDbEntity
  8
1
100
AcDbLine
 10
401.5956939999999
 20
299.939008
 30
0.0
 11
401.560203
 21
299.838386
 31
0.0
  0
LINE
  5
EA
330
1F
100
AcDbEntity
  8
1
100
AcDbLine
 10
400.224721
 20
301.535758
 30
0.0
 11
400.259135
 21
301.633327
 31
0.0
  0
LINE
  5
EB
330
1F
100
AcDbEntity
  8
1
100
AcDbLine
 10
401.002122
 20
301.427664
 30
0.0
 11
400.986074
 21
301.382168
 31
0.0
  0
LINE
  5
EC
330
1F
100
AcDbEntity
  8
1
100
AcDbLine
 10
406.012839
 20
287.8757339999999
 30
0.0
 11
406.0612919999999
 21
287.788323
 31
0.0
  0
LINE
  5
141
330
1F
100
AcDbEntity
  8
NOCUT
100
AcDbLine
 10
274.404842
 20
304.907994
 30
0.0
 11
274.404842
 21
309.407994
 31
0.0
  0
LINE
  5
142
330
1F
100
AcDbEntity
  8
NOCUT
100
AcDbLine
 10
274.404842
 20
309.407994
 30
0.0
 11
274.904842
 21
309.907994
 31
0.0
  0
LINE
  5
143
330
1F
100
AcDbEntity
  8
NOCUT
100
AcDbLine
 10
214.404842
 20
302.907994
 30
0.0
 11
216.404842
 21
304.907994
 31
0.0
  0
LINE
  5
144
330
1F
100
AcDbEntity
  8
NOCUT
100
AcDbLine
 10
279.404842
 20
309.907994
 30
0.0
 11
274.904842
 21
309.907994
 31
0.0
  0
LINE
  5
145
330
1F
100
AcDbEntity
  8
NOCUT
100
AcDbLine
 10
214.404842
 20
302.907994
 30
0.0
 11
214.404842
 21
288.907994
 31
0.0
  0
LINE
  5
146
330
1F
100
AcDbEntity
  8
NOCUT
100
AcDbLine
 10
274.404842
 20
304.907994
 30
0.0
 11
216.404842
 21
304.907994
 31
0.0
  0
LINE
  5
147
330
1F
100
AcDbEntity
  8
NOCUT
100
AcDbLine
 10
289.392334
 20
306.407994
 30
0.0
 11
406.164517
 21
306.407994
 31
0.0
  0
LINE
  5
148
330
1F
100
AcDbEntity
  8
NOCUT
100
AcDbLine
 10
406.164517
 20
306.407994
 30
0.0
 11
406.584842
 21
294.474829
 31
0.0
  0
LINE
  5
149
330
1F
100
AcDbEntity
  8
NOCUT
100
AcDbLine
 10
406.584842
 20
294.474829
 30
0.0
 11
406.584842
 21
288.907994
 31
0.0
  0
LINE
  5
14A
330
1F
100
AcDbEntity
  8
NOCUT
100
AcDbLine
 10
406.584842
 20
288.907994
 30
0.0
 11
214.404842
 21
288.907994
 31
0.0
  0
CIRCLE
  5
153
330
1F
100
AcDbEntity
  8
1
100
AcDbCircle
 10
401.418941
 20
284.60888
 30
0.0
 40
1.35
  0
ARC
  5
154
330
1F
100
AcDbEntity
  8
1
100
AcDbCircle
 10
401.418941
 20
284.60888
 30
0.0
 40
1.75
100
AcDbArc
 50
75.0
 51
345.0
  0
ARC
  5
155
330
1F
100
AcDbEntity
  8
1
100
AcDbCircle
 10
289.392334
 20
255.407994
 30
0.0
 40
16.0
100
AcDbArc
 50
90.0
 51
128.624833
  0
ARC
  5
156
330
1F
100
AcDbEntity
  8
1
100
AcDbCircle
 10
289.392334
 20
322.407994
 30
0.0
 40
16.0
100
AcDbArc
 50
231.375167
 51
270.0
  0
ARC
  5
161
330
1F
100
AcDbEntity
  8
NOCUT
100
AcDbCircle
 10
289.392334
 20
322.407994
 30
0.0
 40
16.0
100
AcDbArc
 50
231.375167
 51
270.0
  0
ELLIPSE
  5
162
330
1F
100
AcDbEntity
  8
1
100
AcDbEllipse
 10
400.8384809999999
 20
298.25707
 30
0.0
 11
-0.5666776289729544
 21
0.1998763706833375
 31
0.0
210
0.0
220
0.0
230
0.9999999999999998
 40
0.9986239999999998
 41
4.716354534537948
 42
5.980884578768146
  0
ELLIPSE
  5
163
330
1F
100
AcDbEntity
  8
1
100
AcDbEllipse
 10
400.433312
 20
298.559368
 30
0.0
 11
-0.0898897536456661
 21
0.0317055708602405
 31
0.0
210
0.0
220
0.0
230
1.0
 40
0.998624
 41
5.980884578768312
 42
6.657616495648713
  0
ELLIPSE
  5
164
330
1F
100
AcDbEntity
  8
1
100
AcDbEllipse
 10
400.242828
 20
298.552723
 30
0.0
 11
-0.089889753645666
 21
0.0317055708602404
 31
0.0
210
0.0
220
0.0
230
1.0
 40
0.998624
 41
2.315693149580223
 42
3.516023842058988
  0
ELLIPSE
  5
165
330
1F
100
AcDbEntity
  8
1
100
AcDbEllipse
 10
400.0430769999999
 20
299.016757
 30
0.0
 11
-0.5666776289729548
 21
0.1998763706833377
 31
0.0
210
0.0
220
0.0
230
1.0
 40
0.9986239999999998
 41
1.05116310534981
 42
2.31569314958001
  0
ELLIPSE
  5
166
330
1F
100
AcDbEntity
  8
1
100
AcDbEllipse
 10
399.660551
 20
298.686981
 30
0.0
 11
-0.0898897536456681
 21
0.0317055708602411
 31
0.0
210
0.0
220
0.0
230
1.0
 40
0.9986239999999998
 41
6.134017720050424
 42
7.334348412529238
  0
ELLIPSE
  5
167
330
1F
100
AcDbEntity
  8
1
100
AcDbEllipse
 10
399.492179
 20
298.77637
 30
0.0
 11
-0.0898897536456681
 21
0.0317055708602411
 31
0.0
210
0.0
220
0.0
230
1.0
 40
0.9986239999999998
 41
2.992425066460675
 42
3.669156983341089
  0
ELLIPSE
  5
168
330
1F
100
AcDbEntity
  8
1
100
AcDbEllipse
 10
398.995671
 20
298.6819759999999
 30
0.0
 11
-0.5666776289729544
 21
0.1998763706833375
 31
0.0
210
0.0
220
0.0
230
0.9999999999999998
 40
0.9986239999999998
 41
3.669156983341339
 42
4.933687027571509
  0
ELLIPSE
  5
169
330
1F
100
AcDbEntity
  8
1
100
AcDbEllipse
 10
399.054862
 20
299.183409
 30
0.0
 11
-0.0898897536456661
 21
0.0317055708602405
 31
0.0
210
0.0
220
0.0
230
1.0
 40
0.998624
 41
4.933687027571403
 42
5.610418944452148
  0
ELLIPSE
  5
16A
330
1F
100
AcDbEntity
  8
1
100
AcDbEllipse
 10
398.953717
 20
299.344879
 30
0.0
 11
-0.089889753645666
 21
0.0317055708602404
 31
0.0
210
0.0
220
0.0
230
1.0
 40
0.998624
 41
1.268495598383385
 42
2.468826290862319
  0
ELLIPSE
  5
16B
330
1F
100
AcDbEntity
  8
1
100
AcDbEllipse
 10
399.255989
 20
299.749353
 30
0.0
 11
-0.5666776289729548
 21
0.1998763706833377
 31
0.0
210
0.0
220
0.0
230
1.0
 40
0.9986239999999998
 41
0.0039655541532197
 42
1.268495598383389
  0
ELLIPSE
  5
16C
330
1F
100
AcDbEntity
  8
1
100
AcDbEllipse
 10
398.778539
 20
299.915634
 30
0.0
 11
-0.0898897536456681
 21
0.0317055708602411
 31
0.0
210
0.0
220
0.0
230
1.0
 40
0.9986239999999998
 41
5.086820168853599
 42
6.287150861332843
  0
ELLIPSE
  5
16D
330
1F
100
AcDbEntity
  8
1
100
AcDbEllipse
 10
398.771722
 20
300.10592
 30
0.0
 11
-0.0898897536456681
 21
0.0317055708602411
 31
0.0
210
0.0
220
0.0
230
1.0
 40
0.9986239999999998
 41
1.945227515263971
 42
2.621959432144618
  0
ELLIPSE
  5
16E
330
1F
100
AcDbEntity
  8
1
100
AcDbEllipse
 10
398.441262
 20
300.488322
 30
0.0
 11
-0.5666776289729544
 21
0.1998763706833375
 31
0.0
210
0.0
220
0.0
230
0.9999999999999998
 40
0.9986239999999998
 41
2.621959432144734
 42
3.886489476374937
  0
ELLIPSE
  5
16F
330
1F
100
AcDbEntity
  8
1
100
AcDbEllipse
 10
400.284071
 20
300.063416
 30
0.0
 11
1.98041950447234
 21
-0.6985260097559253
 31
0.0
210
0.0
220
0.0
230
1.0
 40
0.9986239999999998
 41
0.0
 42
6.283185307179585
  0
ELLIPSE
  5
170
330
1F
100
AcDbEntity
  8
1
100
AcDbEllipse
 10
400.294104
 20
300.091861
 30
0.0
 11
3.395004864809725
 21
-1.197473159581585
 31
0.0
210
0.0
220
0.0
230
0.9999999999999998
 40
0.9986239999999998
 41
0.0
 42
6.283185307179585
  0
ELLIPSE
  5
171
330
1F
100
AcDbEntity
  8
1
100
AcDbEllipse
 10
400.479414
 20
300.328496
 30
0.0
 11
3.531988007444661
 21
-1.24578933088394
 31
0.0
210
0.0
220
0.0
230
1.0
 40
0.9986239999999998
 41
1.945227552038383
 42
3.356097206659882
  0
ELLIPSE
  5
172
330
1F
100
AcDbEntity
  8
1
100
AcDbEllipse
 10
400.479414
 20
300.328496
 30
0.0
 11
3.531988007444661
 21
-1.24578933088394
 31
0.0
210
0.0
220
0.0
230
1.0
 40
0.9986239999999998
 41
5.419043491545753
 42
6.283185307179585
  0
ELLIPSE
  5
173
330
1F
100
AcDbEntity
  8
1
100
AcDbEllipse
 10
400.479414
 20
300.328496
 30
0.0
 11
3.531988007444661
 21
-1.24578933088394
 31
0.0
210
0.0
220
0.0
230
1.0
 40
0.9986239999999998
 41
0.0
 42
1.508938775396913
  0
ELLIPSE
  5
174
330
1F
100
AcDbEntity
  8
1
100
AcDbEllipse
 10
400.479414
 20
300.328496
 30
0.0
 11
3.531988007444661
 21
-1.24578933088394
 31
0.0
210
0.0
220
0.0
230
1.0
 40
0.9986239999999998
 41
1.632540859458624
 42
1.945227552038381
  0
ELLIPSE
  5
175
330
1F
100
AcDbEntity
  8
1
100
AcDbEllipse
 10
395.706923
 20
295.163307
 30
0.0
 11
0.4817434594273201
 21
0.5170545788301837
 31
0.0
210
0.0
220
0.0
230
0.9999999999999998
 40
0.01483
 41
0.519873824261965
 42
1.53677966444837
  0
ELLIPSE
  5
176
330
1F
100
AcDbEntity
  8
1
100
AcDbEllipse
 10
400.459618
 20
300.27237
 30
0.0
 11
3.588083700633126
 21
-1.265575189707762
 31
0.0
210
0.0
220
0.0
230
0.9999999999999998
 40
0.9986239999999998
 41
1.945227451328569
 42
3.745261875445962
  0
ELLIPSE
  5
177
330
1F
100
AcDbEntity
  8
1
100
AcDbEllipse
 10
400.459618
 20
300.27237
 30
0.0
 11
3.588083700633126
 21
-1.265575189707762
 31
0.0
210
0.0
220
0.0
230
0.9999999999999998
 40
0.9986239999999998
 41
4.874566385899282
 42
6.283185307179585
  0
ELLIPSE
  5
178
330
1F
100
AcDbEntity
  8
1
100
AcDbEllipse
 10
400.459618
 20
300.27237
 30
0.0
 11
3.588083700633126
 21
-1.265575189707762
 31
0.0
210
0.0
220
0.0
230
0.9999999999999998
 40
0.9986239999999998
 41
0.0
 42
1.945227440221053
  0
ELLIPSE
  5
179
330
1F
100
AcDbEntity
  8
1
100
AcDbEllipse
 10
405.549608
 20
295.506664
 30
0.0
 11
0.5172967686388246
 21
-0.4819691094054985
 31
0.0
210
0.0
220
0.0
230
1.0
 40
0.033998
 41
1.585610887581408
 42
2.602516728120578
  0
ELLIPSE
  5
17A
330
1F
100
AcDbEntity
  8
1
100
AcDbEllipse
 10
400.4567399999999
 20
300.264211
 30
0.0
 11
-3.677921936877202
 21
1.297262589546714
 31
0.0
210
0.0
220
0.0
230
1.0
 40
0.9986239999999998
 41
0.0
 42
6.283185307179585
  0
ELLIPSE
  5
17B
330
1F
100
AcDbEntity
  8
1
100
AcDbEllipse
 10
395.3546970000001
 20
304.995748
 30
0.0
 11
0.5172967687191264
 21
-0.4819691094873037
 31
0.0
210
0.0
220
0.0
230
0.9999999999999998
 40
0.033998
 41
0.568705047406544
 42
1.585610887804035
  0
ELLIPSE
  5
17C
330
1F
100
AcDbEntity
  8
1
100
AcDbEllipse
 10
405.1973829999999
 20
305.339104
 30
0.0
 11
0.481743459615426
 21
0.5170545790232426
 31
0.0
210
0.0
220
0.0
230
1.0
 40
0.01483
 41
1.536779665067009
 42
2.553685504911431
  0
ELLIPSE
  5
17D
330
1F
100
AcDbEntity
  8
1
100
AcDbEllipse
 10
405.6462169999999
 20
281.048354
 30
0.0
 11
-0.3086390084417319
 21
0.0885008115358406
 31
0.0
210
0.0
220
0.0
230
0.9999999999999998
 40
0.6229040000000001
 41
2.976210626445484
 42
3.306974680734093
  0
ELLIPSE
  5
17E
330
1F
100
AcDbEntity
  8
1
100
AcDbEllipse
 10
406.473427
 20
289.155723
 30
0.0
 11
0.1593661327311341
 21
-0.2546671899208437
 31
0.0
210
0.0
220
0.0
230
1.0
 40
0.9668319999999999
 41
1.515965210079371
 42
2.029724468564479
  0
ELLIPSE
  5
17F
330
1F
100
AcDbEntity
  8
1
100
AcDbEllipse
 10
406.9699069999999
 20
280.668792
 30
0.0
 11
-0.2941597133632818
 21
0.0843489404830548
 31
0.0
210
0.0
220
0.0
230
0.9999999999999998
 40
0.9803469999999999
 41
2.884713024277096
 42
3.398472282902498
  0
ELLIPSE
  5
180
330
1F
100
AcDbEntity
  8
1
100
AcDbEllipse
 10
406.3057319999999
 20
279.54846
 30
0.0
 11
0.2546671892705223
 21
0.1593661334610533
 31
0.0
210
0.0
220
0.0
230
0.9999999999999998
 40
0.9668319999999999
 41
4.657557860320061
 42
5.171317119080325
  0
ELLIPSE
  5
181
330
1F
100
AcDbEntity
  8
1
100
AcDbEllipse
 10
407.105838
 20
288.014824
 30
0.0
 11
0.1315188415610508
 21
-0.270103195426689
 31
0.0
210
0.0
220
0.0
230
0.9999999999999996
 40
0.9668319999999999
 41
1.111868185710682
 42
1.625627444246848
  0
ELLIPSE
  5
182
330
1F
100
AcDbEntity
  8
1
100
AcDbEllipse
 10
406.37015
 20
287.831396
 30
0.0
 11
0.3432777289711226
 21
0.1251911937412115
 31
0.0
210
0.0
220
0.0
230
0.9999999999999998
 40
0.81881
 41
6.264719817966119
 42
6.411625138281327
  0
ELLIPSE
  5
183
330
1F
100
AcDbEntity
  8
1
100
AcDbEllipse
 10
405.928017
 20
288.6290259999999
 30
0.0
 11
0.2880776769654342
 21
0.2247748232417053
 31
0.0
210
0.0
220
0.0
230
0.9999999999999998
 40
0.81881
 41
6.154745499821597
 42
6.301650810510184
  0
ELLIPSE
  5
184
330
1F
100
AcDbEntity
  8
1
100
AcDbEllipse
 10
405.779035
 20
280.0938700000001
 30
0.0
 11
0.2800576530636439
 21
-0.2346916582000809
 31
0.0
210
0.0
220
0.0
230
1.0
 40
0.8188100000000002
 41
6.264719805832056
 42
6.411625118081285
  0
ELLIPSE
  5
185
330
1F
100
AcDbEntity
  8
1
100
AcDbEllipse
 10
406.248736
 20
280.875584
 30
0.0
 11
0.3386995407310381
 21
-0.1370951721339542
 31
0.0
210
0.0
220
0.0
230
1.0
 40
0.81881
 41
6.154745497164759
 42
6.301650808959027
  0
ELLIPSE
  5
186
330
1F
100
AcDbEntity
  8
1
100
AcDbEllipse
 10
405.779035
 20
280.0938700000001
 30
0.0
 11
0.2247748168342253
 21
-0.2880776656819552
 31
0.0
210
0.0
220
0.0
230
1.0
 40
0.8188100000000002
 41
6.154745493328261
 42
6.301650806601855
  0
ELLIPSE
  5
187
330
1F
100
AcDbEntity
  8
1
100
AcDbEllipse
 10
405.928017
 20
288.6290259999999
 30
0.0
 11
0.2346916526023523
 21
0.2800576432505988
 31
0.0
210
0.0
220
0.0
230
0.9999999999999998
 40
0.81881
 41
6.26471981005888
 42
6.41162512454746
  0
ELLIPSE
  5
188
330
1F
100
AcDbEntity
  8
1
100
AcDbEllipse
 10
406.248736
 20
280.875584
 30
0.0
 11
0.3598828755074931
 21
-0.0632201120490976
 31
0.0
210
0.0
220
0.0
230
1.0
 40
0.81881
 41
6.264719805418776
 42
6.411625116790915
  0
ELLIPSE
  5
189
330
1F
100
AcDbEntity
  8
1
100
AcDbEllipse
 10
406.37015
 20
287.831396
 30
0.0
 11
0.3618699651561059
 21
0.0506218686349958
 31
0.0
210
0.0
220
0.0
230
1.0
 40
0.81881
 41
6.154745483704118
 42
6.301650800969232
  0
ELLIPSE
  5
18A
330
1F
100
AcDbEntity
  8
1
100
AcDbEllipse
 10
396.413011
 20
309.821635
 30
0.0
 11
7.100024600775988
 21
15.80248546795661
 31
0.0
210
0.0
220
0.0
230
0.9999999999999998
 40
0.725012
 41
3.07201550045199
 42
3.078223377903373
  0
ELLIPSE
  5
18B
330
1F
100
AcDbEntity
  8
1
100
AcDbEllipse
 10
406.329309
 20
293.649559
 30
0.0
 11
0.0003016037634464
 21
0.5003084758556035
 31
0.0
210
0.0
220
0.0
230
1.0
 40
0.140101
 41
3.195395734393271
 42
4.766192061193542
  0
ELLIPSE
  5
18C
330
1F
100
AcDbEntity
  8
1
100
AcDbEllipse
 10
405.683969
 20
279.392867
 30
0.0
 11
0.0538770024347367
 21
0.4991611425065122
 31
0.0
210
0.0
220
0.0
230
1.0
 40
0.139171
 41
1.583568179242801
 42
3.154364506043566
  0
ELLIPSE
  5
18D
330
1F
100
AcDbEntity
  8
1
100
AcDbEllipse
 10
407.1956079999999
 20
288.907994
 30
0.0
 11
1.894178464857422
 21
17.49802084120441
 31
0.0
210
0.0
220
0.0
230
1.0
 40
0.138944
 41
1.920898967582756
 42
3.156632395651056
  0
ELLIPSE
  5
18E
330
1F
100
AcDbEntity
  8
1
100
AcDbEllipse
 10
406.584842
 20
288.907994
 30
0.0
 11
0.0
 21
17.50000000001019
 31
0.0
210
0.0
220
0.0
230
1.0
 40
0.140541
 41
1.536552321265606
 42
1.905859225521001
  0
ELLIPSE
  5
18F
330
1F
100
AcDbEntity
  8
1
100
AcDbEllipse
 10
396.041127
 20
295.686459
 30
0.0
 11
-2.357642267228976
 21
0.8315785830427651
 31
0.0
210
0.0
220
0.0
230
1.0
 40
0.9986239999999998
 41
0.0520252572636118
 42
1.945227431237595
  0
ELLIPSE
  5
190
330
1F
100
AcDbEntity
  8
1
100
AcDbEllipse
 10
396.041127
 20
295.686459
 30
0.0
 11
-2.357642267228976
 21
0.8315785830427651
 31
0.0
210
0.0
220
0.0
230
1.0
 40
0.9986239999999998
 41
1.945227431237595
 42
2.645311779347058
  0
ELLIPSE
  5
191
330
1F
100
AcDbEntity
  8
1
100
AcDbEllipse
 10
395.959848
 20
295.456022
 30
0.0
 11
-2.357642267228976
 21
0.8315785830427655
 31
0.0
210
0.0
220
0.0
230
1.0
 40
0.9986239999999998
 41
5.822888314034132
 42
5.942244189143313
  0
ELLIPSE
  5
192
330
1F
100
AcDbEntity
  8
1
100
AcDbEllipse
 10
395.954616
 20
295.441187
 30
0.0
 11
2.357642267228975
 21
-0.831578583042768
 31
0.0
210
0.0
220
0.0
230
1.0
 40
0.9986239999999998
 41
2.80065153555351
 42
4.525803034524091
  0
ELLIPSE
  5
193
330
1F
100
AcDbEntity
  8
1
100
AcDbEllipse
 10
394.305537
 20
288.908124
 30
0.0
 11
0.5852398727958045
 21
-17.49986639633647
 31
0.0
210
0.0
220
0.0
230
1.0
 40
0.0191
 41
3.22249247730891
 42
3.239647581643712
  0
ELLIPSE
  5
194
330
1F
100
AcDbEntity
  8
1
100
AcDbEllipse
 10
324.6057120000001
 20
288.907994
 30
0.0
 11
99.23821388793779
 21
-15.0600160356779
 31
0.0
210
0.0
220
0.0
230
1.0
 40
0.089817
 41
4.394077793439497
 42
4.505583260915863
  0
ELLIPSE
  5
195
330
1F
100
AcDbEntity
  8
1
100
AcDbEllipse
 10
394.833024
 20
305.341446
 30
0.0
 11
-11.88251702683404
 21
4.191156058535537
 31
0.0
210
0.0
220
0.0
230
1.0
 40
0.9986239999999998
 41
1.386722154625872
 42
1.945227515264129
  0
ELLIPSE
  5
196
330
1F
100
AcDbEntity
  8
1
100
AcDbEllipse
 10
302.904842
 20
277.589236
 30
0.0
 11
-2.966799128328755
 21
-9.549769784248168
 31
0.0
210
0.0
220
0.0
230
1.0
 40
0.178196
 41
4.19161437750534
 42
5.469567637078817
  0
ELLIPSE
  5
197
330
1F
100
AcDbEntity
  8
1
100
AcDbEllipse
 10
400.3102339999999
 20
300.1375910000001
 30
0.0
 11
-3.395004864809727
 21
1.197473159581583
 31
0.0
210
0.0
220
0.0
230
0.9999999999999996
 40
0.9986239999999998
 41
3.141585274248863
 42
5.872218228534567
  0
ELLIPSE
  5
198
330
1F
100
AcDbEntity
  8
1
100
AcDbEllipse
 10
400.3102339999999
 20
300.1375910000001
 30
0.0
 11
-3.395004864809727
 21
1.197473159581583
 31
0.0
210
0.0
220
0.0
230
0.9999999999999996
 40
0.9986239999999998
 41
5.872218228534575
 42
6.283185307179585
  0
ELLIPSE
  5
199
330
1F
100
AcDbEntity
  8
1
100
AcDbEllipse
 10
398.905622
 20
300.687457
 30
0.0
 11
-0.0898897536456661
 21
0.0317055708602405
 31
0.0
210
0.0
220
0.0
230
1.0
 40
0.998624
 41
3.886489476374966
 42
4.563221393255449
  0
ELLIPSE
  5
19A
330
1F
100
AcDbEntity
  8
1
100
AcDbEllipse
 10
398.99496
 20
300.855572
 30
0.0
 11
-0.089889753645666
 21
0.0317055708602404
 31
0.0
210
0.0
220
0.0
230
1.0
 40
0.998624
 41
0.2212980471867456
 42
1.421628739665826
  0
ELLIPSE
  5
19B
330
1F
100
AcDbEntity
  8
1
100
AcDbEllipse
 10
399.496983
 20
300.7960109999999
 30
0.0
 11
-0.5666776289729548
 21
0.1998763706833377
 31
0.0
210
0.0
220
0.0
230
1.0
 40
0.9986239999999998
 41
5.239953310136249
 42
6.504483354366407
  0
ELLIPSE
  5
19C
330
1F
100
AcDbEntity
  8
1
100
AcDbEllipse
 10
399.402059
 20
301.292069
 30
0.0
 11
-0.0898897536456681
 21
0.0317055708602411
 31
0.0
210
0.0
220
0.0
230
1.0
 40
0.9986239999999998
 41
4.039622617657164
 42
5.239953310136172
  0
ELLIPSE
  5
19D
330
1F
100
AcDbEntity
  8
1
100
AcDbEllipse
 10
399.563615
 20
301.392966
 30
0.0
 11
-0.0898897536456681
 21
0.0317055708602411
 31
0.0
210
0.0
220
0.0
230
1.0
 40
0.9986239999999998
 41
0.8980299640674177
 42
1.574761880948038
  0
ELLIPSE
  5
19E
330
1F
100
AcDbEntity
  8
1
100
AcDbEllipse
 10
399.729662
 20
301.869761
 30
0.0
 11
-0.5666776289729544
 21
0.1998763706833375
 31
0.0
210
0.0
220
0.0
230
0.9999999999999998
 40
0.9986239999999998
 41
1.57476188094813
 42
2.83929192517832
  0
ELLIPSE
  5
19F
330
1F
100
AcDbEntity
  8
1
100
AcDbEllipse
 10
400.134831
 20
301.567464
 30
0.0
 11
-0.0898897536456661
 21
0.0317055708602405
 31
0.0
210
0.0
220
0.0
230
1.0
 40
0.998624
 41
2.839291925178375
 42
3.516023842058973
  0
ELLIPSE
  5
1A0
330
1F
100
AcDbEntity
  8
1
100
AcDbEllipse
 10
400.3253149999999
 20
301.574109
 30
0.0
 11
-0.089889753645666
 21
0.0317055708602404
 31
0.0
210
0.0
220
0.0
230
1.0
 40
0.998624
 41
5.457285803169746
 42
6.657616495648737
  0
ELLIPSE
  5
1A1
330
1F
100
AcDbEntity
  8
1
100
AcDbEllipse
 10
400.525066
 20
301.110074
 30
0.0
 11
-0.5666776289729548
 21
0.1998763706833377
 31
0.0
210
0.0
220
0.0
230
1.0
 40
0.9986239999999998
 41
4.19275575893962
 42
5.457285803169837
  0
ELLIPSE
  5
1A2
330
1F
100
AcDbEntity
  8
1
100
AcDbEllipse
 10
400.9075919999999
 20
301.43985
 30
0.0
 11
-0.0898897536456681
 21
0.0317055708602411
 31
0.0
210
0.0
220
0.0
230
1.0
 40
0.9986239999999998
 41
2.992425066460727
 42
4.192755758939703
  0
ELLIPSE
  5
1A3
330
1F
100
AcDbEntity
  8
1
100
AcDbEllipse
 10
401.0759639999999
 20
301.350462
 30
0.0
 11
-0.0898897536456681
 21
0.0317055708602411
 31
0.0
210
0.0
220
0.0
230
1.0
 40
0.9986239999999998
 41
6.134017720050445
 42
6.810749636931011
  0
ELLIPSE
  5
1A4
330
1F
100
AcDbEntity
  8
1
100
AcDbEllipse
 10
401.5724719999999
 20
301.444856
 30
0.0
 11
-0.5666776289729544
 21
0.1998763706833375
 31
0.0
210
0.0
220
0.0
230
0.9999999999999998
 40
0.9986239999999998
 41
0.5275643297515332
 42
1.792094373981673
  0
ELLIPSE
  5
1A5
330
1F
100
AcDbEntity
  8
1
100
AcDbEllipse
 10
401.5132809999999
 20
300.943422
 30
0.0
 11
-0.0898897536456661
 21
0.0317055708602405
 31
0.0
210
0.0
220
0.0
230
1.0
 40
0.998624
 41
1.792094373981738
 42
2.468826290862681
  0
ELLIPSE
  5
1A6
330
1F
100
AcDbEntity
  8
1
100
AcDbEllipse
 10
401.6144259999999
 20
300.781952
 30
0.0
 11
-0.089889753645666
 21
0.0317055708602404
 31
0.0
210
0.0
220
0.0
230
1.0
 40
0.998624
 41
4.410088251972969
 42
5.61041894445224
  0
ELLIPSE
  5
1A7
330
1F
100
AcDbEntity
  8
1
100
AcDbEllipse
 10
401.312154
 20
300.377479
 30
0.0
 11
-0.5666776289729548
 21
0.1998763706833377
 31
0.0
210
0.0
220
0.0
230
1.0
 40
0.9986239999999998
 41
3.145558207743012
 42
4.410088251973175
  0
ELLIPSE
  5
1A8
330
1F
100
AcDbEntity
  8
1
100
AcDbEllipse
 10
401.789604
 20
300.211197
 30
0.0
 11
-0.0898897536456681
 21
0.0317055708602411
 31
0.0
210
0.0
220
0.0
230
1.0
 40
0.9986239999999998
 41
1.945227515263999
 42
3.145558207743123
  0
ELLIPSE
  5
1A9
330
1F
100
AcDbEntity
  8
1
100
AcDbEllipse
 10
401.796421
 20
300.020912
 30
0.0
 11
-0.0898897536456681
 21
0.0317055708602411
 31
0.0
210
0.0
220
0.0
230
1.0
 40
0.9986239999999998
 41
5.086820168854041
 42
5.763552085734549
  0
ELLIPSE
  5
1AA
330
1F
100
AcDbEntity
  8
1
100
AcDbEllipse
 10
402.126881
 20
299.63851
 30
0.0
 11
-0.5666776289729544
 21
0.1998763706833375
 31
0.0
210
0.0
220
0.0
230
0.9999999999999998
 40
0.9986239999999998
 41
5.763552085734505
 42
7.028082129964699
  0
ELLIPSE
  5
1AB
330
1F
100
AcDbEntity
  8
1
100
AcDbEllipse
 10
401.6625209999999
 20
299.4393740000001
 30
0.0
 11
-0.0898897536456661
 21
0.0317055708602405
 31
0.0
210
0.0
220
0.0
230
1.0
 40
0.998624
 41
0.7448968227851739
 42
1.421628739665951
  0
ELLIPSE
  5
1AC
330
1F
100
AcDbEntity
  8
1
100
AcDbEllipse
 10
401.573183
 20
299.27126
 30
0.0
 11
-0.089889753645666
 21
0.0317055708602404
 31
0.0
210
0.0
220
0.0
230
1.0
 40
0.998624
 41
3.362890700776571
 42
4.56322139325546
  0
ELLIPSE
  5
1AD
330
1F
100
AcDbEntity
  8
1
100
AcDbEllipse
 10
401.07116
 20
299.33082
 30
0.0
 11
-0.5666776289729548
 21
0.1998763706833377
 31
0.0
210
0.0
220
0.0
230
1.0
 40
0.9986239999999998
 41
2.098360656546435
 42
3.362890700776584
  0
ELLIPSE
  5
1AE
330
1F
100
AcDbEntity
  8
1
100
AcDbEllipse
 10
401.166084
 20
298.834763
 30
0.0
 11
-0.0898897536456681
 21
0.0317055708602411
 31
0.0
210
0.0
220
0.0
230
1.0
 40
0.9986239999999998
 41
0.8980299640674642
 42
2.09836065654647
  0
ELLIPSE
  5
1AF
330
1F
100
AcDbEntity
  8
1
100
AcDbEllipse
 10
401.0045279999999
 20
298.733865
 30
0.0
 11
-0.0898897536456681
 21
0.0317055708602411
 31
0.0
210
0.0
220
0.0
230
1.0
 40
0.9986239999999998
 41
4.039622617657141
 42
4.716354534537683
  0
ELLIPSE
  5
1B0
330
1F
100
AcDbEntity
  8
1
100
AcDbEllipse
 10
398.55256
 20
288.907994
 30
0.0
 11
30.01425519385823
 21
-17.26491454413128
 31
0.0
210
0.0
220
0.0
230
1.0
 40
0.095248
 41
4.183196145350093
 42
4.433900572523463
  0
ELLIPSE
  5
1B1
330
1F
100
AcDbEntity
  8
1
100
AcDbEllipse
 10
394.7760160000001
 20
288.907993
 30
0.0
 11
0.5852444500561383
 21
-17.49999657345894
 31
0.0
210
0.0
220
0.0
230
0.9999999999999998
 40
0.0191
 41
3.017610108123828
 42
3.107063563950963
  0
ELLIPSE
  5
1B2
330
1F
100
AcDbEntity
  8
1
100
AcDbEllipse
 10
395.954616
 20
295.441187
 30
0.0
 11
2.357642267228975
 21
-0.831578583042768
 31
0.0
210
0.0
220
0.0
230
1.0
 40
0.9986239999999998
 41
5.637542175041883
 42
5.809792633311547
  0
ELLIPSE
  5
1B3
330
1F
100
AcDbEntity
  8
1
100
AcDbEllipse
 10
394.599976
 20
288.907994
 30
0.0
 11
0.4906897031017732
 21
-17.4998641074219
 31
0.0
210
0.0
220
0.0
230
1.0
 40
0.140543
 41
3.103761567425857
 42
3.219413948483931
  0
ELLIPSE
  5
1B4
330
1F
100
AcDbEntity
  8
1
100
AcDbEllipse
 10
287.557398
 20
288.907993
 30
0.0
 11
457.2637879281071
 21
17.06585608721203
 31
0.0
210
0.0
220
0.0
230
1.0
 40
0.008472
 41
4.950195458261331
 42
4.969846203361131
  0
ELLIPSE
  5
1B5
330
1F
100
AcDbEntity
  8
1
100
AcDbEllipse
 10
395.959848
 20
295.456022
 30
0.0
 11
-2.357642267228976
 21
0.8315785830427655
 31
0.0
210
0.0
220
0.0
230
1.0
 40
0.9986239999999998
 41
2.668199979721756
 42
2.776747666076901
  0
ELLIPSE
  5
1B6
330
1F
100
AcDbEntity
  8
1
100
AcDbEllipse
 10
406.0831109999999
 20
289.18504
 30
0.0
 11
0.0001758288822664
 21
-0.5000776676664015
 31
0.0
210
0.0
220
0.0
230
0.9999999999999998
 40
0.140519
 41
3.139090475969509
 42
4.70988680276313
  0
ELLIPSE
  5
1B7
330
1F
100
AcDbEntity
  8
1
100
AcDbEllipse
 10
301.194741
 20
270.396175
 30
0.0
 11
-23.85820345973488
 21
4.928640444847848
 31
0.0
210
0.0
220
0.0
230
0.9999999999999998
 40
0.5130939999999999
 41
4.746651094388507
 42
6.182824889382791
  0
ELLIPSE
  5
1B8
330
1F
100
AcDbEntity
  8
1
100
AcDbEllipse
 10
405.761969
 20
287.67976
 30
0.0
 11
-0.3115396276772998
 21
-0.0776755531752887
 31
0.0
210
-0.0000000000000001
220
0.0
230
1.0
 40
0.6229040000000001
 41
2.976210626445514
 42
3.306974680734071
  0
SPLINE
  5
1CA
330
1F
100
AcDbEntity
  8
1
100
AcDbSpline
210
0.0
220
0.0
230
1.0
 70
     8
 71
     3
 72
    36
 73
    32
 74
     0
 42
0.000000001
 43
0.0000000001
 40
0.0
 40
0.0
 40
0.0
 40
0.0
 40
0.1249999999999002
 40
0.1249999999999002
 40
0.1874999999998544
 40
0.1874999999998544
 40
0.2187499999998315
 40
0.2187499999998315
 40
0.2499999999998087
 40
0.2499999999998087
 40
0.3749999999997666
 40
0.3749999999997666
 40
0.4062499999997395
 40
0.4062499999997395
 40
0.4374999999997124
 40
0.4374999999997124
 40
0.4999999999997032
 40
0.4999999999997032
 40
0.6249999999996909
 40
0.6249999999996909
 40
0.6562499999997177
 40
0.6562499999997177
 40
0.6874999999997446
 40
0.7499999999997944
 40
0.8124999999998443
 40
0.8124999999998443
 40
0.8437499999998363
 40
0.8437499999998363
 40
0.8749999999998282
 40
0.8749999999998282
 40
1.0
 40
1.0
 40
1.0
 40
1.0
 10
406.606553292615
 20
306.0605638276022
 30
0.0
 10
406.604722096032
 20
306.1116819821351
 30
0.0
 10
406.5977612719321
 20
306.1617409483903
 30
0.0
 10
406.5800655543896
 20
306.2353314602277
 30
0.0
 10
406.5729480997577
 20
306.2596099506456
 30
0.0
 10
406.5604138379034
 20
306.2956440216793
 30
0.0
 10
406.555912902697
 20
306.3076216324022
 30
0.0
 10
406.5463427069558
 20
306.3312900838336
 30
0.0
 10
406.5412834239737
 20
306.3429614168061
 30
0.0
 10
406.5146463691092
 20
306.4005216105606
 30
0.0
 10
406.4890860641431
 20
306.4440444576123
 30
0.0
 10
406.4518946422372
 20
306.4953343262222
 30
0.0
 10
406.4441918658026
 20
306.5054351658245
 30
0.0
 10
406.4282492103413
 20
306.5253177536167
 30
0.0
 10
406.4199892651053
 20
306.535120499922
 30
0.0
 10
406.3946430561663
 20
306.5637577226049
 30
0.0
 10
406.3769394723581
 20
306.5818975480981
 30
0.0
 10
406.3214791553898
 20
306.6335432399057
 30
0.0
 10
406.2813959964199
 20
306.6643026392101
 30
0.0
 10
406.2272807176985
 20
306.6980163040437
 30
0.0
 10
406.2162347265678
 20
306.7045297628251
 30
0.0
 10
406.1939691825585
 20
306.7169374467593
 30
0.0
 10
406.1602353051243
 20
306.7346696150476
 30
0.0
 10
406.1023645234126
 20
306.7599054622192
 30
0.0
 10
406.0543251900306
 20
306.7755272753924
 30
0.0
 10
406.0176279282769
 20
306.7854937280582
 30
0.0
 10
406.0052840084794
 20
306.7885236889755
 30
0.0
 10
405.9803681433066
 20
306.7939860569321
 30
0.0
 10
405.9677778577421
 20
306.7964201615233
 30
0.0
 10
405.9048293019798
 20
306.8069659016412
 30
0.0
 10
405.8540716955831
 20
306.8103579165976
 30
0.0
 10
405.8029048644206
 20
306.8085729914153
 30
0.0
  0
SPLINE
  5
1CB
330
1F
100
AcDbEntity
  8
1
100
AcDbSpline
210
0.0
220
0.0
230
1.0
 70
     8
 71
     3
 72
    36
 73
    32
 74
     0
 42
0.000000001
 43
0.0000000001
 40
0.0
 40
0.0
 40
0.0
 40
0.0
 40
0.1249999999999537
 40
0.1249999999999537
 40
0.1874999999999295
 40
0.1874999999999295
 40
0.2187499999999013
 40
0.2187499999999013
 40
0.2499999999998732
 40
0.2499999999998732
 40
0.3749999999998571
 40
0.3749999999998571
 40
0.4062499999998498
 40
0.4062499999998498
 40
0.4374999999998427
 40
0.4374999999998427
 40
0.4999999999998594
 40
0.4999999999998594
 40
0.6249999999998864
 40
0.6249999999998864
 40
0.6562499999998877
 40
0.6562499999998877
 40
0.687499999999889
 40
0.7499999999999068
 40
0.8124999999999246
 40
0.8124999999999246
 40
0.843749999999934
 40
0.843749999999934
 40
0.8749999999999433
 40
0.8749999999999433
 40
1.0
 40
1.0
 40
1.0
 40
1.0
 10
394.6647256653424
 20
306.4200240802164
 30
0.0
 10
394.6135542444815
 20
306.4182389949251
 30
0.0
 10
394.563447578748
 20
306.4113288614928
 30
0.0
 10
394.489793390508
 20
306.3937156562505
 30
0.0
 10
394.4654949973956
 20
306.3866267938522
 30
0.0
 10
394.4294330887732
 20
306.3741370791134
 30
0.0
 10
394.4174465139013
 20
306.3696513095913
 30
0.0
 10
394.3937609327193
 20
306.3601118062555
 30
0.0
 10
394.3820814464589
 20
306.3550680224591
 30
0.0
 10
394.3244824987388
 20
306.3285092115395
 30
0.0
 10
394.2809350293074
 20
306.3030138734078
 30
0.0
 10
394.2296222502035
 20
306.2659065843111
 30
0.0
 10
394.2195172255392
 20
306.258220782013
 30
0.0
 10
394.1996270738836
 20
306.242312374504
 30
0.0
 10
394.1898209435773
 20
306.2340697427118
 30
0.0
 10
394.1611748853321
 20
306.2087754148134
 30
0.0
 10
394.1430308867818
 20
306.191106459835
 30
0.0
 10
394.0913776812557
 20
306.1357501502263
 30
0.0
 10
394.0606198974458
 20
306.0957364894655
 30
0.0
 10
394.0269167976119
 20
306.0417082898632
 30
0.0
 10
394.0204058903791
 20
306.0306797553146
 30
0.0
 10
394.0080041238595
 20
306.0084487755437
 30
0.0
 10
393.9902820650307
 20
305.974766344389
 30
0.0
 10
393.9650691228157
 20
305.9169793420363
 30
0.0
 10
393.9494720388355
 20
305.8690049543707
 30
0.0
 10
393.9395265873862
 20
305.832355605755
 30
0.0
 10
393.9365040366837
 20
305.8200275240668
 30
0.0
 10
393.9310573272521
 20
305.7951430632456
 30
0.0
 10
393.9286314849899
 20
305.7825683650331
 30
0.0
 10
393.9181287973687
 20
305.7196963396549
 30
0.0
 10
393.9147769814601
 20
305.6689960277437
 30
0.0
 10
393.9166080137983
 20
305.6178824581313
 30
0.0
  0
SPLINE
  5
1CC
330
1F
100
AcDbEntity
  8
1
100
AcDbSpline
210
0.0
220
0.0
230
1.0
 70
     8
 71
     3
 72
    36
 73
    32
 74
     0
 42
0.000000001
 43
0.0000000001
 40
0.0
 40
0.0
 40
0.0
 40
0.0
 40
0.1250000000000119
 40
0.1250000000000119
 40
0.1875000000000209
 40
0.1875000000000209
 40
0.2187500000000197
 40
0.2187500000000197
 40
0.2500000000000186
 40
0.2500000000000186
 40
0.3750000000000103
 40
0.3750000000000103
 40
0.4062500000000079
 40
0.4062500000000079
 40
0.4375000000000053
 40
0.4375000000000053
 40
0.5000000000000002
 40
0.5000000000000002
 40
0.6250000000000152
 40
0.6250000000000152
 40
0.6562500000000196
 40
0.6562500000000196
 40
0.6875000000000239
 40
0.7500000000000325
 40
0.8125000000000412
 40
0.8125000000000412
 40
0.8437500000000454
 40
0.8437500000000454
 40
0.8750000000000497
 40
0.8750000000000497
 40
1.0
 40
1.0
 40
1.0
 40
1.0
 10
394.3151936959266
 20
294.491297424236
 30
0.0
 10
394.3170248925095
 20
294.4401792697032
 30
0.0
 10
394.3239857166095
 20
294.3901203034479
 30
0.0
 10
394.3416814341521
 20
294.3165297916105
 30
0.0
 10
394.348798888784
 20
294.2922513011925
 30
0.0
 10
394.3613331506382
 20
294.2562172301589
 30
0.0
 10
394.3658340858445
 20
294.244239619436
 30
0.0
 10
394.3754042815856
 20
294.2205711680047
 30
0.0
 10
394.3804635645677
 20
294.2088998350321
 30
0.0
 10
394.4071006194324
 20
294.1513396412776
 30
0.0
 10
394.4326609243987
 20
294.1078167942259
 30
0.0
 10
394.4698523463044
 20
294.056526925616
 30
0.0
 10
394.4775551227391
 20
294.0464260860137
 30
0.0
 10
394.4934977782003
 20
294.0265434982215
 30
0.0
 10
394.5017577234362
 20
294.0167407519162
 30
0.0
 10
394.5271039323754
 20
293.9881035292334
 30
0.0
 10
394.5448075161836
 20
293.9699637037401
 30
0.0
 10
394.6002678331517
 20
293.9183180119325
 30
0.0
 10
394.6403509921219
 20
293.887558612628
 30
0.0
 10
394.6944662708432
 20
293.8538449477945
 30
0.0
 10
394.7055122619738
 20
293.8473314890131
 30
0.0
 10
394.7277778059832
 20
293.8349238050789
 30
0.0
 10
394.7615116834172
 20
293.8171916367905
 30
0.0
 10
394.819382465129
 20
293.791955789619
 30
0.0
 10
394.867421798511
 20
293.7763339764458
 30
0.0
 10
394.9041190602647
 20
293.76636752378
 30
0.0
 10
394.9164629800622
 20
293.7633375628627
 30
0.0
 10
394.941378845235
 20
293.7578751949061
 30
0.0
 10
394.9539691307995
 20
293.7554410903149
 30
0.0
 10
395.0169176865618
 20
293.744895350197
 30
0.0
 10
395.0676752929584
 20
293.7415033352405
 30
0.0
 10
395.118842124121
 20
293.7432882604229
 30
0.0
  0
SPLINE
  5
1CD
330
1F
100
AcDbEntity
  8
1
100
AcDbSpline
210
0.0
220
0.0
230
1.0
 70
     8
 71
     3
 72
    36
 73
    32
 74
     0
 42
0.000000001
 43
0.0000000001
 40
0.0
 40
0.0
 40
0.0
 40
0.0
 40
0.1249999999999702
 40
0.1249999999999702
 40
0.1874999999999884
 40
0.1874999999999884
 40
0.2187499999999979
 40
0.2187499999999979
 40
0.2500000000000074
 40
0.2500000000000074
 40
0.3750000000000426
 40
0.3750000000000426
 40
0.4062500000000657
 40
0.4062500000000657
 40
0.4375000000000885
 40
0.4375000000000885
 40
0.5000000000000835
 40
0.5000000000000835
 40
0.6250000000000267
 40
0.6250000000000267
 40
0.6562500000000121
 40
0.6562500000000121
 40
0.6874999999999974
 40
0.7499999999999965
 40
0.8124999999999955
 40
0.8124999999999955
 40
0.8437499999999941
 40
0.8437499999999941
 40
0.8749999999999925
 40
0.8749999999999925
 40
1.0
 40
1.0
 40
1.0
 40
1.0
 10
406.2570213231992
 20
294.1318371716219
 30
0.0
 10
406.3081927440602
 20
294.1336222569131
 30
0.0
 10
406.3582994097936
 20
294.1405323903453
 30
0.0
 10
406.4319535980336
 20
294.1581455955877
 30
0.0
 10
406.456251991146
 20
294.1652344579861
 30
0.0
 10
406.4923138997685
 20
294.1777241727248
 30
0.0
 10
406.5043004746403
 20
294.1822099422468
 30
0.0
 10
406.5279860558223
 20
294.1917494455827
 30
0.0
 10
406.5396655420828
 20
294.1967932293792
 30
0.0
 10
406.5972644898028
 20
294.2233520402987
 30
0.0
 10
406.6408119592343
 20
294.2488473784304
 30
0.0
 10
406.6921247383381
 20
294.2859546675271
 30
0.0
 10
406.7022297630025
 20
294.2936404698252
 30
0.0
 10
406.722119914658
 20
294.3095488773342
 30
0.0
 10
406.7319260449641
 20
294.3177915091264
 30
0.0
 10
406.7605721032095
 20
294.3430858370247
 30
0.0
 10
406.7787161017598
 20
294.3607547920032
 30
0.0
 10
406.8303693072857
 20
294.4161111016119
 30
0.0
 10
406.8611270910959
 20
294.4561247623727
 30
0.0
 10
406.8948301909297
 20
294.5101529619751
 30
0.0
 10
406.9013410981626
 20
294.5211814965237
 30
0.0
 10
406.9137428646821
 20
294.5434124762945
 30
0.0
 10
406.9314649235109
 20
294.5770949074492
 30
0.0
 10
406.956677865726
 20
294.6348819098018
 30
0.0
 10
406.9722749497062
 20
294.6828562974675
 30
0.0
 10
406.9822204011554
 20
294.7195056460832
 30
0.0
 10
406.9852429518578
 20
294.7318337277714
 30
0.0
 10
406.9906896612896
 20
294.7567181885926
 30
0.0
 10
406.9931155035517
 20
294.7692928868051
 30
0.0
 10
407.003618191173
 20
294.8321649121833
 30
0.0
 10
407.0069700070813
 20
294.8828652240946
 30
0.0
 10
407.0051389747433
 20
294.9339787937068
 30
0.0
  0
SPLINE
  5
1CE
330
1F
100
AcDbEntity
  8
1
100
AcDbSpline
210
0.0
220
0.0
230
1.0
 70
     8
 71
     3
 72
     8
 73
     4
 74
     0
 42
0.000000001
 43
0.0000000001
 40
0.0
 40
0.0
 40
0.0
 40
0.0
 40
1.0
 40
1.0
 40
1.0
 40
1.0
 10
406.7311931720172
 20
287.8874807728481
 30
0.0
 10
406.7276505834055
 20
287.9092200467837
 30
0.0
 10
406.7223402636891
 20
287.9305185758535
 30
0.0
 10
406.7152622128679
 20
287.9513763600573
 30
0.0
  0
SPLINE
  5
1CF
330
1F
100
AcDbEntity
  8
1
100
AcDbSpline
210
0.0
220
0.0
230
1.0
 70
     8
 71
     3
 72
     8
 73
     4
 74
     0
 42
0.000000001
 43
0.0000000001
 40
0.0
 40
0.0
 40
0.0
 40
0.0
 40
1.0
 40
1.0
 40
1.0
 40
1.0
 10
406.5894505876546
 20
280.7436331788933
 30
0.0
 10
406.5972522528896
 20
280.7642312366872
 30
0.0
 10
406.6033026456478
 20
280.7853314637831
 30
0.0
 10
406.6076017659293
 20
280.8069338601809
 30
0.0
  0
SPLINE
  5
1D0
330
1F
100
AcDbEntity
  8
1
100
AcDbSpline
210
0.0
220
0.0
230
1.0
 70
     8
 71
     3
 72
     8
 73
     4
 74
     0
 42
0.000000001
 43
0.0000000001
 40
0.0
 40
0.0
 40
0.0
 40
0.0
 40
1.0
 40
1.0
 40
1.0
 40
1.0
 10
406.0081269389876
 20
279.8092402055162
 30
0.0
 10
406.0251824081698
 20
279.8231778142169
 30
0.0
 10
406.0409723155493
 20
279.8384259505285
 30
0.0
 10
406.0554966611258
 20
279.8549846144508
 30
0.0
  0
SPLINE
  5
1D1
330
1F
100
AcDbEntity
  8
1
100
AcDbSpline
210
0.0
220
0.0
230
1.0
 70
     8
 71
     3
 72
     8
 73
     4
 74
     0
 42
0.000000001
 43
0.0000000001
 40
0.0
 40
0.0
 40
0.0
 40
0.0
 40
1.0
 40
1.0
 40
1.0
 40
1.0
 10
406.2126469442886
 20
288.8581183071029
 30
0.0
 10
406.1987093355878
 20
288.8751737762852
 30
0.0
 10
406.1834611992763
 20
288.8909636836646
 30
0.0
 10
406.1669025353539
 20
288.9054880292412
 30
0.0
  0
SPLINE
  5
1D2
330
1F
100
AcDbEntity
  8
1
100
AcDbSpline
210
0.0
220
0.0
230
1.0
 70
    12
 71
     3
 72
     8
 73
     4
 74
     0
 42
0.000000001
 43
0.0000000001
 40
0.0
 40
0.0
 40
0.0
 40
0.0
 40
1.0
 40
1.0
 40
1.0
 40
1.0
 10
341.9656750778572
 20
275.0442939117346
 30
0.0
 41
1.003031559240901
 10
342.0400874711599
 20
275.0587298183383
 30
0.0
 41
1.003053738900775
 10
342.1145046349812
 20
275.0732505123893
 30
0.0
 41
1.00307599104583
 10
342.1889267521963
 20
275.0878557195685
 30
0.0
 41
1.003098306521712
  0
SPLINE
  5
1D3
330
1F
100
AcDbEntity
  8
1
100
AcDbSpline
210
0.0
220
0.0
230
1.0
 70
     9
 71
     3
 72
   133
 73
   129
 74
     0
 42
0.000000001
 43
0.0000000001
 40
0.0
 40
0.0
 40
0.0
 40
0.0
 40
0.0312499999999253
 40
0.0312499999999253
 40
0.0468749999998881
 40
0.0468749999998881
 40
0.0546874999998682
 40
0.0546874999998682
 40
0.0624999999998482
 40
0.0624999999998482
 40
0.0937499999997721
 40
0.0937499999997721
 40
0.1093749999997341
 40
0.1093749999997341
 40
0.1249999999996962
 40
0.1249999999996962
 40
0.1562499999996266
 40
0.1562499999996266
 40
0.164062499999613
 40
0.164062499999613
 40
0.1718749999995993
 40
0.1718749999995993
 40
0.1874999999995801
 40
0.2031249999995609
 40
0.2031249999995609
 40
0.2109374999995513
 40
0.2109374999995513
 40
0.2187499999995417
 40
0.2187499999995417
 40
0.2499999999995121
 40
0.2499999999995121
 40
0.2656249999994928
 40
0.2656249999994928
 40
0.2734374999994832
 40
0.2734374999994832
 40
0.2812499999994736
 40
0.2812499999994736
 40
0.3124999999994349
 40
0.3124999999994349
 40
0.3203124999994293
 40
0.3203124999994293
 40
0.3281249999994238
 40
0.3281249999994238
 40
0.3437499999994203
 40
0.3593749999994168
 40
0.3593749999994168
 40
0.3671874999994185
 40
0.3671874999994185
 40
0.3749999999994201
 40
0.3749999999994201
 40
0.4062499999994144
 40
0.4062499999994144
 40
0.4218749999994114
 40
0.4218749999994114
 40
0.4296874999994116
 40
0.4296874999994116
 40
0.4374999999994122
 40
0.4374999999994122
 40
0.4687499999994166
 40
0.4687499999994166
 40
0.4765624999994175
 40
0.4765624999994175
 40
0.4843749999994182
 40
0.4843749999994182
 40
0.4999999999994194
 40
0.4999999999994194
 40
0.5312499999994219
 40
0.5312499999994219
 40
0.539062499999422
 40
0.539062499999422
 40
0.546874999999422
 40
0.546874999999422
 40
0.5624999999994219
 40
0.5781249999994217
 40
0.5781249999994217
 40
0.5859374999994237
 40
0.5859374999994237
 40
0.5937499999994257
 40
0.5937499999994257
 40
0.6249999999994484
 40
0.6249999999994484
 40
0.6406249999994631
 40
0.6406249999994631
 40
0.6484374999994705
 40
0.6484374999994705
 40
0.6562499999994778
 40
0.6562499999994778
 40
0.687499999999514
 40
0.687499999999514
 40
0.6953124999995252
 40
0.6953124999995252
 40
0.7031249999995364
 40
0.7031249999995364
 40
0.7187499999995501
 40
0.7187499999995501
 40
0.7499999999995774
 40
0.7499999999995774
 40
0.757812499999591
 40
0.757812499999591
 40
0.7656249999996046
 40
0.7656249999996046
 40
0.7812499999996318
 40
0.7968749999996589
 40
0.7968749999996589
 40
0.8046874999996724
 40
0.8046874999996724
 40
0.8124999999996859
 40
0.8124999999996859
 40
0.8437499999997401
 40
0.8437499999997401
 40
0.8515624999997536
 40
0.8515624999997536
 40
0.8593749999997671
 40
0.8593749999997671
 40
0.8749999999997944
 40
0.8749999999997944
 40
0.9062499999998491
 40
0.9062499999998491
 40
0.9218749999998747
 40
0.9218749999998747
 40
0.9374999999998999
 40
0.9531249999999252
 40
0.9531249999999252
 40
0.960937499999938
 40
0.960937499999938
 40
0.9687499999999507
 40
0.9687499999999507
 40
1.0
 40
1.0
 40
1.0
 40
1.0
 10
399.9691615337858
 20
284.6341862655651
 30
0.0
 10
399.9708086294634
 20
284.7285483137394
 30
0.0
 10
399.9815596843042
 20
284.8214617960857
 30
0.0
 10
400.0109920926523
 20
284.9586938095029
 30
0.0
 10
400.0230359812999
 20
285.0040786932953
 30
0.0
 10
400.0445492295677
 20
285.0715962215273
 30
0.0
 10
400.0522958839733
 20
285.0940085833115
 30
0.0
 10
400.0689697060513
 20
285.138640450957
 30
0.0
 10
400.0778343814219
 20
285.1606912381801
 30
0.0
 10
400.124700158229
 20
285.2695049920588
 30
0.0
 10
400.1703115188743
 20
285.3521304625005
 30
0.0
 10
400.2509048667842
 20
285.4693692211115
 30
0.0
 10
400.2798122624906
 20
285.5073246807974
 30
0.0
 10
400.3418903794136
 20
285.5808774733159
 30
0.0
 10
400.3745886708001
 20
285.6159072320845
 30
0.0
 10
400.477231334185
 20
285.7155786180866
 30
0.0
 10
400.5518019763816
 20
285.7749983729742
 30
0.0
 10
400.6528726661654
 20
285.840228557836
 30
0.0
 10
400.6734991623384
 20
285.8528274632595
 30
0.0
 10
400.715498426099
 20
285.8770508707428
 30
0.0
 10
400.7367194740689
 20
285.8885889378486
 30
0.0
 10
400.8010334691221
 20
285.9215153183964
 30
0.0
 10
400.8885177920611
 20
285.9609246303268
 30
0.0
 10
400.9794047556103
 20
285.9914946232323
 30
0.0
 10
401.0488608354008
 20
286.0110640972192
 30
0.0
 10
401.072228398341
 20
286.0170265737738
 30
0.0
 10
401.1194020465131
 20
286.0278101581121
 30
0.0
 10
401.1432768447956
 20
286.0326425188198
 30
0.0
 10
401.2628291450478
 20
286.0537196666555
 30
0.0
 10
401.3586917679096
 20
286.0608122271399
 30
0.0
 10
401.5028064407312
 20
286.0572502624133
 30
0.0
 10
401.5508985275945
 20
286.0536784087054
 30
0.0
 10
401.6231198739397
 20
286.0446377383656
 30
0.0
 10
401.6472341468673
 20
286.0410006938856
 30
0.0
 10
401.6949435990713
 20
286.0325758853638
 30
0.0
 10
401.7186057567362
 20
286.0277814786756
 30
0.0
 10
401.8359705406051
 20
286.0009515677269
 30
0.0
 10
401.9268631133483
 20
285.9704257972816
 30
0.0
 10
402.0367114824328
 20
285.9209168466854
 30
0.0
 10
402.0584910385258
 20
285.9104422538556
 30
0.0
 10
402.1016622160052
 20
285.8883252918448
 30
0.0
 10
402.1229221705423
 20
285.8767486928822
 30
0.0
 10
402.1855098006578
 20
285.840624072203
 30
0.0
 10
402.2659922812413
 20
285.7886405504526
 30
0.0
 10
402.3406829723118
 20
285.7292265808474
 30
0.0
 10
402.3945192403338
 20
285.681874993866
 30
0.0
 10
402.4121003913481
 20
285.6656251223863
 30
0.0
 10
402.4465245341273
 20
285.6321824337912
 30
0.0
 10
402.4634094950561
 20
285.6149437691245
 30
0.0
 10
402.5454140858399
 20
285.5269320269634
 30
0.0
 10
402.6029039825691
 20
285.4513131690234
 30
0.0
 10
402.6775181804937
 20
285.3304918532365
 30
0.0
 10
402.7004385603607
 20
285.2889766573942
 30
0.0
 10
402.7318357596571
 20
285.2248133159529
 30
0.0
 10
402.7418204096936
 20
285.2030641707803
 30
0.0
 10
402.7605891619965
 20
285.1593751726417
 30
0.0
 10
402.7693970531434
 20
285.1373921315126
 30
0.0
 10
402.8106146185341
 20
285.0268017093023
 30
0.0
 10
402.8346358829018
 20
284.9361884348897
 30
0.0
 10
402.8536341286161
 20
284.8203187100778
 30
0.0
 10
402.8568775697264
 20
284.7970133863443
 30
0.0
 10
402.8622366112093
 20
284.7501368549741
 30
0.0
 10
402.8643487083503
 20
284.7265599480396
 30
0.0
 10
402.8689320396466
 20
284.6561713890765
 30
0.0
 10
402.8696872435941
 20
284.6094535938172
 30
0.0
 10
402.8652635527798
 20
284.4699064402897
 30
0.0
 10
402.8534574787138
 20
284.3776790869693
 30
0.0
 10
402.8273788253745
 20
284.2634073410966
 30
0.0
 10
402.8215851563851
 20
284.2405926629918
 30
0.0
 10
402.8089747038221
 20
284.1955369497829
 30
0.0
 10
402.8021455246391
 20
284.1732361957004
 30
0.0
 10
402.7801109925963
 20
284.1070028903048
 30
0.0
 10
402.7466134819904
 20
284.0204727218552
 30
0.0
 10
402.7049631173895
 20
283.9374480256119
 30
0.0
 10
402.6706102584038
 20
283.8765094462955
 30
0.0
 10
402.6586391957239
 20
283.856418623197
 30
0.0
 10
402.6336353197049
 20
283.8166884554837
 30
0.0
 10
402.6205675328072
 20
283.7970021774925
 30
0.0
 10
402.5531632164447
 20
283.7006462415297
 30
0.0
 10
402.4924496253511
 20
283.6296708849722
 30
0.0
 10
402.3912764004986
 20
283.5321925846867
 30
0.0
 10
402.3558561757071
 20
283.5012079783267
 30
0.0
 10
402.3000771434963
 20
283.4570727014486
 30
0.0
 10
402.2809937690388
 20
283.4427181274658
 30
0.0
 10
402.2421460324038
 20
283.4149780053588
 30
0.0
 10
402.2224403596742
 20
283.4016303738588
 30
0.0
 10
402.1225214756756
 20
283.3374642269808
 30
0.0
 10
402.0381772992707
 20
283.2942856788534
 30
0.0
 10
401.9271197206076
 20
283.2506374287022
 30
0.0
 10
401.9046242747681
 20
283.2424288181074
 30
0.0
 10
401.8590518840031
 20
283.2270770092375
 30
0.0
 10
401.8359212356476
 20
283.2199189276939
 30
0.0
 10
401.7660027711401
 20
283.2001952440496
 30
0.0
 10
401.71907253453
 20
283.1894710709746
 30
0.0
 10
401.577352968803
 20
283.164369282669
 30
0.0
 10
401.4816437526532
 20
283.1569921899074
 30
0.0
 10
401.3604167591567
 20
283.1598588418215
 30
0.0
 10
401.336032780731
 20
283.161049307322
 30
0.0
 10
401.28765810375
 20
283.1646319879065
 30
0.0
 10
401.2636129983158
 20
283.1670225642798
 30
0.0
 10
401.1918956475872
 20
283.1759560062941
 30
0.0
 10
401.0973850820005
 20
283.1925564827342
 30
0.0
 10
401.0050574545438
 20
283.2183719393499
 30
0.0
 10
400.9366384287681
 20
283.241231666625
 30
0.0
 10
400.9139441297321
 20
283.2494458808001
 30
0.0
 10
400.8689466284698
 20
283.2670196525126
 30
0.0
 10
400.8467816386222
 20
283.2763236306297
 30
0.0
 10
400.7375795567116
 20
283.3253624006774
 30
0.0
 10
400.6553634331886
 20
283.3725788101917
 30
0.0
 10
400.5587973072738
 20
283.4413121498816
 30
0.0
 10
400.5397972030984
 20
283.4555490660063
 30
0.0
 10
400.5024292060562
 20
283.4850151372097
 30
0.0
 10
400.484054552664
 20
283.5002551425025
 30
0.0
 10
400.4304530438528
 20
283.5469766597091
 30
0.0
 10
400.3965431485376
 20
283.579609658411
 30
0.0
 10
400.3000814560819
 20
283.6818241964123
 30
0.0
 10
400.24274743276
 20
283.7556801751272
 30
0.0
 10
400.1673410118581
 20
283.875246518812
 30
0.0
 10
400.1443168684998
 20
283.9160587603092
 30
0.0
 10
400.1024975926764
 20
283.9992532504014
 30
0.0
 10
400.0648490541768
 20
284.0841119516138
 30
0.0
 10
400.0354449505588
 20
284.1722828187296
 30
0.0
 10
400.0165368547149
 20
284.2396812387314
 30
0.0
 10
400.0107592502474
 20
284.2623594474389
 30
0.0
 10
400.0002749399874
 20
284.3081492639381
 30
0.0
 10
399.9955886116068
 20
284.3311793977173
 30
0.0
 10
399.9750165914593
 20
284.4465043397781
 30
0.0
 10
399.9675144381083
 20
284.5398242173903
 30
0.0
 10
399.9691615337858
 20
284.634186265565
 30
0.0
  0
SPLINE
  5
1D4
330
1F
100
AcDbEntity
  8
1
100
AcDbSpline
210
0.0
220
0.0
230
1.0
 70
     8
 71
     3
 72
    12
 73
     8
 74
     0
 42
0.000000001
 43
0.0000000001
 40
0.0
 40
0.0
 40
0.0
 40
0.0
 40
0.49999999999997
 40
0.49999999999997
 40
0.7499999999999849
 40
0.7499999999999849
 40
1.0
 40
1.0
 40
1.0
 40
1.0
 10
395.2822360954103
 20
293.0331473106681
 30
0.0
 10
395.1807343345895
 20
293.0625147645234
 30
0.0
 10
395.081761823036
 20
293.0979886004818
 30
0.0
 10
394.9366395474031
 20
293.1601504170266
 30
0.0
 10
394.888824152446
 20
293.1823689883089
 30
0.0
 10
394.7942524540425
 20
293.2298417710137
 30
0.0
 10
394.7474966663955
 20
293.2550956397271
 30
0.0
 10
394.7012400822172
 20
293.2819148097167
 30
0.0
  0
SPLINE
  5
1D5
330
1F
100
AcDbEntity
  8
1
100
AcDbSpline
210
0.0
220
0.0
230
1.0
 70
    12
 71
     2
 72
     6
 73
     3
 74
     0
 42
0.000000001
 43
0.0000000001
 40
0.0
 40
0.0
 40
0.0
 40
1.0
 40
1.0
 40
1.0
 10
393.6952001765019
 20
306.3498514516804
 30
0.0
 41
0.4999949948501253
 10
393.8073826359336
 20
306.349691979204
 30
0.0
 41
0.5000050051498747
 10
393.9195642864903
 20
306.3495320700584
 30
0.0
 41
0.4999949948501253
  0
SPLINE
  5
1D6
330
1F
100
AcDbEntity
  8
1
100
AcDbSpline
210
0.0
220
0.0
230
1.0
 70
     8
 71
     3
 72
    10
 73
     6
 74
     0
 42
0.000000001
 43
0.0000000001
 40
0.0
 40
0.0
 40
0.0
 40
0.0
 40
0.4999999999999994
 40
0.4999999999999994
 40
1.0
 40
1.0
 40
1.0
 40
1.0
 10
392.4948132434872
 20
301.5728978493747
 30
0.0
 10
392.452664496535
 20
302.3646380442476
 30
0.0
 10
392.4149422147228
 20
303.1565676250648
 30
0.0
 10
392.3460428777273
 20
304.7407068236773
 30
0.0
 10
392.3148772256043
 20
305.5329169293518
 30
0.0
 10
392.2862060785101
 20
306.3252337622172
 30
0.0
  0
SPLINE
  5
1D7
330
1F
100
AcDbEntity
  8
1
100
AcDbSpline
210
0.0
220
0.0
230
1.0
 70
    12
 71
     2
 72
     6
 73
     3
 74
     0
 42
0.000000001
 43
0.0000000001
 40
0.0
 40
0.0
 40
0.0
 40
1.0
 40
1.0
 40
1.0
 10
392.2862060785097
 20
306.3252337622172
 30
0.0
 41
0.5000000677388341
 10
392.9883200648916
 20
306.3240426487614
 30
0.0
 41
0.4999999322611659
 10
393.6903862804597
 20
306.3228344341049
 30
0.0
 41
0.5000000677388341
  0
SPLINE
  5
1D8
330
1F
100
AcDbEntity
  8
1
100
AcDbSpline
210
0.0
220
0.0
230
1.0
 70
    28
 71
     4
 72
    13
 73
     8
 74
     0
 42
0.000000001
 43
0.0000000001
 40
0.0
 40
0.0
 40
0.0
 40
0.0
 40
0.0
 40
0.4342350457304976
 40
0.4342350457304976
 40
0.4342350457304976
 40
1.0
 40
1.0
 40
1.0
 40
1.0
 40
1.0
 10
302.9048419452957
 20
282.7993321770041
 30
0.0
 41
0.9970039865930488
 10
302.9048419452957
 20
281.6557909428597
 30
0.0
 41
0.9970039865930488
 10
302.9048419452957
 20
280.3911786174062
 30
0.0
 41
0.9985019932965244
 10
302.9048419452957
 20
279.0831845023514
 30
0.0
 41
1.001498006703475
 10
302.9048419452957
 20
276.2054184756037
 30
0.0
 41
1.001498006703475
 10
302.9048419452957
 20
274.4567568400626
 30
0.0
 41
0.9964121268731995
 10
302.9048419452957
 20
272.8200802390506
 30
0.0
 41
0.9961799584474674
 10
302.9048419452957
 20
271.4491214043869
 30
0.0
 41
0.9977907966504091
  0
SPLINE
  5
1D9
330
1F
100
AcDbEntity
  8
1
100
AcDbSpline
210
0.0
220
0.0
230
1.0
 70
     8
 71
     3
 72
    49
 73
    45
 74
     0
 42
0.000000001
 43
0.0000000001
 40
0.0
 40
0.0
 40
0.0
 40
0.0
 40
0.0624999999999983
 40
0.0624999999999983
 40
0.1249999999999966
 40
0.1249999999999966
 40
0.2499999999999932
 40
0.2499999999999932
 40
0.3124999999999916
 40
0.3124999999999916
 40
0.343749999999993
 40
0.343749999999993
 40
0.3749999999999942
 40
0.3749999999999942
 40
0.4374999999999967
 40
0.4374999999999967
 40
0.499999999999999
 40
0.499999999999999
 40
0.5625000000000013
 40
0.5625000000000013
 40
0.6250000000000036
 40
0.6250000000000036
 40
0.6562500000000029
 40
0.6562500000000029
 40
0.6718750000000011
 40
0.6718750000000011
 40
0.6874999999999995
 40
0.6874999999999995
 40
0.7499999999999982
 40
0.7499999999999982
 40
0.8124999999999968
 40
0.8124999999999968
 40
0.8281249999999975
 40
0.8281249999999975
 40
0.8437499999999978
 40
0.8749999999999985
 40
0.8749999999999985
 40
0.9375
 40
0.9375
 40
0.953125
 40
0.953125
 40
0.96875
 40
0.96875
 40
1.0
 40
1.0
 40
1.0
 40
1.0
 10
386.9798877441602
 20
295.9502664507223
 30
0.0
 10
387.1478216801883
 20
296.0048839556962
 30
0.0
 10
387.3153749625115
 20
296.0622875883991
 30
0.0
 10
387.647611135674
 20
296.1825814890207
 30
0.0
 10
387.8124498279042
 20
296.2455162855282
 30
0.0
 10
388.3027370399327
 20
296.4435355228861
 30
0.0
 10
388.6239861060565
 20
296.5877707239736
 30
0.0
 10
389.0954574785277
 20
296.8267903508577
 30
0.0
 10
389.2508744754659
 20
296.9102553594667
 30
0.0
 10
389.4810612958039
 20
297.0418563507989
 30
0.0
 10
389.5573065538834
 20
297.086796186597
 30
0.0
 10
389.7087244666004
 20
297.1789369485596
 30
0.0
 10
389.7836000768259
 20
297.225957283059
 30
0.0
 10
390.0056208364791
 20
297.3699890165308
 30
0.0
 10
390.1501641754478
 20
297.4699662887466
 30
0.0
 10
390.4316569498607
 20
297.6785773266591
 30
0.0
 10
390.5686085889358
 20
297.7872085803777
 30
0.0
 10
390.8341061358775
 20
298.014053005359
 30
0.0
 10
390.9626557472569
 20
298.132261954888
 30
0.0
 10
391.2102902161551
 20
298.3794689797
 30
0.0
 10
391.3293816396188
 20
298.508459570287
 30
0.0
 10
391.4998298559261
 20
298.7112802235554
 30
0.0
 10
391.5552774514071
 20
298.7804470710345
 30
0.0
 10
391.6362151987748
 20
298.8867435348284
 30
0.0
 10
391.6628185025393
 20
298.9225999254122
 30
0.0
 10
391.714933885989
 20
298.9947556777016
 30
0.0
 10
391.7404866100723
 20
299.0311075367555
 30
0.0
 10
391.8656732817033
 20
299.2142650204764
 30
0.0
 10
391.9576034680413
 20
299.3652505147705
 30
0.0
 10
392.123294263184
 20
299.677079865164
 30
0.0
 10
392.1970688639007
 20
299.8379161295992
 30
0.0
 10
392.2762994176127
 20
300.0460082622837
 30
0.0
 10
392.2915159552122
 20
300.0880478661033
 30
0.0
 10
392.3204786104876
 20
300.1725330919319
 30
0.0
 10
392.3616533911866
 20
300.2996626470686
 30
0.0
 10
392.3959593322628
 20
300.4280081914481
 30
0.0
 10
392.4551797488794
 20
300.6863618493891
 30
0.0
 10
392.4821671955235
 20
300.860809224629
 30
0.0
 10
392.4991019953054
 20
301.0818424571624
 30
0.0
 10
392.5016467059128
 20
301.1261982068952
 30
0.0
 10
392.5050125275257
 20
301.2152148348384
 30
0.0
 10
392.5058334673805
 20
301.2599151813966
 30
0.0
 10
392.5056470327263
 20
301.3942200626587
 30
0.0
 10
392.5019985724754
 20
301.4836250121722
 30
0.0
 10
392.4948132434872
 20
301.5728978493747
 30
0.0
  0
SPLINE
  5
1DA
330
1F
100
AcDbEntity
  8
1
100
AcDbSpline
210
0.0
220
0.0
230
1.0
 70
    12
 71
     3
 72
     9
 73
     5
 74
     0
 42
0.000000001
 43
0.0000000001
 40
0.0
 40
0.0
 40
0.0
 40
0.0
 40
0.4731569919747495
 40
1.0
 40
1.0
 40
1.0
 40
1.0
 10
355.4558325340267
 20
301.0627174129584
 30
0.0
 41
1.005002761190725
 10
361.3163247054702
 20
301.281497239961
 30
0.0
 41
1.003702329629557
 10
373.9040225910408
 20
300.8737823658413
 30
0.0
 41
0.9958876839466279
 10
386.0635286999471
 20
300.4674128223921
 30
0.0
 41
1.004623245596969
 10
392.4948132434876
 20
301.5728978493748
 30
0.0
 41
1.002988650635306
  0
SPLINE
  5
1DB
330
1F
100
AcDbEntity
  8
1
100
AcDbSpline
210
0.0
220
0.0
230
1.0
 70
     8
 71
     3
 72
    29
 73
    25
 74
     0
 42
0.000000001
 43
0.0000000001
 40
0.0
 40
0.0
 40
0.0
 40
0.0
 40
0.1249999999999984
 40
0.1249999999999984
 40
0.2499999999999967
 40
0.2499999999999967
 40
0.3749999999999951
 40
0.3749999999999951
 40
0.4062499999999953
 40
0.4062499999999953
 40
0.4374999999999955
 40
0.4999999999999964
 40
0.4999999999999964
 40
0.6249999999999988
 40
0.6249999999999988
 40
0.7500000000000006
 40
0.7500000000000006
 40
0.7812500000000005
 40
0.7812500000000005
 40
0.8125000000000001
 40
0.8125000000000001
 40
0.8749999999999998
 40
0.8749999999999998
 40
1.0
 40
1.0
 40
1.0
 40
1.0
 10
277.709960765664
 20
276.5265168777827
 30
0.0
 10
277.6663078473871
 20
276.2835483652896
 30
0.0
 10
277.6386778799034
 20
276.0450012573261
 30
0.0
 10
277.6138309844861
 20
275.5766234788002
 30
0.0
 10
277.6166196029947
 20
275.3467930286536
 30
0.0
 10
277.6518769725981
 20
274.8957847144364
 30
0.0
 10
277.6843477925887
 20
274.6746069629402
 30
0.0
 10
277.7435094959086
 20
274.4035383179753
 30
0.0
 10
277.7562821050143
 20
274.349556894815
 30
0.0
 10
277.7836539096515
 20
274.2422994498597
 30
0.0
 10
277.8273290986395
 20
274.0829363805013
 30
0.0
 10
277.8786906366242
 20
273.928034238914
 30
0.0
 10
277.9913004351257
 20
273.6239235559653
 30
0.0
 10
278.0795347446856
 20
273.4287660038073
 30
0.0
 10
278.2809865124913
 20
273.0525062468696
 30
0.0
 10
278.3942088526449
 20
272.8714066981644
 30
0.0
 10
278.550911507207
 20
272.6532791717158
 30
0.0
 10
278.583012120661
 20
272.610066507961
 30
0.0
 10
278.648727563876
 20
272.524455204738
 30
0.0
 10
278.6823691257904
 20
272.4820243254382
 30
0.0
 10
278.7853495765857
 20
272.356189727317
 30
0.0
 10
278.8566789149889
 20
272.2743117089406
 30
0.0
 10
279.0784578172033
 20
272.0344143671322
 30
0.0
 10
279.2366847318033
 20
271.8821230408764
 30
0.0
 10
279.404841945296
 20
271.7368002101724
 30
0.0
  0
SPLINE
  5
1DC
330
1F
100
AcDbEntity
  8
1
100
AcDbSpline
210
0.0
220
0.0
230
1.0
 70
     8
 71
     3
 72
    66
 73
    62
 74
     0
 42
0.000000001
 43
0.0000000001
 40
0.0
 40
0.0
 40
0.0
 40
0.0
 40
0.0624999999999991
 40
0.0624999999999991
 40
0.1249999999999981
 40
0.1249999999999981
 40
0.1874999999999972
 40
0.1874999999999972
 40
0.2187499999999968
 40
0.2187499999999968
 40
0.2499999999999964
 40
0.2499999999999964
 40
0.3124999999999955
 40
0.3124999999999955
 40
0.343749999999995
 40
0.343749999999995
 40
0.3749999999999946
 40
0.3749999999999946
 40
0.4062499999999942
 40
0.4062499999999942
 40
0.4218749999999939
 40
0.4218749999999939
 40
0.4374999999999938
 40
0.4374999999999938
 40
0.468749999999994
 40
0.468749999999994
 40
0.4843749999999942
 40
0.4843749999999942
 40
0.4999999999999943
 40
0.4999999999999943
 40
0.5312499999999949
 40
0.5312499999999949
 40
0.5624999999999955
 40
0.5624999999999955
 40
0.5937499999999961
 40
0.5937499999999961
 40
0.6249999999999968
 40
0.6249999999999968
 40
0.6562499999999975
 40
0.6562499999999975
 40
0.6874999999999979
 40
0.6874999999999979
 40
0.7187499999999987
 40
0.7187499999999987
 40
0.7343749999999991
 40
0.7343749999999991
 40
0.7499999999999993
 40
0.7499999999999993
 40
0.8124999999999992
 40
0.8124999999999992
 40
0.8281249999999991
 40
0.8281249999999991
 40
0.8437499999999989
 40
0.8437499999999989
 40
0.8749999999999992
 40
0.9062499999999994
 40
0.9374999999999996
 40
0.9374999999999996
 40
0.9687499999999998
 40
0.9687499999999998
 40
1.0
 40
1.0
 40
1.0
 40
1.0
 10
302.9048419452957
 20
283.2770191777831
 30
0.0
 10
304.6806808819713
 20
282.9092529039048
 30
0.0
 10
306.4547552791056
 20
282.5402344329335
 30
0.0
 10
309.9992087955367
 20
281.8001861592269
 30
0.0
 10
311.7695863635985
 20
281.4291459093417
 30
0.0
 10
315.306372345274
 20
280.6854297949807
 30
0.0
 10
317.0727768486158
 20
280.3127352746703
 30
0.0
 10
319.7191798730957
 20
279.7529903688473
 30
0.0
 10
320.6007804103655
 20
279.5662958811934
 30
0.0
 10
322.3628867305041
 20
279.1928570228678
 30
0.0
 10
323.24342457113
 20
279.0061049014365
 30
0.0
 10
325.8831778922209
 20
278.446210210674
 30
0.0
 10
327.6388278497318
 20
278.0737155827273
 30
0.0
 10
330.2658680416555
 20
277.5188798782427
 30
0.0
 10
331.1404795161662
 20
277.3346026137248
 30
0.0
 10
332.8876019285011
 20
276.9680724633033
 30
0.0
 10
333.7601124704845
 20
276.7858192758904
 30
0.0
 10
335.5031263767193
 20
276.4241976983912
 30
0.0
 10
336.3736293898205
 20
276.2448293916955
 30
0.0
 10
337.678000199111
 20
275.9787184506789
 30
0.0
 10
338.1125604218445
 20
275.8905064295295
 30
0.0
 10
338.9812483589806
 20
275.7152111501018
 30
0.0
 10
339.415376561763
 20
275.6281306441803
 30
0.0
 10
340.7174148179382
 20
275.3693750610518
 30
0.0
 10
341.5849868252402
 20
275.2002220762825
 30
0.0
 10
342.8867249935884
 20
274.9539900361179
 30
0.0
 10
343.3206990252519
 20
274.8731530865782
 30
0.0
 10
344.1889213939323
 20
274.7142665387102
 30
0.0
 10
344.6231968631449
 20
274.6362120040608
 30
0.0
 10
345.9264566109599
 20
274.4066234128591
 30
0.0
 10
346.7955634855259
 20
274.2597455413858
 30
0.0
 10
348.5352275465434
 20
273.9795444215397
 30
0.0
 10
349.4057905720728
 20
273.8462263226969
 30
0.0
 10
351.1490749105508
 20
273.5935357623721
 30
0.0
 10
352.0217318270352
 20
273.4740240285183
 30
0.0
 10
353.7687776628593
 20
273.2472939296376
 30
0.0
 10
354.6431675977078
 20
273.1400812427578
 30
0.0
 10
356.3935224231784
 20
272.9370185119278
 30
0.0
 10
357.269488320449
 20
272.8411728850435
 30
0.0
 10
359.0229457452047
 20
272.6601912448359
 30
0.0
 10
359.9004381339278
 20
272.575058468255
 30
0.0
 10
361.6569784539231
 20
272.4150128342273
 30
0.0
 10
362.5360270279334
 20
272.3401022197128
 30
0.0
 10
363.8558313075009
 20
272.2350954172074
 30
0.0
 10
364.2959716852179
 20
272.2013201094064
 30
0.0
 10
365.1766783368701
 20
272.1361751506342
 30
0.0
 10
365.6172739430825
 20
272.1048035455257
 30
0.0
 10
367.8210181298077
 20
271.9538635622959
 30
0.0
 10
369.585637035746
 20
271.8521180947531
 30
0.0
 10
371.7944052410029
 20
271.7465184170904
 30
0.0
 10
372.236309889569
 20
271.726476353963
 30
0.0
 10
373.1204509484462
 20
271.6884873622097
 30
0.0
 10
373.5626909080572
 20
271.6705425061834
 30
0.0
 10
374.8898701428105
 20
271.6196938694561
 30
0.0
 10
376.6606662179545
 20
271.5598419035516
 30
0.0
 10
379.3195650413313
 20
271.4916833888744
 30
0.0
 10
381.0932304102104
 20
271.4596034519442
 30
0.0
 10
382.8670170081583
 20
271.4339094024813
 30
0.0
 10
383.753970817776
 20
271.4242547537769
 30
0.0
 10
385.5275492827258
 20
271.4112974039422
 30
0.0
 10
386.4141737604642
 20
271.4079935137005
 30
0.0
 10
387.3003917096641
 20
271.4079935137005
 30
0.0
  0
SPLINE
  5
1DD
330
1F
100
AcDbEntity
  8
1
100
AcDbSpline
210
0.0
220
0.0
230
1.0
 70
     8
 71
     3
 72
    66
 73
    62
 74
     0
 42
0.000000001
 43
0.0000000001
 40
0.0
 40
0.0
 40
0.0
 40
0.0
 40
0.0624999999999998
 40
0.0624999999999998
 40
0.1249999999999996
 40
0.1249999999999996
 40
0.1874999999999993
 40
0.1874999999999993
 40
0.2187499999999993
 40
0.2187499999999993
 40
0.2499999999999993
 40
0.2499999999999993
 40
0.2812499999999993
 40
0.2812499999999993
 40
0.3124999999999993
 40
0.3124999999999993
 40
0.3437499999999993
 40
0.3437499999999993
 40
0.3749999999999993
 40
0.3749999999999993
 40
0.4062499999999993
 40
0.4062499999999993
 40
0.4374999999999993
 40
0.4374999999999993
 40
0.4531249999999997
 40
0.4531249999999997
 40
0.46875
 40
0.46875
 40
0.5
 40
0.5
 40
0.53125
 40
0.53125
 40
0.5625
 40
0.5625
 40
0.59375
 40
0.59375
 40
0.625
 40
0.625
 40
0.65625
 40
0.65625
 40
0.6875
 40
0.6875
 40
0.71875
 40
0.71875
 40
0.75
 40
0.75
 40
0.78125
 40
0.78125
 40
0.8124999999999998
 40
0.8124999999999998
 40
0.8437499999999998
 40
0.8437499999999998
 40
0.8749999999999998
 40
0.8749999999999998
 40
0.90625
 40
0.90625
 40
0.9375
 40
0.9375
 40
0.96875
 40
0.96875
 40
1.0
 40
1.0
 40
1.0
 40
1.0
 10
302.9048419452957
 20
306.3908287082106
 30
0.0
 10
304.5721991537023
 20
306.3757774494686
 30
0.0
 10
306.2371840860537
 20
306.3504367689052
 30
0.0
 10
309.5620760703432
 20
306.2754191500509
 30
0.0
 10
311.2219808112621
 20
306.2257257921285
 30
0.0
 10
314.5368257293003
 20
306.0978549630899
 30
0.0
 10
316.1917615039914
 20
306.0196518009032
 30
0.0
 10
318.6709378375066
 20
305.8780558419175
 30
0.0
 10
319.4967894528879
 20
305.8268121746171
 30
0.0
 10
321.1468489301926
 20
305.7159066771228
 30
0.0
 10
321.9711466370963
 20
305.6562386786694
 30
0.0
 10
323.6184778335426
 20
305.5282196113749
 30
0.0
 10
324.4415112849609
 20
305.4598672263514
 30
0.0
 10
326.0865731642221
 20
305.3143779699211
 30
0.0
 10
326.9086017070593
 20
305.2372399340104
 30
0.0
 10
328.5519716180616
 20
305.0742696248359
 30
0.0
 10
329.3733132856689
 20
304.9884365399782
 30
0.0
 10
331.015679836803
 20
304.8083884948489
 30
0.0
 10
331.8367052117026
 20
304.7141732786877
 30
0.0
 10
333.4788502491118
 20
304.5179122307081
 30
0.0
 10
334.300051420605
 20
304.4158561991159
 30
0.0
 10
335.9424690781147
 20
304.2047682286941
 30
0.0
 10
336.7636990334887
 20
304.0957370219727
 30
0.0
 10
337.9959141729731
 20
303.9277120656565
 30
0.0
 10
338.4067160172743
 20
303.8709623150769
 30
0.0
 10
339.2284909713715
 20
303.7560982683016
 30
0.0
 10
339.6394572791487
 20
303.6979713505989
 30
0.0
 10
340.8725300628216
 20
303.5214216250367
 30
0.0
 10
341.6948075265351
 20
303.4008284357994
 30
0.0
 10
343.3395521908801
 20
303.1534140581241
 30
0.0
 10
344.162019479571
 20
303.0265912697752
 30
0.0
 10
345.8069658171993
 20
302.7663358309686
 30
0.0
 10
346.6294452172439
 20
302.6329024154467
 30
0.0
 10
348.2743213505747
 20
302.3591430002837
 30
0.0
 10
349.0967362274909
 20
302.2188136854797
 30
0.0
 10
350.7413868232314
 20
301.9311053224936
 30
0.0
 10
351.5634179657989
 20
301.7837501082601
 30
0.0
 10
353.20720838247
 20
301.4827828719479
 30
0.0
 10
354.0289677588201
 20
301.3291721553402
 30
0.0
 10
355.6724686834788
 20
301.0163651311497
 30
0.0
 10
356.4942100611664
 20
300.8571692997794
 30
0.0
 10
358.1378705522484
 20
300.5337675428174
 30
0.0
 10
358.9597896362674
 20
300.3695623987832
 30
0.0
 10
360.6039464504652
 20
300.0366053770227
 30
0.0
 10
361.4261842729209
 20
299.8678546286955
 30
0.0
 10
363.0710637637905
 20
299.5261290077099
 30
0.0
 10
363.8937055840573
 20
299.3531555080102
 30
0.0
 10
365.5394186072566
 20
299.0031281182648
 30
0.0
 10
366.3624635741895
 20
298.8260806839522
 30
0.0
 10
368.0083368458769
 20
298.4679631510375
 30
0.0
 10
368.8312400718562
 20
298.2868779138529
 30
0.0
 10
370.4768761345039
 20
297.9203301336184
 30
0.0
 10
371.2996086489954
 20
297.7348672629918
 30
0.0
 10
372.9447353592913
 20
297.35898172331
 30
0.0
 10
373.7671318485532
 20
297.1685676859437
 30
0.0
 10
375.4113312354791
 20
296.7818379768839
 30
0.0
 10
376.2331270927975
 20
296.5854960958924
 30
0.0
 10
377.8760883222361
 20
296.1866351470564
 30
0.0
 10
378.6972528641592
 20
295.9841098788481
 30
0.0
 10
380.3392215085597
 20
295.5736688229064
 30
0.0
 10
381.1600609269605
 20
295.365732085727
 30
0.0
 10
381.9807480168137
 20
295.1562000178784
 30
0.0
  0
SPLINE
  5
1DE
330
1F
100
AcDbEntity
  8
1
100
AcDbSpline
210
0.0
220
0.0
230
1.0
 70
     8
 71
     3
 72
    43
 73
    39
 74
     0
 42
0.000000001
 43
0.0000000001
 40
0.0
 40
0.0
 40
0.0
 40
0.0
 40
0.0286869958936057
 40
0.0286869958936057
 40
0.0573739917872114
 40
0.0573739917872114
 40
0.0860609876808171
 40
0.1147479835744228
 40
0.1147479835744228
 40
0.1721219753616335
 40
0.1721219753616335
 40
0.2294959671488441
 40
0.2294959671488441
 40
0.2868699589360548
 40
0.2868699589360548
 40
0.3155569548296601
 40
0.3155569548296601
 40
0.3442439507232654
 40
0.3442439507232654
 40
0.4016179425104768
 40
0.4016179425104768
 40
0.4589919342976882
 40
0.4589919342976882
 40
0.5737399178721119
 40
0.5737399178721119
 40
0.6884879014465356
 40
0.6884879014465356
 40
0.7458618932337473
 40
0.7458618932337473
 40
0.803235885020959
 40
0.803235885020959
 40
0.8606098768081707
 40
0.8606098768081707
 40
0.9179838685953829
 40
0.9179838685953829
 40
0.9753578603825946
 40
0.9753578603825946
 40
1.0
 40
1.0
 40
1.0
 40
1.0
 10
392.2862060785101
 20
306.3252337622172
 30
0.0
 10
391.8437235797394
 20
306.3433995271932
 30
0.0
 10
391.3999472894881
 20
306.3581728986023
 30
0.0
 10
390.5096412407323
 20
306.3816995018161
 30
0.0
 10
390.0631115270883
 20
306.3904537412029
 30
0.0
 10
389.1672026380862
 20
306.402711270598
 30
0.0
 10
388.2684443312441
 20
306.4097188640654
 30
0.0
 10
387.3639315728431
 20
306.4077133669911
 30
0.0
 10
386.0029025257098
 20
306.398984264416
 30
0.0
 10
385.0898417393375
 20
306.3855805470965
 30
0.0
 10
383.2533259653177
 20
306.3482660993878
 30
0.0
 10
382.3298769679786
 20
306.3243643153569
 30
0.0
 10
380.4744469294002
 20
306.2692469242845
 30
0.0
 10
379.5424729099035
 20
306.2380330075606
 30
0.0
 10
378.1399847237491
 20
306.1868802242391
 30
0.0
 10
377.6717384085627
 20
306.1690943212927
 30
0.0
 10
376.7340975093392
 20
306.1320911029782
 30
0.0
 10
376.2646437288223
 20
306.1128711174613
 30
0.0
 10
374.8555955321639
 20
306.0529938073619
 30
0.0
 10
373.915394865653
 20
306.010166920069
 30
0.0
 10
372.0354759553068
 20
305.9170759516848
 30
0.0
 10
371.0957079698106
 20
305.8668078823736
 30
0.0
 10
368.2770612010094
 20
305.7045509820352
 30
0.0
 10
366.3988509273391
 20
305.5811283200466
 30
0.0
 10
362.6446438538474
 20
305.3015053789038
 30
0.0
 10
360.7686416596428
 20
305.145305029076
 30
0.0
 10
357.9564339932888
 20
304.8842936583786
 30
0.0
 10
357.0193242038284
 20
304.792834944043
 30
0.0
 10
355.1457676811782
 20
304.6005186341334
 30
0.0
 10
354.2096369375413
 20
304.4996995725035
 30
0.0
 10
352.3388433979586
 20
304.2880221503586
 30
0.0
 10
351.4041778175715
 20
304.1771727495986
 30
0.0
 10
349.5366505476733
 20
303.9442645282872
 30
0.0
 10
348.6038349764002
 20
303.8221058018264
 30
0.0
 10
346.7399435976475
 20
303.5660291894027
 30
0.0
 10
345.8088655454394
 20
303.432112741475
 30
0.0
 10
344.4789101819454
 20
303.2322988066832
 30
0.0
 10
344.0794508562321
 20
303.1711805708657
 30
0.0
 10
343.6801034277831
 20
303.1090045662551
 30
0.0
  0
SPLINE
  5
1DF
330
1F
100
AcDbEntity
  8
1
100
AcDbSpline
210
0.0
220
0.0
230
1.0
 70
     8
 71
     3
 72
    37
 73
    33
 74
     0
 42
0.000000001
 43
0.0000000001
 40
0.0
 40
0.0
 40
0.0
 40
0.0
 40
0.0624999999999999
 40
0.0624999999999999
 40
0.1249999999999999
 40
0.1249999999999999
 40
0.1874999999999998
 40
0.1874999999999998
 40
0.2499999999999998
 40
0.2499999999999998
 40
0.3749999999999996
 40
0.3749999999999996
 40
0.4374999999999994
 40
0.4374999999999994
 40
0.4687499999999993
 40
0.4687499999999993
 40
0.4999999999999992
 40
0.4999999999999992
 40
0.6249999999999992
 40
0.6249999999999992
 40
0.7499999999999992
 40
0.7499999999999992
 40
0.8124999999999992
 40
0.8124999999999992
 40
0.8749999999999992
 40
0.8749999999999992
 40
0.9062499999999994
 40
0.9218749999999996
 40
0.9218749999999996
 40
0.9374999999999996
 40
0.9374999999999996
 40
1.0
 40
1.0
 40
1.0
 40
1.0
 10
289.3923341230149
 20
271.6595375572904
 30
0.0
 10
289.1286178478298
 20
271.6796346051834
 30
0.0
 10
288.8691278905566
 20
271.6954710234741
 30
0.0
 10
288.357718494591
 20
271.7201838777579
 30
0.0
 10
288.1058018415231
 20
271.7290577153931
 30
0.0
 10
287.6089069699719
 20
271.7411703745576
 30
0.0
 10
287.3639305241119
 20
271.7444073414557
 30
0.0
 10
286.8804590941712
 20
271.7464076190299
 30
0.0
 10
286.641965277068
 20
271.7451695106596
 30
0.0
 10
285.9357191546881
 20
271.7363133997293
 30
0.0
 10
285.4771622448843
 20
271.7235725123794
 30
0.0
 10
284.8066640819044
 20
271.6998857370623
 30
0.0
 10
284.5860650812984
 20
271.6912211971246
 30
0.0
 10
284.2594682558249
 20
271.6777541949804
 30
0.0
 10
284.1512337393162
 20
271.6731830792884
 30
0.0
 10
283.9367826687072
 20
271.6640241317169
 30
0.0
 10
283.8305376764763
 20
271.659435295649
 30
0.0
 10
283.304147565223
 20
271.6367313045116
 30
0.0
 10
282.8984598227135
 20
271.6193220207363
 30
0.0
 10
282.1170031021154
 20
271.5934524447207
 30
0.0
 10
281.7412388616996
 20
271.5849487131789
 30
0.0
 10
281.2001602276565
 20
271.585222626162
 30
0.0
 10
281.0235699179174
 20
271.5874974362251
 30
0.0
 10
280.6780498177924
 20
271.5977036201722
 30
0.0
 10
280.5091195168068
 20
271.6056317591897
 30
0.0
 10
280.2616201908618
 20
271.6229158072737
 30
0.0
 10
280.1393455591968
 20
271.6329091347412
 30
0.0
 10
280.019322155767
 20
271.6451826245534
 30
0.0
 10
279.9398119491818
 20
271.6539029182527
 30
0.0
 10
279.9002957093918
 20
271.6585337178558
 30
0.0
 10
279.7042009154555
 20
271.6830864826089
 30
0.0
 10
279.5520665610845
 20
271.70718197565
 30
0.0
 10
279.404841945296
 20
271.7368002101725
 30
0.0
  0
SPLINE
  5
1E0
330
1F
100
AcDbEntity
  8
1
100
AcDbSpline
210
0.0
220
0.0
230
1.0
 70
     8
 71
     3
 72
    27
 73
    23
 74
     0
 42
0.000000001
 43
0.0000000001
 40
0.0
 40
0.0
 40
0.0
 40
0.0
 40
0.1249999999998281
 40
0.1249999999998281
 40
0.1874999999997941
 40
0.1874999999997941
 40
0.24999999999976
 40
0.24999999999976
 40
0.3749999999998003
 40
0.3749999999998003
 40
0.4374999999998201
 40
0.4374999999998201
 40
0.4999999999998401
 40
0.4999999999998401
 40
0.6249999999998798
 40
0.6249999999998798
 40
0.6874999999999011
 40
0.6874999999999011
 40
0.7499999999999223
 40
0.7499999999999223
 40
0.874999999999961
 40
1.0
 40
1.0
 40
1.0
 40
1.0
 10
400.314110569522
 20
298.5605650371655
 30
0.0
 10
400.2848945938051
 20
298.5478435894082
 30
0.0
 10
400.254956646723
 20
298.5375515068606
 30
0.0
 10
400.2089877943783
 20
298.5257013477395
 30
0.0
 10
400.1934870273241
 20
298.5223520313111
 30
0.0
 10
400.1621232504264
 20
298.5168792019203
 30
0.0
 10
400.1462141766188
 20
298.5147557988438
 30
0.0
 10
400.098698551414
 20
298.5103427884158
 30
0.0
 10
400.0670871698435
 20
298.5099461359742
 30
0.0
 10
400.0197677274481
 20
298.5131083472229
 30
0.0
 10
400.0040109225264
 20
298.5147915351721
 30
0.0
 10
399.972530719576
 20
298.5194417955304
 30
0.0
 10
399.9567354680092
 20
298.5224279529295
 30
0.0
 10
399.9101064039602
 20
298.5332115399017
 30
0.0
 10
399.8799537904035
 20
298.5428045355781
 30
0.0
 10
399.8360829916007
 20
298.5606910810941
 30
0.0
 10
399.8216868434216
 20
298.5672389196354
 30
0.0
 10
399.7933554539429
 20
298.5815211047241
 30
0.0
 10
399.7793699566838
 20
298.5892866699965
 30
0.0
 10
399.738485895509
 20
298.6141983164262
 30
0.0
 10
399.6873579748978
 20
298.6513223386097
 30
0.0
 10
399.6427092846322
 20
298.6959164928132
 30
0.0
 10
399.6220558734863
 20
298.7201355068689
 30
0.0
  0
SPLINE
  5
1E1
330
1F
100
AcDbEntity
  8
1
100
AcDbSpline
210
0.0
220
0.0
230
1.0
 70
     8
 71
     3
 72
    16
 73
    12
 74
     0
 42
0.000000001
 43
0.0000000001
 40
0.0
 40
0.0
 40
0.0
 40
0.0
 40
0.3587940320754443
 40
0.3587940320754443
 40
0.538191048113195
 40
0.538191048113195
 40
0.7175880641509457
 40
0.7175880641509457
 40
0.8969850801886963
 40
0.8969850801886963
 40
1.0
 40
1.0
 40
1.0
 40
1.0
 10
399.6220558734864
 20
298.7201355068689
 30
0.0
 10
399.6155890203862
 20
298.727718796865
 30
0.0
 10
399.610402796414
 20
298.7362549094924
 30
0.0
 10
399.6047887387998
 20
298.7496645405039
 30
0.0
 10
399.6032596240718
 20
298.7542608702523
 30
0.0
 10
399.6008909982895
 20
298.7637076492311
 30
0.0
 10
399.6000687264576
 20
298.7685122946622
 30
0.0
 10
399.5991481223667
 20
298.7780559398875
 30
0.0
 10
399.5990410706024
 20
298.7828285770398
 30
0.0
 10
399.5994203430181
 20
298.7903425248946
 30
0.0
 10
399.5996767216526
 20
298.7930955888102
 30
0.0
 10
399.6000467448737
 20
298.7958295626478
 30
0.0
  0
SPLINE
  5
1E2
330
1F
100
AcDbEntity
  8
1
100
AcDbSpline
210
0.0
220
0.0
230
1.0
 70
     8
 71
     3
 72
    10
 73
     6
 74
     0
 42
0.000000001
 43
0.0000000001
 40
0.0
 40
0.0
 40
0.0
 40
0.0
 40
0.1325035073472812
 40
0.1325035073472812
 40
1.0
 40
1.0
 40
1.0
 40
1.0
 10
400.3421813826752
 20
298.5792780587913
 30
0.0
 10
400.3411025221258
 20
298.5782436961784
 30
0.0
 10
400.339997953325
 20
298.5772325511214
 30
0.0
 10
400.3314806783683
 20
298.5697956703475
 30
0.0
 10
400.3232451881125
 20
298.5645425039565
 30
0.0
 10
400.314110569522
 20
298.5605650371655
 30
0.0
  0
SPLINE
  5
1E3
330
1F
100
AcDbEntity
  8
1
100
AcDbSpline
210
0.0
220
0.0
230
1.0
 70
     8
 71
     3
 72
    10
 73
     6
 74
     0
 42
0.000000001
 43
0.0000000001
 40
0.0
 40
0.0
 40
0.0
 40
0.0
 40
0.6419716905422228
 40
0.6419716905422228
 40
1.0
 40
1.0
 40
1.0
 40
1.0
 10
399.6203590390508
 20
298.8921847887593
 30
0.0
 10
399.6223744506469
 20
298.8812179986604
 30
0.0
 10
399.6224766281208
 20
298.8702346189056
 30
0.0
 10
399.6198305354642
 20
298.8533451810538
 30
0.0
 10
399.618349799817
 20
298.8474815925552
 30
0.0
 10
399.6163395700077
 20
298.8417996361328
 30
0.0
  0
SPLINE
  5
1E4
330
1F
100
AcDbEntity
  8
1
100
AcDbSpline
210
0.0
220
0.0
230
1.0
 70
     8
 71
     3
 72
     8
 73
     4
 74
     0
 42
0.000000001
 43
0.0000000001
 40
0.0
 40
0.0
 40
0.0
 40
0.0
 40
1.0
 40
1.0
 40
1.0
 40
1.0
 10
400.3777971830676
 20
298.6885367027364
 30
0.0
 10
400.3810277864188
 20
298.6977533651236
 30
0.0
 10
400.3855705871579
 20
298.7063772103903
 30
0.0
 10
400.3914971855297
 20
298.7143796572505
 30
0.0
  0
SPLINE
  5
1E5
330
1F
100
AcDbEntity
  8
1
100
AcDbSpline
210
0.0
220
0.0
230
1.0
 70
     8
 71
     3
 72
    20
 73
    16
 74
     0
 42
0.000000001
 43
0.0000000001
 40
0.0
 40
0.0
 40
0.0
 40
0.0
 40
0.1250000000000385
 40
0.1250000000000385
 40
0.2500000000000769
 40
0.2500000000000769
 40
0.3750000000001155
 40
0.3750000000001155
 40
0.5000000000001539
 40
0.5000000000001539
 40
0.6250000000001923
 40
0.6250000000001923
 40
0.7500000000002309
 40
0.7500000000002309
 40
1.0
 40
1.0
 40
1.0
 40
1.0
 10
399.0384840897127
 20
299.3610916806484
 30
0.0
 10
399.0344685166706
 20
299.3585178045608
 30
0.0
 10
399.0302954718024
 20
299.3562539663455
 30
0.0
 10
399.0216366305248
 20
299.3523423715777
 30
0.0
 10
399.0171431616348
 20
299.3506974968556
 30
0.0
 10
399.0080533974276
 20
299.34810556629
 30
0.0
 10
399.0034316892717
 20
299.3471452501921
 30
0.0
 10
398.9940326959211
 20
299.3459071480317
 30
0.0
 10
398.9892172754308
 20
299.3456318904429
 30
0.0
 10
398.9796580899958
 20
299.3458096870761
 30
0.0
 10
398.9749098438563
 20
299.3462552272085
 30
0.0
 10
398.9654774792279
 20
299.347866547073
 30
0.0
 10
398.9607626329174
 20
299.3490428426963
 30
0.0
 10
398.9469402721752
 20
299.3536631885983
 30
0.0
 10
398.9383257435638
 20
299.3580907284727
 30
0.0
 10
398.9303521047441
 20
299.3639503138308
 30
0.0
  0
SPLINE
  5
1E6
330
1F
100
AcDbEntity
  8
1
100
AcDbSpline
210
0.0
220
0.0
230
1.0
 70
     8
 71
     3
 72
    10
 73
     6
 74
     0
 42
0.000000001
 43
0.0000000001
 40
0.0
 40
0.0
 40
0.0
 40
0.0
 40
0.5
 40
0.5
 40
1.0
 40
1.0
 40
1.0
 40
1.0
 10
399.0384840897127
 20
299.3610916806484
 30
0.0
 10
399.047662788449
 20
299.3669749837149
 30
0.0
 10
399.0575881694547
 20
299.3712276391864
 30
0.0
 10
399.078801741292
 20
299.3763488283183
 30
0.0
 10
399.0895958856185
 20
299.3771102892103
 30
0.0
 10
399.1005940745157
 20
299.3759646891004
 30
0.0
  0
SPLINE
  5
1E7
330
1F
100
AcDbEntity
  8
1
100
AcDbSpline
210
0.0
220
0.0
230
1.0
 70
     8
 71
     3
 72
    24
 73
    20
 74
     0
 42
0.000000001
 43
0.0000000001
 40
0.0
 40
0.0
 40
0.0
 40
0.0
 40
0.124999999999992
 40
0.124999999999992
 40
0.249999999999984
 40
0.249999999999984
 40
0.3125000000000039
 40
0.3125000000000039
 40
0.375000000000024
 40
0.375000000000024
 40
0.5000000000000192
 40
0.5000000000000192
 40
0.6250000000000144
 40
0.6250000000000144
 40
0.7500000000000096
 40
0.7500000000000096
 40
0.8750000000000047
 40
0.8750000000000047
 40
1.0
 40
1.0
 40
1.0
 40
1.0
 10
399.1005940745157
 20
299.3759646891004
 30
0.0
 10
399.1317424478791
 20
299.3727201930946
 30
0.0
 10
399.1623741572786
 20
299.3670671443568
 30
0.0
 10
399.2226518987915
 20
299.3509440658632
 30
0.0
 10
399.252298356049
 20
299.340476392013
 30
0.0
 10
399.2960055765715
 20
299.3208620398427
 30
0.0
 10
399.3103534472237
 20
299.3137040282663
 30
0.0
 10
399.3382619791363
 20
299.2983271099785
 30
0.0
 10
399.3518767672279
 20
299.2900844365261
 30
0.0
 10
399.39170522672
 20
299.2636926413084
 30
0.0
 10
399.4169473812685
 20
299.2438565929093
 30
0.0
 10
399.4644324951046
 20
299.1996463396844
 30
0.0
 10
399.4859847596347
 20
299.175926736685
 30
0.0
 10
399.5249600243793
 20
299.1254393824439
 30
0.0
 10
399.5423877792695
 20
299.0986607736594
 30
0.0
 10
399.5730178404686
 20
299.0420298046948
 30
0.0
 10
399.585777399781
 20
299.0130058497838
 30
0.0
 10
399.6065952128418
 20
298.9536138539177
 30
0.0
 10
399.6146509511429
 20
298.9232451449051
 30
0.0
 10
399.6203590390508
 20
298.8921847887593
 30
0.0
  0
SPLINE
  5
1E8
330
1F
100
AcDbEntity
  8
1
100
AcDbSpline
210
0.0
220
0.0
230
1.0
 70
     8
 71
     3
 72
    18
 73
    14
 74
     0
 42
0.000000001
 43
0.0000000001
 40
0.0
 40
0.0
 40
0.0
 40
0.0
 40
0.2499999999999887
 40
0.2499999999999887
 40
0.3749999999999859
 40
0.3749999999999859
 40
0.4999999999999832
 40
0.4999999999999832
 40
0.6249999999999804
 40
0.6249999999999804
 40
0.7499999999999777
 40
0.7499999999999777
 40
1.0
 40
1.0
 40
1.0
 40
1.0
 10
401.2176032979315
 20
298.8365675082271
 30
0.0
 10
401.2078747522564
 20
298.8347842054464
 30
0.0
 10
401.1979837137021
 20
298.8345903617751
 30
0.0
 10
401.1837299412798
 20
298.8364809617404
 30
0.0
 10
401.1790446063134
 20
298.8374714251553
 30
0.0
 10
401.169807523925
 20
298.8401779658636
 30
0.0
 10
401.1653034779553
 20
298.8418859094196
 30
0.0
 10
401.1567185619484
 20
298.845896102764
 30
0.0
 10
401.1526046537754
 20
298.8482077427388
 30
0.0
 10
401.1447293313278
 20
298.8534346402194
 30
0.0
 10
401.1409418671856
 20
298.8563769753936
 30
0.0
 10
401.1304168253968
 20
298.8658805564845
 30
0.0
 10
401.1244362590596
 20
298.8731173464447
 30
0.0
 10
401.1195007076491
 20
298.8812613997662
 30
0.0
  0
SPLINE
  5
1E9
330
1F
100
AcDbEntity
  8
1
100
AcDbSpline
210
0.0
220
0.0
230
1.0
 70
     8
 71
     3
 72
    10
 73
     6
 74
     0
 42
0.000000001
 43
0.0000000001
 40
0.0
 40
0.0
 40
0.0
 40
0.0
 40
0.5
 40
0.5
 40
1.0
 40
1.0
 40
1.0
 40
1.0
 10
401.070406116145
 20
298.9217753966778
 30
0.0
 10
401.080760897067
 20
298.9179975232744
 30
0.0
 10
401.0901563700398
 20
298.9125528242274
 30
0.0
 10
401.106877451379
 20
298.8986839007509
 30
0.0
 10
401.1138654183815
 20
298.8905600763398
 30
0.0
 10
401.1195007076491
 20
298.8812613997662
 30
0.0
  0
SPLINE
  5
1EA
330
1F
100
AcDbEntity
  8
1
100
AcDbSpline
210
0.0
220
0.0
230
1.0
 70
     8
 71
     3
 72
    24
 73
    20
 74
     0
 42
0.000000001
 43
0.0000000001
 40
0.0
 40
0.0
 40
0.0
 40
0.0
 40
0.1249999999999971
 40
0.1249999999999971
 40
0.2499999999999942
 40
0.2499999999999942
 40
0.3124999999999947
 40
0.3124999999999947
 40
0.3749999999999951
 40
0.3749999999999951
 40
0.4999999999999961
 40
0.4999999999999961
 40
0.6249999999999972
 40
0.6249999999999972
 40
0.7499999999999979
 40
0.7499999999999979
 40
0.8749999999999989
 40
0.8749999999999989
 40
1.0
 40
1.0
 40
1.0
 40
1.0
 10
400.3914971855297
 20
298.7143796572505
 30
0.0
 10
400.4103128442371
 20
298.7397856826809
 30
0.0
 10
400.4309189472567
 20
298.7635311979328
 30
0.0
 10
400.475725000343
 20
298.8077405361059
 30
0.0
 10
400.4999231775161
 20
298.8282059167771
 30
0.0
 10
400.5391502019525
 20
298.8562697395602
 30
0.0
 10
400.5526378802112
 20
298.8651196389737
 30
0.0
 10
400.5801068330191
 20
298.8816011828054
 30
0.0
 10
400.5941361321981
 20
298.8892677633142
 30
0.0
 10
400.6371092624712
 20
298.9105462533715
 30
0.0
 10
400.6669812020971
 20
298.92246389547
 30
0.0
 10
400.7290155831151
 20
298.9414045906805
 30
0.0
 10
400.7602669423121
 20
298.9481583630021
 30
0.0
 10
400.8232183499256
 20
298.9565427220916
 30
0.0
 10
400.8549306450243
 20
298.9581719533791
 30
0.0
 10
400.9187830923223
 20
298.9562124760687
 30
0.0
 10
400.9499932339755
 20
298.952657131567
 30
0.0
 10
401.0111420588819
 20
298.9407895710841
 30
0.0
 10
401.0410800046268
 20
298.9324748347028
 30
0.0
 10
401.070406116145
 20
298.9217753966778
 30
0.0
  0
SPLINE
  5
1EB
330
1F
100
AcDbEntity
  8
1
100
AcDbSpline
210
0.0
220
0.0
230
1.0
 70
     8
 71
     3
 72
    27
 73
    23
 74
     0
 42
0.000000001
 43
0.0000000001
 40
0.0
 40
0.0
 40
0.0
 40
0.0
 40
0.135811945860907
 40
0.135811945860907
 40
0.2037179187913785
 40
0.2037179187913785
 40
0.2716238917218501
 40
0.2716238917218501
 40
0.4074358375827931
 40
0.4074358375827931
 40
0.4753418105132515
 40
0.4753418105132515
 40
0.5432477834437099
 40
0.5432477834437099
 40
0.6790597293046336
 40
0.6790597293046336
 40
0.7469657022350997
 40
0.7469657022350997
 40
0.8148716751655657
 40
0.8148716751655657
 40
0.9506836210264891
 40
1.0
 40
1.0
 40
1.0
 40
1.0
 10
398.9303521047441
 20
299.3639503138308
 30
0.0
 10
398.9048499186546
 20
299.382691097003
 30
0.0
 10
398.8810724200509
 20
299.4032926343442
 30
0.0
 10
398.8479572356231
 20
299.4369373226789
 30
0.0
 10
398.8373459538292
 20
299.4486113998043
 30
0.0
 10
398.8169954354775
 20
299.4728957257977
 30
0.0
 10
398.8072332571165
 20
299.4855458472834
 30
0.0
 10
398.7797334769572
 20
299.5243090050863
 30
0.0
 10
398.763619614438
 20
299.5513887212987
 30
0.0
 10
398.7427257892861
 20
299.5938336661042
 30
0.0
 10
398.7363098802413
 20
299.6082876387853
 30
0.0
 10
398.7245979159421
 20
299.6378192337912
 30
0.0
 10
398.7192823969333
 20
299.6529685828841
 30
0.0
 10
398.7052815709574
 20
299.6986914885954
 30
0.0
 10
398.698479133305
 20
299.7295894813884
 30
0.0
 10
398.6919578338093
 20
299.7765417904972
 30
0.0
 10
398.6904007549007
 20
299.7922939357093
 30
0.0
 10
398.6885359077979
 20
299.8240036414355
 30
0.0
 10
398.6882298829471
 20
299.8400203692538
 30
0.0
 10
398.6892340911187
 20
299.8879669992574
 30
0.0
 10
398.6935856774888
 20
299.9309025919646
 30
0.0
 10
398.7024180824279
 20
299.9730072019426
 30
0.0
 10
398.7050923261013
 20
299.9841637669336
 30
0.0
  0
SPLINE
  5
1EC
330
1F
100
AcDbEntity
  8
1
100
AcDbSpline
210
0.0
220
0.0
230
1.0
 70
     8
 71
     3
 72
    21
 73
    17
 74
     0
 42
0.000000001
 43
0.0000000001
 40
0.0
 40
0.0
 40
0.0
 40
0.0
 40
0.1243620819240316
 40
0.1243620819240316
 40
0.2119258737316312
 40
0.2119258737316312
 40
0.2994896655392308
 40
0.2994896655392308
 40
0.4746172491544299
 40
0.4746172491544299
 40
0.5621810409620263
 40
0.5621810409620263
 40
0.649744832769623
 40
0.649744832769623
 40
0.8248724163848114
 40
1.0
 40
1.0
 40
1.0
 40
1.0
 10
401.6374627411807
 20
299.147739678048
 30
0.0
 10
401.627077599044
 20
299.127766640438
 30
0.0
 10
401.6156166495636
 20
299.1084649060957
 30
0.0
 10
401.5942732761046
 20
299.0767038271729
 30
0.0
 10
401.5849247793658
 20
299.0639113326149
 30
0.0
 10
401.5651465050897
 20
299.0390010122933
 30
0.0
 10
401.5546643138318
 20
299.0268305435279
 30
0.0
 10
401.5220357534349
 20
298.9918912819572
 30
0.0
 10
401.4986957753716
 20
298.9706155715357
 30
0.0
 10
401.4613768880566
 20
298.9416365318896
 30
0.0
 10
401.4485505900632
 20
298.9324683073036
 30
0.0
 10
401.422114852245
 20
298.9151276192134
 30
0.0
 10
401.4084536633268
 20
298.906927444031
 30
0.0
 10
401.3666263123793
 20
298.8840666877237
 30
0.0
 10
401.3092143139413
 20
298.8584813121111
 30
0.0
 10
401.2486743330783
 20
298.8422630217424
 30
0.0
 10
401.2176032979315
 20
298.8365675082271
 30
0.0
  0
SPLINE
  5
1ED
330
1F
100
AcDbEntity
  8
1
100
AcDbSpline
210
0.0
220
0.0
230
1.0
 70
     8
 71
     3
 72
    18
 73
    14
 74
     0
 42
0.000000001
 43
0.0000000001
 40
0.0
 40
0.0
 40
0.0
 40
0.0
 40
0.2127774583471642
 40
0.2127774583471642
 40
0.4255549166943287
 40
0.4255549166943287
 40
0.5319436458679095
 40
0.5319436458679095
 40
0.6383323750414905
 40
0.6383323750414905
 40
0.8511098333886636
 40
0.8511098333886636
 40
1.0
 40
1.0
 40
1.0
 40
1.0
 10
399.0277411568275
 20
300.8230198396022
 30
0.0
 10
399.0402268371251
 20
300.7948022938723
 30
0.0
 10
399.050391969346
 20
300.7657985376068
 30
0.0
 10
399.0661121686553
 20
300.7061691823386
 30
0.0
 10
399.0716694537643
 20
300.6755444357816
 30
0.0
 10
399.0762854087767
 20
300.6282502119433
 30
0.0
 10
399.077185551077
 20
300.6123565454919
 30
0.0
 10
399.077694078402
 20
300.5806942836722
 30
0.0
 10
399.0773086034508
 20
300.5648675870542
 30
0.0
 10
399.0742341979526
 20
300.5173968956533
 30
0.0
 10
399.0696291610071
 20
300.4857116680564
 30
0.0
 10
399.0572635877951
 20
300.4320418039029
 30
0.0
 10
399.0509739861366
 20
300.4104528800864
 30
0.0
 10
399.0435324611252
 20
300.3893494462309
 30
0.0
  0
SPLINE
  5
1EE
330
1F
100
AcDbEntity
  8
1
100
AcDbSpline
210
0.0
220
0.0
230
1.0
 70
     8
 71
     3
 72
    10
 73
     6
 74
     0
 42
0.000000001
 43
0.0000000001
 40
0.0
 40
0.0
 40
0.0
 40
0.0
 40
0.5
 40
0.5
 40
1.0
 40
1.0
 40
1.0
 40
1.0
 10
398.9844858276198
 20
300.8684620699988
 30
0.0
 10
398.9940488240392
 20
300.8636148283452
 30
0.0
 10
399.0025757466059
 20
300.8573034607808
 30
0.0
 10
399.017383841395
 20
300.8418049366077
 30
0.0
 10
399.0233324355219
 20
300.8329835173587
 30
0.0
 10
399.0277411568275
 20
300.8230198396022
 30
0.0
  0
SPLINE
  5
1EF
330
1F
100
AcDbEntity
  8
1
100
AcDbSpline
210
0.0
220
0.0
230
1.0
 70
     8
 71
     3
 72
    20
 73
    16
 74
     0
 42
0.000000001
 43
0.0000000001
 40
0.0
 40
0.0
 40
0.0
 40
0.0
 40
0.1250000000000002
 40
0.1250000000000002
 40
0.2500000000000003
 40
0.2500000000000003
 40
0.3750000000000002
 40
0.3750000000000002
 40
0.5000000000000002
 40
0.5000000000000002
 40
0.6250000000000002
 40
0.6250000000000002
 40
0.7500000000000001
 40
0.7500000000000001
 40
1.0
 40
1.0
 40
1.0
 40
1.0
 10
398.9844858276198
 20
300.8684620699988
 30
0.0
 10
398.9803020717596
 20
300.870582710307
 30
0.0
 10
398.9763079431997
 20
300.8729947771743
 30
0.0
 10
398.9686965548997
 20
300.8783977885956
 30
0.0
 10
398.9650775797429
 20
300.8813970813558
 30
0.0
 10
398.9583899624549
 20
300.8878369012452
 30
0.0
 10
398.9552974598449
 20
300.8912923332114
 30
0.0
 10
398.9496237595818
 20
300.8986813810512
 30
0.0
 10
398.9470259846147
 20
300.902648820314
 30
0.0
 10
398.9424919695646
 20
300.9108924051166
 30
0.0
 10
398.9405474415121
 20
300.9151679524288
 30
0.0
 10
398.9373100044954
 20
300.9240286552645
 30
0.0
 10
398.9360111403768
 20
300.928644948208
 30
0.0
 10
398.933211699869
 20
300.9427743738072
 30
0.0
 10
398.9328003293795
 20
300.9523630560411
 30
0.0
 10
398.9339364338782
 20
300.9621284892224
 30
0.0
  0
SPLINE
  5
1F0
330
1F
100
AcDbEntity
  8
1
100
AcDbSpline
210
0.0
220
0.0
230
1.0
 70
     8
 71
     3
 72
    14
 73
    10
 74
     0
 42
0.000000001
 43
0.0000000001
 40
0.0
 40
0.0
 40
0.0
 40
0.0
 40
0.0909779694618677
 40
0.0909779694618677
 40
0.3939853129745787
 40
0.3939853129745787
 40
0.6969926564872894
 40
0.6969926564872894
 40
1.0
 40
1.0
 40
1.0
 40
1.0
 10
401.5957209593014
 20
299.9390908940334
 30
0.0
 10
401.5988940696018
 20
299.948089519909
 30
0.0
 10
401.6022751164411
 20
299.956987000654
 30
0.0
 10
401.6178017758677
 20
299.9950882611747
 30
0.0
 10
401.6320169241652
 20
300.0233005573677
 30
0.0
 10
401.6650585805235
 20
300.0774581155108
 30
0.0
 10
401.6834002385922
 20
300.1026176100394
 30
0.0
 10
401.7234830305438
 20
300.1494380652817
 30
0.0
 10
401.7452259192556
 20
300.1710971152491
 30
0.0
 10
401.7686913449358
 20
300.1910254156709
 30
0.0
  0
SPLINE
  5
1F1
330
1F
100
AcDbEntity
  8
1
100
AcDbSpline
210
0.0
220
0.0
230
1.0
 70
     8
 71
     3
 72
    10
 73
     6
 74
     0
 42
0.000000001
 43
0.0000000001
 40
0.0
 40
0.0
 40
0.0
 40
0.0
 40
0.5
 40
0.5
 40
1.0
 40
1.0
 40
1.0
 40
1.0
 10
401.7686913449358
 20
300.1910254156709
 30
0.0
 10
401.7769771520716
 20
300.1980622389568
 30
0.0
 10
401.7862083017243
 20
300.2034296900471
 30
0.0
 10
401.8062002307525
 20
300.2108801881331
 30
0.0
 10
401.8165354317441
 20
300.2128205098501
 30
0.0
 10
401.8272073934185
 20
300.2130017168087
 30
0.0
  0
SPLINE
  5
1F2
330
1F
100
AcDbEntity
  8
1
100
AcDbSpline
210
0.0
220
0.0
230
1.0
 70
     8
 71
     3
 72
    16
 73
    12
 74
     0
 42
0.000000001
 43
0.0000000001
 40
0.0
 40
0.0
 40
0.0
 40
0.0
 40
0.0631184671028828
 40
0.0631184671028828
 40
0.2504947736824921
 40
0.2504947736824921
 40
0.4378710802621014
 40
0.4378710802621014
 40
0.6252473868417105
 40
0.6252473868417105
 40
1.0
 40
1.0
 40
1.0
 40
1.0
 10
401.8935601261762
 20
300.2424633338113
 30
0.0
 10
401.8924737359971
 20
300.2412955739799
 30
0.0
 10
401.8913560731704
 20
300.2401550273477
 30
0.0
 10
401.8867961203116
 20
300.2357369010451
 30
0.0
 10
401.8831378829989
 20
300.232708405146
 30
0.0
 10
401.8755234365013
 20
300.2273171945162
 30
0.0
 10
401.8715426799157
 20
300.2249302626632
 30
0.0
 10
401.8632401585175
 20
300.220764830677
 30
0.0
 10
401.8588824115881
 20
300.218977348025
 30
0.0
 10
401.8456409020686
 20
300.2146779146379
 30
0.0
 10
401.8365540272474
 20
300.2131604200668
 30
0.0
 10
401.8272073934185
 20
300.2130017168087
 30
0.0
  0
SPLINE
  5
1FA
330
1F
100
AcDbEntity
  8
1
100
AcDbSpline
210
0.0
220
0.0
230
1.0
 70
     8
 71
     3
 72
     8
 73
     4
 74
     0
 42
0.000000001
 43
0.0000000001
 40
0.0
 40
0.0
 40
0.0
 40
0.0
 40
1.0
 40
1.0
 40
1.0
 40
1.0
 10
388.0005463202473
 20
294.7191474167435
 30
0.0
 10
388.2081278144025
 20
294.55567497979
 30
0.0
 10
388.4103230100623
 20
294.3940152501873
 30
0.0
 10
388.6065776209572
 20
294.2343547676892
 30
0.0
  0
SPLINE
  5
1FB
330
1F
100
AcDbEntity
  8
1
100
AcDbSpline
210
0.0
220
0.0
230
1.0
 70
     8
 71
     3
 72
     8
 73
     4
 74
     0
 42
0.000000001
 43
0.0000000001
 40
0.0
 40
0.0
 40
0.0
 40
0.0
 40
1.0
 40
1.0
 40
1.0
 40
1.0
 10
388.0005463202473
 20
294.7191474167436
 30
0.0
 10
387.7109346406736
 20
294.8988163882262
 30
0.0
 10
387.4166607854975
 20
295.0806502069898
 30
0.0
 10
387.1182025756906
 20
295.2644270003461
 30
0.0
  0
SPLINE
  5
1FC
330
1F
100
AcDbEntity
  8
1
100
AcDbSpline
210
0.0
220
0.0
230
1.0
 70
     8
 71
     3
 72
    40
 73
    36
 74
     0
 42
0.000000001
 43
0.0000000001
 40
0.0
 40
0.0
 40
0.0
 40
0.0
 40
0.1250000000000235
 40
0.1250000000000235
 40
0.250000000000047
 40
0.250000000000047
 40
0.3750000000000704
 40
0.3750000000000704
 40
0.437500000000083
 40
0.437500000000083
 40
0.5000000000000955
 40
0.5000000000000955
 40
0.562500000000108
 40
0.562500000000108
 40
0.6250000000001207
 40
0.6250000000001207
 40
0.6875000000001329
 40
0.6875000000001329
 40
0.7187500000001381
 40
0.7187500000001381
 40
0.7500000000001429
 40
0.781250000000148
 40
0.781250000000148
 40
0.7968750000001505
 40
0.7968750000001505
 40
0.8125000000001529
 40
0.8437500000001334
 40
0.8437500000001334
 40
0.8750000000001135
 40
0.8750000000001135
 40
0.9375000000000744
 40
0.9375000000000744
 40
0.9687500000000371
 40
0.9687500000000371
 40
1.0
 40
1.0
 40
1.0
 40
1.0
 10
387.1182025756925
 20
295.2644270003447
 30
0.0
 10
387.0847794910028
 20
295.2850073936007
 30
0.0
 10
387.0524966313826
 20
295.3066288650492
 30
0.0
 10
386.990566932171
 20
295.3522902452542
 30
0.0
 10
386.9609127999747
 20
295.3763235224804
 30
0.0
 10
386.904896522553
 20
295.4274176218471
 30
0.0
 10
386.8785115604014
 20
295.4544584439773
 30
0.0
 10
386.8424154556802
 20
295.4982176281272
 30
0.0
 10
386.8310787682857
 20
295.5132162130811
 30
0.0
 10
386.8100904934984
 20
295.5442103818393
 30
0.0
 10
386.8004323676641
 20
295.5602085797992
 30
0.0
 10
386.7832816253688
 20
295.5934565889524
 30
0.0
 10
386.775891751538
 20
295.6105027800977
 30
0.0
 10
386.7641381467405
 20
295.6456668515256
 30
0.0
 10
386.7597593162938
 20
295.6637820110197
 30
0.0
 10
386.7551972299563
 20
295.7014783194475
 30
0.0
 10
386.7550892310192
 20
295.7205025490226
 30
0.0
 10
386.7591400174592
 20
295.7493698556532
 30
0.0
 10
386.7612267792708
 20
295.7591214947263
 30
0.0
 10
386.7668758811072
 20
295.7781914847128
 30
0.0
 10
386.7739886179613
 20
295.7969043527435
 30
0.0
 10
386.784132961394
 20
295.8148737887539
 30
0.0
 10
386.7929356870895
 20
295.8280564892562
 30
0.0
 10
386.7960727080713
 20
295.8324024139517
 30
0.0
 10
386.8026265553563
 20
295.840838534919
 30
0.0
 10
386.8129169015275
 20
295.8531714752755
 30
0.0
 10
386.8245186231348
 20
295.8645869473688
 30
0.0
 10
386.8410606459402
 20
295.8790555814106
 30
0.0
 10
386.8499048500071
 20
295.8859304798515
 30
0.0
 10
386.8771992581072
 20
295.9050301962127
 30
0.0
 10
386.8966040576274
 20
295.9159505794523
 30
0.0
 10
386.9270592590456
 20
295.9303068306166
 30
0.0
 10
386.9374652867437
 20
295.934759662515
 30
0.0
 10
386.9585022392798
 20
295.9429888133144
 30
0.0
 10
386.9691422294287
 20
295.9467716645108
 30
0.0
 10
386.9798877441597
 20
295.9502664507234
 30
0.0
  0
SPLINE
  5
1FD
330
1F
100
AcDbEntity
  8
1
100
AcDbSpline
210
0.0
220
0.0
230
1.0
 70
     8
 71
     3
 72
    24
 73
    20
 74
     0
 42
0.000000001
 43
0.0000000001
 40
0.0
 40
0.0
 40
0.0
 40
0.0
 40
0.1336987730923175
 40
0.1336987730923175
 40
0.2673975461846349
 40
0.2673975461846349
 40
0.4010963192769523
 40
0.4010963192769523
 40
0.5347950923692699
 40
0.5347950923692699
 40
0.6684938654615874
 40
0.6684938654615874
 40
0.8021926385539046
 40
0.8021926385539046
 40
0.8690420251000642
 40
0.8690420251000642
 40
0.9358914116462235
 40
0.9358914116462235
 40
1.0
 40
1.0
 40
1.0
 40
1.0
 10
325.3863475821094
 20
272.9642647991765
 30
0.0
 10
326.0531230061923
 20
273.0954319815382
 30
0.0
 10
326.7215501403517
 20
273.2232511565618
 30
0.0
 10
328.0618085889046
 20
273.4696615908988
 30
0.0
 10
328.7336368163985
 20
273.5882473461743
 30
0.0
 10
330.0803097322954
 20
273.81584325271
 30
0.0
 10
330.7551497763741
 20
273.9248619332316
 30
0.0
 10
332.1070927166373
 20
274.1351440596413
 30
0.0
 10
332.7841910463534
 20
274.2364233580337
 30
0.0
 10
334.1396750625235
 20
274.4348211366975
 30
0.0
 10
334.818057154977
 20
274.5319556612721
 30
0.0
 10
336.1750363824183
 20
274.7269277825453
 30
0.0
 10
336.8536309712158
 20
274.8247771334252
 30
0.0
 10
337.8708760987466
 20
274.9763550588617
 30
0.0
 10
338.209847729797
 20
275.0277017384909
 30
0.0
 10
338.8874574835082
 20
275.1327085875872
 30
0.0
 10
339.2261072418591
 20
275.1863021292967
 30
0.0
 10
339.8892629915439
 20
275.2931696850638
 30
0.0
 10
340.2137807228282
 20
275.346357081835
 30
0.0
 10
340.5381894880646
 20
275.4003617892985
 30
0.0
  0
SPLINE
  5
1FE
330
1F
100
AcDbEntity
  8
1
100
AcDbSpline
210
0.0
220
0.0
230
1.0
 70
    12
 71
     3
 72
     8
 73
     4
 74
     0
 42
0.000000001
 43
0.0000000001
 40
0.0
 40
0.0
 40
0.0
 40
0.0
 40
1.0
 40
1.0
 40
1.0
 40
1.0
 10
325.3863475820903
 20
272.9642647991747
 30
0.0
 41
1.001020086192285
 10
329.4838384529681
 20
273.3402064674918
 30
0.0
 41
1.000787431445701
 10
333.4945515902941
 20
273.6898888854963
 30
0.0
 41
1.001009553554514
 10
337.513558556889
 20
274.2832174528319
 30
0.0
 41
1.001862505734586
  0
SPLINE
  5
1FF
330
1F
100
AcDbEntity
  8
1
100
AcDbSpline
210
0.0
220
0.0
230
1.0
 70
     8
 71
     3
 72
    28
 73
    24
 74
     0
 42
0.000000001
 43
0.0000000001
 40
0.0
 40
0.0
 40
0.0
 40
0.0
 40
0.0624999999999991
 40
0.0624999999999991
 40
0.1249999999999983
 40
0.1249999999999983
 40
0.1874999999999974
 40
0.1874999999999974
 40
0.2499999999999966
 40
0.2499999999999966
 40
0.3749999999999907
 40
0.3749999999999907
 40
0.4374999999999901
 40
0.4374999999999901
 40
0.4999999999999892
 40
0.4999999999999892
 40
0.624999999999992
 40
0.624999999999992
 40
0.7499999999999947
 40
0.7499999999999947
 40
0.8749999999999973
 40
0.8749999999999973
 40
1.0
 40
1.0
 40
1.0
 40
1.0
 10
388.694949099601
 20
291.6514557740887
 30
0.0
 10
388.5651100597156
 20
291.7095511353129
 30
0.0
 10
388.4339146307084
 20
291.7694177703928
 30
0.0
 10
388.1691855053999
 20
291.8922045239958
 30
0.0
 10
388.0356510811862
 20
291.9551255930807
 30
0.0
 10
387.7665418599887
 20
292.0836322018552
 30
0.0
 10
387.6309665536684
 20
292.1492184066742
 30
0.0
 10
387.3580171051763
 20
292.2827398700335
 30
0.0
 10
387.2206333620527
 20
292.3506876662113
 30
0.0
 10
386.8062115751017
 20
292.5574961178042
 30
0.0
 10
386.5268714941846
 20
292.6993629445649
 30
0.0
 10
386.1040527905467
 20
292.9171367148529
 30
0.0
 10
385.9624260183342
 20
292.9905866127939
 30
0.0
 10
385.678202407766
 20
293.1389140058034
 30
0.0
 10
385.5360772354397
 20
293.2135448615525
 30
0.0
 10
385.1096653770607
 20
293.4387075093877
 30
0.0
 10
384.8253425016494
 20
293.5905040684342
 30
0.0
 10
384.2566155545947
 20
293.896934880127
 30
0.0
 10
383.9722114227658
 20
294.0515712361715
 30
0.0
 10
383.4033330170556
 20
294.3632953139054
 30
0.0
 10
383.1188587080191
 20
294.5203842642154
 30
0.0
 10
382.5498482158593
 20
294.8367245767646
 30
0.0
 10
382.2653120111626
 20
294.9959766929496
 30
0.0
 10
381.9807480168238
 20
295.1562000178758
 30
0.0
  0
SPLINE
  5
200
330
1F
100
AcDbEntity
  8
1
100
AcDbSpline
210
0.0
220
0.0
230
1.0
 70
     8
 71
     3
 72
    22
 73
    18
 74
     0
 42
0.000000001
 43
0.0000000001
 40
0.0
 40
0.0
 40
0.0
 40
0.0
 40
0.1249999999999999
 40
0.1249999999999999
 40
0.2499999999999999
 40
0.2499999999999999
 40
0.3749999999999998
 40
0.3749999999999998
 40
0.4999999999999999
 40
0.4999999999999999
 40
0.6249999999999999
 40
0.6249999999999999
 40
0.75
 40
0.75
 40
0.8749999999999998
 40
0.8749999999999998
 40
1.0
 40
1.0
 40
1.0
 40
1.0
 10
337.5135585568891
 20
274.2832174528319
 30
0.0
 10
336.8755225917011
 20
274.1820281023076
 30
0.0
 10
336.2372800553994
 20
274.0839741549208
 30
0.0
 10
334.9607410573701
 20
273.8933012933534
 30
0.0
 10
334.3224447168334
 20
273.8006837817477
 30
0.0
 10
333.046075923027
 20
273.6203481869813
 30
0.0
 10
332.4080034505719
 20
273.5326316119871
 30
0.0
 10
331.1322768630021
 20
273.3618159848468
 30
0.0
 10
330.4946226442307
 20
273.2787184519626
 30
0.0
 10
329.2198457454983
 20
273.1170669524554
 30
0.0
 10
328.5827229233329
 20
273.0385144554548
 30
0.0
 10
327.3090445674483
 20
272.8860419802865
 30
0.0
 10
326.6724888865345
 20
272.8121233929071
 30
0.0
 10
325.3999075915211
 20
272.6691276051453
 30
0.0
 10
324.7638818464631
 20
272.6000517130299
 30
0.0
 10
323.492254474828
 20
272.4670296190666
 30
0.0
 10
322.8566527440348
 20
272.4030846565039
 30
0.0
 10
322.2211775149403
 20
272.3418693337795
 30
0.0
  0
SPLINE
  5
201
330
1F
100
AcDbEntity
  8
1
100
AcDbSpline
210
0.0
220
0.0
230
1.0
 70
     8
 71
     3
 72
    10
 73
     6
 74
     0
 42
0.000000001
 43
0.0000000001
 40
0.0
 40
0.0
 40
0.0
 40
0.0
 40
0.5
 40
0.5
 40
1.0
 40
1.0
 40
1.0
 40
1.0
 10
322.2211775149405
 20
272.3418693337785
 30
0.0
 10
322.7476553804402
 20
272.4441667538069
 30
0.0
 10
323.2745481706349
 20
272.5476370677791
 30
0.0
 10
324.3294957415034
 20
272.7555823725143
 30
0.0
 10
324.8575508645255
 20
272.8600568605496
 30
0.0
 10
325.3863475820962
 20
272.9642647991752
 30
0.0
  0
SPLINE
  5
202
330
1F
100
AcDbEntity
  8
1
100
AcDbSpline
210
0.0
220
0.0
230
1.0
 70
     8
 71
     3
 72
    34
 73
    30
 74
     0
 42
0.000000001
 43
0.0000000001
 40
0.0
 40
0.0
 40
0.0
 40
0.0
 40
0.0625000000000523
 40
0.0625000000000523
 40
0.1250000000001046
 40
0.1250000000001046
 40
0.2500000000002091
 40
0.2500000000002091
 40
0.2812500000002219
 40
0.2812500000002219
 40
0.3125000000002348
 40
0.3125000000002348
 40
0.3750000000002425
 40
0.3750000000002425
 40
0.5000000000002397
 40
0.5000000000002397
 40
0.5625000000002287
 40
0.5625000000002287
 40
0.5937500000002231
 40
0.5937500000002231
 40
0.6250000000002177
 40
0.6250000000002177
 40
0.6875000000001879
 40
0.6875000000001879
 40
0.750000000000158
 40
0.750000000000158
 40
0.8750000000000792
 40
0.8750000000000792
 40
1.0
 40
1.0
 40
1.0
 40
1.0
 10
397.3380126728467
 20
293.3603236991528
 30
0.0
 10
397.2999622560779
 20
293.3350996095003
 30
0.0
 10
397.2614931747654
 20
293.3110332058268
 30
0.0
 10
397.1836865616237
 20
293.2651156681803
 30
0.0
 10
397.1443492909749
 20
293.2432649075881
 30
0.0
 10
397.0249876079719
 20
293.180948804018
 30
0.0
 10
396.9436199277822
 20
293.1437048053572
 30
0.0
 10
396.8394437556929
 20
293.1024782751797
 30
0.0
 10
396.8184846943013
 20
293.0945005938551
 30
0.0
 10
396.776310975641
 20
293.0790841611783
 30
0.0
 10
396.7550711296759
 20
293.0716372135551
 30
0.0
 10
396.6911862639587
 20
293.0501895811628
 30
0.0
 10
396.6483704115792
 20
293.0370749462492
 30
0.0
 10
396.5191604294984
 20
293.0012446648514
 30
0.0
 10
396.4320077790177
 20
292.9820242726894
 30
0.0
 10
396.2993386433558
 20
292.9603759293933
 30
0.0
 10
396.2547909606353
 20
292.9543615692643
 30
0.0
 10
396.1874277081408
 20
292.9472054642368
 30
0.0
 10
396.1648830434453
 20
292.9451312653656
 30
0.0
 10
396.1196052335812
 20
292.9416185286848
 30
0.0
 10
396.0968394845829
 20
292.9401784731942
 30
0.0
 10
396.0284641977743
 20
292.9368442450851
 30
0.0
 10
395.9832079565239
 20
292.9359525560919
 30
0.0
 10
395.8933107068904
 20
292.9367159445441
 30
0.0
 10
395.8486691556169
 20
292.9383706921188
 30
0.0
 10
395.7155606072089
 20
292.9470117964417
 30
0.0
 10
395.6279078669567
 20
292.9576572592178
 30
0.0
 10
395.4541012682621
 20
292.9883266981396
 30
0.0
 10
395.3679439677784
 20
293.008349494685
 30
0.0
 10
395.2822360954111
 20
293.0331473106678
 30
0.0
  0
SPLINE
  5
203
330
1F
100
AcDbEntity
  8
1
100
AcDbSpline
210
0.0
220
0.0
230
1.0
 70
     8
 71
     3
 72
    27
 73
    23
 74
     0
 42
0.000000001
 43
0.0000000001
 40
0.0
 40
0.0
 40
0.0
 40
0.0
 40
0.1250000000000165
 40
0.250000000000033
 40
0.3750000000000495
 40
0.4062500000000522
 40
0.4062500000000522
 40
0.4375000000000548
 40
0.4375000000000548
 40
0.5000000000000542
 40
0.5000000000000542
 40
0.6250000000000473
 40
0.6250000000000473
 40
0.6875000000000411
 40
0.6875000000000411
 40
0.7187500000000381
 40
0.7187500000000381
 40
0.750000000000035
 40
0.750000000000035
 40
0.8750000000000175
 40
0.8750000000000175
 40
1.0
 40
1.0
 40
1.0
 40
1.0
 10
395.2823956729575
 20
292.7612127972697
 30
0.0
 10
394.9907947639556
 20
292.7509692430054
 30
0.0
 10
394.4092526476008
 20
292.7505560960543
 30
0.0
 10
393.5418320440882
 20
292.8090749117164
 30
0.0
 10
392.8949254900597
 20
292.8971483131963
 30
0.0
 10
392.5368183722564
 20
292.9615791456244
 30
0.0
 10
392.3936791065559
 20
292.9885999989384
 30
0.0
 10
392.3221939064673
 20
293.0027287481222
 30
0.0
 10
392.1083894949307
 20
293.0468863898549
 30
0.0
 10
391.9665690587748
 20
293.078714431764
 30
0.0
 10
391.5432421237205
 20
293.1813146394702
 30
0.0
 10
391.2638674014836
 20
293.2591947589161
 30
0.0
 10
390.8490649785014
 20
293.3901737260494
 30
0.0
 10
390.7115080974369
 20
293.4361952248149
 30
0.0
 10
390.5062439174462
 20
293.5087809236713
 30
0.0
 10
390.4379686580647
 20
293.5335809129739
 30
0.0
 10
390.3019971714978
 20
293.5842855346814
 30
0.0
 10
390.2342904826349
 20
293.6101931428627
 30
0.0
 10
389.8971467416677
 20
293.74249303604
 30
0.0
 10
389.6318736590612
 20
293.8571617741689
 30
0.0
 10
389.1101518647438
 20
294.103931188337
 30
0.0
 10
388.8537031273175
 20
294.2360323809642
 30
0.0
 10
388.6017023233114
 20
294.3768487213534
 30
0.0
  0
SPLINE
  5
204
330
1F
100
AcDbEntity
  8
1
100
AcDbSpline
210
0.0
220
0.0
230
1.0
 70
     8
 71
     3
 72
     8
 73
     4
 74
     0
 42
0.000000001
 43
0.0000000001
 40
0.0
 40
0.0
 40
0.0
 40
0.0
 40
1.0
 40
1.0
 40
1.0
 40
1.0
 10
395.2823956729575
 20
292.7612127972697
 30
0.0
 10
395.2859533140278
 20
292.7613377724952
 30
0.0
 10
395.2895119197909
 20
292.7614623472323
 30
0.0
 10
395.2930714918052
 20
292.7615865208344
 30
0.0
  0
SPLINE
  5
205
330
1F
100
AcDbEntity
  8
1
100
AcDbSpline
210
0.0
220
0.0
230
1.0
 70
     8
 71
     3
 72
    25
 73
    21
 74
     0
 42
0.000000001
 43
0.0000000001
 40
0.0
 40
0.0
 40
0.0
 40
0.0
 40
0.1249999999999949
 40
0.1249999999999949
 40
0.2499999999999899
 40
0.2499999999999899
 40
0.3124999999999873
 40
0.3124999999999873
 40
0.3749999999999848
 40
0.3749999999999848
 40
0.4999999999999798
 40
0.4999999999999798
 40
0.5624999999999801
 40
0.5624999999999801
 40
0.6249999999999805
 40
0.6249999999999805
 40
0.7499999999999871
 40
0.8749999999999934
 40
0.8749999999999934
 40
1.0
 40
1.0
 40
1.0
 40
1.0
 10
388.7204709670387
 20
290.905509154989
 30
0.0
 10
388.9705120538352
 20
290.7524728168351
 30
0.0
 10
389.2255360522743
 20
290.609052023511
 30
0.0
 10
389.7454454580192
 20
290.3413656373775
 30
0.0
 10
390.0103305991629
 20
290.2170993976562
 30
0.0
 10
390.4150799943529
 20
290.0452001880041
 30
0.0
 10
390.5513376160273
 20
289.9902846807789
 30
0.0
 10
390.8252508223837
 20
289.8857388061987
 30
0.0
 10
390.9630171644218
 20
289.8360570141542
 30
0.0
 10
391.378729494459
 20
289.6947432942528
 30
0.0
 10
391.659085533593
 20
289.6108328811724
 30
0.0
 10
392.0844357620828
 20
289.5004289226824
 30
0.0
 10
392.2270573639949
 20
289.4661994292123
 30
0.0
 10
392.5137743118593
 20
289.4029640207975
 30
0.0
 10
392.6573768756112
 20
289.3740653585336
 30
0.0
 10
393.0889071497465
 20
289.2954212189722
 30
0.0
 10
393.6662056753927
 20
289.2120113251538
 30
0.0
 10
394.2473014176458
 20
289.1709351941772
 30
0.0
 10
394.8303023939164
 20
289.1511048441549
 30
0.0
 10
395.1227554227808
 20
289.1518117137875
 30
0.0
 10
395.4161812386491
 20
289.1633663019859
 30
0.0
  0
SPLINE
  5
206
330
1F
100
AcDbEntity
  8
1
100
AcDbSpline
210
0.0
220
0.0
230
1.0
 70
     8
 71
     3
 72
    81
 73
    77
 74
     0
 42
0.000000001
 43
0.0000000001
 40
0.0
 40
0.0
 40
0.0
 40
0.0
 40
0.0625000000000075
 40
0.0625000000000075
 40
0.125000000000015
 40
0.125000000000015
 40
0.1875000000000226
 40
0.1875000000000226
 40
0.2187500000000271
 40
0.2187500000000271
 40
0.2500000000000318
 40
0.2500000000000318
 40
0.2812500000000364
 40
0.2812500000000364
 40
0.312500000000041
 40
0.312500000000041
 40
0.3437500000000455
 40
0.3437500000000455
 40
0.3750000000000501
 40
0.3750000000000501
 40
0.3906250000000525
 40
0.3906250000000525
 40
0.4062500000000548
 40
0.4062500000000548
 40
0.4375000000000594
 40
0.4375000000000594
 40
0.4687500000000638
 40
0.4687500000000638
 40
0.5000000000000683
 40
0.5000000000000683
 40
0.5312500000000727
 40
0.5312500000000727
 40
0.5625000000000771
 40
0.5625000000000771
 40
0.570312500000078
 40
0.570312500000078
 40
0.5742187500000784
 40
0.5742187500000784
 40
0.578125000000079
 40
0.5937500000000799
 40
0.5937500000000799
 40
0.6250000000000821
 40
0.6250000000000821
 40
0.6406250000000826
 40
0.6406250000000826
 40
0.6484375000000826
 40
0.6484375000000826
 40
0.6562500000000823
 40
0.6562500000000823
 40
0.6640625000000822
 40
0.6640625000000822
 40
0.6718750000000819
 40
0.6875000000000802
 40
0.6875000000000802
 40
0.7187500000000766
 40
0.7187500000000766
 40
0.7265625000000748
 40
0.7265625000000748
 40
0.734375000000073
 40
0.7500000000000672
 40
0.7500000000000672
 40
0.7812500000000576
 40
0.7812500000000576
 40
0.8125000000000477
 40
0.8125000000000477
 40
0.8437500000000381
 40
0.8437500000000381
 40
0.8593750000000342
 40
0.8593750000000342
 40
0.8750000000000303
 40
0.8750000000000303
 40
0.9062500000000227
 40
0.9062500000000227
 40
0.9375000000000152
 40
0.9375000000000152
 40
1.0
 40
1.0
 40
1.0
 40
1.0
 10
388.6065776209574
 20
294.2343547676894
 30
0.0
 10
388.8049127948221
 20
294.0730016692262
 30
0.0
 10
389.0030907156184
 20
293.9181190348287
 30
0.0
 10
389.398064194095
 20
293.6203996627124
 30
0.0
 10
389.5948667685331
 20
293.4775658402622
 30
0.0
 10
389.985593001909
 20
293.2031359715976
 30
0.0
 10
390.179529114984
 20
293.0715433468885
 30
0.0
 10
390.4666145260252
 20
292.8819678847822
 30
0.0
 10
390.5617358484781
 20
292.8200337986822
 30
0.0
 10
390.7498269511006
 20
292.6989614937564
 30
0.0
 10
390.8428213939837
 20
292.6398063222744
 30
0.0
 10
391.0262198158227
 20
292.5241172064163
 30
0.0
 10
391.1166202652644
 20
292.4675841364613
 30
0.0
 10
391.2942314812755
 20
292.3569844469422
 30
0.0
 10
391.3817310031536
 20
292.3028757129312
 30
0.0
 10
391.5536055316178
 20
292.1968802917548
 30
0.0
 10
391.6379825141582
 20
292.1449937433386
 30
0.0
 10
391.8029544515492
 20
292.0432688518391
 30
0.0
 10
391.8835526945697
 20
291.9934306962185
 30
0.0
 10
392.0009523616764
 20
291.9200652131065
 30
0.0
 10
392.0395005876241
 20
291.8958418468907
 30
0.0
 10
392.1152850096079
 20
291.8478323178808
 30
0.0
 10
392.1524979236886
 20
291.8240605760465
 30
0.0
 10
392.2615882371466
 20
291.7535740820912
 30
0.0
 10
392.3310377389963
 20
291.7076242511228
 30
0.0
 10
392.4616719943772
 20
291.6176095050206
 30
0.0
 10
392.5228685835898
 20
291.5735439803478
 30
0.0
 10
392.6345355804195
 20
291.4871096501055
 30
0.0
 10
392.685025854787
 20
291.4447391082147
 30
0.0
 10
392.7715930210027
 20
291.3615477891379
 30
0.0
 10
392.8070865206759
 20
291.3212550286214
 30
0.0
 10
392.8582045734332
 20
291.2434812782545
 30
0.0
 10
392.8738387807738
 20
291.2059827290461
 30
0.0
 10
392.8776692925417
 20
291.1611406318468
 30
0.0
 10
392.8776473378338
 20
291.1522748745235
 30
0.0
 10
392.876363555805
 20
291.1391395049644
 30
0.0
 10
392.875726279349
 20
291.1347875342972
 30
0.0
 10
392.8740345894803
 20
291.1261844139312
 30
0.0
 10
392.8687617886114
 20
291.1049004093555
 30
0.0
 10
392.8582426792865
 20
291.0847425203707
 30
0.0
 10
392.8228807904069
 20
291.0386029380991
 30
0.0
 10
392.7857692045829
 20
291.0108242993672
 30
0.0
 10
392.7105297664044
 20
290.9740368983441
 30
0.0
 10
392.6822005759694
 20
290.9625891264081
 30
0.0
 10
392.6350238933675
 20
290.9467000505019
 30
0.0
 10
392.6184876411223
 20
290.9416105378871
 30
0.0
 10
392.5842220519052
 20
290.9319554935293
 30
0.0
 10
392.5664631836739
 20
290.9273783884564
 30
0.0
 10
392.5297779842038
 20
290.918713261352
 30
0.0
 10
392.510876019722
 20
290.9146167493107
 30
0.0
 10
392.4718426127131
 20
290.9069516701054
 30
0.0
 10
392.411439656194
 20
290.8962493012135
 30
0.0
 10
392.3458438429213
 20
290.8878922240356
 30
0.0
 10
392.2085870293122
 20
290.8742262462787
 30
0.0
 10
392.1090277715094
 20
290.869173619627
 30
0.0
 10
391.9768213874121
 20
290.867788148371
 30
0.0
 10
391.9500215094845
 20
290.867759005004
 30
0.0
 10
391.8959606669125
 20
290.8681861135473
 30
0.0
 10
391.8140872033568
 20
290.8695540023577
 30
0.0
 10
391.7300766350008
 20
290.873049956317
 30
0.0
 10
391.5596690249687
 20
290.8827666165501
 30
0.0
 10
391.4429014312323
 20
290.892871706191
 30
0.0
 10
391.204893247285
 20
290.9199240904658
 30
0.0
 10
391.0836440192511
 20
290.9368741891875
 30
0.0
 10
390.8379743455289
 20
290.977363658313
 30
0.0
 10
390.7135491200971
 20
291.0009044153836
 30
0.0
 10
390.5252624894628
 20
291.0410353475114
 30
0.0
 10
390.4622118555665
 20
291.055218933686
 30
0.0
 10
390.3357044571959
 20
291.0851681366026
 30
0.0
 10
390.2723740548511
 20
291.1009035012435
 30
0.0
 10
390.0822674571167
 20
291.150348963333
 30
0.0
 10
389.955379845582
 20
291.1862965712188
 30
0.0
 10
389.7018026575714
 20
291.2639812507176
 30
0.0
 10
389.5751118256843
 20
291.3057186505447
 30
0.0
 10
389.1959090967711
 20
291.4394324778575
 30
0.0
 10
388.9442948947316
 20
291.5398881435006
 30
0.0
 10
388.6949490996012
 20
291.6514557740888
 30
0.0
  0
SPLINE
  5
207
330
1F
100
AcDbEntity
  8
1
100
AcDbSpline
210
0.0
220
0.0
230
1.0
 70
     8
 71
     3
 72
     8
 73
     4
 74
     0
 42
0.000000001
 43
0.0000000001
 40
0.0
 40
0.0
 40
0.0
 40
0.0
 40
1.0
 40
1.0
 40
1.0
 40
1.0
 10
342.1974520866124
 20
275.086958078511
 30
0.0
 10
342.1202015589434
 20
275.0726880879151
 30
0.0
 10
342.0429426040464
 20
275.0584666447994
 30
0.0
 10
341.9656750778572
 20
275.0442939117346
 30
0.0
  0
SPLINE
  5
208
330
1F
100
AcDbEntity
  8
1
100
AcDbSpline
210
0.0
220
0.0
230
1.0
 70
     8
 71
     3
 72
    18
 73
    14
 74
     0
 42
0.000000001
 43
0.0000000001
 40
0.0
 40
0.0
 40
0.0
 40
0.0
 40
0.25
 40
0.25
 40
0.5
 40
0.5
 40
0.625
 40
0.625
 40
0.6875
 40
0.6875
 40
0.75
 40
0.75
 40
1.0
 40
1.0
 40
1.0
 40
1.0
 10
299.6302486708576
 20
271.4139761057478
 30
0.0
 10
299.8871191426327
 20
271.4171234950202
 30
0.0
 10
300.1482782994385
 20
271.4211277205006
 30
0.0
 10
300.6792974377907
 20
271.4292867418321
 30
0.0
 10
300.94915655954
 20
271.4334423899326
 30
0.0
 10
301.3607228583152
 20
271.4388779990129
 30
0.0
 10
301.4990429683547
 20
271.4405595069531
 30
0.0
 10
301.7082691493678
 20
271.4427961516487
 30
0.0
 10
301.7783023419763
 20
271.443494265631
 30
0.0
 10
301.9189608156612
 20
271.444782691925
 30
0.0
 10
301.9896663769514
 20
271.4453734411546
 30
0.0
 10
302.3425036005543
 20
271.4480141362758
 30
0.0
 10
302.6240329241703
 20
271.4491214043869
 30
0.0
 10
302.9048419453003
 20
271.4491214043869
 30
0.0
  0
SPLINE
  5
209
330
1F
100
AcDbEntity
  8
1
100
AcDbSpline
210
0.0
220
0.0
230
1.0
 70
     8
 71
     3
 72
    16
 73
    12
 74
     0
 42
0.000000001
 43
0.0000000001
 40
0.0
 40
0.0
 40
0.0
 40
0.0
 40
0.1250000000000003
 40
0.1250000000000003
 40
0.2500000000000007
 40
0.2500000000000007
 40
0.5000000000000005
 40
0.5000000000000005
 40
0.7500000000000002
 40
0.7500000000000002
 40
1.0
 40
1.0
 40
1.0
 40
1.0
 10
322.2211775149403
 20
272.3418693337796
 30
0.0
 10
321.4211734724182
 20
272.2745195536461
 30
0.0
 10
320.6206604491351
 20
272.2112717222114
 30
0.0
 10
319.0184422693407
 20
272.0928171226763
 30
0.0
 10
318.2166630267949
 20
272.0376063932546
 30
0.0
 10
315.8098072391217
 20
271.8837585542672
 30
0.0
 10
314.2034698273401
 20
271.7969551559477
 30
0.0
 10
310.985718918624
 20
271.6523122540714
 30
0.0
 10
309.374300506244
 20
271.5944729239705
 30
0.0
 10
306.1448645901724
 20
271.5040498987883
 30
0.0
 10
304.5268427919892
 20
271.4714578140059
 30
0.0
 10
302.9048419452957
 20
271.4491214043871
 30
0.0
  0
SPLINE
  5
20A
330
1F
100
AcDbEntity
  8
1
100
AcDbSpline
210
0.0
220
0.0
230
1.0
 70
     8
 71
     3
 72
    12
 73
     8
 74
     0
 42
0.000000001
 43
0.0000000001
 40
0.0
 40
0.0
 40
0.0
 40
0.0
 40
0.4999999999999999
 40
0.4999999999999999
 40
0.75
 40
0.75
 40
1.0
 40
1.0
 40
1.0
 40
1.0
 10
341.9656750778574
 20
275.0442939117347
 30
0.0
 10
341.224793340377
 20
274.9084096277211
 30
0.0
 10
340.4834158618259
 20
274.7770192618534
 30
0.0
 10
339.3704353828737
 20
274.5867482892332
 30
0.0
 10
338.9992896868725
 20
274.524459584608
 30
0.0
 10
338.2566666959747
 20
274.4021565685487
 30
0.0
 10
337.8851814346305
 20
274.3421566773046
 30
0.0
 10
337.5135585568892
 20
274.2832174528319
 30
0.0
  0
SPLINE
  5
20B
330
1F
100
AcDbEntity
  8
1
100
AcDbSpline
210
0.0
220
0.0
230
1.0
 70
     8
 71
     3
 72
   103
 73
    99
 74
     0
 42
0.000000001
 43
0.0000000001
 40
0.0
 40
0.0
 40
0.0
 40
0.0
 40
0.0156250000000011
 40
0.0156250000000011
 40
0.0312500000000022
 40
0.0312500000000022
 40
0.0625000000000043
 40
0.0625000000000043
 40
0.0781250000000049
 40
0.0781250000000049
 40
0.0937500000000055
 40
0.1093750000000061
 40
0.1093750000000061
 40
0.1250000000000067
 40
0.1250000000000067
 40
0.1406250000000074
 40
0.1406250000000074
 40
0.156250000000008
 40
0.156250000000008
 40
0.1875000000000094
 40
0.1875000000000094
 40
0.2031250000000101
 40
0.2031250000000101
 40
0.2187500000000108
 40
0.2343750000000114
 40
0.2343750000000114
 40
0.250000000000012
 40
0.250000000000012
 40
0.2656250000000127
 40
0.2656250000000127
 40
0.2812500000000134
 40
0.2812500000000134
 40
0.3125000000000141
 40
0.3125000000000141
 40
0.3281250000000145
 40
0.3281250000000145
 40
0.3437500000000149
 40
0.3437500000000149
 40
0.3750000000000162
 40
0.3750000000000162
 40
0.4062500000000176
 40
0.4062500000000176
 40
0.437500000000019
 40
0.437500000000019
 40
0.4531250000000194
 40
0.4531250000000194
 40
0.4687500000000195
 40
0.4843750000000198
 40
0.4843750000000198
 40
0.5000000000000201
 40
0.5000000000000201
 40
0.5312500000000201
 40
0.5312500000000201
 40
0.5468750000000196
 40
0.5468750000000196
 40
0.5625000000000191
 40
0.5781250000000185
 40
0.5781250000000185
 40
0.5937500000000178
 40
0.5937500000000178
 40
0.6250000000000178
 40
0.6250000000000178
 40
0.6562500000000178
 40
0.6562500000000178
 40
0.6718750000000176
 40
0.6718750000000176
 40
0.6875000000000174
 40
0.7031250000000171
 40
0.7031250000000171
 40
0.7187500000000169
 40
0.7187500000000169
 40
0.750000000000016
 40
0.750000000000016
 40
0.765625000000015
 40
0.765625000000015
 40
0.7812500000000138
 40
0.7812500000000138
 40
0.7968750000000127
 40
0.7968750000000127
 40
0.8125000000000115
 40
0.8281250000000104
 40
0.8281250000000104
 40
0.8437500000000092
 40
0.8437500000000092
 40
0.8750000000000072
 40
0.8750000000000072
 40
0.8906250000000063
 40
0.8906250000000063
 40
0.9062500000000055
 40
0.9062500000000055
 40
0.9218750000000046
 40
0.9218750000000046
 40
0.9375000000000035
 40
0.9531250000000028
 40
0.9531250000000028
 40
0.9687500000000019
 40
0.9687500000000019
 40
1.0
 40
1.0
 40
1.0
 40
1.0
 10
404.5956536514649
 20
283.1534935136928
 30
0.0
 10
404.5881217823861
 20
283.1066301751712
 30
0.0
 10
404.5807408187253
 20
283.0592281618016
 30
0.0
 10
404.5662807178711
 20
282.9633467295683
 30
0.0
 10
404.5591954569893
 20
282.914823833987
 30
0.0
 10
404.5384375809359
 20
282.7679044499618
 30
0.0
 10
404.5253502532942
 20
282.6688062051504
 30
0.0
 10
404.5068400643792
 20
282.5184401810455
 30
0.0
 10
404.5008486435588
 20
282.4679510668663
 30
0.0
 10
404.4893149503907
 20
282.3670098969031
 30
0.0
 10
404.4782178433609
 20
282.2660156643503
 30
0.0
 10
404.4679891843896
 20
282.164915880799
 30
0.0
 10
404.4581973252694
 20
282.0637630086833
 30
0.0
 10
404.4535268092923
 20
282.0132241792052
 30
0.0
 10
404.4446843640988
 20
281.9127703125665
 30
0.0
 10
404.440504690253
 20
281.8627764384873
 30
0.0
 10
404.4326272957506
 20
281.7632537047151
 30
0.0
 10
404.4289263957511
 20
281.7136791316996
 30
0.0
 10
404.4185740314722
 20
281.5659599581762
 30
0.0
 10
404.4127107082393
 20
281.4694212295198
 30
0.0
 10
404.4054582200379
 20
281.3274963979215
 30
0.0
 10
404.4032962091897
 20
281.2806016582816
 30
0.0
 10
404.3995147638831
 20
281.1883387083459
 30
0.0
 10
404.3962696909272
 20
281.0975092964225
 30
0.0
 10
404.3940899438159
 20
281.0095271324844
 30
0.0
 10
404.3924451491563
 20
280.9229747116591
 30
0.0
 10
404.3918922430026
 20
280.8804738410645
 30
0.0
 10
404.391326846361
 20
280.7974443949799
 30
0.0
 10
404.3913130201132
 20
280.7568515646553
 30
0.0
 10
404.3918213921561
 20
280.6775037933516
 30
0.0
 10
404.3923443781607
 20
280.6387129894573
 30
0.0
 10
404.3947185798813
 20
280.5253575685022
 30
0.0
 10
404.3973609620756
 20
280.4542161510248
 30
0.0
 10
404.4028987122981
 20
280.3540838086161
 30
0.0
 10
404.4050135556227
 20
280.3217433883885
 30
0.0
 10
404.4097308051999
 20
280.2598222797672
 30
0.0
 10
404.4123348208676
 20
280.2301869406509
 30
0.0
 10
404.4208677759873
 20
280.145174133978
 30
0.0
 10
404.4275150784285
 20
280.0936761323247
 30
0.0
 10
404.44271004999
 20
280.000942917953
 30
0.0
 10
404.4512603365117
 20
279.9596962039672
 30
0.0
 10
404.4703170871171
 20
279.8878702923917
 30
0.0
 10
404.4806871245365
 20
279.8578011079377
 30
0.0
 10
404.4974923089399
 20
279.8213771371207
 30
0.0
 10
404.5033108614008
 20
279.8106748587198
 30
0.0
 10
404.5153338818553
 20
279.7922598947935
 30
0.0
 10
404.5277158281031
 20
279.776865522867
 30
0.0
 10
404.5408096453418
 20
279.7674620043805
 30
0.0
 10
404.5542603411692
 20
279.7610618493485
 30
0.0
 10
404.5611748260819
 20
279.7593638733608
 30
0.0
 10
404.5823814788618
 20
279.7588346990868
 30
0.0
 10
404.5970933116818
 20
279.7645315135279
 30
0.0
 10
404.6200215099213
 20
279.7821443082746
 30
0.0
 10
404.6278193927336
 20
279.7895463837087
 30
0.0
 10
404.643610177076
 20
279.8073096478396
 30
0.0
 10
404.6596117022679
 20
279.828036176026
 30
0.0
 10
404.6760336166783
 20
279.8546738707607
 30
0.0
 10
404.6926675204802
 20
279.8842923855191
 30
0.0
 10
404.7010872086015
 20
279.9005916821625
 30
0.0
 10
404.7264967636518
 20
279.9536478528422
 30
0.0
 10
404.7436912500683
 20
279.994640446487
 30
0.0
 10
404.7785961453213
 20
280.088009513
 30
0.0
 10
404.7961428641777
 20
280.1399517941376
 30
0.0
 10
404.8225753176591
 20
280.225647052506
 30
0.0
 10
404.8314203539473
 20
280.2555664772344
 30
0.0
 10
404.8490808779715
 20
280.3178016897338
 30
0.0
 10
404.8666923214366
 20
280.3823552288336
 30
0.0
 10
404.8842060301657
 20
280.451525280909
 30
0.0
 10
404.9016705340126
 20
280.5230195320191
 30
0.0
 10
404.910387609698
 20
280.559973818943
 30
0.0
 10
404.9362930417291
 20
280.6736159186986
 30
0.0
 10
404.9532872352388
 20
280.7532688010545
 30
0.0
 10
404.9783607944744
 20
280.8786359381211
 30
0.0
 10
404.9866290776456
 20
280.9213139228068
 30
0.0
 10
405.0029203419574
 20
281.0080931593864
 30
0.0
 10
405.0109536678839
 20
281.0522458208867
 30
0.0
 10
405.0267953385937
 20
281.14207973526
 30
0.0
 10
405.0346137769141
 20
281.1878223274313
 30
0.0
 10
405.0499754386658
 20
281.2805687869699
 30
0.0
 10
405.0650301779478
 20
281.3743765615889
 30
0.0
 10
405.079475202844
 20
281.4702926832222
 30
0.0
 10
405.0936139685154
 20
281.5672678264845
 30
0.0
 10
405.1005384452195
 20
281.6163495391482
 30
0.0
 10
405.1207155162485
 20
281.7642326647956
 30
0.0
 10
405.1334131533015
 20
281.8639220864759
 30
0.0
 10
405.1513248154723
 20
282.0151133268295
 30
0.0
 10
405.1570915983099
 20
282.0656735863969
 30
0.0
 10
405.1681723841556
 20
282.1666957104722
 30
0.0
 10
405.1734940201178
 20
282.2172215456835
 30
0.0
 10
405.1837001643591
 20
282.3183027363697
 30
0.0
 10
405.1885908471927
 20
282.3689257710184
 30
0.0
 10
405.1979013398186
 20
282.4698825216927
 30
0.0
 10
405.2067235668879
 20
282.5703469291994
 30
0.0
 10
405.2145781521463
 20
282.6698356139105
 30
0.0
 10
405.2219478675888
 20
282.7688353795532
 30
0.0
 10
405.2253935122352
 20
282.818149508544
 30
0.0
 10
405.2349353859777
 20
282.964404972319
 30
0.0
 10
405.2402617726972
 20
283.0599353624517
 30
0.0
 10
405.2445538284957
 20
283.153493513693
 30
0.0
  0
SPLINE
  5
20C
330
1F
100
AcDbEntity
  8
1
100
AcDbSpline
210
0.0
220
0.0
230
1.0
 70
     8
 71
     3
 72
    22
 73
    18
 74
     0
 42
0.000000001
 43
0.0000000001
 40
0.0
 40
0.0
 40
0.0
 40
0.0
 40
0.125
 40
0.125
 40
0.25
 40
0.25
 40
0.375
 40
0.375
 40
0.5
 40
0.5
 40
0.625
 40
0.625
 40
0.75
 40
0.75
 40
0.875
 40
0.875
 40
1.0
 40
1.0
 40
1.0
 40
1.0
 10
289.3923341230149
 20
271.6595375572904
 30
0.0
 10
289.8047037111747
 20
271.628112074138
 30
0.0
 10
290.2194986194002
 20
271.6008733861569
 30
0.0
 10
291.0531942976927
 20
271.5531464936635
 30
0.0
 10
291.4720934791424
 20
271.5326611941621
 30
0.0
 10
292.3133546795477
 20
271.4972196616066
 30
0.0
 10
292.7357142327639
 20
271.4822662103979
 30
0.0
 10
293.5834182112385
 20
271.456978759282
 30
0.0
 10
294.008760084137
 20
271.4466479821959
 30
0.0
 10
294.8621946040321
 20
271.4299197722595
 30
0.0
 10
295.2902857137865
 20
271.4235260236842
 30
0.0
 10
296.1492941684574
 20
271.414105097484
 30
0.0
 10
296.5802118457572
 20
271.4110814301158
 30
0.0
 10
297.4452792179797
 20
271.4078422679794
 30
0.0
 10
297.8794311166967
 20
271.4076291067378
 30
0.0
 10
298.7516640079537
 20
271.409369343235
 30
0.0
 10
299.18974817719
 20
271.4113231425091
 30
0.0
 10
299.6302486708572
 20
271.4139761057477
 30
0.0
  0
SPLINE
  5
20D
330
1F
100
AcDbEntity
  8
1
100
AcDbSpline
210
0.0
220
0.0
230
1.0
 70
     8
 71
     3
 72
    67
 73
    63
 74
     0
 42
0.000000001
 43
0.0000000001
 40
0.0
 40
0.0
 40
0.0
 40
0.0
 40
0.0625000000000022
 40
0.0625000000000022
 40
0.1250000000000044
 40
0.1250000000000044
 40
0.1406250000000042
 40
0.1406250000000042
 40
0.156250000000004
 40
0.1875000000000052
 40
0.1875000000000052
 40
0.2187500000000064
 40
0.2187500000000064
 40
0.2500000000000077
 40
0.2500000000000077
 40
0.2812500000000089
 40
0.2812500000000089
 40
0.3125000000000101
 40
0.3125000000000101
 40
0.3750000000000109
 40
0.3750000000000109
 40
0.4062500000000114
 40
0.4062500000000114
 40
0.4375000000000119
 40
0.4687500000000124
 40
0.4687500000000124
 40
0.484375000000012
 40
0.484375000000012
 40
0.5000000000000118
 40
0.5312500000000115
 40
0.5312500000000115
 40
0.5625000000000111
 40
0.5625000000000111
 40
0.5937500000000106
 40
0.5937500000000106
 40
0.6093750000000099
 40
0.6093750000000099
 40
0.6250000000000093
 40
0.6250000000000093
 40
0.6875000000000063
 40
0.6875000000000063
 40
0.7500000000000031
 40
0.7500000000000031
 40
0.7656250000000035
 40
0.7656250000000035
 40
0.7812500000000038
 40
0.8125000000000019
 40
0.8125000000000019
 40
0.8281250000000015
 40
0.8281250000000015
 40
0.8437500000000012
 40
0.8750000000000012
 40
0.8750000000000012
 40
0.9062500000000012
 40
0.9062500000000012
 40
0.9375000000000012
 40
0.9375000000000012
 40
0.9531250000000012
 40
0.9531250000000012
 40
0.9687500000000012
 40
0.9687500000000012
 40
1.0
 40
1.0
 40
1.0
 40
1.0
 10
405.2445538284957
 20
283.1534935136931
 30
0.0
 10
405.2377902721558
 20
283.2679247296972
 30
0.0
 10
405.2298971193581
 20
283.3782310858388
 30
0.0
 10
405.2118620568723
 20
283.5906321868196
 30
0.0
 10
405.2018182648648
 20
283.6915607378147
 30
0.0
 10
405.1880018476001
 20
283.8110693519208
 30
0.0
 10
405.1851737718418
 20
283.8346468348467
 30
0.0
 10
405.1794117601899
 20
283.8809592404297
 30
0.0
 10
405.1706024539956
 20
283.949229613153
 30
0.0
 10
405.1612975844678
 20
284.0139290781993
 30
0.0
 10
405.1484497350755
 20
284.0970147236901
 30
0.0
 10
405.1418007357164
 20
284.1369795881432
 30
0.0
 10
405.1281606385066
 20
284.2131203584885
 30
0.0
 10
405.1211578552964
 20
284.249376758368
 30
0.0
 10
405.1067866680078
 20
284.3182600820557
 30
0.0
 10
405.0993982771368
 20
284.3509598466892
 30
0.0
 10
405.0844059061295
 20
284.4120671888375
 30
0.0
 10
405.0767913089371
 20
284.4405400694693
 30
0.0
 10
405.0535988936849
 20
284.5198325187574
 30
0.0
 10
405.0376742871869
 20
284.5645581445243
 30
0.0
 10
405.0130854762895
 20
284.619312419015
 30
0.0
 10
405.0047716986666
 20
284.6355003028025
 30
0.0
 10
404.9879024616142
 20
284.663623683042
 30
0.0
 10
404.9709421505109
 20
284.687243172505
 30
0.0
 10
404.9538010154366
 20
284.7019203627619
 30
0.0
 10
404.9408767366856
 20
284.709544308698
 30
0.0
 10
404.9365530330169
 20
284.711521821416
 30
0.0
 10
404.9279129195126
 20
284.7143280520344
 30
0.0
 10
404.9149581681188
 20
284.7168199334586
 30
0.0
 10
404.9020195894422
 20
284.7141860033447
 30
0.0
 10
404.8847826000055
 20
284.7060946669491
 30
0.0
 10
404.8761558709471
 20
284.6997380065229
 30
0.0
 10
404.8590436248393
 20
284.6824954785555
 30
0.0
 10
404.8505476657935
 20
284.671613258032
 30
0.0
 10
404.8378940906775
 20
284.6518940790284
 30
0.0
 10
404.8336913083342
 20
284.6447544639251
 30
0.0
 10
404.8253161036002
 20
284.6293343101748
 30
0.0
 10
404.8211397437397
 20
284.6210446902085
 30
0.0
 10
404.8004098950133
 20
284.5768797588617
 30
0.0
 10
404.7842747955252
 20
284.5328543178549
 30
0.0
 10
404.752912271289
 20
284.4272204874597
 30
0.0
 10
404.7378806127549
 20
284.3662712389925
 30
0.0
 10
404.7199063245198
 20
284.2798933033097
 30
0.0
 10
404.7163511886703
 20
284.2620973022837
 30
0.0
 10
404.7093526857804
 20
284.225626484001
 30
0.0
 10
404.6990116143871
 20
284.1695499837571
 30
0.0
 10
404.6891381730636
 20
284.1093838183021
 30
0.0
 10
404.6795781825516
 20
284.0464763644643
 30
0.0
 10
404.6764409013124
 20
284.0250288861231
 30
0.0
 10
404.6702865658688
 20
283.9813161727448
 30
0.0
 10
404.6612424219719
 20
283.914574158979
 30
0.0
 10
404.6527562443008
 20
283.8443390542503
 30
0.0
 10
404.6419378496665
 20
283.7475839041649
 30
0.0
 10
404.6367680655326
 20
283.6975494719339
 30
0.0
 10
404.6270046415602
 20
283.5950966054382
 30
0.0
 10
404.6224039954191
 20
283.5426308414985
 30
0.0
 10
404.6159232883795
 20
283.4620790931276
 30
0.0
 10
404.6138331699459
 20
283.4349193356117
 30
0.0
 10
404.6097938322814
 20
283.3799785401596
 30
0.0
 10
404.6078433037521
 20
283.3521756611947
 30
0.0
 10
404.6022267747592
 20
283.2681664568948
 30
0.0
 10
404.5987883761391
 20
283.2112712217837
 30
0.0
 10
404.5956536514649
 20
283.1534935136928
 30
0.0
  0
SPLINE
  5
20E
330
1F
100
AcDbEntity
  8
1
100
AcDbSpline
210
0.0
220
0.0
230
1.0
 70
     8
 71
     3
 72
    17
 73
    13
 74
     0
 42
0.000000001
 43
0.0000000001
 40
0.0
 40
0.0
 40
0.0
 40
0.0
 40
0.25
 40
0.25
 40
0.5
 40
0.75
 40
0.75
 40
0.8125
 40
0.8125
 40
0.875
 40
0.875
 40
1.0
 40
1.0
 40
1.0
 40
1.0
 10
302.9048419452974
 20
306.3908287082106
 30
0.0
 10
302.6436218448642
 20
306.3908287082106
 30
0.0
 10
302.3839637596723
 20
306.39136519715
 30
0.0
 10
301.8676889457997
 20
306.3933427281524
 30
0.0
 10
301.3544558114154
 20
306.3962238401449
 30
0.0
 10
300.8472508017236
 20
306.4000740187617
 30
0.0
 10
300.5321470762368
 20
306.4023603710051
 30
0.0
 10
300.4692214309929
 20
306.4028109870722
 30
0.0
 10
300.343561256169
 20
306.4036856504583
 30
0.0
 10
300.2808069836535
 20
306.4041097927941
 30
0.0
 10
300.0934294367916
 20
306.4053171164745
 30
0.0
 10
299.9694974035348
 20
306.4060369709316
 30
0.0
 10
299.8465385275887
 20
306.4066116743523
 30
0.0
  0
SPLINE
  5
20F
330
1F
100
AcDbEntity
  8
1
100
AcDbSpline
210
0.0
220
0.0
230
1.0
 70
     8
 71
     3
 72
     8
 73
     4
 74
     0
 42
0.000000001
 43
0.0000000001
 40
0.0
 40
0.0
 40
0.0
 40
0.0
 40
1.0
 40
1.0
 40
1.0
 40
1.0
 10
299.846538527589
 20
306.4066116743525
 30
0.0
 10
299.4778024104564
 20
306.4074476631197
 30
0.0
 10
299.1109225352789
 20
306.4079778169076
 30
0.0
 10
298.74574462251
 20
306.4079932297003
 30
0.0
  0
SPLINE
  5
210
330
1F
100
AcDbEntity
  8
1
100
AcDbSpline
210
0.0
220
0.0
230
1.0
 70
     8
 71
     3
 72
    10
 73
     6
 74
     0
 42
0.000000001
 43
0.0000000001
 40
0.0
 40
0.0
 40
0.0
 40
0.0
 40
0.5
 40
0.5
 40
1.0
 40
1.0
 40
1.0
 40
1.0
 10
292.263129317598
 20
285.1557319337735
 30
0.0
 10
291.7887346775714
 20
285.2421526208969
 30
0.0
 10
291.312386541006
 20
285.3065590515222
 30
0.0
 10
290.3555390482015
 20
285.3882454911778
 30
0.0
 10
289.8750429111905
 20
285.4055604771549
 30
0.0
 10
289.3923341230149
 20
285.3977075058251
 30
0.0
  0
SPLINE
  5
211
330
1F
100
AcDbEntity
  8
1
100
AcDbSpline
210
0.0
220
0.0
230
1.0
 70
     8
 71
     3
 72
    43
 73
    39
 74
     0
 42
0.000000001
 43
0.0000000001
 40
0.0
 40
0.0
 40
0.0
 40
0.0
 40
0.062500000000001
 40
0.062500000000001
 40
0.125000000000002
 40
0.125000000000002
 40
0.1875000000000031
 40
0.1875000000000031
 40
0.2500000000000043
 40
0.2500000000000043
 40
0.3125000000000054
 40
0.3125000000000054
 40
0.3750000000000066
 40
0.3750000000000066
 40
0.4062500000000071
 40
0.4062500000000071
 40
0.4218750000000074
 40
0.4218750000000074
 40
0.4375000000000078
 40
0.5000000000000072
 40
0.5000000000000072
 40
0.5625000000000067
 40
0.6250000000000062
 40
0.6250000000000062
 40
0.6875000000000055
 40
0.6875000000000055
 40
0.7500000000000049
 40
0.7500000000000049
 40
0.7812500000000047
 40
0.7968750000000043
 40
0.7968750000000043
 40
0.8125000000000037
 40
0.8125000000000037
 40
0.8750000000000024
 40
0.8750000000000024
 40
0.9375000000000012
 40
0.9375000000000012
 40
1.0
 40
1.0
 40
1.0
 40
1.0
 10
279.4048419452957
 20
279.8722932496771
 30
0.0
 10
279.5509591487752
 20
280.0752480490099
 30
0.0
 10
279.7014129624756
 20
280.2725872684214
 30
0.0
 10
280.0107941290811
 20
280.656843496972
 30
0.0
 10
280.169722666226
 20
280.8437574392782
 30
0.0
 10
280.4959984525134
 20
281.2076914471515
 30
0.0
 10
280.6633462206483
 20
281.3847098213703
 30
0.0
 10
281.0065219027722
 20
281.7291791799564
 30
0.0
 10
281.1823499028326
 20
281.8966293003225
 30
0.0
 10
281.5426554084906
 20
282.2221233240581
 30
0.0
 10
281.7271326546666
 20
282.3801669367437
 30
0.0
 10
282.1050167870795
 20
282.6868603075387
 30
0.0
 10
282.2984230686964
 20
282.8355102527473
 30
0.0
 10
282.5955325716302
 20
283.0513384125026
 30
0.0
 10
282.6957367760617
 20
283.1220888337485
 30
0.0
 10
282.8478427123841
 20
283.2264022010279
 30
0.0
 10
282.8988845544243
 20
283.2608973740145
 30
0.0
 10
283.0013082826797
 20
283.3291008578889
 30
0.0
 10
283.2582751743034
 20
283.4976840858367
 30
0.0
 10
283.5197861193176
 20
283.6567009090476
 30
0.0
 10
283.9441327804038
 20
283.8989761250768
 30
0.0
 10
284.3744085079411
 20
284.1290993302162
 30
0.0
 10
284.816913117989
 20
284.334731842151
 30
0.0
 10
285.2658020876303
 20
284.5278246484983
 30
0.0
 10
285.4934380984636
 20
284.6181023999319
 30
0.0
 10
285.9554631076541
 20
284.7855987587417
 30
0.0
 10
286.1898511366335
 20
284.8628193080677
 30
0.0
 10
286.5468668603946
 20
284.9682619350115
 30
0.0
 10
286.7267347218493
 20
285.0183827376416
 30
0.0
 10
286.908728241597
 20
285.0644555672434
 30
0.0
 10
287.0305404325812
 20
285.0942520806454
 30
0.0
 10
287.0917447774665
 20
285.1087036223261
 30
0.0
 10
287.3980938014983
 20
285.178411648762
 30
0.0
 10
287.6443709561916
 20
285.2260860171387
 30
0.0
 10
288.1394028563184
 20
285.3047340531465
 30
0.0
 10
288.3881574577001
 20
285.3357089878108
 30
0.0
 10
288.8882609662029
 20
285.3801389881573
 30
0.0
 10
289.1396096542101
 20
285.3935960455485
 30
0.0
 10
289.3923341230149
 20
285.3977075058251
 30
0.0
  0
SPLINE
  5
212
330
1F
100
AcDbEntity
  8
1
100
AcDbSpline
210
0.0
220
0.0
230
1.0
 70
     8
 71
     3
 72
    20
 73
    16
 74
     0
 42
0.000000001
 43
0.0000000001
 40
0.0
 40
0.0
 40
0.0
 40
0.0
 40
0.2499999999999976
 40
0.2499999999999976
 40
0.4999999999999952
 40
0.4999999999999952
 40
0.6249999999999939
 40
0.6249999999999939
 40
0.6562499999999938
 40
0.6562499999999938
 40
0.6874999999999937
 40
0.6874999999999937
 40
0.7499999999999957
 40
0.7499999999999957
 40
1.0
 40
1.0
 40
1.0
 40
1.0
 10
279.4048419452957
 20
279.8722932496771
 30
0.0
 10
279.1892400195762
 20
279.6120115859397
 30
0.0
 10
278.9917720016632
 20
279.3459006442587
 30
0.0
 10
278.6328141948782
 20
278.8033130822743
 30
0.0
 10
278.4713205684488
 20
278.5268348462067
 30
0.0
 10
278.2568703833556
 20
278.1049228683557
 30
0.0
 10
278.1900296591193
 20
277.9630825857824
 30
0.0
 10
278.1124583635314
 20
277.7843094815911
 30
0.0
 10
278.0972433507847
 20
277.7484811428813
 30
0.0
 10
278.0674173243933
 20
277.6766774763689
 30
0.0
 10
278.0527973224611
 20
277.6406788852628
 30
0.0
 10
278.0099533929247
 20
277.5327215615186
 30
0.0
 10
277.9827249093182
 20
277.4607565992674
 30
0.0
 10
277.853233102474
 20
277.1010028964061
 30
0.0
 10
277.7708558431474
 20
276.8134368256325
 30
0.0
 10
277.709960765664
 20
276.5265168777827
 30
0.0
  0
SPLINE
  5
213
330
1F
100
AcDbEntity
  8
1
100
AcDbSpline
210
0.0
220
0.0
230
1.0
 70
    28
 71
     3
 72
     8
 73
     4
 74
     0
 42
0.000000001
 43
0.0000000001
 40
0.0
 40
0.0
 40
0.0
 40
0.0
 40
1.0
 40
1.0
 40
1.0
 40
1.0
 10
302.9048419452958
 20
282.7993321770043
 30
0.0
 41
1.0
 10
302.904841945296
 20
282.9632067397687
 30
0.0
 41
0.9921101926350775
 10
302.904841945296
 20
283.1247673678741
 30
0.0
 41
0.98453918264881
 10
302.904841945296
 20
283.2838021770043
 30
0.0
 41
0.9772869700411963
  0
SPLINE
  5
214
330
1F
100
AcDbEntity
  8
1
100
AcDbSpline
210
0.0
220
0.0
230
1.0
 70
     8
 71
     3
 72
     8
 73
     4
 74
     0
 42
0.000000001
 43
0.0000000001
 40
0.0
 40
0.0
 40
0.0
 40
0.0
 40
1.0
 40
1.0
 40
1.0
 40
1.0
 10
398.9339364338782
 20
300.9621284892224
 30
0.0
 10
398.9352160090158
 20
300.9731271302124
 30
0.0
 10
398.9368002011229
 20
300.984058860024
 30
0.0
 10
398.9386873195907
 20
300.9949238022808
 30
0.0
  0
SPLINE
  5
215
330
1F
100
AcDbEntity
  8
1
100
AcDbSpline
210
0.0
220
0.0
230
1.0
 70
     8
 71
     3
 72
    10
 73
     6
 74
     0
 42
0.000000001
 43
0.0000000001
 40
0.0
 40
0.0
 40
0.0
 40
0.0
 40
0.6628244121323786
 40
0.6628244121323786
 40
1.0
 40
1.0
 40
1.0
 40
1.0
 10
400.2620051439353
 20
301.6431785868962
 30
0.0
 10
400.261501574588
 20
301.641007085202
 30
0.0
 10
400.2609168423502
 20
301.6388459656651
 30
0.0
 10
400.2599119263524
 20
301.6356024345447
 30
0.0
 10
400.2595538654334
 20
301.6345170990455
 30
0.0
 10
400.2591764480716
 20
301.6334401138138
 30
0.0
  0
LINE
  5
230
330
1F
100
AcDbEntity
  8
4
100
AcDbLine
 10
266.392334
 20
288.907994
 30
0.0
 11
411.2629209999999
 21
288.907994
 31
0.0
  0
LINE
  5
231
330
1F
100
AcDbEntity
  8
SK4
100
AcDbLine
 10
210.904842
 20
288.907994
 30
0.0
 11
277.404842
 21
288.907994
 31
0.0
  0
MTEXT
  5
237
330
1F
100
AcDbEntity
  8
SK6
100
AcDbMText
 10
282.146554
 20
243.070881
 30
0.0
 40
3.5
 41
0.0
 71
     7
 72
     5
  1
\W0.7147;803D-36-108-S32
  7
cesky
 73
     2
 44
0.8433729999999998
  0
MTEXT
  5
348
330
1F
100
AcDbEntity
  8
2
100
AcDbMText
 10
337.827842
 20
327.385163
 30
0.0
 40
3.5
 41
0.0
 71
     7
 72
     5
  1
\W0.7809;133
  7
cesky
 73
     2
 44
0.8433729999999998
  0
LINE
  5
349
330
1F
100
AcDbEntity
  8
2
100
AcDbLine
 10
407.4048419999999
 20
306.907994
 30
0.0
 11
407.4048419999999
 21
328.5109970000001
 31
0.0
  0
LINE
  5
34A
330
1F
100
AcDbEntity
  8
2
100
AcDbLine
 10
274.404842
 20
289.907567
 30
0.0
 11
274.404842
 21
328.5109970000001
 31
0.0
  0
LINE
  5
34B
330
1F
100
AcDbEntity
  8
2
100
AcDbLine
 10
407.4048419999999
 20
327.510997
 30
0.0
 11
274.404842
 21
327.510997
 31
0.0
  0
SOLID
  5
34C
330
1F
100
AcDbEntity
  8
2
100
AcDbTrace
 10
407.4048419999999
 20
327.510997
 30
0.0
 11
403.904844
 21
326.893852
 31
0.0
 12
403.9048399999999
 22
328.128141
 32
0.0
 13
403.9048399999999
 23
328.128141
 33
0.0
  0
SOLID
  5
34D
330
1F
100
AcDbEntity
  8
2
100
AcDbTrace
 10
274.404842
 20
327.510997
 30
0.0
 11
277.90484
 21
328.128141
 31
0.0
 12
277.904844
 22
326.893852
 32
0.0
 13
277.904844
 23
326.893852
 33
0.0
  0
MTEXT
  5
34E
330
1F
100
AcDbEntity
  8
2
100
AcDbMText
 10
307.827842
 20
340.562135
 30
0.0
 40
3.5
 41
0.0
 71
     7
 72
     5
  1
\W0.7809;193
  7
cesky
 73
     2
 44
0.8433729999999998
  0
LINE
  5
34F
330
1F
100
AcDbEntity
  8
2
100
AcDbLine
 10
407.4048419999999
 20
308.907994
 30
0.0
 11
407.4048419999999
 21
341.687968
 31
0.0
  0
LINE
  5
350
330
1F
100
AcDbEntity
  8
2
100
AcDbLine
 10
214.404842
 20
302.907994
 30
0.0
 11
214.404842
 21
341.687968
 31
0.0
  0
LINE
  5
351
330
1F
100
AcDbEntity
  8
2
100
AcDbLine
 10
407.4048419999999
 20
340.687968
 30
0.0
 11
214.404842
 21
340.687968
 31
0.0
  0
SOLID
  5
352
330
1F
100
AcDbEntity
  8
2
100
AcDbTrace
 10
407.4048419999999
 20
340.687968
 30
0.0
 11
403.904844
 21
340.070823
 31
0.0
 12
403.9048399999999
 22
341.305112
 32
0.0
 13
403.9048399999999
 23
341.305112
 33
0.0
  0
SOLID
  5
353
330
1F
100
AcDbEntity
  8
2
100
AcDbTrace
 10
214.404842
 20
340.687968
 30
0.0
 11
217.90484
 21
341.305112
 31
0.0
 12
217.904844
 22
340.070823
 32
0.0
 13
217.904844
 23
340.070823
 33
0.0
  0
MTEXT
  5
354
330
1F
100
AcDbEntity
  8
2
100
AcDbMText
 10
242.590342
 20
327.385163
 30
0.0
 40
3.5
 41
0.0
 71
     7
 72
     5
  1
\W0.7045;60
  7
cesky
 73
     2
 44
0.8433729999999998
  0
LINE
  5
355
330
1F
100
AcDbEntity
  8
2
100
AcDbLine
 10
274.404842
 20
288.907994
 30
0.0
 11
274.404842
 21
328.5109970000001
 31
0.0
  0
LINE
  5
356
330
1F
100
AcDbEntity
  8
2
100
AcDbLine
 10
214.404842
 20
302.907994
 30
0.0
 11
214.404842
 21
328.5109970000001
 31
0.0
  0
LINE
  5
357
330
1F
100
AcDbEntity
  8
2
100
AcDbLine
 10
274.404842
 20
327.510997
 30
0.0
 11
214.404842
 21
327.510997
 31
0.0
  0
SOLID
  5
358
330
1F
100
AcDbEntity
  8
2
100
AcDbTrace
 10
274.404842
 20
327.510997
 30
0.0
 11
270.904844
 21
326.893852
 31
0.0
 12
270.90484
 22
328.128141
 32
0.0
 13
270.90484
 23
328.128141
 33
0.0
  0
SOLID
  5
359
330
1F
100
AcDbEntity
  8
2
100
AcDbTrace
 10
214.404842
 20
327.510997
 30
0.0
 11
217.90484
 21
328.128141
 31
0.0
 12
217.904844
 22
326.893852
 32
0.0
 13
217.904844
 23
326.893852
 33
0.0
  0
MTEXT
  5
35A
330
1F
100
AcDbEntity
  8
2
100
AcDbMText
 10
346.308981
 20
316.722179
 30
0.0
 40
3.5
 41
0.0
 71
     7
 72
     5
  1
\W0.8677;116
  7
cesky
 73
     2
 44
0.8433729999999998
  0
LINE
  5
35B
330
1F
100
AcDbEntity
  8
2
100
AcDbLine
 10
407.4048419999999
 20
308.907994
 30
0.0
 11
407.4048419999999
 21
317.848012
 31
0.0
  0
LINE
  5
35C
330
1F
100
AcDbEntity
  8
2
100
AcDbLine
 10
291.367121
 20
306.078605
 30
0.0
 11
291.367121
 21
317.848012
 31
0.0
  0
LINE
  5
35D
330
1F
100
AcDbEntity
  8
2
100
AcDbLine
 10
407.4048419999999
 20
316.848012
 30
0.0
 11
291.367121
 21
316.848012
 31
0.0
  0
SOLID
  5
35E
330
1F
100
AcDbEntity
  8
2
100
AcDbTrace
 10
407.4048419999999
 20
316.848012
 30
0.0
 11
403.904844
 21
316.2308680000001
 31
0.0
 12
403.9048399999999
 22
317.465157
 32
0.0
 13
403.9048399999999
 23
317.465157
 33
0.0
  0
SOLID
  5
35F
330
1F
100
AcDbEntity
  8
2
100
AcDbTrace
 10
291.367121
 20
316.848012
 30
0.0
 11
294.867118
 21
317.465157
 31
0.0
 12
294.867123
 22
316.2308680000001
 32
0.0
 13
294.867123
 23
316.2308680000001
 33
0.0
  0
MTEXT
  5
360
330
1F
100
AcDbEntity
  8
2
100
AcDbMText
 10
423.417048
 20
290.064386
 30
0.0
 40
3.5
 41
0.0
 71
     7
 72
     5
  1
\W0.7259;36
  7
cesky
 11
0.0000000000000001
 21
1.0
 31
0.0
 73
     2
 44
0.8433729999999998
  0
MTEXT
  5
361
330
1F
100
AcDbEntity
  8
2
100
AcDbMText
 10
423.417048
 20
283.326886
 30
0.0
 40
3.5
 41
0.0
 71
     7
 72
     5
  1
\W3.0115;\H2.63;%%c\H3.50;
  7
cesky
 11
0.0000000000000001
 21
1.0
 31
0.0
 73
     2
 44
0.8433729999999998
  0
LINE
  5
362
330
1F
100
AcDbEntity
  8
2
100
AcDbLine
 10
409.404842
 20
306.907994
 30
0.0
 11
424.604465
 21
306.907994
 31
0.0
  0
LINE
  5
363
330
1F
100
AcDbEntity
  8
2
100
AcDbLine
 10
423.6044650000001
 20
306.907994
 30
0.0
 11
423.6044650000001
 21
283.169386
 31
0.0
  0
SOLID
  5
364
330
1F
100
AcDbEntity
  8
2
100
AcDbTrace
 10
423.6044650000001
 20
306.907994
 30
0.0
 11
424.221609
 21
303.407996
 31
0.0
 12
422.987321
 22
303.407991
 32
0.0
 13
422.987321
 23
303.407991
 33
0.0
  0
MTEXT
  5
365
330
1F
100
AcDbEntity
  8
SK2
100
AcDbMText
 10
205.691127
 20
290.434244
 30
0.0
 40
3.5
 41
0.0
 71
     7
 72
     5
  1
\W0.7045;32
  7
cesky
 11
0.0000000000000001
 21
1.0
 31
0.0
 73
     2
 44
0.8433729999999998
  0
MTEXT
  5
366
330
1F
100
AcDbEntity
  8
SK2
100
AcDbMText
 10
205.691127
 20
283.696744
 30
0.0
 40
3.5
 41
0.0
 71
     7
 72
     5
  1
\W3.0115;\H2.63;%%c\H3.50;
  7
cesky
 11
0.0000000000000001
 21
1.0
 31
0.0
 73
     2
 44
0.8433729999999998
  0
LINE
  5
367
330
1F
100
AcDbEntity
  8
SK2
100
AcDbLine
 10
216.404842
 20
304.907994
 30
0.0
 11
204.878544
 21
304.907994
 31
0.0
  0
LINE
  5
368
330
1F
100
AcDbEntity
  8
SK2
100
AcDbLine
 10
216.404842
 20
272.907994
 30
0.0
 11
204.878544
 21
272.907994
 31
0.0
  0
LINE
  5
369
330
1F
100
AcDbEntity
  8
SK2
100
AcDbLine
 10
205.878544
 20
304.907994
 30
0.0
 11
205.878544
 21
272.907994
 31
0.0
  0
SOLID
  5
36A
330
1F
100
AcDbEntity
  8
SK2
100
AcDbTrace
 10
205.878544
 20
304.907994
 30
0.0
 11
206.495689
 21
301.407996
 31
0.0
 12
205.2614
 22
301.407991
 32
0.0
 13
205.2614
 23
301.407991
 33
0.0
  0
SOLID
  5
36B
330
1F
100
AcDbEntity
  8
SK2
100
AcDbTrace
 10
205.878544
 20
272.907994
 30
0.0
 11
205.2614
 21
276.407991
 31
0.0
 12
206.495689
 22
276.407996
 32
0.0
 13
206.495689
 23
276.407996
 33
0.0
  0
MTEXT
  5
36C
330
1F
100
AcDbEntity
  8
SK2
100
AcDbMText
 10
193.332501
 20
290.434244
 30
0.0
 40
3.5
 41
0.0
 71
     7
 72
     5
  1
\W0.7045;42
  7
cesky
 11
0.0000000000000001
 21
1.0
 31
0.0
 73
     2
 44
0.8433729999999998
  0
MTEXT
  5
36D
330
1F
100
AcDbEntity
  8
SK2
100
AcDbMText
 10
193.332501
 20
283.696744
 30
0.0
 40
3.5
 41
0.0
 71
     7
 72
     5
  1
\W3.0115;\H2.63;%%c\H3.50;
  7
cesky
 11
0.0000000000000001
 21
1.0
 31
0.0
 73
     2
 44
0.8433729999999998
  0
LINE
  5
36E
330
1F
100
AcDbEntity
  8
SK2
100
AcDbLine
 10
274.904842
 20
309.907994
 30
0.0
 11
192.519918
 21
309.907994
 31
0.0
  0
LINE
  5
36F
330
1F
100
AcDbEntity
  8
SK2
100
AcDbLine
 10
274.904842
 20
267.907994
 30
0.0
 11
192.519918
 21
267.907994
 31
0.0
  0
LINE
  5
370
330
1F
100
AcDbEntity
  8
SK2
100
AcDbLine
 10
193.519918
 20
309.907994
 30
0.0
 11
193.519918
 21
267.907994
 31
0.0
  0
SOLID
  5
371
330
1F
100
AcDbEntity
  8
SK2
100
AcDbTrace
 10
193.519918
 20
309.907994
 30
0.0
 11
194.137062
 21
306.407996
 31
0.0
 12
192.902773
 22
306.407991
 32
0.0
 13
192.902773
 23
306.407991
 33
0.0
  0
SOLID
  5
372
330
1F
100
AcDbEntity
  8
SK2
100
AcDbTrace
 10
193.519918
 20
267.907994
 30
0.0
 11
192.902773
 21
271.4079910000001
 31
0.0
 12
194.137062
 22
271.407996
 32
0.0
 13
194.137062
 23
271.407996
 33
0.0
  0
LINE
  5
374
330
1F
100
AcDbEntity
  8
CUT
100
AcDbLine
 10
406.606553292615
 20
306.1586309572964
 30
0.0
 11
406.9048193077227
 21
297.849462084272
 31
0.0
  0
LINE
  5
375
330
1F
100
AcDbEntity
  8
CUT
100
AcDbLine
 10
407.2754235247552
 20
297.1561161883041
 30
0.0
 11
407.3998607906599
 21
290.0309651127017
 31
0.0
  0
LINE
  5
378
330
1F
100
AcDbEntity
  8
CUT
100
AcDbLine
 10
394.6647256653424
 20
306.4972119845732
 30
0.0
 11
405.8029048644206
 21
306.9049267109345
 31
0.0
  0
LINE
  5
379
330
1F
100
AcDbEntity
  8
CUT
100
AcDbLine
 10
406.9048193077227
 20
297.849462084272
 30
0.0
 11
407.2334058386329
 21
297.3026386918773
 31
0.0
  0
LINE
  5
37A
330
1F
100
AcDbEntity
  8
CUT
100
AcDbLine
 10
407.399861
 20
290.030965
 30
0.0
 11
407.399861
 21
288.907994
 31
0.0
  0
LINE
  5
37B
330
1F
100
AcDbEntity
  8
CUT
100
AcDbLine
 10
407.399861
 20
288.907994
 30
0.0
 11
393.916608
 21
288.907994
 31
0.0
  0
LINE
  5
37C
330
1F
100
AcDbEntity
  8
CUT
100
AcDbLine
 10
393.916608
 20
288.907994
 30
0.0
 11
393.916608
 21
305.693666
 31
0.0
  0
LINE
  5
37D
330
1F
100
AcDbEntity
  8
CUT
100
AcDbLine
 10
393.9166080137983
 20
305.6936656657884
 30
0.0
 11
393.9166080137983
 21
305.6936656657884
 31
0.0
  0
ARC
  5
37E
330
1F
100
AcDbEntity
  8
CUT
100
AcDbCircle
 10
394.6984357885424
 20
305.715797799709
 30
0.0
 40
0.7821409724040202
100
AcDbArc
 50
92.47020208483862
 51
181.6215071177914
  0
LINE
  5
37F
330
1F
100
AcDbEntity
  8
CUT
100
AcDbLine
 10
405.8029048644206
 20
306.9049267109345
 30
0.0
 11
405.8029048644206
 21
306.9049267109345
 31
0.0
  0
ARC
  5
380
330
1F
100
AcDbEntity
  8
CUT
100
AcDbCircle
 10
405.8267669856865
 20
306.1247704324996
 30
0.0
 40
0.7805211205423066
100
AcDbArc
 50
2.486382699186213
 51
91.75192171959302
  0
LINE
  5
381
330
1F
100
AcDbEntity
  8
CUT
100
AcDbLine
 10
407.233405838633
 20
297.3026386918775
 30
0.0
 11
407.233405838633
 21
297.3026386918775
 31
0.0
  0
ARC
  5
382
330
1F
100
AcDbEntity
  8
CUT
100
AcDbCircle
 10
406.9810532454205
 20
297.1509866485932
 30
0.0
 40
0.2944149682562696
100
AcDbArc
 50
0.9983047031409254
 51
31.00388804908126
  0
ENDSEC
  0
SECTION
  2
OBJECTS
  0
DICTIONARY
  5
C
330
0
100
AcDbDictionary
281
     1
  3
ACAD_CIP_PREVIOUS_PRODUCT_INFO
350
345
  3
ACAD_COLOR
350
340
  3
ACAD_DETAILVIEWSTYLE
350
33C
  3
ACAD_GROUP
350
D
  3
ACAD_LAYOUT
350
1A
  3
ACAD_MATERIAL
350
43
  3
ACAD_MLEADERSTYLE
350
6B
  3
ACAD_MLINESTYLE
350
17
  3
ACAD_PLOTSETTINGS
350
19
  3
ACAD_PLOTSTYLENAME
350
E
  3
ACAD_SCALELIST
350
47
  3
ACAD_SECTIONVIEWSTYLE
350
33D
  3
ACAD_TABLESTYLE
350
69
  3
ACAD_VISUALSTYLE
350
2A
  3
ACDB_RECOMPOSE_DATA
350
3AE
  3
AcDbVariableDictionary
350
2F9
  0
DICTIONARY
  5
391
330
10
100
AcDbDictionary
280
     1
281
     1
  3
ADSK_XREC_LAYER_RECONCILED
360
392
  0
DICTIONARY
  5
393
330
383
100
AcDbDictionary
280
     1
281
     1
  3
ADSK_XREC_LAYER_RECONCILED
360
394
  0
DICTIONARY
  5
395
330
384
100
AcDbDictionary
280
     1
281
     1
  3
ADSK_XREC_LAYER_RECONCILED
360
396
  0
DICTIONARY
  5
397
330
385
100
AcDbDictionary
280
     1
281
     1
  3
ADSK_XREC_LAYER_RECONCILED
360
398
  0
DICTIONARY
  5
399
330
387
100
AcDbDictionary
280
     1
281
     1
  3
ADSK_XREC_LAYER_RECONCILED
360
39A
  0
DICTIONARY
  5
39B
330
388
100
AcDbDictionary
280
     1
281
     1
  3
ADSK_XREC_LAYER_RECONCILED
360
39C
  0
DICTIONARY
  5
39D
330
38A
100
AcDbDictionary
280
     1
281
     1
  3
ADSK_XREC_LAYER_RECONCILED
360
39E
  0
DICTIONARY
  5
39F
330
38B
100
AcDbDictionary
280
     1
281
     1
  3
ADSK_XREC_LAYER_RECONCILED
360
3A0
  0
DICTIONARY
  5
3A1
330
38C
100
AcDbDictionary
280
     1
281
     1
  3
ADSK_XREC_LAYER_RECONCILED
360
3A2
  0
DICTIONARY
  5
3A3
330
38D
100
AcDbDictionary
280
     1
281
     1
  3
ADSK_XREC_LAYER_RECONCILED
360
3A4
  0
DICTIONARY
  5
3A5
330
38E
100
AcDbDictionary
280
     1
281
     1
  3
ADSK_XREC_LAYER_RECONCILED
360
3A6
  0
DICTIONARY
  5
3A7
330
38F
100
AcDbDictionary
280
     1
281
     1
  3
ADSK_XREC_LAYER_RECONCILED
360
3A8
  0
DICTIONARY
  5
346
330
1F
100
AcDbDictionary
280
     1
281
     1
  3
ACAD_SORTENTS
360
347
  0
XRECORD
  5
345
102
{ACAD_REACTORS
330
C
102
}
330
C
100
AcDbXrecord
280
     1
300
ACD
300
2019
300
87084ACD_2019_0F
  0
DICTIONARY
  5
340
102
{ACAD_REACTORS
330
C
102
}
330
C
100
AcDbDictionary
281
     1
  0
DICTIONARY
  5
33C
102
{ACAD_REACTORS
330
C
102
}
330
C
100
AcDbDictionary
281
     1
  3
Metric50
350
342
  0
DICTIONARY
  5
D
102
{ACAD_REACTORS
330
C
102
}
330
C
100
AcDbDictionary
281
     1
  3
NULOVY_BOD
350
390
  0
DICTIONARY
  5
1A
102
{ACAD_REACTORS
330
C
102
}
330
C
100
AcDbDictionary
281
     1
  3
Layout1
350
1E
  3
Layout2
350
26
  3
Model
350
22
  0
DICTIONARY
  5
43
102
{ACAD_REACTORS
330
C
102
}
330
C
100
AcDbDictionary
281
     1
  3
ByBlock
350
45
  3
ByLayer
350
44
  3
Global
350
46
  0
DICTIONARY
  5
6B
102
{ACAD_REACTORS
330
C
102
}
330
C
100
AcDbDictionary
281
     1
  3
Standard
350
6C
  0
DICTIONARY
  5
17
102
{ACAD_REACTORS
330
C
102
}
330
C
100
AcDbDictionary
281
     1
  3
Standard
350
18
  0
DICTIONARY
  5
19
102
{ACAD_REACTORS
330
C
102
}
330
C
100
AcDbDictionary
281
     1
  0
ACDBDICTIONARYWDFLT
  5
E
102
{ACAD_REACTORS
330
C
102
}
330
C
100
AcDbDictionary
281
     1
  3
Normal
350
F
100
AcDbDictionaryWithDefault
340
F
  0
DICTIONARY
  5
47
102
{ACAD_REACTORS
330
C
102
}
330
C
100
AcDbDictionary
281
     1
  3
A0
350
48
  3
A1
350
49
  3
A2
350
4A
  3
A3
350
4B
  3
A4
350
4C
  3
A5
350
4D
  3
A6
350
4E
  3
A7
350
4F
  3
A8
350
50
  3
A9
350
51
  3
B0
350
52
  3
B1
350
53
  3
B2
350
54
  3
B3
350
55
  3
B4
350
56
  3
B5
350
57
  3
B6
350
58
  3
B7
350
59
  3
B8
350
5A
  3
B9
350
5B
  3
C0
350
5C
  3
C1
350
5D
  3
C2
350
5E
  3
C3
350
5F
  3
C4
350
60
  3
C5
350
61
  3
C6
350
62
  3
C7
350
63
  3
C8
350
64
  3
C9
350
65
  3
D0
350
66
  3
D1
350
67
  3
D2
350
68
  0
DICTIONARY
  5
33D
102
{ACAD_REACTORS
330
C
102
}
330
C
100
AcDbDictionary
281
     1
  3
Metric50
350
341
  0
DICTIONARY
  5
69
102
{ACAD_REACTORS
330
C
102
}
330
C
100
AcDbDictionary
281
     1
  3
Standard
350
6A
  0
DICTIONARY
  5
2A
102
{ACAD_REACTORS
330
C
102
}
330
C
100
AcDbDictionary
281
     1
  3
2dWireframe
350
2F
  3
Basic
350
32
  3
Brighten
350
36
  3
ColorChange
350
3A
  3
Conceptual
350
34
  3
Dim
350
35
  3
EdgeColorOff
350
3D
  3
Facepattern
350
39
  3
Flat
350
2B
  3
FlatWithEdges
350
2C
  3
Gouraud
350
2D
  3
GouraudWithEdges
350
2E
  3
Hidden
350
31
  3
JitterOff
350
3B
  3
Linepattern
350
38
  3
OverhangOff
350
3C
  3
Realistic
350
33
  3
Shaded
350
42
  3
Shaded with edges
350
41
  3
Shades of Gray
350
3E
  3
Sketchy
350
3F
  3
Thicken
350
37
  3
Wireframe
350
30
  3
X-Ray
350
40
  0
XRECORD
  5
3AE
102
{ACAD_REACTORS
330
C
102
}
330
C
100
AcDbXrecord
280
     1
 90
        1
330
6A
  0
DICTIONARY
  5
2F9
102
{ACAD_REACTORS
330
C
102
}
330
C
100
AcDbDictionary
281
     1
  3
CANNOSCALE
350
2FA
  3
CMLEADERSTYLE
350
33B
  3
CTABLESTYLE
350
33A
  3
CVIEWDETAILSTYLE
350
3A9
  3
CVIEWSECTIONSTYLE
350
3AA
  3
MSLTSCALE
350
2FB
  3
XCLIPFRAME
350
3AB
  0
XRECORD
  5
392
102
{ACAD_REACTORS
330
391
102
}
330
391
100
AcDbXrecord
280
     1
290
     1
  0
XRECORD
  5
394
102
{ACAD_REACTORS
330
393
102
}
330
393
100
AcDbXrecord
280
     1
290
     1
  0
XRECORD
  5
396
102
{ACAD_REACTORS
330
395
102
}
330
395
100
AcDbXrecord
280
     1
290
     1
  0
XRECORD
  5
398
102
{ACAD_REACTORS
330
397
102
}
330
397
100
AcDbXrecord
280
     1
290
     1
  0
XRECORD
  5
39A
102
{ACAD_REACTORS
330
399
102
}
330
399
100
AcDbXrecord
280
     1
290
     1
  0
XRECORD
  5
39C
102
{ACAD_REACTORS
330
39B
102
}
330
39B
100
AcDbXrecord
280
     1
290
     1
  0
XRECORD
  5
39E
102
{ACAD_REACTORS
330
39D
102
}
330
39D
100
AcDbXrecord
280
     1
290
     1
  0
XRECORD
  5
3A0
102
{ACAD_REACTORS
330
39F
102
}
330
39F
100
AcDbXrecord
280
     1
290
     1
  0
XRECORD
  5
3A2
102
{ACAD_REACTORS
330
3A1
102
}
330
3A1
100
AcDbXrecord
280
     1
290
     1
  0
XRECORD
  5
3A4
102
{ACAD_REACTORS
330
3A3
102
}
330
3A3
100
AcDbXrecord
280
     1
290
     1
  0
XRECORD
  5
3A6
102
{ACAD_REACTORS
330
3A5
102
}
330
3A5
100
AcDbXrecord
280
     1
290
     1
  0
XRECORD
  5
3A8
102
{ACAD_REACTORS
330
3A7
102
}
330
3A7
100
AcDbXrecord
280
     1
290
     1
  0
SORTENTSTABLE
  5
347
102
{ACAD_REACTORS
330
346
102
}
330
346
100
AcDbSortentsTable
330
1F
331
348
  5
2B3
331
349
  5
2CC
331
34A
  5
348
331
34B
  5
349
331
34C
  5
34A
331
34D
  5
34B
331
34E
  5
34C
331
34F
  5
34D
331
350
  5
34E
331
351
  5
34F
331
352
  5
350
331
353
  5
351
331
354
  5
352
331
355
  5
353
331
356
  5
354
331
357
  5
355
331
358
  5
356
331
359
  5
357
331
35A
  5
358
331
35B
  5
359
331
35C
  5
35A
331
35D
  5
35B
331
35E
  5
35C
331
35F
  5
35D
331
360
  5
35E
331
361
  5
35F
331
362
  5
360
331
363
  5
361
331
364
  5
362
331
374
  5
378
331
375
  5
379
331
378
  5
37E
331
379
  5
37F
331
37A
  5
380
331
37B
  5
381
331
37C
  5
382
331
37D
  5
374
331
37E
  5
375
331
37F
  5
37A
331
380
  5
37B
331
381
  5
37C
331
382
  5
37D
  0
ACDBDETAILVIEWSTYLE
  5
342
102
{ACAD_XDICTIONARY
360
3E2
102
}
102
{ACAD_REACTORS
330
33C
102
}
330
33C
100
AcDbModelDocViewStyle
 70
     0
  3
Metric50
290
     0
100
AcDbDetailViewStyle
 70
     0
 71
     0
 90
        3
 71
     1
340
11
 62
   256
 40
5.0
340
0
 62
   256
 40
5.0
300

 40
0.0
280
     1
 71
     2
340
16
 90
       25
 62
   256
 71
     3
340
11
 62
   256
 40
5.0
 90
        0
 40
15.0
 90
        1
300
%<\AcVar ViewDetailId>% (%<\AcVar ViewScale \f "%sn">%)
 71
     4
340
16
 90
       25
 62
   256
340
16
 90
       25
 62
   256
280
     0
  0
GROUP
  5
390
102
{ACAD_REACTORS
330
D
102
}
330
D
100
AcDbGroup
300

 70
     0
 71
     1
340
73
  0
LAYOUT
  5
1E
102
{ACAD_REACTORS
330
1A
102
}
330
1A
100
AcDbPlotSettings
  1

  2
none_device
  4

  6

 40
0.0
 41
0.0
 42
0.0
 43
0.0
 44
0.0
 45
0.0
 46
0.0
 47
0.0
 48
0.0
 49
0.0
140
0.0
141
0.0
142
1.0
143
1.0
 70
   688
 72
     0
 73
     0
 74
     5
  7

 75
    16
147
1.0
 76
     0
 77
     2
 78
   300
148
0.0
149
0.0
100
AcDbLayout
  1
Layout1
 70
     1
 71
     1
 10
-0.5
 20
-0.5
 11
5.0
 21
5.0
 12
0.0
 22
0.0
 32
0.0
 14
-0.5
 24
-0.5
 34
-0.5
 15
5.0
 25
5.0
 35
5.0
146
0.0
 13
0.0
 23
0.0
 33
0.0
 16
1.0
 26
0.0
 36
0.0
 17
0.0
 27
1.0
 37
0.0
 76
     0
330
1B
  0
LAYOUT
  5
26
102
{ACAD_REACTORS
330
1A
102
}
330
1A
100
AcDbPlotSettings
  1

  2
none_device
  4

  6

 40
0.0
 41
0.0
 42
0.0
 43
0.0
 44
0.0
 45
0.0
 46
0.0
 47
0.0
 48
0.0
 49
0.0
140
0.0
141
0.0
142
1.0
143
1.0
 70
   688
 72
     0
 73
     0
 74
     5
  7

 75
    16
147
1.0
 76
     0
 77
     2
 78
   300
148
0.0
149
0.0
100
AcDbLayout
  1
Layout2
 70
     1
 71
     2
 10
0.0
 20
0.0
 11
0.0
 21
0.0
 12
0.0
 22
0.0
 32
0.0
 14
0.0
 24
0.0
 34
0.0
 15
0.0
 25
0.0
 35
0.0
146
0.0
 13
0.0
 23
0.0
 33
0.0
 16
1.0
 26
0.0
 36
0.0
 17
0.0
 27
1.0
 37
0.0
 76
     0
330
23
  0
LAYOUT
  5
22
102
{ACAD_REACTORS
330
1A
102
}
330
1A
100
AcDbPlotSettings
  1

  2
none_device
  4
Letter_(8.50_x_11.00_Inches)
  6

 40
6.349999999999999
 41
6.349999999999999
 42
6.350005
 43
6.350005
 44
215.9
 45
279.4
 46
0.0
 47
0.0
 48
0.0
 49
0.0
140
0.0
141
0.0
142
1.0
143
1.0
 70
  1712
 72
     0
 73
     0
 74
     0
  7

 75
     0
147
1.0
 76
     0
 77
     2
 78
   300
148
0.0
149
0.0
100
AcDbLayout
  1
Model
 70
     1
 71
     0
 10
-0.5
 20
-0.5
 11
5.0
 21
5.0
 12
0.0
 22
0.0
 32
0.0
 14
-0.5
 24
-0.5
 34
-0.5
 15
5.0
 25
5.0
 35
5.0
146
0.0
 13
0.0
 23
0.0
 33
0.0
 16
1.0
 26
0.0
 36
0.0
 17
0.0
 27
1.0
 37
0.0
 76
     0
330
1F
331
29
  0
MATERIAL
  5
45
102
{ACAD_XDICTIONARY
360
32F
102
}
102
{ACAD_REACTORS
330
43
102
}
330
43
100
AcDbMaterial
  1
ByBlock
  0
MATERIAL
  5
44
102
{ACAD_XDICTIONARY
360
32D
102
}
102
{ACAD_REACTORS
330
43
102
}
330
43
100
AcDbMaterial
  1
ByLayer
  0
MATERIAL
  5
46
102
{ACAD_XDICTIONARY
360
331
102
}
102
{ACAD_REACTORS
330
43
102
}
330
43
100
AcDbMaterial
  1
Global
  0
MLEADERSTYLE
  5
6C
102
{ACAD_REACTORS
330
6B
102
}
330
6B
100
AcDbMLeaderStyle
170
     2
171
     1
172
     0
 90
        2
 40
0.0
 41
0.0
173
     1
 91
-1056964608
340
14
 92
       -2
290
     1
 42
0.09
291
     1
 43
0.36
  3
Standard
 44
0.18
300

342
11
174
     1
178
     6
175
     1
176
     0
 93
-1056964608
 45
0.18
292
     0
297
     0
 46
0.18
 94
-1056964608
 47
1.0
 49
1.0
140
1.0
293
     1
141
0.0
294
     1
177
     0
142
1.0
295
     0
296
     0
143
0.125
1001
ACAD_MLEADERVER
1070
     2
  0
MLINESTYLE
  5
18
102
{ACAD_REACTORS
330
17
102
}
330
17
100
AcDbMlineStyle
  2
STANDARD
 70
     0
  3

 62
   256
 51
90.0
 52
90.0
 71
     2
 49
0.5
 62
   256
  6
BYLAYER
 49
-0.5
 62
   256
  6
BYLAYER
  0
ACDBPLACEHOLDER
  5
F
102
{ACAD_REACTORS
330
E
102
}
330
E
  0
SCALE
  5
48
102
{ACAD_REACTORS
330
47
102
}
330
47
100
AcDbScale
 70
     0
300
1:1
140
1.0
141
1.0
290
     1
  0
SCALE
  5
49
102
{ACAD_REACTORS
330
47
102
}
330
47
100
AcDbScale
 70
     0
300
1:2
140
1.0
141
2.0
290
     0
  0
SCALE
  5
4A
102
{ACAD_REACTORS
330
47
102
}
330
47
100
AcDbScale
 70
     0
300
1:4
140
1.0
141
4.0
290
     0
  0
SCALE
  5
4B
102
{ACAD_REACTORS
330
47
102
}
330
47
100
AcDbScale
 70
     0
300
1:5
140
1.0
141
5.0
290
     0
  0
SCALE
  5
4C
102
{ACAD_REACTORS
330
47
102
}
330
47
100
AcDbScale
 70
     0
300
1:8
140
1.0
141
8.0
290
     0
  0
SCALE
  5
4D
102
{ACAD_REACTORS
330
47
102
}
330
47
100
AcDbScale
 70
     0
300
1:10
140
1.0
141
10.0
290
     0
  0
SCALE
  5
4E
102
{ACAD_REACTORS
330
47
102
}
330
47
100
AcDbScale
 70
     0
300
1:16
140
1.0
141
16.0
290
     0
  0
SCALE
  5
4F
102
{ACAD_REACTORS
330
47
102
}
330
47
100
AcDbScale
 70
     0
300
1:20
140
1.0
141
20.0
290
     0
  0
SCALE
  5
50
102
{ACAD_REACTORS
330
47
102
}
330
47
100
AcDbScale
 70
     0
300
1:30
140
1.0
141
30.0
290
     0
  0
SCALE
  5
51
102
{ACAD_REACTORS
330
47
102
}
330
47
100
AcDbScale
 70
     0
300
1:40
140
1.0
141
40.0
290
     0
  0
SCALE
  5
52
102
{ACAD_REACTORS
330
47
102
}
330
47
100
AcDbScale
 70
     0
300
1:50
140
1.0
141
50.0
290
     0
  0
SCALE
  5
53
102
{ACAD_REACTORS
330
47
102
}
330
47
100
AcDbScale
 70
     0
300
1:100
140
1.0
141
100.0
290
     0
  0
SCALE
  5
54
102
{ACAD_REACTORS
330
47
102
}
330
47
100
AcDbScale
 70
     0
300
2:1
140
2.0
141
1.0
290
     0
  0
SCALE
  5
55
102
{ACAD_REACTORS
330
47
102
}
330
47
100
AcDbScale
 70
     0
300
4:1
140
4.0
141
1.0
290
     0
  0
SCALE
  5
56
102
{ACAD_REACTORS
330
47
102
}
330
47
100
AcDbScale
 70
     0
300
8:1
140
8.0
141
1.0
290
     0
  0
SCALE
  5
57
102
{ACAD_REACTORS
330
47
102
}
330
47
100
AcDbScale
 70
     0
300
10:1
140
10.0
141
1.0
290
     0
  0
SCALE
  5
58
102
{ACAD_REACTORS
330
47
102
}
330
47
100
AcDbScale
 70
     0
300
100:1
140
100.0
141
1.0
290
     0
  0
SCALE
  5
59
102
{ACAD_REACTORS
330
47
102
}
330
47
100
AcDbScale
 70
     0
300
1/128" = 1'-0"
140
0.007812
141
12.0
290
     0
  0
SCALE
  5
5A
102
{ACAD_REACTORS
330
47
102
}
330
47
100
AcDbScale
 70
     0
300
1/64" = 1'-0"
140
0.015625
141
12.0
290
     0
  0
SCALE
  5
5B
102
{ACAD_REACTORS
330
47
102
}
330
47
100
AcDbScale
 70
     0
300
1/32" = 1'-0"
140
0.03125
141
12.0
290
     0
  0
SCALE
  5
5C
102
{ACAD_REACTORS
330
47
102
}
330
47
100
AcDbScale
 70
     0
300
1/16" = 1'-0"
140
0.0625
141
12.0
290
     0
  0
SCALE
  5
5D
102
{ACAD_REACTORS
330
47
102
}
330
47
100
AcDbScale
 70
     0
300
3/32" = 1'-0"
140
0.09375
141
12.0
290
     0
  0
SCALE
  5
5E
102
{ACAD_REACTORS
330
47
102
}
330
47
100
AcDbScale
 70
     0
300
1/8" = 1'-0"
140
0.125
141
12.0
290
     0
  0
SCALE
  5
5F
102
{ACAD_REACTORS
330
47
102
}
330
47
100
AcDbScale
 70
     0
300
3/16" = 1'-0"
140
0.1875
141
12.0
290
     0
  0
SCALE
  5
60
102
{ACAD_REACTORS
330
47
102
}
330
47
100
AcDbScale
 70
     0
300
1/4" = 1'-0"
140
0.25
141
12.0
290
     0
  0
SCALE
  5
61
102
{ACAD_REACTORS
330
47
102
}
330
47
100
AcDbScale
 70
     0
300
3/8" = 1'-0"
140
0.375
141
12.0
290
     0
  0
SCALE
  5
62
102
{ACAD_REACTORS
330
47
102
}
330
47
100
AcDbScale
 70
     0
300
1/2" = 1'-0"
140
0.5
141
12.0
290
     0
  0
SCALE
  5
63
102
{ACAD_REACTORS
330
47
102
}
330
47
100
AcDbScale
 70
     0
300
3/4" = 1'-0"
140
0.75
141
12.0
290
     0
  0
SCALE
  5
64
102
{ACAD_REACTORS
330
47
102
}
330
47
100
AcDbScale
 70
     0
300
1" = 1'-0"
140
1.0
141
12.0
290
     0
  0
SCALE
  5
65
102
{ACAD_REACTORS
330
47
102
}
330
47
100
AcDbScale
 70
     0
300
1-1/2" = 1'-0"
140
1.5
141
12.0
290
     0
  0
SCALE
  5
66
102
{ACAD_REACTORS
330
47
102
}
330
47
100
AcDbScale
 70
     0
300
3" = 1'-0"
140
3.0
141
12.0
290
     0
  0
SCALE
  5
67
102
{ACAD_REACTORS
330
47
102
}
330
47
100
AcDbScale
 70
     0
300
6" = 1'-0"
140
6.0
141
12.0
290
     0
  0
SCALE
  5
68
102
{ACAD_REACTORS
330
47
102
}
330
47
100
AcDbScale
 70
     0
300
1'-0" = 1'-0"
140
12.0
141
12.0
290
     0
  0
ACDBSECTIONVIEWSTYLE
  5
341
102
{ACAD_XDICTIONARY
360
3E0
102
}
102
{ACAD_REACTORS
330
33D
102
}
330
33D
100
AcDbModelDocViewStyle
 70
     0
  3
Metric50
290
     0
100
AcDbSectionViewStyle
 70
     0
 71
     0
 90
      102
 71
     1
340
11
 62
   256
 40
5.0
340
0
340
0
 62
   256
 40
5.0
300
I, O, Q, S, X, Z
 40
10.0
 90
        0
 40
2.5
 90
        0
 71
     2
340
16
 90
       25
 62
   256
340
16
 90
       50
 62
   256
 40
5.0
 40
2.5
 40
5.0
 71
     3
340
11
 62
   256
 40
5.0
 90
        0
 40
15.0
 90
        1
300
%<\AcVar ViewSectionStartId>%-%<\AcVar ViewSectionEndId>% (%<\AcVar ViewScale \f "%sn">%)
 71
     4
 62
   256
 62
   257
300
ANSI31
 40
1.0
 90
        0
290
     0
290
     0
 90
        6
 40
0.0
 40
1.570796326794896
 40
0.2617993877991494
 40
1.308996938995747
 40
-0.2617993877991494
 40
1.832595714594046
  0
TABLESTYLE
  5
6A
102
{ACAD_XDICTIONARY
360
333
102
}
102
{ACAD_REACTORS
330
69
102
}
330
69
100
AcDbTableStyle
  3
Standard
 70
     0
 71
     0
 40
0.06
 41
0.06
280
     0
281
     0
  7
Standard
140
0.18
170
     2
 62
     0
 63
     7
283
     0
274
    -2
284
     1
 64
     0
275
    -2
285
     1
 65
     0
276
    -2
286
     1
 66
     0
277
    -2
287
     1
 67
     0
278
    -2
288
     1
 68
     0
279
    -2
289
     1
 69
     0
  7
Standard
140
0.25
170
     5
 62
     0
 63
     7
283
     0
274
    -2
284
     1
 64
     0
275
    -2
285
     1
 65
     0
276
    -2
286
     1
 66
     0
277
    -2
287
     1
 67
     0
278
    -2
288
     1
 68
     0
279
    -2
289
     1
 69
     0
  7
Standard
140
0.18
170
     5
 62
     0
 63
     7
283
     0
274
    -2
284
     1
 64
     0
275
    -2
285
     1
 65
     0
276
    -2
286
     1
 66
     0
277
    -2
287
     1
 67
     0
278
    -2
288
     1
 68
     0
279
    -2
289
     1
 69
     0
  0
VISUALSTYLE
  5
2F
102
{ACAD_XDICTIONARY
360
3B7
102
}
102
{ACAD_REACTORS
330
2A
102
}
330
2A
100
AcDbVisualStyle
  2

 70
     4
 71
     0
 72
     2
 73
     0
 90
        0
 40
-0.6
 41
-30.0
 62
     5
 63
     7
421
 16777215
 74
     1
 91
        4
 64
     7
 65
   257
 75
     1
175
     1
 42
1.0
 92
        0
 66
   257
 43
1.0
 76
     1
 77
     6
 78
     2
 67
     7
 79
     5
170
     0
171
     0
290
     0
174
     0
 93
        1
 44
0.0
173
     0
291
     0
 45
0.0
1001
ACAD
1000
AcDbSavedByObjectVersion
1070
     0
  0
VISUALSTYLE
  5
32
102
{ACAD_XDICTIONARY
360
3BD
102
}
102
{ACAD_REACTORS
330
2A
102
}
330
2A
100
AcDbVisualStyle
  2

 70
     7
 71
     1
 72
     0
 73
     1
 90
        0
 40
-0.6
 41
-30.0
 62
     5
 63
     7
421
 16777215
 74
     0
 91
        4
 64
     7
 65
   257
 75
     1
175
     1
 42
1.0
 92
        8
 66
     7
 43
1.0
 76
     1
 77
     6
 78
     2
 67
     7
 79
     5
170
     0
171
     0
290
     0
174
     0
 93
        1
 44
0.0
173
     0
291
     1
 45
0.0
1001
ACAD
1000
AcDbSavedByObjectVersion
1070
     0
  0
VISUALSTYLE
  5
36
102
{ACAD_XDICTIONARY
360
3C5
102
}
102
{ACAD_REACTORS
330
2A
102
}
330
2A
100
AcDbVisualStyle
  2

 70
    12
 71
     2
 72
     2
 73
     0
 90
        0
 40
-0.6
 41
-30.0
 62
     5
 63
     7
421
 16777215
 74
     1
 91
        4
 64
     7
 65
   257
 75
     1
175
     1
 42
1.0
 92
        8
 66
     7
 43
1.0
 76
     1
 77
     6
 78
     2
 67
     7
 79
     5
170
     0
171
     0
290
     0
174
     0
 93
        1
 44
50.0
173
     0
291
     1
 45
0.0
1001
ACAD
1000
AcDbSavedByObjectVersion
1070
     0
  0
VISUALSTYLE
  5
3A
102
{ACAD_XDICTIONARY
360
3CD
102
}
102
{ACAD_REACTORS
330
2A
102
}
330
2A
100
AcDbVisualStyle
  2

 70
    16
 71
     2
 72
     2
 73
     3
 90
        0
 40
-0.6
 41
-30.0
 62
     5
 63
     8
421
  8421504
 74
     1
 91
        4
 64
     7
 65
   257
 75
     1
175
     1
 42
1.0
 92
        8
 66
     8
424
  8421504
 43
1.0
 76
     1
 77
     6
 78
     2
 67
     7
 79
     5
170
     0
171
     0
290
     0
174
     0
 93
        1
 44
0.0
173
     0
291
     1
 45
0.0
1001
ACAD
1000
AcDbSavedByObjectVersion
1070
     0
  0
VISUALSTYLE
  5
34
102
{ACAD_XDICTIONARY
360
3C1
102
}
102
{ACAD_REACTORS
330
2A
102
}
330
2A
100
AcDbVisualStyle
  2

 70
     9
 71
     3
 72
     2
 73
     0
 90
        0
 40
-0.6
 41
-30.0
 62
     5
 63
     7
421
 16777215
 74
     2
 91
        2
 64
     7
 65
   257
 75
     1
175
     1
 42
179.0
 92
        8
 66
     7
 43
1.0
 76
     1
 77
     6
 78
     2
 67
     7
 79
     3
170
     0
171
     0
290
     0
174
     0
 93
        1
 44
0.0
173
     0
291
     0
 45
0.0
1001
ACAD
1000
AcDbSavedByObjectVersion
1070
     0
  0
VISUALSTYLE
  5
35
102
{ACAD_XDICTIONARY
360
3C3
102
}
102
{ACAD_REACTORS
330
2A
102
}
330
2A
100
AcDbVisualStyle
  2

 70
    11
 71
     2
 72
     2
 73
     0
 90
        0
 40
-0.6
 41
-30.0
 62
     5
 63
     7
421
 16777215
 74
     1
 91
        4
 64
     7
 65
   257
 75
     1
175
     1
 42
1.0
 92
        8
 66
     7
 43
1.0
 76
     1
 77
     6
 78
     2
 67
     7
 79
     5
170
     0
171
     0
290
     0
174
     0
 93
        1
 44
-50.0
173
     0
291
     1
 45
0.0
1001
ACAD
1000
AcDbSavedByObjectVersion
1070
     0
  0
VISUALSTYLE
  5
3D
102
{ACAD_XDICTIONARY
360
3D3
102
}
102
{ACAD_REACTORS
330
2A
102
}
330
2A
100
AcDbVisualStyle
  2

 70
    22
 71
     2
 72
     2
 73
     0
 90
        0
 40
-0.6
 41
-30.0
 62
     5
 63
     7
421
 16777215
 74
     1
 91
        4
 64
     7
 65
   257
 75
     1
175
     1
 42
1.0
 92
        8
 66
     7
 43
1.0
 76
     1
 77
     6
 78
     2
 67
     7
 79
     5
170
     0
171
     0
290
     0
174
     0
 93
        1
 44
0.0
173
     0
291
     1
 45
0.0
1001
ACAD
1000
AcDbSavedByObjectVersion
1070
     0
  0
VISUALSTYLE
  5
39
102
{ACAD_XDICTIONARY
360
3CB
102
}
102
{ACAD_REACTORS
330
2A
102
}
330
2A
100
AcDbVisualStyle
  2

 70
    15
 71
     2
 72
     2
 73
     0
 90
        0
 40
-0.6
 41
-30.0
 62
     5
 63
     7
421
 16777215
 74
     1
 91
        4
 64
     7
 65
   257
 75
     1
175
     1
 42
1.0
 92
        8
 66
     7
 43
1.0
 76
     1
 77
     6
 78
     2
 67
     7
 79
     5
170
     0
171
     0
290
     0
174
     0
 93
        1
 44
0.0
173
     0
291
     1
 45
0.0
1001
ACAD
1000
AcDbSavedByObjectVersion
1070
     0
  0
VISUALSTYLE
  5
2B
102
{ACAD_XDICTIONARY
360
3AF
102
}
102
{ACAD_REACTORS
330
2A
102
}
330
2A
100
AcDbVisualStyle
  2

 70
     0
 71
     2
 72
     1
 73
     1
 90
        2
 40
-0.6
 41
30.0
 62
     5
 63
     7
421
 16777215
 74
     0
 91
        0
 64
     7
 65
   257
 75
     1
175
     1
 42
1.0
 92
        8
 66
     7
 43
1.0
 76
     1
 77
     6
 78
     2
 67
     7
 79
     5
170
     0
171
     0
290
     0
174
     0
 93
       13
 44
0.0
173
     0
291
     1
 45
0.0
1001
ACAD
1000
AcDbSavedByObjectVersion
1070
     0
  0
VISUALSTYLE
  5
2C
102
{ACAD_XDICTIONARY
360
3B1
102
}
102
{ACAD_REACTORS
330
2A
102
}
330
2A
100
AcDbVisualStyle
  2

 70
     1
 71
     2
 72
     1
 73
     1
 90
        2
 40
-0.6
 41
30.0
 62
     5
 63
     7
421
 16777215
 74
     1
 91
        0
 64
     7
 65
   257
 75
     1
175
     1
 42
1.0
 92
        0
 66
   257
 43
1.0
 76
     1
 77
     6
 78
     2
 67
     7
 79
     5
170
     0
171
     0
290
     0
174
     0
 93
       13
 44
0.0
173
     0
291
     1
 45
0.0
1001
ACAD
1000
AcDbSavedByObjectVersion
1070
     0
  0
VISUALSTYLE
  5
2D
102
{ACAD_XDICTIONARY
360
3B3
102
}
102
{ACAD_REACTORS
330
2A
102
}
330
2A
100
AcDbVisualStyle
  2

 70
     2
 71
     2
 72
     2
 73
     1
 90
        2
 40
-0.6
 41
30.0
 62
     5
 63
     7
421
 16777215
 74
     0
 91
        0
 64
     7
 65
   257
 75
     1
175
     1
 42
1.0
 92
        0
 66
     7
 43
1.0
 76
     1
 77
     6
 78
     2
 67
     7
 79
     5
170
     0
171
     0
290
     0
174
     0
 93
       13
 44
0.0
173
     0
291
     1
 45
0.0
1001
ACAD
1000
AcDbSavedByObjectVersion
1070
     0
  0
VISUALSTYLE
  5
2E
102
{ACAD_XDICTIONARY
360
3B5
102
}
102
{ACAD_REACTORS
330
2A
102
}
330
2A
100
AcDbVisualStyle
  2

 70
     3
 71
     2
 72
     2
 73
     1
 90
        2
 40
-0.6
 41
30.0
 62
     5
 63
     7
421
 16777215
 74
     1
 91
        0
 64
     7
 65
   257
 75
     1
175
     1
 42
1.0
 92
        0
 66
   257
 43
1.0
 76
     1
 77
     6
 78
     2
 67
     7
 79
     5
170
     0
171
     0
290
     0
174
     0
 93
       13
 44
0.0
173
     0
291
     1
 45
0.0
1001
ACAD
1000
AcDbSavedByObjectVersion
1070
     0
  0
VISUALSTYLE
  5
31
102
{ACAD_XDICTIONARY
360
3BB
102
}
102
{ACAD_REACTORS
330
2A
102
}
330
2A
100
AcDbVisualStyle
  2

 70
     6
 71
     1
 72
     2
 73
     2
 90
        0
 40
-0.6
 41
-30.0
 62
     5
 63
     7
421
 16777215
 74
     2
 91
        2
 64
     7
 65
   257
 75
     2
175
     1
 42
40.0
 92
        0
 66
   257
 43
1.0
 76
     1
 77
     6
 78
     2
 67
     7
 79
     3
170
     0
171
     0
290
     0
174
     0
 93
        1
 44
0.0
173
     0
291
     0
 45
0.0
1001
ACAD
1000
AcDbSavedByObjectVersion
1070
     0
  0
VISUALSTYLE
  5
3B
102
{ACAD_XDICTIONARY
360
3CF
102
}
102
{ACAD_REACTORS
330
2A
102
}
330
2A
100
AcDbVisualStyle
  2

 70
    20
 71
     2
 72
     2
 73
     0
 90
        0
 40
-0.6
 41
-30.0
 62
     5
 63
     7
421
 16777215
 74
     1
 91
        4
 64
     7
 65
   257
 75
     1
175
     1
 42
1.0
 92
       10
 66
     7
 43
1.0
 76
     1
 77
     6
 78
     2
 67
     7
 79
     5
170
     0
171
     0
290
     0
174
     0
 93
        1
 44
0.0
173
     0
291
     1
 45
0.0
1001
ACAD
1000
AcDbSavedByObjectVersion
1070
     0
  0
VISUALSTYLE
  5
38
102
{ACAD_XDICTIONARY
360
3C9
102
}
102
{ACAD_REACTORS
330
2A
102
}
330
2A
100
AcDbVisualStyle
  2

 70
    14
 71
     2
 72
     2
 73
     0
 90
        0
 40
-0.6
 41
-30.0
 62
     5
 63
     7
421
 16777215
 74
     1
 91
        4
 64
     7
 65
   257
 75
     7
175
     7
 42
1.0
 92
        8
 66
     7
 43
1.0
 76
     1
 77
     6
 78
     2
 67
     7
 79
     5
170
     0
171
     0
290
     0
174
     0
 93
        1
 44
0.0
173
     0
291
     1
 45
0.0
1001
ACAD
1000
AcDbSavedByObjectVersion
1070
     0
  0
VISUALSTYLE
  5
3C
102
{ACAD_XDICTIONARY
360
3D1
102
}
102
{ACAD_REACTORS
330
2A
102
}
330
2A
100
AcDbVisualStyle
  2

 70
    21
 71
     2
 72
     2
 73
     0
 90
        0
 40
-0.6
 41
-30.0
 62
     5
 63
     7
421
 16777215
 74
     1
 91
        4
 64
     7
 65
   257
 75
     1
175
     1
 42
1.0
 92
        9
 66
     7
 43
1.0
 76
     1
 77
     6
 78
     2
 67
     7
 79
     5
170
     0
171
     0
290
     0
174
     0
 93
        1
 44
0.0
173
     0
291
     1
 45
0.0
1001
ACAD
1000
AcDbSavedByObjectVersion
1070
     0
  0
VISUALSTYLE
  5
33
102
{ACAD_XDICTIONARY
360
3BF
102
}
102
{ACAD_REACTORS
330
2A
102
}
330
2A
100
AcDbVisualStyle
  2

 70
     8
 71
     2
 72
     3
 73
     0
 90
        2
 40
-0.6
 41
30.0
 62
     5
 63
     7
421
 16777215
 74
     0
 91
        0
 64
     7
 65
   257
 75
     1
175
     1
 42
1.0
 92
        8
 66
   257
 43
1.0
 76
     1
 77
     6
 78
     2
 67
     7
 79
     3
170
     0
171
     0
290
     0
174
     0
 93
       13
 44
0.0
173
     0
291
     0
 45
0.0
1001
ACAD
1000
AcDbSavedByObjectVersion
1070
     0
  0
VISUALSTYLE
  5
42
102
{ACAD_XDICTIONARY
360
3DD
102
}
102
{ACAD_REACTORS
330
2A
102
}
330
2A
100
AcDbVisualStyle
  2

 70
    27
 71
     2
 72
     2
 73
     1
 90
        2
 40
-0.6
 41
30.0
 62
     5
 63
     7
421
 16777215
 74
     0
 91
        4
 64
     7
 65
   257
 75
     1
175
     1
 42
1.0
 92
        8
 66
   257
 43
1.0
 76
     1
 77
     6
 78
     2
 67
     8
425
  7895160
 79
     3
170
     0
171
     0
290
     0
174
     0
 93
        5
 44
0.0
173
     0
291
     0
 45
0.0
1001
ACAD
1000
AcDbSavedByObjectVersion
1070
     0
  0
VISUALSTYLE
  5
41
102
{ACAD_XDICTIONARY
360
3DB
102
}
102
{ACAD_REACTORS
330
2A
102
}
330
2A
100
AcDbVisualStyle
  2

 70
    26
 71
     2
 72
     2
 73
     1
 90
        2
 40
-0.6
 41
30.0
 62
     5
 63
     7
421
 16777215
 74
     1
 91
       10
 64
     7
 65
   257
 75
     2
175
     1
 42
1.0
 92
        8
 66
   257
 43
1.0
 76
     1
 77
     6
 78
     2
 67
     7
 79
     3
170
     0
171
     0
290
     0
174
     0
 93
        5
 44
0.0
173
     0
291
     0
 45
0.0
1001
ACAD
1000
AcDbSavedByObjectVersion
1070
     0
  0
VISUALSTYLE
  5
3E
102
{ACAD_XDICTIONARY
360
3D5
102
}
102
{ACAD_REACTORS
330
2A
102
}
330
2A
100
AcDbVisualStyle
  2

 70
    23
 71
     2
 72
     2
 73
     3
 90
        0
 40
-0.6
 41
-30.0
 62
     5
 63
     7
421
 16777215
 74
     2
 91
        2
 64
     7
 65
     7
 75
     1
175
     1
 42
40.0
 92
        8
 66
     7
 43
1.0
 76
     1
 77
     6
 78
     2
 67
     7
 79
     3
170
     0
171
     0
290
     0
174
     0
 93
        1
 44
0.0
173
     0
291
     0
 45
0.0
1001
ACAD
1000
AcDbSavedByObjectVersion
1070
     0
  0
VISUALSTYLE
  5
3F
102
{ACAD_XDICTIONARY
360
3D7
102
}
102
{ACAD_REACTORS
330
2A
102
}
330
2A
100
AcDbVisualStyle
  2

 70
    24
 71
     1
 72
     2
 73
     2
 90
        0
 40
-0.6
 41
-30.0
 62
     5
 63
     7
421
 16777215
 74
     2
 91
        2
 64
     7
 65
     7
 75
     1
175
     1
 42
40.0
 92
       11
 66
     7
 43
1.0
 76
     1
 77
     6
 78
     2
 67
     7
 79
     6
170
     0
171
     0
290
     0
174
     0
 93
        1
 44
0.0
173
     0
291
     0
 45
0.0
1001
ACAD
1000
AcDbSavedByObjectVersion
1070
     0
  0
VISUALSTYLE
  5
37
102
{ACAD_XDICTIONARY
360
3C7
102
}
102
{ACAD_REACTORS
330
2A
102
}
330
2A
100
AcDbVisualStyle
  2

 70
    13
 71
     2
 72
     2
 73
     0
 90
        0
 40
-0.6
 41
-30.0
 62
     5
 63
     7
421
 16777215
 74
     1
 91
        4
 64
     7
 65
   257
 75
     1
175
     1
 42
1.0
 92
       12
 66
     7
 43
1.0
 76
     1
 77
     6
 78
     2
 67
     7
 79
     5
170
     0
171
     0
290
     0
174
     0
 93
        1
 44
0.0
173
     0
291
     1
 45
0.0
1001
ACAD
1000
AcDbSavedByObjectVersion
1070
     0
  0
VISUALSTYLE
  5
30
102
{ACAD_XDICTIONARY
360
3B9
102
}
102
{ACAD_REACTORS
330
2A
102
}
330
2A
100
AcDbVisualStyle
  2

 70
     5
 71
     0
 72
     2
 73
     0
 90
        0
 40
-0.6
 41
-30.0
 62
     5
 63
     7
421
 16777215
 74
     1
 91
        4
 64
     7
 65
   257
 75
     1
175
     1
 42
1.0
 92
        0
 66
   257
 43
1.0
 76
     1
 77
     6
 78
     2
 67
     7
 79
     3
170
     0
171
     0
290
     0
174
     0
 93
        1
 44
0.0
173
     0
291
     0
 45
0.0
1001
ACAD
1000
AcDbSavedByObjectVersion
1070
     0
  0
VISUALSTYLE
  5
40
102
{ACAD_XDICTIONARY
360
3D9
102
}
102
{ACAD_REACTORS
330
2A
102
}
330
2A
100
AcDbVisualStyle
  2

 70
    25
 71
     2
 72
     2
 73
     1
 90
        1
 40
0.5
 41
-30.0
 62
     5
 63
     7
421
 16777215
 74
     1
 91
        0
 64
     7
 65
   257
 75
     1
175
     1
 42
1.0
 92
        8
 66
     7
 43
1.0
 76
     1
 77
     6
 78
     2
 67
     7
 79
     3
170
     0
171
     0
290
     0
174
     0
 93
       13
 44
0.0
173
     0
291
     0
 45
0.0
1001
ACAD
1000
AcDbSavedByObjectVersion
1070
     0
  0
DICTIONARYVAR
  5
2FA
102
{ACAD_REACTORS
330
2F9
102
}
330
2F9
100
DictionaryVariables
280
     0
  1
1:1
  0
DICTIONARYVAR
  5
33B
102
{ACAD_REACTORS
330
2F9
102
}
330
2F9
100
DictionaryVariables
280
     0
  1
STANDARD
  0
DICTIONARYVAR
  5
33A
102
{ACAD_REACTORS
330
2F9
102
}
330
2F9
100
DictionaryVariables
280
     0
  1
STANDARD
  0
DICTIONARYVAR
  5
3A9
102
{ACAD_REACTORS
330
2F9
102
}
330
2F9
100
DictionaryVariables
280
     0
  1
Metric50
  0
DICTIONARYVAR
  5
3AA
102
{ACAD_REACTORS
330
2F9
102
}
330
2F9
100
DictionaryVariables
280
     0
  1
Metric50
  0
DICTIONARYVAR
  5
2FB
102
{ACAD_REACTORS
330
2F9
102
}
330
2F9
100
DictionaryVariables
280
     0
  1
1
  0
DICTIONARYVAR
  5
3AB
102
{ACAD_REACTORS
330
2F9
102
}
330
2F9
100
DictionaryVariables
280
     0
  1
2
  0
DICTIONARY
  5
3E2
330
342
100
AcDbDictionary
280
     1
281
     1
  3
ACAD_XREC_ROUNDTRIP
360
3E3
  0
DICTIONARY
  5
32F
330
45
100
AcDbDictionary
280
     1
281
     1
  3
ACAD_XREC_ROUNDTRIP
360
330
  0
DICTIONARY
  5
32D
330
44
100
AcDbDictionary
280
     1
281
     1
  3
ACAD_XREC_ROUNDTRIP
360
32E
  0
DICTIONARY
  5
331
330
46
100
AcDbDictionary
280
     1
281
     1
  3
ACAD_XREC_ROUNDTRIP
360
332
  0
DICTIONARY
  5
3E0
330
341
100
AcDbDictionary
280
     1
281
     1
  3
ACAD_XREC_ROUNDTRIP
360
3E1
  0
DICTIONARY
  5
333
330
6A
100
AcDbDictionary
280
     1
281
     1
  3
ACAD_ROUNDTRIP_2008_TABLESTYLE_CELLSTYLEMAP
360
3AD
  3
ACAD_XREC_ROUNDTRIP
360
3DF
  0
DICTIONARY
  5
3B7
330
2F
100
AcDbDictionary
280
     1
281
     1
  3
ACAD_XREC_ROUNDTRIP
360
3B8
  0
DICTIONARY
  5
3BD
330
32
100
AcDbDictionary
280
     1
281
     1
  3
ACAD_XREC_ROUNDTRIP
360
3BE
  0
DICTIONARY
  5
3C5
330
36
100
AcDbDictionary
280
     1
281
     1
  3
ACAD_XREC_ROUNDTRIP
360
3C6
  0
DICTIONARY
  5
3CD
330
3A
100
AcDbDictionary
280
     1
281
     1
  3
ACAD_XREC_ROUNDTRIP
360
3CE
  0
DICTIONARY
  5
3C1
330
34
100
AcDbDictionary
280
     1
281
     1
  3
ACAD_XREC_ROUNDTRIP
360
3C2
  0
DICTIONARY
  5
3C3
330
35
100
AcDbDictionary
280
     1
281
     1
  3
ACAD_XREC_ROUNDTRIP
360
3C4
  0
DICTIONARY
  5
3D3
330
3D
100
AcDbDictionary
280
     1
281
     1
  3
ACAD_XREC_ROUNDTRIP
360
3D4
  0
DICTIONARY
  5
3CB
330
39
100
AcDbDictionary
280
     1
281
     1
  3
ACAD_XREC_ROUNDTRIP
360
3CC
  0
DICTIONARY
  5
3AF
330
2B
100
AcDbDictionary
280
     1
281
     1
  3
ACAD_XREC_ROUNDTRIP
360
3B0
  0
DICTIONARY
  5
3B1
330
2C
100
AcDbDictionary
280
     1
281
     1
  3
ACAD_XREC_ROUNDTRIP
360
3B2
  0
DICTIONARY
  5
3B3
330
2D
100
AcDbDictionary
280
     1
281
     1
  3
ACAD_XREC_ROUNDTRIP
360
3B4
  0
DICTIONARY
  5
3B5
330
2E
100
AcDbDictionary
280
     1
281
     1
  3
ACAD_XREC_ROUNDTRIP
360
3B6
  0
DICTIONARY
  5
3BB
330
31
100
AcDbDictionary
280
     1
281
     1
  3
ACAD_XREC_ROUNDTRIP
360
3BC
  0
DICTIONARY
  5
3CF
330
3B
100
AcDbDictionary
280
     1
281
     1
  3
ACAD_XREC_ROUNDTRIP
360
3D0
  0
DICTIONARY
  5
3C9
330
38
100
AcDbDictionary
280
     1
281
     1
  3
ACAD_XREC_ROUNDTRIP
360
3CA
  0
DICTIONARY
  5
3D1
330
3C
100
AcDbDictionary
280
     1
281
     1
  3
ACAD_XREC_ROUNDTRIP
360
3D2
  0
DICTIONARY
  5
3BF
330
33
100
AcDbDictionary
280
     1
281
     1
  3
ACAD_XREC_ROUNDTRIP
360
3C0
  0
DICTIONARY
  5
3DD
330
42
100
AcDbDictionary
280
     1
281
     1
  3
ACAD_XREC_ROUNDTRIP
360
3DE
  0
DICTIONARY
  5
3DB
330
41
100
AcDbDictionary
280
     1
281
     1
  3
ACAD_XREC_ROUNDTRIP
360
3DC
  0
DICTIONARY
  5
3D5
330
3E
100
AcDbDictionary
280
     1
281
     1
  3
ACAD_XREC_ROUNDTRIP
360
3D6
  0
DICTIONARY
  5
3D7
330
3F
100
AcDbDictionary
280
     1
281
     1
  3
ACAD_XREC_ROUNDTRIP
360
3D8
  0
DICTIONARY
  5
3C7
330
37
100
AcDbDictionary
280
     1
281
     1
  3
ACAD_XREC_ROUNDTRIP
360
3C8
  0
DICTIONARY
  5
3B9
330
30
100
AcDbDictionary
280
     1
281
     1
  3
ACAD_XREC_ROUNDTRIP
360
3BA
  0
DICTIONARY
  5
3D9
330
40
100
AcDbDictionary
280
     1
281
     1
  3
ACAD_XREC_ROUNDTRIP
360
3DA
  0
XRECORD
  5
3E3
102
{ACAD_REACTORS
330
3E2
102
}
330
3E2
100
AcDbXrecord
280
     1
102
DISPLAYNAME
  1
Metric50
102
FLAGS
 90
        0
  0
XRECORD
  5
330
102
{ACAD_REACTORS
330
32F
102
}
330
32F
100
AcDbXrecord
280
     1
102
MATERIAL
148
0.0
149
0.0
149
0.0
 93
        0
 94
      127
282
     0
 72
     1
 77
     1
171
     1
175
     1
179
     1
273
     0
  0
XRECORD
  5
32E
102
{ACAD_REACTORS
330
32D
102
}
330
32D
100
AcDbXrecord
280
     1
102
MATERIAL
148
0.0
149
0.0
149
0.0
 93
        0
 94
      127
282
     0
 72
     1
 77
     1
171
     1
175
     1
179
     1
273
     0
  0
XRECORD
  5
332
102
{ACAD_REACTORS
330
331
102
}
330
331
100
AcDbXrecord
280
     1
102
MATERIAL
148
0.0
149
0.0
149
0.0
 93
        0
 94
      127
282
     0
 72
     1
 77
     1
171
     1
175
     1
179
     1
273
     0
  0
XRECORD
  5
3E1
102
{ACAD_REACTORS
330
3E0
102
}
330
3E0
100
AcDbXrecord
280
     1
102
DISPLAYNAME
  1
Metric50
102
FLAGS
 90
        0
  0
CELLSTYLEMAP
  5
3AD
102
{ACAD_REACTORS
330
333
102
}
330
333
100
AcDbCellStyleMap
 90
        3
300
CELLSTYLE
  1
TABLEFORMAT_BEGIN
 90
        5
170
     1
 91
        0
 92
    32768
 62
   257
 93
        1
300
CONTENTFORMAT
  1
CONTENTFORMAT_BEGIN
 90
        0
 91
        0
 92
        4
 93
        0
300

 40
0.0
140
1.0
 94
        5
 62
     0
340
11
144
0.25
309
CONTENTFORMAT_END
171
     1
301
MARGIN
  1
CELLMARGIN_BEGIN
 40
0.06
 40
0.06
 40
0.06
 40
0.06
 40
0.18
 40
0.18
309
CELLMARGIN_END
 94
        6
 95
        1
302
GRIDFORMAT
  1
GRIDFORMAT_BEGIN
 90
        0
 91
        1
 62
     0
 92
       -2
340
14
 93
        0
 40
0.045
309
GRIDFORMAT_END
 95
        2
302
GRIDFORMAT
  1
GRIDFORMAT_BEGIN
 90
        0
 91
        1
 62
     0
 92
       -2
340
14
 93
        0
 40
0.045
309
GRIDFORMAT_END
 95
        4
302
GRIDFORMAT
  1
GRIDFORMAT_BEGIN
 90
        0
 91
        1
 62
     0
 92
       -2
340
14
 93
        0
 40
0.045
309
GRIDFORMAT_END
 95
        8
302
GRIDFORMAT
  1
GRIDFORMAT_BEGIN
 90
        0
 91
        1
 62
     0
 92
       -2
340
14
 93
        0
 40
0.045
309
GRIDFORMAT_END
 95
       16
302
GRIDFORMAT
  1
GRIDFORMAT_BEGIN
 90
        0
 91
        1
 62
     0
 92
       -2
340
14
 93
        0
 40
0.045
309
GRIDFORMAT_END
 95
       32
302
GRIDFORMAT
  1
GRIDFORMAT_BEGIN
 90
        0
 91
        1
 62
     0
 92
       -2
340
14
 93
        0
 40
0.045
309
GRIDFORMAT_END
309
TABLEFORMAT_END
  1
CELLSTYLE_BEGIN
 90
        1
 91
        1
300
_TITLE
309
CELLSTYLE_END
300
CELLSTYLE
  1
TABLEFORMAT_BEGIN
 90
        5
170
     1
 91
        0
 92
        0
 62
   257
 93
        1
300
CONTENTFORMAT
  1
CONTENTFORMAT_BEGIN
 90
        0
 91
        0
 92
        4
 93
        0
300

 40
0.0
140
1.0
 94
        5
 62
     0
340
11
144
0.18
309
CONTENTFORMAT_END
171
     1
301
MARGIN
  1
CELLMARGIN_BEGIN
 40
0.06
 40
0.06
 40
0.06
 40
0.06
 40
0.18
 40
0.18
309
CELLMARGIN_END
 94
        6
 95
        1
302
GRIDFORMAT
  1
GRIDFORMAT_BEGIN
 90
        0
 91
        1
 62
     0
 92
       -2
340
14
 93
        0
 40
0.045
309
GRIDFORMAT_END
 95
        2
302
GRIDFORMAT
  1
GRIDFORMAT_BEGIN
 90
        0
 91
        1
 62
     0
 92
       -2
340
14
 93
        0
 40
0.045
309
GRIDFORMAT_END
 95
        4
302
GRIDFORMAT
  1
GRIDFORMAT_BEGIN
 90
        0
 91
        1
 62
     0
 92
       -2
340
14
 93
        0
 40
0.045
309
GRIDFORMAT_END
 95
        8
302
GRIDFORMAT
  1
GRIDFORMAT_BEGIN
 90
        0
 91
        1
 62
     0
 92
       -2
340
14
 93
        0
 40
0.045
309
GRIDFORMAT_END
 95
       16
302
GRIDFORMAT
  1
GRIDFORMAT_BEGIN
 90
        0
 91
        1
 62
     0
 92
       -2
340
14
 93
        0
 40
0.045
309
GRIDFORMAT_END
 95
       32
302
GRIDFORMAT
  1
GRIDFORMAT_BEGIN
 90
        0
 91
        1
 62
     0
 92
       -2
340
14
 93
        0
 40
0.045
309
GRIDFORMAT_END
309
TABLEFORMAT_END
  1
CELLSTYLE_BEGIN
 90
        2
 91
        1
300
_HEADER
309
CELLSTYLE_END
300
CELLSTYLE
  1
TABLEFORMAT_BEGIN
 90
        5
170
     1
 91
        0
 92
        0
 62
   257
 93
        1
300
CONTENTFORMAT
  1
CONTENTFORMAT_BEGIN
 90
        0
 91
        0
 92
        4
 93
        0
300

 40
0.0
140
1.0
 94
        2
 62
     0
340
11
144
0.18
309
CONTENTFORMAT_END
171
     1
301
MARGIN
  1
CELLMARGIN_BEGIN
 40
0.06
 40
0.06
 40
0.06
 40
0.06
 40
0.18
 40
0.18
309
CELLMARGIN_END
 94
        6
 95
        1
302
GRIDFORMAT
  1
GRIDFORMAT_BEGIN
 90
        0
 91
        1
 62
     0
 92
       -2
340
14
 93
        0
 40
0.045
309
GRIDFORMAT_END
 95
        2
302
GRIDFORMAT
  1
GRIDFORMAT_BEGIN
 90
        0
 91
        1
 62
     0
 92
       -2
340
14
 93
        0
 40
0.045
309
GRIDFORMAT_END
 95
        4
302
GRIDFORMAT
  1
GRIDFORMAT_BEGIN
 90
        0
 91
        1
 62
     0
 92
       -2
340
14
 93
        0
 40
0.045
309
GRIDFORMAT_END
 95
        8
302
GRIDFORMAT
  1
GRIDFORMAT_BEGIN
 90
        0
 91
        1
 62
     0
 92
       -2
340
14
 93
        0
 40
0.045
309
GRIDFORMAT_END
 95
       16
302
GRIDFORMAT
  1
GRIDFORMAT_BEGIN
 90
        0
 91
        1
 62
     0
 92
       -2
340
14
 93
        0
 40
0.045
309
GRIDFORMAT_END
 95
       32
302
GRIDFORMAT
  1
GRIDFORMAT_BEGIN
 90
        0
 91
        1
 62
     0
 92
       -2
340
14
 93
        0
 40
0.045
309
GRIDFORMAT_END
309
TABLEFORMAT_END
  1
CELLSTYLE_BEGIN
 90
        3
 91
        2
300
_DATA
309
CELLSTYLE_END
  0
XRECORD
  5
3DF
102
{ACAD_REACTORS
330
333
102
}
330
333
100
AcDbXrecord
280
     1
102
ACAD_ROUNDTRIP_PRE2007_TABLESTYLE
 90
        4
 91
        0
  1

 92
        4
 93
        0
  2

 94
        4
 95
        0
  3

  0
XRECORD
  5
3B8
102
{ACAD_REACTORS
330
3B7
102
}
330
3B7
100
AcDbXrecord
280
     1
102
RTVSPost2010Prop28
280
     1
102
RTVSPost2010PropOp28
 70
     1
102
RTVSPost2010Prop29
280
     1
102
RTVSPost2010PropOp29
 70
     1
102
RTVSPost2010Prop30
280
     0
102
RTVSPost2010PropOp30
 70
     1
102
RTVSPost2010Prop31
280
     0
102
RTVSPost2010PropOp31
 70
     1
102
RTVSPost2010Prop32
280
     0
102
RTVSPost2010PropOp32
 70
     1
102
RTVSPost2010Prop33
280
     0
102
RTVSPost2010PropOp33
 70
     1
102
RTVSPost2010Prop34
280
     0
102
RTVSPost2010PropOp34
 70
     1
102
RTVSPost2010Prop35
280
     0
102
RTVSPost2010PropOp35
 70
     1
102
RTVSPost2010Prop36
280
     0
102
RTVSPost2010PropOp36
 70
     1
102
RTVSPost2010Prop37
 90
       50
102
RTVSPost2010PropOp37
 70
     1
102
RTVSPost2010Prop38
140
0.0
102
RTVSPost2010PropOp38
 70
     1
102
RTVSPost2010Prop39
140
1.0
102
RTVSPost2010PropOp39
 70
     1
102
RTVSPost2010Prop40
 90
        0
102
RTVSPost2010PropOp40
 70
     1
102
RTVSPost2010Prop41ColorIndex
 90
       18
102
RTVSPost2010Prop41ColorRGB
 90
        0
102
RTVSPost2010PropOp41
 70
     1
102
RTVSPost2010Prop42
 90
       50
102
RTVSPost2010PropOp42
 70
     1
102
RTVSPost2010Prop43
 90
        3
102
RTVSPost2010PropOp43
 70
     1
102
RTVSPost2010Prop44ColorIndex
 90
        5
102
RTVSPost2010Prop44ColorRGB
 90
      255
102
RTVSPost2010PropOp44
 70
     1
102
RTVSPost2010Prop45
280
     0
102
RTVSPost2010PropOp45
 70
     1
102
RTVSPost2010Prop46
 90
       50
102
RTVSPost2010PropOp46
 70
     1
102
RTVSPost2010Prop47
 90
       50
102
RTVSPost2010PropOp47
 70
     1
102
RTVSPost2010Prop48
 90
       50
102
RTVSPost2010PropOp48
 70
     1
102
RTVSPost2010Prop49
280
     0
102
RTVSPost2010PropOp49
 70
     1
102
RTVSPost2010Prop50
 90
       50
102
RTVSPost2010PropOp50
 70
     1
102
RTVSPost2010Prop51ColorIndex
 90
      256
102
RTVSPost2010Prop51ColorRGB
 90
-16777216
102
RTVSPost2010PropOp51
 70
     0
102
RTVSPost2010Prop52
140
1.0
102
RTVSPost2010PropOp52
 70
     0
102
RTVSPost2010Prop53
 90
        2
102
RTVSPost2010PropOp53
 70
     1
102
RTVSPost2010Prop54
  1
strokes_ogs.tif
102
RTVSPost2010PropOp54
 70
     1
102
RTVSPost2010Prop55
280
     0
102
RTVSPost2010PropOp55
 70
     1
102
RTVSPost2010Prop56
140
1.0
102
RTVSPost2010PropOp56
 70
     1
102
RTVSPost2010Prop57
140
1.0
102
RTVSPost2010PropOp57
 70
     1
102
RTVSPropertyOp0
 70
     1
102
RTVSPropertyOp1
 70
     1
102
RTVSPropertyOp2
 70
     1
102
RTVSPropertyOp3
 70
     1
102
RTVSPropertyOp4
 70
     1
102
RTVSPropertyOp5
 70
     1
102
RTVSPropertyOp6
 70
     1
102
RTVSPropertyOp7
 70
     1
102
RTVSPropertyOp8
 70
     1
102
RTVSPropertyOp9
 70
     1
102
RTVSPropertyOp10
 70
     1
102
RTVSPropertyOp11
 70
     1
102
RTVSPropertyOp12
 70
     1
102
RTVSPropertyOp13
 70
     1
102
RTVSPropertyOp14
 70
     1
102
RTVSPropertyOp15
 70
     1
102
RTVSPropertyOp16
 70
     1
102
RTVSPropertyOp17
 70
     1
102
RTVSPropertyOp18
 70
     1
102
RTVSPropertyOp19
 70
     1
102
RTVSPropertyOp20
 70
     1
102
RTVSPropertyOp21
 70
     1
102
RTVSPropertyOp22
 70
     1
102
RTVSPropertyOp23
 70
     1
102
RTVSPropertyOp24
 70
     1
102
RTVSPropertyOp25
 70
     1
102
RTVSPropertyOp26
 70
     1
102
RTVSPropertyOp27
 70
     1
102
RTVSPropertyOp28
 70
     1
102
RTVSPropertyOp29
 70
     1
102
RTVSPropertyOp30
 70
     1
102
RTVSPropertyOp31
 70
     1
102
RTVSPropertyOp32
 70
     1
102
RTVSPropertyOp33
 70
     1
102
RTVSPropertyOp34
 70
     1
102
RTVSPropertyOp35
 70
     1
102
RTVSPropertyOp36
 70
     1
102
RTVSPropertyOp37
 70
     1
102
RTVSPropertyOp38
 70
     1
102
RTVSPropertyOp39
 70
     1
102
RTVSPropertyOp40
 70
     1
102
RTVSPropertyOp41
 70
     1
102
RTVSPropertyOp42
 70
     1
102
RTVSPropertyOp43
 70
     1
102
RTVSPropertyOp44
 70
     1
102
RTVSPropertyOp45
 70
     1
102
RTVSPropertyOp46
 70
     1
102
RTVSPropertyOp47
 70
     1
102
RTVSPropertyOp48
 70
     1
102
RTVSPropertyOp49
 70
     1
102
RTVSPropertyOp50
 70
     1
102
RTVSPropertyOp51
 70
     0
102
RTVSPropertyOp52
 70
     0
102
RTVSPropertyOp53
 70
     1
102
RTVSPropertyOp54
 70
     1
102
RTVSPropertyOp55
 70
     1
102
RTVSPropertyOp56
 70
     1
102
RTVSPropertyOp57
 70
     1
102
RTVSPropertyOp58
 70
     1
102
RTVSPropertyOp59
 70
     1
102
RTVSPropertyOp60
 70
     1
102
RTVSPropertyOp61
 70
     1
102
RTVSPropertyOp62
 70
     1
  0
XRECORD
  5
3BE
102
{ACAD_REACTORS
330
3BD
102
}
330
3BD
100
AcDbXrecord
280
     1
102
RTVSPost2010Prop28
280
     0
102
RTVSPost2010PropOp28
 70
     1
102
RTVSPost2010Prop29
280
     1
102
RTVSPost2010PropOp29
 70
     1
102
RTVSPost2010Prop30
280
     1
102
RTVSPost2010PropOp30
 70
     1
102
RTVSPost2010Prop31
280
     0
102
RTVSPost2010PropOp31
 70
     1
102
RTVSPost2010Prop32
280
     0
102
RTVSPost2010PropOp32
 70
     1
102
RTVSPost2010Prop33
280
     0
102
RTVSPost2010PropOp33
 70
     1
102
RTVSPost2010Prop34
280
     0
102
RTVSPost2010PropOp34
 70
     1
102
RTVSPost2010Prop35
280
     0
102
RTVSPost2010PropOp35
 70
     1
102
RTVSPost2010Prop36
280
     0
102
RTVSPost2010PropOp36
 70
     1
102
RTVSPost2010Prop37
 90
       50
102
RTVSPost2010PropOp37
 70
     1
102
RTVSPost2010Prop38
140
0.0
102
RTVSPost2010PropOp38
 70
     1
102
RTVSPost2010Prop39
140
1.0
102
RTVSPost2010PropOp39
 70
     1
102
RTVSPost2010Prop40
 90
        0
102
RTVSPost2010PropOp40
 70
     1
102
RTVSPost2010Prop41ColorIndex
 90
       18
102
RTVSPost2010Prop41ColorRGB
 90
        0
102
RTVSPost2010PropOp41
 70
     1
102
RTVSPost2010Prop42
 90
       50
102
RTVSPost2010PropOp42
 70
     1
102
RTVSPost2010Prop43
 90
        3
102
RTVSPost2010PropOp43
 70
     1
102
RTVSPost2010Prop44ColorIndex
 90
        5
102
RTVSPost2010Prop44ColorRGB
 90
      255
102
RTVSPost2010PropOp44
 70
     1
102
RTVSPost2010Prop45
280
     0
102
RTVSPost2010PropOp45
 70
     1
102
RTVSPost2010Prop46
 90
       50
102
RTVSPost2010PropOp46
 70
     1
102
RTVSPost2010Prop47
 90
       50
102
RTVSPost2010PropOp47
 70
     1
102
RTVSPost2010Prop48
 90
       50
102
RTVSPost2010PropOp48
 70
     1
102
RTVSPost2010Prop49
280
     0
102
RTVSPost2010PropOp49
 70
     1
102
RTVSPost2010Prop50
 90
       50
102
RTVSPost2010PropOp50
 70
     1
102
RTVSPost2010Prop51ColorIndex
 90
      256
102
RTVSPost2010Prop51ColorRGB
 90
-16777216
102
RTVSPost2010PropOp51
 70
     0
102
RTVSPost2010Prop52
140
1.0
102
RTVSPost2010PropOp52
 70
     0
102
RTVSPost2010Prop53
 90
        2
102
RTVSPost2010PropOp53
 70
     1
102
RTVSPost2010Prop54
  1
strokes_ogs.tif
102
RTVSPost2010PropOp54
 70
     1
102
RTVSPost2010Prop55
280
     0
102
RTVSPost2010PropOp55
 70
     1
102
RTVSPost2010Prop56
140
1.0
102
RTVSPost2010PropOp56
 70
     1
102
RTVSPost2010Prop57
140
1.0
102
RTVSPost2010PropOp57
 70
     1
102
RTVSPropertyOp0
 70
     1
102
RTVSPropertyOp1
 70
     1
102
RTVSPropertyOp2
 70
     1
102
RTVSPropertyOp3
 70
     1
102
RTVSPropertyOp4
 70
     1
102
RTVSPropertyOp5
 70
     1
102
RTVSPropertyOp6
 70
     1
102
RTVSPropertyOp7
 70
     1
102
RTVSPropertyOp8
 70
     1
102
RTVSPropertyOp9
 70
     1
102
RTVSPropertyOp10
 70
     1
102
RTVSPropertyOp11
 70
     1
102
RTVSPropertyOp12
 70
     1
102
RTVSPropertyOp13
 70
     1
102
RTVSPropertyOp14
 70
     1
102
RTVSPropertyOp15
 70
     1
102
RTVSPropertyOp16
 70
     1
102
RTVSPropertyOp17
 70
     1
102
RTVSPropertyOp18
 70
     1
102
RTVSPropertyOp19
 70
     1
102
RTVSPropertyOp20
 70
     1
102
RTVSPropertyOp21
 70
     1
102
RTVSPropertyOp22
 70
     1
102
RTVSPropertyOp23
 70
     1
102
RTVSPropertyOp24
 70
     1
102
RTVSPropertyOp25
 70
     1
102
RTVSPropertyOp26
 70
     1
102
RTVSPropertyOp27
 70
     1
102
RTVSPropertyOp28
 70
     1
102
RTVSPropertyOp29
 70
     1
102
RTVSPropertyOp30
 70
     1
102
RTVSPropertyOp31
 70
     1
102
RTVSPropertyOp32
 70
     1
102
RTVSPropertyOp33
 70
     1
102
RTVSPropertyOp34
 70
     1
102
RTVSPropertyOp35
 70
     1
102
RTVSPropertyOp36
 70
     1
102
RTVSPropertyOp37
 70
     1
102
RTVSPropertyOp38
 70
     1
102
RTVSPropertyOp39
 70
     1
102
RTVSPropertyOp40
 70
     1
102
RTVSPropertyOp41
 70
     1
102
RTVSPropertyOp42
 70
     1
102
RTVSPropertyOp43
 70
     1
102
RTVSPropertyOp44
 70
     1
102
RTVSPropertyOp45
 70
     1
102
RTVSPropertyOp46
 70
     1
102
RTVSPropertyOp47
 70
     1
102
RTVSPropertyOp48
 70
     1
102
RTVSPropertyOp49
 70
     1
102
RTVSPropertyOp50
 70
     1
102
RTVSPropertyOp51
 70
     0
102
RTVSPropertyOp52
 70
     0
102
RTVSPropertyOp53
 70
     1
102
RTVSPropertyOp54
 70
     1
102
RTVSPropertyOp55
 70
     1
102
RTVSPropertyOp56
 70
     1
102
RTVSPropertyOp57
 70
     1
102
RTVSPropertyOp58
 70
     1
102
RTVSPropertyOp59
 70
     1
102
RTVSPropertyOp60
 70
     1
102
RTVSPropertyOp61
 70
     1
102
RTVSPropertyOp62
 70
     1
  0
XRECORD
  5
3C6
102
{ACAD_REACTORS
330
3C5
102
}
330
3C5
100
AcDbXrecord
280
     1
102
RTVSPost2010Prop28
280
     0
102
RTVSPost2010PropOp28
 70
     1
102
RTVSPost2010Prop29
280
     1
102
RTVSPost2010PropOp29
 70
     1
102
RTVSPost2010Prop30
280
     1
102
RTVSPost2010PropOp30
 70
     1
102
RTVSPost2010Prop31
280
     0
102
RTVSPost2010PropOp31
 70
     1
102
RTVSPost2010Prop32
280
     0
102
RTVSPost2010PropOp32
 70
     1
102
RTVSPost2010Prop33
280
     0
102
RTVSPost2010PropOp33
 70
     1
102
RTVSPost2010Prop34
280
     0
102
RTVSPost2010PropOp34
 70
     1
102
RTVSPost2010Prop35
280
     0
102
RTVSPost2010PropOp35
 70
     1
102
RTVSPost2010Prop36
280
     0
102
RTVSPost2010PropOp36
 70
     1
102
RTVSPost2010Prop37
 90
       50
102
RTVSPost2010PropOp37
 70
     1
102
RTVSPost2010Prop38
140
0.0
102
RTVSPost2010PropOp38
 70
     1
102
RTVSPost2010Prop39
140
1.0
102
RTVSPost2010PropOp39
 70
     1
102
RTVSPost2010Prop40
 90
        0
102
RTVSPost2010PropOp40
 70
     1
102
RTVSPost2010Prop41ColorIndex
 90
       18
102
RTVSPost2010Prop41ColorRGB
 90
        0
102
RTVSPost2010PropOp41
 70
     1
102
RTVSPost2010Prop42
 90
       50
102
RTVSPost2010PropOp42
 70
     1
102
RTVSPost2010Prop43
 90
        3
102
RTVSPost2010PropOp43
 70
     1
102
RTVSPost2010Prop44ColorIndex
 90
        5
102
RTVSPost2010Prop44ColorRGB
 90
      255
102
RTVSPost2010PropOp44
 70
     1
102
RTVSPost2010Prop45
280
     0
102
RTVSPost2010PropOp45
 70
     1
102
RTVSPost2010Prop46
 90
       50
102
RTVSPost2010PropOp46
 70
     1
102
RTVSPost2010Prop47
 90
       50
102
RTVSPost2010PropOp47
 70
     1
102
RTVSPost2010Prop48
 90
       50
102
RTVSPost2010PropOp48
 70
     1
102
RTVSPost2010Prop49
280
     0
102
RTVSPost2010PropOp49
 70
     1
102
RTVSPost2010Prop50
 90
       50
102
RTVSPost2010PropOp50
 70
     1
102
RTVSPost2010Prop51ColorIndex
 90
      256
102
RTVSPost2010Prop51ColorRGB
 90
-16777216
102
RTVSPost2010PropOp51
 70
     0
102
RTVSPost2010Prop52
140
1.0
102
RTVSPost2010PropOp52
 70
     0
102
RTVSPost2010Prop53
 90
        2
102
RTVSPost2010PropOp53
 70
     1
102
RTVSPost2010Prop54
  1
strokes_ogs.tif
102
RTVSPost2010PropOp54
 70
     1
102
RTVSPost2010Prop55
280
     0
102
RTVSPost2010PropOp55
 70
     1
102
RTVSPost2010Prop56
140
1.0
102
RTVSPost2010PropOp56
 70
     1
102
RTVSPost2010Prop57
140
1.0
102
RTVSPost2010PropOp57
 70
     1
102
RTVSPropertyOp0
 70
     1
102
RTVSPropertyOp1
 70
     1
102
RTVSPropertyOp2
 70
     1
102
RTVSPropertyOp3
 70
     1
102
RTVSPropertyOp4
 70
     1
102
RTVSPropertyOp5
 70
     1
102
RTVSPropertyOp6
 70
     1
102
RTVSPropertyOp7
 70
     1
102
RTVSPropertyOp8
 70
     1
102
RTVSPropertyOp9
 70
     1
102
RTVSPropertyOp10
 70
     1
102
RTVSPropertyOp11
 70
     1
102
RTVSPropertyOp12
 70
     1
102
RTVSPropertyOp13
 70
     1
102
RTVSPropertyOp14
 70
     1
102
RTVSPropertyOp15
 70
     1
102
RTVSPropertyOp16
 70
     1
102
RTVSPropertyOp17
 70
     1
102
RTVSPropertyOp18
 70
     1
102
RTVSPropertyOp19
 70
     1
102
RTVSPropertyOp20
 70
     1
102
RTVSPropertyOp21
 70
     1
102
RTVSPropertyOp22
 70
     1
102
RTVSPropertyOp23
 70
     1
102
RTVSPropertyOp24
 70
     1
102
RTVSPropertyOp25
 70
     1
102
RTVSPropertyOp26
 70
     1
102
RTVSPropertyOp27
 70
     1
102
RTVSPropertyOp28
 70
     1
102
RTVSPropertyOp29
 70
     1
102
RTVSPropertyOp30
 70
     1
102
RTVSPropertyOp31
 70
     1
102
RTVSPropertyOp32
 70
     1
102
RTVSPropertyOp33
 70
     1
102
RTVSPropertyOp34
 70
     1
102
RTVSPropertyOp35
 70
     1
102
RTVSPropertyOp36
 70
     1
102
RTVSPropertyOp37
 70
     1
102
RTVSPropertyOp38
 70
     1
102
RTVSPropertyOp39
 70
     1
102
RTVSPropertyOp40
 70
     1
102
RTVSPropertyOp41
 70
     1
102
RTVSPropertyOp42
 70
     1
102
RTVSPropertyOp43
 70
     1
102
RTVSPropertyOp44
 70
     1
102
RTVSPropertyOp45
 70
     1
102
RTVSPropertyOp46
 70
     1
102
RTVSPropertyOp47
 70
     1
102
RTVSPropertyOp48
 70
     1
102
RTVSPropertyOp49
 70
     1
102
RTVSPropertyOp50
 70
     1
102
RTVSPropertyOp51
 70
     0
102
RTVSPropertyOp52
 70
     0
102
RTVSPropertyOp53
 70
     1
102
RTVSPropertyOp54
 70
     1
102
RTVSPropertyOp55
 70
     1
102
RTVSPropertyOp56
 70
     1
102
RTVSPropertyOp57
 70
     1
102
RTVSPropertyOp58
 70
     1
102
RTVSPropertyOp59
 70
     1
102
RTVSPropertyOp60
 70
     1
102
RTVSPropertyOp61
 70
     1
102
RTVSPropertyOp62
 70
     1
  0
XRECORD
  5
3CE
102
{ACAD_REACTORS
330
3CD
102
}
330
3CD
100
AcDbXrecord
280
     1
102
RTVSPost2010Prop28
280
     0
102
RTVSPost2010PropOp28
 70
     1
102
RTVSPost2010Prop29
280
     1
102
RTVSPost2010PropOp29
 70
     1
102
RTVSPost2010Prop30
280
     1
102
RTVSPost2010PropOp30
 70
     1
102
RTVSPost2010Prop31
280
     0
102
RTVSPost2010PropOp31
 70
     1
102
RTVSPost2010Prop32
280
     0
102
RTVSPost2010PropOp32
 70
     1
102
RTVSPost2010Prop33
280
     0
102
RTVSPost2010PropOp33
 70
     1
102
RTVSPost2010Prop34
280
     0
102
RTVSPost2010PropOp34
 70
     1
102
RTVSPost2010Prop35
280
     0
102
RTVSPost2010PropOp35
 70
     1
102
RTVSPost2010Prop36
280
     0
102
RTVSPost2010PropOp36
 70
     1
102
RTVSPost2010Prop37
 90
       50
102
RTVSPost2010PropOp37
 70
     1
102
RTVSPost2010Prop38
140
0.0
102
RTVSPost2010PropOp38
 70
     1
102
RTVSPost2010Prop39
140
1.0
102
RTVSPost2010PropOp39
 70
     1
102
RTVSPost2010Prop40
 90
        0
102
RTVSPost2010PropOp40
 70
     1
102
RTVSPost2010Prop41ColorIndex
 90
       18
102
RTVSPost2010Prop41ColorRGB
 90
        0
102
RTVSPost2010PropOp41
 70
     1
102
RTVSPost2010Prop42
 90
       50
102
RTVSPost2010PropOp42
 70
     1
102
RTVSPost2010Prop43
 90
        3
102
RTVSPost2010PropOp43
 70
     1
102
RTVSPost2010Prop44ColorIndex
 90
        5
102
RTVSPost2010Prop44ColorRGB
 90
      255
102
RTVSPost2010PropOp44
 70
     1
102
RTVSPost2010Prop45
280
     0
102
RTVSPost2010PropOp45
 70
     1
102
RTVSPost2010Prop46
 90
       50
102
RTVSPost2010PropOp46
 70
     1
102
RTVSPost2010Prop47
 90
       50
102
RTVSPost2010PropOp47
 70
     1
102
RTVSPost2010Prop48
 90
       50
102
RTVSPost2010PropOp48
 70
     1
102
RTVSPost2010Prop49
280
     0
102
RTVSPost2010PropOp49
 70
     1
102
RTVSPost2010Prop50
 90
       50
102
RTVSPost2010PropOp50
 70
     1
102
RTVSPost2010Prop51ColorIndex
 90
      256
102
RTVSPost2010Prop51ColorRGB
 90
-16777216
102
RTVSPost2010PropOp51
 70
     0
102
RTVSPost2010Prop52
140
1.0
102
RTVSPost2010PropOp52
 70
     0
102
RTVSPost2010Prop53
 90
        2
102
RTVSPost2010PropOp53
 70
     1
102
RTVSPost2010Prop54
  1
strokes_ogs.tif
102
RTVSPost2010PropOp54
 70
     1
102
RTVSPost2010Prop55
280
     0
102
RTVSPost2010PropOp55
 70
     1
102
RTVSPost2010Prop56
140
1.0
102
RTVSPost2010PropOp56
 70
     1
102
RTVSPost2010Prop57
140
1.0
102
RTVSPost2010PropOp57
 70
     1
102
RTVSPropertyOp0
 70
     1
102
RTVSPropertyOp1
 70
     1
102
RTVSPropertyOp2
 70
     1
102
RTVSPropertyOp3
 70
     1
102
RTVSPropertyOp4
 70
     1
102
RTVSPropertyOp5
 70
     1
102
RTVSPropertyOp6
 70
     1
102
RTVSPropertyOp7
 70
     1
102
RTVSPropertyOp8
 70
     1
102
RTVSPropertyOp9
 70
     1
102
RTVSPropertyOp10
 70
     1
102
RTVSPropertyOp11
 70
     1
102
RTVSPropertyOp12
 70
     1
102
RTVSPropertyOp13
 70
     1
102
RTVSPropertyOp14
 70
     1
102
RTVSPropertyOp15
 70
     1
102
RTVSPropertyOp16
 70
     1
102
RTVSPropertyOp17
 70
     1
102
RTVSPropertyOp18
 70
     1
102
RTVSPropertyOp19
 70
     1
102
RTVSPropertyOp20
 70
     1
102
RTVSPropertyOp21
 70
     1
102
RTVSPropertyOp22
 70
     1
102
RTVSPropertyOp23
 70
     1
102
RTVSPropertyOp24
 70
     1
102
RTVSPropertyOp25
 70
     1
102
RTVSPropertyOp26
 70
     1
102
RTVSPropertyOp27
 70
     1
102
RTVSPropertyOp28
 70
     1
102
RTVSPropertyOp29
 70
     1
102
RTVSPropertyOp30
 70
     1
102
RTVSPropertyOp31
 70
     1
102
RTVSPropertyOp32
 70
     1
102
RTVSPropertyOp33
 70
     1
102
RTVSPropertyOp34
 70
     1
102
RTVSPropertyOp35
 70
     1
102
RTVSPropertyOp36
 70
     1
102
RTVSPropertyOp37
 70
     1
102
RTVSPropertyOp38
 70
     1
102
RTVSPropertyOp39
 70
     1
102
RTVSPropertyOp40
 70
     1
102
RTVSPropertyOp41
 70
     1
102
RTVSPropertyOp42
 70
     1
102
RTVSPropertyOp43
 70
     1
102
RTVSPropertyOp44
 70
     1
102
RTVSPropertyOp45
 70
     1
102
RTVSPropertyOp46
 70
     1
102
RTVSPropertyOp47
 70
     1
102
RTVSPropertyOp48
 70
     1
102
RTVSPropertyOp49
 70
     1
102
RTVSPropertyOp50
 70
     1
102
RTVSPropertyOp51
 70
     0
102
RTVSPropertyOp52
 70
     0
102
RTVSPropertyOp53
 70
     1
102
RTVSPropertyOp54
 70
     1
102
RTVSPropertyOp55
 70
     1
102
RTVSPropertyOp56
 70
     1
102
RTVSPropertyOp57
 70
     1
102
RTVSPropertyOp58
 70
     1
102
RTVSPropertyOp59
 70
     1
102
RTVSPropertyOp60
 70
     1
102
RTVSPropertyOp61
 70
     1
102
RTVSPropertyOp62
 70
     1
  0
XRECORD
  5
3C2
102
{ACAD_REACTORS
330
3C1
102
}
330
3C1
100
AcDbXrecord
280
     1
102
RTVSPost2010Prop28
280
     0
102
RTVSPost2010PropOp28
 70
     1
102
RTVSPost2010Prop29
280
     1
102
RTVSPost2010PropOp29
 70
     1
102
RTVSPost2010Prop30
280
     1
102
RTVSPost2010PropOp30
 70
     1
102
RTVSPost2010Prop31
280
     0
102
RTVSPost2010PropOp31
 70
     1
102
RTVSPost2010Prop32
280
     0
102
RTVSPost2010PropOp32
 70
     1
102
RTVSPost2010Prop33
280
     0
102
RTVSPost2010PropOp33
 70
     1
102
RTVSPost2010Prop34
280
     0
102
RTVSPost2010PropOp34
 70
     1
102
RTVSPost2010Prop35
280
     0
102
RTVSPost2010PropOp35
 70
     1
102
RTVSPost2010Prop36
280
     0
102
RTVSPost2010PropOp36
 70
     1
102
RTVSPost2010Prop37
 90
       50
102
RTVSPost2010PropOp37
 70
     1
102
RTVSPost2010Prop38
140
0.0
102
RTVSPost2010PropOp38
 70
     1
102
RTVSPost2010Prop39
140
1.0
102
RTVSPost2010PropOp39
 70
     1
102
RTVSPost2010Prop40
 90
        0
102
RTVSPost2010PropOp40
 70
     1
102
RTVSPost2010Prop41ColorIndex
 90
       18
102
RTVSPost2010Prop41ColorRGB
 90
        0
102
RTVSPost2010PropOp41
 70
     1
102
RTVSPost2010Prop42
 90
       50
102
RTVSPost2010PropOp42
 70
     1
102
RTVSPost2010Prop43
 90
        3
102
RTVSPost2010PropOp43
 70
     1
102
RTVSPost2010Prop44ColorIndex
 90
        5
102
RTVSPost2010Prop44ColorRGB
 90
      255
102
RTVSPost2010PropOp44
 70
     1
102
RTVSPost2010Prop45
280
     0
102
RTVSPost2010PropOp45
 70
     1
102
RTVSPost2010Prop46
 90
       50
102
RTVSPost2010PropOp46
 70
     1
102
RTVSPost2010Prop47
 90
       50
102
RTVSPost2010PropOp47
 70
     1
102
RTVSPost2010Prop48
 90
       50
102
RTVSPost2010PropOp48
 70
     1
102
RTVSPost2010Prop49
280
     0
102
RTVSPost2010PropOp49
 70
     1
102
RTVSPost2010Prop50
 90
       50
102
RTVSPost2010PropOp50
 70
     1
102
RTVSPost2010Prop51ColorIndex
 90
      256
102
RTVSPost2010Prop51ColorRGB
 90
-16777216
102
RTVSPost2010PropOp51
 70
     0
102
RTVSPost2010Prop52
140
1.0
102
RTVSPost2010PropOp52
 70
     0
102
RTVSPost2010Prop53
 90
        2
102
RTVSPost2010PropOp53
 70
     1
102
RTVSPost2010Prop54
  1
strokes_ogs.tif
102
RTVSPost2010PropOp54
 70
     1
102
RTVSPost2010Prop55
280
     0
102
RTVSPost2010PropOp55
 70
     1
102
RTVSPost2010Prop56
140
1.0
102
RTVSPost2010PropOp56
 70
     1
102
RTVSPost2010Prop57
140
1.0
102
RTVSPost2010PropOp57
 70
     1
102
RTVSPropertyOp0
 70
     1
102
RTVSPropertyOp1
 70
     1
102
RTVSPropertyOp2
 70
     1
102
RTVSPropertyOp3
 70
     1
102
RTVSPropertyOp4
 70
     1
102
RTVSPropertyOp5
 70
     1
102
RTVSPropertyOp6
 70
     1
102
RTVSPropertyOp7
 70
     1
102
RTVSPropertyOp8
 70
     1
102
RTVSPropertyOp9
 70
     1
102
RTVSPropertyOp10
 70
     1
102
RTVSPropertyOp11
 70
     1
102
RTVSPropertyOp12
 70
     1
102
RTVSPropertyOp13
 70
     1
102
RTVSPropertyOp14
 70
     1
102
RTVSPropertyOp15
 70
     1
102
RTVSPropertyOp16
 70
     1
102
RTVSPropertyOp17
 70
     1
102
RTVSPropertyOp18
 70
     1
102
RTVSPropertyOp19
 70
     1
102
RTVSPropertyOp20
 70
     1
102
RTVSPropertyOp21
 70
     1
102
RTVSPropertyOp22
 70
     1
102
RTVSPropertyOp23
 70
     1
102
RTVSPropertyOp24
 70
     1
102
RTVSPropertyOp25
 70
     1
102
RTVSPropertyOp26
 70
     1
102
RTVSPropertyOp27
 70
     1
102
RTVSPropertyOp28
 70
     1
102
RTVSPropertyOp29
 70
     1
102
RTVSPropertyOp30
 70
     1
102
RTVSPropertyOp31
 70
     1
102
RTVSPropertyOp32
 70
     1
102
RTVSPropertyOp33
 70
     1
102
RTVSPropertyOp34
 70
     1
102
RTVSPropertyOp35
 70
     1
102
RTVSPropertyOp36
 70
     1
102
RTVSPropertyOp37
 70
     1
102
RTVSPropertyOp38
 70
     1
102
RTVSPropertyOp39
 70
     1
102
RTVSPropertyOp40
 70
     1
102
RTVSPropertyOp41
 70
     1
102
RTVSPropertyOp42
 70
     1
102
RTVSPropertyOp43
 70
     1
102
RTVSPropertyOp44
 70
     1
102
RTVSPropertyOp45
 70
     1
102
RTVSPropertyOp46
 70
     1
102
RTVSPropertyOp47
 70
     1
102
RTVSPropertyOp48
 70
     1
102
RTVSPropertyOp49
 70
     1
102
RTVSPropertyOp50
 70
     1
102
RTVSPropertyOp51
 70
     0
102
RTVSPropertyOp52
 70
     0
102
RTVSPropertyOp53
 70
     1
102
RTVSPropertyOp54
 70
     1
102
RTVSPropertyOp55
 70
     1
102
RTVSPropertyOp56
 70
     1
102
RTVSPropertyOp57
 70
     1
102
RTVSPropertyOp58
 70
     1
102
RTVSPropertyOp59
 70
     1
102
RTVSPropertyOp60
 70
     1
102
RTVSPropertyOp61
 70
     1
102
RTVSPropertyOp62
 70
     1
  0
XRECORD
  5
3C4
102
{ACAD_REACTORS
330
3C3
102
}
330
3C3
100
AcDbXrecord
280
     1
102
RTVSPost2010Prop28
280
     0
102
RTVSPost2010PropOp28
 70
     1
102
RTVSPost2010Prop29
280
     1
102
RTVSPost2010PropOp29
 70
     1
102
RTVSPost2010Prop30
280
     1
102
RTVSPost2010PropOp30
 70
     1
102
RTVSPost2010Prop31
280
     0
102
RTVSPost2010PropOp31
 70
     1
102
RTVSPost2010Prop32
280
     0
102
RTVSPost2010PropOp32
 70
     1
102
RTVSPost2010Prop33
280
     0
102
RTVSPost2010PropOp33
 70
     1
102
RTVSPost2010Prop34
280
     0
102
RTVSPost2010PropOp34
 70
     1
102
RTVSPost2010Prop35
280
     0
102
RTVSPost2010PropOp35
 70
     1
102
RTVSPost2010Prop36
280
     0
102
RTVSPost2010PropOp36
 70
     1
102
RTVSPost2010Prop37
 90
       50
102
RTVSPost2010PropOp37
 70
     1
102
RTVSPost2010Prop38
140
0.0
102
RTVSPost2010PropOp38
 70
     1
102
RTVSPost2010Prop39
140
1.0
102
RTVSPost2010PropOp39
 70
     1
102
RTVSPost2010Prop40
 90
        0
102
RTVSPost2010PropOp40
 70
     1
102
RTVSPost2010Prop41ColorIndex
 90
       18
102
RTVSPost2010Prop41ColorRGB
 90
        0
102
RTVSPost2010PropOp41
 70
     1
102
RTVSPost2010Prop42
 90
       50
102
RTVSPost2010PropOp42
 70
     1
102
RTVSPost2010Prop43
 90
        3
102
RTVSPost2010PropOp43
 70
     1
102
RTVSPost2010Prop44ColorIndex
 90
        5
102
RTVSPost2010Prop44ColorRGB
 90
      255
102
RTVSPost2010PropOp44
 70
     1
102
RTVSPost2010Prop45
280
     0
102
RTVSPost2010PropOp45
 70
     1
102
RTVSPost2010Prop46
 90
       50
102
RTVSPost2010PropOp46
 70
     1
102
RTVSPost2010Prop47
 90
       50
102
RTVSPost2010PropOp47
 70
     1
102
RTVSPost2010Prop48
 90
       50
102
RTVSPost2010PropOp48
 70
     1
102
RTVSPost2010Prop49
280
     0
102
RTVSPost2010PropOp49
 70
     1
102
RTVSPost2010Prop50
 90
       50
102
RTVSPost2010PropOp50
 70
     1
102
RTVSPost2010Prop51ColorIndex
 90
      256
102
RTVSPost2010Prop51ColorRGB
 90
-16777216
102
RTVSPost2010PropOp51
 70
     0
102
RTVSPost2010Prop52
140
1.0
102
RTVSPost2010PropOp52
 70
     0
102
RTVSPost2010Prop53
 90
        2
102
RTVSPost2010PropOp53
 70
     1
102
RTVSPost2010Prop54
  1
strokes_ogs.tif
102
RTVSPost2010PropOp54
 70
     1
102
RTVSPost2010Prop55
280
     0
102
RTVSPost2010PropOp55
 70
     1
102
RTVSPost2010Prop56
140
1.0
102
RTVSPost2010PropOp56
 70
     1
102
RTVSPost2010Prop57
140
1.0
102
RTVSPost2010PropOp57
 70
     1
102
RTVSPropertyOp0
 70
     1
102
RTVSPropertyOp1
 70
     1
102
RTVSPropertyOp2
 70
     1
102
RTVSPropertyOp3
 70
     1
102
RTVSPropertyOp4
 70
     1
102
RTVSPropertyOp5
 70
     1
102
RTVSPropertyOp6
 70
     1
102
RTVSPropertyOp7
 70
     1
102
RTVSPropertyOp8
 70
     1
102
RTVSPropertyOp9
 70
     1
102
RTVSPropertyOp10
 70
     1
102
RTVSPropertyOp11
 70
     1
102
RTVSPropertyOp12
 70
     1
102
RTVSPropertyOp13
 70
     1
102
RTVSPropertyOp14
 70
     1
102
RTVSPropertyOp15
 70
     1
102
RTVSPropertyOp16
 70
     1
102
RTVSPropertyOp17
 70
     1
102
RTVSPropertyOp18
 70
     1
102
RTVSPropertyOp19
 70
     1
102
RTVSPropertyOp20
 70
     1
102
RTVSPropertyOp21
 70
     1
102
RTVSPropertyOp22
 70
     1
102
RTVSPropertyOp23
 70
     1
102
RTVSPropertyOp24
 70
     1
102
RTVSPropertyOp25
 70
     1
102
RTVSPropertyOp26
 70
     1
102
RTVSPropertyOp27
 70
     1
102
RTVSPropertyOp28
 70
     1
102
RTVSPropertyOp29
 70
     1
102
RTVSPropertyOp30
 70
     1
102
RTVSPropertyOp31
 70
     1
102
RTVSPropertyOp32
 70
     1
102
RTVSPropertyOp33
 70
     1
102
RTVSPropertyOp34
 70
     1
102
RTVSPropertyOp35
 70
     1
102
RTVSPropertyOp36
 70
     1
102
RTVSPropertyOp37
 70
     1
102
RTVSPropertyOp38
 70
     1
102
RTVSPropertyOp39
 70
     1
102
RTVSPropertyOp40
 70
     1
102
RTVSPropertyOp41
 70
     1
102
RTVSPropertyOp42
 70
     1
102
RTVSPropertyOp43
 70
     1
102
RTVSPropertyOp44
 70
     1
102
RTVSPropertyOp45
 70
     1
102
RTVSPropertyOp46
 70
     1
102
RTVSPropertyOp47
 70
     1
102
RTVSPropertyOp48
 70
     1
102
RTVSPropertyOp49
 70
     1
102
RTVSPropertyOp50
 70
     1
102
RTVSPropertyOp51
 70
     0
102
RTVSPropertyOp52
 70
     0
102
RTVSPropertyOp53
 70
     1
102
RTVSPropertyOp54
 70
     1
102
RTVSPropertyOp55
 70
     1
102
RTVSPropertyOp56
 70
     1
102
RTVSPropertyOp57
 70
     1
102
RTVSPropertyOp58
 70
     1
102
RTVSPropertyOp59
 70
     1
102
RTVSPropertyOp60
 70
     1
102
RTVSPropertyOp61
 70
     1
102
RTVSPropertyOp62
 70
     1
  0
XRECORD
  5
3D4
102
{ACAD_REACTORS
330
3D3
102
}
330
3D3
100
AcDbXrecord
280
     1
102
RTVSPost2010Prop28
280
     0
102
RTVSPost2010PropOp28
 70
     0
102
RTVSPost2010Prop29
280
     1
102
RTVSPost2010PropOp29
 70
     0
102
RTVSPost2010Prop30
280
     1
102
RTVSPost2010PropOp30
 70
     0
102
RTVSPost2010Prop31
280
     0
102
RTVSPost2010PropOp31
 70
     0
102
RTVSPost2010Prop32
280
     0
102
RTVSPost2010PropOp32
 70
     0
102
RTVSPost2010Prop33
280
     0
102
RTVSPost2010PropOp33
 70
     0
102
RTVSPost2010Prop34
280
     0
102
RTVSPost2010PropOp34
 70
     0
102
RTVSPost2010Prop35
280
     0
102
RTVSPost2010PropOp35
 70
     0
102
RTVSPost2010Prop36
280
     0
102
RTVSPost2010PropOp36
 70
     0
102
RTVSPost2010Prop37
 90
       50
102
RTVSPost2010PropOp37
 70
     0
102
RTVSPost2010Prop38
140
0.0
102
RTVSPost2010PropOp38
 70
     0
102
RTVSPost2010Prop39
140
1.0
102
RTVSPost2010PropOp39
 70
     0
102
RTVSPost2010Prop40
 90
        0
102
RTVSPost2010PropOp40
 70
     0
102
RTVSPost2010Prop41ColorIndex
 90
       18
102
RTVSPost2010Prop41ColorRGB
 90
        0
102
RTVSPost2010PropOp41
 70
     0
102
RTVSPost2010Prop42
 90
       50
102
RTVSPost2010PropOp42
 70
     0
102
RTVSPost2010Prop43
 90
        3
102
RTVSPost2010PropOp43
 70
     0
102
RTVSPost2010Prop44ColorIndex
 90
        5
102
RTVSPost2010Prop44ColorRGB
 90
      255
102
RTVSPost2010PropOp44
 70
     0
102
RTVSPost2010Prop45
280
     0
102
RTVSPost2010PropOp45
 70
     0
102
RTVSPost2010Prop46
 90
       50
102
RTVSPost2010PropOp46
 70
     0
102
RTVSPost2010Prop47
 90
       50
102
RTVSPost2010PropOp47
 70
     0
102
RTVSPost2010Prop48
 90
       50
102
RTVSPost2010PropOp48
 70
     0
102
RTVSPost2010Prop49
280
     0
102
RTVSPost2010PropOp49
 70
     0
102
RTVSPost2010Prop50
 90
       50
102
RTVSPost2010PropOp50
 70
     0
102
RTVSPost2010Prop51ColorIndex
 90
      256
102
RTVSPost2010Prop51ColorRGB
 90
-16777216
102
RTVSPost2010PropOp51
 70
     0
102
RTVSPost2010Prop52
140
1.0
102
RTVSPost2010PropOp52
 70
     0
102
RTVSPost2010Prop53
 90
        2
102
RTVSPost2010PropOp53
 70
     0
102
RTVSPost2010Prop54
  1
strokes_ogs.tif
102
RTVSPost2010PropOp54
 70
     0
102
RTVSPost2010Prop55
280
     0
102
RTVSPost2010PropOp55
 70
     0
102
RTVSPost2010Prop56
140
1.0
102
RTVSPost2010PropOp56
 70
     0
102
RTVSPost2010Prop57
140
1.0
102
RTVSPost2010PropOp57
 70
     0
102
RTVSPropertyOp0
 70
     0
102
RTVSPropertyOp1
 70
     0
102
RTVSPropertyOp2
 70
     0
102
RTVSPropertyOp3
 70
     0
102
RTVSPropertyOp4
 70
     0
102
RTVSPropertyOp5
 70
     0
102
RTVSPropertyOp6
 70
     0
102
RTVSPropertyOp7
 70
     0
102
RTVSPropertyOp8
 70
     0
102
RTVSPropertyOp9
 70
     0
102
RTVSPropertyOp10
 70
     0
102
RTVSPropertyOp11
 70
     0
102
RTVSPropertyOp12
 70
     0
102
RTVSPropertyOp13
 70
     0
102
RTVSPropertyOp14
 70
     2
102
RTVSPropertyOp15
 70
     0
102
RTVSPropertyOp16
 70
     0
102
RTVSPropertyOp17
 70
     0
102
RTVSPropertyOp18
 70
     0
102
RTVSPropertyOp19
 70
     0
102
RTVSPropertyOp20
 70
     0
102
RTVSPropertyOp21
 70
     0
102
RTVSPropertyOp22
 70
     0
102
RTVSPropertyOp23
 70
     0
102
RTVSPropertyOp24
 70
     0
102
RTVSPropertyOp25
 70
     0
102
RTVSPropertyOp26
 70
     0
102
RTVSPropertyOp27
 70
     0
102
RTVSPropertyOp28
 70
     0
102
RTVSPropertyOp29
 70
     0
102
RTVSPropertyOp30
 70
     0
102
RTVSPropertyOp31
 70
     0
102
RTVSPropertyOp32
 70
     0
102
RTVSPropertyOp33
 70
     0
102
RTVSPropertyOp34
 70
     0
102
RTVSPropertyOp35
 70
     0
102
RTVSPropertyOp36
 70
     0
102
RTVSPropertyOp37
 70
     0
102
RTVSPropertyOp38
 70
     0
102
RTVSPropertyOp39
 70
     0
102
RTVSPropertyOp40
 70
     0
102
RTVSPropertyOp41
 70
     0
102
RTVSPropertyOp42
 70
     0
102
RTVSPropertyOp43
 70
     0
102
RTVSPropertyOp44
 70
     0
102
RTVSPropertyOp45
 70
     0
102
RTVSPropertyOp46
 70
     0
102
RTVSPropertyOp47
 70
     0
102
RTVSPropertyOp48
 70
     0
102
RTVSPropertyOp49
 70
     0
102
RTVSPropertyOp50
 70
     0
102
RTVSPropertyOp51
 70
     0
102
RTVSPropertyOp52
 70
     0
102
RTVSPropertyOp53
 70
     0
102
RTVSPropertyOp54
 70
     0
102
RTVSPropertyOp55
 70
     0
102
RTVSPropertyOp56
 70
     0
102
RTVSPropertyOp57
 70
     0
102
RTVSPropertyOp58
 70
     1
102
RTVSPropertyOp59
 70
     1
102
RTVSPropertyOp60
 70
     1
102
RTVSPropertyOp61
 70
     1
102
RTVSPropertyOp62
 70
     1
  0
XRECORD
  5
3CC
102
{ACAD_REACTORS
330
3CB
102
}
330
3CB
100
AcDbXrecord
280
     1
102
RTVSPost2010Prop28
280
     0
102
RTVSPost2010PropOp28
 70
     1
102
RTVSPost2010Prop29
280
     1
102
RTVSPost2010PropOp29
 70
     1
102
RTVSPost2010Prop30
280
     1
102
RTVSPost2010PropOp30
 70
     1
102
RTVSPost2010Prop31
280
     0
102
RTVSPost2010PropOp31
 70
     1
102
RTVSPost2010Prop32
280
     0
102
RTVSPost2010PropOp32
 70
     1
102
RTVSPost2010Prop33
280
     0
102
RTVSPost2010PropOp33
 70
     1
102
RTVSPost2010Prop34
280
     0
102
RTVSPost2010PropOp34
 70
     1
102
RTVSPost2010Prop35
280
     0
102
RTVSPost2010PropOp35
 70
     1
102
RTVSPost2010Prop36
280
     0
102
RTVSPost2010PropOp36
 70
     1
102
RTVSPost2010Prop37
 90
       50
102
RTVSPost2010PropOp37
 70
     1
102
RTVSPost2010Prop38
140
0.0
102
RTVSPost2010PropOp38
 70
     1
102
RTVSPost2010Prop39
140
1.0
102
RTVSPost2010PropOp39
 70
     1
102
RTVSPost2010Prop40
 90
        0
102
RTVSPost2010PropOp40
 70
     1
102
RTVSPost2010Prop41ColorIndex
 90
       18
102
RTVSPost2010Prop41ColorRGB
 90
        0
102
RTVSPost2010PropOp41
 70
     1
102
RTVSPost2010Prop42
 90
       50
102
RTVSPost2010PropOp42
 70
     1
102
RTVSPost2010Prop43
 90
        3
102
RTVSPost2010PropOp43
 70
     1
102
RTVSPost2010Prop44ColorIndex
 90
        5
102
RTVSPost2010Prop44ColorRGB
 90
      255
102
RTVSPost2010PropOp44
 70
     1
102
RTVSPost2010Prop45
280
     0
102
RTVSPost2010PropOp45
 70
     1
102
RTVSPost2010Prop46
 90
       50
102
RTVSPost2010PropOp46
 70
     1
102
RTVSPost2010Prop47
 90
       50
102
RTVSPost2010PropOp47
 70
     1
102
RTVSPost2010Prop48
 90
       50
102
RTVSPost2010PropOp48
 70
     1
102
RTVSPost2010Prop49
280
     0
102
RTVSPost2010PropOp49
 70
     1
102
RTVSPost2010Prop50
 90
       50
102
RTVSPost2010PropOp50
 70
     1
102
RTVSPost2010Prop51ColorIndex
 90
      256
102
RTVSPost2010Prop51ColorRGB
 90
-16777216
102
RTVSPost2010PropOp51
 70
     0
102
RTVSPost2010Prop52
140
1.0
102
RTVSPost2010PropOp52
 70
     0
102
RTVSPost2010Prop53
 90
        2
102
RTVSPost2010PropOp53
 70
     1
102
RTVSPost2010Prop54
  1
strokes_ogs.tif
102
RTVSPost2010PropOp54
 70
     1
102
RTVSPost2010Prop55
280
     0
102
RTVSPost2010PropOp55
 70
     1
102
RTVSPost2010Prop56
140
1.0
102
RTVSPost2010PropOp56
 70
     1
102
RTVSPost2010Prop57
140
1.0
102
RTVSPost2010PropOp57
 70
     1
102
RTVSPropertyOp0
 70
     1
102
RTVSPropertyOp1
 70
     1
102
RTVSPropertyOp2
 70
     1
102
RTVSPropertyOp3
 70
     1
102
RTVSPropertyOp4
 70
     1
102
RTVSPropertyOp5
 70
     1
102
RTVSPropertyOp6
 70
     1
102
RTVSPropertyOp7
 70
     1
102
RTVSPropertyOp8
 70
     1
102
RTVSPropertyOp9
 70
     1
102
RTVSPropertyOp10
 70
     1
102
RTVSPropertyOp11
 70
     1
102
RTVSPropertyOp12
 70
     1
102
RTVSPropertyOp13
 70
     1
102
RTVSPropertyOp14
 70
     1
102
RTVSPropertyOp15
 70
     1
102
RTVSPropertyOp16
 70
     1
102
RTVSPropertyOp17
 70
     1
102
RTVSPropertyOp18
 70
     1
102
RTVSPropertyOp19
 70
     1
102
RTVSPropertyOp20
 70
     1
102
RTVSPropertyOp21
 70
     1
102
RTVSPropertyOp22
 70
     1
102
RTVSPropertyOp23
 70
     1
102
RTVSPropertyOp24
 70
     1
102
RTVSPropertyOp25
 70
     1
102
RTVSPropertyOp26
 70
     1
102
RTVSPropertyOp27
 70
     1
102
RTVSPropertyOp28
 70
     1
102
RTVSPropertyOp29
 70
     1
102
RTVSPropertyOp30
 70
     1
102
RTVSPropertyOp31
 70
     1
102
RTVSPropertyOp32
 70
     1
102
RTVSPropertyOp33
 70
     1
102
RTVSPropertyOp34
 70
     1
102
RTVSPropertyOp35
 70
     1
102
RTVSPropertyOp36
 70
     1
102
RTVSPropertyOp37
 70
     1
102
RTVSPropertyOp38
 70
     1
102
RTVSPropertyOp39
 70
     1
102
RTVSPropertyOp40
 70
     1
102
RTVSPropertyOp41
 70
     1
102
RTVSPropertyOp42
 70
     1
102
RTVSPropertyOp43
 70
     1
102
RTVSPropertyOp44
 70
     1
102
RTVSPropertyOp45
 70
     1
102
RTVSPropertyOp46
 70
     1
102
RTVSPropertyOp47
 70
     1
102
RTVSPropertyOp48
 70
     1
102
RTVSPropertyOp49
 70
     1
102
RTVSPropertyOp50
 70
     1
102
RTVSPropertyOp51
 70
     0
102
RTVSPropertyOp52
 70
     0
102
RTVSPropertyOp53
 70
     1
102
RTVSPropertyOp54
 70
     1
102
RTVSPropertyOp55
 70
     1
102
RTVSPropertyOp56
 70
     1
102
RTVSPropertyOp57
 70
     1
102
RTVSPropertyOp58
 70
     1
102
RTVSPropertyOp59
 70
     1
102
RTVSPropertyOp60
 70
     1
102
RTVSPropertyOp61
 70
     1
102
RTVSPropertyOp62
 70
     1
  0
XRECORD
  5
3B0
102
{ACAD_REACTORS
330
3AF
102
}
330
3AF
100
AcDbXrecord
280
     1
102
RTVSPost2010Prop28
280
     0
102
RTVSPost2010PropOp28
 70
     1
102
RTVSPost2010Prop29
280
     1
102
RTVSPost2010PropOp29
 70
     1
102
RTVSPost2010Prop30
280
     1
102
RTVSPost2010PropOp30
 70
     1
102
RTVSPost2010Prop31
280
     0
102
RTVSPost2010PropOp31
 70
     1
102
RTVSPost2010Prop32
280
     0
102
RTVSPost2010PropOp32
 70
     1
102
RTVSPost2010Prop33
280
     0
102
RTVSPost2010PropOp33
 70
     1
102
RTVSPost2010Prop34
280
     0
102
RTVSPost2010PropOp34
 70
     1
102
RTVSPost2010Prop35
280
     0
102
RTVSPost2010PropOp35
 70
     1
102
RTVSPost2010Prop36
280
     0
102
RTVSPost2010PropOp36
 70
     1
102
RTVSPost2010Prop37
 90
       50
102
RTVSPost2010PropOp37
 70
     1
102
RTVSPost2010Prop38
140
0.0
102
RTVSPost2010PropOp38
 70
     1
102
RTVSPost2010Prop39
140
1.0
102
RTVSPost2010PropOp39
 70
     1
102
RTVSPost2010Prop40
 90
        0
102
RTVSPost2010PropOp40
 70
     1
102
RTVSPost2010Prop41ColorIndex
 90
       18
102
RTVSPost2010Prop41ColorRGB
 90
        0
102
RTVSPost2010PropOp41
 70
     1
102
RTVSPost2010Prop42
 90
       50
102
RTVSPost2010PropOp42
 70
     1
102
RTVSPost2010Prop43
 90
        3
102
RTVSPost2010PropOp43
 70
     1
102
RTVSPost2010Prop44ColorIndex
 90
        5
102
RTVSPost2010Prop44ColorRGB
 90
      255
102
RTVSPost2010PropOp44
 70
     1
102
RTVSPost2010Prop45
280
     0
102
RTVSPost2010PropOp45
 70
     1
102
RTVSPost2010Prop46
 90
       50
102
RTVSPost2010PropOp46
 70
     1
102
RTVSPost2010Prop47
 90
       50
102
RTVSPost2010PropOp47
 70
     1
102
RTVSPost2010Prop48
 90
       50
102
RTVSPost2010PropOp48
 70
     1
102
RTVSPost2010Prop49
280
     0
102
RTVSPost2010PropOp49
 70
     1
102
RTVSPost2010Prop50
 90
       50
102
RTVSPost2010PropOp50
 70
     1
102
RTVSPost2010Prop51ColorIndex
 90
      256
102
RTVSPost2010Prop51ColorRGB
 90
-16777216
102
RTVSPost2010PropOp51
 70
     0
102
RTVSPost2010Prop52
140
1.0
102
RTVSPost2010PropOp52
 70
     0
102
RTVSPost2010Prop53
 90
        2
102
RTVSPost2010PropOp53
 70
     1
102
RTVSPost2010Prop54
  1
strokes_ogs.tif
102
RTVSPost2010PropOp54
 70
     1
102
RTVSPost2010Prop55
280
     0
102
RTVSPost2010PropOp55
 70
     1
102
RTVSPost2010Prop56
140
1.0
102
RTVSPost2010PropOp56
 70
     1
102
RTVSPost2010Prop57
140
1.0
102
RTVSPost2010PropOp57
 70
     1
102
RTVSPropertyOp0
 70
     1
102
RTVSPropertyOp1
 70
     1
102
RTVSPropertyOp2
 70
     1
102
RTVSPropertyOp3
 70
     1
102
RTVSPropertyOp4
 70
     1
102
RTVSPropertyOp5
 70
     1
102
RTVSPropertyOp6
 70
     1
102
RTVSPropertyOp7
 70
     1
102
RTVSPropertyOp8
 70
     1
102
RTVSPropertyOp9
 70
     1
102
RTVSPropertyOp10
 70
     1
102
RTVSPropertyOp11
 70
     1
102
RTVSPropertyOp12
 70
     1
102
RTVSPropertyOp13
 70
     1
102
RTVSPropertyOp14
 70
     1
102
RTVSPropertyOp15
 70
     1
102
RTVSPropertyOp16
 70
     1
102
RTVSPropertyOp17
 70
     1
102
RTVSPropertyOp18
 70
     1
102
RTVSPropertyOp19
 70
     1
102
RTVSPropertyOp20
 70
     1
102
RTVSPropertyOp21
 70
     1
102
RTVSPropertyOp22
 70
     1
102
RTVSPropertyOp23
 70
     1
102
RTVSPropertyOp24
 70
     1
102
RTVSPropertyOp25
 70
     1
102
RTVSPropertyOp26
 70
     1
102
RTVSPropertyOp27
 70
     1
102
RTVSPropertyOp28
 70
     1
102
RTVSPropertyOp29
 70
     1
102
RTVSPropertyOp30
 70
     1
102
RTVSPropertyOp31
 70
     1
102
RTVSPropertyOp32
 70
     1
102
RTVSPropertyOp33
 70
     1
102
RTVSPropertyOp34
 70
     1
102
RTVSPropertyOp35
 70
     1
102
RTVSPropertyOp36
 70
     1
102
RTVSPropertyOp37
 70
     1
102
RTVSPropertyOp38
 70
     1
102
RTVSPropertyOp39
 70
     1
102
RTVSPropertyOp40
 70
     1
102
RTVSPropertyOp41
 70
     1
102
RTVSPropertyOp42
 70
     1
102
RTVSPropertyOp43
 70
     1
102
RTVSPropertyOp44
 70
     1
102
RTVSPropertyOp45
 70
     1
102
RTVSPropertyOp46
 70
     1
102
RTVSPropertyOp47
 70
     1
102
RTVSPropertyOp48
 70
     1
102
RTVSPropertyOp49
 70
     1
102
RTVSPropertyOp50
 70
     1
102
RTVSPropertyOp51
 70
     0
102
RTVSPropertyOp52
 70
     0
102
RTVSPropertyOp53
 70
     1
102
RTVSPropertyOp54
 70
     1
102
RTVSPropertyOp55
 70
     1
102
RTVSPropertyOp56
 70
     1
102
RTVSPropertyOp57
 70
     1
102
RTVSPropertyOp58
 70
     1
102
RTVSPropertyOp59
 70
     1
102
RTVSPropertyOp60
 70
     1
102
RTVSPropertyOp61
 70
     1
102
RTVSPropertyOp62
 70
     1
  0
XRECORD
  5
3B2
102
{ACAD_REACTORS
330
3B1
102
}
330
3B1
100
AcDbXrecord
280
     1
102
RTVSPost2010Prop28
280
     0
102
RTVSPost2010PropOp28
 70
     1
102
RTVSPost2010Prop29
280
     1
102
RTVSPost2010PropOp29
 70
     1
102
RTVSPost2010Prop30
280
     1
102
RTVSPost2010PropOp30
 70
     1
102
RTVSPost2010Prop31
280
     0
102
RTVSPost2010PropOp31
 70
     1
102
RTVSPost2010Prop32
280
     0
102
RTVSPost2010PropOp32
 70
     1
102
RTVSPost2010Prop33
280
     0
102
RTVSPost2010PropOp33
 70
     1
102
RTVSPost2010Prop34
280
     0
102
RTVSPost2010PropOp34
 70
     1
102
RTVSPost2010Prop35
280
     0
102
RTVSPost2010PropOp35
 70
     1
102
RTVSPost2010Prop36
280
     0
102
RTVSPost2010PropOp36
 70
     1
102
RTVSPost2010Prop37
 90
       50
102
RTVSPost2010PropOp37
 70
     1
102
RTVSPost2010Prop38
140
0.0
102
RTVSPost2010PropOp38
 70
     1
102
RTVSPost2010Prop39
140
1.0
102
RTVSPost2010PropOp39
 70
     1
102
RTVSPost2010Prop40
 90
        0
102
RTVSPost2010PropOp40
 70
     1
102
RTVSPost2010Prop41ColorIndex
 90
       18
102
RTVSPost2010Prop41ColorRGB
 90
        0
102
RTVSPost2010PropOp41
 70
     1
102
RTVSPost2010Prop42
 90
       50
102
RTVSPost2010PropOp42
 70
     1
102
RTVSPost2010Prop43
 90
        3
102
RTVSPost2010PropOp43
 70
     1
102
RTVSPost2010Prop44ColorIndex
 90
        5
102
RTVSPost2010Prop44ColorRGB
 90
      255
102
RTVSPost2010PropOp44
 70
     1
102
RTVSPost2010Prop45
280
     0
102
RTVSPost2010PropOp45
 70
     1
102
RTVSPost2010Prop46
 90
       50
102
RTVSPost2010PropOp46
 70
     1
102
RTVSPost2010Prop47
 90
       50
102
RTVSPost2010PropOp47
 70
     1
102
RTVSPost2010Prop48
 90
       50
102
RTVSPost2010PropOp48
 70
     1
102
RTVSPost2010Prop49
280
     0
102
RTVSPost2010PropOp49
 70
     1
102
RTVSPost2010Prop50
 90
       50
102
RTVSPost2010PropOp50
 70
     1
102
RTVSPost2010Prop51ColorIndex
 90
      256
102
RTVSPost2010Prop51ColorRGB
 90
-16777216
102
RTVSPost2010PropOp51
 70
     0
102
RTVSPost2010Prop52
140
1.0
102
RTVSPost2010PropOp52
 70
     0
102
RTVSPost2010Prop53
 90
        2
102
RTVSPost2010PropOp53
 70
     1
102
RTVSPost2010Prop54
  1
strokes_ogs.tif
102
RTVSPost2010PropOp54
 70
     1
102
RTVSPost2010Prop55
280
     0
102
RTVSPost2010PropOp55
 70
     1
102
RTVSPost2010Prop56
140
1.0
102
RTVSPost2010PropOp56
 70
     1
102
RTVSPost2010Prop57
140
1.0
102
RTVSPost2010PropOp57
 70
     1
102
RTVSPropertyOp0
 70
     1
102
RTVSPropertyOp1
 70
     1
102
RTVSPropertyOp2
 70
     1
102
RTVSPropertyOp3
 70
     1
102
RTVSPropertyOp4
 70
     1
102
RTVSPropertyOp5
 70
     1
102
RTVSPropertyOp6
 70
     1
102
RTVSPropertyOp7
 70
     1
102
RTVSPropertyOp8
 70
     1
102
RTVSPropertyOp9
 70
     1
102
RTVSPropertyOp10
 70
     1
102
RTVSPropertyOp11
 70
     1
102
RTVSPropertyOp12
 70
     1
102
RTVSPropertyOp13
 70
     1
102
RTVSPropertyOp14
 70
     1
102
RTVSPropertyOp15
 70
     1
102
RTVSPropertyOp16
 70
     1
102
RTVSPropertyOp17
 70
     1
102
RTVSPropertyOp18
 70
     1
102
RTVSPropertyOp19
 70
     1
102
RTVSPropertyOp20
 70
     1
102
RTVSPropertyOp21
 70
     1
102
RTVSPropertyOp22
 70
     1
102
RTVSPropertyOp23
 70
     1
102
RTVSPropertyOp24
 70
     1
102
RTVSPropertyOp25
 70
     1
102
RTVSPropertyOp26
 70
     1
102
RTVSPropertyOp27
 70
     1
102
RTVSPropertyOp28
 70
     1
102
RTVSPropertyOp29
 70
     1
102
RTVSPropertyOp30
 70
     1
102
RTVSPropertyOp31
 70
     1
102
RTVSPropertyOp32
 70
     1
102
RTVSPropertyOp33
 70
     1
102
RTVSPropertyOp34
 70
     1
102
RTVSPropertyOp35
 70
     1
102
RTVSPropertyOp36
 70
     1
102
RTVSPropertyOp37
 70
     1
102
RTVSPropertyOp38
 70
     1
102
RTVSPropertyOp39
 70
     1
102
RTVSPropertyOp40
 70
     1
102
RTVSPropertyOp41
 70
     1
102
RTVSPropertyOp42
 70
     1
102
RTVSPropertyOp43
 70
     1
102
RTVSPropertyOp44
 70
     1
102
RTVSPropertyOp45
 70
     1
102
RTVSPropertyOp46
 70
     1
102
RTVSPropertyOp47
 70
     1
102
RTVSPropertyOp48
 70
     1
102
RTVSPropertyOp49
 70
     1
102
RTVSPropertyOp50
 70
     1
102
RTVSPropertyOp51
 70
     0
102
RTVSPropertyOp52
 70
     0
102
RTVSPropertyOp53
 70
     1
102
RTVSPropertyOp54
 70
     1
102
RTVSPropertyOp55
 70
     1
102
RTVSPropertyOp56
 70
     1
102
RTVSPropertyOp57
 70
     1
102
RTVSPropertyOp58
 70
     1
102
RTVSPropertyOp59
 70
     1
102
RTVSPropertyOp60
 70
     1
102
RTVSPropertyOp61
 70
     1
102
RTVSPropertyOp62
 70
     1
  0
XRECORD
  5
3B4
102
{ACAD_REACTORS
330
3B3
102
}
330
3B3
100
AcDbXrecord
280
     1
102
RTVSPost2010Prop28
280
     0
102
RTVSPost2010PropOp28
 70
     1
102
RTVSPost2010Prop29
280
     1
102
RTVSPost2010PropOp29
 70
     1
102
RTVSPost2010Prop30
280
     1
102
RTVSPost2010PropOp30
 70
     1
102
RTVSPost2010Prop31
280
     0
102
RTVSPost2010PropOp31
 70
     1
102
RTVSPost2010Prop32
280
     0
102
RTVSPost2010PropOp32
 70
     1
102
RTVSPost2010Prop33
280
     0
102
RTVSPost2010PropOp33
 70
     1
102
RTVSPost2010Prop34
280
     0
102
RTVSPost2010PropOp34
 70
     1
102
RTVSPost2010Prop35
280
     0
102
RTVSPost2010PropOp35
 70
     1
102
RTVSPost2010Prop36
280
     0
102
RTVSPost2010PropOp36
 70
     1
102
RTVSPost2010Prop37
 90
       50
102
RTVSPost2010PropOp37
 70
     1
102
RTVSPost2010Prop38
140
0.0
102
RTVSPost2010PropOp38
 70
     1
102
RTVSPost2010Prop39
140
1.0
102
RTVSPost2010PropOp39
 70
     1
102
RTVSPost2010Prop40
 90
        0
102
RTVSPost2010PropOp40
 70
     1
102
RTVSPost2010Prop41ColorIndex
 90
       18
102
RTVSPost2010Prop41ColorRGB
 90
        0
102
RTVSPost2010PropOp41
 70
     1
102
RTVSPost2010Prop42
 90
       50
102
RTVSPost2010PropOp42
 70
     1
102
RTVSPost2010Prop43
 90
        3
102
RTVSPost2010PropOp43
 70
     1
102
RTVSPost2010Prop44ColorIndex
 90
        5
102
RTVSPost2010Prop44ColorRGB
 90
      255
102
RTVSPost2010PropOp44
 70
     1
102
RTVSPost2010Prop45
280
     0
102
RTVSPost2010PropOp45
 70
     1
102
RTVSPost2010Prop46
 90
       50
102
RTVSPost2010PropOp46
 70
     1
102
RTVSPost2010Prop47
 90
       50
102
RTVSPost2010PropOp47
 70
     1
102
RTVSPost2010Prop48
 90
       50
102
RTVSPost2010PropOp48
 70
     1
102
RTVSPost2010Prop49
280
     0
102
RTVSPost2010PropOp49
 70
     1
102
RTVSPost2010Prop50
 90
       50
102
RTVSPost2010PropOp50
 70
     1
102
RTVSPost2010Prop51ColorIndex
 90
      256
102
RTVSPost2010Prop51ColorRGB
 90
-16777216
102
RTVSPost2010PropOp51
 70
     0
102
RTVSPost2010Prop52
140
1.0
102
RTVSPost2010PropOp52
 70
     0
102
RTVSPost2010Prop53
 90
        2
102
RTVSPost2010PropOp53
 70
     1
102
RTVSPost2010Prop54
  1
strokes_ogs.tif
102
RTVSPost2010PropOp54
 70
     1
102
RTVSPost2010Prop55
280
     0
102
RTVSPost2010PropOp55
 70
     1
102
RTVSPost2010Prop56
140
1.0
102
RTVSPost2010PropOp56
 70
     1
102
RTVSPost2010Prop57
140
1.0
102
RTVSPost2010PropOp57
 70
     1
102
RTVSPropertyOp0
 70
     1
102
RTVSPropertyOp1
 70
     1
102
RTVSPropertyOp2
 70
     1
102
RTVSPropertyOp3
 70
     1
102
RTVSPropertyOp4
 70
     1
102
RTVSPropertyOp5
 70
     1
102
RTVSPropertyOp6
 70
     1
102
RTVSPropertyOp7
 70
     1
102
RTVSPropertyOp8
 70
     1
102
RTVSPropertyOp9
 70
     1
102
RTVSPropertyOp10
 70
     1
102
RTVSPropertyOp11
 70
     1
102
RTVSPropertyOp12
 70
     1
102
RTVSPropertyOp13
 70
     1
102
RTVSPropertyOp14
 70
     1
102
RTVSPropertyOp15
 70
     1
102
RTVSPropertyOp16
 70
     1
102
RTVSPropertyOp17
 70
     1
102
RTVSPropertyOp18
 70
     1
102
RTVSPropertyOp19
 70
     1
102
RTVSPropertyOp20
 70
     1
102
RTVSPropertyOp21
 70
     1
102
RTVSPropertyOp22
 70
     1
102
RTVSPropertyOp23
 70
     1
102
RTVSPropertyOp24
 70
     1
102
RTVSPropertyOp25
 70
     1
102
RTVSPropertyOp26
 70
     1
102
RTVSPropertyOp27
 70
     1
102
RTVSPropertyOp28
 70
     1
102
RTVSPropertyOp29
 70
     1
102
RTVSPropertyOp30
 70
     1
102
RTVSPropertyOp31
 70
     1
102
RTVSPropertyOp32
 70
     1
102
RTVSPropertyOp33
 70
     1
102
RTVSPropertyOp34
 70
     1
102
RTVSPropertyOp35
 70
     1
102
RTVSPropertyOp36
 70
     1
102
RTVSPropertyOp37
 70
     1
102
RTVSPropertyOp38
 70
     1
102
RTVSPropertyOp39
 70
     1
102
RTVSPropertyOp40
 70
     1
102
RTVSPropertyOp41
 70
     1
102
RTVSPropertyOp42
 70
     1
102
RTVSPropertyOp43
 70
     1
102
RTVSPropertyOp44
 70
     1
102
RTVSPropertyOp45
 70
     1
102
RTVSPropertyOp46
 70
     1
102
RTVSPropertyOp47
 70
     1
102
RTVSPropertyOp48
 70
     1
102
RTVSPropertyOp49
 70
     1
102
RTVSPropertyOp50
 70
     1
102
RTVSPropertyOp51
 70
     0
102
RTVSPropertyOp52
 70
     0
102
RTVSPropertyOp53
 70
     1
102
RTVSPropertyOp54
 70
     1
102
RTVSPropertyOp55
 70
     1
102
RTVSPropertyOp56
 70
     1
102
RTVSPropertyOp57
 70
     1
102
RTVSPropertyOp58
 70
     1
102
RTVSPropertyOp59
 70
     1
102
RTVSPropertyOp60
 70
     1
102
RTVSPropertyOp61
 70
     1
102
RTVSPropertyOp62
 70
     1
  0
XRECORD
  5
3B6
102
{ACAD_REACTORS
330
3B5
102
}
330
3B5
100
AcDbXrecord
280
     1
102
RTVSPost2010Prop28
280
     0
102
RTVSPost2010PropOp28
 70
     1
102
RTVSPost2010Prop29
280
     1
102
RTVSPost2010PropOp29
 70
     1
102
RTVSPost2010Prop30
280
     1
102
RTVSPost2010PropOp30
 70
     1
102
RTVSPost2010Prop31
280
     0
102
RTVSPost2010PropOp31
 70
     1
102
RTVSPost2010Prop32
280
     0
102
RTVSPost2010PropOp32
 70
     1
102
RTVSPost2010Prop33
280
     0
102
RTVSPost2010PropOp33
 70
     1
102
RTVSPost2010Prop34
280
     0
102
RTVSPost2010PropOp34
 70
     1
102
RTVSPost2010Prop35
280
     0
102
RTVSPost2010PropOp35
 70
     1
102
RTVSPost2010Prop36
280
     0
102
RTVSPost2010PropOp36
 70
     1
102
RTVSPost2010Prop37
 90
       50
102
RTVSPost2010PropOp37
 70
     1
102
RTVSPost2010Prop38
140
0.0
102
RTVSPost2010PropOp38
 70
     1
102
RTVSPost2010Prop39
140
1.0
102
RTVSPost2010PropOp39
 70
     1
102
RTVSPost2010Prop40
 90
        0
102
RTVSPost2010PropOp40
 70
     1
102
RTVSPost2010Prop41ColorIndex
 90
       18
102
RTVSPost2010Prop41ColorRGB
 90
        0
102
RTVSPost2010PropOp41
 70
     1
102
RTVSPost2010Prop42
 90
       50
102
RTVSPost2010PropOp42
 70
     1
102
RTVSPost2010Prop43
 90
        3
102
RTVSPost2010PropOp43
 70
     1
102
RTVSPost2010Prop44ColorIndex
 90
        5
102
RTVSPost2010Prop44ColorRGB
 90
      255
102
RTVSPost2010PropOp44
 70
     1
102
RTVSPost2010Prop45
280
     0
102
RTVSPost2010PropOp45
 70
     1
102
RTVSPost2010Prop46
 90
       50
102
RTVSPost2010PropOp46
 70
     1
102
RTVSPost2010Prop47
 90
       50
102
RTVSPost2010PropOp47
 70
     1
102
RTVSPost2010Prop48
 90
       50
102
RTVSPost2010PropOp48
 70
     1
102
RTVSPost2010Prop49
280
     0
102
RTVSPost2010PropOp49
 70
     1
102
RTVSPost2010Prop50
 90
       50
102
RTVSPost2010PropOp50
 70
     1
102
RTVSPost2010Prop51ColorIndex
 90
      256
102
RTVSPost2010Prop51ColorRGB
 90
-16777216
102
RTVSPost2010PropOp51
 70
     0
102
RTVSPost2010Prop52
140
1.0
102
RTVSPost2010PropOp52
 70
     0
102
RTVSPost2010Prop53
 90
        2
102
RTVSPost2010PropOp53
 70
     1
102
RTVSPost2010Prop54
  1
strokes_ogs.tif
102
RTVSPost2010PropOp54
 70
     1
102
RTVSPost2010Prop55
280
     0
102
RTVSPost2010PropOp55
 70
     1
102
RTVSPost2010Prop56
140
1.0
102
RTVSPost2010PropOp56
 70
     1
102
RTVSPost2010Prop57
140
1.0
102
RTVSPost2010PropOp57
 70
     1
102
RTVSPropertyOp0
 70
     1
102
RTVSPropertyOp1
 70
     1
102
RTVSPropertyOp2
 70
     1
102
RTVSPropertyOp3
 70
     1
102
RTVSPropertyOp4
 70
     1
102
RTVSPropertyOp5
 70
     1
102
RTVSPropertyOp6
 70
     1
102
RTVSPropertyOp7
 70
     1
102
RTVSPropertyOp8
 70
     1
102
RTVSPropertyOp9
 70
     1
102
RTVSPropertyOp10
 70
     1
102
RTVSPropertyOp11
 70
     1
102
RTVSPropertyOp12
 70
     1
102
RTVSPropertyOp13
 70
     1
102
RTVSPropertyOp14
 70
     1
102
RTVSPropertyOp15
 70
     1
102
RTVSPropertyOp16
 70
     1
102
RTVSPropertyOp17
 70
     1
102
RTVSPropertyOp18
 70
     1
102
RTVSPropertyOp19
 70
     1
102
RTVSPropertyOp20
 70
     1
102
RTVSPropertyOp21
 70
     1
102
RTVSPropertyOp22
 70
     1
102
RTVSPropertyOp23
 70
     1
102
RTVSPropertyOp24
 70
     1
102
RTVSPropertyOp25
 70
     1
102
RTVSPropertyOp26
 70
     1
102
RTVSPropertyOp27
 70
     1
102
RTVSPropertyOp28
 70
     1
102
RTVSPropertyOp29
 70
     1
102
RTVSPropertyOp30
 70
     1
102
RTVSPropertyOp31
 70
     1
102
RTVSPropertyOp32
 70
     1
102
RTVSPropertyOp33
 70
     1
102
RTVSPropertyOp34
 70
     1
102
RTVSPropertyOp35
 70
     1
102
RTVSPropertyOp36
 70
     1
102
RTVSPropertyOp37
 70
     1
102
RTVSPropertyOp38
 70
     1
102
RTVSPropertyOp39
 70
     1
102
RTVSPropertyOp40
 70
     1
102
RTVSPropertyOp41
 70
     1
102
RTVSPropertyOp42
 70
     1
102
RTVSPropertyOp43
 70
     1
102
RTVSPropertyOp44
 70
     1
102
RTVSPropertyOp45
 70
     1
102
RTVSPropertyOp46
 70
     1
102
RTVSPropertyOp47
 70
     1
102
RTVSPropertyOp48
 70
     1
102
RTVSPropertyOp49
 70
     1
102
RTVSPropertyOp50
 70
     1
102
RTVSPropertyOp51
 70
     0
102
RTVSPropertyOp52
 70
     0
102
RTVSPropertyOp53
 70
     1
102
RTVSPropertyOp54
 70
     1
102
RTVSPropertyOp55
 70
     1
102
RTVSPropertyOp56
 70
     1
102
RTVSPropertyOp57
 70
     1
102
RTVSPropertyOp58
 70
     1
102
RTVSPropertyOp59
 70
     1
102
RTVSPropertyOp60
 70
     1
102
RTVSPropertyOp61
 70
     1
102
RTVSPropertyOp62
 70
     1
  0
XRECORD
  5
3BC
102
{ACAD_REACTORS
330
3BB
102
}
330
3BB
100
AcDbXrecord
280
     1
102
RTVSPost2010Prop28
280
     0
102
RTVSPost2010PropOp28
 70
     1
102
RTVSPost2010Prop29
280
     1
102
RTVSPost2010PropOp29
 70
     1
102
RTVSPost2010Prop30
280
     1
102
RTVSPost2010PropOp30
 70
     1
102
RTVSPost2010Prop31
280
     0
102
RTVSPost2010PropOp31
 70
     1
102
RTVSPost2010Prop32
280
     0
102
RTVSPost2010PropOp32
 70
     1
102
RTVSPost2010Prop33
280
     0
102
RTVSPost2010PropOp33
 70
     1
102
RTVSPost2010Prop34
280
     0
102
RTVSPost2010PropOp34
 70
     1
102
RTVSPost2010Prop35
280
     0
102
RTVSPost2010PropOp35
 70
     1
102
RTVSPost2010Prop36
280
     0
102
RTVSPost2010PropOp36
 70
     1
102
RTVSPost2010Prop37
 90
       50
102
RTVSPost2010PropOp37
 70
     1
102
RTVSPost2010Prop38
140
0.0
102
RTVSPost2010PropOp38
 70
     1
102
RTVSPost2010Prop39
140
1.0
102
RTVSPost2010PropOp39
 70
     1
102
RTVSPost2010Prop40
 90
        0
102
RTVSPost2010PropOp40
 70
     1
102
RTVSPost2010Prop41ColorIndex
 90
       18
102
RTVSPost2010Prop41ColorRGB
 90
        0
102
RTVSPost2010PropOp41
 70
     1
102
RTVSPost2010Prop42
 90
       50
102
RTVSPost2010PropOp42
 70
     1
102
RTVSPost2010Prop43
 90
        3
102
RTVSPost2010PropOp43
 70
     1
102
RTVSPost2010Prop44ColorIndex
 90
        5
102
RTVSPost2010Prop44ColorRGB
 90
      255
102
RTVSPost2010PropOp44
 70
     1
102
RTVSPost2010Prop45
280
     0
102
RTVSPost2010PropOp45
 70
     1
102
RTVSPost2010Prop46
 90
       50
102
RTVSPost2010PropOp46
 70
     1
102
RTVSPost2010Prop47
 90
       50
102
RTVSPost2010PropOp47
 70
     1
102
RTVSPost2010Prop48
 90
       50
102
RTVSPost2010PropOp48
 70
     1
102
RTVSPost2010Prop49
280
     0
102
RTVSPost2010PropOp49
 70
     1
102
RTVSPost2010Prop50
 90
       50
102
RTVSPost2010PropOp50
 70
     1
102
RTVSPost2010Prop51ColorIndex
 90
      256
102
RTVSPost2010Prop51ColorRGB
 90
-16777216
102
RTVSPost2010PropOp51
 70
     0
102
RTVSPost2010Prop52
140
1.0
102
RTVSPost2010PropOp52
 70
     0
102
RTVSPost2010Prop53
 90
        2
102
RTVSPost2010PropOp53
 70
     1
102
RTVSPost2010Prop54
  1
strokes_ogs.tif
102
RTVSPost2010PropOp54
 70
     1
102
RTVSPost2010Prop55
280
     0
102
RTVSPost2010PropOp55
 70
     1
102
RTVSPost2010Prop56
140
1.0
102
RTVSPost2010PropOp56
 70
     1
102
RTVSPost2010Prop57
140
1.0
102
RTVSPost2010PropOp57
 70
     1
102
RTVSPropertyOp0
 70
     1
102
RTVSPropertyOp1
 70
     1
102
RTVSPropertyOp2
 70
     1
102
RTVSPropertyOp3
 70
     1
102
RTVSPropertyOp4
 70
     1
102
RTVSPropertyOp5
 70
     1
102
RTVSPropertyOp6
 70
     1
102
RTVSPropertyOp7
 70
     1
102
RTVSPropertyOp8
 70
     1
102
RTVSPropertyOp9
 70
     1
102
RTVSPropertyOp10
 70
     1
102
RTVSPropertyOp11
 70
     1
102
RTVSPropertyOp12
 70
     1
102
RTVSPropertyOp13
 70
     1
102
RTVSPropertyOp14
 70
     1
102
RTVSPropertyOp15
 70
     1
102
RTVSPropertyOp16
 70
     1
102
RTVSPropertyOp17
 70
     1
102
RTVSPropertyOp18
 70
     1
102
RTVSPropertyOp19
 70
     1
102
RTVSPropertyOp20
 70
     1
102
RTVSPropertyOp21
 70
     1
102
RTVSPropertyOp22
 70
     1
102
RTVSPropertyOp23
 70
     1
102
RTVSPropertyOp24
 70
     1
102
RTVSPropertyOp25
 70
     1
102
RTVSPropertyOp26
 70
     1
102
RTVSPropertyOp27
 70
     1
102
RTVSPropertyOp28
 70
     1
102
RTVSPropertyOp29
 70
     1
102
RTVSPropertyOp30
 70
     1
102
RTVSPropertyOp31
 70
     1
102
RTVSPropertyOp32
 70
     1
102
RTVSPropertyOp33
 70
     1
102
RTVSPropertyOp34
 70
     1
102
RTVSPropertyOp35
 70
     1
102
RTVSPropertyOp36
 70
     1
102
RTVSPropertyOp37
 70
     1
102
RTVSPropertyOp38
 70
     1
102
RTVSPropertyOp39
 70
     1
102
RTVSPropertyOp40
 70
     1
102
RTVSPropertyOp41
 70
     1
102
RTVSPropertyOp42
 70
     1
102
RTVSPropertyOp43
 70
     1
102
RTVSPropertyOp44
 70
     1
102
RTVSPropertyOp45
 70
     1
102
RTVSPropertyOp46
 70
     1
102
RTVSPropertyOp47
 70
     1
102
RTVSPropertyOp48
 70
     1
102
RTVSPropertyOp49
 70
     1
102
RTVSPropertyOp50
 70
     1
102
RTVSPropertyOp51
 70
     0
102
RTVSPropertyOp52
 70
     0
102
RTVSPropertyOp53
 70
     1
102
RTVSPropertyOp54
 70
     1
102
RTVSPropertyOp55
 70
     1
102
RTVSPropertyOp56
 70
     1
102
RTVSPropertyOp57
 70
     1
102
RTVSPropertyOp58
 70
     1
102
RTVSPropertyOp59
 70
     1
102
RTVSPropertyOp60
 70
     1
102
RTVSPropertyOp61
 70
     1
102
RTVSPropertyOp62
 70
     1
  0
XRECORD
  5
3D0
102
{ACAD_REACTORS
330
3CF
102
}
330
3CF
100
AcDbXrecord
280
     1
102
RTVSPost2010Prop28
280
     0
102
RTVSPost2010PropOp28
 70
     0
102
RTVSPost2010Prop29
280
     1
102
RTVSPost2010PropOp29
 70
     0
102
RTVSPost2010Prop30
280
     1
102
RTVSPost2010PropOp30
 70
     0
102
RTVSPost2010Prop31
280
     0
102
RTVSPost2010PropOp31
 70
     0
102
RTVSPost2010Prop32
280
     0
102
RTVSPost2010PropOp32
 70
     0
102
RTVSPost2010Prop33
280
     0
102
RTVSPost2010PropOp33
 70
     0
102
RTVSPost2010Prop34
280
     0
102
RTVSPost2010PropOp34
 70
     0
102
RTVSPost2010Prop35
280
     0
102
RTVSPost2010PropOp35
 70
     0
102
RTVSPost2010Prop36
280
     0
102
RTVSPost2010PropOp36
 70
     0
102
RTVSPost2010Prop37
 90
       50
102
RTVSPost2010PropOp37
 70
     0
102
RTVSPost2010Prop38
140
0.0
102
RTVSPost2010PropOp38
 70
     0
102
RTVSPost2010Prop39
140
1.0
102
RTVSPost2010PropOp39
 70
     0
102
RTVSPost2010Prop40
 90
        0
102
RTVSPost2010PropOp40
 70
     0
102
RTVSPost2010Prop41ColorIndex
 90
       18
102
RTVSPost2010Prop41ColorRGB
 90
        0
102
RTVSPost2010PropOp41
 70
     0
102
RTVSPost2010Prop42
 90
       50
102
RTVSPost2010PropOp42
 70
     0
102
RTVSPost2010Prop43
 90
        3
102
RTVSPost2010PropOp43
 70
     0
102
RTVSPost2010Prop44ColorIndex
 90
        5
102
RTVSPost2010Prop44ColorRGB
 90
      255
102
RTVSPost2010PropOp44
 70
     0
102
RTVSPost2010Prop45
280
     0
102
RTVSPost2010PropOp45
 70
     0
102
RTVSPost2010Prop46
 90
       50
102
RTVSPost2010PropOp46
 70
     0
102
RTVSPost2010Prop47
 90
       50
102
RTVSPost2010PropOp47
 70
     0
102
RTVSPost2010Prop48
 90
       50
102
RTVSPost2010PropOp48
 70
     0
102
RTVSPost2010Prop49
280
     0
102
RTVSPost2010PropOp49
 70
     0
102
RTVSPost2010Prop50
 90
       50
102
RTVSPost2010PropOp50
 70
     0
102
RTVSPost2010Prop51ColorIndex
 90
      256
102
RTVSPost2010Prop51ColorRGB
 90
-16777216
102
RTVSPost2010PropOp51
 70
     0
102
RTVSPost2010Prop52
140
1.0
102
RTVSPost2010PropOp52
 70
     0
102
RTVSPost2010Prop53
 90
        2
102
RTVSPost2010PropOp53
 70
     0
102
RTVSPost2010Prop54
  1
strokes_ogs.tif
102
RTVSPost2010PropOp54
 70
     0
102
RTVSPost2010Prop55
280
     0
102
RTVSPost2010PropOp55
 70
     0
102
RTVSPost2010Prop56
140
1.0
102
RTVSPost2010PropOp56
 70
     0
102
RTVSPost2010Prop57
140
1.0
102
RTVSPost2010PropOp57
 70
     0
102
RTVSPropertyOp0
 70
     0
102
RTVSPropertyOp1
 70
     0
102
RTVSPropertyOp2
 70
     0
102
RTVSPropertyOp3
 70
     0
102
RTVSPropertyOp4
 70
     0
102
RTVSPropertyOp5
 70
     0
102
RTVSPropertyOp6
 70
     0
102
RTVSPropertyOp7
 70
     0
102
RTVSPropertyOp8
 70
     0
102
RTVSPropertyOp9
 70
     0
102
RTVSPropertyOp10
 70
     0
102
RTVSPropertyOp11
 70
     0
102
RTVSPropertyOp12
 70
     0
102
RTVSPropertyOp13
 70
     0
102
RTVSPropertyOp14
 70
     2
102
RTVSPropertyOp15
 70
     0
102
RTVSPropertyOp16
 70
     0
102
RTVSPropertyOp17
 70
     0
102
RTVSPropertyOp18
 70
     0
102
RTVSPropertyOp19
 70
     0
102
RTVSPropertyOp20
 70
     0
102
RTVSPropertyOp21
 70
     0
102
RTVSPropertyOp22
 70
     0
102
RTVSPropertyOp23
 70
     0
102
RTVSPropertyOp24
 70
     0
102
RTVSPropertyOp25
 70
     0
102
RTVSPropertyOp26
 70
     0
102
RTVSPropertyOp27
 70
     0
102
RTVSPropertyOp28
 70
     0
102
RTVSPropertyOp29
 70
     0
102
RTVSPropertyOp30
 70
     0
102
RTVSPropertyOp31
 70
     0
102
RTVSPropertyOp32
 70
     0
102
RTVSPropertyOp33
 70
     0
102
RTVSPropertyOp34
 70
     0
102
RTVSPropertyOp35
 70
     0
102
RTVSPropertyOp36
 70
     0
102
RTVSPropertyOp37
 70
     0
102
RTVSPropertyOp38
 70
     0
102
RTVSPropertyOp39
 70
     0
102
RTVSPropertyOp40
 70
     0
102
RTVSPropertyOp41
 70
     0
102
RTVSPropertyOp42
 70
     0
102
RTVSPropertyOp43
 70
     0
102
RTVSPropertyOp44
 70
     0
102
RTVSPropertyOp45
 70
     0
102
RTVSPropertyOp46
 70
     0
102
RTVSPropertyOp47
 70
     0
102
RTVSPropertyOp48
 70
     0
102
RTVSPropertyOp49
 70
     0
102
RTVSPropertyOp50
 70
     0
102
RTVSPropertyOp51
 70
     0
102
RTVSPropertyOp52
 70
     0
102
RTVSPropertyOp53
 70
     0
102
RTVSPropertyOp54
 70
     0
102
RTVSPropertyOp55
 70
     0
102
RTVSPropertyOp56
 70
     0
102
RTVSPropertyOp57
 70
     0
102
RTVSPropertyOp58
 70
     1
102
RTVSPropertyOp59
 70
     1
102
RTVSPropertyOp60
 70
     1
102
RTVSPropertyOp61
 70
     1
102
RTVSPropertyOp62
 70
     1
  0
XRECORD
  5
3CA
102
{ACAD_REACTORS
330
3C9
102
}
330
3C9
100
AcDbXrecord
280
     1
102
RTVSPost2010Prop28
280
     0
102
RTVSPost2010PropOp28
 70
     1
102
RTVSPost2010Prop29
280
     1
102
RTVSPost2010PropOp29
 70
     1
102
RTVSPost2010Prop30
280
     1
102
RTVSPost2010PropOp30
 70
     1
102
RTVSPost2010Prop31
280
     0
102
RTVSPost2010PropOp31
 70
     1
102
RTVSPost2010Prop32
280
     0
102
RTVSPost2010PropOp32
 70
     1
102
RTVSPost2010Prop33
280
     0
102
RTVSPost2010PropOp33
 70
     1
102
RTVSPost2010Prop34
280
     0
102
RTVSPost2010PropOp34
 70
     1
102
RTVSPost2010Prop35
280
     0
102
RTVSPost2010PropOp35
 70
     1
102
RTVSPost2010Prop36
280
     0
102
RTVSPost2010PropOp36
 70
     1
102
RTVSPost2010Prop37
 90
       50
102
RTVSPost2010PropOp37
 70
     1
102
RTVSPost2010Prop38
140
0.0
102
RTVSPost2010PropOp38
 70
     1
102
RTVSPost2010Prop39
140
1.0
102
RTVSPost2010PropOp39
 70
     1
102
RTVSPost2010Prop40
 90
        0
102
RTVSPost2010PropOp40
 70
     1
102
RTVSPost2010Prop41ColorIndex
 90
       18
102
RTVSPost2010Prop41ColorRGB
 90
        0
102
RTVSPost2010PropOp41
 70
     1
102
RTVSPost2010Prop42
 90
       50
102
RTVSPost2010PropOp42
 70
     1
102
RTVSPost2010Prop43
 90
        3
102
RTVSPost2010PropOp43
 70
     1
102
RTVSPost2010Prop44ColorIndex
 90
        5
102
RTVSPost2010Prop44ColorRGB
 90
      255
102
RTVSPost2010PropOp44
 70
     1
102
RTVSPost2010Prop45
280
     0
102
RTVSPost2010PropOp45
 70
     1
102
RTVSPost2010Prop46
 90
       50
102
RTVSPost2010PropOp46
 70
     1
102
RTVSPost2010Prop47
 90
       50
102
RTVSPost2010PropOp47
 70
     1
102
RTVSPost2010Prop48
 90
       50
102
RTVSPost2010PropOp48
 70
     1
102
RTVSPost2010Prop49
280
     0
102
RTVSPost2010PropOp49
 70
     1
102
RTVSPost2010Prop50
 90
       50
102
RTVSPost2010PropOp50
 70
     1
102
RTVSPost2010Prop51ColorIndex
 90
      256
102
RTVSPost2010Prop51ColorRGB
 90
-16777216
102
RTVSPost2010PropOp51
 70
     0
102
RTVSPost2010Prop52
140
1.0
102
RTVSPost2010PropOp52
 70
     0
102
RTVSPost2010Prop53
 90
        2
102
RTVSPost2010PropOp53
 70
     1
102
RTVSPost2010Prop54
  1
strokes_ogs.tif
102
RTVSPost2010PropOp54
 70
     1
102
RTVSPost2010Prop55
280
     0
102
RTVSPost2010PropOp55
 70
     1
102
RTVSPost2010Prop56
140
1.0
102
RTVSPost2010PropOp56
 70
     1
102
RTVSPost2010Prop57
140
1.0
102
RTVSPost2010PropOp57
 70
     1
102
RTVSPropertyOp0
 70
     1
102
RTVSPropertyOp1
 70
     1
102
RTVSPropertyOp2
 70
     1
102
RTVSPropertyOp3
 70
     1
102
RTVSPropertyOp4
 70
     1
102
RTVSPropertyOp5
 70
     1
102
RTVSPropertyOp6
 70
     1
102
RTVSPropertyOp7
 70
     1
102
RTVSPropertyOp8
 70
     1
102
RTVSPropertyOp9
 70
     1
102
RTVSPropertyOp10
 70
     1
102
RTVSPropertyOp11
 70
     1
102
RTVSPropertyOp12
 70
     1
102
RTVSPropertyOp13
 70
     1
102
RTVSPropertyOp14
 70
     1
102
RTVSPropertyOp15
 70
     1
102
RTVSPropertyOp16
 70
     1
102
RTVSPropertyOp17
 70
     1
102
RTVSPropertyOp18
 70
     1
102
RTVSPropertyOp19
 70
     1
102
RTVSPropertyOp20
 70
     1
102
RTVSPropertyOp21
 70
     1
102
RTVSPropertyOp22
 70
     1
102
RTVSPropertyOp23
 70
     1
102
RTVSPropertyOp24
 70
     1
102
RTVSPropertyOp25
 70
     1
102
RTVSPropertyOp26
 70
     1
102
RTVSPropertyOp27
 70
     1
102
RTVSPropertyOp28
 70
     1
102
RTVSPropertyOp29
 70
     1
102
RTVSPropertyOp30
 70
     1
102
RTVSPropertyOp31
 70
     1
102
RTVSPropertyOp32
 70
     1
102
RTVSPropertyOp33
 70
     1
102
RTVSPropertyOp34
 70
     1
102
RTVSPropertyOp35
 70
     1
102
RTVSPropertyOp36
 70
     1
102
RTVSPropertyOp37
 70
     1
102
RTVSPropertyOp38
 70
     1
102
RTVSPropertyOp39
 70
     1
102
RTVSPropertyOp40
 70
     1
102
RTVSPropertyOp41
 70
     1
102
RTVSPropertyOp42
 70
     1
102
RTVSPropertyOp43
 70
     1
102
RTVSPropertyOp44
 70
     1
102
RTVSPropertyOp45
 70
     1
102
RTVSPropertyOp46
 70
     1
102
RTVSPropertyOp47
 70
     1
102
RTVSPropertyOp48
 70
     1
102
RTVSPropertyOp49
 70
     1
102
RTVSPropertyOp50
 70
     1
102
RTVSPropertyOp51
 70
     0
102
RTVSPropertyOp52
 70
     0
102
RTVSPropertyOp53
 70
     1
102
RTVSPropertyOp54
 70
     1
102
RTVSPropertyOp55
 70
     1
102
RTVSPropertyOp56
 70
     1
102
RTVSPropertyOp57
 70
     1
102
RTVSPropertyOp58
 70
     1
102
RTVSPropertyOp59
 70
     1
102
RTVSPropertyOp60
 70
     1
102
RTVSPropertyOp61
 70
     1
102
RTVSPropertyOp62
 70
     1
  0
XRECORD
  5
3D2
102
{ACAD_REACTORS
330
3D1
102
}
330
3D1
100
AcDbXrecord
280
     1
102
RTVSPost2010Prop28
280
     0
102
RTVSPost2010PropOp28
 70
     0
102
RTVSPost2010Prop29
280
     1
102
RTVSPost2010PropOp29
 70
     0
102
RTVSPost2010Prop30
280
     1
102
RTVSPost2010PropOp30
 70
     0
102
RTVSPost2010Prop31
280
     0
102
RTVSPost2010PropOp31
 70
     0
102
RTVSPost2010Prop32
280
     0
102
RTVSPost2010PropOp32
 70
     0
102
RTVSPost2010Prop33
280
     0
102
RTVSPost2010PropOp33
 70
     0
102
RTVSPost2010Prop34
280
     0
102
RTVSPost2010PropOp34
 70
     0
102
RTVSPost2010Prop35
280
     0
102
RTVSPost2010PropOp35
 70
     0
102
RTVSPost2010Prop36
280
     0
102
RTVSPost2010PropOp36
 70
     0
102
RTVSPost2010Prop37
 90
       50
102
RTVSPost2010PropOp37
 70
     0
102
RTVSPost2010Prop38
140
0.0
102
RTVSPost2010PropOp38
 70
     0
102
RTVSPost2010Prop39
140
1.0
102
RTVSPost2010PropOp39
 70
     0
102
RTVSPost2010Prop40
 90
        0
102
RTVSPost2010PropOp40
 70
     0
102
RTVSPost2010Prop41ColorIndex
 90
       18
102
RTVSPost2010Prop41ColorRGB
 90
        0
102
RTVSPost2010PropOp41
 70
     0
102
RTVSPost2010Prop42
 90
       50
102
RTVSPost2010PropOp42
 70
     0
102
RTVSPost2010Prop43
 90
        3
102
RTVSPost2010PropOp43
 70
     0
102
RTVSPost2010Prop44ColorIndex
 90
        5
102
RTVSPost2010Prop44ColorRGB
 90
      255
102
RTVSPost2010PropOp44
 70
     0
102
RTVSPost2010Prop45
280
     0
102
RTVSPost2010PropOp45
 70
     0
102
RTVSPost2010Prop46
 90
       50
102
RTVSPost2010PropOp46
 70
     0
102
RTVSPost2010Prop47
 90
       50
102
RTVSPost2010PropOp47
 70
     0
102
RTVSPost2010Prop48
 90
       50
102
RTVSPost2010PropOp48
 70
     0
102
RTVSPost2010Prop49
280
     0
102
RTVSPost2010PropOp49
 70
     0
102
RTVSPost2010Prop50
 90
       50
102
RTVSPost2010PropOp50
 70
     0
102
RTVSPost2010Prop51ColorIndex
 90
      256
102
RTVSPost2010Prop51ColorRGB
 90
-16777216
102
RTVSPost2010PropOp51
 70
     0
102
RTVSPost2010Prop52
140
1.0
102
RTVSPost2010PropOp52
 70
     0
102
RTVSPost2010Prop53
 90
        2
102
RTVSPost2010PropOp53
 70
     0
102
RTVSPost2010Prop54
  1
strokes_ogs.tif
102
RTVSPost2010PropOp54
 70
     0
102
RTVSPost2010Prop55
280
     0
102
RTVSPost2010PropOp55
 70
     0
102
RTVSPost2010Prop56
140
1.0
102
RTVSPost2010PropOp56
 70
     0
102
RTVSPost2010Prop57
140
1.0
102
RTVSPost2010PropOp57
 70
     0
102
RTVSPropertyOp0
 70
     0
102
RTVSPropertyOp1
 70
     0
102
RTVSPropertyOp2
 70
     0
102
RTVSPropertyOp3
 70
     0
102
RTVSPropertyOp4
 70
     0
102
RTVSPropertyOp5
 70
     0
102
RTVSPropertyOp6
 70
     0
102
RTVSPropertyOp7
 70
     0
102
RTVSPropertyOp8
 70
     0
102
RTVSPropertyOp9
 70
     0
102
RTVSPropertyOp10
 70
     0
102
RTVSPropertyOp11
 70
     0
102
RTVSPropertyOp12
 70
     0
102
RTVSPropertyOp13
 70
     0
102
RTVSPropertyOp14
 70
     2
102
RTVSPropertyOp15
 70
     0
102
RTVSPropertyOp16
 70
     0
102
RTVSPropertyOp17
 70
     0
102
RTVSPropertyOp18
 70
     0
102
RTVSPropertyOp19
 70
     0
102
RTVSPropertyOp20
 70
     0
102
RTVSPropertyOp21
 70
     0
102
RTVSPropertyOp22
 70
     0
102
RTVSPropertyOp23
 70
     0
102
RTVSPropertyOp24
 70
     0
102
RTVSPropertyOp25
 70
     0
102
RTVSPropertyOp26
 70
     0
102
RTVSPropertyOp27
 70
     0
102
RTVSPropertyOp28
 70
     0
102
RTVSPropertyOp29
 70
     0
102
RTVSPropertyOp30
 70
     0
102
RTVSPropertyOp31
 70
     0
102
RTVSPropertyOp32
 70
     0
102
RTVSPropertyOp33
 70
     0
102
RTVSPropertyOp34
 70
     0
102
RTVSPropertyOp35
 70
     0
102
RTVSPropertyOp36
 70
     0
102
RTVSPropertyOp37
 70
     0
102
RTVSPropertyOp38
 70
     0
102
RTVSPropertyOp39
 70
     0
102
RTVSPropertyOp40
 70
     0
102
RTVSPropertyOp41
 70
     0
102
RTVSPropertyOp42
 70
     0
102
RTVSPropertyOp43
 70
     0
102
RTVSPropertyOp44
 70
     0
102
RTVSPropertyOp45
 70
     0
102
RTVSPropertyOp46
 70
     0
102
RTVSPropertyOp47
 70
     0
102
RTVSPropertyOp48
 70
     0
102
RTVSPropertyOp49
 70
     0
102
RTVSPropertyOp50
 70
     0
102
RTVSPropertyOp51
 70
     0
102
RTVSPropertyOp52
 70
     0
102
RTVSPropertyOp53
 70
     0
102
RTVSPropertyOp54
 70
     0
102
RTVSPropertyOp55
 70
     0
102
RTVSPropertyOp56
 70
     0
102
RTVSPropertyOp57
 70
     0
102
RTVSPropertyOp58
 70
     1
102
RTVSPropertyOp59
 70
     1
102
RTVSPropertyOp60
 70
     1
102
RTVSPropertyOp61
 70
     1
102
RTVSPropertyOp62
 70
     1
  0
XRECORD
  5
3C0
102
{ACAD_REACTORS
330
3BF
102
}
330
3BF
100
AcDbXrecord
280
     1
102
RTVSPost2010Prop28
280
     0
102
RTVSPost2010PropOp28
 70
     1
102
RTVSPost2010Prop29
280
     1
102
RTVSPost2010PropOp29
 70
     1
102
RTVSPost2010Prop30
280
     1
102
RTVSPost2010PropOp30
 70
     1
102
RTVSPost2010Prop31
280
     0
102
RTVSPost2010PropOp31
 70
     1
102
RTVSPost2010Prop32
280
     0
102
RTVSPost2010PropOp32
 70
     1
102
RTVSPost2010Prop33
280
     0
102
RTVSPost2010PropOp33
 70
     1
102
RTVSPost2010Prop34
280
     0
102
RTVSPost2010PropOp34
 70
     1
102
RTVSPost2010Prop35
280
     0
102
RTVSPost2010PropOp35
 70
     1
102
RTVSPost2010Prop36
280
     0
102
RTVSPost2010PropOp36
 70
     1
102
RTVSPost2010Prop37
 90
       50
102
RTVSPost2010PropOp37
 70
     1
102
RTVSPost2010Prop38
140
0.0
102
RTVSPost2010PropOp38
 70
     1
102
RTVSPost2010Prop39
140
1.0
102
RTVSPost2010PropOp39
 70
     1
102
RTVSPost2010Prop40
 90
        0
102
RTVSPost2010PropOp40
 70
     1
102
RTVSPost2010Prop41ColorIndex
 90
       18
102
RTVSPost2010Prop41ColorRGB
 90
        0
102
RTVSPost2010PropOp41
 70
     1
102
RTVSPost2010Prop42
 90
       50
102
RTVSPost2010PropOp42
 70
     1
102
RTVSPost2010Prop43
 90
        3
102
RTVSPost2010PropOp43
 70
     1
102
RTVSPost2010Prop44ColorIndex
 90
        5
102
RTVSPost2010Prop44ColorRGB
 90
      255
102
RTVSPost2010PropOp44
 70
     1
102
RTVSPost2010Prop45
280
     0
102
RTVSPost2010PropOp45
 70
     1
102
RTVSPost2010Prop46
 90
       50
102
RTVSPost2010PropOp46
 70
     1
102
RTVSPost2010Prop47
 90
       50
102
RTVSPost2010PropOp47
 70
     1
102
RTVSPost2010Prop48
 90
       50
102
RTVSPost2010PropOp48
 70
     1
102
RTVSPost2010Prop49
280
     0
102
RTVSPost2010PropOp49
 70
     1
102
RTVSPost2010Prop50
 90
       50
102
RTVSPost2010PropOp50
 70
     1
102
RTVSPost2010Prop51ColorIndex
 90
      256
102
RTVSPost2010Prop51ColorRGB
 90
-16777216
102
RTVSPost2010PropOp51
 70
     0
102
RTVSPost2010Prop52
140
1.0
102
RTVSPost2010PropOp52
 70
     0
102
RTVSPost2010Prop53
 90
        2
102
RTVSPost2010PropOp53
 70
     1
102
RTVSPost2010Prop54
  1
strokes_ogs.tif
102
RTVSPost2010PropOp54
 70
     1
102
RTVSPost2010Prop55
280
     0
102
RTVSPost2010PropOp55
 70
     1
102
RTVSPost2010Prop56
140
1.0
102
RTVSPost2010PropOp56
 70
     1
102
RTVSPost2010Prop57
140
1.0
102
RTVSPost2010PropOp57
 70
     1
102
RTVSPropertyOp0
 70
     1
102
RTVSPropertyOp1
 70
     1
102
RTVSPropertyOp2
 70
     1
102
RTVSPropertyOp3
 70
     1
102
RTVSPropertyOp4
 70
     1
102
RTVSPropertyOp5
 70
     1
102
RTVSPropertyOp6
 70
     1
102
RTVSPropertyOp7
 70
     1
102
RTVSPropertyOp8
 70
     1
102
RTVSPropertyOp9
 70
     1
102
RTVSPropertyOp10
 70
     1
102
RTVSPropertyOp11
 70
     1
102
RTVSPropertyOp12
 70
     1
102
RTVSPropertyOp13
 70
     1
102
RTVSPropertyOp14
 70
     1
102
RTVSPropertyOp15
 70
     1
102
RTVSPropertyOp16
 70
     1
102
RTVSPropertyOp17
 70
     1
102
RTVSPropertyOp18
 70
     1
102
RTVSPropertyOp19
 70
     1
102
RTVSPropertyOp20
 70
     1
102
RTVSPropertyOp21
 70
     1
102
RTVSPropertyOp22
 70
     1
102
RTVSPropertyOp23
 70
     1
102
RTVSPropertyOp24
 70
     1
102
RTVSPropertyOp25
 70
     1
102
RTVSPropertyOp26
 70
     1
102
RTVSPropertyOp27
 70
     1
102
RTVSPropertyOp28
 70
     1
102
RTVSPropertyOp29
 70
     1
102
RTVSPropertyOp30
 70
     1
102
RTVSPropertyOp31
 70
     1
102
RTVSPropertyOp32
 70
     1
102
RTVSPropertyOp33
 70
     1
102
RTVSPropertyOp34
 70
     1
102
RTVSPropertyOp35
 70
     1
102
RTVSPropertyOp36
 70
     1
102
RTVSPropertyOp37
 70
     1
102
RTVSPropertyOp38
 70
     1
102
RTVSPropertyOp39
 70
     1
102
RTVSPropertyOp40
 70
     1
102
RTVSPropertyOp41
 70
     1
102
RTVSPropertyOp42
 70
     1
102
RTVSPropertyOp43
 70
     1
102
RTVSPropertyOp44
 70
     1
102
RTVSPropertyOp45
 70
     1
102
RTVSPropertyOp46
 70
     1
102
RTVSPropertyOp47
 70
     1
102
RTVSPropertyOp48
 70
     1
102
RTVSPropertyOp49
 70
     1
102
RTVSPropertyOp50
 70
     1
102
RTVSPropertyOp51
 70
     0
102
RTVSPropertyOp52
 70
     0
102
RTVSPropertyOp53
 70
     1
102
RTVSPropertyOp54
 70
     1
102
RTVSPropertyOp55
 70
     1
102
RTVSPropertyOp56
 70
     1
102
RTVSPropertyOp57
 70
     1
102
RTVSPropertyOp58
 70
     1
102
RTVSPropertyOp59
 70
     1
102
RTVSPropertyOp60
 70
     1
102
RTVSPropertyOp61
 70
     1
102
RTVSPropertyOp62
 70
     1
  0
XRECORD
  5
3DE
102
{ACAD_REACTORS
330
3DD
102
}
330
3DD
100
AcDbXrecord
280
     1
102
RTVSPost2010Prop28
280
     0
102
RTVSPost2010PropOp28
 70
     1
102
RTVSPost2010Prop29
280
     1
102
RTVSPost2010PropOp29
 70
     1
102
RTVSPost2010Prop30
280
     1
102
RTVSPost2010PropOp30
 70
     1
102
RTVSPost2010Prop31
280
     0
102
RTVSPost2010PropOp31
 70
     1
102
RTVSPost2010Prop32
280
     0
102
RTVSPost2010PropOp32
 70
     1
102
RTVSPost2010Prop33
280
     0
102
RTVSPost2010PropOp33
 70
     1
102
RTVSPost2010Prop34
280
     0
102
RTVSPost2010PropOp34
 70
     1
102
RTVSPost2010Prop35
280
     0
102
RTVSPost2010PropOp35
 70
     1
102
RTVSPost2010Prop36
280
     0
102
RTVSPost2010PropOp36
 70
     1
102
RTVSPost2010Prop37
 90
       50
102
RTVSPost2010PropOp37
 70
     1
102
RTVSPost2010Prop38
140
0.0
102
RTVSPost2010PropOp38
 70
     1
102
RTVSPost2010Prop39
140
1.0
102
RTVSPost2010PropOp39
 70
     1
102
RTVSPost2010Prop40
 90
        0
102
RTVSPost2010PropOp40
 70
     1
102
RTVSPost2010Prop41ColorIndex
 90
       18
102
RTVSPost2010Prop41ColorRGB
 90
        0
102
RTVSPost2010PropOp41
 70
     1
102
RTVSPost2010Prop42
 90
       50
102
RTVSPost2010PropOp42
 70
     1
102
RTVSPost2010Prop43
 90
        3
102
RTVSPost2010PropOp43
 70
     1
102
RTVSPost2010Prop44ColorIndex
 90
        5
102
RTVSPost2010Prop44ColorRGB
 90
      255
102
RTVSPost2010PropOp44
 70
     1
102
RTVSPost2010Prop45
280
     0
102
RTVSPost2010PropOp45
 70
     1
102
RTVSPost2010Prop46
 90
       50
102
RTVSPost2010PropOp46
 70
     1
102
RTVSPost2010Prop47
 90
       50
102
RTVSPost2010PropOp47
 70
     1
102
RTVSPost2010Prop48
 90
       50
102
RTVSPost2010PropOp48
 70
     1
102
RTVSPost2010Prop49
280
     0
102
RTVSPost2010PropOp49
 70
     1
102
RTVSPost2010Prop50
 90
       50
102
RTVSPost2010PropOp50
 70
     1
102
RTVSPost2010Prop51ColorIndex
 90
      256
102
RTVSPost2010Prop51ColorRGB
 90
-16777216
102
RTVSPost2010PropOp51
 70
     0
102
RTVSPost2010Prop52
140
1.0
102
RTVSPost2010PropOp52
 70
     0
102
RTVSPost2010Prop53
 90
        2
102
RTVSPost2010PropOp53
 70
     1
102
RTVSPost2010Prop54
  1
strokes_ogs.tif
102
RTVSPost2010PropOp54
 70
     1
102
RTVSPost2010Prop55
280
     0
102
RTVSPost2010PropOp55
 70
     1
102
RTVSPost2010Prop56
140
1.0
102
RTVSPost2010PropOp56
 70
     1
102
RTVSPost2010Prop57
140
1.0
102
RTVSPost2010PropOp57
 70
     1
102
RTVSPropertyOp0
 70
     1
102
RTVSPropertyOp1
 70
     1
102
RTVSPropertyOp2
 70
     1
102
RTVSPropertyOp3
 70
     1
102
RTVSPropertyOp4
 70
     1
102
RTVSPropertyOp5
 70
     1
102
RTVSPropertyOp6
 70
     1
102
RTVSPropertyOp7
 70
     1
102
RTVSPropertyOp8
 70
     1
102
RTVSPropertyOp9
 70
     1
102
RTVSPropertyOp10
 70
     1
102
RTVSPropertyOp11
 70
     1
102
RTVSPropertyOp12
 70
     1
102
RTVSPropertyOp13
 70
     1
102
RTVSPropertyOp14
 70
     1
102
RTVSPropertyOp15
 70
     1
102
RTVSPropertyOp16
 70
     1
102
RTVSPropertyOp17
 70
     1
102
RTVSPropertyOp18
 70
     1
102
RTVSPropertyOp19
 70
     1
102
RTVSPropertyOp20
 70
     1
102
RTVSPropertyOp21
 70
     1
102
RTVSPropertyOp22
 70
     1
102
RTVSPropertyOp23
 70
     1
102
RTVSPropertyOp24
 70
     1
102
RTVSPropertyOp25
 70
     1
102
RTVSPropertyOp26
 70
     1
102
RTVSPropertyOp27
 70
     1
102
RTVSPropertyOp28
 70
     1
102
RTVSPropertyOp29
 70
     1
102
RTVSPropertyOp30
 70
     1
102
RTVSPropertyOp31
 70
     1
102
RTVSPropertyOp32
 70
     1
102
RTVSPropertyOp33
 70
     1
102
RTVSPropertyOp34
 70
     1
102
RTVSPropertyOp35
 70
     1
102
RTVSPropertyOp36
 70
     1
102
RTVSPropertyOp37
 70
     1
102
RTVSPropertyOp38
 70
     1
102
RTVSPropertyOp39
 70
     1
102
RTVSPropertyOp40
 70
     1
102
RTVSPropertyOp41
 70
     1
102
RTVSPropertyOp42
 70
     1
102
RTVSPropertyOp43
 70
     1
102
RTVSPropertyOp44
 70
     1
102
RTVSPropertyOp45
 70
     1
102
RTVSPropertyOp46
 70
     1
102
RTVSPropertyOp47
 70
     1
102
RTVSPropertyOp48
 70
     1
102
RTVSPropertyOp49
 70
     1
102
RTVSPropertyOp50
 70
     1
102
RTVSPropertyOp51
 70
     0
102
RTVSPropertyOp52
 70
     0
102
RTVSPropertyOp53
 70
     1
102
RTVSPropertyOp54
 70
     1
102
RTVSPropertyOp55
 70
     1
102
RTVSPropertyOp56
 70
     1
102
RTVSPropertyOp57
 70
     1
102
RTVSPropertyOp58
 70
     1
102
RTVSPropertyOp59
 70
     1
102
RTVSPropertyOp60
 70
     1
102
RTVSPropertyOp61
 70
     1
102
RTVSPropertyOp62
 70
     1
  0
XRECORD
  5
3DC
102
{ACAD_REACTORS
330
3DB
102
}
330
3DB
100
AcDbXrecord
280
     1
102
RTVSPost2010Prop28
280
     0
102
RTVSPost2010PropOp28
 70
     1
102
RTVSPost2010Prop29
280
     1
102
RTVSPost2010PropOp29
 70
     1
102
RTVSPost2010Prop30
280
     1
102
RTVSPost2010PropOp30
 70
     1
102
RTVSPost2010Prop31
280
     0
102
RTVSPost2010PropOp31
 70
     1
102
RTVSPost2010Prop32
280
     0
102
RTVSPost2010PropOp32
 70
     1
102
RTVSPost2010Prop33
280
     0
102
RTVSPost2010PropOp33
 70
     1
102
RTVSPost2010Prop34
280
     0
102
RTVSPost2010PropOp34
 70
     1
102
RTVSPost2010Prop35
280
     0
102
RTVSPost2010PropOp35
 70
     1
102
RTVSPost2010Prop36
280
     0
102
RTVSPost2010PropOp36
 70
     1
102
RTVSPost2010Prop37
 90
       50
102
RTVSPost2010PropOp37
 70
     1
102
RTVSPost2010Prop38
140
0.0
102
RTVSPost2010PropOp38
 70
     1
102
RTVSPost2010Prop39
140
1.0
102
RTVSPost2010PropOp39
 70
     1
102
RTVSPost2010Prop40
 90
        0
102
RTVSPost2010PropOp40
 70
     1
102
RTVSPost2010Prop41ColorIndex
 90
       18
102
RTVSPost2010Prop41ColorRGB
 90
        0
102
RTVSPost2010PropOp41
 70
     1
102
RTVSPost2010Prop42
 90
       50
102
RTVSPost2010PropOp42
 70
     1
102
RTVSPost2010Prop43
 90
        3
102
RTVSPost2010PropOp43
 70
     1
102
RTVSPost2010Prop44ColorIndex
 90
        5
102
RTVSPost2010Prop44ColorRGB
 90
      255
102
RTVSPost2010PropOp44
 70
     1
102
RTVSPost2010Prop45
280
     0
102
RTVSPost2010PropOp45
 70
     1
102
RTVSPost2010Prop46
 90
       50
102
RTVSPost2010PropOp46
 70
     1
102
RTVSPost2010Prop47
 90
       50
102
RTVSPost2010PropOp47
 70
     1
102
RTVSPost2010Prop48
 90
       50
102
RTVSPost2010PropOp48
 70
     1
102
RTVSPost2010Prop49
280
     0
102
RTVSPost2010PropOp49
 70
     1
102
RTVSPost2010Prop50
 90
       50
102
RTVSPost2010PropOp50
 70
     1
102
RTVSPost2010Prop51ColorIndex
 90
      256
102
RTVSPost2010Prop51ColorRGB
 90
-16777216
102
RTVSPost2010PropOp51
 70
     0
102
RTVSPost2010Prop52
140
1.0
102
RTVSPost2010PropOp52
 70
     0
102
RTVSPost2010Prop53
 90
        2
102
RTVSPost2010PropOp53
 70
     1
102
RTVSPost2010Prop54
  1
strokes_ogs.tif
102
RTVSPost2010PropOp54
 70
     1
102
RTVSPost2010Prop55
280
     0
102
RTVSPost2010PropOp55
 70
     1
102
RTVSPost2010Prop56
140
1.0
102
RTVSPost2010PropOp56
 70
     1
102
RTVSPost2010Prop57
140
1.0
102
RTVSPost2010PropOp57
 70
     1
102
RTVSPropertyOp0
 70
     1
102
RTVSPropertyOp1
 70
     1
102
RTVSPropertyOp2
 70
     1
102
RTVSPropertyOp3
 70
     1
102
RTVSPropertyOp4
 70
     1
102
RTVSPropertyOp5
 70
     1
102
RTVSPropertyOp6
 70
     1
102
RTVSPropertyOp7
 70
     1
102
RTVSPropertyOp8
 70
     1
102
RTVSPropertyOp9
 70
     1
102
RTVSPropertyOp10
 70
     1
102
RTVSPropertyOp11
 70
     1
102
RTVSPropertyOp12
 70
     1
102
RTVSPropertyOp13
 70
     1
102
RTVSPropertyOp14
 70
     1
102
RTVSPropertyOp15
 70
     1
102
RTVSPropertyOp16
 70
     1
102
RTVSPropertyOp17
 70
     1
102
RTVSPropertyOp18
 70
     1
102
RTVSPropertyOp19
 70
     1
102
RTVSPropertyOp20
 70
     1
102
RTVSPropertyOp21
 70
     1
102
RTVSPropertyOp22
 70
     1
102
RTVSPropertyOp23
 70
     1
102
RTVSPropertyOp24
 70
     1
102
RTVSPropertyOp25
 70
     1
102
RTVSPropertyOp26
 70
     1
102
RTVSPropertyOp27
 70
     1
102
RTVSPropertyOp28
 70
     1
102
RTVSPropertyOp29
 70
     1
102
RTVSPropertyOp30
 70
     1
102
RTVSPropertyOp31
 70
     1
102
RTVSPropertyOp32
 70
     1
102
RTVSPropertyOp33
 70
     1
102
RTVSPropertyOp34
 70
     1
102
RTVSPropertyOp35
 70
     1
102
RTVSPropertyOp36
 70
     1
102
RTVSPropertyOp37
 70
     1
102
RTVSPropertyOp38
 70
     1
102
RTVSPropertyOp39
 70
     1
102
RTVSPropertyOp40
 70
     1
102
RTVSPropertyOp41
 70
     1
102
RTVSPropertyOp42
 70
     1
102
RTVSPropertyOp43
 70
     1
102
RTVSPropertyOp44
 70
     1
102
RTVSPropertyOp45
 70
     1
102
RTVSPropertyOp46
 70
     1
102
RTVSPropertyOp47
 70
     1
102
RTVSPropertyOp48
 70
     1
102
RTVSPropertyOp49
 70
     1
102
RTVSPropertyOp50
 70
     1
102
RTVSPropertyOp51
 70
     0
102
RTVSPropertyOp52
 70
     0
102
RTVSPropertyOp53
 70
     1
102
RTVSPropertyOp54
 70
     1
102
RTVSPropertyOp55
 70
     1
102
RTVSPropertyOp56
 70
     1
102
RTVSPropertyOp57
 70
     1
102
RTVSPropertyOp58
 70
     1
102
RTVSPropertyOp59
 70
     1
102
RTVSPropertyOp60
 70
     1
102
RTVSPropertyOp61
 70
     1
102
RTVSPropertyOp62
 70
     1
  0
XRECORD
  5
3D6
102
{ACAD_REACTORS
330
3D5
102
}
330
3D5
100
AcDbXrecord
280
     1
102
RTVSPost2010Prop28
280
     0
102
RTVSPost2010PropOp28
 70
     1
102
RTVSPost2010Prop29
280
     1
102
RTVSPost2010PropOp29
 70
     1
102
RTVSPost2010Prop30
280
     1
102
RTVSPost2010PropOp30
 70
     1
102
RTVSPost2010Prop31
280
     0
102
RTVSPost2010PropOp31
 70
     1
102
RTVSPost2010Prop32
280
     0
102
RTVSPost2010PropOp32
 70
     1
102
RTVSPost2010Prop33
280
     0
102
RTVSPost2010PropOp33
 70
     1
102
RTVSPost2010Prop34
280
     0
102
RTVSPost2010PropOp34
 70
     1
102
RTVSPost2010Prop35
280
     0
102
RTVSPost2010PropOp35
 70
     1
102
RTVSPost2010Prop36
280
     0
102
RTVSPost2010PropOp36
 70
     1
102
RTVSPost2010Prop37
 90
       50
102
RTVSPost2010PropOp37
 70
     1
102
RTVSPost2010Prop38
140
0.0
102
RTVSPost2010PropOp38
 70
     1
102
RTVSPost2010Prop39
140
1.0
102
RTVSPost2010PropOp39
 70
     1
102
RTVSPost2010Prop40
 90
        0
102
RTVSPost2010PropOp40
 70
     1
102
RTVSPost2010Prop41ColorIndex
 90
       18
102
RTVSPost2010Prop41ColorRGB
 90
        0
102
RTVSPost2010PropOp41
 70
     1
102
RTVSPost2010Prop42
 90
       50
102
RTVSPost2010PropOp42
 70
     1
102
RTVSPost2010Prop43
 90
        3
102
RTVSPost2010PropOp43
 70
     1
102
RTVSPost2010Prop44ColorIndex
 90
        5
102
RTVSPost2010Prop44ColorRGB
 90
      255
102
RTVSPost2010PropOp44
 70
     1
102
RTVSPost2010Prop45
280
     0
102
RTVSPost2010PropOp45
 70
     1
102
RTVSPost2010Prop46
 90
       50
102
RTVSPost2010PropOp46
 70
     1
102
RTVSPost2010Prop47
 90
       50
102
RTVSPost2010PropOp47
 70
     1
102
RTVSPost2010Prop48
 90
       50
102
RTVSPost2010PropOp48
 70
     1
102
RTVSPost2010Prop49
280
     0
102
RTVSPost2010PropOp49
 70
     1
102
RTVSPost2010Prop50
 90
       50
102
RTVSPost2010PropOp50
 70
     1
102
RTVSPost2010Prop51ColorIndex
 90
      256
102
RTVSPost2010Prop51ColorRGB
 90
-16777216
102
RTVSPost2010PropOp51
 70
     0
102
RTVSPost2010Prop52
140
1.0
102
RTVSPost2010PropOp52
 70
     0
102
RTVSPost2010Prop53
 90
        2
102
RTVSPost2010PropOp53
 70
     1
102
RTVSPost2010Prop54
  1
strokes_ogs.tif
102
RTVSPost2010PropOp54
 70
     1
102
RTVSPost2010Prop55
280
     0
102
RTVSPost2010PropOp55
 70
     1
102
RTVSPost2010Prop56
140
1.0
102
RTVSPost2010PropOp56
 70
     1
102
RTVSPost2010Prop57
140
1.0
102
RTVSPost2010PropOp57
 70
     1
102
RTVSPropertyOp0
 70
     1
102
RTVSPropertyOp1
 70
     1
102
RTVSPropertyOp2
 70
     1
102
RTVSPropertyOp3
 70
     1
102
RTVSPropertyOp4
 70
     1
102
RTVSPropertyOp5
 70
     1
102
RTVSPropertyOp6
 70
     1
102
RTVSPropertyOp7
 70
     1
102
RTVSPropertyOp8
 70
     1
102
RTVSPropertyOp9
 70
     1
102
RTVSPropertyOp10
 70
     1
102
RTVSPropertyOp11
 70
     1
102
RTVSPropertyOp12
 70
     1
102
RTVSPropertyOp13
 70
     1
102
RTVSPropertyOp14
 70
     1
102
RTVSPropertyOp15
 70
     1
102
RTVSPropertyOp16
 70
     1
102
RTVSPropertyOp17
 70
     1
102
RTVSPropertyOp18
 70
     1
102
RTVSPropertyOp19
 70
     1
102
RTVSPropertyOp20
 70
     1
102
RTVSPropertyOp21
 70
     1
102
RTVSPropertyOp22
 70
     1
102
RTVSPropertyOp23
 70
     1
102
RTVSPropertyOp24
 70
     1
102
RTVSPropertyOp25
 70
     1
102
RTVSPropertyOp26
 70
     1
102
RTVSPropertyOp27
 70
     1
102
RTVSPropertyOp28
 70
     1
102
RTVSPropertyOp29
 70
     1
102
RTVSPropertyOp30
 70
     1
102
RTVSPropertyOp31
 70
     1
102
RTVSPropertyOp32
 70
     1
102
RTVSPropertyOp33
 70
     1
102
RTVSPropertyOp34
 70
     1
102
RTVSPropertyOp35
 70
     1
102
RTVSPropertyOp36
 70
     1
102
RTVSPropertyOp37
 70
     1
102
RTVSPropertyOp38
 70
     1
102
RTVSPropertyOp39
 70
     1
102
RTVSPropertyOp40
 70
     1
102
RTVSPropertyOp41
 70
     1
102
RTVSPropertyOp42
 70
     1
102
RTVSPropertyOp43
 70
     1
102
RTVSPropertyOp44
 70
     1
102
RTVSPropertyOp45
 70
     1
102
RTVSPropertyOp46
 70
     1
102
RTVSPropertyOp47
 70
     1
102
RTVSPropertyOp48
 70
     1
102
RTVSPropertyOp49
 70
     1
102
RTVSPropertyOp50
 70
     1
102
RTVSPropertyOp51
 70
     0
102
RTVSPropertyOp52
 70
     0
102
RTVSPropertyOp53
 70
     1
102
RTVSPropertyOp54
 70
     1
102
RTVSPropertyOp55
 70
     1
102
RTVSPropertyOp56
 70
     1
102
RTVSPropertyOp57
 70
     1
102
RTVSPropertyOp58
 70
     1
102
RTVSPropertyOp59
 70
     1
102
RTVSPropertyOp60
 70
     1
102
RTVSPropertyOp61
 70
     1
102
RTVSPropertyOp62
 70
     1
  0
XRECORD
  5
3D8
102
{ACAD_REACTORS
330
3D7
102
}
330
3D7
100
AcDbXrecord
280
     1
102
RTVSPost2010Prop28
280
     0
102
RTVSPost2010PropOp28
 70
     1
102
RTVSPost2010Prop29
280
     1
102
RTVSPost2010PropOp29
 70
     1
102
RTVSPost2010Prop30
280
     1
102
RTVSPost2010PropOp30
 70
     1
102
RTVSPost2010Prop31
280
     0
102
RTVSPost2010PropOp31
 70
     1
102
RTVSPost2010Prop32
280
     0
102
RTVSPost2010PropOp32
 70
     1
102
RTVSPost2010Prop33
280
     0
102
RTVSPost2010PropOp33
 70
     1
102
RTVSPost2010Prop34
280
     0
102
RTVSPost2010PropOp34
 70
     1
102
RTVSPost2010Prop35
280
     0
102
RTVSPost2010PropOp35
 70
     1
102
RTVSPost2010Prop36
280
     0
102
RTVSPost2010PropOp36
 70
     1
102
RTVSPost2010Prop37
 90
       50
102
RTVSPost2010PropOp37
 70
     1
102
RTVSPost2010Prop38
140
0.0
102
RTVSPost2010PropOp38
 70
     1
102
RTVSPost2010Prop39
140
1.0
102
RTVSPost2010PropOp39
 70
     1
102
RTVSPost2010Prop40
 90
        0
102
RTVSPost2010PropOp40
 70
     1
102
RTVSPost2010Prop41ColorIndex
 90
       18
102
RTVSPost2010Prop41ColorRGB
 90
        0
102
RTVSPost2010PropOp41
 70
     1
102
RTVSPost2010Prop42
 90
       50
102
RTVSPost2010PropOp42
 70
     1
102
RTVSPost2010Prop43
 90
        3
102
RTVSPost2010PropOp43
 70
     1
102
RTVSPost2010Prop44ColorIndex
 90
        5
102
RTVSPost2010Prop44ColorRGB
 90
      255
102
RTVSPost2010PropOp44
 70
     1
102
RTVSPost2010Prop45
280
     0
102
RTVSPost2010PropOp45
 70
     1
102
RTVSPost2010Prop46
 90
       50
102
RTVSPost2010PropOp46
 70
     1
102
RTVSPost2010Prop47
 90
       50
102
RTVSPost2010PropOp47
 70
     1
102
RTVSPost2010Prop48
 90
       50
102
RTVSPost2010PropOp48
 70
     1
102
RTVSPost2010Prop49
280
     0
102
RTVSPost2010PropOp49
 70
     1
102
RTVSPost2010Prop50
 90
       50
102
RTVSPost2010PropOp50
 70
     1
102
RTVSPost2010Prop51ColorIndex
 90
      256
102
RTVSPost2010Prop51ColorRGB
 90
-16777216
102
RTVSPost2010PropOp51
 70
     0
102
RTVSPost2010Prop52
140
1.0
102
RTVSPost2010PropOp52
 70
     0
102
RTVSPost2010Prop53
 90
        2
102
RTVSPost2010PropOp53
 70
     1
102
RTVSPost2010Prop54
  1
strokes_ogs.tif
102
RTVSPost2010PropOp54
 70
     1
102
RTVSPost2010Prop55
280
     0
102
RTVSPost2010PropOp55
 70
     1
102
RTVSPost2010Prop56
140
1.0
102
RTVSPost2010PropOp56
 70
     1
102
RTVSPost2010Prop57
140
1.0
102
RTVSPost2010PropOp57
 70
     1
102
RTVSPropertyOp0
 70
     1
102
RTVSPropertyOp1
 70
     1
102
RTVSPropertyOp2
 70
     1
102
RTVSPropertyOp3
 70
     1
102
RTVSPropertyOp4
 70
     1
102
RTVSPropertyOp5
 70
     1
102
RTVSPropertyOp6
 70
     1
102
RTVSPropertyOp7
 70
     1
102
RTVSPropertyOp8
 70
     1
102
RTVSPropertyOp9
 70
     1
102
RTVSPropertyOp10
 70
     1
102
RTVSPropertyOp11
 70
     1
102
RTVSPropertyOp12
 70
     1
102
RTVSPropertyOp13
 70
     1
102
RTVSPropertyOp14
 70
     1
102
RTVSPropertyOp15
 70
     1
102
RTVSPropertyOp16
 70
     1
102
RTVSPropertyOp17
 70
     1
102
RTVSPropertyOp18
 70
     1
102
RTVSPropertyOp19
 70
     1
102
RTVSPropertyOp20
 70
     1
102
RTVSPropertyOp21
 70
     1
102
RTVSPropertyOp22
 70
     1
102
RTVSPropertyOp23
 70
     1
102
RTVSPropertyOp24
 70
     1
102
RTVSPropertyOp25
 70
     1
102
RTVSPropertyOp26
 70
     1
102
RTVSPropertyOp27
 70
     1
102
RTVSPropertyOp28
 70
     1
102
RTVSPropertyOp29
 70
     1
102
RTVSPropertyOp30
 70
     1
102
RTVSPropertyOp31
 70
     1
102
RTVSPropertyOp32
 70
     1
102
RTVSPropertyOp33
 70
     1
102
RTVSPropertyOp34
 70
     1
102
RTVSPropertyOp35
 70
     1
102
RTVSPropertyOp36
 70
     1
102
RTVSPropertyOp37
 70
     1
102
RTVSPropertyOp38
 70
     1
102
RTVSPropertyOp39
 70
     1
102
RTVSPropertyOp40
 70
     1
102
RTVSPropertyOp41
 70
     1
102
RTVSPropertyOp42
 70
     1
102
RTVSPropertyOp43
 70
     1
102
RTVSPropertyOp44
 70
     1
102
RTVSPropertyOp45
 70
     1
102
RTVSPropertyOp46
 70
     1
102
RTVSPropertyOp47
 70
     1
102
RTVSPropertyOp48
 70
     1
102
RTVSPropertyOp49
 70
     1
102
RTVSPropertyOp50
 70
     1
102
RTVSPropertyOp51
 70
     0
102
RTVSPropertyOp52
 70
     0
102
RTVSPropertyOp53
 70
     1
102
RTVSPropertyOp54
 70
     1
102
RTVSPropertyOp55
 70
     1
102
RTVSPropertyOp56
 70
     1
102
RTVSPropertyOp57
 70
     1
102
RTVSPropertyOp58
 70
     1
102
RTVSPropertyOp59
 70
     1
102
RTVSPropertyOp60
 70
     1
102
RTVSPropertyOp61
 70
     1
102
RTVSPropertyOp62
 70
     1
  0
XRECORD
  5
3C8
102
{ACAD_REACTORS
330
3C7
102
}
330
3C7
100
AcDbXrecord
280
     1
102
RTVSPost2010Prop28
280
     0
102
RTVSPost2010PropOp28
 70
     1
102
RTVSPost2010Prop29
280
     1
102
RTVSPost2010PropOp29
 70
     1
102
RTVSPost2010Prop30
280
     1
102
RTVSPost2010PropOp30
 70
     1
102
RTVSPost2010Prop31
280
     0
102
RTVSPost2010PropOp31
 70
     1
102
RTVSPost2010Prop32
280
     0
102
RTVSPost2010PropOp32
 70
     1
102
RTVSPost2010Prop33
280
     0
102
RTVSPost2010PropOp33
 70
     1
102
RTVSPost2010Prop34
280
     0
102
RTVSPost2010PropOp34
 70
     1
102
RTVSPost2010Prop35
280
     0
102
RTVSPost2010PropOp35
 70
     1
102
RTVSPost2010Prop36
280
     0
102
RTVSPost2010PropOp36
 70
     1
102
RTVSPost2010Prop37
 90
       50
102
RTVSPost2010PropOp37
 70
     1
102
RTVSPost2010Prop38
140
0.0
102
RTVSPost2010PropOp38
 70
     1
102
RTVSPost2010Prop39
140
1.0
102
RTVSPost2010PropOp39
 70
     1
102
RTVSPost2010Prop40
 90
        0
102
RTVSPost2010PropOp40
 70
     1
102
RTVSPost2010Prop41ColorIndex
 90
       18
102
RTVSPost2010Prop41ColorRGB
 90
        0
102
RTVSPost2010PropOp41
 70
     1
102
RTVSPost2010Prop42
 90
       50
102
RTVSPost2010PropOp42
 70
     1
102
RTVSPost2010Prop43
 90
        3
102
RTVSPost2010PropOp43
 70
     1
102
RTVSPost2010Prop44ColorIndex
 90
        5
102
RTVSPost2010Prop44ColorRGB
 90
      255
102
RTVSPost2010PropOp44
 70
     1
102
RTVSPost2010Prop45
280
     0
102
RTVSPost2010PropOp45
 70
     1
102
RTVSPost2010Prop46
 90
       50
102
RTVSPost2010PropOp46
 70
     1
102
RTVSPost2010Prop47
 90
       50
102
RTVSPost2010PropOp47
 70
     1
102
RTVSPost2010Prop48
 90
       50
102
RTVSPost2010PropOp48
 70
     1
102
RTVSPost2010Prop49
280
     0
102
RTVSPost2010PropOp49
 70
     1
102
RTVSPost2010Prop50
 90
       50
102
RTVSPost2010PropOp50
 70
     1
102
RTVSPost2010Prop51ColorIndex
 90
      256
102
RTVSPost2010Prop51ColorRGB
 90
-16777216
102
RTVSPost2010PropOp51
 70
     0
102
RTVSPost2010Prop52
140
1.0
102
RTVSPost2010PropOp52
 70
     0
102
RTVSPost2010Prop53
 90
        2
102
RTVSPost2010PropOp53
 70
     1
102
RTVSPost2010Prop54
  1
strokes_ogs.tif
102
RTVSPost2010PropOp54
 70
     1
102
RTVSPost2010Prop55
280
     0
102
RTVSPost2010PropOp55
 70
     1
102
RTVSPost2010Prop56
140
1.0
102
RTVSPost2010PropOp56
 70
     1
102
RTVSPost2010Prop57
140
1.0
102
RTVSPost2010PropOp57
 70
     1
102
RTVSPropertyOp0
 70
     1
102
RTVSPropertyOp1
 70
     1
102
RTVSPropertyOp2
 70
     1
102
RTVSPropertyOp3
 70
     1
102
RTVSPropertyOp4
 70
     1
102
RTVSPropertyOp5
 70
     1
102
RTVSPropertyOp6
 70
     1
102
RTVSPropertyOp7
 70
     1
102
RTVSPropertyOp8
 70
     1
102
RTVSPropertyOp9
 70
     1
102
RTVSPropertyOp10
 70
     1
102
RTVSPropertyOp11
 70
     1
102
RTVSPropertyOp12
 70
     1
102
RTVSPropertyOp13
 70
     1
102
RTVSPropertyOp14
 70
     1
102
RTVSPropertyOp15
 70
     1
102
RTVSPropertyOp16
 70
     1
102
RTVSPropertyOp17
 70
     1
102
RTVSPropertyOp18
 70
     1
102
RTVSPropertyOp19
 70
     1
102
RTVSPropertyOp20
 70
     1
102
RTVSPropertyOp21
 70
     1
102
RTVSPropertyOp22
 70
     1
102
RTVSPropertyOp23
 70
     1
102
RTVSPropertyOp24
 70
     1
102
RTVSPropertyOp25
 70
     1
102
RTVSPropertyOp26
 70
     1
102
RTVSPropertyOp27
 70
     1
102
RTVSPropertyOp28
 70
     1
102
RTVSPropertyOp29
 70
     1
102
RTVSPropertyOp30
 70
     1
102
RTVSPropertyOp31
 70
     1
102
RTVSPropertyOp32
 70
     1
102
RTVSPropertyOp33
 70
     1
102
RTVSPropertyOp34
 70
     1
102
RTVSPropertyOp35
 70
     1
102
RTVSPropertyOp36
 70
     1
102
RTVSPropertyOp37
 70
     1
102
RTVSPropertyOp38
 70
     1
102
RTVSPropertyOp39
 70
     1
102
RTVSPropertyOp40
 70
     1
102
RTVSPropertyOp41
 70
     1
102
RTVSPropertyOp42
 70
     1
102
RTVSPropertyOp43
 70
     1
102
RTVSPropertyOp44
 70
     1
102
RTVSPropertyOp45
 70
     1
102
RTVSPropertyOp46
 70
     1
102
RTVSPropertyOp47
 70
     1
102
RTVSPropertyOp48
 70
     1
102
RTVSPropertyOp49
 70
     1
102
RTVSPropertyOp50
 70
     1
102
RTVSPropertyOp51
 70
     0
102
RTVSPropertyOp52
 70
     0
102
RTVSPropertyOp53
 70
     1
102
RTVSPropertyOp54
 70
     1
102
RTVSPropertyOp55
 70
     1
102
RTVSPropertyOp56
 70
     1
102
RTVSPropertyOp57
 70
     1
102
RTVSPropertyOp58
 70
     1
102
RTVSPropertyOp59
 70
     1
102
RTVSPropertyOp60
 70
     1
102
RTVSPropertyOp61
 70
     1
102
RTVSPropertyOp62
 70
     1
  0
XRECORD
  5
3BA
102
{ACAD_REACTORS
330
3B9
102
}
330
3B9
100
AcDbXrecord
280
     1
102
RTVSPost2010Prop28
280
     0
102
RTVSPost2010PropOp28
 70
     1
102
RTVSPost2010Prop29
280
     1
102
RTVSPost2010PropOp29
 70
     1
102
RTVSPost2010Prop30
280
     1
102
RTVSPost2010PropOp30
 70
     1
102
RTVSPost2010Prop31
280
     0
102
RTVSPost2010PropOp31
 70
     1
102
RTVSPost2010Prop32
280
     0
102
RTVSPost2010PropOp32
 70
     1
102
RTVSPost2010Prop33
280
     0
102
RTVSPost2010PropOp33
 70
     1
102
RTVSPost2010Prop34
280
     0
102
RTVSPost2010PropOp34
 70
     1
102
RTVSPost2010Prop35
280
     0
102
RTVSPost2010PropOp35
 70
     1
102
RTVSPost2010Prop36
280
     0
102
RTVSPost2010PropOp36
 70
     1
102
RTVSPost2010Prop37
 90
       50
102
RTVSPost2010PropOp37
 70
     1
102
RTVSPost2010Prop38
140
0.0
102
RTVSPost2010PropOp38
 70
     1
102
RTVSPost2010Prop39
140
1.0
102
RTVSPost2010PropOp39
 70
     1
102
RTVSPost2010Prop40
 90
        0
102
RTVSPost2010PropOp40
 70
     1
102
RTVSPost2010Prop41ColorIndex
 90
       18
102
RTVSPost2010Prop41ColorRGB
 90
        0
102
RTVSPost2010PropOp41
 70
     1
102
RTVSPost2010Prop42
 90
       50
102
RTVSPost2010PropOp42
 70
     1
102
RTVSPost2010Prop43
 90
        3
102
RTVSPost2010PropOp43
 70
     1
102
RTVSPost2010Prop44ColorIndex
 90
        5
102
RTVSPost2010Prop44ColorRGB
 90
      255
102
RTVSPost2010PropOp44
 70
     1
102
RTVSPost2010Prop45
280
     0
102
RTVSPost2010PropOp45
 70
     1
102
RTVSPost2010Prop46
 90
       50
102
RTVSPost2010PropOp46
 70
     1
102
RTVSPost2010Prop47
 90
       50
102
RTVSPost2010PropOp47
 70
     1
102
RTVSPost2010Prop48
 90
       50
102
RTVSPost2010PropOp48
 70
     1
102
RTVSPost2010Prop49
280
     0
102
RTVSPost2010PropOp49
 70
     1
102
RTVSPost2010Prop50
 90
       50
102
RTVSPost2010PropOp50
 70
     1
102
RTVSPost2010Prop51ColorIndex
 90
      256
102
RTVSPost2010Prop51ColorRGB
 90
-16777216
102
RTVSPost2010PropOp51
 70
     0
102
RTVSPost2010Prop52
140
1.0
102
RTVSPost2010PropOp52
 70
     0
102
RTVSPost2010Prop53
 90
        2
102
RTVSPost2010PropOp53
 70
     1
102
RTVSPost2010Prop54
  1
strokes_ogs.tif
102
RTVSPost2010PropOp54
 70
     1
102
RTVSPost2010Prop55
280
     0
102
RTVSPost2010PropOp55
 70
     1
102
RTVSPost2010Prop56
140
1.0
102
RTVSPost2010PropOp56
 70
     1
102
RTVSPost2010Prop57
140
1.0
102
RTVSPost2010PropOp57
 70
     1
102
RTVSPropertyOp0
 70
     1
102
RTVSPropertyOp1
 70
     1
102
RTVSPropertyOp2
 70
     1
102
RTVSPropertyOp3
 70
     1
102
RTVSPropertyOp4
 70
     1
102
RTVSPropertyOp5
 70
     1
102
RTVSPropertyOp6
 70
     1
102
RTVSPropertyOp7
 70
     1
102
RTVSPropertyOp8
 70
     1
102
RTVSPropertyOp9
 70
     1
102
RTVSPropertyOp10
 70
     1
102
RTVSPropertyOp11
 70
     1
102
RTVSPropertyOp12
 70
     1
102
RTVSPropertyOp13
 70
     1
102
RTVSPropertyOp14
 70
     1
102
RTVSPropertyOp15
 70
     1
102
RTVSPropertyOp16
 70
     1
102
RTVSPropertyOp17
 70
     1
102
RTVSPropertyOp18
 70
     1
102
RTVSPropertyOp19
 70
     1
102
RTVSPropertyOp20
 70
     1
102
RTVSPropertyOp21
 70
     1
102
RTVSPropertyOp22
 70
     1
102
RTVSPropertyOp23
 70
     1
102
RTVSPropertyOp24
 70
     1
102
RTVSPropertyOp25
 70
     1
102
RTVSPropertyOp26
 70
     1
102
RTVSPropertyOp27
 70
     1
102
RTVSPropertyOp28
 70
     1
102
RTVSPropertyOp29
 70
     1
102
RTVSPropertyOp30
 70
     1
102
RTVSPropertyOp31
 70
     1
102
RTVSPropertyOp32
 70
     1
102
RTVSPropertyOp33
 70
     1
102
RTVSPropertyOp34
 70
     1
102
RTVSPropertyOp35
 70
     1
102
RTVSPropertyOp36
 70
     1
102
RTVSPropertyOp37
 70
     1
102
RTVSPropertyOp38
 70
     1
102
RTVSPropertyOp39
 70
     1
102
RTVSPropertyOp40
 70
     1
102
RTVSPropertyOp41
 70
     1
102
RTVSPropertyOp42
 70
     1
102
RTVSPropertyOp43
 70
     1
102
RTVSPropertyOp44
 70
     1
102
RTVSPropertyOp45
 70
     1
102
RTVSPropertyOp46
 70
     1
102
RTVSPropertyOp47
 70
     1
102
RTVSPropertyOp48
 70
     1
102
RTVSPropertyOp49
 70
     1
102
RTVSPropertyOp50
 70
     1
102
RTVSPropertyOp51
 70
     0
102
RTVSPropertyOp52
 70
     0
102
RTVSPropertyOp53
 70
     1
102
RTVSPropertyOp54
 70
     1
102
RTVSPropertyOp55
 70
     1
102
RTVSPropertyOp56
 70
     1
102
RTVSPropertyOp57
 70
     1
102
RTVSPropertyOp58
 70
     1
102
RTVSPropertyOp59
 70
     1
102
RTVSPropertyOp60
 70
     1
102
RTVSPropertyOp61
 70
     1
102
RTVSPropertyOp62
 70
     1
  0
XRECORD
  5
3DA
102
{ACAD_REACTORS
330
3D9
102
}
330
3D9
100
AcDbXrecord
280
     1
102
RTVSPost2010Prop28
280
     0
102
RTVSPost2010PropOp28
 70
     1
102
RTVSPost2010Prop29
280
     1
102
RTVSPost2010PropOp29
 70
     1
102
RTVSPost2010Prop30
280
     1
102
RTVSPost2010PropOp30
 70
     1
102
RTVSPost2010Prop31
280
     0
102
RTVSPost2010PropOp31
 70
     1
102
RTVSPost2010Prop32
280
     0
102
RTVSPost2010PropOp32
 70
     1
102
RTVSPost2010Prop33
280
     0
102
RTVSPost2010PropOp33
 70
     1
102
RTVSPost2010Prop34
280
     0
102
RTVSPost2010PropOp34
 70
     1
102
RTVSPost2010Prop35
280
     0
102
RTVSPost2010PropOp35
 70
     1
102
RTVSPost2010Prop36
280
     0
102
RTVSPost2010PropOp36
 70
     1
102
RTVSPost2010Prop37
 90
       50
102
RTVSPost2010PropOp37
 70
     1
102
RTVSPost2010Prop38
140
0.0
102
RTVSPost2010PropOp38
 70
     1
102
RTVSPost2010Prop39
140
1.0
102
RTVSPost2010PropOp39
 70
     1
102
RTVSPost2010Prop40
 90
        0
102
RTVSPost2010PropOp40
 70
     1
102
RTVSPost2010Prop41ColorIndex
 90
       18
102
RTVSPost2010Prop41ColorRGB
 90
        0
102
RTVSPost2010PropOp41
 70
     1
102
RTVSPost2010Prop42
 90
       50
102
RTVSPost2010PropOp42
 70
     1
102
RTVSPost2010Prop43
 90
        3
102
RTVSPost2010PropOp43
 70
     1
102
RTVSPost2010Prop44ColorIndex
 90
        5
102
RTVSPost2010Prop44ColorRGB
 90
      255
102
RTVSPost2010PropOp44
 70
     1
102
RTVSPost2010Prop45
280
     0
102
RTVSPost2010PropOp45
 70
     1
102
RTVSPost2010Prop46
 90
       50
102
RTVSPost2010PropOp46
 70
     1
102
RTVSPost2010Prop47
 90
       50
102
RTVSPost2010PropOp47
 70
     1
102
RTVSPost2010Prop48
 90
       50
102
RTVSPost2010PropOp48
 70
     1
102
RTVSPost2010Prop49
280
     0
102
RTVSPost2010PropOp49
 70
     1
102
RTVSPost2010Prop50
 90
       50
102
RTVSPost2010PropOp50
 70
     1
102
RTVSPost2010Prop51ColorIndex
 90
      256
102
RTVSPost2010Prop51ColorRGB
 90
-16777216
102
RTVSPost2010PropOp51
 70
     0
102
RTVSPost2010Prop52
140
1.0
102
RTVSPost2010PropOp52
 70
     0
102
RTVSPost2010Prop53
 90
        2
102
RTVSPost2010PropOp53
 70
     1
102
RTVSPost2010Prop54
  1
strokes_ogs.tif
102
RTVSPost2010PropOp54
 70
     1
102
RTVSPost2010Prop55
280
     0
102
RTVSPost2010PropOp55
 70
     1
102
RTVSPost2010Prop56
140
1.0
102
RTVSPost2010PropOp56
 70
     1
102
RTVSPost2010Prop57
140
1.0
102
RTVSPost2010PropOp57
 70
     1
102
RTVSPropertyOp0
 70
     1
102
RTVSPropertyOp1
 70
     1
102
RTVSPropertyOp2
 70
     1
102
RTVSPropertyOp3
 70
     1
102
RTVSPropertyOp4
 70
     1
102
RTVSPropertyOp5
 70
     1
102
RTVSPropertyOp6
 70
     1
102
RTVSPropertyOp7
 70
     1
102
RTVSPropertyOp8
 70
     1
102
RTVSPropertyOp9
 70
     1
102
RTVSPropertyOp10
 70
     1
102
RTVSPropertyOp11
 70
     1
102
RTVSPropertyOp12
 70
     1
102
RTVSPropertyOp13
 70
     1
102
RTVSPropertyOp14
 70
     1
102
RTVSPropertyOp15
 70
     1
102
RTVSPropertyOp16
 70
     1
102
RTVSPropertyOp17
 70
     1
102
RTVSPropertyOp18
 70
     1
102
RTVSPropertyOp19
 70
     1
102
RTVSPropertyOp20
 70
     1
102
RTVSPropertyOp21
 70
     1
102
RTVSPropertyOp22
 70
     1
102
RTVSPropertyOp23
 70
     1
102
RTVSPropertyOp24
 70
     1
102
RTVSPropertyOp25
 70
     1
102
RTVSPropertyOp26
 70
     1
102
RTVSPropertyOp27
 70
     1
102
RTVSPropertyOp28
 70
     1
102
RTVSPropertyOp29
 70
     1
102
RTVSPropertyOp30
 70
     1
102
RTVSPropertyOp31
 70
     1
102
RTVSPropertyOp32
 70
     1
102
RTVSPropertyOp33
 70
     1
102
RTVSPropertyOp34
 70
     1
102
RTVSPropertyOp35
 70
     1
102
RTVSPropertyOp36
 70
     1
102
RTVSPropertyOp37
 70
     1
102
RTVSPropertyOp38
 70
     1
102
RTVSPropertyOp39
 70
     1
102
RTVSPropertyOp40
 70
     1
102
RTVSPropertyOp41
 70
     1
102
RTVSPropertyOp42
 70
     1
102
RTVSPropertyOp43
 70
     1
102
RTVSPropertyOp44
 70
     1
102
RTVSPropertyOp45
 70
     1
102
RTVSPropertyOp46
 70
     1
102
RTVSPropertyOp47
 70
     1
102
RTVSPropertyOp48
 70
     1
102
RTVSPropertyOp49
 70
     1
102
RTVSPropertyOp50
 70
     1
102
RTVSPropertyOp51
 70
     0
102
RTVSPropertyOp52
 70
     0
102
RTVSPropertyOp53
 70
     1
102
RTVSPropertyOp54
 70
     1
102
RTVSPropertyOp55
 70
     1
102
RTVSPropertyOp56
 70
     1
102
RTVSPropertyOp57
 70
     1
102
RTVSPropertyOp58
 70
     1
102
RTVSPropertyOp59
 70
     1
102
RTVSPropertyOp60
 70
     1
102
RTVSPropertyOp61
 70
     1
102
RTVSPropertyOp62
 70
     1
  0
ENDSEC
  0
EOF
