  0
SECTION
  2
HEADER
  9
$ACADVER
  1
AC1018
  9
$ACADMAINTVER
 70
   104
  9
$DWGCODEPAGE
  3
ANSI_1250
  9
$LASTSAVEDBY
  1
wq7085
  9
$INSBASE
 10
0.0
 20
0.0
 30
0.0
  9
$EXTMIN
 10
188.6658343333333
 20
118.534924
 30
0.0
  9
$EXTMAX
 10
421.207343
 20
345.2288016666667
 30
0.0
  9
$LIMMIN
 10
-0.5
 20
-0.5
  9
$LIMMAX
 10
5.0
 20
5.0
  9
$ORTHOMODE
 70
     0
  9
$REGENMODE
 70
     1
  9
$FILLMODE
 70
     1
  9
$QTEXTMODE
 70
     0
  9
$MIRRTEXT
 70
     1
  9
$LTSCALE
 40
1.0
  9
$ATTMODE
 70
     1
  9
$TEXTSIZE
 40
0.2
  9
$TRACEWID
 40
0.05
  9
$TEXTSTYLE
  7
Standard
  9
$CLAYER
  8
0
  9
$CELTYPE
  6
ByLayer
  9
$CECOLOR
 62
   256
  9
$CELTSCALE
 40
1.0
  9
$DISPSILH
 70
     0
  9
$DIMSCALE
 40
1.0
  9
$DIMASZ
 40
0.18
  9
$DIMEXO
 40
0.0625
  9
$DIMDLI
 40
0.38
  9
$DIMRND
 40
0.0
  9
$DIMDLE
 40
0.0
  9
$DIMEXE
 40
0.18
  9
$DIMTP
 40
0.0
  9
$DIMTM
 40
0.0
  9
$DIMTXT
 40
0.18
  9
$DIMCEN
 40
0.09
  9
$DIMTSZ
 40
0.0
  9
$DIMTOL
 70
     0
  9
$DIMLIM
 70
     0
  9
$DIMTIH
 70
     1
  9
$DIMTOH
 70
     1
  9
$DIMSE1
 70
     0
  9
$DIMSE2
 70
     0
  9
$DIMTAD
 70
     0
  9
$DIMZIN
 70
     0
  9
$DIMBLK
  1

  9
$DIMASO
 70
     1
  9
$DIMSHO
 70
     1
  9
$DIMPOST
  1

  9
$DIMAPOST
  1

  9
$DIMALT
 70
     0
  9
$DIMALTD
 70
     2
  9
$DIMALTF
 40
25.4
  9
$DIMLFAC
 40
1.0
  9
$DIMTOFL
 70
     0
  9
$DIMTVP
 40
0.0
  9
$DIMTIX
 70
     0
  9
$DIMSOXD
 70
     0
  9
$DIMSAH
 70
     0
  9
$DIMBLK1
  1

  9
$DIMBLK2
  1

  9
$DIMSTYLE
  2
Standard
  9
$DIMCLRD
 70
     0
  9
$DIMCLRE
 70
     0
  9
$DIMCLRT
 70
     0
  9
$DIMTFAC
 40
1.0
  9
$DIMGAP
 40
0.09
  9
$DIMJUST
 70
     0
  9
$DIMSD1
 70
     0
  9
$DIMSD2
 70
     0
  9
$DIMTOLJ
 70
     1
  9
$DIMTZIN
 70
     0
  9
$DIMALTZ
 70
     0
  9
$DIMALTTZ
 70
     0
  9
$DIMUPT
 70
     0
  9
$DIMDEC
 70
     4
  9
$DIMTDEC
 70
     4
  9
$DIMALTU
 70
     2
  9
$DIMALTTD
 70
     2
  9
$DIMTXSTY
  7
Standard
  9
$DIMAUNIT
 70
     0
  9
$DIMADEC
 70
     0
  9
$DIMALTRND
 40
0.0
  9
$DIMAZIN
 70
     0
  9
$DIMDSEP
 70
    46
  9
$DIMATFIT
 70
     3
  9
$DIMFRAC
 70
     0
  9
$DIMLDRBLK
  1

  9
$DIMLUNIT
 70
     2
  9
$DIMLWD
 70
    -2
  9
$DIMLWE
 70
    -2
  9
$DIMTMOVE
 70
     0
  9
$LUNITS
 70
     2
  9
$LUPREC
 70
     4
  9
$SKETCHINC
 40
0.1
  9
$FILLETRAD
 40
0.5
  9
$AUNITS
 70
     0
  9
$AUPREC
 70
     0
  9
$MENU
  1
.
  9
$ELEVATION
 40
0.0
  9
$PELEVATION
 40
0.0
  9
$THICKNESS
 40
0.0
  9
$LIMCHECK
 70
     0
  9
$CHAMFERA
 40
0.0
  9
$CHAMFERB
 40
0.0
  9
$CHAMFERC
 40
0.0
  9
$CHAMFERD
 40
0.0
  9
$SKPOLY
 70
     0
  9
$TDCREATE
 40
2459065.411712963
  9
$TDUCREATE
 40
2459065.328382292
  9
$TDUPDATE
 40
2459065.413796297
  9
$TDUUPDATE
 40
2459065.330462963
  9
$TDINDWG
 40
0.0002546412
  9
$TDUSRTIMER
 40
0.0002546412
  9
$USRTIMER
 70
     1
  9
$ANGBASE
 50
0.0
  9
$ANGDIR
 70
     0
  9
$PDMODE
 70
     0
  9
$PDSIZE
 40
0.0
  9
$PLINEWID
 40
0.0
  9
$SPLFRAME
 70
     0
  9
$SPLINETYPE
 70
     6
  9
$SPLINESEGS
 70
     8
  9
$HANDSEED
  5
3AC
  9
$SURFTAB1
 70
     6
  9
$SURFTAB2
 70
     6
  9
$SURFTYPE
 70
     6
  9
$SURFU
 70
     6
  9
$SURFV
 70
     6
  9
$UCSBASE
  2

  9
$UCSNAME
  2

  9
$UCSORG
 10
274.404842
 20
288.907994
 30
0.0
  9
$UCSXDIR
 10
1.0
 20
0.0
 30
0.0
  9
$UCSYDIR
 10
0.0
 20
1.0
 30
0.0
  9
$UCSORTHOREF
  2

  9
$UCSORTHOVIEW
 70
     0
  9
$UCSORGTOP
 10
0.0
 20
0.0
 30
0.0
  9
$UCSORGBOTTOM
 10
0.0
 20
0.0
 30
0.0
  9
$UCSORGLEFT
 10
0.0
 20
0.0
 30
0.0
  9
$UCSORGRIGHT
 10
0.0
 20
0.0
 30
0.0
  9
$UCSORGFRONT
 10
0.0
 20
0.0
 30
0.0
  9
$UCSORGBACK
 10
0.0
 20
0.0
 30
0.0
  9
$PUCSBASE
  2

  9
$PUCSNAME
  2

  9
$PUCSORG
 10
0.0
 20
0.0
 30
0.0
  9
$PUCSXDIR
 10
1.0
 20
0.0
 30
0.0
  9
$PUCSYDIR
 10
0.0
 20
1.0
 30
0.0
  9
$PUCSORTHOREF
  2

  9
$PUCSORTHOVIEW
 70
     0
  9
$PUCSORGTOP
 10
0.0
 20
0.0
 30
0.0
  9
$PUCSORGBOTTOM
 10
0.0
 20
0.0
 30
0.0
  9
$PUCSORGLEFT
 10
0.0
 20
0.0
 30
0.0
  9
$PUCSORGRIGHT
 10
0.0
 20
0.0
 30
0.0
  9
$PUCSORGFRONT
 10
0.0
 20
0.0
 30
0.0
  9
$PUCSORGBACK
 10
0.0
 20
0.0
 30
0.0
  9
$USERI1
 70
     0
  9
$USERI2
 70
     0
  9
$USERI3
 70
     0
  9
$USERI4
 70
     0
  9
$USERI5
 70
     0
  9
$USERR1
 40
0.0
  9
$USERR2
 40
0.0
  9
$USERR3
 40
0.0
  9
$USERR4
 40
0.0
  9
$USERR5
 40
0.0
  9
$WORLDVIEW
 70
     1
  9
$SHADEDGE
 70
     3
  9
$SHADEDIF
 70
    70
  9
$TILEMODE
 70
     1
  9
$MAXACTVP
 70
    64
  9
$PINSBASE
 10
0.0
 20
0.0
 30
0.0
  9
$PLIMCHECK
 70
     0
  9
$PEXTMIN
 10
-0.5
 20
-0.5
 30
-0.5
  9
$PEXTMAX
 10
5.0
 20
5.0
 30
5.0
  9
$PLIMMIN
 10
-0.5
 20
-0.5
  9
$PLIMMAX
 10
5.0
 20
5.0
  9
$UNITMODE
 70
     0
  9
$VISRETAIN
 70
     1
  9
$PLINEGEN
 70
     0
  9
$PSLTSCALE
 70
     1
  9
$TREEDEPTH
 70
  3020
  9
$CMLSTYLE
  2
Standard
  9
$CMLJUST
 70
     0
  9
$CMLSCALE
 40
1.0
  9
$PROXYGRAPHICS
 70
     1
  9
$MEASUREMENT
 70
     1
  9
$CELWEIGHT
370
    13
  9
$ENDCAPS
280
     0
  9
$JOINSTYLE
280
     0
  9
$LWDISPLAY
290
     0
  9
$INSUNITS
 70
     4
  9
$HYPERLINKBASE
  1

  9
$STYLESHEET
  1

  9
$XEDIT
290
     1
  9
$CEPSNTYPE
380
     0
  9
$PSTYLEMODE
290
     1
  9
$FINGERPRINTGUID
  2
{00216493-6DF7-45DD-837E-150E8591E01E}
  9
$VERSIONGUID
  2
{3B32ACE9-9A24-1B42-B5DC-CF1059494D41}
  9
$EXTNAMES
290
     1
  9
$PSVPSCALE
 40
0.0
  9
$OLESTARTUP
290
     0
  9
$SORTENTS
280
   127
  9
$INDEXCTL
280
     0
  9
$HIDETEXT
280
     1
  9
$XCLIPFRAME
290
     0
  9
$HALOGAP
280
     0
  9
$OBSCOLOR
 70
   257
  9
$OBSLTYPE
280
     0
  9
$INTERSECTIONDISPLAY
280
     0
  9
$INTERSECTIONCOLOR
 70
   257
  9
$DIMASSOC
280
     2
  9
$PROJECTNAME
  1

  0
ENDSEC
  0
SECTION
  2
CLASSES
  0
CLASS
  1
ACDBDICTIONARYWDFLT
  2
AcDbDictionaryWithDefault
  3
ObjectDBX Classes
 90
        0
 91
        1
280
     0
281
     0
  0
CLASS
  1
VISUALSTYLE
  2
AcDbVisualStyle
  3
ObjectDBX Classes
 90
     4095
 91
       24
280
     0
281
     0
  0
CLASS
  1
MATERIAL
  2
AcDbMaterial
  3
ObjectDBX Classes
 90
     1153
 91
        3
280
     0
281
     0
  0
CLASS
  1
SCALE
  2
AcDbScale
  3
ObjectDBX Classes
 90
     1153
 91
       33
280
     0
281
     0
  0
CLASS
  1
TABLESTYLE
  2
AcDbTableStyle
  3
ObjectDBX Classes
 90
     4095
 91
        1
280
     0
281
     0
  0
CLASS
  1
MLEADERSTYLE
  2
AcDbMLeaderStyle
  3
ACDB_MLEADERSTYLE_CLASS
 90
     4095
 91
        1
280
     0
281
     0
  0
CLASS
  1
SUN
  2
AcDbSun
  3
SCENEOE
 90
     1153
 91
        0
280
     0
281
     0
  0
CLASS
  1
DIMASSOC
  2
AcDbDimAssoc
  3
"AcDbDimAssoc|Product Desc:     AcDim ARX App For Dimension|Company:          Autodesk, Inc.|WEB Address:      www.autodesk.com"
 90
        0
 91
        7
280
     0
281
     0
  0
CLASS
  1
DICTIONARYVAR
  2
AcDbDictionaryVar
  3
ObjectDBX Classes
 90
        0
 91
        8
280
     0
281
     0
  0
CLASS
  1
CELLSTYLEMAP
  2
AcDbCellStyleMap
  3
ObjectDBX Classes
 90
     1152
 91
        2
280
     0
281
     0
  0
CLASS
  1
ACDBSECTIONVIEWSTYLE
  2
AcDbSectionViewStyle
  3
ObjectDBX Classes
 90
     1025
 91
        1
280
     0
281
     0
  0
CLASS
  1
ACDBDETAILVIEWSTYLE
  2
AcDbDetailViewStyle
  3
ObjectDBX Classes
 90
     1025
 91
        1
280
     0
281
     0
  0
CLASS
  1
SORTENTSTABLE
  2
AcDbSortentsTable
  3
ObjectDBX Classes
 90
        0
 91
        1
280
     0
281
     0
  0
ENDSEC
  0
SECTION
  2
TABLES
  0
TABLE
  2
VPORT
  5
8
330
0
100
AcDbSymbolTable
 70
    16
  0
VPORT
  5
29
330
8
100
AcDbSymbolTableRecord
100
AcDbViewportTableRecord
  2
*Active
 70
     0
 10
0.0
 20
0.0
 11
1.0
 21
1.0
 12
341.3691170765507
 22
302.49680980949
 13
0.0
 23
0.0
 14
0.5
 24
0.5
 15
0.5
 25
0.5
 16
0.0
 26
0.0
 36
1.0
 17
0.0
 27
0.0
 37
0.0
 40
207.4880710365889
 41
2.292712066905615
 42
50.0
 43
433.3698919999999
 44
-433.3698919999999
 50
0.0
 51
0.0
 71
     0
 72
   100
 73
     1
 74
     3
 75
     0
 76
     0
 77
     0
 78
     0
281
     0
 65
     1
110
274.404842
120
288.907994
130
0.0
111
1.0
121
0.0
131
0.0
112
0.0
122
1.0
132
0.0
 79
     0
146
0.0
1001
ACAD_NAV_VCDISPLAY
1070
     3
  0
VPORT
  5
2AD
330
8
100
AcDbSymbolTableRecord
100
AcDbViewportTableRecord
  2
L1
 70
     0
 10
0.0
 20
0.0
 11
1.0
 21
1.0
 12
304.432381
 22
231.862015
 13
0.0
 23
0.0
 14
0.5
 24
0.5
 15
0.5
 25
0.5
 16
0.0
 26
0.0
 36
1.0
 17
0.0
 27
0.0
 37
0.0
 40
207.433333
 41
0.085602
 42
50.0
 43
433.3698919999999
 44
-433.3698919999999
 50
0.0
 51
0.0
 71
     0
 72
   100
 73
     1
 74
     3
 75
     0
 76
     0
 77
     0
 78
     0
281
     0
 65
     1
110
0.0
120
0.0
130
0.0
111
1.0
121
0.0
131
0.0
112
0.0
122
1.0
132
0.0
 79
     0
146
0.0
  0
VPORT
  5
2AE
330
8
100
AcDbSymbolTableRecord
100
AcDbViewportTableRecord
  2
L2
 70
     0
 10
0.0
 20
0.0
 11
0.5
 21
1.0
 12
0.0
 22
0.0
 13
0.0
 23
0.0
 14
0.5
 24
0.5
 15
0.5
 25
0.5
 16
0.0
 26
-1.0
 36
0.0
 17
0.0
 27
0.0
 37
0.0
 40
1339.368397
 41
0.013258
 42
50.0
 43
690.502282
 44
-690.502282
 50
0.0
 51
0.0
 71
     0
 72
   100
 73
     1
 74
     3
 75
     0
 76
     0
 77
     0
 78
     0
281
     0
 65
     1
110
0.0
120
0.0
130
0.0
111
1.0
121
0.0
131
0.0
112
0.0
122
1.0
132
0.0
 79
     0
146
0.0
  0
VPORT
  5
2AF
330
8
100
AcDbSymbolTableRecord
100
AcDbViewportTableRecord
  2
L2
 70
     0
 10
0.5
 20
0.0
 11
1.0
 21
1.0
 12
0.0
 22
0.0
 13
0.0
 23
0.0
 14
0.5
 24
0.5
 15
0.5
 25
0.5
 16
1.0
 26
0.0
 36
0.0
 17
0.0
 27
0.0
 37
0.0
 40
1339.368397
 41
0.013258
 42
50.0
 43
677.6681139999999
 44
-677.6681139999999
 50
0.0
 51
0.0
 71
     0
 72
   100
 73
     1
 74
     3
 75
     0
 76
     0
 77
     0
 78
     0
281
     0
 65
     1
110
0.0
120
0.0
130
0.0
111
1.0
121
0.0
131
0.0
112
0.0
122
1.0
132
0.0
 79
     0
146
0.0
  0
VPORT
  5
2B0
330
8
100
AcDbSymbolTableRecord
100
AcDbViewportTableRecord
  2
L3
 70
     0
 10
0.0
 20
0.5
 11
1.0
 21
1.0
 12
304.432381
 22
231.862015
 13
0.0
 23
0.0
 14
0.5
 24
0.5
 15
0.5
 25
0.5
 16
0.0
 26
0.0
 36
1.0
 17
0.0
 27
0.0
 37
0.0
 40
207.433333
 41
0.085602
 42
50.0
 43
433.3698919999999
 44
-433.3698919999999
 50
0.0
 51
0.0
 71
     0
 72
   100
 73
     1
 74
     3
 75
     0
 76
     0
 77
     0
 78
     0
281
     0
 65
     1
110
0.0
120
0.0
130
0.0
111
1.0
121
0.0
131
0.0
112
0.0
122
1.0
132
0.0
 79
     0
146
0.0
  0
VPORT
  5
2B1
330
8
100
AcDbSymbolTableRecord
100
AcDbViewportTableRecord
  2
L3
 70
     0
 10
0.0
 20
0.0
 11
1.0
 21
0.5
 12
0.0
 22
0.0
 13
0.0
 23
0.0
 14
0.5
 24
0.5
 15
0.5
 25
0.5
 16
0.0
 26
-1.0
 36
0.0
 17
0.0
 27
0.0
 37
0.0
 40
1339.368397
 41
0.013258
 42
50.0
 43
690.502282
 44
-690.502282
 50
0.0
 51
0.0
 71
     0
 72
   100
 73
     1
 74
     3
 75
     0
 76
     0
 77
     0
 78
     0
281
     0
 65
     1
110
0.0
120
0.0
130
0.0
111
1.0
121
0.0
131
0.0
112
0.0
122
1.0
132
0.0
 79
     0
146
0.0
  0
VPORT
  5
2B2
330
8
100
AcDbSymbolTableRecord
100
AcDbViewportTableRecord
  2
L4
 70
     0
 10
0.0
 20
0.5
 11
0.5
 21
1.0
 12
304.432381
 22
231.862015
 13
0.0
 23
0.0
 14
0.5
 24
0.5
 15
0.5
 25
0.5
 16
0.0
 26
0.0
 36
1.0
 17
0.0
 27
0.0
 37
0.0
 40
207.433333
 41
0.085602
 42
50.0
 43
433.3698919999999
 44
-433.3698919999999
 50
0.0
 51
0.0
 71
     0
 72
   100
 73
     1
 74
     3
 75
     0
 76
     0
 77
     0
 78
     0
281
     0
 65
     1
110
0.0
120
0.0
130
0.0
111
1.0
121
0.0
131
0.0
112
0.0
122
1.0
132
0.0
 79
     0
146
0.0
  0
VPORT
  5
2B3
330
8
100
AcDbSymbolTableRecord
100
AcDbViewportTableRecord
  2
L4
 70
     0
 10
0.0
 20
0.0
 11
0.5
 21
0.5
 12
0.0
 22
0.0
 13
0.0
 23
0.0
 14
0.5
 24
0.5
 15
0.5
 25
0.5
 16
0.0
 26
-1.0
 36
0.0
 17
0.0
 27
0.0
 37
0.0
 40
1339.368397
 41
0.013258
 42
50.0
 43
690.502282
 44
-690.502282
 50
0.0
 51
0.0
 71
     0
 72
   100
 73
     1
 74
     3
 75
     0
 76
     0
 77
     0
 78
     0
281
     0
 65
     1
110
0.0
120
0.0
130
0.0
111
1.0
121
0.0
131
0.0
112
0.0
122
1.0
132
0.0
 79
     0
146
0.0
  0
VPORT
  5
2B4
330
8
100
AcDbSymbolTableRecord
100
AcDbViewportTableRecord
  2
L4
 70
     0
 10
0.5
 20
0.0
 11
1.0
 21
0.5
 12
0.0
 22
0.0
 13
0.0
 23
0.0
 14
0.5
 24
0.5
 15
0.5
 25
0.5
 16
1.0
 26
0.0
 36
0.0
 17
0.0
 27
0.0
 37
0.0
 40
1339.368397
 41
0.013258
 42
50.0
 43
677.6681139999999
 44
-677.6681139999999
 50
0.0
 51
0.0
 71
     0
 72
   100
 73
     1
 74
     3
 75
     0
 76
     0
 77
     0
 78
     0
281
     0
 65
     1
110
0.0
120
0.0
130
0.0
111
1.0
121
0.0
131
0.0
112
0.0
122
1.0
132
0.0
 79
     0
146
0.0
  0
VPORT
  5
2B5
330
8
100
AcDbSymbolTableRecord
100
AcDbViewportTableRecord
  2
L4
 70
     0
 10
0.5
 20
0.5
 11
1.0
 21
1.0
 12
0.0
 22
0.0
 13
0.0
 23
0.0
 14
0.5
 24
0.5
 15
0.5
 25
0.5
 16
0.5773502691896259
 26
-0.5773502691896259
 36
0.5773502691896259
 17
0.0
 27
0.0
 37
0.0
 40
1315.669983
 41
0.013496
 42
50.0
 43
685.3733359999999
 44
-685.3733359999999
 50
0.0
 51
0.0
 71
     0
 72
   100
 73
     1
 74
     3
 75
     0
 76
     0
 77
     0
 78
     0
281
     0
 65
     1
110
0.0
120
0.0
130
0.0
111
1.0
121
0.0
131
0.0
112
0.0
122
1.0
132
0.0
 79
     0
146
0.0
  0
VPORT
  5
2B6
330
8
100
AcDbSymbolTableRecord
100
AcDbViewportTableRecord
  2
L6
 70
     0
 10
0.0
 20
0.5
 11
0.333333
 21
1.0
 12
0.0
 22
0.0
 13
0.0
 23
0.0
 14
0.5
 24
0.5
 15
0.5
 25
0.5
 16
0.7188730927569434
 26
-0.5850486126764433
 36
0.3754192287502549
 17
0.0
 27
0.0
 37
0.0
 40
1388.551873
 41
0.012788
 42
50.0
 43
718.93087
 44
-718.93087
 50
0.0
 51
0.0
 71
     0
 72
   100
 73
     1
 74
     3
 75
     0
 76
     0
 77
     0
 78
     0
281
     0
 65
     1
110
0.0
120
0.0
130
0.0
111
1.0
121
0.0
131
0.0
112
0.0
122
1.0
132
0.0
 79
     0
146
0.0
  0
VPORT
  5
2B7
330
8
100
AcDbSymbolTableRecord
100
AcDbViewportTableRecord
  2
L6
 70
     0
 10
0.0
 20
0.0
 11
0.333333
 21
0.5
 12
0.0
 22
0.0
 13
0.0
 23
0.0
 14
0.5
 24
0.5
 15
0.5
 25
0.5
 16
-1.0
 26
0.0
 36
0.0
 17
0.0
 27
0.0
 37
0.0
 40
1339.368397
 41
0.013258
 42
50.0
 43
677.6681139999999
 44
-677.6681139999999
 50
0.0
 51
0.0
 71
     0
 72
   100
 73
     1
 74
     3
 75
     0
 76
     0
 77
     0
 78
     0
281
     0
 65
     1
110
0.0
120
0.0
130
0.0
111
1.0
121
0.0
131
0.0
112
0.0
122
1.0
132
0.0
 79
     0
146
0.0
  0
VPORT
  5
2B8
330
8
100
AcDbSymbolTableRecord
100
AcDbViewportTableRecord
  2
L6
 70
     0
 10
0.333333
 20
0.5
 11
0.666667
 21
1.0
 12
304.432381
 22
231.862015
 13
0.0
 23
0.0
 14
0.5
 24
0.5
 15
0.5
 25
0.5
 16
0.0
 26
0.0
 36
1.0
 17
0.0
 27
0.0
 37
0.0
 40
207.433333
 41
0.085602
 42
50.0
 43
433.3698919999999
 44
-433.3698919999999
 50
0.0
 51
0.0
 71
     0
 72
   100
 73
     1
 74
     3
 75
     0
 76
     0
 77
     0
 78
     0
281
     0
 65
     1
110
0.0
120
0.0
130
0.0
111
1.0
121
0.0
131
0.0
112
0.0
122
1.0
132
0.0
 79
     0
146
0.0
  0
VPORT
  5
2B9
330
8
100
AcDbSymbolTableRecord
100
AcDbViewportTableRecord
  2
L6
 70
     0
 10
0.333333
 20
0.0
 11
0.666667
 21
0.5
 12
0.0
 22
0.0
 13
0.0
 23
0.0
 14
0.5
 24
0.5
 15
0.5
 25
0.5
 16
0.0
 26
-1.0
 36
0.0
 17
0.0
 27
0.0
 37
0.0
 40
1339.368397
 41
0.013258
 42
50.0
 43
690.502282
 44
-690.502282
 50
0.0
 51
0.0
 71
     0
 72
   100
 73
     1
 74
     3
 75
     0
 76
     0
 77
     0
 78
     0
281
     0
 65
     1
110
0.0
120
0.0
130
0.0
111
1.0
121
0.0
131
0.0
112
0.0
122
1.0
132
0.0
 79
     0
146
0.0
  0
VPORT
  5
2BA
330
8
100
AcDbSymbolTableRecord
100
AcDbViewportTableRecord
  2
L6
 70
     0
 10
0.666667
 20
0.5
 11
1.0
 21
1.0
 12
0.0
 22
0.0
 13
0.0
 23
0.0
 14
0.5
 24
0.5
 15
0.5
 25
0.5
 16
0.5773502691896259
 26
-0.5773502691896259
 36
0.5773502691896259
 17
0.0
 27
0.0
 37
0.0
 40
1315.669983
 41
0.013496
 42
50.0
 43
685.3733359999999
 44
-685.3733359999999
 50
0.0
 51
0.0
 71
     0
 72
   100
 73
     1
 74
     3
 75
     0
 76
     0
 77
     0
 78
     0
281
     0
 65
     1
110
0.0
120
0.0
130
0.0
111
1.0
121
0.0
131
0.0
112
0.0
122
1.0
132
0.0
 79
     0
146
0.0
  0
VPORT
  5
2BB
330
8
100
AcDbSymbolTableRecord
100
AcDbViewportTableRecord
  2
L6
 70
     0
 10
0.666667
 20
0.0
 11
1.0
 21
0.5
 12
0.0
 22
0.0
 13
0.0
 23
0.0
 14
0.5
 24
0.5
 15
0.5
 25
0.5
 16
1.0
 26
0.0
 36
0.0
 17
0.0
 27
0.0
 37
0.0
 40
1339.368397
 41
0.013258
 42
50.0
 43
677.6681139999999
 44
-677.6681139999999
 50
0.0
 51
0.0
 71
     0
 72
   100
 73
     1
 74
     3
 75
     0
 76
     0
 77
     0
 78
     0
281
     0
 65
     1
110
0.0
120
0.0
130
0.0
111
1.0
121
0.0
131
0.0
112
0.0
122
1.0
132
0.0
 79
     0
146
0.0
  0
ENDTAB
  0
TABLE
  2
LTYPE
  5
5
330
0
100
AcDbSymbolTable
 70
     7
  0
LTYPE
  5
14
330
5
100
AcDbSymbolTableRecord
100
AcDbLinetypeTableRecord
  2
ByBlock
 70
     0
  3

 72
    65
 73
     0
 40
0.0
  0
LTYPE
  5
15
330
5
100
AcDbSymbolTableRecord
100
AcDbLinetypeTableRecord
  2
ByLayer
 70
     0
  3

 72
    65
 73
     0
 40
0.0
  0
LTYPE
  5
16
330
5
100
AcDbSymbolTableRecord
100
AcDbLinetypeTableRecord
  2
Continuous
 70
     0
  3
Solid line
 72
    65
 73
     0
 40
0.0
  0
LTYPE
  5
6E
330
5
100
AcDbSymbolTableRecord
100
AcDbLinetypeTableRecord
  2
CENTER
 70
     0
  3
____ _ ____ _ ____ _ ____
 72
    65
 73
     4
 40
47.4
 49
22.0
 74
     4
 75
     0
340
0
 46
0.0
 50
0.0
 44
0.0
 45
0.0
 49
-8.5
 74
     4
 75
     0
340
0
 46
0.0
 50
0.0
 44
0.0
 45
0.0
 49
8.5
 74
     4
 75
     0
340
0
 46
0.0
 50
0.0
 44
0.0
 45
0.0
 49
-8.5
 74
     4
 75
     0
340
0
 46
0.0
 50
0.0
 44
0.0
 45
0.0
  0
LTYPE
  5
6F
330
5
100
AcDbSymbolTableRecord
100
AcDbLinetypeTableRecord
  2
DASHDOT
 70
     0
  3
_._._._._._._._._._._._._._._._.
 72
    65
 73
     4
 40
70.0
 49
31.0
 74
     4
 75
     0
340
0
 46
0.0
 50
0.0
 44
0.0
 45
0.0
 49
-13.0
 74
     4
 75
     0
340
0
 46
0.0
 50
0.0
 44
0.0
 45
0.0
 49
13.0
 74
     4
 75
     0
340
0
 46
0.0
 50
0.0
 44
0.0
 45
0.0
 49
-13.0
 74
     4
 75
     0
340
0
 46
0.0
 50
0.0
 44
0.0
 45
0.0
  0
LTYPE
  5
70
330
5
100
AcDbSymbolTableRecord
100
AcDbLinetypeTableRecord
  2
DASHED
 70
     0
  3
__ __ __ __ __ __ __ __ __
 72
    65
 73
     2
 40
25.72
 49
12.86
 74
     4
 75
     0
340
0
 46
0.0
 50
0.0
 44
0.0
 45
0.0
 49
-12.86
 74
     4
 75
     0
340
0
 46
0.0
 50
0.0
 44
0.0
 45
0.0
  0
LTYPE
  5
71
330
5
100
AcDbSymbolTableRecord
100
AcDbLinetypeTableRecord
  2
DOT
 70
     0
  3
.........................
 72
    65
 73
     2
 40
10.0
 49
0.0
 74
     4
 75
     0
340
0
 46
0.0
 50
0.0
 44
0.0
 45
0.0
 49
-10.0
 74
     4
 75
     0
340
0
 46
0.0
 50
0.0
 44
0.0
 45
0.0
  0
LTYPE
  5
72
330
5
100
AcDbSymbolTableRecord
100
AcDbLinetypeTableRecord
  2
PHANTOM
 70
     0
  3
____ _ _ ____ _ _ _____ _ _ ____
 72
    65
 73
     6
 40
50.5
 49
18.0
 74
     4
 75
     0
340
0
 46
0.0
 50
0.0
 44
0.0
 45
0.0
 49
-6.5
 74
     4
 75
     0
340
0
 46
0.0
 50
0.0
 44
0.0
 45
0.0
 49
6.5
 74
     4
 75
     0
340
0
 46
0.0
 50
0.0
 44
0.0
 45
0.0
 49
-6.5
 74
     4
 75
     0
340
0
 46
0.0
 50
0.0
 44
0.0
 45
0.0
 49
6.5
 74
     4
 75
     0
340
0
 46
0.0
 50
0.0
 44
0.0
 45
0.0
 49
-6.5
 74
     4
 75
     0
340
0
 46
0.0
 50
0.0
 44
0.0
 45
0.0
  0
LTYPE
  5
34E
330
5
100
AcDbSymbolTableRecord
100
AcDbLinetypeTableRecord
  2
CENTER2
 70
     0
  3
Center (.5x) ___ _ ___ _ ___ _ ___ _ ___ _ ___
 72
    65
 73
     4
 40
1.125
 49
0.75
 74
     0
 49
-0.125
 74
     0
 49
0.125
 74
     0
 49
-0.125
 74
     0
  0
ENDTAB
  0
TABLE
  2
LAYER
  5
2
330
0
100
AcDbSymbolTable
 70
    22
  0
LAYER
  5
10
102
{ACAD_XDICTIONARY
360
359
102
}
330
2
100
AcDbSymbolTableRecord
100
AcDbLayerTableRecord
  2
0
 70
     0
 62
     7
  6
Continuous
370
    -3
390
F
  0
LAYER
  5
207
330
2
100
AcDbSymbolTableRecord
100
AcDbLayerTableRecord
  2
Defpoints
 70
     0
 62
     7
  6
Continuous
290
     0
370
    -3
390
F
  0
LAYER
  5
34B
102
{ACAD_XDICTIONARY
360
35B
102
}
330
2
100
AcDbSymbolTableRecord
100
AcDbLayerTableRecord
  2
1
 70
     0
 62
     4
  6
Continuous
370
    -3
390
F
  0
LAYER
  5
34C
102
{ACAD_XDICTIONARY
360
35D
102
}
330
2
100
AcDbSymbolTableRecord
100
AcDbLayerTableRecord
  2
2
 70
     0
 62
     7
  6
Continuous
370
    -3
390
F
  0
LAYER
  5
34D
102
{ACAD_XDICTIONARY
360
35F
102
}
330
2
100
AcDbSymbolTableRecord
100
AcDbLayerTableRecord
  2
4
 70
     0
 62
     2
  6
CENTER2
370
    -3
390
F
  0
LAYER
  5
34F
102
{ACAD_XDICTIONARY
360
361
102
}
330
2
100
AcDbSymbolTableRecord
100
AcDbLayerTableRecord
  2
SK1
 70
     0
 62
     4
  6
Continuous
370
    -3
390
F
  0
LAYER
  5
350
102
{ACAD_XDICTIONARY
360
363
102
}
330
2
100
AcDbSymbolTableRecord
100
AcDbLayerTableRecord
  2
SK2
 70
     0
 62
     7
  6
Continuous
370
    -3
390
F
  0
LAYER
  5
352
102
{ACAD_XDICTIONARY
360
365
102
}
330
2
100
AcDbSymbolTableRecord
100
AcDbLayerTableRecord
  2
SK4
 70
     0
 62
     2
  6
CENTER2
370
    -3
390
F
  0
LAYER
  5
353
102
{ACAD_XDICTIONARY
360
367
102
}
330
2
100
AcDbSymbolTableRecord
100
AcDbLayerTableRecord
  2
SK6
 70
     0
 62
     5
  6
Continuous
370
    -3
390
F
  0
LAYER
  5
354
102
{ACAD_XDICTIONARY
360
369
102
}
330
2
100
AcDbSymbolTableRecord
100
AcDbLayerTableRecord
  2
CUT
 70
     0
 62
     1
  6
Continuous
370
    -3
390
F
  0
LAYER
  5
355
102
{ACAD_XDICTIONARY
360
36B
102
}
330
2
100
AcDbSymbolTableRecord
100
AcDbLayerTableRecord
  2
NOCUT
 70
     0
 62
     7
  6
Continuous
370
    -3
390
F
  0
LAYER
  5
356
102
{ACAD_XDICTIONARY
360
36D
102
}
330
2
100
AcDbSymbolTableRecord
100
AcDbLayerTableRecord
  2
80
 70
     0
 62
     6
  6
Continuous
370
    -3
390
F
  0
LAYER
  5
357
102
{ACAD_XDICTIONARY
360
36F
102
}
330
2
100
AcDbSymbolTableRecord
100
AcDbLayerTableRecord
  2
81
 70
     0
 62
     3
  6
Continuous
370
    -3
390
F
  0
ENDTAB
  0
TABLE
  2
STYLE
  5
3
330
0
100
AcDbSymbolTable
 70
     3
  0
STYLE
  5
11
330
3
100
AcDbSymbolTableRecord
100
AcDbTextStyleTableRecord
  2
Standard
 70
     0
 40
0.0
 41
1.0
 50
0.0
 71
     0
 42
0.2
  3
txt
  4

  0
STYLE
  5
1FB
330
3
100
AcDbSymbolTableRecord
100
AcDbTextStyleTableRecord
  2
cesky
 70
     0
 40
0.0
 41
1.0
 50
0.0
 71
     0
 42
0.2
  3
simplex.shx
  4

  0
STYLE
  5
1FC
330
3
100
AcDbSymbolTableRecord
100
AcDbTextStyleTableRecord
  2
DWGDirectTextStyle
 70
     0
 40
0.0
 41
1.0
 50
0.0
 71
     0
 42
0.2
  3
simplex
  4

  0
ENDTAB
  0
TABLE
  2
VIEW
  5
6
330
0
100
AcDbSymbolTable
 70
     0
  0
ENDTAB
  0
TABLE
  2
UCS
  5
7
330
0
100
AcDbSymbolTable
 70
     0
  0
ENDTAB
  0
TABLE
  2
APPID
  5
9
330
0
100
AcDbSymbolTable
 70
     7
  0
APPID
  5
12
330
9
100
AcDbSymbolTableRecord
100
AcDbRegAppTableRecord
  2
ACAD
 70
     0
  0
APPID
  5
203
330
9
100
AcDbSymbolTableRecord
100
AcDbRegAppTableRecord
  2
ACAD_DSTYLE_DIMBREAK
 70
     0
  0
APPID
  5
2BC
330
9
100
AcDbSymbolTableRecord
100
AcDbRegAppTableRecord
  2
ACAD_DSTYLE_DIM_LINETYPE
 70
     0
  0
APPID
  5
2BD
330
9
100
AcDbSymbolTableRecord
100
AcDbRegAppTableRecord
  2
ACAD_DSTYLE_DIM_EXT1_LINETYPE
 70
     0
  0
APPID
  5
2BE
330
9
100
AcDbSymbolTableRecord
100
AcDbRegAppTableRecord
  2
ACAD_DSTYLE_DIM_EXT2_LINETYPE
 70
     0
  0
APPID
  5
2FE
330
9
100
AcDbSymbolTableRecord
100
AcDbRegAppTableRecord
  2
ACAD_MLEADERVER
 70
     0
  0
APPID
  5
374
330
9
100
AcDbSymbolTableRecord
100
AcDbRegAppTableRecord
  2
ACAD_NAV_VCDISPLAY
 70
     0
  0
ENDTAB
  0
TABLE
  2
DIMSTYLE
  5
A
330
0
100
AcDbSymbolTable
 70
     1
100
AcDbDimStyleTable
 71
     0
  0
DIMSTYLE
105
27
330
A
100
AcDbSymbolTableRecord
100
AcDbDimStyleTableRecord
  2
Standard
 70
     0
340
11
1001
ACAD_DSTYLE_DIMBREAK
1070
   391
1040
6.349999999999999
  0
ENDTAB
  0
TABLE
  2
BLOCK_RECORD
  5
1
330
0
100
AcDbSymbolTable
 70
    16
  0
BLOCK_RECORD
  5
1F
102
{ACAD_XDICTIONARY
360
30E
102
}
330
1
100
AcDbSymbolTableRecord
100
AcDbBlockTableRecord
  2
*Model_Space
340
22
  0
BLOCK_RECORD
  5
1B
330
1
100
AcDbSymbolTableRecord
100
AcDbBlockTableRecord
  2
*Paper_Space
340
1E
  0
BLOCK_RECORD
  5
23
330
1
100
AcDbSymbolTableRecord
100
AcDbBlockTableRecord
  2
*Paper_Space0
340
26
  0
BLOCK_RECORD
  5
1FE
330
1
100
AcDbSymbolTableRecord
100
AcDbBlockTableRecord
  2
ASSORTED_DRAFT1
340
0
  0
BLOCK_RECORD
  5
208
330
1
100
AcDbSymbolTableRecord
100
AcDbBlockTableRecord
  2
*D2
340
0
  0
BLOCK_RECORD
  5
213
330
1
100
AcDbSymbolTableRecord
100
AcDbBlockTableRecord
  2
_U0
340
0
  0
BLOCK_RECORD
  5
21E
330
1
100
AcDbSymbolTableRecord
100
AcDbBlockTableRecord
  2
*D4
340
0
  0
BLOCK_RECORD
  5
22A
330
1
100
AcDbSymbolTableRecord
100
AcDbBlockTableRecord
  2
_U1
340
0
  0
BLOCK_RECORD
  5
237
330
1
100
AcDbSymbolTableRecord
100
AcDbBlockTableRecord
  2
*D6
340
0
  0
BLOCK_RECORD
  5
243
330
1
100
AcDbSymbolTableRecord
100
AcDbBlockTableRecord
  2
_U2
340
0
  0
BLOCK_RECORD
  5
250
330
1
100
AcDbSymbolTableRecord
100
AcDbBlockTableRecord
  2
*D8
340
0
  0
BLOCK_RECORD
  5
25C
330
1
100
AcDbSymbolTableRecord
100
AcDbBlockTableRecord
  2
_U3
340
0
  0
BLOCK_RECORD
  5
268
330
1
100
AcDbSymbolTableRecord
100
AcDbBlockTableRecord
  2
*D10
340
0
  0
BLOCK_RECORD
  5
274
330
1
100
AcDbSymbolTableRecord
100
AcDbBlockTableRecord
  2
_U4
340
0
  0
BLOCK_RECORD
  5
280
330
1
100
AcDbSymbolTableRecord
100
AcDbBlockTableRecord
  2
*D12
340
0
  0
BLOCK_RECORD
  5
28C
330
1
100
AcDbSymbolTableRecord
100
AcDbBlockTableRecord
  2
_U5
340
0
  0
BLOCK_RECORD
  5
298
330
1
100
AcDbSymbolTableRecord
100
AcDbBlockTableRecord
  2
*D14
340
0
  0
BLOCK_RECORD
  5
2A4
330
1
100
AcDbSymbolTableRecord
100
AcDbBlockTableRecord
  2
_U6
340
0
  0
ENDTAB
  0
ENDSEC
  0
SECTION
  2
BLOCKS
  0
BLOCK
  5
20
330
1F
100
AcDbEntity
  8
0
100
AcDbBlockBegin
  2
*Model_Space
 70
     0
 10
0.0
 20
0.0
 30
0.0
  3
*Model_Space
  1

  0
ENDBLK
  5
21
330
1F
100
AcDbEntity
  8
0
100
AcDbBlockEnd
  0
BLOCK
  5
1C
330
1B
100
AcDbEntity
 67
     1
  8
0
100
AcDbBlockBegin
  2
*Paper_Space
 70
     0
 10
0.0
 20
0.0
 30
0.0
  3
*Paper_Space
  1

  0
ENDBLK
  5
1D
330
1B
100
AcDbEntity
 67
     1
  8
0
100
AcDbBlockEnd
  0
BLOCK
  5
24
330
23
100
AcDbEntity
 67
     1
  8
0
100
AcDbBlockBegin
  2
*Paper_Space0
 70
     0
 10
0.0
 20
0.0
 30
0.0
  3
*Paper_Space0
  1

  0
ENDBLK
  5
25
330
23
100
AcDbEntity
 67
     1
  8
0
100
AcDbBlockEnd
  0
BLOCK
  5
201
330
1FE
100
AcDbEntity
  8
0
100
AcDbBlockBegin
  2
ASSORTED_DRAFT1
 70
     0
 10
0.0
 20
0.0
 30
0.0
  3
ASSORTED_DRAFT1
  1

  0
SOLID
  5
1FF
330
1FE
100
AcDbEntity
  8
0
 62
   254
370
    13
100
AcDbTrace
 10
270.185042
 20
164.718383
 30
0.0
 11
265.185046
 21
163.60991
 31
0.0
 12
265.1850379999999
 22
165.826857
 32
0.0
 13
270.185042
 23
164.718383
 33
0.0
  0
ENDBLK
  5
202
330
1FE
100
AcDbEntity
  8
0
100
AcDbBlockEnd
  0
BLOCK
  5
209
330
208
100
AcDbEntity
  8
0
100
AcDbBlockBegin
  2
*D2
 70
     1
 10
0.0
 20
0.0
 30
0.0
  3
*D2
  1

  0
LINE
  5
20B
330
208
100
AcDbEntity
  8
0
 62
   254
370
    -2
100
AcDbLine
 10
289.987847
 20
288.907994
 30
0.0
 11
421.207343
 21
288.907994
 31
0.0
  0
LINE
  5
20C
330
208
100
AcDbEntity
  8
0
 62
   254
370
    -2
100
AcDbLine
 10
330.83929
 20
306.407994
 30
0.0
 11
421.207343
 21
306.407994
 31
0.0
  0
LINE
  5
20D
330
208
100
AcDbEntity
  8
0
 62
   254
370
    -2
100
AcDbLine
 10
420.2073429999999
 20
288.907994
 30
0.0
 11
420.2073429999999
 21
306.407994
 31
0.0
  0
SOLID
  5
20E
330
208
100
AcDbEntity
  8
0
 62
   254
100
AcDbTrace
 10
420.7906769999999
 20
302.907994
 30
0.0
 11
419.6240099999999
 21
302.907994
 31
0.0
 12
420.2073429999999
 22
306.407994
 32
0.0
 13
420.2073429999999
 23
306.407994
 33
0.0
  0
MTEXT
  5
20F
330
208
100
AcDbEntity
  8
0
 62
   254
370
    13
100
AcDbMText
 10
414.957343
 20
279.07466
 30
0.0
 40
3.5
 41
0.0
 71
     5
 72
     1
  1
\A1;35
  7
cesky
 11
0.0
 21
1.0
 31
0.0
 73
     1
 44
1.0
  0
POINT
  5
210
330
208
100
AcDbEntity
  8
Defpoints
 62
     0
100
AcDbPoint
 10
289.987847
 20
288.907994
 30
0.0
  0
POINT
  5
211
330
208
100
AcDbEntity
  8
Defpoints
 62
     0
100
AcDbPoint
 10
330.83929
 20
306.407994
 30
0.0
  0
POINT
  5
212
330
208
100
AcDbEntity
  8
Defpoints
 62
     0
100
AcDbPoint
 10
420.2073429999999
 20
306.407994
 30
0.0
  0
ENDBLK
  5
20A
330
208
100
AcDbEntity
  8
0
100
AcDbBlockEnd
  0
BLOCK
  5
219
330
213
100
AcDbEntity
  8
0
100
AcDbBlockBegin
  2
_U0
 70
     0
 10
0.0
 20
0.0
 30
0.0
  3
_U0
  1

  0
ENDBLK
  5
21A
330
213
100
AcDbEntity
  8
0
100
AcDbBlockEnd
  0
BLOCK
  5
21F
330
21E
100
AcDbEntity
  8
0
100
AcDbBlockBegin
  2
*D4
 70
     1
 10
0.0
 20
0.0
 30
0.0
  3
*D4
  1

  0
LINE
  5
221
330
21E
100
AcDbEntity
  8
0
 62
    95
370
    -2
100
AcDbLine
 10
216.404842
 20
304.907994
 30
0.0
 11
204.878544
 21
304.907994
 31
0.0
  0
LINE
  5
222
330
21E
100
AcDbEntity
  8
0
 62
    95
370
    -2
100
AcDbLine
 10
216.404842
 20
272.907994
 30
0.0
 11
204.878544
 21
272.907994
 31
0.0
  0
LINE
  5
223
330
21E
100
AcDbEntity
  8
0
 62
    95
370
    -2
100
AcDbLine
 10
205.878544
 20
301.407994
 30
0.0
 11
205.878544
 21
276.407994
 31
0.0
  0
SOLID
  5
224
330
21E
100
AcDbEntity
  8
0
 62
    95
100
AcDbTrace
 10
206.461878
 20
301.407994
 30
0.0
 11
205.295211
 21
301.407994
 31
0.0
 12
205.878544
 22
304.907994
 32
0.0
 13
205.878544
 23
304.907994
 33
0.0
  0
SOLID
  5
225
330
21E
100
AcDbEntity
  8
0
 62
    95
100
AcDbTrace
 10
205.295211
 20
276.407994
 30
0.0
 11
206.461878
 21
276.407994
 31
0.0
 12
205.878544
 22
272.907994
 32
0.0
 13
205.878544
 23
272.907994
 33
0.0
  0
MTEXT
  5
226
330
21E
100
AcDbEntity
  8
0
 62
    95
370
    13
100
AcDbMText
 10
200.628544
 20
288.907994
 30
0.0
 40
3.5
 41
0.0
 71
     5
 72
     1
  1
\A1;32
  7
cesky
 11
0.0
 21
1.0
 31
0.0
 73
     1
 44
1.0
  0
POINT
  5
227
330
21E
100
AcDbEntity
  8
Defpoints
 62
     0
100
AcDbPoint
 10
216.404842
 20
304.907994
 30
0.0
  0
POINT
  5
228
330
21E
100
AcDbEntity
  8
Defpoints
 62
     0
100
AcDbPoint
 10
216.404842
 20
272.907994
 30
0.0
  0
POINT
  5
229
330
21E
100
AcDbEntity
  8
Defpoints
 62
     0
100
AcDbPoint
 10
205.878544
 20
272.907994
 30
0.0
  0
ENDBLK
  5
220
330
21E
100
AcDbEntity
  8
0
100
AcDbBlockEnd
  0
BLOCK
  5
232
330
22A
100
AcDbEntity
  8
0
100
AcDbBlockBegin
  2
_U1
 70
     0
 10
0.0
 20
0.0
 30
0.0
  3
_U1
  1

  0
ENDBLK
  5
233
330
22A
100
AcDbEntity
  8
0
100
AcDbBlockEnd
  0
BLOCK
  5
238
330
237
100
AcDbEntity
  8
0
100
AcDbBlockBegin
  2
*D6
 70
     1
 10
0.0
 20
0.0
 30
0.0
  3
*D6
  1

  0
LINE
  5
23A
330
237
100
AcDbEntity
  8
0
 62
    95
370
    -2
100
AcDbLine
 10
277.154842
 20
309.907994
 30
0.0
 11
192.519918
 21
309.907994
 31
0.0
  0
LINE
  5
23B
330
237
100
AcDbEntity
  8
0
 62
    95
370
    -2
100
AcDbLine
 10
277.154842
 20
267.907994
 30
0.0
 11
192.519918
 21
267.907994
 31
0.0
  0
LINE
  5
23C
330
237
100
AcDbEntity
  8
0
 62
    95
370
    -2
100
AcDbLine
 10
193.519918
 20
306.407994
 30
0.0
 11
193.519918
 21
271.407994
 31
0.0
  0
SOLID
  5
23D
330
237
100
AcDbEntity
  8
0
 62
    95
100
AcDbTrace
 10
194.103251
 20
306.407994
 30
0.0
 11
192.936584
 21
306.407994
 31
0.0
 12
193.519918
 22
309.907994
 32
0.0
 13
193.519918
 23
309.907994
 33
0.0
  0
SOLID
  5
23E
330
237
100
AcDbEntity
  8
0
 62
    95
100
AcDbTrace
 10
192.936584
 20
271.407994
 30
0.0
 11
194.103251
 21
271.407994
 31
0.0
 12
193.519918
 22
267.907994
 32
0.0
 13
193.519918
 23
267.907994
 33
0.0
  0
MTEXT
  5
23F
330
237
100
AcDbEntity
  8
0
 62
    95
370
    13
100
AcDbMText
 10
188.269918
 20
288.907994
 30
0.0
 40
3.5
 41
0.0
 71
     5
 72
     1
  1
\A1;42
  7
cesky
 11
0.0
 21
1.0
 31
0.0
 73
     1
 44
1.0
  0
POINT
  5
240
330
237
100
AcDbEntity
  8
Defpoints
 62
     0
100
AcDbPoint
 10
277.154842
 20
309.907994
 30
0.0
  0
POINT
  5
241
330
237
100
AcDbEntity
  8
Defpoints
 62
     0
100
AcDbPoint
 10
277.154842
 20
267.907994
 30
0.0
  0
POINT
  5
242
330
237
100
AcDbEntity
  8
Defpoints
 62
     0
100
AcDbPoint
 10
193.519918
 20
267.907994
 30
0.0
  0
ENDBLK
  5
239
330
237
100
AcDbEntity
  8
0
100
AcDbBlockEnd
  0
BLOCK
  5
24B
330
243
100
AcDbEntity
  8
0
100
AcDbBlockBegin
  2
_U2
 70
     0
 10
0.0
 20
0.0
 30
0.0
  3
_U2
  1

  0
ENDBLK
  5
24C
330
243
100
AcDbEntity
  8
0
100
AcDbBlockEnd
  0
BLOCK
  5
251
330
250
100
AcDbEntity
  8
0
100
AcDbBlockBegin
  2
*D8
 70
     1
 10
0.0
 20
0.0
 30
0.0
  3
*D8
  1

  0
LINE
  5
253
330
250
100
AcDbEntity
  8
0
 62
   254
370
    -2
100
AcDbLine
 10
404.404842
 20
308.407994
 30
0.0
 11
404.404842
 21
341.687968
 31
0.0
  0
LINE
  5
254
330
250
100
AcDbEntity
  8
0
 62
   254
370
    -2
100
AcDbLine
 10
214.404842
 20
302.907994
 30
0.0
 11
214.404842
 21
341.687968
 31
0.0
  0
LINE
  5
255
330
250
100
AcDbEntity
  8
0
 62
   254
370
    -2
100
AcDbLine
 10
400.904842
 20
340.687968
 30
0.0
 11
217.904842
 21
340.687968
 31
0.0
  0
SOLID
  5
256
330
250
100
AcDbEntity
  8
0
 62
   254
100
AcDbTrace
 10
400.904842
 20
340.104634
 30
0.0
 11
400.904842
 21
341.271301
 31
0.0
 12
404.404842
 22
340.687968
 32
0.0
 13
404.404842
 23
340.687968
 33
0.0
  0
SOLID
  5
257
330
250
100
AcDbEntity
  8
0
 62
   254
100
AcDbTrace
 10
217.904842
 20
341.271301
 30
0.0
 11
217.904842
 21
340.104634
 31
0.0
 12
214.404842
 22
340.687968
 32
0.0
 13
214.404842
 23
340.687968
 33
0.0
  0
MTEXT
  5
258
330
250
100
AcDbEntity
  8
0
 62
   254
370
    13
100
AcDbMText
 10
309.404842
 20
345.937968
 30
0.0
 40
3.5
 41
0.0
 71
     5
 72
     1
  1
\A1;190
  7
cesky
 73
     1
 44
1.0
  0
POINT
  5
259
330
250
100
AcDbEntity
  8
Defpoints
 62
     0
100
AcDbPoint
 10
404.404842
 20
308.407994
 30
0.0
  0
POINT
  5
25A
330
250
100
AcDbEntity
  8
Defpoints
 62
     0
100
AcDbPoint
 10
214.404842
 20
302.907994
 30
0.0
  0
POINT
  5
25B
330
250
100
AcDbEntity
  8
Defpoints
 62
     0
100
AcDbPoint
 10
214.404842
 20
340.687968
 30
0.0
  0
ENDBLK
  5
252
330
250
100
AcDbEntity
  8
0
100
AcDbBlockEnd
  0
BLOCK
  5
263
330
25C
100
AcDbEntity
  8
0
100
AcDbBlockBegin
  2
_U3
 70
     0
 10
0.0
 20
0.0
 30
0.0
  3
_U3
  1

  0
ENDBLK
  5
264
330
25C
100
AcDbEntity
  8
0
100
AcDbBlockEnd
  0
BLOCK
  5
269
330
268
100
AcDbEntity
  8
0
100
AcDbBlockBegin
  2
*D10
 70
     1
 10
0.0
 20
0.0
 30
0.0
  3
*D10
  1

  0
LINE
  5
26B
330
268
100
AcDbEntity
  8
0
 62
   254
370
    -2
100
AcDbLine
 10
274.404842
 20
288.907994
 30
0.0
 11
274.404842
 21
328.5109970000001
 31
0.0
  0
LINE
  5
26C
330
268
100
AcDbEntity
  8
0
 62
   254
370
    -2
100
AcDbLine
 10
214.404842
 20
295.907994
 30
0.0
 11
214.404842
 21
328.5109970000001
 31
0.0
  0
LINE
  5
26D
330
268
100
AcDbEntity
  8
0
 62
   254
370
    -2
100
AcDbLine
 10
270.904842
 20
327.510997
 30
0.0
 11
217.904842
 21
327.510997
 31
0.0
  0
SOLID
  5
26E
330
268
100
AcDbEntity
  8
0
 62
   254
100
AcDbTrace
 10
270.904842
 20
326.927663
 30
0.0
 11
270.904842
 21
328.09433
 31
0.0
 12
274.404842
 22
327.510997
 32
0.0
 13
274.404842
 23
327.510997
 33
0.0
  0
SOLID
  5
26F
330
268
100
AcDbEntity
  8
0
 62
   254
100
AcDbTrace
 10
217.904842
 20
328.09433
 30
0.0
 11
217.904842
 21
326.927663
 31
0.0
 12
214.404842
 22
327.510997
 32
0.0
 13
214.404842
 23
327.510997
 33
0.0
  0
MTEXT
  5
270
330
268
100
AcDbEntity
  8
0
 62
   254
370
    13
100
AcDbMText
 10
244.404842
 20
332.7609970000001
 30
0.0
 40
3.5
 41
0.0
 71
     5
 72
     1
  1
\A1;60
  7
cesky
 73
     1
 44
1.0
  0
POINT
  5
271
330
268
100
AcDbEntity
  8
Defpoints
 62
     0
100
AcDbPoint
 10
274.404842
 20
288.907994
 30
0.0
  0
POINT
  5
272
330
268
100
AcDbEntity
  8
Defpoints
 62
     0
100
AcDbPoint
 10
214.404842
 20
295.907994
 30
0.0
  0
POINT
  5
273
330
268
100
AcDbEntity
  8
Defpoints
 62
     0
100
AcDbPoint
 10
214.404842
 20
327.510997
 30
0.0
  0
ENDBLK
  5
26A
330
268
100
AcDbEntity
  8
0
100
AcDbBlockEnd
  0
BLOCK
  5
27B
330
274
100
AcDbEntity
  8
0
100
AcDbBlockBegin
  2
_U4
 70
     0
 10
0.0
 20
0.0
 30
0.0
  3
_U4
  1

  0
ENDBLK
  5
27C
330
274
100
AcDbEntity
  8
0
100
AcDbBlockEnd
  0
BLOCK
  5
281
330
280
100
AcDbEntity
  8
0
100
AcDbBlockBegin
  2
*D12
 70
     1
 10
0.0
 20
0.0
 30
0.0
  3
*D12
  1

  0
LINE
  5
283
330
280
100
AcDbEntity
  8
0
 62
   254
370
    -2
100
AcDbLine
 10
404.404842
 20
306.407994
 30
0.0
 11
404.404842
 21
317.848012
 31
0.0
  0
LINE
  5
284
330
280
100
AcDbEntity
  8
0
 62
   254
370
    -2
100
AcDbLine
 10
291.916265
 20
306.077281
 30
0.0
 11
291.916265
 21
317.848012
 31
0.0
  0
LINE
  5
285
330
280
100
AcDbEntity
  8
0
 62
   254
370
    -2
100
AcDbLine
 10
400.904842
 20
316.848012
 30
0.0
 11
295.416265
 21
316.848012
 31
0.0
  0
SOLID
  5
286
330
280
100
AcDbEntity
  8
0
 62
   254
100
AcDbTrace
 10
400.904842
 20
316.264679
 30
0.0
 11
400.904842
 21
317.431346
 31
0.0
 12
404.404842
 22
316.848012
 32
0.0
 13
404.404842
 23
316.848012
 33
0.0
  0
SOLID
  5
287
330
280
100
AcDbEntity
  8
0
 62
   254
100
AcDbTrace
 10
295.416265
 20
317.431346
 30
0.0
 11
295.416265
 21
316.264679
 31
0.0
 12
291.916265
 22
316.848012
 32
0.0
 13
291.916265
 23
316.848012
 33
0.0
  0
MTEXT
  5
288
330
280
100
AcDbEntity
  8
0
 62
   254
370
    13
100
AcDbMText
 10
348.160554
 20
322.098012
 30
0.0
 40
3.5
 41
0.0
 71
     5
 72
     1
  1
\A1;112.5
  7
cesky
 73
     1
 44
1.0
  0
POINT
  5
289
330
280
100
AcDbEntity
  8
Defpoints
 62
     0
100
AcDbPoint
 10
404.404842
 20
306.407994
 30
0.0
  0
POINT
  5
28A
330
280
100
AcDbEntity
  8
Defpoints
 62
     0
100
AcDbPoint
 10
291.916265
 20
306.077281
 30
0.0
  0
POINT
  5
28B
330
280
100
AcDbEntity
  8
Defpoints
 62
     0
100
AcDbPoint
 10
291.916265
 20
316.848012
 30
0.0
  0
ENDBLK
  5
282
330
280
100
AcDbEntity
  8
0
100
AcDbBlockEnd
  0
BLOCK
  5
293
330
28C
100
AcDbEntity
  8
0
100
AcDbBlockBegin
  2
_U5
 70
     0
 10
0.0
 20
0.0
 30
0.0
  3
_U5
  1

  0
ENDBLK
  5
294
330
28C
100
AcDbEntity
  8
0
100
AcDbBlockEnd
  0
BLOCK
  5
299
330
298
100
AcDbEntity
  8
0
100
AcDbBlockBegin
  2
*D14
 70
     1
 10
0.0
 20
0.0
 30
0.0
  3
*D14
  1

  0
LINE
  5
29B
330
298
100
AcDbEntity
  8
0
 62
   254
370
    -2
100
AcDbLine
 10
404.404842
 20
306.407994
 30
0.0
 11
404.404842
 21
328.5109970000001
 31
0.0
  0
LINE
  5
29C
330
298
100
AcDbEntity
  8
0
 62
   254
370
    -2
100
AcDbLine
 10
274.404842
 20
288.907994
 30
0.0
 11
274.404842
 21
328.5109970000001
 31
0.0
  0
LINE
  5
29D
330
298
100
AcDbEntity
  8
0
 62
   254
370
    -2
100
AcDbLine
 10
400.904842
 20
327.510997
 30
0.0
 11
277.904842
 21
327.510997
 31
0.0
  0
SOLID
  5
29E
330
298
100
AcDbEntity
  8
0
 62
   254
100
AcDbTrace
 10
400.904842
 20
326.927663
 30
0.0
 11
400.904842
 21
328.09433
 31
0.0
 12
404.404842
 22
327.510997
 32
0.0
 13
404.404842
 23
327.510997
 33
0.0
  0
SOLID
  5
29F
330
298
100
AcDbEntity
  8
0
 62
   254
100
AcDbTrace
 10
277.904842
 20
328.09433
 30
0.0
 11
277.904842
 21
326.927663
 31
0.0
 12
274.404842
 22
327.510997
 32
0.0
 13
274.404842
 23
327.510997
 33
0.0
  0
MTEXT
  5
2A0
330
298
100
AcDbEntity
  8
0
 62
   254
370
    13
100
AcDbMText
 10
339.404842
 20
332.7609970000001
 30
0.0
 40
3.5
 41
0.0
 71
     5
 72
     1
  1
\A1;130
  7
cesky
 73
     1
 44
1.0
  0
POINT
  5
2A1
330
298
100
AcDbEntity
  8
Defpoints
 62
     0
100
AcDbPoint
 10
404.404842
 20
306.407994
 30
0.0
  0
POINT
  5
2A2
330
298
100
AcDbEntity
  8
Defpoints
 62
     0
100
AcDbPoint
 10
274.404842
 20
288.907994
 30
0.0
  0
POINT
  5
2A3
330
298
100
AcDbEntity
  8
Defpoints
 62
     0
100
AcDbPoint
 10
274.404842
 20
327.510997
 30
0.0
  0
ENDBLK
  5
29A
330
298
100
AcDbEntity
  8
0
100
AcDbBlockEnd
  0
BLOCK
  5
2AB
330
2A4
100
AcDbEntity
  8
0
100
AcDbBlockBegin
  2
_U6
 70
     0
 10
0.0
 20
0.0
 30
0.0
  3
_U6
  1

  0
ENDBLK
  5
2AC
330
2A4
100
AcDbEntity
  8
0
100
AcDbBlockEnd
  0
ENDSEC
  0
SECTION
  2
ENTITIES
  0
POINT
  5
73
102
{ACAD_REACTORS
330
358
102
}
330
1F
100
AcDbEntity
  8
80
100
AcDbPoint
 10
274.404842
 20
288.907994
 30
0.0
  0
POINT
  5
76
330
1F
100
AcDbEntity
  8
4
 60
     1
100
AcDbPoint
 10
289.987847
 20
288.907994
 30
0.0
  0
POINT
  5
78
330
1F
100
AcDbEntity
  8
4
 60
     1
100
AcDbPoint
 10
403.533637
 20
288.907994
 30
0.0
  0
POINT
  5
79
330
1F
100
AcDbEntity
  8
SK4
 60
     1
100
AcDbPoint
 10
216.404842
 20
288.907994
 30
0.0
  0
POINT
  5
7A
330
1F
100
AcDbEntity
  8
SK4
 60
     1
100
AcDbPoint
 10
274.404842
 20
288.907994
 30
0.0
  0
POINT
  5
7B
330
1F
100
AcDbEntity
  8
SK6
 60
     1
100
AcDbPoint
 10
274.404842
 20
288.907994
 30
0.0
  0
POINT
  5
7C
330
1F
100
AcDbEntity
  8
SK6
 60
     1
100
AcDbPoint
 10
291.916265
 20
306.077281
 30
0.0
  0
LINE
  5
7D
330
1F
100
AcDbEntity
  8
1
100
AcDbLine
 10
396.009686
 20
300.4100049999999
 30
0.0
 11
395.975874
 21
300.293879
 31
0.0
  0
LINE
  5
7F
330
1F
100
AcDbEntity
  8
1
100
AcDbLine
 10
396.076455
 20
300.347577
 30
0.0
 11
396.0420759999999
 21
300.229501
 31
0.0
  0
LINE
  5
80
330
1F
100
AcDbEntity
  8
1
100
AcDbLine
 10
398.832828
 20
299.585782
 30
0.0
 11
398.867214
 21
299.703884
 31
0.0
  0
LINE
  5
81
330
1F
100
AcDbEntity
  8
1
100
AcDbLine
 10
396.125775
 20
298.866664
 30
0.0
 11
396.09145
 21
298.748772
 31
0.0
  0
LINE
  5
82
330
1F
100
AcDbEntity
  8
1
100
AcDbLine
 10
396.079845
 20
298.84514
 30
0.0
 11
396.045836
 21
298.728333
 31
0.0
  0
LINE
  5
83
330
1F
100
AcDbEntity
  8
1
100
AcDbLine
 10
398.141322
 20
298.277049
 30
0.0
 11
398.175655
 21
298.394965
 31
0.0
  0
LINE
  5
84
330
1F
100
AcDbEntity
  8
1
100
AcDbLine
 10
398.177179
 20
298.235508
 30
0.0
 11
398.211164
 21
298.352229
 31
0.0
  0
LINE
  5
85
330
1F
100
AcDbEntity
  8
1
100
AcDbLine
 10
388.811119
 20
292.592509
 30
0.0
 11
388.81524
 21
292.60666
 31
0.0
  0
LINE
  5
8B
330
1F
100
AcDbEntity
  8
1
100
AcDbLine
 10
403.674435
 20
305.540347
 30
0.0
 11
404.0750609999999
 21
294.42014
 31
0.0
  0
LINE
  5
8D
330
1F
100
AcDbEntity
  8
1
100
AcDbLine
 10
391.732543
 20
305.8996009999999
 30
0.0
 11
402.870649
 21
306.287928
 31
0.0
  0
LINE
  5
8E
330
1F
100
AcDbEntity
  8
1
100
AcDbLine
 10
391.385199
 20
293.977712
 30
0.0
 11
390.984573
 21
305.09792
 31
0.0
  0
LINE
  5
8F
330
1F
100
AcDbEntity
  8
1
100
AcDbLine
 10
403.3270909999999
 20
293.618458
 30
0.0
 11
392.188985
 21
293.230132
 31
0.0
  0
LINE
  5
90
330
1F
100
AcDbEntity
  8
1
100
AcDbLine
 10
393.191007
 20
295.098884
 30
0.0
 11
392.867544
 21
304.077249
 31
0.0
  0
LINE
  5
91
330
1F
100
AcDbEntity
  8
1
100
AcDbLine
 10
402.183822
 20
295.412416
 30
0.0
 11
393.191007
 21
295.098884
 31
0.0
  0
LINE
  5
92
330
1F
100
AcDbEntity
  8
1
100
AcDbLine
 10
401.86036
 20
304.39078
 30
0.0
 11
402.183822
 21
295.412416
 31
0.0
  0
LINE
  5
93
330
1F
100
AcDbEntity
  8
1
100
AcDbLine
 10
392.867544
 20
304.077249
 30
0.0
 11
401.86036
 21
304.39078
 31
0.0
  0
LINE
  5
94
330
1F
100
AcDbEntity
  8
1
100
AcDbLine
 10
403.082841
 20
289.100571
 30
0.0
 11
403.1314029999999
 21
289.071391
 31
0.0
  0
LINE
  5
95
330
1F
100
AcDbEntity
  8
1
100
AcDbLine
 10
385.532456
 20
293.886396
 30
0.0
 11
384.88382
 21
294.255161
 31
0.0
  0
LINE
  5
96
330
1F
100
AcDbEntity
  8
1
100
AcDbLine
 10
289.987847
 20
271.907994
 30
0.0
 11
307.97755
 21
271.907994
 31
0.0
  0
LINE
  5
97
330
1F
100
AcDbEntity
  8
1
100
AcDbLine
 10
391.2084759999999
 20
305.907994
 30
0.0
 11
383.858796
 21
305.907994
 31
0.0
  0
LINE
  5
98
330
1F
100
AcDbEntity
  8
1
100
AcDbLine
 10
307.352194
 20
305.907994
 30
0.0
 11
289.987847
 21
305.907994
 31
0.0
  0
LINE
  5
99
330
1F
100
AcDbEntity
  8
1
100
AcDbLine
 10
279.404842
 20
267.907994
 30
0.0
 11
279.404842
 21
272.161769
 31
0.0
  0
LINE
  5
9A
330
1F
100
AcDbEntity
  8
1
100
AcDbLine
 10
279.404842
 20
309.907994
 30
0.0
 11
279.404842
 21
280.539784
 31
0.0
  0
LINE
  5
9B
330
1F
100
AcDbEntity
  8
1
100
AcDbLine
 10
393.922741
 20
300.635061
 30
0.0
 11
393.922657
 21
300.634773
 31
0.0
  0
LINE
  5
9C
330
1F
100
AcDbEntity
  8
1
100
AcDbLine
 10
393.922741
 20
300.635061
 30
0.0
 11
393.906611
 21
300.579663
 31
0.0
  0
LINE
  5
9D
330
1F
100
AcDbEntity
  8
1
100
AcDbLine
 10
400.819549
 20
298.566883
 30
0.0
 11
400.835679
 21
298.62228
 31
0.0
  0
LINE
  5
9E
330
1F
100
AcDbEntity
  8
1
100
AcDbLine
 10
396.652908
 20
298.225859
 30
0.0
 11
396.687224
 21
298.34372
 31
0.0
  0
LINE
  5
9F
330
1F
100
AcDbEntity
  8
1
100
AcDbLine
 10
397.44543
 20
298.180369
 30
0.0
 11
397.411046
 21
298.062275
 31
0.0
  0
LINE
  5
A0
330
1F
100
AcDbEntity
  8
1
100
AcDbLine
 10
396.087097
 20
299.795495
 30
0.0
 11
396.122635
 21
299.917552
 31
0.0
  0
LINE
  5
A1
330
1F
100
AcDbEntity
  8
1
100
AcDbLine
 10
398.654536
 20
299.404192
 30
0.0
 11
398.618997
 21
299.282134
 31
0.0
  0
LINE
  5
A2
330
1F
100
AcDbEntity
  8
1
100
AcDbLine
 10
398.948573
 20
299.65518
 30
0.0
 11
398.965903
 21
299.714699
 31
0.0
  0
LINE
  5
A3
330
1F
100
AcDbEntity
  8
1
100
AcDbLine
 10
397.295048
 20
301.015354
 30
0.0
 11
397.32335
 21
301.112556
 31
0.0
  0
LINE
  5
A4
330
1F
100
AcDbEntity
  8
1
100
AcDbLine
 10
398.071615
 20
300.915062
 30
0.0
 11
398.053187
 21
300.851769
 31
0.0
  0
LINE
  5
A5
330
1F
100
AcDbEntity
  8
81
100
AcDbLine
 10
402.4048419999999
 20
306.407994
 30
0.0
 11
406.4048419999999
 21
306.407994
 31
0.0
  0
LINE
  5
A6
330
1F
100
AcDbEntity
  8
SK1
100
AcDbLine
 10
216.404842
 20
272.907994
 30
0.0
 11
274.404842
 21
272.907994
 31
0.0
  0
LINE
  5
A7
330
1F
100
AcDbEntity
  8
81
100
AcDbLine
 10
404.404842
 20
308.407994
 30
0.0
 11
404.404842
 21
304.407994
 31
0.0
  0
LINE
  5
A8
330
1F
100
AcDbEntity
  8
80
100
AcDbLine
 10
274.404842
 20
287.90842
 30
0.0
 11
274.404842
 21
289.907567
 31
0.0
  0
LINE
  5
A9
330
1F
100
AcDbEntity
  8
1
100
AcDbLine
 10
274.904842
 20
267.907994
 30
0.0
 11
279.404842
 21
267.907994
 31
0.0
  0
LINE
  5
AA
330
1F
100
AcDbEntity
  8
1
100
AcDbLine
 10
274.404842
 20
309.407994
 30
0.0
 11
274.404842
 21
288.907994
 31
0.0
  0
LINE
  5
AB
330
1F
100
AcDbEntity
  8
1
100
AcDbLine
 10
274.404842
 20
288.907994
 30
0.0
 11
274.404842
 21
268.407994
 31
0.0
  0
LINE
  5
AC
330
1F
100
AcDbEntity
  8
SK1
100
AcDbLine
 10
214.404842
 20
274.907994
 30
0.0
 11
216.404842
 21
272.907994
 31
0.0
  0
LINE
  5
AD
330
1F
100
AcDbEntity
  8
SK1
100
AcDbLine
 10
216.404842
 20
304.907994
 30
0.0
 11
214.404842
 21
302.907994
 31
0.0
  0
LINE
  5
AE
330
1F
100
AcDbEntity
  8
SK1
100
AcDbLine
 10
274.404842
 20
304.907994
 30
0.0
 11
216.404842
 21
304.907994
 31
0.0
  0
LINE
  5
AF
330
1F
100
AcDbEntity
  8
1
100
AcDbLine
 10
274.904842
 20
267.907994
 30
0.0
 11
274.404842
 21
268.407994
 31
0.0
  0
LINE
  5
B0
330
1F
100
AcDbEntity
  8
1
100
AcDbLine
 10
274.404842
 20
309.407994
 30
0.0
 11
274.904842
 21
309.907994
 31
0.0
  0
LINE
  5
B1
330
1F
100
AcDbEntity
  8
1
100
AcDbLine
 10
279.404842
 20
309.907994
 30
0.0
 11
274.904842
 21
309.907994
 31
0.0
  0
LINE
  5
B2
330
1F
100
AcDbEntity
  8
80
100
AcDbLine
 10
275.404416
 20
288.907994
 30
0.0
 11
273.405268
 21
288.907994
 31
0.0
  0
LINE
  5
B3
330
1F
100
AcDbEntity
  8
1
100
AcDbLine
 10
403.237296
 20
288.961736
 30
0.0
 11
403.69747
 21
288.131559
 31
0.0
  0
LINE
  5
B4
330
1F
100
AcDbEntity
  8
1
100
AcDbLine
 10
403.570267
 20
280.844096
 30
0.0
 11
403.0813999999999
 21
280.030484
 31
0.0
  0
LINE
  5
B5
330
1F
100
AcDbEntity
  8
1
100
AcDbLine
 10
402.9717449999999
 20
279.924592
 30
0.0
 11
402.725649
 21
279.7881779999999
 31
0.0
  0
LINE
  5
B6
330
1F
100
AcDbEntity
  8
1
100
AcDbLine
 10
403.734349
 20
287.983649
 30
0.0
 11
403.6122849999999
 21
280.990629
 31
0.0
  0
LINE
  5
B7
330
1F
100
AcDbEntity
  8
1
100
AcDbLine
 10
297.904842
 20
272.121773
 30
0.0
 11
297.904842
 21
272.093896
 31
0.0
  0
LINE
  5
B8
330
1F
100
AcDbEntity
  8
1
100
AcDbLine
 10
401.406691
 20
283.153494
 30
0.0
 11
401.8490039999999
 21
283.153494
 31
0.0
  0
LINE
  5
B9
330
1F
100
AcDbEntity
  8
1
100
AcDbLine
 10
295.168681
 20
273.01608
 30
0.0
 11
295.168681
 21
272.255668
 31
0.0
  0
LINE
  5
BA
330
1F
100
AcDbEntity
  8
1
100
AcDbLine
 10
391.276552
 20
305.7258470000001
 30
0.0
 11
391.270451
 21
305.902333
 31
0.0
  0
LINE
  5
BB
330
1F
100
AcDbEntity
  8
1
100
AcDbLine
 10
394.744541
 20
293.113531
 30
0.0
 11
403.464216
 21
293.417539
 31
0.0
  0
LINE
  5
BC
330
1F
100
AcDbEntity
  8
1
100
AcDbLine
 10
403.466345
 20
293.164508
 30
0.0
 11
403.464216
 21
293.417539
 31
0.0
  0
LINE
  5
BD
330
1F
100
AcDbEntity
  8
1
100
AcDbLine
 10
403.386048
 20
292.626478
 30
0.0
 11
392.293323
 21
292.239734
 31
0.0
  0
LINE
  5
BE
330
1F
100
AcDbEntity
  8
1
100
AcDbLine
 10
403.386048
 20
292.626478
 30
0.0
 11
401.265823
 21
289.113603
 31
0.0
  0
LINE
  5
BF
330
1F
100
AcDbEntity
  8
1
100
AcDbLine
 10
403.506195
 20
293.436792
 30
0.0
 11
394.749773
 21
293.131502
 31
0.0
  0
LINE
  5
C0
330
1F
100
AcDbEntity
  8
1
100
AcDbLine
 10
394.744541
 20
293.113531
 30
0.0
 11
394.749773
 21
293.131502
 31
0.0
  0
LINE
  5
C1
330
1F
100
AcDbEntity
  8
1
100
AcDbLine
 10
403.1531109999999
 20
289.823894
 30
0.0
 11
403.3291799999999
 21
289.820821
 31
0.0
  0
LINE
  5
C2
330
1F
100
AcDbEntity
  8
1
100
AcDbLine
 10
403.3291799999999
 20
289.820821
 30
0.0
 11
403.6126799999999
 21
290.204994
 31
0.0
  0
LINE
  5
C3
330
1F
100
AcDbEntity
  8
1
100
AcDbLine
 10
403.6126799999999
 20
290.443604
 30
0.0
 11
403.6126799999999
 21
290.204994
 31
0.0
  0
LINE
  5
C4
330
1F
100
AcDbEntity
  8
1
100
AcDbLine
 10
403.6126799999999
 20
290.443604
 30
0.0
 11
403.6548419999999
 21
290.442868
 31
0.0
  0
LINE
  5
C5
330
1F
100
AcDbEntity
  8
1
100
AcDbLine
 10
403.6548419999999
 20
293.716034
 30
0.0
 11
403.6548419999999
 21
290.442868
 31
0.0
  0
LINE
  5
C6
330
1F
100
AcDbEntity
  8
1
100
AcDbLine
 10
403.506195
 20
293.436792
 30
0.0
 11
403.50431
 21
293.66073
 31
0.0
  0
LINE
  5
C7
330
1F
100
AcDbEntity
  8
1
100
AcDbLine
 10
403.506195
 20
293.436792
 30
0.0
 11
403.464216
 21
293.417539
 31
0.0
  0
LINE
  5
C8
330
1F
100
AcDbEntity
  8
1
100
AcDbLine
 10
403.386048
 20
292.626478
 30
0.0
 11
403.400581
 21
292.633143
 31
0.0
  0
LINE
  5
C9
330
1F
100
AcDbEntity
  8
1
100
AcDbLine
 10
402.461277
 20
271.907994
 30
0.0
 11
403.150068
 21
278.397628
 31
0.0
  0
LINE
  5
CA
330
1F
100
AcDbEntity
  8
1
100
AcDbLine
 10
403.150068
 20
278.397628
 30
0.0
 11
403.1079769999999
 21
278.398302
 31
0.0
  0
LINE
  5
CB
330
1F
100
AcDbEntity
  8
1
100
AcDbLine
 10
403.1332589999999
 20
278.636502
 30
0.0
 11
403.1079769999999
 21
278.398302
 31
0.0
  0
LINE
  5
CC
330
1F
100
AcDbEntity
  8
1
100
AcDbLine
 10
403.1332589999999
 20
278.636502
 30
0.0
 11
402.8914689999999
 21
279.029483
 31
0.0
  0
LINE
  5
CD
330
1F
100
AcDbEntity
  8
1
100
AcDbLine
 10
402.8914689999999
 20
279.029483
 30
0.0
 11
402.7156989999999
 21
279.032296
 31
0.0
  0
LINE
  5
CE
330
1F
100
AcDbEntity
  8
1
100
AcDbLine
 10
402.698533
 20
279.532634
 30
0.0
 11
403.082841
 21
283.153494
 31
0.0
  0
LINE
  5
CF
330
1F
100
AcDbEntity
  8
1
100
AcDbLine
 10
402.4193999999999
 20
283.153494
 30
0.0
 11
403.082841
 21
283.153494
 31
0.0
  0
LINE
  5
D0
330
1F
100
AcDbEntity
  8
1
100
AcDbLine
 10
403.082841
 20
283.153494
 30
0.0
 11
403.082841
 21
289.325044
 31
0.0
  0
LINE
  5
D1
330
1F
100
AcDbEntity
  8
1
100
AcDbLine
 10
391.006068
 20
305.291131
 30
0.0
 11
390.987297
 21
305.8341299999999
 31
0.0
  0
LINE
  5
D2
330
1F
100
AcDbEntity
  8
SK1
100
AcDbLine
 10
216.404842
 20
304.907994
 30
0.0
 11
216.404842
 21
272.907994
 31
0.0
  0
LINE
  5
D3
330
1F
100
AcDbEntity
  8
SK1
100
AcDbLine
 10
214.404842
 20
302.907994
 30
0.0
 11
214.404842
 21
274.907994
 31
0.0
  0
LINE
  5
D4
330
1F
100
AcDbEntity
  8
1
100
AcDbLine
 10
391.085129
 20
296.514043
 30
0.0
 11
391.079897
 21
296.496072
 31
0.0
  0
LINE
  5
D5
330
1F
100
AcDbEntity
  8
1
100
AcDbLine
 10
391.085129
 20
296.514043
 30
0.0
 11
390.762932
 21
305.834494
 31
0.0
  0
LINE
  5
D6
330
1F
100
AcDbEntity
  8
1
100
AcDbLine
 10
390.758133
 20
305.803968
 30
0.0
 11
391.079897
 21
296.496072
 31
0.0
  0
LINE
  5
D7
330
1F
100
AcDbEntity
  8
1
100
AcDbLine
 10
402.461277
 20
271.907994
 30
0.0
 11
382.569348
 21
271.907994
 31
0.0
  0
LINE
  5
D8
330
1F
100
AcDbEntity
  8
1
100
AcDbLine
 10
274.904842
 20
267.907994
 30
0.0
 11
274.904842
 21
288.907994
 31
0.0
  0
LINE
  5
D9
330
1F
100
AcDbEntity
  8
1
100
AcDbLine
 10
274.904842
 20
288.907994
 30
0.0
 11
274.904842
 21
309.907994
 31
0.0
  0
LINE
  5
DA
330
1F
100
AcDbEntity
  8
1
100
AcDbLine
 10
402.95972
 20
281.132711
 30
0.0
 11
402.9777039999999
 21
282.162979
 31
0.0
  0
LINE
  5
DB
330
1F
100
AcDbEntity
  8
1
100
AcDbLine
 10
402.844489
 20
280.907842
 30
0.0
 11
402.941569
 21
281.06941
 31
0.0
  0
LINE
  5
DC
330
1F
100
AcDbEntity
  8
1
100
AcDbLine
 10
404.3593819999999
 20
288.296592
 30
0.0
 11
403.728011
 21
289.435615
 31
0.0
  0
LINE
  5
DD
330
1F
100
AcDbEntity
  8
1
100
AcDbLine
 10
403.623573
 20
289.546675
 30
0.0
 11
403.438136
 21
289.664481
 31
0.0
  0
LINE
  5
DE
330
1F
100
AcDbEntity
  8
1
100
AcDbLine
 10
403.1734089999999
 20
289.8235450000001
 30
0.0
 11
403.438136
 21
289.664481
 31
0.0
  0
LINE
  5
DF
330
1F
100
AcDbEntity
  8
1
100
AcDbLine
 10
403.556683
 20
279.538314
 30
0.0
 11
403.67449
 21
279.723751
 31
0.0
  0
LINE
  5
E0
330
1F
100
AcDbEntity
  8
1
100
AcDbLine
 10
404.2334059999999
 20
280.653944
 30
0.0
 11
403.67449
 21
279.723751
 31
0.0
  0
LINE
  5
E1
330
1F
100
AcDbEntity
  8
1
100
AcDbLine
 10
404.399861
 20
287.929483
 30
0.0
 11
404.275424
 21
280.800477
 31
0.0
  0
LINE
  5
E2
330
1F
100
AcDbEntity
  8
1
100
AcDbLine
 10
404.399861
 20
287.929483
 30
0.0
 11
404.398222
 21
288.149171
 31
0.0
  0
LINE
  5
E3
330
1F
100
AcDbEntity
  8
1
100
AcDbLine
 10
402.7210089999999
 20
279.032216
 30
0.0
 11
403.4456239999999
 21
279.433876
 31
0.0
  0
LINE
  5
E4
330
1F
100
AcDbEntity
  8
1
100
AcDbLine
 10
403.682658
 20
289.497775
 30
0.0
 11
403.190758
 21
289.022752
 31
0.0
  0
LINE
  5
E5
330
1F
100
AcDbEntity
  8
1
100
AcDbLine
 10
402.816018
 20
288.66087
 30
0.0
 11
402.708098
 21
288.556653
 31
0.0
  0
LINE
  5
E6
330
1F
100
AcDbEntity
  8
1
100
AcDbLine
 10
404.388062
 20
288.22519
 30
0.0
 11
403.7245529999999
 21
288.059759
 31
0.0
  0
LINE
  5
E7
330
1F
100
AcDbEntity
  8
1
100
AcDbLine
 10
403.073508
 20
287.897435
 30
0.0
 11
403.7245529999999
 21
288.059759
 31
0.0
  0
LINE
  5
E8
330
1F
100
AcDbEntity
  8
1
100
AcDbLine
 10
403.5998399999999
 20
280.914907
 30
0.0
 11
402.954856
 21
281.099853
 31
0.0
  0
LINE
  5
E9
330
1F
100
AcDbEntity
  8
1
100
AcDbLine
 10
403.5998399999999
 20
280.914907
 30
0.0
 11
404.2640669999999
 21
280.724443
 31
0.0
  0
LINE
  5
EA
330
1F
100
AcDbEntity
  8
1
100
AcDbLine
 10
402.773566
 20
280.239534
 30
0.0
 11
403.0327609999999
 21
279.97113
 31
0.0
  0
LINE
  5
EB
330
1F
100
AcDbEntity
  8
1
100
AcDbLine
 10
403.507783
 20
279.47923
 30
0.0
 11
403.0327609999999
 21
279.97113
 31
0.0
  0
LINE
  5
EC
330
1F
100
AcDbEntity
  8
1
100
AcDbLine
 10
385.55638
 20
293.950262
 30
0.0
 11
383.685026
 21
295.028261
 31
0.0
  0
LINE
  5
ED
330
1F
100
AcDbEntity
  8
1
100
AcDbLine
 10
401.92128
 20
292.611216
 30
0.0
 11
392.285309
 21
292.275261
 31
0.0
  0
LINE
  5
118
330
1F
100
AcDbEntity
  8
NOCUT
100
AcDbLine
 10
279.404842
 20
309.907994
 30
0.0
 11
274.904842
 21
309.907994
 31
0.0
  0
LINE
  5
119
330
1F
100
AcDbEntity
  8
NOCUT
100
AcDbLine
 10
214.404842
 20
302.907994
 30
0.0
 11
214.404842
 21
288.907994
 31
0.0
  0
LINE
  5
11A
330
1F
100
AcDbEntity
  8
NOCUT
100
AcDbLine
 10
274.404842
 20
304.907994
 30
0.0
 11
216.404842
 21
304.907994
 31
0.0
  0
LINE
  5
11B
330
1F
100
AcDbEntity
  8
NOCUT
100
AcDbLine
 10
289.987847
 20
305.907994
 30
0.0
 11
403.2347989999999
 21
305.907994
 31
0.0
  0
LINE
  5
11C
330
1F
100
AcDbEntity
  8
NOCUT
100
AcDbLine
 10
403.2347989999999
 20
305.907994
 30
0.0
 11
403.6548419999999
 21
293.976223
 31
0.0
  0
LINE
  5
11D
330
1F
100
AcDbEntity
  8
NOCUT
100
AcDbLine
 10
403.6548419999999
 20
293.976223
 30
0.0
 11
403.6548419999999
 21
288.907994
 31
0.0
  0
LINE
  5
11E
330
1F
100
AcDbEntity
  8
NOCUT
100
AcDbLine
 10
403.6548419999999
 20
288.907994
 30
0.0
 11
214.404842
 21
288.907994
 31
0.0
  0
LINE
  5
11F
330
1F
100
AcDbEntity
  8
NOCUT
100
AcDbLine
 10
274.404842
 20
304.907994
 30
0.0
 11
274.404842
 21
309.407994
 31
0.0
  0
LINE
  5
120
330
1F
100
AcDbEntity
  8
NOCUT
100
AcDbLine
 10
274.404842
 20
309.407994
 30
0.0
 11
274.904842
 21
309.907994
 31
0.0
  0
LINE
  5
121
330
1F
100
AcDbEntity
  8
NOCUT
100
AcDbLine
 10
214.404842
 20
302.907994
 30
0.0
 11
216.404842
 21
304.907994
 31
0.0
  0
ARC
  5
12A
330
1F
100
AcDbEntity
  8
1
100
AcDbCircle
 10
289.987847
 20
255.907994
 30
0.0
 40
16.0
100
AcDbArc
 50
90.0
 51
131.409622
  0
ARC
  5
12B
330
1F
100
AcDbEntity
  8
1
100
AcDbCircle
 10
289.987847
 20
321.907994
 30
0.0
 40
16.0
100
AcDbArc
 50
228.590378
 51
270.0
  0
CIRCLE
  5
12C
330
1F
100
AcDbEntity
  8
1
100
AcDbCircle
 10
398.418941
 20
284.74888
 30
0.0
 40
1.35
  0
ARC
  5
12D
330
1F
100
AcDbEntity
  8
1
100
AcDbCircle
 10
398.418941
 20
284.74888
 30
0.0
 40
1.75
100
AcDbArc
 50
75.0
 51
345.0
  0
ARC
  5
138
330
1F
100
AcDbEntity
  8
NOCUT
100
AcDbCircle
 10
289.987847
 20
321.907994
 30
0.0
 40
16.0
100
AcDbArc
 50
228.590378
 51
270.0
  0
ELLIPSE
  5
139
330
1F
100
AcDbEntity
  8
1
100
AcDbEllipse
 10
397.548358
 20
299.822708
 30
0.0
 11
3.5959322242842
 21
-1.046996552062925
 31
0.0
210
0.0
220
0.0
230
1.0
 40
0.998052
 41
2.152565416675813
 42
3.309358674495963
  0
ELLIPSE
  5
13A
330
1F
100
AcDbEntity
  8
1
100
AcDbEllipse
 10
397.548358
 20
299.822708
 30
0.0
 11
3.5959322242842
 21
-1.046996552062925
 31
0.0
210
0.0
220
0.0
230
1.0
 40
0.998052
 41
5.40558638198275
 42
6.283185307179585
  0
ELLIPSE
  5
13B
330
1F
100
AcDbEntity
  8
1
100
AcDbEllipse
 10
397.548358
 20
299.822708
 30
0.0
 11
3.5959322242842
 21
-1.046996552062925
 31
0.0
210
0.0
220
0.0
230
1.0
 40
0.998052
 41
0.0
 42
0.9889980380481624
  0
ELLIPSE
  5
13C
330
1F
100
AcDbEntity
  8
1
100
AcDbEllipse
 10
392.7768
 20
294.644095
 30
0.0
 11
0.4816000387754345
 21
0.5169960181002846
 31
0.0
210
0.0
220
0.0
230
1.0
 40
0.019879
 41
0.5144487705536687
 42
1.531354610940801
  0
ELLIPSE
  5
13D
330
1F
100
AcDbEntity
  8
1
100
AcDbEllipse
 10
397.528561
 20
299.754717
 30
0.0
 11
3.653043491467097
 21
-1.063625146845837
 31
0.0
210
0.0
220
0.0
230
1.0
 40
0.998052
 41
1.889555174260811
 42
3.687920642748147
  0
ELLIPSE
  5
13E
330
1F
100
AcDbEntity
  8
1
100
AcDbEllipse
 10
397.528561
 20
299.754717
 30
0.0
 11
3.653043491467097
 21
-1.063625146845837
 31
0.0
210
0.0
220
0.0
230
1.0
 40
0.998052
 41
4.826355172590329
 42
6.283185307179585
  0
ELLIPSE
  5
13F
330
1F
100
AcDbEntity
  8
1
100
AcDbEllipse
 10
397.528561
 20
299.754717
 30
0.0
 11
3.653043491467097
 21
-1.063625146845837
 31
0.0
210
0.0
220
0.0
230
1.0
 40
0.998052
 41
0.0
 42
1.889555156160024
  0
ELLIPSE
  5
140
330
1F
100
AcDbEntity
  8
1
100
AcDbEllipse
 10
402.6194209999999
 20
294.987255
 30
0.0
 11
0.51729586291438
 21
-0.4818793548072696
 31
0.0
210
0.0
220
0.0
230
0.9999999999999996
 40
0.039416
 41
1.590649522301911
 42
2.60755536251593
  0
ELLIPSE
  5
141
330
1F
100
AcDbEntity
  8
1
100
AcDbEllipse
 10
397.525683
 20
299.744832
 30
0.0
 11
-3.744508187270707
 21
1.090256132962637
 31
0.0
210
0.0
220
0.0
230
0.9999999999999998
 40
0.998052
 41
0.0
 42
6.283185307179585
  0
ELLIPSE
  5
142
330
1F
100
AcDbEntity
  8
1
100
AcDbEllipse
 10
392.422771
 20
304.4709
 30
0.0
 11
0.5172958628087104
 21
-0.4818793547054919
 31
0.0
210
0.0
220
0.0
230
1.0
 40
0.039416
 41
0.5737436818189004
 42
1.590649522209305
  0
ELLIPSE
  5
143
330
1F
100
AcDbEntity
  8
1
100
AcDbEllipse
 10
402.265392
 20
304.81406
 30
0.0
 11
0.4816000387568226
 21
0.5169960180821144
 31
0.0
210
0.0
220
0.0
230
1.0
 40
0.019879
 41
1.531354610846274
 42
2.548260451268701
  0
ELLIPSE
  5
144
330
1F
100
AcDbEntity
  8
1
100
AcDbEllipse
 10
393.52319
 20
310.628476
 30
0.0
 11
6.987696282534556
 21
17.22820285198855
 31
0.0
210
0.0
220
0.0
230
0.9999999999999998
 40
0.6735300000000001
 41
3.052654252430299
 42
3.05897591370677
  0
ELLIPSE
  5
145
330
1F
100
AcDbEntity
  8
1
100
AcDbEllipse
 10
296.536761
 20
274.035372
 30
0.0
 11
-19.05864824102903
 21
3.880433398419975
 31
0.0
210
0.0
220
0.0
230
0.9999999999999998
 40
0.492404
 41
5.122645878340716
 42
5.816603122777637
  0
ELLIPSE
  5
146
330
1F
100
AcDbEntity
  8
1
100
AcDbEllipse
 10
397.37921
 20
299.628671
 30
0.0
 11
-3.456469095942193
 21
1.006390276580896
 31
0.0
210
0.0
220
0.0
230
1.0
 40
0.9980519999999998
 41
3.141577915006207
 42
5.816545785521916
  0
ELLIPSE
  5
147
330
1F
100
AcDbEntity
  8
1
100
AcDbEllipse
 10
397.37921
 20
299.628671
 30
0.0
 11
-3.456469095942193
 21
1.006390276580896
 31
0.0
210
0.0
220
0.0
230
1.0
 40
0.9980519999999998
 41
5.816546063731935
 42
6.283185307179585
  0
ELLIPSE
  5
148
330
1F
100
AcDbEntity
  8
1
100
AcDbEllipse
 10
395.974483
 20
300.162498
 30
0.0
 11
-0.0915171458923713
 21
0.0266462575564883
 31
0.0
210
0.0
220
0.0
230
0.9999999999999998
 40
0.998052
 41
3.830817107153567
 42
4.50754902403463
  0
ELLIPSE
  5
149
330
1F
100
AcDbEntity
  8
1
100
AcDbEllipse
 10
396.063791
 20
300.330516
 30
0.0
 11
-0.0915171458923712
 21
0.0266462575564882
 31
0.0
210
0.0
220
0.0
230
1.0
 40
0.998052
 41
0.1656256779656544
 42
1.365956370444547
  0
ELLIPSE
  5
14A
330
1F
100
AcDbEntity
  8
1
100
AcDbEllipse
 10
396.565824
 20
300.27099
 30
0.0
 11
-0.5769369382086554
 21
0.1679817492062006
 31
0.0
210
0.0
220
0.0
230
0.9999999999999998
 40
0.998052
 41
5.184280940915042
 42
6.448810985145187
  0
ELLIPSE
  5
14B
330
1F
100
AcDbEntity
  8
1
100
AcDbEllipse
 10
396.47081
 20
300.766763
 30
0.0
 11
-0.0915171458923733
 21
0.0266462575564889
 31
0.0
210
0.0
220
0.0
230
0.9999999999999998
 40
0.9980519999999998
 41
3.983950248436024
 42
5.184280940914999
  0
ELLIPSE
  5
14C
330
1F
100
AcDbEntity
  8
1
100
AcDbEllipse
 10
396.632347
 20
300.867603
 30
0.0
 11
-0.0915171458923733
 21
0.0266462575564889
 31
0.0
210
0.0
220
0.0
230
0.9999999999999998
 40
0.9980519999999998
 41
0.8423575948463925
 42
1.51908951172672
  0
ELLIPSE
  5
14D
330
1F
100
AcDbEntity
  8
1
100
AcDbEllipse
 10
396.798307
 20
301.344125
 30
0.0
 11
-0.5769369382086551
 21
0.1679817492062005
 31
0.0
210
0.0
220
0.0
230
1.0
 40
0.998052
 41
1.519089511726934
 42
2.783619555957085
  0
ELLIPSE
  5
14E
330
1F
100
AcDbEntity
  8
1
100
AcDbEllipse
 10
397.203531
 20
301.042
 30
0.0
 11
-0.0915171458923713
 21
0.0266462575564883
 31
0.0
210
0.0
220
0.0
230
0.9999999999999998
 40
0.998052
 41
2.783619555957089
 42
3.46035147283752
  0
ELLIPSE
  5
14F
330
1F
100
AcDbEntity
  8
1
100
AcDbEllipse
 10
397.394014
 20
301.048641
 30
0.0
 11
-0.0915171458923712
 21
0.0266462575564882
 31
0.0
210
0.0
220
0.0
230
1.0
 40
0.998052
 41
5.401613433948652
 42
6.601944126427383
  0
ELLIPSE
  5
150
330
1F
100
AcDbEntity
  8
1
100
AcDbEllipse
 10
397.593849
 20
300.584873
 30
0.0
 11
-0.5769369382086554
 21
0.1679817492062006
 31
0.0
210
0.0
220
0.0
230
0.9999999999999998
 40
0.998052
 41
4.137083389718419
 42
5.401613433948583
  0
ELLIPSE
  5
151
330
1F
100
AcDbEntity
  8
1
100
AcDbEllipse
 10
397.976315
 20
300.91446
 30
0.0
 11
-0.0915171458923733
 21
0.0266462575564889
 31
0.0
210
0.0
220
0.0
230
0.9999999999999998
 40
0.9980519999999998
 41
2.936752697239388
 42
4.137083389718406
  0
ELLIPSE
  5
152
330
1F
100
AcDbEntity
  8
1
100
AcDbEllipse
 10
398.144704
 20
300.825123
 30
0.0
 11
-0.0915171458923733
 21
0.0266462575564889
 31
0.0
210
0.0
220
0.0
230
0.9999999999999998
 40
0.9980519999999998
 41
6.078345350829168
 42
6.755077267709922
  0
ELLIPSE
  5
153
330
1F
100
AcDbEntity
  8
1
100
AcDbEllipse
 10
398.641194
 20
300.919462
 30
0.0
 11
-0.5769369382086551
 21
0.1679817492062005
 31
0.0
210
0.0
220
0.0
230
1.0
 40
0.998052
 41
0.4718919605303264
 42
1.736422004760491
  0
ELLIPSE
  5
154
330
1F
100
AcDbEntity
  8
1
100
AcDbEllipse
 10
398.582095
 20
300.418316
 30
0.0
 11
-0.0915171458923713
 21
0.0266462575564883
 31
0.0
210
0.0
220
0.0
230
0.9999999999999998
 40
0.998052
 41
1.736422004760234
 42
2.413153921641111
  0
ELLIPSE
  5
155
330
1F
100
AcDbEntity
  8
1
100
AcDbEllipse
 10
398.68327
 20
300.256939
 30
0.0
 11
-0.0915171458923712
 21
0.0266462575564882
 31
0.0
210
0.0
220
0.0
230
1.0
 40
0.998052
 41
4.354415882751769
 42
5.554746575230847
  0
ELLIPSE
  5
156
330
1F
100
AcDbEntity
  8
1
100
AcDbEllipse
 10
398.381072
 20
299.852697
 30
0.0
 11
-0.5769369382086554
 21
0.1679817492062006
 31
0.0
210
0.0
220
0.0
230
0.9999999999999998
 40
0.998052
 41
3.089885838521836
 42
4.354415882751984
  0
ELLIPSE
  5
157
330
1F
100
AcDbEntity
  8
1
100
AcDbEllipse
 10
398.858553
 20
299.686511
 30
0.0
 11
-0.0915171458923733
 21
0.0266462575564889
 31
0.0
210
0.0
220
0.0
230
0.9999999999999998
 40
0.9980519999999998
 41
1.889555146042699
 42
3.089885838521721
  0
ELLIPSE
  5
158
330
1F
100
AcDbEntity
  8
1
100
AcDbEllipse
 10
398.865404
 20
299.496334
 30
0.0
 11
-0.0915171458923733
 21
0.0266462575564889
 31
0.0
210
0.0
220
0.0
230
0.9999999999999998
 40
0.9980519999999998
 41
5.031147799632632
 42
5.707879716513247
  0
ELLIPSE
  5
159
330
1F
100
AcDbEntity
  8
1
100
AcDbEllipse
 10
399.195934
 20
299.114152
 30
0.0
 11
-0.5769369382086551
 21
0.1679817492062005
 31
0.0
210
0.0
220
0.0
230
1.0
 40
0.998052
 41
5.707879716513326
 42
6.972409760743482
  0
ELLIPSE
  5
15A
330
1F
100
AcDbEntity
  8
1
100
AcDbEllipse
 10
398.731611
 20
298.9151299999999
 30
0.0
 11
-0.0915171458923713
 21
0.0266462575564883
 31
0.0
210
0.0
220
0.0
230
0.9999999999999998
 40
0.998052
 41
0.6892244535640045
 42
1.365956370444576
  0
ELLIPSE
  5
15B
330
1F
100
AcDbEntity
  8
1
100
AcDbEllipse
 10
398.642303
 20
298.747112
 30
0.0
 11
-0.0915171458923712
 21
0.0266462575564882
 31
0.0
210
0.0
220
0.0
230
1.0
 40
0.998052
 41
3.307218331555423
 42
4.50754902403437
  0
ELLIPSE
  5
15C
330
1F
100
AcDbEntity
  8
1
100
AcDbEllipse
 10
398.1402700000001
 20
298.806638
 30
0.0
 11
-0.5769369382086554
 21
0.1679817492062006
 31
0.0
210
0.0
220
0.0
230
0.9999999999999998
 40
0.998052
 41
2.042688287325248
 42
3.30721833155539
  0
ELLIPSE
  5
15D
330
1F
100
AcDbEntity
  8
1
100
AcDbEllipse
 10
398.235284
 20
298.310865
 30
0.0
 11
-0.0915171458923733
 21
0.0266462575564889
 31
0.0
210
0.0
220
0.0
230
0.9999999999999998
 40
0.9980519999999998
 41
0.8423575948462435
 42
2.042688287325105
  0
ELLIPSE
  5
15E
330
1F
100
AcDbEntity
  8
1
100
AcDbEllipse
 10
398.073747
 20
298.210026
 30
0.0
 11
-0.0915171458923733
 21
0.0266462575564889
 31
0.0
210
0.0
220
0.0
230
0.9999999999999998
 40
0.9980519999999998
 41
3.983950248436136
 42
4.660682165316671
  0
ELLIPSE
  5
15F
330
1F
100
AcDbEntity
  8
1
100
AcDbEllipse
 10
397.907787
 20
297.733504
 30
0.0
 11
-0.5769369382086551
 21
0.1679817492062005
 31
0.0
210
0.0
220
0.0
230
1.0
 40
0.998052
 41
4.660682165316681
 42
5.92521220954686
  0
ELLIPSE
  5
160
330
1F
100
AcDbEntity
  8
1
100
AcDbEllipse
 10
397.502563
 20
298.035628
 30
0.0
 11
-0.0915171458923713
 21
0.0266462575564883
 31
0.0
210
0.0
220
0.0
230
0.9999999999999998
 40
0.998052
 41
5.925212209547022
 42
6.601944126427502
  0
ELLIPSE
  5
161
330
1F
100
AcDbEntity
  8
1
100
AcDbEllipse
 10
397.31208
 20
298.028987
 30
0.0
 11
-0.0915171458923712
 21
0.0266462575564882
 31
0.0
210
0.0
220
0.0
230
1.0
 40
0.998052
 41
2.260020780358908
 42
3.460351472837828
  0
ELLIPSE
  5
162
330
1F
100
AcDbEntity
  8
1
100
AcDbEllipse
 10
397.112245
 20
298.492756
 30
0.0
 11
-0.5769369382086554
 21
0.1679817492062006
 31
0.0
210
0.0
220
0.0
230
0.9999999999999998
 40
0.998052
 41
0.9954907361285998
 42
2.260020780358805
  0
ELLIPSE
  5
163
330
1F
100
AcDbEntity
  8
1
100
AcDbEllipse
 10
396.729779
 20
298.163169
 30
0.0
 11
-0.0915171458923733
 21
0.0266462575564889
 31
0.0
210
0.0
220
0.0
230
0.9999999999999998
 40
0.9980519999999998
 41
6.078345350829138
 42
7.278676043307994
  0
ELLIPSE
  5
164
330
1F
100
AcDbEntity
  8
1
100
AcDbEllipse
 10
396.56139
 20
298.252506
 30
0.0
 11
-0.0915171458923733
 21
0.0266462575564889
 31
0.0
210
0.0
220
0.0
230
0.9999999999999998
 40
0.9980519999999998
 41
2.936752697239419
 42
3.613484614120193
  0
ELLIPSE
  5
165
330
1F
100
AcDbEntity
  8
1
100
AcDbEllipse
 10
396.0649
 20
298.158166
 30
0.0
 11
-0.5769369382086551
 21
0.1679817492062005
 31
0.0
210
0.0
220
0.0
230
1.0
 40
0.998052
 41
3.613484614120109
 42
4.878014658350287
  0
ELLIPSE
  5
166
330
1F
100
AcDbEntity
  8
1
100
AcDbEllipse
 10
396.123999
 20
298.659312
 30
0.0
 11
-0.0915171458923713
 21
0.0266462575564883
 31
0.0
210
0.0
220
0.0
230
0.9999999999999998
 40
0.998052
 41
4.878014658350321
 42
5.554746575230848
  0
ELLIPSE
  5
167
330
1F
100
AcDbEntity
  8
1
100
AcDbEllipse
 10
396.022824
 20
298.820689
 30
0.0
 11
-0.0915171458923712
 21
0.0266462575564882
 31
0.0
210
0.0
220
0.0
230
1.0
 40
0.998052
 41
1.212823229162002
 42
2.413153921641154
  0
ELLIPSE
  5
168
330
1F
100
AcDbEntity
  8
1
100
AcDbEllipse
 10
396.325022
 20
299.2249319999999
 30
0.0
 11
-0.5769369382086554
 21
0.1679817492062006
 31
0.0
210
0.0
220
0.0
230
0.9999999999999998
 40
0.998052
 41
6.231478492111592
 42
7.496008536341769
  0
ELLIPSE
  5
169
330
1F
100
AcDbEntity
  8
1
100
AcDbEllipse
 10
395.847542
 20
299.391118
 30
0.0
 11
-0.0915171458923733
 21
0.0266462575564889
 31
0.0
210
0.0
220
0.0
230
0.9999999999999998
 40
0.9980519999999998
 41
5.031147799632845
 42
6.231478492111819
  0
ELLIPSE
  5
16A
330
1F
100
AcDbEntity
  8
1
100
AcDbEllipse
 10
395.84069
 20
299.581294
 30
0.0
 11
-0.0915171458923733
 21
0.0266462575564889
 31
0.0
210
0.0
220
0.0
230
0.9999999999999998
 40
0.9980519999999998
 41
1.889555146042816
 42
2.566287062923706
  0
ELLIPSE
  5
16B
330
1F
100
AcDbEntity
  8
1
100
AcDbEllipse
 10
395.51016
 20
299.963476
 30
0.0
 11
-0.5769369382086551
 21
0.1679817492062005
 31
0.0
210
0.0
220
0.0
230
1.0
 40
0.998052
 41
2.56628706292351
 42
3.830817107153728
  0
ELLIPSE
  5
16C
330
1F
100
AcDbEntity
  8
1
100
AcDbEllipse
 10
397.353047
 20
299.538814
 30
0.0
 11
2.016273639299611
 21
-0.5870609946721893
 31
0.0
210
0.0
220
0.0
230
0.9999999999999998
 40
0.9980520000000002
 41
0.0
 42
6.283185307179585
  0
ELLIPSE
  5
16D
330
1F
100
AcDbEntity
  8
1
100
AcDbEllipse
 10
397.36308
 20
299.573273
 30
0.0
 11
3.456469095942193
 21
-1.006390276580895
 31
0.0
210
0.0
220
0.0
230
1.0
 40
0.9980519999999998
 41
0.0
 42
6.283185307179585
  0
ELLIPSE
  5
16E
330
1F
100
AcDbEntity
  8
1
100
AcDbEllipse
 10
403.473427
 20
289.295723
 30
0.0
 11
0.1593661331954907
 21
-0.2546671895069129
 31
0.0
210
0.0
220
0.0
230
1.0
 40
0.9668320000000001
 41
1.515965207948285
 42
2.029724466608705
  0
ELLIPSE
  5
16F
330
1F
100
AcDbEntity
  8
1
100
AcDbEllipse
 10
403.969907
 20
280.808792
 30
0.0
 11
-0.2941597133632818
 21
0.0843489404830548
 31
0.0
210
0.0
220
0.0
230
0.9999999999999996
 40
0.9803469999999999
 41
2.884713024277096
 42
3.398472282902498
  0
ELLIPSE
  5
170
330
1F
100
AcDbEntity
  8
1
100
AcDbEllipse
 10
403.305732
 20
279.68846
 30
0.0
 11
0.2546671896559141
 21
0.1593661330256089
 31
0.0
210
0.0
220
0.0
230
1.0
 40
0.9668319999999999
 41
4.65755786231294
 42
5.171317120912943
  0
ELLIPSE
  5
171
330
1F
100
AcDbEntity
  8
1
100
AcDbEllipse
 10
404.1058379999999
 20
288.154824
 30
0.0
 11
0.1315188415609255
 21
-0.2701031954267135
 31
0.0
210
0.0
220
0.0
230
1.0
 40
0.9668319999999999
 41
1.111868185711031
 42
1.625627444247279
  0
ELLIPSE
  5
172
330
1F
100
AcDbEntity
  8
1
100
AcDbEllipse
 10
403.37015
 20
287.971396
 30
0.0
 11
0.343277759439539
 21
0.1251912095480309
 31
0.0
210
0.0
220
0.0
230
1.0
 40
0.81881
 41
6.264719808943821
 42
6.411625122404851
  0
ELLIPSE
  5
173
330
1F
100
AcDbEntity
  8
1
100
AcDbEllipse
 10
402.9280169999999
 20
288.769026
 30
0.0
 11
0.2880776544376973
 21
0.2247748101436377
 31
0.0
210
0.0
220
0.0
230
1.0
 40
0.81881
 41
6.154745487363505
 42
6.301650803250629
  0
ELLIPSE
  5
174
330
1F
100
AcDbEntity
  8
1
100
AcDbEllipse
 10
402.779035
 20
280.23387
 30
0.0
 11
0.2800576421968323
 21
-0.2346916518279813
 31
0.0
210
0.0
220
0.0
230
0.9999999999999998
 40
0.81881
 41
6.264719810213242
 42
6.411625124964173
  0
ELLIPSE
  5
175
330
1F
100
AcDbEntity
  8
1
100
AcDbEllipse
 10
403.248736
 20
281.015584
 30
0.0
 11
0.3386995403358828
 21
-0.1370951718835294
 31
0.0
210
0.0
220
0.0
230
1.0
 40
0.81881
 41
6.154745496895832
 42
6.301650808783012
  0
ELLIPSE
  5
176
330
1F
100
AcDbEntity
  8
1
100
AcDbEllipse
 10
402.779035
 20
280.23387
 30
0.0
 11
0.2247748089140661
 21
-0.2880776520885063
 31
0.0
210
0.0
220
0.0
230
1.0
 40
0.81881
 41
6.154745485838187
 42
6.30165080225109
  0
ELLIPSE
  5
177
330
1F
100
AcDbEntity
  8
1
100
AcDbEllipse
 10
402.9280169999999
 20
288.769026
 30
0.0
 11
0.234691656244296
 21
0.2800576495899199
 31
0.0
210
0.0
220
0.0
230
1.0
 40
0.81881
 41
6.264719807374088
 42
6.411625120411138
  0
ELLIPSE
  5
178
330
1F
100
AcDbEntity
  8
1
100
AcDbEllipse
 10
403.248736
 20
281.015584
 30
0.0
 11
0.35988283905199
 21
-0.063220110894575
 31
0.0
210
0.0
220
0.0
230
0.9999999999999998
 40
0.81881
 41
6.264719816087449
 42
6.411625134731878
  0
ELLIPSE
  5
179
330
1F
100
AcDbEntity
  8
1
100
AcDbEllipse
 10
403.37015
 20
287.971396
 30
0.0
 11
0.3618699703223234
 21
0.0506218684204572
 31
0.0
210
0.0
220
0.0
230
1.0
 40
0.81881
 41
6.154745486679203
 42
6.301650802917671
  0
ELLIPSE
  5
17A
330
1F
100
AcDbEntity
  8
1
100
AcDbEllipse
 10
223.08062
 20
288.907994
 30
0.0
 11
96.403323240299
 21
-14.83379194006092
 31
0.0
210
0.0
220
0.0
230
1.0
 40
0.086139
 41
5.492635893221601
 42
5.570249375020267
  0
ELLIPSE
  5
17B
330
1F
100
AcDbEntity
  8
1
100
AcDbEllipse
 10
394.696917
 20
288.907994
 30
0.0
 11
29.16627723173438
 21
-16.77155284761583
 31
0.0
210
0.0
220
0.0
230
1.0
 40
0.095233
 41
3.945920453783638
 42
4.454585660358168
  0
ELLIPSE
  5
17C
330
1F
100
AcDbEntity
  8
1
100
AcDbEllipse
 10
391.8297100000001
 20
288.907994
 30
0.0
 11
0.5682087805034897
 21
-16.99999639750683
 31
0.0
210
0.0
220
0.0
230
1.0
 40
0.01946
 41
2.994198265962845
 42
3.115135387344901
  0
ELLIPSE
  5
17D
330
1F
100
AcDbEntity
  8
1
100
AcDbEllipse
 10
393.024446
 20
294.926009
 30
0.0
 11
2.400325761070965
 21
-0.698882136514511
 31
0.0
210
0.0
220
0.0
230
1.0
 40
0.998052
 41
5.583674598067541
 42
5.754120264090337
  0
ELLIPSE
  5
17E
330
1F
100
AcDbEntity
  8
1
100
AcDbEllipse
 10
391.653782
 20
288.907994
 30
0.0
 11
0.4543218017441534
 21
-16.9998795671885
 31
0.0
210
0.0
220
0.0
230
0.9999999999999998
 40
0.140844
 41
3.112021756643861
 42
3.231081695608873
  0
ELLIPSE
  5
17F
330
1F
100
AcDbEntity
  8
1
100
AcDbEllipse
 10
297.740121
 20
288.907993
 30
0.0
 11
443.4585893066987
 21
16.57826407998359
 31
0.0
210
0.0
220
0.0
230
1.0
 40
0.008486
 41
4.927213275599747
 42
4.94769662594634
  0
ELLIPSE
  5
180
330
1F
100
AcDbEntity
  8
1
100
AcDbEllipse
 10
393.029678
 20
294.94398
 30
0.0
 11
-2.400325761070965
 21
0.6988821365145115
 31
0.0
210
0.0
220
0.0
230
1.0
 40
0.998052
 41
2.612527610500541
 42
2.719939696211469
  0
ELLIPSE
  5
181
330
1F
100
AcDbEntity
  8
1
100
AcDbEllipse
 10
403.1531109999999
 20
289.323818
 30
0.0
 11
0.0001758288822688
 21
-0.5000776676664211
 31
0.0
210
0.0
220
0.0
230
0.9999999999999998
 40
0.140519
 41
3.13909047596952
 42
4.709886802763091
  0
ELLIPSE
  5
182
330
1F
100
AcDbEntity
  8
1
100
AcDbEllipse
 10
403.3963799999999
 20
293.132421
 30
0.0
 11
0.0003004688419257
 21
0.500308094109688
 31
0.0
210
0.0
220
0.0
230
0.9999999999999996
 40
0.140095
 41
3.205856114034546
 42
4.776652440821212
  0
ELLIPSE
  5
183
330
1F
100
AcDbEntity
  8
1
100
AcDbEllipse
 10
402.768684
 20
279.531512
 30
0.0
 11
0.0538770024348433
 21
0.4991611425064871
 31
0.0
210
0.0
220
0.0
230
0.9999999999999998
 40
0.139171
 41
1.583568179242818
 42
3.154364506042893
  0
ELLIPSE
  5
184
330
1F
100
AcDbEntity
  8
1
100
AcDbEllipse
 10
404.2656079999999
 20
288.907994
 30
0.0
 11
1.840059080145243
 21
16.99807738858888
 31
0.0
210
0.0
220
0.0
230
1.0
 40
0.138944
 41
1.931158402550222
 42
3.15663239565108
  0
ELLIPSE
  5
185
330
1F
100
AcDbEntity
  8
1
100
AcDbEllipse
 10
403.6548419999999
 20
288.907994
 30
0.0
 11
0.0
 21
16.99999999956543
 31
0.0
210
0.0
220
0.0
230
1.0
 40
0.140541
 41
1.558701337639536
 42
1.916118660497916
  0
ELLIPSE
  5
186
330
1F
100
AcDbEntity
  8
1
100
AcDbEllipse
 10
393.110957
 20
295.2231339999999
 30
0.0
 11
-2.400325761070964
 21
0.6988821365145112
 31
0.0
210
0.0
220
0.0
230
0.9999999999999998
 40
0.998052
 41
0.0620316350026361
 42
1.889554920024139
  0
ELLIPSE
  5
187
330
1F
100
AcDbEntity
  8
1
100
AcDbEllipse
 10
393.110957
 20
295.2231339999999
 30
0.0
 11
-2.400325761070964
 21
0.6988821365145112
 31
0.0
210
0.0
220
0.0
230
0.9999999999999998
 40
0.998052
 41
1.889555320100624
 42
2.557340094754646
  0
ELLIPSE
  5
188
330
1F
100
AcDbEntity
  8
1
100
AcDbEllipse
 10
393.029678
 20
294.94398
 30
0.0
 11
-2.400325761070965
 21
0.6988821365145115
 31
0.0
210
0.0
220
0.0
230
1.0
 40
0.998052
 41
5.767257895293853
 42
5.886571819922085
  0
ELLIPSE
  5
189
330
1F
100
AcDbEntity
  8
1
100
AcDbEllipse
 10
393.024446
 20
294.926009
 30
0.0
 11
2.400325761070965
 21
-0.698882136514511
 31
0.0
210
0.0
220
0.0
230
1.0
 40
0.998052
 41
2.744979166332299
 42
4.470745924311901
  0
ELLIPSE
  5
18A
330
1F
100
AcDbEntity
  8
1
100
AcDbEllipse
 10
391.35924
 20
288.907782
 30
0.0
 11
0.5682162694122642
 21
-17.00020802897033
 31
0.0
210
0.0
220
0.0
230
1.0
 40
0.019459
 41
3.233964393577986
 42
3.251624835095702
  0
ELLIPSE
  5
18B
330
1F
100
AcDbEntity
  8
1
100
AcDbEllipse
 10
313.821129
 20
288.907994
 30
0.0
 11
96.40332319900897
 21
-14.83379193015058
 31
0.0
210
0.0
220
0.0
230
1.0
 40
0.086139
 41
4.475850101357202
 42
4.559796942509465
  0
ELLIPSE
  5
18C
330
1F
100
AcDbEntity
  8
1
100
AcDbEllipse
 10
297.904842
 20
279.526461
 30
0.0
 11
-2.405012627865787
 21
-7.62993540338359
 31
0.0
210
0.0
220
0.0
230
1.0
 40
0.17101
 41
4.295530908905596
 42
5.786093924125163
  0
ELLIPSE
  5
18D
330
1F
100
AcDbEntity
  8
1
100
AcDbEllipse
 10
402.646217
 20
281.188354
 30
0.0
 11
-0.3086390084417319
 21
0.0885008115358406
 31
0.0
210
0.0
220
0.0
230
0.9999999999999998
 40
0.6229040000000001
 41
2.976210626445484
 42
3.306974680734088
  0
ELLIPSE
  5
18E
330
1F
100
AcDbEntity
  8
1
100
AcDbEllipse
 10
391.839433
 20
304.845214
 30
0.0
 11
12.09764183579766
 21
-3.522365968033132
 31
0.0
210
0.0
220
0.0
230
1.0
 40
0.998052
 41
4.473060432049016
 42
5.030594068150769
  0
SPLINE
  5
19D
330
1F
100
AcDbEntity
  8
1
100
AcDbSpline
210
0.0
220
0.0
230
1.0
 70
     8
 71
     3
 72
    36
 73
    32
 74
     0
 42
0.000000001
 43
0.0000000001
 40
0.0
 40
0.0
 40
0.0
 40
0.0
 40
0.1249999999999101
 40
0.1249999999999101
 40
0.1874999999998529
 40
0.1874999999998529
 40
0.2187499999998283
 40
0.2187499999998283
 40
0.2499999999998037
 40
0.2499999999998037
 40
0.3749999999996846
 40
0.3749999999996846
 40
0.4062499999996449
 40
0.4062499999996449
 40
0.437499999999605
 40
0.437499999999605
 40
0.4999999999995641
 40
0.4999999999995641
 40
0.6249999999995327
 40
0.6249999999995327
 40
0.6562499999995559
 40
0.6562499999995559
 40
0.6874999999995791
 40
0.7499999999996256
 40
0.812499999999672
 40
0.812499999999672
 40
0.8437499999997271
 40
0.8437499999997271
 40
0.8749999999997822
 40
0.8749999999997822
 40
1.0
 40
1.0
 40
1.0
 40
1.0
 10
403.6744348418796
 20
305.5403472122728
 30
0.0
 10
403.672594271021
 20
305.5914360670193
 30
0.0
 10
403.6656242677893
 20
305.6414663405913
 30
0.0
 10
403.6479150575282
 20
305.7150146719882
 30
0.0
 10
403.6407931516929
 20
305.7392792465168
 30
0.0
 10
403.6282522837198
 20
305.7752926636243
 30
0.0
 10
403.6237491527189
 20
305.7872634090479
 30
0.0
 10
403.6141746180796
 20
305.8109182942506
 30
0.0
 10
403.6091131955695
 20
305.8225829374753
 30
0.0
 10
403.582465589365
 20
305.8801101390102
 30
0.0
 10
403.5568973071898
 20
305.9236080397364
 30
0.0
 10
403.519696485713
 20
305.9748685101372
 30
0.0
 10
403.5119918582275
 20
305.9849635601635
 30
0.0
 10
403.4960455592769
 20
306.0048347516997
 30
0.0
 10
403.4877838177553
 20
306.0146318792894
 30
0.0
 10
403.4624323614555
 20
306.0432526877548
 30
0.0
 10
403.4447254540729
 20
306.0613821159045
 30
0.0
 10
403.3892556754801
 20
306.1129982055531
 30
0.0
 10
403.3491668825438
 20
306.1437399742557
 30
0.0
 10
403.29504543053
 20
306.1774343151683
 30
0.0
 10
403.2839982468265
 20
306.1839440405803
 30
0.0
 10
403.261730431264
 20
306.1963446127068
 30
0.0
 10
403.227993307825
 20
306.2140666173117
 30
0.0
 10
403.1701179082317
 20
306.2392879998583
 30
0.0
 10
403.1220757183709
 20
306.2549008589567
 30
0.0
 10
403.0853766352918
 20
306.2648615990739
 30
0.0
 10
403.0730321619903
 20
306.2678898232852
 30
0.0
 10
403.0481152994353
 20
306.2733490603342
 30
0.0
 10
403.0355245696845
 20
306.2757817697508
 30
0.0
 10
402.9725740909603
 20
306.2863214652858
 30
0.0
 10
402.921815871393
 20
306.2897115360148
 30
0.0
 10
402.8706493765341
 20
306.2879276339119
 30
0.0
  0
SPLINE
  5
19E
330
1F
100
AcDbEntity
  8
1
100
AcDbSpline
210
0.0
220
0.0
230
1.0
 70
     8
 71
     3
 72
    36
 73
    32
 74
     0
 42
0.000000001
 43
0.0000000001
 40
0.0
 40
0.0
 40
0.0
 40
0.0
 40
0.1249999999999768
 40
0.1249999999999768
 40
0.1874999999999662
 40
0.1874999999999662
 40
0.2187499999999609
 40
0.2187499999999609
 40
0.2499999999999556
 40
0.2499999999999556
 40
0.3749999999999346
 40
0.3749999999999346
 40
0.4062499999999318
 40
0.4062499999999318
 40
0.437499999999929
 40
0.437499999999929
 40
0.4999999999999292
 40
0.4999999999999292
 40
0.6249999999999291
 40
0.6249999999999291
 40
0.6562499999999282
 40
0.6562499999999282
 40
0.6874999999999273
 40
0.749999999999933
 40
0.8124999999999388
 40
0.8124999999999388
 40
0.8437499999999463
 40
0.8437499999999463
 40
0.8749999999999538
 40
0.8749999999999538
 40
1.0
 40
1.0
 40
1.0
 40
1.0
 10
391.7325433852694
 20
305.8996014302852
 30
0.0
 10
391.6813723007425
 20
305.897817368165
 30
0.0
 10
391.6312669110427
 20
305.8909111954672
 30
0.0
 10
391.5576159658066
 20
305.8733080857213
 30
0.0
 10
391.5333188769835
 20
305.8662232865009
 30
0.0
 10
391.4972592651777
 20
305.8537407305881
 30
0.0
 10
391.4852735150546
 20
305.8492575322092
 30
0.0
 10
391.4615896874792
 20
305.8397234967039
 30
0.0
 10
391.4499111282483
 20
305.8346826038918
 30
0.0
 10
391.3923170612606
 20
305.8081390158906
 30
0.0
 10
391.3487742750683
 20
305.7826582911183
 30
0.0
 10
391.2974683100887
 20
305.7455722710922
 30
0.0
 10
391.2873646966997
 20
305.7378908741247
 30
0.0
 10
391.2674774659839
 20
305.7219915849602
 30
0.0
 10
391.2576728490183
 20
305.7137536776607
 30
0.0
 10
391.2290314345378
 20
305.6884738479071
 30
0.0
 10
391.2108906794894
 20
305.6708150203796
 30
0.0
 10
391.1592476348485
 20
305.6154904397732
 30
0.0
 10
391.1284971945629
 20
305.5754997139506
 30
0.0
 10
391.094804008906
 20
305.5215024821076
 30
0.0
 10
391.0882951253451
 20
305.5104802688692
 30
0.0
 10
391.0758974379545
 20
305.4882620314002
 30
0.0
 10
391.058181559277
 20
305.454598906264
 30
0.0
 10
391.0329792190812
 20
305.3968450261326
 30
0.0
 10
391.0173909358925
 20
305.3488981363163
 30
0.0
 10
391.0074522073373
 20
305.3122697942899
 30
0.0
 10
391.0044319180204
 20
305.2999487787833
 30
0.0
 10
390.998989773123
 20
305.2750785811802
 30
0.0
 10
390.9965662373691
 20
305.2625110905043
 30
0.0
 10
390.9860750817358
 20
305.1996751019691
 30
0.0
 10
390.9827325643828
 20
305.1490038503464
 30
0.0
 10
390.9845729701558
 20
305.0979195778925
 30
0.0
  0
SPLINE
  5
19F
330
1F
100
AcDbEntity
  8
1
100
AcDbSpline
210
0.0
220
0.0
230
1.0
 70
     8
 71
     3
 72
    36
 73
    32
 74
     0
 42
0.000000001
 43
0.0000000001
 40
0.0
 40
0.0
 40
0.0
 40
0.0
 40
0.1250000000000137
 40
0.1250000000000137
 40
0.1875000000000206
 40
0.1875000000000206
 40
0.2187500000000296
 40
0.2187500000000296
 40
0.2500000000000387
 40
0.2500000000000387
 40
0.3750000000000443
 40
0.3750000000000443
 40
0.4062500000000521
 40
0.4062500000000521
 40
0.4375000000000597
 40
0.4375000000000597
 40
0.5000000000000525
 40
0.5000000000000525
 40
0.625000000000065
 40
0.625000000000065
 40
0.6562500000000677
 40
0.6562500000000677
 40
0.6875000000000706
 40
0.7500000000000761
 40
0.8125000000000817
 40
0.8125000000000817
 40
0.8437500000000849
 40
0.8437500000000849
 40
0.8750000000000879
 40
0.8750000000000879
 40
1.0
 40
1.0
 40
1.0
 40
1.0
 10
391.3851990951915
 20
293.9777120544458
 30
0.0
 10
391.3870396660501
 20
293.9266231996993
 30
0.0
 10
391.3940096692817
 20
293.8765929261273
 30
0.0
 10
391.4117188795427
 20
293.8030445947305
 30
0.0
 10
391.4188407853781
 20
293.7787800202018
 30
0.0
 10
391.4313816533513
 20
293.7427666030943
 30
0.0
 10
391.4358847843521
 20
293.7307958576708
 30
0.0
 10
391.4454593189914
 20
293.7071409724681
 30
0.0
 10
391.4505207415015
 20
293.6954763292433
 30
0.0
 10
391.477168347706
 20
293.6379491277085
 30
0.0
 10
391.5027366298812
 20
293.5944512269823
 30
0.0
 10
391.539937451358
 20
293.5431907565815
 30
0.0
 10
391.5476420788435
 20
293.5330957065551
 30
0.0
 10
391.5635883777941
 20
293.513224515019
 30
0.0
 10
391.5718501193158
 20
293.5034273874293
 30
0.0
 10
391.5972015756155
 20
293.4748065789639
 30
0.0
 10
391.6149084829982
 20
293.4566771508142
 30
0.0
 10
391.6703782615909
 20
293.4050610611656
 30
0.0
 10
391.7104670545272
 20
293.374319292463
 30
0.0
 10
391.764588506541
 20
293.3406249515503
 30
0.0
 10
391.7756356902444
 20
293.3341152261384
 30
0.0
 10
391.797903505807
 20
293.3217146540119
 30
0.0
 10
391.831640629246
 20
293.303992649407
 30
0.0
 10
391.8895160288391
 20
293.2787712668604
 30
0.0
 10
391.9375582187002
 20
293.2631584077621
 30
0.0
 10
391.9742573017794
 20
293.2531976676448
 30
0.0
 10
391.9866017750808
 20
293.2501694434335
 30
0.0
 10
392.0115186376357
 20
293.2447102063845
 30
0.0
 10
392.0241093673865
 20
293.2422774969677
 30
0.0
 10
392.0870598461107
 20
293.2317378014328
 30
0.0
 10
392.1378180656781
 20
293.2283477307038
 30
0.0
 10
392.1889845605369
 20
293.2301316328068
 30
0.0
  0
SPLINE
  5
1A0
330
1F
100
AcDbEntity
  8
1
100
AcDbSpline
210
0.0
220
0.0
230
1.0
 70
     8
 71
     3
 72
    36
 73
    32
 74
     0
 42
0.000000001
 43
0.0000000001
 40
0.0
 40
0.0
 40
0.0
 40
0.0
 40
0.1249999999998679
 40
0.1249999999998679
 40
0.1874999999997683
 40
0.1874999999997683
 40
0.2187499999997506
 40
0.2187499999997506
 40
0.249999999999733
 40
0.249999999999733
 40
0.3749999999996598
 40
0.3749999999996598
 40
0.4062499999996409
 40
0.4062499999996409
 40
0.4374999999996219
 40
0.4374999999996219
 40
0.4999999999996363
 40
0.4999999999996363
 40
0.6249999999997133
 40
0.6249999999997133
 40
0.6562499999997498
 40
0.6562499999997498
 40
0.6874999999997862
 40
0.7499999999998285
 40
0.8124999999998706
 40
0.8124999999998706
 40
0.8437499999998919
 40
0.8437499999998919
 40
0.8749999999999131
 40
0.8749999999999131
 40
1.0
 40
1.0
 40
1.0
 40
1.0
 10
403.3270905518016
 20
293.6184578364334
 30
0.0
 10
403.3782616363285
 20
293.6202418985537
 30
0.0
 10
403.4283670260282
 20
293.6271480712514
 30
0.0
 10
403.5020179712644
 20
293.6447511809973
 30
0.0
 10
403.5263150600874
 20
293.6518359802178
 30
0.0
 10
403.5623746718933
 20
293.6643185361305
 30
0.0
 10
403.5743604220165
 20
293.6688017345095
 30
0.0
 10
403.5980442495918
 20
293.6783357700148
 30
0.0
 10
403.6097228088227
 20
293.6833766628268
 30
0.0
 10
403.6673168758104
 20
293.7099202508282
 30
0.0
 10
403.7108596620027
 20
293.7354009756004
 30
0.0
 10
403.7621656269826
 20
293.7724869956265
 30
0.0
 10
403.7722692403713
 20
293.780168392594
 30
0.0
 10
403.7921564710871
 20
293.7960676817586
 30
0.0
 10
403.8019610880526
 20
293.804305589058
 30
0.0
 10
403.8306025025333
 20
293.8295854188116
 30
0.0
 10
403.8487432575816
 20
293.847244246339
 30
0.0
 10
403.9003863022225
 20
293.9025688269453
 30
0.0
 10
403.9311367425082
 20
293.942559552768
 30
0.0
 10
403.9648299281649
 20
293.996556784611
 30
0.0
 10
403.9713388117258
 20
294.0075789978495
 30
0.0
 10
403.9837364991164
 20
294.0297972353185
 30
0.0
 10
404.0014523777941
 20
294.0634603604546
 30
0.0
 10
404.0266547179899
 20
294.1212142405861
 30
0.0
 10
404.0422430011785
 20
294.1691611304023
 30
0.0
 10
404.0521817297338
 20
294.2057894724288
 30
0.0
 10
404.0552020190506
 20
294.2181104879353
 30
0.0
 10
404.060644163948
 20
294.2429806855384
 30
0.0
 10
404.0630676997018
 20
294.2555481762143
 30
0.0
 10
404.0735588553351
 20
294.3183841647495
 30
0.0
 10
404.0769013726882
 20
294.3690554163723
 30
0.0
 10
404.0750609669152
 20
294.4201396888262
 30
0.0
  0
SPLINE
  5
1A1
330
1F
100
AcDbEntity
  8
1
100
AcDbSpline
210
0.0
220
0.0
230
1.0
 70
    24
 71
     2
 72
     6
 73
     3
 74
     0
 42
0.000000001
 43
0.0000000001
 40
0.0
 40
0.0
 40
0.0
 40
1.0
 40
1.0
 40
1.0
 10
297.9048419452957
 20
272.3007973071467
 30
0.0
 10
297.9048419452957
 20
272.2299465608673
 30
0.0
 10
297.9048419452957
 20
272.1598635181168
 30
0.0
  0
SPLINE
  5
1A2
330
1F
100
AcDbEntity
  8
1
100
AcDbSpline
210
0.0
220
0.0
230
1.0
 70
     8
 71
     3
 72
     8
 73
     4
 74
     0
 42
0.000000001
 43
0.0000000001
 40
0.0
 40
0.0
 40
0.0
 40
0.0
 40
1.0
 40
1.0
 40
1.0
 40
1.0
 10
297.9048419452957
 20
272.3008019611387
 30
0.0
 10
298.138374127347
 20
272.2964643729968
 30
0.0
 10
298.3718166042638
 20
272.2924162711898
 30
0.0
 10
298.6051642915734
 20
272.2886912689355
 30
0.0
  0
SPLINE
  5
1A3
330
1F
100
AcDbEntity
  8
1
100
AcDbSpline
210
0.0
220
0.0
230
1.0
 70
    12
 71
     3
 72
     9
 73
     5
 74
     0
 42
0.000000001
 43
0.0000000001
 40
0.0
 40
0.0
 40
0.0
 40
0.0
 40
0.9407570358890824
 40
1.0
 40
1.0
 40
1.0
 40
1.0
 10
326.3003771301811
 20
274.9273541326758
 30
0.0
 41
1.00146078202639
 10
328.9141460233975
 20
275.1184218470544
 30
0.0
 41
1.001504582684386
 10
331.6714063028799
 20
275.3639365839855
 30
0.0
 41
1.001537609461887
 10
334.4361299899249
 20
275.7174028437796
 30
0.0
 41
1.00141930035965
 10
334.5999705509889
 20
275.7387219723188
 30
0.0
 41
1.001411857520956
  0
SPLINE
  5
1A4
330
1F
100
AcDbEntity
  8
1
100
AcDbSpline
210
0.0
220
0.0
230
1.0
 70
     8
 71
     3
 72
   110
 73
   106
 74
     0
 42
0.000000001
 43
0.0000000001
 40
0.0
 40
0.0
 40
0.0
 40
0.0
 40
0.0156250000000002
 40
0.0156250000000002
 40
0.0312500000000005
 40
0.0312500000000005
 40
0.0468750000000007
 40
0.0468750000000007
 40
0.062500000000001
 40
0.0781250000000012
 40
0.0781250000000012
 40
0.0937500000000015
 40
0.0937500000000015
 40
0.1093750000000017
 40
0.1093750000000017
 40
0.125000000000002
 40
0.125000000000002
 40
0.1562500000000037
 40
0.1562500000000037
 40
0.171875000000004
 40
0.171875000000004
 40
0.1875000000000044
 40
0.2031250000000047
 40
0.2031250000000047
 40
0.2187500000000051
 40
0.2187500000000051
 40
0.2343750000000054
 40
0.2343750000000054
 40
0.2500000000000058
 40
0.2500000000000058
 40
0.2812500000000067
 40
0.2812500000000067
 40
0.2968750000000067
 40
0.2968750000000067
 40
0.3125000000000067
 40
0.3125000000000067
 40
0.3281250000000067
 40
0.3281250000000067
 40
0.3437500000000067
 40
0.3593750000000067
 40
0.3593750000000067
 40
0.3750000000000067
 40
0.3750000000000067
 40
0.4062500000000074
 40
0.4062500000000074
 40
0.4375000000000081
 40
0.4375000000000081
 40
0.4531250000000084
 40
0.4531250000000084
 40
0.4687500000000087
 40
0.4843750000000089
 40
0.4843750000000089
 40
0.5000000000000091
 40
0.5000000000000091
 40
0.5312500000000103
 40
0.5312500000000103
 40
0.5468750000000103
 40
0.5468750000000103
 40
0.5625000000000103
 40
0.5781250000000102
 40
0.5781250000000102
 40
0.59375000000001
 40
0.59375000000001
 40
0.60937500000001
 40
0.60937500000001
 40
0.6250000000000099
 40
0.6250000000000099
 40
0.6562500000000095
 40
0.6562500000000095
 40
0.6718750000000098
 40
0.6718750000000098
 40
0.6875000000000103
 40
0.7031250000000106
 40
0.7031250000000106
 40
0.7187500000000109
 40
0.7187500000000109
 40
0.7343750000000112
 40
0.7343750000000112
 40
0.7500000000000116
 40
0.7500000000000116
 40
0.7812500000000108
 40
0.7812500000000108
 40
0.7968750000000103
 40
0.7968750000000103
 40
0.8125000000000095
 40
0.8125000000000095
 40
0.8281250000000092
 40
0.8281250000000092
 40
0.8437500000000087
 40
0.8593750000000081
 40
0.8593750000000081
 40
0.8750000000000074
 40
0.8750000000000074
 40
0.9062500000000065
 40
0.9062500000000065
 40
0.9218750000000055
 40
0.9218750000000055
 40
0.9375000000000044
 40
0.9375000000000044
 40
0.9531250000000031
 40
0.9531250000000031
 40
0.9687500000000021
 40
0.9843750000000012
 40
0.9843750000000012
 40
1.0
 40
1.0
 40
1.0
 40
1.0
 10
401.8490036005053
 20
283.1534935137007
 30
0.0
 10
401.8417746109552
 20
283.1111419413425
 30
0.0
 10
401.834671446886
 20
283.0681578029726
 30
0.0
 10
401.8207680663928
 20
282.9812503157395
 30
0.0
 10
401.8139595251421
 20
282.9372784381234
 30
0.0
 10
401.8006293521048
 20
282.8482962016396
 30
0.0
 10
401.7940967479358
 20
282.8032062294225
 30
0.0
 10
401.7813823417299
 20
282.7124052257525
 30
0.0
 10
401.7690254353944
 20
282.6210444065424
 30
0.0
 10
401.757379312372
 20
282.5285705588326
 30
0.0
 10
401.7460907607164
 20
282.4355367836245
 30
0.0
 10
401.7406280020681
 20
282.3887544827339
 30
0.0
 10
401.7301380147347
 20
282.2952951504314
 30
0.0
 10
401.7251005414125
 20
282.2485353831748
 30
0.0
 10
401.7154398345801
 20
282.1549557626197
 30
0.0
 10
401.7108121698008
 20
282.1080886006932
 30
0.0
 10
401.6975861575835
 20
281.967709145017
 30
0.0
 10
401.6896951672167
 20
281.874999808449
 30
0.0
 10
401.6792374674792
 20
281.7372410861631
 30
0.0
 10
401.6759793247294
 20
281.691488846458
 30
0.0
 10
401.6699686054256
 20
281.6010384608181
 30
0.0
 10
401.6644519984458
 20
281.511504244667
 30
0.0
 10
401.6599180963715
 20
281.4237921329392
 30
0.0
 10
401.6558786777625
 20
281.3369968788606
 30
0.0
 10
401.6541149772796
 20
281.2942412577914
 30
0.0
 10
401.6510990437646
 20
281.2101272812556
 30
0.0
 10
401.6498458225416
 20
281.1687476874135
 30
0.0
 10
401.6478483158456
 20
281.0873418119318
 30
0.0
 10
401.6471035575778
 20
281.0472498153765
 30
0.0
 10
401.6456468402306
 20
280.9296663972892
 30
0.0
 10
401.6457038129981
 20
280.8547887246389
 30
0.0
 10
401.6473245805996
 20
280.7477156687141
 30
0.0
 10
401.6481215756571
 20
280.7129553797054
 30
0.0
 10
401.6502166866839
 20
280.6456339290889
 30
0.0
 10
401.6515154906584
 20
280.6130196125017
 30
0.0
 10
401.6546140801002
 20
280.5498774852515
 30
0.0
 10
401.6564168720184
 20
280.5193084013161
 30
0.0
 10
401.6605132288923
 20
280.4604770615734
 30
0.0
 10
401.6650924736965
 20
280.4040353677191
 30
0.0
 10
401.670628495437
 20
280.3523284330651
 30
0.0
 10
401.6766440325718
 20
280.3029944547835
 30
0.0
 10
401.679893840546
 20
280.279509802416
 30
0.0
 10
401.6902989748107
 20
280.2130737033336
 30
0.0
 10
401.6981293257027
 20
280.1739438916478
 30
0.0
 10
401.7155624048381
 20
280.1061361120061
 30
0.0
 10
401.7250825281293
 20
280.0777720495512
 30
0.0
 10
401.7405553348101
 20
280.043447773188
 30
0.0
 10
401.7459206429907
 20
280.0333682730426
 30
0.0
 10
401.7570147273564
 20
280.0160514100533
 30
0.0
 10
401.7684502358291
 20
280.0015995921114
 30
0.0
 10
401.7805625988044
 20
279.9928275682968
 30
0.0
 10
401.793014337599
 20
279.9869034014163
 30
0.0
 10
401.7994207667418
 20
279.98536594761
 30
0.0
 10
401.8190727779002
 20
279.9850833368237
 30
0.0
 10
401.8327184188654
 20
279.9906292294738
 30
0.0
 10
401.8540035451755
 20
280.0075517787732
 30
0.0
 10
401.8612424967621
 20
280.014643365193
 30
0.0
 10
401.8758990974657
 20
280.0316228557879
 30
0.0
 10
401.8907554684808
 20
280.0514100833147
 30
0.0
 10
401.9060108599981
 20
280.0768054745048
 30
0.0
 10
401.9214678519007
 20
280.1050343239928
 30
0.0
 10
401.9292773583067
 20
280.120532391246
 30
0.0
 10
401.9450000255688
 20
280.1541692194737
 30
0.0
 10
401.9529219647432
 20
280.1723237786998
 30
0.0
 10
401.9688874206746
 20
280.2113132673704
 30
0.0
 10
401.9769421536627
 20
280.2321792852904
 30
0.0
 10
402.0012113924702
 20
280.2986361555282
 30
0.0
 10
402.0174682698657
 20
280.3478855473459
 30
0.0
 10
402.0419699851985
 20
280.4291974250464
 30
0.0
 10
402.0501662122777
 20
280.4575824704486
 30
0.0
 10
402.0664886777447
 20
280.5164777900678
 30
0.0
 10
402.0827647433878
 20
280.5775711246955
 30
0.0
 10
402.0989480454889
 20
280.643058778988
 30
0.0
 10
402.1150844279697
 20
280.7107690716609
 30
0.0
 10
402.1231033815189
 20
280.7456298492838
 30
0.0
 10
402.1389944178854
 20
280.8171407313559
 30
0.0
 10
402.146874246247
 20
280.853823197556
 30
0.0
 10
402.1625020297955
 20
280.9290491450765
 30
0.0
 10
402.1702631673361
 20
280.9676614034603
 30
0.0
 10
402.1932382425156
 20
281.0857755324653
 30
0.0
 10
402.2081268176213
 20
281.167430069334
 30
0.0
 10
402.2298151036223
 20
281.2942956293903
 30
0.0
 10
402.236935213086
 20
281.3373141498631
 30
0.0
 10
402.2508580849124
 20
281.4242095288661
 30
0.0
 10
402.2576739029046
 20
281.4681612804626
 30
0.0
 10
402.271014350058
 20
281.5570727451134
 30
0.0
 10
402.2775444360894
 20
281.6020714728908
 30
0.0
 10
402.2902863646285
 20
281.6929202264055
 30
0.0
 10
402.3026658000553
 20
281.7842991651464
 30
0.0
 10
402.3143261777137
 20
281.8767298033352
 30
0.0
 10
402.32562565201
 20
281.9696883015701
 30
0.0
 10
402.3311011783553
 20
282.0164922072341
 30
0.0
 10
402.3468738026823
 20
282.1567524073677
 30
0.0
 10
402.3565532065656
 20
282.2503167626106
 30
0.0
 10
402.3698142998407
 20
282.390749937721
 30
0.0
 10
402.3740068063101
 20
282.4373926891752
 30
0.0
 10
402.3819228502761
 20
282.530147608578
 30
0.0
 10
402.3856494154623
 20
282.576291771428
 30
0.0
 10
402.392639700511
 20
282.6681135722375
 30
0.0
 10
402.3959084553727
 20
282.7138708156333
 30
0.0
 10
402.4019459226939
 20
282.8044214649861
 30
0.0
 10
402.4074865201804
 20
282.8940245940332
 30
0.0
 10
402.4120411421105
 20
282.9817474884682
 30
0.0
 10
402.4161007497468
 20
283.0685264010745
 30
0.0
 10
402.4178797085953
 20
283.1113905745547
 30
0.0
 10
402.4193998266438
 20
283.1534935136933
 30
0.0
  0
SPLINE
  5
1A5
330
1F
100
AcDbEntity
  8
1
100
AcDbSpline
210
0.0
220
0.0
230
1.0
 70
     8
 71
     3
 72
    71
 73
    67
 74
     0
 42
0.000000001
 43
0.0000000001
 40
0.0
 40
0.0
 40
0.0
 40
0.0
 40
0.0312499999999946
 40
0.0312499999999946
 40
0.0468749999999918
 40
0.0468749999999918
 40
0.0624999999999891
 40
0.0937499999999837
 40
0.0937499999999837
 40
0.1093749999999816
 40
0.1093749999999816
 40
0.1249999999999796
 40
0.1249999999999796
 40
0.1874999999999772
 40
0.1874999999999772
 40
0.2187499999999763
 40
0.2187499999999763
 40
0.2499999999999755
 40
0.2499999999999755
 40
0.2812499999999747
 40
0.2812499999999747
 40
0.3124999999999739
 40
0.3124999999999739
 40
0.343749999999973
 40
0.343749999999973
 40
0.3749999999999721
 40
0.4062499999999714
 40
0.4062499999999714
 40
0.4218749999999698
 40
0.4218749999999698
 40
0.4374999999999683
 40
0.4687499999999662
 40
0.4687499999999662
 40
0.4999999999999641
 40
0.4999999999999641
 40
0.562499999999962
 40
0.562499999999962
 40
0.6249999999999601
 40
0.6249999999999601
 40
0.6562499999999595
 40
0.6562499999999595
 40
0.687499999999959
 40
0.687499999999959
 40
0.7031249999999596
 40
0.7031249999999596
 40
0.7187499999999604
 40
0.7187499999999604
 40
0.7499999999999645
 40
0.7499999999999645
 40
0.7812499999999686
 40
0.7812499999999686
 40
0.8124999999999726
 40
0.8437499999999767
 40
0.8437499999999767
 40
0.8593749999999792
 40
0.8593749999999792
 40
0.8749999999999815
 40
0.9062499999999857
 40
0.9062499999999857
 40
0.93749999999999
 40
0.93749999999999
 40
0.9687499999999943
 40
0.9687499999999943
 40
0.9843749999999971
 40
0.9843749999999971
 40
1.0
 40
1.0
 40
1.0
 40
1.0
 10
402.4193998266438
 20
283.1534935136933
 30
0.0
 10
402.4161442341138
 20
283.2007412761972
 30
0.0
 10
402.4126541530176
 20
283.2472901643811
 30
0.0
 10
402.4070610689027
 20
283.3160466182901
 30
0.0
 10
402.4051342897321
 20
283.3388176871582
 30
0.0
 10
402.4011737069693
 20
283.3838398622008
 30
0.0
 10
402.3950771114485
 20
283.4505452874704
 30
0.0
 10
402.3885174479718
 20
283.5147889767107
 30
0.0
 10
402.3816502317394
 20
283.5773976711522
 30
0.0
 10
402.3793098536258
 20
283.5979944856788
 30
0.0
 10
402.3745261047688
 20
283.6386405910604
 30
0.0
 10
402.3720809446733
 20
283.6587030702967
 30
0.0
 10
402.3596408180055
 20
283.7572892709388
 30
0.0
 10
402.3489793257813
 20
283.830902104986
 30
0.0
 10
402.3319244663398
 20
283.9334480227583
 30
0.0
 10
402.3260791964431
 20
283.966202384142
 30
0.0
 10
402.3141124514472
 20
284.0286447100392
 30
0.0
 10
402.3079846357139
 20
284.0583711400132
 30
0.0
 10
402.2954394099863
 20
284.1148272096279
 30
0.0
 10
402.2890125711979
 20
284.1415872233111
 30
0.0
 10
402.275958006774
 20
284.1917223218705
 30
0.0
 10
402.2693216578945
 20
284.2151421122021
 30
0.0
 10
402.2558312020808
 20
284.2586918446416
 30
0.0
 10
402.2489689113134
 20
284.2788431695487
 30
0.0
 10
402.2350603921096
 20
284.3157172488072
 30
0.0
 10
402.2210102582176
 20
284.3490603834256
 30
0.0
 10
402.2066785958315
 20
284.3753840376615
 30
0.0
 10
402.1958233512261
 20
284.3924714189506
 30
0.0
 10
402.1921846359861
 20
284.3977268885393
 30
0.0
 10
402.1848975849237
 20
284.4073112611954
 30
0.0
 10
402.1739446208043
 20
284.4203115747246
 30
0.0
 10
402.1629248207942
 20
284.4292032346349
 30
0.0
 10
402.1481721002551
 20
284.4373916340424
 30
0.0
 10
402.1407518263997
 20
284.4396500065022
 30
0.0
 10
402.1185399463723
 20
284.4408296682613
 30
0.0
 10
402.1037819322951
 20
284.4342237061576
 30
0.0
 10
402.0743711214268
 20
284.4060292720757
 30
0.0
 10
402.0598887802377
 20
284.3846049187287
 30
0.0
 10
402.0385009198653
 20
284.341443028516
 30
0.0
 10
402.0314268266944
 20
284.3251988089858
 30
0.0
 10
402.0175029520443
 20
284.2892538888232
 30
0.0
 10
402.0106389784501
 20
284.2695273598723
 30
0.0
 10
402.0004905136843
 20
284.2372966147202
 30
0.0
 10
401.9971322976529
 20
284.2261124634033
 30
0.0
 10
401.9904654493281
 20
284.2028563496349
 30
0.0
 10
401.9871563845533
 20
284.1907814132547
 30
0.0
 10
401.9773431921421
 20
284.1533654816929
 30
0.0
 10
401.9709396173631
 20
284.1267900864705
 30
0.0
 10
401.9584090883767
 20
284.0703821418218
 30
0.0
 10
401.9522814812388
 20
284.0405462262713
 30
0.0
 10
401.9403092351616
 20
283.9775870222097
 30
0.0
 10
401.9286894099793
 20
283.9117066458395
 30
0.0
 10
401.9177692244625
 20
283.8400270445956
 30
0.0
 10
401.9098435110846
 20
283.7840755519193
 30
0.0
 10
401.9072433955202
 20
283.7650409891062
 30
0.0
 10
401.9021499861777
 20
283.726371251781
 30
0.0
 10
401.8946660536576
 20
283.6674399007174
 30
0.0
 10
401.8876477984683
 20
283.6057453274369
 30
0.0
 10
401.8787048955133
 20
283.5210247428332
 30
0.0
 10
401.8744337489341
 20
283.477347819463
 30
0.0
 10
401.8663686214638
 20
283.3881306771543
 30
0.0
 10
401.8625693801193
 20
283.3425533379637
 30
0.0
 10
401.8572192346913
 20
283.2727394377651
 30
0.0
 10
401.8554940277311
 20
283.2492265923666
 30
0.0
 10
401.8521604195438
 20
283.2017159174217
 30
0.0
 10
401.8505505178135
 20
283.1776940572041
 30
0.0
 10
401.8490036005045
 20
283.1534935137007
 30
0.0
  0
SPLINE
  5
1A6
330
1F
100
AcDbEntity
  8
1
100
AcDbSpline
210
0.0
220
0.0
230
1.0
 70
     8
 71
     3
 72
     8
 73
     4
 74
     0
 42
0.000000001
 43
0.0000000001
 40
0.0
 40
0.0
 40
0.0
 40
0.0
 40
1.0
 40
1.0
 40
1.0
 40
1.0
 10
384.883820430244
 20
294.2551610691528
 30
0.0
 10
385.1356108437146
 20
294.0574281539473
 30
0.0
 10
385.377444587398
 20
293.8630874479408
 30
0.0
 10
385.6077352889222
 20
293.6726794237081
 30
0.0
  0
SPLINE
  5
1A7
330
1F
100
AcDbEntity
  8
1
100
AcDbSpline
210
0.0
220
0.0
230
1.0
 70
     8
 71
     3
 72
     8
 73
     4
 74
     0
 42
0.000000001
 43
0.0000000001
 40
0.0
 40
0.0
 40
0.0
 40
0.0
 40
1.0
 40
1.0
 40
1.0
 40
1.0
 10
384.8838204302451
 20
294.2551610691536
 30
0.0
 10
384.558693251952
 20
294.4592246319146
 30
0.0
 10
384.226392803867
 20
294.666457480939
 30
0.0
 10
383.887848247218
 20
294.8764490952228
 30
0.0
  0
SPLINE
  5
1A8
330
1F
100
AcDbEntity
  8
1
100
AcDbSpline
210
0.0
220
0.0
230
1.0
 70
     8
 71
     3
 72
    20
 73
    16
 74
     0
 42
0.000000001
 43
0.0000000001
 40
0.0
 40
0.0
 40
0.0
 40
0.0
 40
0.1249999999999995
 40
0.249999999999999
 40
0.3749999999999985
 40
0.4999999999999981
 40
0.4999999999999981
 40
0.5624999999999978
 40
0.5624999999999978
 40
0.5937499999999977
 40
0.5937499999999977
 40
0.6249999999999976
 40
0.7499999999999984
 40
0.8749999999999991
 40
1.0
 40
1.0
 40
1.0
 40
1.0
 10
279.4048419452957
 20
280.5397836766051
 30
0.0
 10
279.2753427980289
 20
280.4131113358085
 30
0.0
 10
279.0275332555595
 20
280.1540464674971
 30
0.0
 10
278.6885530858963
 20
279.7493960206198
 30
0.0
 10
278.3819917623084
 20
279.3295027692865
 30
0.0
 10
278.1993525792446
 20
279.0397729195686
 30
0.0
 10
278.0707016143036
 20
278.8188696439617
 30
0.0
 10
278.0292074388853
 20
278.7446335502509
 30
0.0
 10
277.9690862150759
 20
278.6323791785577
 30
0.0
 10
277.9494043902804
 20
278.5948186658276
 30
0.0
 10
277.9108949293713
 20
278.5196800205125
 30
0.0
 10
277.8166650892772
 20
278.3316159461465
 30
0.0
 10
277.6653063144262
 20
277.9912364825364
 30
0.0
 10
277.5019819631904
 20
277.5340250602212
 30
0.0
 10
277.4188611249169
 20
277.227275623354
 30
0.0
 10
277.3838730564345
 20
277.0734697991619
 30
0.0
  0
SPLINE
  5
1A9
330
1F
100
AcDbEntity
  8
1
100
AcDbSpline
210
0.0
220
0.0
230
1.0
 70
     8
 71
     3
 72
    42
 73
    38
 74
     0
 42
0.000000001
 43
0.0000000001
 40
0.0
 40
0.0
 40
0.0
 40
0.0
 40
0.0624999999999997
 40
0.0624999999999997
 40
0.1249999999999997
 40
0.1249999999999997
 40
0.1874999999999996
 40
0.1874999999999996
 40
0.2499999999999995
 40
0.2499999999999995
 40
0.3124999999999994
 40
0.3124999999999994
 40
0.3749999999999994
 40
0.3749999999999994
 40
0.3906249999999992
 40
0.3906249999999992
 40
0.4062499999999992
 40
0.4062499999999992
 40
0.4374999999999988
 40
0.4374999999999988
 40
0.4999999999999988
 40
0.5624999999999988
 40
0.6249999999999987
 40
0.6249999999999987
 40
0.6874999999999987
 40
0.6874999999999987
 40
0.7499999999999986
 40
0.7499999999999986
 40
0.765624999999999
 40
0.765624999999999
 40
0.7812499999999992
 40
0.8124999999999992
 40
0.8124999999999992
 40
0.8749999999999996
 40
0.9374999999999996
 40
0.9374999999999996
 40
1.0
 40
1.0
 40
1.0
 40
1.0
 10
279.4048419452957
 20
280.5397836766051
 30
0.0
 10
279.5244316095902
 20
280.7078469391369
 30
0.0
 10
279.6474396230383
 20
280.8710284563011
 30
0.0
 10
279.9003342816557
 20
281.1881393775185
 30
0.0
 10
280.0302212177541
 20
281.3420672185859
 30
0.0
 10
280.2970052046808
 20
281.6409840923544
 30
0.0
 10
280.4339022406249
 20
281.7859723091646
 30
0.0
 10
280.7149222943152
 20
282.0671648543902
 30
0.0
 10
280.8590450419205
 20
282.203368889349
 30
0.0
 10
281.1548211805551
 20
282.4670055203183
 30
0.0
 10
281.3064740372383
 20
282.5944382580923
 30
0.0
 10
281.6177158323814
 20
282.8404043054007
 30
0.0
 10
281.7773039099143
 20
282.9589382003142
 30
0.0
 10
281.9820783346171
 20
283.101368915545
 30
0.0
 10
282.0232980226866
 20
283.129567826481
 30
0.0
 10
282.1062766829475
 20
283.185385145865
 30
0.0
 10
282.1480741900641
 20
283.2130282497782
 30
0.0
 10
282.2739167074893
 20
283.2948354228627
 30
0.0
 10
282.3584410493092
 20
283.3479016826237
 30
0.0
 10
282.6139289070986
 20
283.5027120867643
 30
0.0
 10
282.9596825698798
 20
283.6974349760297
 30
0.0
 10
283.4941632648092
 20
283.9544617138201
 30
0.0
 10
283.8615237260556
 20
284.1020725343837
 30
0.0
 10
284.2347058415925
 20
284.2374263483073
 30
0.0
 10
284.4242073781379
 20
284.2989756787997
 30
0.0
 10
284.8094134388376
 20
284.4091967047288
 30
0.0
 10
285.0051172016703
 20
284.4578704453951
 30
0.0
 10
285.2539233239023
 20
284.5101005027868
 30
0.0
 10
285.3039449651998
 20
284.5201246953253
 30
0.0
 10
285.4041406596406
 20
284.5392413598367
 30
0.0
 10
285.5545932787661
 20
284.566508813879
 30
0.0
 10
285.7055241688737
 20
284.5895467982107
 30
0.0
 10
286.0080255043526
 20
284.6299448843723
 30
0.0
 10
286.4130669359608
 20
284.6686826144809
 30
0.0
 10
286.821523074567
 20
284.676406333977
 30
0.0
 10
287.231672563662
 20
284.6680033321239
 30
0.0
 10
287.4375941391534
 20
284.6557390750061
 30
0.0
 10
287.6443447322607
 20
284.6349721272082
 30
0.0
  0
SPLINE
  5
1AA
330
1F
100
AcDbEntity
  8
1
100
AcDbSpline
210
0.0
220
0.0
230
1.0
 70
     8
 71
     3
 72
    27
 73
    23
 74
     0
 42
0.000000001
 43
0.0000000001
 40
0.0
 40
0.0
 40
0.0
 40
0.0
 40
0.1250000000000002
 40
0.1250000000000002
 40
0.1875000000000003
 40
0.1875000000000003
 40
0.2500000000000006
 40
0.2500000000000006
 40
0.3750000000000002
 40
0.3750000000000002
 40
0.4375
 40
0.4375
 40
0.4999999999999999
 40
0.4999999999999999
 40
0.6249999999999979
 40
0.6249999999999979
 40
0.6874999999999983
 40
0.6874999999999983
 40
0.7499999999999987
 40
0.7499999999999987
 40
0.8749999999999992
 40
1.0
 40
1.0
 40
1.0
 40
1.0
 10
397.3833793844234
 20
298.0570328862808
 30
0.0
 10
397.3541657051618
 20
298.0442706549064
 30
0.0
 10
397.3242296144588
 20
298.0339425362668
 30
0.0
 10
397.2782628962755
 20
298.0220448127964
 30
0.0
 10
397.2627627317113
 20
298.0186807300875
 30
0.0
 10
397.231399937529
 20
298.0131805184013
 30
0.0
 10
397.2154912439128
 20
298.011044474476
 30
0.0
 10
397.1679764045525
 20
298.0065973122827
 30
0.0
 10
397.1363650854811
 20
298.0061826747764
 30
0.0
 10
397.0890450555672
 20
298.0093247373972
 30
0.0
 10
397.0732879407338
 20
298.0110023543769
 30
0.0
 10
397.041806885147
 20
298.015643790177
 30
0.0
 10
397.0260110873735
 20
298.0186266889688
 30
0.0
 10
396.97938005395
 20
298.0294041707598
 30
0.0
 10
396.9492256918018
 20
298.0389978902853
 30
0.0
 10
396.9053516363944
 20
298.0568925735478
 30
0.0
 10
396.8909542965521
 20
298.0634443071765
 30
0.0
 10
396.8626203087657
 20
298.0777367109165
 30
0.0
 10
396.8486333991859
 20
298.0855086286426
 30
0.0
 10
396.8077448086375
 20
298.1104429572326
 30
0.0
 10
396.7566101414186
 20
298.1476064430392
 30
0.0
 10
396.711953353309
 20
298.192258688855
 30
0.0
 10
396.6912955458959
 20
298.216511893749
 30
0.0
  0
SPLINE
  5
1AB
330
1F
100
AcDbEntity
  8
1
100
AcDbSpline
210
0.0
220
0.0
230
1.0
 70
     8
 71
     3
 72
    14
 73
    10
 74
     0
 42
0.000000001
 43
0.0000000001
 40
0.0
 40
0.0
 40
0.0
 40
0.0
 40
0.403035014216283
 40
0.403035014216283
 40
0.6045525213245642
 40
0.6045525213245642
 40
0.8060700284328452
 40
0.8060700284328452
 40
1.0
 40
1.0
 40
1.0
 40
1.0
 10
396.6912955458959
 20
298.216511893749
 30
0.0
 10
396.684827316267
 20
298.2241058893436
 30
0.0
 10
396.6796395451435
 20
298.2326571705963
 30
0.0
 10
396.6740230600496
 20
298.246094588339
 30
0.0
 10
396.6724931137368
 20
298.250701060079
 30
0.0
 10
396.6701227797522
 20
298.2601699295692
 30
0.0
 10
396.6692996395927
 20
298.2649864259731
 30
0.0
 10
396.6683946753515
 20
298.2743746578045
 30
0.0
 10
396.6682780252993
 20
298.2789800050689
 30
0.0
 10
396.668483826288
 20
298.2835863397345
 30
0.0
  0
SPLINE
  5
1AC
330
1F
100
AcDbEntity
  8
1
100
AcDbSpline
210
0.0
220
0.0
230
1.0
 70
     8
 71
     3
 72
    10
 73
     6
 74
     0
 42
0.000000001
 43
0.0000000001
 40
0.0
 40
0.0
 40
0.0
 40
0.0
 40
0.3307195564247624
 40
0.3307195564247624
 40
1.0
 40
1.0
 40
1.0
 40
1.0
 10
397.4182753258986
 20
298.0830831461288
 30
0.0
 10
397.4151851247029
 20
298.0794303622387
 30
0.0
 10
397.4117858644997
 20
298.0759623203073
 30
0.0
 10
397.400747827354
 20
298.066292780153
 30
0.0
 10
397.3925132850078
 20
298.06102310441
 30
0.0
 10
397.3833793844234
 20
298.0570328862808
 30
0.0
  0
SPLINE
  5
1AD
330
1F
100
AcDbEntity
  8
1
100
AcDbSpline
210
0.0
220
0.0
230
1.0
 70
     8
 71
     3
 72
    10
 73
     6
 74
     0
 42
0.000000001
 43
0.0000000001
 40
0.0
 40
0.0
 40
0.0
 40
0.0
 40
0.7200001245079669
 40
0.7200001245079669
 40
1.0
 40
1.0
 40
1.0
 40
1.0
 10
396.6895676539452
 20
298.3890331395691
 30
0.0
 10
396.6915850483204
 20
298.3780402361315
 30
0.0
 10
396.6916892087547
 20
298.3670270637269
 30
0.0
 10
396.6893325959398
 20
298.3519226582815
 30
0.0
 10
396.6884133893113
 20
298.3477823368184
 30
0.0
 10
396.6872361380453
 20
298.343730362211
 30
0.0
  0
SPLINE
  5
1AE
330
1F
100
AcDbEntity
  8
1
100
AcDbSpline
210
0.0
220
0.0
230
1.0
 70
     8
 71
     3
 72
    10
 73
     6
 74
     0
 42
0.000000001
 43
0.0000000001
 40
0.0
 40
0.0
 40
0.0
 40
0.0
 40
0.0492703460747382
 40
0.0492703460747382
 40
1.0
 40
1.0
 40
1.0
 40
1.0
 10
397.4454345970568
 20
298.1803842615401
 30
0.0
 10
397.4455941228534
 20
298.1809311489263
 30
0.0
 10
397.4457584818872
 20
298.1814773448737
 30
0.0
 10
397.4491924908063
 20
298.1925487426925
 30
0.0
 10
397.4540957261684
 20
298.2023313125255
 30
0.0
 10
397.4607382731276
 20
298.2113299219971
 30
0.0
  0
SPLINE
  5
1AF
330
1F
100
AcDbEntity
  8
1
100
AcDbSpline
210
0.0
220
0.0
230
1.0
 70
     8
 71
     3
 72
    20
 73
    16
 74
     0
 42
0.000000001
 43
0.0000000001
 40
0.0
 40
0.0
 40
0.0
 40
0.0
 40
0.125
 40
0.125
 40
0.25
 40
0.25
 40
0.375
 40
0.375
 40
0.5
 40
0.5
 40
0.625
 40
0.625
 40
0.75
 40
0.75
 40
1.0
 40
1.0
 40
1.0
 40
1.0
 10
396.1076066165205
 20
298.8574440957176
 30
0.0
 10
396.1035915006574
 20
298.8548537507142
 30
0.0
 10
396.0994188562398
 20
298.8525733834467
 30
0.0
 10
396.0907607031326
 20
298.8486286063413
 30
0.0
 10
396.0862675214191
 20
298.8469670578636
 30
0.0
 10
396.0771782045164
 20
298.8443424264339
 30
0.0
 10
396.0725566588316
 20
298.8433659833612
 30
0.0
 10
396.0631578659951
 20
298.8420960604235
 30
0.0
 10
396.0583424829891
 20
298.8418049901583
 30
0.0
 10
396.0487832403405
 20
298.8419523551497
 30
0.0
 10
396.044034900857
 20
298.8423832518077
 30
0.0
 10
396.0346022187761
 20
298.8439664090665
 30
0.0
 10
396.0298871463655
 20
298.8451291005384
 30
0.0
 10
396.0160639096989
 20
298.8497110035268
 30
0.0
 10
396.0074485537116
 20
298.8541164851554
 30
0.0
 10
395.9994738286696
 20
298.8599576804189
 30
0.0
  0
SPLINE
  5
1B0
330
1F
100
AcDbEntity
  8
1
100
AcDbSpline
210
0.0
220
0.0
230
1.0
 70
     8
 71
     3
 72
    10
 73
     6
 74
     0
 42
0.000000001
 43
0.0000000001
 40
0.0
 40
0.0
 40
0.0
 40
0.0
 40
0.5
 40
0.5
 40
1.0
 40
1.0
 40
1.0
 40
1.0
 10
396.1076066165205
 20
298.8574440957176
 30
0.0
 10
396.1167842702479
 20
298.8633650430293
 30
0.0
 10
396.1267089044111
 20
298.8676554137673
 30
0.0
 10
396.1479216007438
 20
298.8728514369843
 30
0.0
 10
396.1587156345826
 20
298.8736482914391
 30
0.0
 10
396.1697140597215
 20
298.8725357480583
 30
0.0
  0
SPLINE
  5
1B1
330
1F
100
AcDbEntity
  8
1
100
AcDbSpline
210
0.0
220
0.0
230
1.0
 70
     8
 71
     3
 72
    24
 73
    20
 74
     0
 42
0.000000001
 43
0.0000000001
 40
0.0
 40
0.0
 40
0.0
 40
0.0
 40
0.12499999999994
 40
0.12499999999994
 40
0.2499999999998801
 40
0.2499999999998801
 40
0.3124999999998729
 40
0.3124999999998729
 40
0.3749999999998657
 40
0.3749999999998657
 40
0.4999999999998925
 40
0.4999999999998925
 40
0.6249999999999194
 40
0.6249999999999194
 40
0.7499999999999463
 40
0.7499999999999463
 40
0.8749999999999731
 40
0.8749999999999731
 40
1.0
 40
1.0
 40
1.0
 40
1.0
 10
396.1697140597215
 20
298.8725357480583
 30
0.0
 10
396.2008631021534
 20
298.8693848732253
 30
0.0
 10
396.231495915426
 20
298.8638187566897
 30
0.0
 10
396.2917767323803
 20
298.8478539932195
 30
0.0
 10
396.3214251607844
 20
298.8374577123917
 30
0.0
 10
396.3651360413408
 20
298.8179360768545
 30
0.0
 10
396.3794852431415
 20
298.8108063436617
 30
0.0
 10
396.4073966261685
 20
298.7954798059271
 30
0.0
 10
396.4210129386641
 20
298.7872593509307
 30
0.0
 10
396.4608462678528
 20
298.7609249934619
 30
0.0
 10
396.4860920684433
 20
298.7411149900519
 30
0.0
 10
396.5335852816668
 20
298.6969300264449
 30
0.0
 10
396.5551418796566
 20
298.6732093401958
 30
0.0
 10
396.5941263476981
 20
298.6226946228539
 30
0.0
 10
396.6115589744005
 20
298.5958897227149
 30
0.0
 10
396.6421993215793
 20
298.5391824491953
 30
0.0
 10
396.654964144641
 20
298.5101096521745
 30
0.0
 10
396.6757927167046
 20
298.4506024948652
 30
0.0
 10
396.6838539503714
 20
298.4201674544206
 30
0.0
 10
396.6895676539452
 20
298.3890331395692
 30
0.0
  0
SPLINE
  5
1B2
330
1F
100
AcDbEntity
  8
1
100
AcDbSpline
210
0.0
220
0.0
230
1.0
 70
     8
 71
     3
 72
    18
 73
    14
 74
     0
 42
0.000000001
 43
0.0000000001
 40
0.0
 40
0.0
 40
0.0
 40
0.0
 40
0.2500000000003181
 40
0.2500000000003181
 40
0.3750000000003108
 40
0.3750000000003108
 40
0.5000000000003034
 40
0.5000000000003034
 40
0.6250000000002962
 40
0.6250000000002962
 40
0.7500000000002888
 40
0.7500000000002888
 40
1.0
 40
1.0
 40
1.0
 40
1.0
 10
398.286821338231
 20
298.3328771588801
 30
0.0
 10
398.2770931343448
 20
298.331109929937
 30
0.0
 10
398.2672021504567
 20
298.3309362588159
 30
0.0
 10
398.2529480645522
 20
298.3328612479668
 30
0.0
 10
398.2482625598363
 20
298.3338639201786
 30
0.0
 10
398.2390250065464
 20
298.3365964147616
 30
0.0
 10
398.2345206608007
 20
298.3383179842751
 30
0.0
 10
398.2259350370275
 20
298.3423560699325
 30
0.0
 10
398.2218207192322
 20
298.3446820682294
 30
0.0
 10
398.2139444678076
 20
298.3499385214468
 30
0.0
 10
398.2101564794693
 20
298.3528961771656
 30
0.0
 10
398.1996297412677
 20
298.3624457933556
 30
0.0
 10
398.193647879234
 20
298.3697135357571
 30
0.0
 10
398.1887108662723
 20
298.3778888428535
 30
0.0
  0
SPLINE
  5
1B3
330
1F
100
AcDbEntity
  8
1
100
AcDbSpline
210
0.0
220
0.0
230
1.0
 70
     8
 71
     3
 72
    10
 73
     6
 74
     0
 42
0.000000001
 43
0.0000000001
 40
0.0
 40
0.0
 40
0.0
 40
0.0
 40
0.5
 40
0.5
 40
1.0
 40
1.0
 40
1.0
 40
1.0
 10
398.1396090503308
 20
298.418606786811
 30
0.0
 10
398.1499644941889
 20
298.4147986783822
 30
0.0
 10
398.1593609327504
 20
298.4093210115244
 30
0.0
 10
398.1760844872664
 20
298.3953823431244
 30
0.0
 10
398.1830739082419
 20
298.387223204206
 30
0.0
 10
398.1887108662723
 20
298.3778888428535
 30
0.0
  0
SPLINE
  5
1B4
330
1F
100
AcDbEntity
  8
1
100
AcDbSpline
210
0.0
220
0.0
230
1.0
 70
     8
 71
     3
 72
    24
 73
    20
 74
     0
 42
0.000000001
 43
0.0000000001
 40
0.0
 40
0.0
 40
0.0
 40
0.0
 40
0.1250000000000019
 40
0.1250000000000019
 40
0.2500000000000038
 40
0.2500000000000038
 40
0.3125000000000047
 40
0.3125000000000047
 40
0.3750000000000057
 40
0.3750000000000057
 40
0.5000000000000046
 40
0.5000000000000046
 40
0.6250000000000035
 40
0.6250000000000035
 40
0.7500000000000023
 40
0.7500000000000023
 40
0.875000000000001
 40
0.875000000000001
 40
1.0
 40
1.0
 40
1.0
 40
1.0
 10
397.4607382731276
 20
298.2113299219971
 30
0.0
 10
397.4795493488248
 20
298.236813147781
 30
0.0
 10
397.5001511660503
 20
298.2606287453254
 30
0.0
 10
397.5449492328827
 20
298.3049618181471
 30
0.0
 10
397.5691437093208
 20
298.3254808618312
 30
0.0
 10
397.6083656508399
 20
298.3536100730171
 30
0.0
 10
397.6218517246944
 20
298.3624790748022
 30
0.0
 10
397.6493176861459
 20
298.3789927380159
 30
0.0
 10
397.663345592046
 20
298.3866724179289
 30
0.0
 10
397.7063148491753
 20
298.4079810216592
 30
0.0
 10
397.7361846106987
 20
298.4199065080574
 30
0.0
 10
397.7982155072548
 20
298.438836295535
 30
0.0
 10
397.829465609677
 20
298.4455715179686
 30
0.0
 10
397.8924154198589
 20
298.4538947699299
 30
0.0
 10
397.9241273745312
 20
298.4554814260984
 30
0.0
 10
397.9879800757429
 20
298.4534143087003
 30
0.0
 10
398.0191908072056
 20
298.4497955245342
 30
0.0
 10
398.0803416685072
 20
298.4377855631157
 30
0.0
 10
398.1102810612893
 20
298.4293918544334
 30
0.0
 10
398.1396090503308
 20
298.418606786811
 30
0.0
  0
SPLINE
  5
1B5
330
1F
100
AcDbEntity
  8
1
100
AcDbSpline
210
0.0
220
0.0
230
1.0
 70
     8
 71
     3
 72
    27
 73
    23
 74
     0
 42
0.000000001
 43
0.0000000001
 40
0.0
 40
0.0
 40
0.0
 40
0.0
 40
0.1405827217582693
 40
0.1405827217582693
 40
0.2108740826374253
 40
0.2108740826374253
 40
0.2811654435165815
 40
0.2811654435165815
 40
0.421748165274929
 40
0.421748165274929
 40
0.492039526154099
 40
0.492039526154099
 40
0.5623308870332692
 40
0.5623308870332692
 40
0.7029136087915992
 40
0.7029136087915992
 40
0.7732049696707645
 40
0.7732049696707645
 40
0.8434963305499298
 40
0.8434963305499298
 40
0.9840790523082528
 40
1.0
 40
1.0
 40
1.0
 40
1.0
 10
395.9994738286696
 20
298.8599576804188
 30
0.0
 10
395.9739681685023
 20
298.8786396463268
 30
0.0
 10
395.9501868595946
 20
298.8991874400063
 30
0.0
 10
395.917065463742
 20
298.9327584874198
 30
0.0
 10
395.9064520284301
 20
298.94440918723
 30
0.0
 10
395.8860970336772
 20
298.9686490748888
 30
0.0
 10
395.876332525103
 20
298.9812780876537
 30
0.0
 10
395.8488256091713
 20
299.0199823459644
 30
0.0
 10
395.8327067675241
 20
299.0470283282984
 30
0.0
 10
395.8118051461338
 20
299.0894306085534
 30
0.0
 10
395.8053865834968
 20
299.1038716903615
 30
0.0
 10
395.7936692000912
 20
299.1333801994207
 30
0.0
 10
395.7883509024227
 20
299.1485193182367
 30
0.0
 10
395.7743416938077
 20
299.1942160923454
 30
0.0
 10
395.7675335963333
 20
299.2251025974986
 30
0.0
 10
395.7610037032969
 20
299.2720463845408
 30
0.0
 10
395.7594437424908
 20
299.2877971491394
 30
0.0
 10
395.757573096397
 20
299.319507084415
 30
0.0
 10
395.7572641436418
 20
299.3355254352047
 30
0.0
 10
395.7582595906978
 20
299.3834815444046
 30
0.0
 10
395.7618070894297
 20
299.4185603613733
 30
0.0
 10
395.7683433293095
 20
299.4530923419538
 30
0.0
 10
395.7690392868552
 20
299.4565995624594
 30
0.0
  0
SPLINE
  5
1B6
330
1F
100
AcDbEntity
  8
1
100
AcDbSpline
210
0.0
220
0.0
230
1.0
 70
     8
 71
     3
 72
    21
 73
    17
 74
     0
 42
0.000000001
 43
0.0000000001
 40
0.0
 40
0.0
 40
0.0
 40
0.0
 40
0.165049180154626
 40
0.165049180154626
 40
0.2485442621391343
 40
0.2485442621391343
 40
0.3320393441236426
 40
0.3320393441236426
 40
0.4990295080926593
 40
0.4990295080926593
 40
0.5825245900771963
 40
0.5825245900771963
 40
0.6660196720617336
 40
0.6660196720617336
 40
0.8330098360308667
 40
1.0
 40
1.0
 40
1.0
 40
1.0
 10
398.7183307464928
 20
298.6674271515217
 30
0.0
 10
398.7050575327308
 20
298.638886379458
 30
0.0
 10
398.6896908556974
 20
298.6116571566678
 30
0.0
 10
398.6634469701558
 20
298.5725971770885
 30
0.0
 10
398.6541008170887
 20
298.5598074087022
 30
0.0
 10
398.634327109263
 20
298.5349052072686
 30
0.0
 10
398.6238471504523
 20
298.5227401672822
 30
0.0
 10
398.5912250033753
 20
298.4878210077457
 30
0.0
 10
398.567888936562
 20
298.4665637145195
 30
0.0
 10
398.5305753862093
 20
298.4376196749495
 30
0.0
 10
398.5177507784581
 20
298.4284643535363
 30
0.0
 10
398.4913182413422
 20
298.4111520095016
 30
0.0
 10
398.4776585680153
 20
298.4029673377013
 30
0.0
 10
398.4358354488767
 20
298.380156646107
 30
0.0
 10
398.3784282052555
 20
298.354646678383
 30
0.0
 10
398.3178912817725
 20
298.3385213357629
 30
0.0
 10
398.286821338231
 20
298.3328771588801
 30
0.0
  0
SPLINE
  5
1B7
330
1F
100
AcDbEntity
  8
1
100
AcDbSpline
210
0.0
220
0.0
230
1.0
 70
     8
 71
     3
 72
    18
 73
    14
 74
     0
 42
0.000000001
 43
0.0000000001
 40
0.0
 40
0.0
 40
0.0
 40
0.0
 40
0.229977818573948
 40
0.229977818573948
 40
0.4599556371478962
 40
0.4599556371478962
 40
0.5749445464348712
 40
0.5749445464348712
 40
0.6899334557218464
 40
0.6899334557218464
 40
0.9199112742958154
 40
0.9199112742958154
 40
1.0
 40
1.0
 40
1.0
 40
1.0
 10
396.0965957782725
 20
300.3187614788134
 30
0.0
 10
396.1090867107354
 20
300.2906518688176
 30
0.0
 10
396.1192572327194
 20
300.261748429373
 30
0.0
 10
396.1349884939267
 20
300.2023023267789
 30
0.0
 10
396.1405514510237
 20
300.1717605271398
 30
0.0
 10
396.1451761491517
 20
300.1245748856098
 30
0.0
 10
396.1460792269944
 20
300.1087145038117
 30
0.0
 10
396.1465935968152
 20
300.077111956298
 30
0.0
 10
396.1462110395605
 20
300.0613118249299
 30
0.0
 10
396.1431453769503
 20
300.0139106528193
 30
0.0
 10
396.1385461643063
 20
299.9822582618572
 30
0.0
 10
396.12874554998
 20
299.9397114726805
 30
0.0
 10
396.125917109762
 20
299.9288452437909
 30
0.0
 10
396.1227974829173
 20
299.9180999794217
 30
0.0
  0
SPLINE
  5
1B8
330
1F
100
AcDbEntity
  8
1
100
AcDbSpline
210
0.0
220
0.0
230
1.0
 70
     8
 71
     3
 72
    10
 73
     6
 74
     0
 42
0.000000001
 43
0.0000000001
 40
0.0
 40
0.0
 40
0.0
 40
0.0
 40
0.5
 40
0.5
 40
1.0
 40
1.0
 40
1.0
 40
1.0
 10
396.0533319261065
 20
300.363950493971
 30
0.0
 10
396.0628958453318
 20
300.3591470466316
 30
0.0
 10
396.0714239586488
 20
300.3528794534365
 30
0.0
 10
396.0862349605162
 20
300.3374675773355
 30
0.0
 10
396.0921852024156
 20
300.3286870442236
 30
0.0
 10
396.0965957782726
 20
300.3187614788134
 30
0.0
  0
SPLINE
  5
1B9
330
1F
100
AcDbEntity
  8
1
100
AcDbSpline
210
0.0
220
0.0
230
1.0
 70
     8
 71
     3
 72
    20
 73
    16
 74
     0
 42
0.000000001
 43
0.0000000001
 40
0.0
 40
0.0
 40
0.0
 40
0.0
 40
0.1249999999999949
 40
0.1249999999999949
 40
0.2499999999999897
 40
0.2499999999999897
 40
0.3749999999999846
 40
0.3749999999999846
 40
0.4999999999999793
 40
0.4999999999999793
 40
0.6249999999999743
 40
0.6249999999999743
 40
0.7499999999999691
 40
0.7499999999999691
 40
1.0
 40
1.0
 40
1.0
 40
1.0
 10
396.0533319261065
 20
300.363950493971
 30
0.0
 10
396.0491477665239
 20
300.366051974519
 30
0.0
 10
396.0451531808658
 20
300.3684448324765
 30
0.0
 10
396.0375407723412
 20
300.3738093237793
 30
0.0
 10
396.0339212325092
 20
300.3767892796467
 30
0.0
 10
396.0272324057641
 20
300.383191220488
 30
0.0
 10
396.0241392555499
 20
300.3866279944171
 30
0.0
 10
396.0184641730095
 20
300.3939802776015
 30
0.0
 10
396.0158656570675
 20
300.3979294732189
 30
0.0
 10
396.011330104731
 20
300.4061380014827
 30
0.0
 10
396.0093847804552
 20
300.4103967098142
 30
0.0
 10
396.0061456954313
 20
300.4192250953666
 30
0.0
 10
396.0048459737519
 20
300.4238258141013
 30
0.0
 10
396.0020439115086
 20
300.4379113436623
 30
0.0
 10
396.0016307657007
 20
300.4474750101262
 30
0.0
 10
396.0027650660858
 20
300.4572198157153
 30
0.0
  0
SPLINE
  5
1BA
330
1F
100
AcDbEntity
  8
1
100
AcDbSpline
210
0.0
220
0.0
230
1.0
 70
     8
 71
     3
 72
    14
 73
    10
 74
     0
 42
0.000000001
 43
0.0000000001
 40
0.0
 40
0.0
 40
0.0
 40
0.0
 40
0.1784755454255337
 40
0.1784755454255337
 40
0.4523170302836891
 40
0.4523170302836891
 40
0.7261585151418446
 40
0.7261585151418446
 40
1.0
 40
1.0
 40
1.0
 40
1.0
 10
398.6544602409767
 20
299.4039413012788
 30
0.0
 10
398.6602768208935
 20
299.4239761023614
 30
0.0
 10
398.6670931736806
 20
299.4435180745167
 30
0.0
 10
398.6868082469385
 20
299.4918450381866
 30
0.0
 10
398.7010181827867
 20
299.5199995218897
 30
0.0
 10
398.7340498071125
 20
299.5740172754358
 30
0.0
 10
398.7523867912099
 20
299.5990968718156
 30
0.0
 10
398.7924608604087
 20
299.6457412875301
 30
0.0
 10
398.8141997006783
 20
299.6673041847434
 30
0.0
 10
398.8376613880642
 20
299.6871292999941
 30
0.0
  0
SPLINE
  5
1BB
330
1F
100
AcDbEntity
  8
1
100
AcDbSpline
210
0.0
220
0.0
230
1.0
 70
     8
 71
     3
 72
    10
 73
     6
 74
     0
 42
0.000000001
 43
0.0000000001
 40
0.0
 40
0.0
 40
0.0
 40
0.0
 40
0.5
 40
0.5
 40
1.0
 40
1.0
 40
1.0
 40
1.0
 10
398.8376613880642
 20
299.6871292999941
 30
0.0
 10
398.8459458751821
 20
299.6941296878691
 30
0.0
 10
398.8551760076115
 20
299.6994579824582
 30
0.0
 10
398.8751664994496
 20
299.7068265055037
 30
0.0
 10
398.8855013081561
 20
299.7087257433336
 30
0.0
 10
398.8961731991913
 20
299.7088658360403
 30
0.0
  0
SPLINE
  5
1BC
330
1F
100
AcDbEntity
  8
1
100
AcDbSpline
210
0.0
220
0.0
230
1.0
 70
     8
 71
     3
 72
    16
 73
    12
 74
     0
 42
0.000000001
 43
0.0000000001
 40
0.0
 40
0.0
 40
0.0
 40
0.0
 40
0.0947162605546581
 40
0.0947162605546581
 40
0.2757730084437301
 40
0.2757730084437301
 40
0.456829756332802
 40
0.456829756332802
 40
0.6378865042218741
 40
0.6378865042218741
 40
1.0
 40
1.0
 40
1.0
 40
1.0
 10
398.9642935284079
 20
299.7400045869111
 30
0.0
 10
398.9626604094719
 20
299.7381520948311
 30
0.0
 10
398.9609519356309
 20
299.7363653603355
 30
0.0
 10
398.9557575447114
 20
299.7313554456676
 30
0.0
 10
398.9520998760963
 20
299.7283432936404
 30
0.0
 10
398.9444864457942
 20
299.7229853654797
 30
0.0
 10
398.9405061412376
 20
299.7206154850442
 30
0.0
 10
398.9322044134018
 20
299.7164849903528
 30
0.0
 10
398.9278470097799
 20
299.7147155381048
 30
0.0
 10
398.9146063356725
 20
299.7104700557711
 30
0.0
 10
398.9055197711537
 20
299.7089885309368
 30
0.0
 10
398.8961731991913
 20
299.7088658360403
 30
0.0
  0
SPLINE
  5
1BD
330
1F
100
AcDbEntity
  8
1
100
AcDbSpline
210
0.0
220
0.0
230
1.0
 70
     8
 71
     3
 72
     8
 73
     4
 74
     0
 42
0.000000001
 43
0.0000000001
 40
0.0
 40
0.0
 40
0.0
 40
0.0
 40
1.0
 40
1.0
 40
1.0
 40
1.0
 10
403.7311931720171
 20
288.0274807728481
 30
0.0
 10
403.7276505834055
 20
288.0492200467838
 30
0.0
 10
403.722340263689
 20
288.0705185758535
 30
0.0
 10
403.7152622128679
 20
288.0913763600574
 30
0.0
  0
SPLINE
  5
1BE
330
1F
100
AcDbEntity
  8
1
100
AcDbSpline
210
0.0
220
0.0
230
1.0
 70
     8
 71
     3
 72
     8
 73
     4
 74
     0
 42
0.000000001
 43
0.0000000001
 40
0.0
 40
0.0
 40
0.0
 40
0.0
 40
1.0
 40
1.0
 40
1.0
 40
1.0
 10
403.5894505876546
 20
280.8836331788933
 30
0.0
 10
403.5972522528896
 20
280.9042312366872
 30
0.0
 10
403.6033026456478
 20
280.9253314637831
 30
0.0
 10
403.6076017659294
 20
280.9469338601809
 30
0.0
  0
SPLINE
  5
1BF
330
1F
100
AcDbEntity
  8
1
100
AcDbSpline
210
0.0
220
0.0
230
1.0
 70
     8
 71
     3
 72
     8
 73
     4
 74
     0
 42
0.000000001
 43
0.0000000001
 40
0.0
 40
0.0
 40
0.0
 40
0.0
 40
1.0
 40
1.0
 40
1.0
 40
1.0
 10
403.0081269389876
 20
279.9492402055163
 30
0.0
 10
403.0251824081698
 20
279.9631778142169
 30
0.0
 10
403.0409723155493
 20
279.9784259505285
 30
0.0
 10
403.0554966611259
 20
279.9949846144509
 30
0.0
  0
SPLINE
  5
1C0
330
1F
100
AcDbEntity
  8
1
100
AcDbSpline
210
0.0
220
0.0
230
1.0
 70
     8
 71
     3
 72
     8
 73
     4
 74
     0
 42
0.000000001
 43
0.0000000001
 40
0.0
 40
0.0
 40
0.0
 40
0.0
 40
1.0
 40
1.0
 40
1.0
 40
1.0
 10
403.2126469442886
 20
288.9981183071029
 30
0.0
 10
403.1987093355878
 20
289.0151737762852
 30
0.0
 10
403.1834611992763
 20
289.0309636836647
 30
0.0
 10
403.1669025353539
 20
289.0454880292411
 30
0.0
  0
SPLINE
  5
1C1
330
1F
100
AcDbEntity
  8
1
100
AcDbSpline
210
0.0
220
0.0
230
1.0
 70
    24
 71
     3
 72
     8
 73
     4
 74
     0
 42
0.000000001
 43
0.0000000001
 40
0.0
 40
0.0
 40
0.0
 40
0.0
 40
1.0
 40
1.0
 40
1.0
 40
1.0
 10
297.9048419452957
 20
272.1217731961748
 30
0.0
 10
297.9048419452957
 20
272.1814478997969
 30
0.0
 10
297.9048419452957
 20
272.241122603419
 30
0.0
 10
297.9048419452957
 20
272.3007973070411
 30
0.0
  0
SPLINE
  5
1C2
330
1F
100
AcDbEntity
  8
1
100
AcDbSpline
210
0.0
220
0.0
230
1.0
 70
    28
 71
     4
 72
    10
 73
     5
 74
     0
 42
0.000000001
 43
0.0000000001
 40
0.0
 40
0.0
 40
0.0
 40
0.0
 40
0.0
 40
1.0
 40
1.0
 40
1.0
 40
1.0
 40
1.0
 10
297.9048419452957
 20
272.3007973070411
 30
0.0
 41
1.001498006703475
 10
297.9048419452957
 20
272.3751625352045
 30
0.0
 41
1.001498006703475
 10
297.9048419452957
 20
272.4495277633678
 30
0.0
 41
1.001498006703475
 10
297.9048419452957
 20
272.5238929915312
 30
0.0
 41
1.001498006703475
 10
297.9048419452957
 20
272.5982582196945
 30
0.0
 41
1.001498006703475
  0
SPLINE
  5
1C3
330
1F
100
AcDbEntity
  8
1
100
AcDbSpline
210
0.0
220
0.0
230
1.0
 70
     8
 71
     3
 72
    14
 73
    10
 74
     0
 42
0.000000001
 43
0.0000000001
 40
0.0
 40
0.0
 40
0.0
 40
0.0
 40
0.2499999999999997
 40
0.2499999999999997
 40
0.4999999999999994
 40
0.4999999999999994
 40
0.7499999999999992
 40
0.7499999999999992
 40
1.0
 40
1.0
 40
1.0
 40
1.0
 10
298.6051642915806
 20
272.2886912689365
 30
0.0
 10
299.3607735784459
 20
272.2764496164233
 30
0.0
 10
300.112448747844
 20
272.2733532501405
 30
0.0
 10
301.6101582784185
 20
272.2831616747453
 30
0.0
 10
302.3561881244631
 20
272.2960678516272
 30
0.0
 10
303.844344389038
 20
272.3358357528226
 30
0.0
 10
304.5864676525397
 20
272.3626984334906
 30
0.0
 10
306.0681837590412
 20
272.428539065614
 30
0.0
 10
306.8077743472326
 20
272.4675176579551
 30
0.0
 10
307.5466438177706
 20
272.5117246250009
 30
0.0
  0
SPLINE
  5
1C4
330
1F
100
AcDbEntity
  8
1
100
AcDbSpline
210
0.0
220
0.0
230
1.0
 70
    12
 71
     3
 72
     8
 73
     4
 74
     0
 42
0.000000001
 43
0.0000000001
 40
0.0
 40
0.0
 40
0.0
 40
0.0
 40
1.0
 40
1.0
 40
1.0
 40
1.0
 10
297.9048419452957
 20
272.5982582196945
 30
0.0
 41
1.001498006703475
 10
301.2421935973021
 20
272.5425713858136
 30
0.0
 41
1.00151217266755
 10
304.4432686641699
 20
272.5096257161615
 30
0.0
 41
1.001515091202189
 10
307.5466438177708
 20
272.5117246250009
 30
0.0
 41
1.001512783975199
  0
SPLINE
  5
1C5
330
1F
100
AcDbEntity
  8
1
100
AcDbSpline
210
0.0
220
0.0
230
1.0
 70
     8
 71
     3
 72
    18
 73
    14
 74
     0
 42
0.000000001
 43
0.0000000001
 40
0.0
 40
0.0
 40
0.0
 40
0.0
 40
0.2499999999999991
 40
0.2499999999999991
 40
0.4999999999999983
 40
0.4999999999999983
 40
0.6249999999999996
 40
0.6249999999999996
 40
0.6875000000000002
 40
0.6875000000000002
 40
0.7500000000000009
 40
0.7500000000000009
 40
1.0
 40
1.0
 40
1.0
 40
1.0
 10
295.1686807986903
 20
272.2556678911864
 30
0.0
 10
295.3791661101362
 20
272.2324540009334
 30
0.0
 10
295.5938190975805
 20
272.2126858987801
 30
0.0
 10
296.0323317070384
 20
272.1792044070626
 30
0.0
 10
296.256189626074
 20
272.1654883139281
 30
0.0
 10
296.5997531136393
 20
272.1490556307014
 30
0.0
 10
296.7155728216541
 20
272.1442709485243
 30
0.0
 10
296.8913839229525
 20
272.1381122244463
 30
0.0
 10
296.9504103550613
 20
272.1362271412328
 30
0.0
 10
297.0688106121681
 20
272.1328067593045
 30
0.0
 10
297.1281056726077
 20
272.1312732078231
 30
0.0
 10
297.4250598913378
 20
272.124470547923
 30
0.0
 10
297.6641552071815
 20
272.1217731961748
 30
0.0
 10
297.9048419452957
 20
272.1217731961748
 30
0.0
  0
SPLINE
  5
1C6
330
1F
100
AcDbEntity
  8
1
100
AcDbSpline
210
0.0
220
0.0
230
1.0
 70
     8
 71
     3
 72
    10
 73
     6
 74
     0
 42
0.000000001
 43
0.0000000001
 40
0.0
 40
0.0
 40
0.0
 40
0.0
 40
0.5
 40
0.5
 40
1.0
 40
1.0
 40
1.0
 40
1.0
 10
289.9878471895542
 20
272.571011377889
 30
0.0
 10
289.5379940489595
 20
272.6014786474423
 30
0.0
 10
289.0972342702595
 20
272.6189529321295
 30
0.0
 10
288.2311419982733
 20
272.6318583354862
 30
0.0
 10
287.8058168887295
 20
272.6272789039481
 30
0.0
 10
287.3872371745209
 20
272.6130613627075
 30
0.0
  0
SPLINE
  5
1C7
330
1F
100
AcDbEntity
  8
1
100
AcDbSpline
210
0.0
220
0.0
230
1.0
 70
     8
 71
     3
 72
    41
 73
    37
 74
     0
 42
0.000000001
 43
0.0000000001
 40
0.0
 40
0.0
 40
0.0
 40
0.0
 40
0.1249999999999973
 40
0.1249999999999973
 40
0.2499999999999945
 40
0.2499999999999945
 40
0.3749999999999918
 40
0.3749999999999918
 40
0.4374999999999902
 40
0.4374999999999902
 40
0.4999999999999887
 40
0.4999999999999887
 40
0.5624999999999872
 40
0.5624999999999872
 40
0.5937499999999863
 40
0.5937499999999863
 40
0.6249999999999854
 40
0.6249999999999854
 40
0.6874999999999855
 40
0.6874999999999855
 40
0.7499999999999855
 40
0.7499999999999855
 40
0.7656249999999895
 40
0.7656249999999895
 40
0.7812499999999935
 40
0.8124999999999994
 40
0.8124999999999994
 40
0.8437500000000055
 40
0.8437500000000055
 40
0.8750000000000113
 40
0.8750000000000113
 40
0.9062500000000174
 40
0.9062500000000174
 40
0.9375000000000232
 40
0.9375000000000232
 40
1.0
 40
1.0
 40
1.0
 40
1.0
 10
383.887848247218
 20
294.8764490952228
 30
0.0
 10
383.8533912513486
 20
294.8978219988595
 30
0.0
 10
383.8200825118643
 20
294.9201898239011
 30
0.0
 10
383.7560950963968
 20
294.9672217786691
 30
0.0
 10
383.7254099074015
 20
294.9918802934592
 30
0.0
 10
383.6672800297184
 20
295.0440382275908
 30
0.0
 10
383.6398159637671
 20
295.0715210065983
 30
0.0
 10
383.6019736250591
 20
295.1156847435433
 30
0.0
 10
383.5899242390781
 20
295.1309008794536
 30
0.0
 10
383.5672568143366
 20
295.1625848209101
 30
0.0
 10
383.5565982759941
 20
295.1791346211279
 30
0.0
 10
383.5376346368842
 20
295.2130969588302
 30
0.0
 10
383.5292703521253
 20
295.2305663901004
 30
0.0
 10
383.5189388509609
 20
295.2577315342539
 30
0.0
 10
383.515866919302
 20
295.2669479028945
 30
0.0
 10
383.5106101187225
 20
295.2857638315321
 30
0.0
 10
383.50842828335
 20
295.29537589543
 30
0.0
 10
383.5035774641104
 20
295.3243603174406
 30
0.0
 10
383.5025123883279
 20
295.344029778659
 30
0.0
 10
383.506489908196
 20
295.3843211274763
 30
0.0
 10
383.511492069086
 20
295.4041548127864
 30
0.0
 10
383.522274843618
 20
295.4283118864934
 30
0.0
 10
383.5246692998453
 20
295.4331260179396
 30
0.0
 10
383.5298357497822
 20
295.4425109848881
 30
0.0
 10
383.5381765405987
 20
295.4562876744195
 30
0.0
 10
383.5482455923443
 20
295.4691833743989
 30
0.0
 10
383.563150940411
 20
295.4856205176609
 30
0.0
 10
383.5713850894166
 20
295.4934781882954
 30
0.0
 10
383.588663348224
 20
295.5079855580075
 30
0.0
 10
383.5977675019658
 20
295.5147110407004
 30
0.0
 10
383.6167751105826
 20
295.527252747677
 30
0.0
 10
383.6266879011692
 20
295.5330730745963
 30
0.0
 10
383.6471816083807
 20
295.5438923588481
 30
0.0
 10
383.6576254724331
 20
295.5488213700989
 30
0.0
 10
383.6894456898611
 20
295.562416017517
 30
0.0
 10
383.7113054626081
 20
295.5699019461424
 30
0.0
 10
383.733643413132
 20
295.5762204347099
 30
0.0
  0
SPLINE
  5
1C8
330
1F
100
AcDbEntity
  8
1
100
AcDbSpline
210
0.0
220
0.0
230
1.0
 70
     8
 71
     3
 72
    14
 73
    10
 74
     0
 42
0.000000001
 43
0.0000000001
 40
0.0
 40
0.0
 40
0.0
 40
0.0
 40
0.2596727978454105
 40
0.2596727978454105
 40
0.5193455956908211
 40
0.5193455956908211
 40
0.7790183935362314
 40
0.7790183935362314
 40
1.0
 40
1.0
 40
1.0
 40
1.0
 10
326.3003771301811
 20
274.9273541326758
 30
0.0
 10
326.8716692270361
 20
275.0281151092365
 30
0.0
 10
327.4439276371964
 20
275.1276344124769
 30
0.0
 10
328.5901087841577
 20
275.3243800429316
 30
0.0
 10
329.1640291572489
 20
275.4216104514779
 30
0.0
 10
330.313065626702
 20
275.614988143097
 30
0.0
 10
330.8881793793158
 20
275.7111414990967
 30
0.0
 10
331.9532731690078
 20
275.8900332290802
 30
0.0
 10
332.4431685723186
 20
275.9726401396711
 30
0.0
 10
332.9330817554328
 20
276.0564480410011
 30
0.0
  0
SPLINE
  5
1C9
330
1F
100
AcDbEntity
  8
1
100
AcDbSpline
210
0.0
220
0.0
230
1.0
 70
    12
 71
     3
 72
     8
 73
     4
 74
     0
 42
0.000000001
 43
0.0000000001
 40
0.0
 40
0.0
 40
0.0
 40
0.0
 40
1.0
 40
1.0
 40
1.0
 40
1.0
 10
297.9048419452957
 20
272.1598635181168
 30
0.0
 41
1.005405995360787
 10
298.1388112811643
 20
272.2036926825121
 30
0.0
 41
1.005305652911564
 10
298.3722492039987
 20
272.2466267312876
 30
0.0
 41
1.00520775791293
 10
298.6051642915759
 20
272.288691268936
 30
0.0
 41
1.005112252694449
  0
SPLINE
  5
1CA
330
1F
100
AcDbEntity
  8
1
100
AcDbSpline
210
0.0
220
0.0
230
1.0
 70
     8
 71
     3
 72
    43
 73
    39
 74
     0
 42
0.000000001
 43
0.0000000001
 40
0.0
 40
0.0
 40
0.0
 40
0.0
 40
0.0312500000000075
 40
0.0312500000000075
 40
0.062500000000015
 40
0.062500000000015
 40
0.0937500000000226
 40
0.0937500000000226
 40
0.1015625000000233
 40
0.1015625000000233
 40
0.109375000000024
 40
0.1250000000000255
 40
0.1250000000000255
 40
0.1875000000000291
 40
0.1875000000000291
 40
0.2500000000000327
 40
0.2500000000000327
 40
0.3125000000000363
 40
0.3125000000000363
 40
0.3750000000000399
 40
0.3750000000000399
 40
0.3906250000000402
 40
0.3906250000000402
 40
0.4062500000000405
 40
0.4062500000000405
 40
0.4375000000000389
 40
0.4375000000000389
 40
0.5000000000000354
 40
0.5000000000000354
 40
0.5625000000000318
 40
0.5625000000000318
 40
0.6250000000000284
 40
0.6250000000000284
 40
0.7500000000000189
 40
0.7500000000000189
 40
0.8750000000000094
 40
0.8750000000000094
 40
1.0
 40
1.0
 40
1.0
 40
1.0
 10
385.672304580491
 20
291.7854646710543
 30
0.0
 10
385.5610836934372
 20
291.8310678654309
 30
0.0
 10
385.447553133337
 20
291.8789234117004
 30
0.0
 10
385.2163756743759
 20
291.9786486842606
 30
0.0
 10
385.0987278464859
 20
292.0305193165238
 30
0.0
 10
384.8597231415482
 20
292.1378775795271
 30
0.0
 10
384.7383656312245
 20
292.1933658278267
 30
0.0
 10
384.5845613297188
 20
292.2647812502962
 30
0.0
 10
384.5536747450537
 20
292.2791767102564
 30
0.0
 10
384.4918185948389
 20
292.3081110357032
 30
0.0
 10
384.3989065339079
 20
292.351728962434
 30
0.0
 10
384.3056239026839
 20
292.3959743019932
 30
0.0
 10
383.9939099593591
 20
292.5447655687685
 30
0.0
 10
383.7420821935698
 20
292.6679578722499
 30
0.0
 10
383.2345778346347
 20
292.9208589315649
 30
0.0
 10
382.9788875886497
 20
293.0505908030303
 30
0.0
 10
382.464294766877
 20
293.3154933438489
 30
0.0
 10
382.2053892984561
 20
293.4506689107212
 30
0.0
 10
381.684832509542
 20
293.7256690485752
 30
0.0
 10
381.4231795547647
 20
293.8654963865646
 30
0.0
 10
381.0946120036385
 20
294.04282250877
 30
0.0
 10
381.0288231810002
 20
294.0784152447116
 30
0.0
 10
380.8970994211094
 20
294.1498481033528
 30
0.0
 10
380.8311350454991
 20
294.1857043024469
 30
0.0
 10
380.6333417232298
 20
294.2934627428631
 30
0.0
 10
380.5015640315125
 20
294.3655806038379
 30
0.0
 10
380.1064671878348
 20
294.5827136789985
 30
0.0
 10
379.8433836178455
 20
294.7285062422577
 30
0.0
 10
379.3177712772869
 20
295.0219220386422
 30
0.0
 10
379.0552427083633
 20
295.1695459371368
 30
0.0
 10
378.5306855056473
 20
295.4664433684737
 30
0.0
 10
378.2686570014068
 20
295.6157173287976
 30
0.0
 10
377.4832594125631
 20
296.0658091499801
 30
0.0
 10
376.9605743564156
 20
296.3688840973377
 30
0.0
 10
375.9168164163615
 20
296.9803536716207
 30
0.0
 10
375.3957448250391
 20
297.288752563682
 30
0.0
 10
374.3551139449252
 20
297.9105404876103
 30
0.0
 10
373.8355552195402
 20
298.223931378549
 30
0.0
 10
373.3167445239109
 20
298.5397905408703
 30
0.0
  0
SPLINE
  5
1CB
330
1F
100
AcDbEntity
  8
1
100
AcDbSpline
210
0.0
220
0.0
230
1.0
 70
     8
 71
     3
 72
    49
 73
    45
 74
     0
 42
0.000000001
 43
0.0000000001
 40
0.0
 40
0.0
 40
0.0
 40
0.0
 40
0.0132433105154268
 40
0.0132433105154268
 40
0.0651778731198782
 40
0.1171124357243296
 40
0.1171124357243296
 40
0.1430797170265553
 40
0.1430797170265553
 40
0.1690469983287809
 40
0.1690469983287809
 40
0.2209815609332324
 40
0.2209815609332324
 40
0.2729161235376836
 40
0.2729161235376836
 40
0.3248506861421349
 40
0.3248506861421349
 40
0.3767852487465863
 40
0.3767852487465863
 40
0.4287198113510377
 40
0.4287198113510377
 40
0.4806543739554888
 40
0.4806543739554888
 40
0.5325889365599403
 40
0.5325889365599403
 40
0.5845234991643915
 40
0.5845234991643915
 40
0.6364580617688429
 40
0.6364580617688429
 40
0.6624253430710687
 40
0.6624253430710687
 40
0.6883926243732943
 40
0.6883926243732943
 40
0.7403271869777452
 40
0.7403271869777452
 40
0.7922617495821962
 40
0.7922617495821962
 40
0.8441963121866471
 40
0.8441963121866471
 40
0.896130874791098
 40
0.896130874791098
 40
0.9480654373955491
 40
0.9480654373955491
 40
1.0
 40
1.0
 40
1.0
 40
1.0
 10
340.8679301776483
 20
274.6718365690443
 30
0.0
 10
340.6798267450498
 20
274.6391681804496
 30
0.0
 10
340.4917351947748
 20
274.606756451619
 30
0.0
 10
339.5660582025659
 20
274.4485609731834
 30
0.0
 10
338.091055069791
 20
274.2047115778151
 30
0.0
 10
336.6149861455458
 20
273.9795471604159
 30
0.0
 10
335.5070110958605
 20
273.8182656775699
 30
0.0
 10
335.1375322910119
 20
273.7657681293962
 30
0.0
 10
334.3981809411423
 20
273.6633688902225
 30
0.0
 10
334.028300628883
 20
273.6134779512333
 30
0.0
 10
332.9180033178021
 20
273.4676904184719
 30
0.0
 10
332.1769803215942
 20
273.3755966847427
 30
0.0
 10
330.6937987736438
 20
273.200509055011
 30
0.0
 10
329.951640572518
 20
273.1175173834588
 30
0.0
 10
328.4665735330908
 20
272.9599471004165
 30
0.0
 10
327.7236394214428
 20
272.8853700161274
 30
0.0
 10
326.2381400918513
 20
272.7443528287321
 30
0.0
 10
325.4954655308156
 20
272.6779033120465
 30
0.0
 10
324.0103816612916
 20
272.5529989522889
 30
0.0
 10
323.2679721988331
 20
272.4945467355937
 30
0.0
 10
321.7834181873449
 20
272.385696661138
 30
0.0
 10
321.0412734429076
 20
272.3353012885588
 30
0.0
 10
319.5571387261223
 20
272.2427255144841
 30
0.0
 10
318.8151485634687
 20
272.2005474618285
 30
0.0
 10
317.3311090098845
 20
272.1245954087684
 30
0.0
 10
316.5890594562428
 20
272.0908236509082
 30
0.0
 10
315.1045886256043
 20
272.0318329940211
 30
0.0
 10
314.3621672187766
 20
272.0066162621335
 30
0.0
 10
313.2479513713956
 20
271.9752376799494
 30
0.0
 10
312.8764467330624
 20
271.9658516982033
 30
0.0
 10
312.1333849473702
 20
271.9492199852179
 30
0.0
 10
311.7618029365323
 20
271.9419735659589
 30
0.0
 10
310.646812467962
 20
271.9234044482049
 30
0.0
 10
309.9031624668504
 20
271.9152601953914
 30
0.0
 10
308.4146614576685
 20
271.9070582973453
 30
0.0
 10
307.6698104840162
 20
271.9070023700621
 30
0.0
 10
306.1782596449662
 20
271.9143106031945
 30
0.0
 10
305.4315598380835
 20
271.9216761514326
 30
0.0
 10
303.9355691477558
 20
271.9428270326832
 30
0.0
 10
303.1862783782379
 20
271.9566132480613
 30
0.0
 10
301.6842668409932
 20
271.989236590518
 30
0.0
 10
300.9315463071983
 20
272.0080738757254
 30
0.0
 10
299.4217346605211
 20
272.0490454124202
 30
0.0
 10
298.6646440178938
 20
272.071178847111
 30
0.0
 10
297.9048419452957
 20
272.0938956918675
 30
0.0
  0
SPLINE
  5
1CC
330
1F
100
AcDbEntity
  8
1
100
AcDbSpline
210
0.0
220
0.0
230
1.0
 70
     8
 71
     3
 72
    23
 73
    19
 74
     0
 42
0.000000001
 43
0.0000000001
 40
0.0
 40
0.0
 40
0.0
 40
0.0
 40
0.1249999999999998
 40
0.1249999999999998
 40
0.2499999999999996
 40
0.2499999999999996
 40
0.3749999999999993
 40
0.3749999999999993
 40
0.4999999999999992
 40
0.624999999999999
 40
0.624999999999999
 40
0.7499999999999987
 40
0.7499999999999987
 40
0.8124999999999989
 40
0.8124999999999989
 40
0.8749999999999992
 40
0.8749999999999992
 40
1.0
 40
1.0
 40
1.0
 40
1.0
 10
307.5466438177706
 20
272.5117246250009
 30
0.0
 10
308.332703842763
 20
272.5587298894602
 30
0.0
 10
309.1169002734622
 20
272.6136961423088
 30
0.0
 10
310.6827288936486
 20
272.739081707346
 30
0.0
 10
311.4643597958998
 20
272.8095021849162
 30
0.0
 10
313.0260707402978
 20
272.9650404670285
 30
0.0
 10
313.8061499627489
 20
273.050159026097
 30
0.0
 10
315.3656560891992
 20
273.2340200636093
 30
0.0
 10
316.9245089850253
 20
273.4315063237489
 30
0.0
 10
318.4836623216922
 20
273.6534183224879
 30
0.0
 10
320.0436792420941
 20
273.8857854246376
 30
0.0
 10
320.8241202482818
 20
274.0071938675971
 30
0.0
 10
321.9958898557286
 20
274.1955940325798
 30
0.0
 10
322.3866780043278
 20
274.2594422398752
 30
0.0
 10
323.1684912591559
 20
274.3889212215506
 30
0.0
 10
323.5595394654297
 20
274.4545551838283
 30
0.0
 10
324.7332054873796
 20
274.6537279219676
 30
0.0
 10
325.5163538868276
 20
274.7895159257616
 30
0.0
 10
326.3003771301811
 20
274.9273541326758
 30
0.0
  0
SPLINE
  5
1CD
330
1F
100
AcDbEntity
  8
1
100
AcDbSpline
210
0.0
220
0.0
230
1.0
 70
     8
 71
     3
 72
    36
 73
    32
 74
     0
 42
0.000000001
 43
0.0000000001
 40
0.0
 40
0.0
 40
0.0
 40
0.0
 40
0.0624999999999905
 40
0.0624999999999905
 40
0.1249999999999811
 40
0.1249999999999811
 40
0.2499999999999624
 40
0.2499999999999624
 40
0.281249999999962
 40
0.281249999999962
 40
0.3124999999999616
 40
0.3124999999999616
 40
0.3749999999999781
 40
0.3749999999999781
 40
0.4999999999999933
 40
0.4999999999999933
 40
0.5624999999999919
 40
0.5624999999999919
 40
0.5937499999999911
 40
0.5937499999999911
 40
0.6249999999999903
 40
0.6249999999999903
 40
0.6874999999999887
 40
0.6874999999999887
 40
0.7499999999999872
 40
0.7499999999999872
 40
0.8750000000000024
 40
0.8750000000000024
 40
0.9375000000000012
 40
0.9375000000000012
 40
1.0
 40
1.0
 40
1.0
 40
1.0
 10
394.4119787299568
 20
292.8488310956188
 30
0.0
 10
394.3726181376865
 20
292.8226478715929
 30
0.0
 10
394.3328072444207
 20
292.7976864655418
 30
0.0
 10
394.2522500897288
 20
292.7501065139783
 30
0.0
 10
394.2115041381849
 20
292.7274883479907
 30
0.0
 10
394.0878102560806
 20
292.6630656534631
 30
0.0
 10
394.0034142409805
 20
292.6246759493239
 30
0.0
 10
393.8952442768057
 20
292.5823831102981
 30
0.0
 10
393.8734759359993
 20
292.5742106287749
 30
0.0
 10
393.8296613044233
 20
292.5584433399178
 30
0.0
 10
393.8076223921544
 20
292.5508522027327
 30
0.0
 10
393.7413959973168
 20
292.5290561191553
 30
0.0
 10
393.6969943721883
 20
292.5157885716933
 30
0.0
 10
393.5629363368808
 20
292.4797559037253
 30
0.0
 10
393.4724309584265
 20
292.4607391774866
 30
0.0
 10
393.3344695914976
 20
292.4400350253323
 30
0.0
 10
393.2881137600589
 20
292.4344427321809
 30
0.0
 10
393.2179643776259
 20
292.4281024727383
 30
0.0
 10
393.1944787289843
 20
292.4263307013165
 30
0.0
 10
393.1472938320218
 20
292.4234874504
 30
0.0
 10
393.1236958536964
 20
292.4224233382146
 30
0.0
 10
393.0532471172848
 20
292.4203034480007
 30
0.0
 10
393.0065920364059
 20
292.4203101421369
 30
0.0
 10
392.9138525720754
 20
292.4230500805482
 30
0.0
 10
392.8677675175583
 20
292.4257828853567
 30
0.0
 10
392.7302472142404
 20
292.437934230144
 30
0.0
 10
392.6395433707961
 20
292.4512849623561
 30
0.0
 10
392.5044249441123
 20
292.4789644038337
 30
0.0
 10
392.4594914066384
 20
292.4894850118349
 30
0.0
 10
392.3700910998477
 20
292.5130493704637
 30
0.0
 10
392.3257232785228
 20
292.5260634213999
 30
0.0
 10
392.2816299494126
 20
292.5403123832494
 30
0.0
  0
SPLINE
  5
1CE
330
1F
100
AcDbEntity
  8
1
100
AcDbSpline
210
0.0
220
0.0
230
1.0
 70
     8
 71
     3
 72
    27
 73
    23
 74
     0
 42
0.000000001
 43
0.0000000001
 40
0.0
 40
0.0
 40
0.0
 40
0.0
 40
0.1249999999999937
 40
0.2499999999999875
 40
0.3749999999999811
 40
0.4062499999999797
 40
0.4062499999999797
 40
0.437499999999978
 40
0.437499999999978
 40
0.499999999999975
 40
0.499999999999975
 40
0.6249999999999689
 40
0.6249999999999689
 40
0.6874999999999656
 40
0.6874999999999656
 40
0.718749999999967
 40
0.718749999999967
 40
0.749999999999968
 40
0.749999999999968
 40
0.874999999999984
 40
0.874999999999984
 40
1.0
 40
1.0
 40
1.0
 40
1.0
 10
392.2817472674103
 20
292.2393280888869
 30
0.0
 10
391.9901513895073
 20
292.2290620230516
 30
0.0
 10
391.4086250721791
 20
292.2285405429276
 30
0.0
 10
390.5412450653287
 20
292.2867005664107
 30
0.0
 10
389.8943817912332
 20
292.3743500245096
 30
0.0
 10
389.5363033150145
 20
292.4384872289657
 30
0.0
 10
389.3931758809144
 20
292.4653858642606
 30
0.0
 10
389.3216907257299
 20
292.4794523340764
 30
0.0
 10
389.1078923222614
 20
292.5234155813127
 30
0.0
 10
388.9660777312989
 20
292.5551048775487
 30
0.0
 10
388.5427738474222
 20
292.6572601331652
 30
0.0
 10
388.2634218313364
 20
292.7348054254214
 30
0.0
 10
387.8486647304587
 20
292.8652183158828
 30
0.0
 10
387.7111248376843
 20
292.9110404611563
 30
0.0
 10
387.5058890296388
 20
292.9833100850023
 30
0.0
 10
387.4376233835141
 20
293.0080019284622
 30
0.0
 10
387.3016692174951
 20
293.0584858515302
 30
0.0
 10
387.2339718103852
 20
293.0842803171067
 30
0.0
 10
386.8968776121966
 20
293.2160000768689
 30
0.0
 10
386.631654158733
 20
293.3301587585622
 30
0.0
 10
386.1100528212703
 20
293.5758016376579
 30
0.0
 10
385.8536749041086
 20
293.7072864364876
 30
0.0
 10
385.6017566061382
 20
293.8474228362105
 30
0.0
  0
SPLINE
  5
1CF
330
1F
100
AcDbEntity
  8
1
100
AcDbSpline
210
0.0
220
0.0
230
1.0
 70
     8
 71
     3
 72
     8
 73
     4
 74
     0
 42
0.000000001
 43
0.0000000001
 40
0.0
 40
0.0
 40
0.0
 40
0.0
 40
1.0
 40
1.0
 40
1.0
 40
1.0
 10
392.2817472674103
 20
292.2393280888869
 30
0.0
 10
392.2856046737268
 20
292.2394638946037
 30
0.0
 10
392.2894633505626
 20
292.2395990859699
 30
0.0
 10
392.2933233004048
 20
292.2397336617828
 30
0.0
  0
SPLINE
  5
1D0
330
1F
100
AcDbEntity
  8
1
100
AcDbSpline
210
0.0
220
0.0
230
1.0
 70
     8
 71
     3
 72
    24
 73
    20
 74
     0
 42
0.000000001
 43
0.0000000001
 40
0.0
 40
0.0
 40
0.0
 40
0.0
 40
0.1250000000000057
 40
0.1250000000000057
 40
0.2500000000000114
 40
0.2500000000000114
 40
0.3125000000000142
 40
0.3125000000000142
 40
0.3750000000000171
 40
0.3750000000000171
 40
0.5000000000000171
 40
0.5000000000000171
 40
0.5625000000000173
 40
0.5625000000000173
 40
0.6250000000000173
 40
0.6250000000000173
 40
0.7500000000000115
 40
0.8750000000000056
 40
1.0
 40
1.0
 40
1.0
 40
1.0
 10
385.7163464233827
 20
290.4982209423454
 30
0.0
 10
385.9667260536332
 20
290.345756020582
 30
0.0
 10
386.2220300060311
 20
290.2029334853348
 30
0.0
 10
386.7423773527314
 20
289.9364564513562
 30
0.0
 10
387.0074205151236
 20
289.8128013944328
 30
0.0
 10
387.4123109098365
 20
289.6418011614915
 30
0.0
 10
387.5486099794595
 20
289.5871781019811
 30
0.0
 10
387.8226016895474
 20
289.4831956659982
 30
0.0
 10
387.9603935260159
 20
289.4337895778681
 30
0.0
 10
388.3761409523188
 20
289.2932794847277
 30
0.0
 10
388.6564652863361
 20
289.2098734890403
 30
0.0
 10
389.0816835343749
 20
289.1001583618066
 30
0.0
 10
389.2242123620047
 20
289.066154816787
 30
0.0
 10
389.5108573307812
 20
289.0033139739758
 30
0.0
 10
389.6544636163781
 20
288.9745892530862
 30
0.0
 10
390.0859208381908
 20
288.8964399498732
 30
0.0
 10
390.6630765254746
 20
288.8135785524092
 30
0.0
 10
391.5343714086749
 20
288.7524265561641
 30
0.0
 10
392.1189541072081
 20
288.7538865395451
 30
0.0
 10
392.4121946306556
 20
288.7653927999533
 30
0.0
  0
SPLINE
  5
1D1
330
1F
100
AcDbEntity
  8
1
100
AcDbSpline
210
0.0
220
0.0
230
1.0
 70
     8
 71
     3
 72
    66
 73
    62
 74
     0
 42
0.000000001
 43
0.0000000001
 40
0.0
 40
0.0
 40
0.0
 40
0.0
 40
0.0624999999999999
 40
0.0624999999999999
 40
0.1249999999999997
 40
0.1249999999999997
 40
0.1874999999999996
 40
0.1874999999999996
 40
0.2499999999999994
 40
0.2499999999999994
 40
0.2812499999999982
 40
0.2812499999999982
 40
0.312499999999997
 40
0.312499999999997
 40
0.3281249999999963
 40
0.3281249999999963
 40
0.3437499999999957
 40
0.3437499999999957
 40
0.3749999999999947
 40
0.3749999999999947
 40
0.4062499999999937
 40
0.4062499999999937
 40
0.4374999999999928
 40
0.4374999999999928
 40
0.4687499999999917
 40
0.4687499999999917
 40
0.4843749999999912
 40
0.4843749999999912
 40
0.4999999999999906
 40
0.4999999999999906
 40
0.5624999999999902
 40
0.5624999999999902
 40
0.5781249999999898
 40
0.5781249999999898
 40
0.5859374999999896
 40
0.5859374999999896
 40
0.5937499999999894
 40
0.624999999999988
 40
0.624999999999988
 40
0.6562499999999866
 40
0.6562499999999866
 40
0.6718749999999851
 40
0.6718749999999851
 40
0.6796874999999841
 40
0.6796874999999841
 40
0.6874999999999833
 40
0.7499999999999857
 40
0.7499999999999857
 40
0.7812499999999872
 40
0.7812499999999872
 40
0.7968749999999877
 40
0.7968749999999877
 40
0.8124999999999882
 40
0.8124999999999882
 40
0.8437499999999891
 40
0.8437499999999891
 40
0.8749999999999904
 40
0.8749999999999904
 40
0.9374999999999952
 40
0.9374999999999952
 40
1.0
 40
1.0
 40
1.0
 40
1.0
 10
385.6077352889224
 20
293.6726794237082
 30
0.0
 10
385.7399394546956
 20
293.5633709113211
 30
0.0
 10
385.8709837567943
 20
293.4573907489453
 30
0.0
 10
386.1299887293685
 20
293.2516875180634
 30
0.0
 10
386.2579532615809
 20
293.1519648836696
 30
0.0
 10
386.5097573346585
 20
292.9584227834854
 30
0.0
 10
386.63360348769
 20
292.8646035504125
 30
0.0
 10
386.8756960373517
 20
292.6825485612074
 30
0.0
 10
386.9939545031798
 20
292.5943126411121
 30
0.0
 10
387.1655108038062
 20
292.4659307290609
 30
0.0
 10
387.2217082309855
 20
292.4238008751888
 30
0.0
 10
387.331856951687
 20
292.3408157409119
 30
0.0
 10
387.3858022418467
 20
292.2999620798969
 30
0.0
 10
387.4646871381809
 20
292.2396180536135
 30
0.0
 10
387.4906424447997
 20
292.2196594917281
 30
0.0
 10
387.5418056509962
 20
292.1800515036045
 30
0.0
 10
387.5670264037466
 20
292.1603919995597
 30
0.0
 10
387.6413678044373
 20
292.1019390168453
 30
0.0
 10
387.6889797436374
 20
292.0638220982593
 30
0.0
 10
387.7796180808866
 20
291.9892985669429
 30
0.0
 10
387.8226460503247
 20
291.952891588684
 30
0.0
 10
387.9032597158027
 20
291.8818221531606
 30
0.0
 10
387.940847599952
 20
291.8471591050931
 30
0.0
 10
388.0094973304606
 20
291.7796535341183
 30
0.0
 10
388.0405622758157
 20
291.7468100415464
 30
0.0
 10
388.0812235548905
 20
291.6990155763514
 30
0.0
 10
388.0937852876586
 20
291.6833298087478
 30
0.0
 10
388.1167129753529
 20
291.6524764952978
 30
0.0
 10
388.1270235637618
 20
291.6373792879768
 30
0.0
 10
388.1722302917713
 20
291.5638845755516
 30
0.0
 10
388.1883368757911
 20
291.5111073095273
 30
0.0
 10
388.177094082337
 20
291.4542126825373
 30
0.0
 10
388.1732751488795
 20
291.44329198051
 30
0.0
 10
388.1650712493222
 20
291.4276416723089
 30
0.0
 10
388.1619313044537
 20
291.4225628259346
 30
0.0
 10
388.154867181331
 20
291.4127175552061
 30
0.0
 10
388.1352334725087
 20
291.3888570301124
 30
0.0
 10
388.1058154352281
 20
291.3687506835536
 30
0.0
 10
388.0468756824454
 20
291.3413852445491
 30
0.0
 10
388.0114721815888
 20
291.3301050869422
 30
0.0
 10
387.9500776373271
 20
291.3168144398397
 30
0.0
 10
387.9282323278437
 20
291.3129894081787
 30
0.0
 10
387.8934779769917
 20
291.3081649641667
 30
0.0
 10
387.8815884772231
 20
291.306713064093
 30
0.0
 10
387.8573024700871
 20
291.3041246835086
 30
0.0
 10
387.7456290046138
 20
291.2938796155163
 30
0.0
 10
387.6135387814798
 20
291.2960086915558
 30
0.0
 10
387.4208915520459
 20
291.3117234367642
 30
0.0
 10
387.3539022063035
 20
291.3191129485195
 30
0.0
 10
387.2499871845994
 20
291.3332775735542
 30
0.0
 10
387.2147442062378
 20
291.3385181241352
 30
0.0
 10
387.1433555766082
 20
291.349985762758
 30
0.0
 10
387.10728934305
 20
291.3561992077147
 30
0.0
 10
386.9981128635028
 20
291.3762264194946
 30
0.0
 10
386.9240295900529
 20
291.391424891659
 30
0.0
 10
386.7738656854466
 20
291.4253007795514
 30
0.0
 10
386.6977835682845
 20
291.4439788752592
 30
0.0
 10
386.4672342170649
 20
291.5050041132982
 30
0.0
 10
386.3104973285666
 20
291.5523262035288
 30
0.0
 10
385.9935781424914
 20
291.6595311375423
 30
0.0
 10
385.8333795974504
 20
291.7194201042272
 30
0.0
 10
385.6723045804912
 20
291.7854646710544
 30
0.0
  0
SPLINE
  5
1D2
330
1F
100
AcDbEntity
  8
1
100
AcDbSpline
210
0.0
220
0.0
230
1.0
 70
    11
 71
     3
 72
   133
 73
   129
 74
     0
 42
0.000000001
 43
0.0000000001
 40
0.0
 40
0.0
 40
0.0
 40
0.0
 40
0.0312500000000219
 40
0.0312500000000219
 40
0.0468750000000331
 40
0.0468750000000331
 40
0.0546875000000386
 40
0.0546875000000386
 40
0.0625000000000441
 40
0.0625000000000441
 40
0.0937500000000615
 40
0.0937500000000615
 40
0.1093750000000702
 40
0.1093750000000702
 40
0.1250000000000789
 40
0.1250000000000789
 40
0.1562500000000964
 40
0.1562500000000964
 40
0.1640625000000989
 40
0.1640625000000989
 40
0.1718750000001014
 40
0.1718750000001014
 40
0.1875000000001024
 40
0.2031250000001033
 40
0.2031250000001033
 40
0.2109375000001038
 40
0.2109375000001038
 40
0.2187500000001043
 40
0.2187500000001043
 40
0.2500000000001062
 40
0.2500000000001062
 40
0.2656250000001071
 40
0.2656250000001071
 40
0.2734375000001054
 40
0.2734375000001054
 40
0.2812500000001035
 40
0.2812500000001035
 40
0.3125000000000922
 40
0.3125000000000922
 40
0.3203125000000893
 40
0.3203125000000893
 40
0.3281250000000866
 40
0.3281250000000866
 40
0.3437500000000769
 40
0.3593750000000674
 40
0.3593750000000674
 40
0.3671875000000642
 40
0.3671875000000642
 40
0.375000000000061
 40
0.375000000000061
 40
0.4062500000000421
 40
0.4062500000000421
 40
0.4218750000000304
 40
0.4218750000000304
 40
0.4296875000000246
 40
0.4296875000000246
 40
0.4375000000000189
 40
0.4375000000000189
 40
0.4687499999999895
 40
0.4687499999999895
 40
0.4765624999999819
 40
0.4765624999999819
 40
0.4843749999999745
 40
0.4843749999999745
 40
0.49999999999996
 40
0.49999999999996
 40
0.5312499999999308
 40
0.5312499999999308
 40
0.5390624999999249
 40
0.5390624999999249
 40
0.5468749999999189
 40
0.5468749999999189
 40
0.5624999999999094
 40
0.5781249999998999
 40
0.5781249999998999
 40
0.5859374999998952
 40
0.5859374999998952
 40
0.5937499999998907
 40
0.5937499999998907
 40
0.6249999999998865
 40
0.6249999999998865
 40
0.6406249999998846
 40
0.6406249999998846
 40
0.6484374999998816
 40
0.6484374999998816
 40
0.6562499999998785
 40
0.6562499999998785
 40
0.687499999999878
 40
0.687499999999878
 40
0.6953124999998776
 40
0.6953124999998776
 40
0.7031249999998775
 40
0.7031249999998775
 40
0.7187499999998769
 40
0.7187499999998769
 40
0.7499999999998802
 40
0.7499999999998802
 40
0.7578124999998833
 40
0.7578124999998833
 40
0.7656249999998864
 40
0.7656249999998864
 40
0.7812499999998927
 40
0.7968749999998988
 40
0.7968749999998988
 40
0.8046874999999019
 40
0.8046874999999019
 40
0.8124999999999051
 40
0.8124999999999051
 40
0.8437499999999182
 40
0.8437499999999182
 40
0.8515624999999218
 40
0.8515624999999218
 40
0.8593749999999253
 40
0.8593749999999253
 40
0.8749999999999324
 40
0.8749999999999324
 40
0.90624999999995
 40
0.90624999999995
 40
0.9218749999999575
 40
0.9218749999999575
 40
0.9374999999999651
 40
0.9531249999999728
 40
0.9531249999999728
 40
0.960937499999977
 40
0.960937499999977
 40
0.9687499999999811
 40
0.9687499999999811
 40
1.0
 40
1.0
 40
1.0
 40
1.0
 10
396.9691615337858
 20
284.774186265565
 30
0.0
 10
396.9708089211167
 20
284.8685650225406
 30
0.0
 10
396.9815635653244
 20
284.9614987493789
 30
0.0
 10
397.0110094317238
 20
285.0987652168743
 30
0.0
 10
397.0230591567116
 20
285.1441622661272
 30
0.0
 10
397.0445836759113
 20
285.2116988917148
 30
0.0
 10
397.0523345077014
 20
285.2341177605887
 30
0.0
 10
397.069017623105
 20
285.2787628927099
 30
0.0
 10
397.0778856369644
 20
285.3008160373034
 30
0.0
 10
397.1247732764196
 20
285.4096515003846
 30
0.0
 10
397.1704064736263
 20
285.4922934134874
 30
0.0
 10
397.2510402234308
 20
285.6095536711356
 30
0.0
 10
397.2799623674233
 20
285.6475157658185
 30
0.0
 10
397.3420728609638
 20
285.721080379837
 30
0.0
 10
397.3747755845653
 20
285.7561013285087
 30
0.0
 10
397.4774503986816
 20
285.8557660449502
 30
0.0
 10
397.5520442961557
 20
285.9151799253506
 30
0.0
 10
397.6531471518925
 20
285.9803993661395
 30
0.0
 10
397.6737853786247
 20
285.9929988866339
 30
0.0
 10
397.7157858673494
 20
286.0172102216131
 30
0.0
 10
397.7370076299438
 20
286.0287424796365
 30
0.0
 10
397.8013241156016
 20
286.0616519673504
 30
0.0
 10
397.8888126904442
 20
286.1010401554539
 30
0.0
 10
397.9797061964303
 20
286.131590456047
 30
0.0
 10
398.049168230847
 20
286.1511452023282
 30
0.0
 10
398.0725379536478
 20
286.157102776592
 30
0.0
 10
398.1197163091144
 20
286.1678764835286
 30
0.0
 10
398.1435944434518
 20
286.1727038802171
 30
0.0
 10
398.2631241589714
 20
286.193750026672
 30
0.0
 10
398.3589744556568
 20
286.2008235190814
 30
0.0
 10
398.5030791404002
 20
286.1972343434202
 30
0.0
 10
398.5511693250676
 20
286.193653674555
 30
0.0
 10
398.6233900436535
 20
286.1845992976637
 30
0.0
 10
398.647499487866
 20
286.1809582912137
 30
0.0
 10
398.6951981347833
 20
286.1725264364299
 30
0.0
 10
398.7188554571296
 20
286.1677286614537
 30
0.0
 10
398.8361987050902
 20
286.1408822367416
 30
0.0
 10
398.9270824250458
 20
286.1103442951239
 30
0.0
 10
399.0369280032821
 20
286.0608148978075
 30
0.0
 10
399.0587074189579
 20
286.0503359526107
 30
0.0
 10
399.1018791083916
 20
286.0282095778182
 30
0.0
 10
399.1231329738864
 20
286.0166316073766
 30
0.0
 10
399.1857126424777
 20
285.980497752111
 30
0.0
 10
399.2661879588951
 20
285.9285003800689
 30
0.0
 10
399.3408765306419
 20
285.8690676131264
 30
0.0
 10
399.3947124777303
 20
285.8216993485342
 30
0.0
 10
399.4122937336482
 20
285.8054434873335
 30
0.0
 10
399.4467184064578
 20
285.7719878238792
 30
0.0
 10
399.4636043429892
 20
285.7547415144296
 30
0.0
 10
399.5456017592695
 20
285.6667029357035
 30
0.0
 10
399.6030871969283
 20
285.5910582332498
 30
0.0
 10
399.6776916837248
 20
285.4701899215846
 30
0.0
 10
399.7006083344357
 20
285.4286576861043
 30
0.0
 10
399.7319985760037
 20
285.3644664285643
 30
0.0
 10
399.7419800764632
 20
285.3427087690906
 30
0.0
 10
399.7607409795843
 20
285.2990052438542
 30
0.0
 10
399.7695447240584
 20
285.2770148863982
 30
0.0
 10
399.8107403473381
 20
285.1663876592845
 30
0.0
 10
399.8347402171535
 20
285.075744257327
 30
0.0
 10
399.8537052361713
 20
284.9598363723676
 30
0.0
 10
399.8569417054267
 20
284.9365233895607
 30
0.0
 10
399.8622860940297
 20
284.8896314859343
 30
0.0
 10
399.864390105801
 20
284.866050925051
 30
0.0
 10
399.8689490500664
 20
284.7956524774269
 30
0.0
 10
399.8696875404167
 20
284.7489287860554
 30
0.0
 10
399.8652122637405
 20
284.6093660295703
 30
0.0
 10
399.8533699295513
 20
284.5171310677801
 30
0.0
 10
399.8272428129744
 20
284.4028530825667
 30
0.0
 10
399.8214406889116
 20
284.3800430641157
 30
0.0
 10
399.8088141578376
 20
284.3349975883297
 30
0.0
 10
399.8019771094469
 20
284.3127019529701
 30
0.0
 10
399.7799193929757
 20
284.2464839942598
 30
0.0
 10
399.7463920992744
 20
284.1599742653688
 30
0.0
 10
399.7047132576392
 20
284.0769697963626
 30
0.0
 10
399.6703390919499
 20
284.0160462295066
 30
0.0
 10
399.6583609344787
 20
283.9959603841204
 30
0.0
 10
399.6333427923479
 20
283.9562401056087
 30
0.0
 10
399.6202693129195
 20
283.9365611986495
 30
0.0
 10
399.5528528695739
 20
283.8402620890767
 30
0.0
 10
399.4921323209159
 20
283.7693246826466
 30
0.0
 10
399.3909461500255
 20
283.6718947853543
 30
0.0
 10
399.3555211887282
 20
283.6409248819423
 30
0.0
 10
399.2997334054792
 20
283.5968098611863
 30
0.0
 10
399.2806441460067
 20
283.5824599486826
 30
0.0
 10
399.2418033404686
 20
283.5547419739649
 30
0.0
 10
399.2221009553899
 20
283.5414047019637
 30
0.0
 10
399.1221973116108
 20
283.4772872316668
 30
0.0
 10
399.0378615503084
 20
283.4341376657852
 30
0.0
 10
398.926804569021
 20
283.3905195988959
 30
0.0
 10
398.904308741828
 20
283.3823167229041
 30
0.0
 10
398.8587344288211
 20
283.3669759531499
 30
0.0
 10
398.8355986780296
 20
283.3598222507671
 30
0.0
 10
398.7656951709804
 20
283.340119958205
 30
0.0
 10
398.718773310104
 20
283.3294081224085
 30
0.0
 10
398.5770738689229
 20
283.3043398384872
 30
0.0
 10
398.4813714476132
 20
283.2969803696547
 30
0.0
 10
398.360143393068
 20
283.2998699031519
 30
0.0
 10
398.3357619340057
 20
283.3010649299835
 30
0.0
 10
398.2873983467122
 20
283.3046557112722
 30
0.0
 10
398.2633584366951
 20
283.3070500834954
 30
0.0
 10
398.1916556809112
 20
283.3159943439442
 30
0.0
 10
398.0971619400289
 20
283.3326077371495
 30
0.0
 10
398.0048462626107
 20
283.3584349096294
 30
0.0
 10
397.9364344434043
 20
283.3813036426434
 30
0.0
 10
397.9137374184317
 20
283.3895228202184
 30
0.0
 10
397.8687564822351
 20
283.4070977393839
 30
0.0
 10
397.8465992699258
 20
283.4164020672581
 30
0.0
 10
397.737433715248
 20
283.4654417971594
 30
0.0
 10
397.6552393387761
 20
283.5126564508162
 30
0.0
 10
397.5586926408051
 20
283.5813893298993
 30
0.0
 10
397.5396960303187
 20
283.5956262419725
 30
0.0
 10
397.5023342648686
 20
283.6250926181799
 30
0.0
 10
397.4839675358664
 20
283.6403287077713
 30
0.0
 10
397.4303884187418
 20
283.6870375702578
 30
0.0
 10
397.3964905149147
 20
283.7196624787848
 30
0.0
 10
397.3000574751051
 20
283.8218555180164
 30
0.0
 10
397.2427327684567
 20
283.8957007562694
 30
0.0
 10
397.1673308000605
 20
284.0152640468399
 30
0.0
 10
397.1443188154558
 20
284.0560557723105
 30
0.0
 10
397.1025067688847
 20
284.1392341104194
 30
0.0
 10
397.0648612257766
 20
284.2240813205002
 30
0.0
 10
397.0354546578985
 20
284.3122516978652
 30
0.0
 10
397.016543834789
 20
284.3796546190965
 30
0.0
 10
397.0107651756283
 20
284.4023351410395
 30
0.0
 10
397.0002786806436
 20
284.4481313557465
 30
0.0
 10
396.9955928693958
 20
284.4711576018424
 30
0.0
 10
396.9750193338181
 20
284.5864806796662
 30
0.0
 10
396.9675141464549
 20
284.6798075085894
 30
0.0
 10
396.9691615337858
 20
284.774186265565
 30
0.0
  0
SPLINE
  5
1D3
330
1F
100
AcDbEntity
  8
1
100
AcDbSpline
210
0.0
220
0.0
230
1.0
 70
     8
 71
     3
 72
    10
 73
     6
 74
     0
 42
0.000000001
 43
0.0000000001
 40
0.0
 40
0.0
 40
0.0
 40
0.0
 40
0.5
 40
0.5
 40
1.0
 40
1.0
 40
1.0
 40
1.0
 10
392.2816299494101
 20
292.5403123832502
 30
0.0
 10
392.1930164266813
 20
292.5689482501763
 30
0.0
 10
392.1064253481781
 20
292.6022319411426
 30
0.0
 10
391.9369185330041
 20
292.6778662722353
 30
0.0
 10
391.8540085346891
 20
292.7202167373583
 30
0.0
 10
391.7727972764451
 20
292.7672037429027
 30
0.0
  0
SPLINE
  5
1D4
330
1F
100
AcDbEntity
  8
1
100
AcDbSpline
210
0.0
220
0.0
230
1.0
 70
    12
 71
     2
 72
     6
 73
     3
 74
     0
 42
0.000000001
 43
0.0000000001
 40
0.0
 40
0.0
 40
0.0
 40
1.0
 40
1.0
 40
1.0
 10
390.7629315156412
 20
305.8344940966182
 30
0.0
 41
0.4999953499656535
 10
390.8751147870581
 20
305.8343122162156
 30
0.0
 41
0.5000046500343466
 10
390.9872972008818
 20
305.834129886714
 30
0.0
 41
0.4999953499656535
  0
SPLINE
  5
1D5
330
1F
100
AcDbEntity
  8
1
100
AcDbSpline
210
0.0
220
0.0
230
1.0
 70
     8
 71
     3
 72
    12
 73
     8
 74
     0
 42
0.000000001
 43
0.0000000001
 40
0.0
 40
0.0
 40
0.0
 40
0.0
 40
0.2499999999999999
 40
0.2499999999999999
 40
0.4999999999999999
 40
0.4999999999999999
 40
1.0
 40
1.0
 40
1.0
 40
1.0
 10
389.0419456449389
 20
299.6592212676842
 30
0.0
 10
389.0734984253459
 20
300.1710865036933
 30
0.0
 10
389.1022724076144
 20
300.6831072542726
 30
0.0
 10
389.1555215169735
 20
301.7073893395186
 30
0.0
 10
389.1799917333765
 20
302.2196503139414
 30
0.0
 10
389.2482963715514
 20
303.7566423677615
 30
0.0
 10
389.2870983934446
 20
304.7816080770509
 30
0.0
 10
389.3215053546101
 20
305.8067213253475
 30
0.0
  0
SPLINE
  5
1D6
330
1F
100
AcDbEntity
  8
1
100
AcDbSpline
210
0.0
220
0.0
230
1.0
 70
    12
 71
     2
 72
     6
 73
     3
 74
     0
 42
0.000000001
 43
0.0000000001
 40
0.0
 40
0.0
 40
0.0
 40
1.0
 40
1.0
 40
1.0
 10
389.3215053546099
 20
305.8067213253476
 30
0.0
 41
0.5000002759337536
 10
390.0398456916026
 20
305.8053539023021
 30
0.0
 41
0.4999997240662465
 10
390.7581329755403
 20
305.8039680723501
 30
0.0
 41
0.5000002759337536
  0
SPLINE
  5
1D7
330
1F
100
AcDbEntity
  8
1
100
AcDbSpline
210
0.0
220
0.0
230
1.0
 70
    28
 71
     4
 72
    13
 73
     8
 74
     0
 42
0.000000001
 43
0.0000000001
 40
0.0
 40
0.0
 40
0.0
 40
0.0
 40
0.0
 40
0.2982456183241293
 40
0.2982456183241293
 40
0.2982456183241293
 40
1.0
 40
1.0
 40
1.0
 40
1.0
 40
1.0
 10
297.9048419452957
 20
282.9575352196902
 30
0.0
 41
0.9972039423544257
 10
297.9048419452956
 20
282.1363386749974
 30
0.0
 41
0.997764037647744
 10
297.9048419452957
 20
281.2624792323234
 30
0.0
 41
0.999333386928235
 10
297.9048419452957
 20
280.3764614673889
 30
0.0
 41
1.001498006703475
 10
297.9048419452957
 20
277.52646144997
 30
0.0
 41
1.001498006703475
 10
297.9048419452957
 20
275.2972210214904
 30
0.0
 41
0.9895139530756713
 10
297.9048419452957
 20
273.5982582196945
 30
0.0
 41
1.001498006703475
 10
297.9048419452957
 20
272.5982582196945
 30
0.0
 41
1.001498006703475
  0
SPLINE
  5
1D8
330
1F
100
AcDbEntity
  8
1
100
AcDbSpline
210
0.0
220
0.0
230
1.0
 70
     8
 71
     3
 72
    44
 73
    40
 74
     0
 42
0.000000001
 43
0.0000000001
 40
0.0
 40
0.0
 40
0.0
 40
0.0
 40
0.1250000000000086
 40
0.1250000000000086
 40
0.2500000000000173
 40
0.2500000000000173
 40
0.3750000000000259
 40
0.3750000000000259
 40
0.4062500000000279
 40
0.4062500000000279
 40
0.4375000000000301
 40
0.4375000000000301
 40
0.5000000000000343
 40
0.5000000000000343
 40
0.5625000000000387
 40
0.5625000000000387
 40
0.5937500000000411
 40
0.5937500000000411
 40
0.6250000000000435
 40
0.6250000000000435
 40
0.6875000000000481
 40
0.6875000000000481
 40
0.7500000000000528
 40
0.7500000000000528
 40
0.7812500000000534
 40
0.7812500000000534
 40
0.7968750000000521
 40
0.7968750000000521
 40
0.8125000000000506
 40
0.8125000000000506
 40
0.875000000000036
 40
0.875000000000036
 40
0.9062500000000271
 40
0.9062500000000271
 40
0.9218750000000223
 40
0.9218750000000223
 40
0.9375000000000175
 40
0.9375000000000175
 40
1.0
 40
1.0
 40
1.0
 40
1.0
 10
383.733643413132
 20
295.5762204347099
 30
0.0
 10
384.0161233645164
 20
295.6561224087731
 30
0.0
 10
384.2965152309202
 20
295.7422928142536
 30
0.0
 10
384.852287938105
 20
295.9296767248682
 30
0.0
 10
385.1276748137257
 20
296.0308721134127
 30
0.0
 10
385.6722801988042
 20
296.2517803266251
 30
0.0
 10
385.941511836402
 20
296.3714537406153
 30
0.0
 10
386.2731009763185
 20
296.5359066308845
 30
0.0
 10
386.3391327857985
 20
296.5695303953014
 30
0.0
 10
386.4702215413612
 20
296.6381500374617
 30
0.0
 10
386.5353284082345
 20
296.6731703534435
 30
0.0
 10
386.7292534808548
 20
296.7804975660958
 30
0.0
 10
386.8566808818109
 20
296.8550630572269
 30
0.0
 10
387.1072849063234
 20
297.0110970803424
 30
0.0
 10
387.2304641925473
 20
297.0925612882936
 30
0.0
 10
387.4115071519142
 20
297.2208083811708
 30
0.0
 10
387.4712378964537
 20
297.2645729231895
 30
0.0
 10
387.5893153130007
 20
297.3542944536522
 30
0.0
 10
387.6474197076186
 20
297.4000676032574
 30
0.0
 10
387.8187270082335
 20
297.5403223842074
 30
0.0
 10
387.9289397857812
 20
297.6377239626779
 30
0.0
 10
388.1399882442223
 20
297.8416841263789
 30
0.0
 10
388.2408355020114
 20
297.9482314064353
 30
0.0
 10
388.3835623800292
 20
298.1163957987044
 30
0.0
 10
388.4297080785783
 20
298.1738469617478
 30
0.0
 10
388.4965172686115
 20
298.2623765140519
 30
0.0
 10
388.5183848202285
 20
298.2922791036823
 30
0.0
 10
388.5612627299185
 20
298.3529213572922
 30
0.0
 10
388.582310073526
 20
298.3837184808408
 30
0.0
 10
388.6846892072903
 20
298.5390724550945
 30
0.0
 10
388.7575491670402
 20
298.6677017295696
 30
0.0
 10
388.8508076865699
 20
298.8683500978138
 30
0.0
 10
388.8792121122099
 20
298.9365216942839
 30
0.0
 10
388.9173694549509
 20
299.040917352802
 30
0.0
 10
388.9293460356906
 20
299.0760727559451
 30
0.0
 10
388.9517293020531
 20
299.147138029934
 30
0.0
 10
388.9621432477944
 20
299.1830901775056
 30
0.0
 10
389.0096725179684
 20
299.3632769269348
 30
0.0
 10
389.0335985354848
 20
299.5098885865895
 30
0.0
 10
389.0419456449389
 20
299.6592212676842
 30
0.0
  0
SPLINE
  5
1D9
330
1F
100
AcDbEntity
  8
1
100
AcDbSpline
210
0.0
220
0.0
230
1.0
 70
    12
 71
     3
 72
     8
 73
     4
 74
     0
 42
0.000000001
 43
0.0000000001
 40
0.0
 40
0.0
 40
0.0
 40
0.0
 40
1.0
 40
1.0
 40
1.0
 40
1.0
 10
369.8843256875062
 20
299.2383670012744
 30
0.0
 41
1.001370056410929
 10
376.3084413282348
 20
299.0548465430942
 30
0.0
 41
1.001376845309525
 10
382.712195529915
 20
298.8725524141644
 30
0.0
 41
1.001753677769918
 10
389.0419456449389
 20
299.6592212676842
 30
0.0
 41
1.001637397726147
  0
SPLINE
  5
1DA
330
1F
100
AcDbEntity
  8
1
100
AcDbSpline
210
0.0
220
0.0
230
1.0
 70
     8
 71
     3
 72
     9
 73
     5
 74
     0
 42
0.000000001
 43
0.0000000001
 40
0.0
 40
0.0
 40
0.0
 40
0.0
 40
0.5
 40
1.0
 40
1.0
 40
1.0
 40
1.0
 10
287.6443447322607
 20
284.6349721272082
 30
0.0
 10
288.0332100402877
 20
284.5959127686313
 30
0.0
 10
288.8126806270758
 20
284.5027098392018
 30
0.0
 10
289.5955596822543
 20
284.3799581020158
 30
0.0
 10
289.9878471895542
 20
284.3112308994568
 30
0.0
  0
SPLINE
  5
1DB
330
1F
100
AcDbEntity
  8
1
100
AcDbSpline
210
0.0
220
0.0
230
1.0
 70
     8
 71
     3
 72
    33
 73
    29
 74
     0
 42
0.000000001
 43
0.0000000001
 40
0.0
 40
0.0
 40
0.0
 40
0.0
 40
0.1250000000000013
 40
0.1250000000000013
 40
0.2500000000000027
 40
0.2500000000000027
 40
0.3125000000000029
 40
0.3125000000000029
 40
0.3437500000000027
 40
0.3437500000000027
 40
0.3593750000000033
 40
0.3593750000000033
 40
0.3750000000000037
 40
0.3750000000000037
 40
0.5000000000000028
 40
0.5000000000000028
 40
0.6250000000000018
 40
0.6250000000000018
 40
0.6875000000000014
 40
0.6875000000000014
 40
0.7031250000000011
 40
0.7031250000000011
 40
0.718750000000001
 40
0.7500000000000013
 40
0.7500000000000013
 40
0.8750000000000007
 40
0.8750000000000007
 40
1.0
 40
1.0
 40
1.0
 40
1.0
 10
277.3838730564345
 20
277.0734697991619
 30
0.0
 10
277.3345508395427
 20
276.8219977934468
 30
0.0
 10
277.3036736441003
 20
276.5745990047781
 30
0.0
 10
277.2769572084897
 20
276.0879029889466
 30
0.0
 10
277.2811254091851
 20
275.8486057916354
 30
0.0
 10
277.3134170768289
 20
275.4957378263607
 30
0.0
 10
277.3285319489943
 20
275.3791285071765
 30
0.0
 10
277.3577996349416
 20
275.2057380227187
 30
0.0
 10
277.3686554594601
 20
275.1481951331959
 30
0.0
 10
277.3866041688467
 20
275.0622623505674
 30
0.0
 10
277.3928641945111
 20
275.0336866794605
 30
0.0
 10
277.4058954324507
 20
274.9768548016904
 30
0.0
 10
277.4126715732622
 20
274.9485743506276
 30
0.0
 10
277.475980413715
 20
274.6952553983103
 30
0.0
 10
277.5487188544228
 20
274.4786322182788
 30
0.0
 10
277.7255669345255
 20
274.0611555325956
 30
0.0
 10
277.8296834126313
 20
273.8603062786526
 30
0.0
 10
278.0091955695935
 20
273.5701776816101
 30
0.0
 10
278.0729318894254
 20
273.475328494789
 30
0.0
 10
278.1575250068691
 20
273.3590399034245
 30
0.0
 10
278.1747002408258
 20
273.3358826399476
 30
0.0
 10
278.2094595583605
 20
273.2899062938303
 30
0.0
 10
278.2622321345055
 20
273.2214196307788
 30
0.0
 10
278.316891234121
 20
273.1543454601729
 30
0.0
 10
278.5032278252164
 20
272.9338173227343
 30
0.0
 10
278.6655035798996
 20
272.76713777438
 30
0.0
 10
279.015791889719
 20
272.4514799634733
 30
0.0
 10
279.2038062416982
 20
272.3025061201915
 30
0.0
 10
279.4048419452957
 20
272.1617690740821
 30
0.0
  0
SPLINE
  5
1DC
330
1F
100
AcDbEntity
  8
1
100
AcDbSpline
210
0.0
220
0.0
230
1.0
 70
     8
 71
     3
 72
    60
 73
    56
 74
     0
 42
0.000000001
 43
0.0000000001
 40
0.0
 40
0.0
 40
0.0
 40
0.0
 40
0.0625000000000004
 40
0.0625000000000004
 40
0.1250000000000007
 40
0.1250000000000007
 40
0.1875000000000011
 40
0.1875000000000011
 40
0.2187500000000014
 40
0.2187500000000014
 40
0.2500000000000017
 40
0.2500000000000017
 40
0.3125000000000026
 40
0.3125000000000026
 40
0.3750000000000034
 40
0.3750000000000034
 40
0.4062500000000038
 40
0.4062500000000038
 40
0.4218750000000039
 40
0.4218750000000039
 40
0.4375000000000039
 40
0.4375000000000039
 40
0.4687500000000043
 40
0.4687500000000043
 40
0.5000000000000044
 40
0.5000000000000044
 40
0.5312500000000046
 40
0.5312500000000046
 40
0.5625000000000047
 40
0.5625000000000047
 40
0.5781250000000046
 40
0.5781250000000046
 40
0.5937500000000045
 40
0.6093750000000044
 40
0.6093750000000044
 40
0.6250000000000043
 40
0.6250000000000043
 40
0.6562500000000039
 40
0.6562500000000039
 40
0.6875000000000037
 40
0.6875000000000037
 40
0.7500000000000026
 40
0.7500000000000026
 40
0.8125000000000015
 40
0.8125000000000015
 40
0.8437500000000014
 40
0.8437500000000014
 40
0.875000000000001
 40
0.875000000000001
 40
0.9062500000000007
 40
0.9375000000000005
 40
0.9375000000000005
 40
0.9687500000000001
 40
0.9687500000000001
 40
1.0
 40
1.0
 40
1.0
 40
1.0
 10
297.9048419452957
 20
282.955096298556
 30
0.0
 10
299.6839542610783
 20
282.6057469870287
 30
0.0
 10
301.4614592596074
 20
282.2551732898683
 30
0.0
 10
305.0132010479832
 20
281.5525046039044
 30
0.0
 10
306.7874365964025
 20
281.2004010345981
 30
0.0
 10
310.3325161100284
 20
280.495551847257
 30
0.0
 10
312.1033571032055
 20
280.1427914037276
 30
0.0
 10
314.7569763192298
 20
279.6140598231269
 30
0.0
 10
315.6411644050547
 20
279.4378704152231
 30
0.0
 10
317.4074588523104
 20
279.0860960661364
 30
0.0
 10
318.289695822206
 20
278.9104844508279
 30
0.0
 10
320.9336043071814
 20
278.384929780317
 30
0.0
 10
322.692461680942
 20
278.0362124903996
 30
0.0
 10
326.2025021744619
 20
277.3456226859027
 30
0.0
 10
327.9536769476175
 20
277.0037377221094
 30
0.0
 10
330.5748960129238
 20
276.5000970810351
 30
0.0
 10
331.4477163873912
 20
276.3337641082628
 30
0.0
 10
332.7556445740297
 20
276.0872415461155
 30
0.0
 10
333.1914039515329
 20
276.0055645382125
 30
0.0
 10
334.0625069150334
 20
275.8433262803534
 30
0.0
 10
334.4978411752549
 20
275.7627434668649
 30
0.0
 10
335.8033333004231
 20
275.5230514254361
 30
0.0
 10
336.6730278387513
 20
275.3661316056634
 30
0.0
 10
338.4124826515645
 20
275.0613621604635
 30
0.0
 10
339.2822434204497
 20
274.9135105400449
 30
0.0
 10
341.0229995103838
 20
274.6292436871664
 30
0.0
 10
341.8939947850113
 20
274.4928247643306
 30
0.0
 10
343.6382151120515
 20
274.2329207828242
 30
0.0
 10
344.5114391999356
 20
274.1094303752868
 30
0.0
 10
345.8235742018575
 20
273.9344688296632
 30
0.0
 10
346.2613447281275
 20
273.8778731466589
 30
0.0
 10
347.1376771444209
 20
273.7680239003972
 30
0.0
 10
348.0147835335275
 20
273.6614848955594
 30
0.0
 10
348.8933330108711
 20
273.5611657166422
 30
0.0
 10
349.7725581563354
 20
273.4637813625504
 30
0.0
 10
350.2124840395771
 20
273.4165597332441
 30
0.0
 10
351.5327011419817
 20
273.2791187229012
 30
0.0
 10
352.4135998060941
 20
273.1930958869523
 30
0.0
 10
354.1767372761478
 20
273.0312146465798
 30
0.0
 10
355.0589764715697
 20
272.9553588678415
 30
0.0
 10
357.7075323693503
 20
272.7418311384683
 30
0.0
 10
359.475671862376
 20
272.6181467853893
 30
0.0
 10
363.0163657440776
 20
272.4034474441497
 30
0.0
 10
364.7889218307172
 20
272.3124644633144
 30
0.0
 10
367.4510902593778
 20
272.1980459032714
 30
0.0
 10
368.3390113870732
 20
272.1635917945923
 30
0.0
 10
370.1154606032424
 20
272.1017127355746
 30
0.0
 10
371.0040682780451
 20
272.0742866155335
 30
0.0
 10
372.78192142611
 20
272.0259899830247
 30
0.0
 10
374.5604118067289
 20
271.9842479775426
 30
0.0
 10
376.3398426284185
 20
271.9548657915817
 30
0.0
 10
378.1195366693717
 20
271.9314111359949
 30
0.0
 10
379.0095151885659
 20
271.9226466339143
 30
0.0
 10
380.7894891939353
 20
271.9109383062304
 30
0.0
 10
381.6794844089222
 20
271.9079935137004
 30
0.0
 10
382.5693481919407
 20
271.9079935137005
 30
0.0
  0
SPLINE
  5
1DD
330
1F
100
AcDbEntity
  8
1
100
AcDbSpline
210
0.0
220
0.0
230
1.0
 70
     8
 71
     3
 72
    54
 73
    50
 74
     0
 42
0.000000001
 43
0.0000000001
 40
0.0
 40
0.0
 40
0.0
 40
0.0
 40
0.0008742281241577
 40
0.0008742281241577
 40
0.0365572914054376
 40
0.0365572914054376
 40
0.0722403546867175
 40
0.0722403546867175
 40
0.1436064812492776
 40
0.1436064812492776
 40
0.2149726078118376
 40
0.2149726078118376
 40
0.2863387343743978
 40
0.2863387343743978
 40
0.3577048609369579
 40
0.3577048609369579
 40
0.3933879242182381
 40
0.3933879242182381
 40
0.4112294558588781
 40
0.4112294558588781
 40
0.4290709874995182
 40
0.4290709874995182
 40
0.4647540507807982
 40
0.4647540507807982
 40
0.5004371140620779
 40
0.5004371140620779
 40
0.5361201773433578
 40
0.5361201773433578
 40
0.5718032406246376
 40
0.5718032406246376
 40
0.6431693671871982
 40
0.6431693671871982
 40
0.6788524304684786
 40
0.6788524304684786
 40
0.7145354937497591
 40
0.7145354937497591
 40
0.7859016203123201
 40
0.7859016203123201
 40
0.8572677468748809
 40
0.8572677468748809
 40
0.8929508101561612
 40
0.8929508101561612
 40
0.9286338734374416
 40
0.9286338734374416
 40
0.9464754050780813
 40
0.9464754050780813
 40
0.9643169367187208
 40
0.9643169367187208
 40
1.0
 40
1.0
 40
1.0
 40
1.0
 10
307.3531969834302
 20
305.9079934427284
 30
0.0
 10
307.3725529683439
 20
305.9079938356898
 30
0.0
 10
307.3919086377959
 20
305.9079926382112
 30
0.0
 10
308.2012847100077
 20
305.9078759152996
 30
0.0
 10
308.9907827118223
 20
305.9051049429626
 30
0.0
 10
310.5688024387293
 20
305.8937868192061
 30
0.0
 10
311.3573847453165
 20
305.8852380699522
 30
0.0
 10
313.7213968011347
 20
305.8502694991885
 30
0.0
 10
315.2945639762529
 20
305.8145012602445
 30
0.0
 10
318.4363068799489
 20
305.7152196368301
 30
0.0
 10
320.0048846593589
 20
305.6516830594969
 30
0.0
 10
323.1391120385
 20
305.4954023902724
 30
0.0
 10
324.7047676106243
 20
305.402642936711
 30
0.0
 10
327.8352680377334
 20
305.1884789859949
 30
0.0
 10
329.4001214228832
 20
305.0670725233348
 30
0.0
 10
331.7485548725936
 20
304.865628757503
 30
0.0
 10
332.5315592174907
 20
304.7952766331555
 30
0.0
 10
333.7065736886852
 20
304.6853637472692
 30
0.0
 10
334.0983304061484
 20
304.6479972982693
 30
0.0
 10
334.8820457287599
 20
304.5718820875339
 30
0.0
 10
335.2739998574258
 20
304.5331272509708
 30
0.0
 10
336.4500847290486
 20
304.4146992628502
 30
0.0
 10
337.2344341455832
 20
304.3328612642904
 30
0.0
 10
338.8034525231292
 20
304.1630341913923
 30
0.0
 10
339.5881993922992
 20
304.0750334051529
 30
0.0
 10
341.1572940995626
 20
303.8926361285053
 30
0.0
 10
341.9416787843822
 20
303.7982350378448
 30
0.0
 10
343.5100759133219
 20
303.6028608911679
 30
0.0
 10
344.2940892430083
 20
303.5018878913289
 30
0.0
 10
346.6456341830698
 20
303.1890820835702
 30
0.0
 10
348.2125859307385
 20
302.9671147684618
 30
0.0
 10
350.5635716516517
 20
302.6174085408013
 30
0.0
 10
351.347323801335
 20
302.4980563235882
 30
0.0
 10
352.9151918697793
 20
302.2542686003378
 30
0.0
 10
353.6993364711051
 20
302.1298280146751
 30
0.0
 10
356.0518289950817
 20
301.7495638094699
 30
0.0
 10
357.6204621813546
 20
301.4868181145859
 30
0.0
 10
360.758780960354
 20
300.9447249963795
 30
0.0
 10
362.3284642051124
 20
300.6653898401191
 30
0.0
 10
364.6836623818552
 20
300.2339975454899
 30
0.0
 10
365.4688362804313
 20
300.0881200567722
 30
0.0
 10
367.0393253094317
 20
299.7919971246197
 30
0.0
 10
367.8246255155622
 20
299.6417552939091
 30
0.0
 10
369.0022712996547
 20
299.412890307699
 30
0.0
 10
369.3947831055825
 20
299.3360179928192
 30
0.0
 10
370.1797052066645
 20
299.1810135889147
 30
0.0
 10
370.5721102737396
 20
299.1028658380042
 30
0.0
 10
371.749025711773
 20
298.8660562916307
 30
0.0
 10
372.5332300583647
 20
298.7050143274051
 30
0.0
 10
373.3167445239109
 20
298.5397905408703
 30
0.0
  0
SPLINE
  5
1DE
330
1F
100
AcDbEntity
  8
1
100
AcDbSpline
210
0.0
220
0.0
230
1.0
 70
     8
 71
     3
 72
    40
 73
    36
 74
     0
 42
0.000000001
 43
0.0000000001
 40
0.0
 40
0.0
 40
0.0
 40
0.0
 40
0.0623733036217246
 40
0.0623733036217246
 40
0.1247466072434493
 40
0.1247466072434493
 40
0.1871199108651739
 40
0.1871199108651739
 40
0.2494932144868986
 40
0.2494932144868986
 40
0.2650865403923295
 40
0.2650865403923295
 40
0.2806798662977605
 40
0.2806798662977605
 40
0.3118665181086224
 40
0.3118665181086224
 40
0.3742398217303461
 40
0.3742398217303461
 40
0.4366131253520699
 40
0.4366131253520699
 40
0.4989864289737936
 40
0.4989864289737936
 40
0.6237330362172412
 40
0.6237330362172412
 40
0.7484796434606887
 40
0.7484796434606887
 40
0.8108529470824128
 40
0.8108529470824128
 40
0.8732262507041371
 40
0.8732262507041371
 40
0.9355995543258613
 40
0.9355995543258613
 40
0.9979728579475855
 40
0.9979728579475855
 40
1.0
 40
1.0
 40
1.0
 40
1.0
 10
389.3215053546101
 20
305.8067213253476
 30
0.0
 10
388.4068533783308
 20
305.8444210639077
 30
0.0
 10
387.4873817447103
 20
305.8699345941728
 30
0.0
 10
385.6382957848987
 20
305.9019561996137
 30
0.0
 10
384.7086849113591
 20
305.9084819540301
 30
0.0
 10
382.8395880699859
 20
305.9074486983748
 30
0.0
 10
381.9001056329461
 20
305.8999004990767
 30
0.0
 10
380.012192902101
 20
305.8747200802923
 30
0.0
 10
379.0637662680214
 20
305.8570932260372
 30
0.0
 10
377.8735650422802
 20
305.8305345257352
 30
0.0
 10
377.6352925943552
 20
305.8249935440175
 30
0.0
 10
377.1583108363352
 20
305.8134852869862
 30
0.0
 10
376.9196001792088
 20
305.8075179186385
 30
0.0
 10
376.2031901551361
 20
305.7890262445949
 30
0.0
 10
375.7250962624607
 20
305.7759121707084
 30
0.0
 10
374.2895881234899
 20
305.7344534914183
 30
0.0
 10
373.3309412972042
 20
305.7040313281413
 30
0.0
 10
371.4117901071154
 20
305.6379597561309
 30
0.0
 10
370.4512884142911
 20
305.6023083317117
 30
0.0
 10
368.5300243966817
 20
305.524891361852
 30
0.0
 10
367.5692499316128
 20
305.483099469138
 30
0.0
 10
364.6868147786417
 20
305.3482576585918
 30
0.0
 10
362.7650171304487
 20
305.2458084853028
 30
0.0
 10
358.9229720388185
 20
305.0127340699655
 30
0.0
 10
357.0032311453648
 20
304.8821415897756
 30
0.0
 10
354.126775360722
 20
304.6612593336246
 30
0.0
 10
353.1684817060605
 20
304.5834503477247
 30
0.0
 10
351.2531735582566
 20
304.4185375843119
 30
0.0
 10
350.2961577338908
 20
304.33143844997
 30
0.0
 10
348.3836906539289
 20
304.1467086676054
 30
0.0
 10
347.428237932028
 20
304.049084791141
 30
0.0
 10
345.5192834118625
 20
303.84158762852
 30
0.0
 10
344.5657101267781
 20
303.7315569325692
 30
0.0
 10
343.5825658204264
 20
303.6114647275139
 30
0.0
 10
343.5516205935311
 20
303.6076779348764
 30
0.0
 10
343.5206767044187
 20
303.603884515747
 30
0.0
  0
SPLINE
  5
1DF
330
1F
100
AcDbEntity
  8
1
100
AcDbSpline
210
0.0
220
0.0
230
1.0
 70
     8
 71
     3
 72
    32
 73
    28
 74
     0
 42
0.000000001
 43
0.0000000001
 40
0.0
 40
0.0
 40
0.0
 40
0.0
 40
0.0624999999999997
 40
0.0624999999999997
 40
0.1249999999999994
 40
0.1249999999999994
 40
0.2499999999999989
 40
0.2499999999999989
 40
0.3749999999999984
 40
0.3749999999999984
 40
0.4374999999999982
 40
0.4374999999999982
 40
0.4687499999999979
 40
0.4687499999999979
 40
0.4999999999999978
 40
0.4999999999999978
 40
0.6249999999999982
 40
0.6249999999999982
 40
0.7499999999999986
 40
0.7499999999999986
 40
0.8749999999999989
 40
0.8749999999999989
 40
0.9062499999999992
 40
0.9062499999999992
 40
0.9374999999999998
 40
0.9374999999999998
 40
1.0
 40
1.0
 40
1.0
 40
1.0
 10
287.3872371745209
 20
272.6130613627075
 30
0.0
 10
287.1753519936883
 20
272.6058644389328
 30
0.0
 10
286.9667392608562
 20
272.5969225075239
 30
0.0
 10
286.555531392512
 20
272.5761459153682
 30
0.0
 10
286.3529374679527
 20
272.5643107944642
 30
0.0
 10
285.7535876850121
 20
272.5253172246743
 30
0.0
 10
285.3652281997875
 20
272.4946715960341
 30
0.0
 10
284.6088330048107
 20
272.4284735922044
 30
0.0
 10
284.2408110641813
 20
272.3929089743063
 30
0.0
 10
283.703223832568
 20
272.3392407363867
 30
0.0
 10
283.5264421887904
 20
272.3212997230989
 30
0.0
 10
283.2648398195173
 20
272.2947639119521
 30
0.0
 10
283.1781555680365
 20
272.2859736384679
 30
0.0
 10
283.00654309138
 20
272.2686559244643
 30
0.0
 10
282.9215781421
 20
272.2601247370259
 30
0.0
 10
282.5008869670205
 20
272.2182993630542
 30
0.0
 10
282.1775295410041
 20
272.187475985388
 30
0.0
 10
281.5558900526858
 20
272.1362924149448
 30
0.0
 10
281.2576127949347
 20
272.1159103920361
 30
0.0
 10
280.6855426387277
 20
272.0916335212471
 30
0.0
 10
280.4117483184341
 20
272.0877016602808
 30
0.0
 10
280.0848455933346
 20
272.0979219281776
 30
0.0
 10
280.0202337897059
 20
272.100728698181
 30
0.0
 10
279.8925560338749
 20
272.1080171369164
 30
0.0
 10
279.8294511210636
 20
272.1125022760579
 30
0.0
 10
279.6427575591392
 20
272.1286907081601
 30
0.0
 10
279.521959123241
 20
272.1430997994058
 30
0.0
 10
279.4048419452957
 20
272.1617690740821
 30
0.0
  0
LINE
  5
1F8
330
1F
100
AcDbEntity
  8
4
100
AcDbLine
 10
266.987847
 20
288.907994
 30
0.0
 11
408.333637
 21
288.907994
 31
0.0
  0
LINE
  5
1F9
330
1F
100
AcDbEntity
  8
SK4
100
AcDbLine
 10
210.904842
 20
288.907994
 30
0.0
 11
277.404842
 21
288.907994
 31
0.0
  0
MTEXT
  5
1FA
330
1F
100
AcDbEntity
  8
SK6
100
AcDbMText
 10
282.146554
 20
243.070881
 30
0.0
 40
3.5
 41
0.0
 71
     7
 72
     5
  1
\W0.7147;803D-35-105-S32
  7
cesky
 73
     2
 44
0.8433729999999998
  0
MTEXT
  5
310
330
1F
100
AcDbEntity
  8
2
100
AcDbMText
 10
420.0199269999999
 20
289.554845
 30
0.0
 40
3.5
 41
0.0
 71
     7
 72
     5
  1
\W0.7045;35
  7
cesky
 11
0.0000000000000001
 21
1.0
 31
0.0
 73
     2
 44
0.8433729999999998
  0
MTEXT
  5
311
330
1F
100
AcDbEntity
  8
2
100
AcDbMText
 10
420.0199269999999
 20
282.817345
 30
0.0
 40
3.5
 41
0.0
 71
     7
 72
     5
  1
\W3.0115;\H2.63;%%c\H3.50;
  7
cesky
 11
0.0000000000000001
 21
1.0
 31
0.0
 73
     2
 44
0.8433729999999998
  0
LINE
  5
312
330
1F
100
AcDbEntity
  8
2
100
AcDbLine
 10
406.4048419999999
 20
306.407994
 30
0.0
 11
421.207343
 21
306.407994
 31
0.0
  0
LINE
  5
313
330
1F
100
AcDbEntity
  8
2
100
AcDbLine
 10
420.2073429999999
 20
306.407994
 30
0.0
 11
420.2073429999999
 21
282.659845
 31
0.0
  0
SOLID
  5
314
330
1F
100
AcDbEntity
  8
2
100
AcDbTrace
 10
420.2073429999999
 20
306.407994
 30
0.0
 11
420.8244879999999
 21
302.907996
 31
0.0
 12
419.590199
 22
302.907991
 32
0.0
 13
419.590199
 23
302.907991
 33
0.0
  0
MTEXT
  5
315
330
1F
100
AcDbEntity
  8
2
100
AcDbMText
 10
306.327842
 20
340.562135
 30
0.0
 40
3.5
 41
0.0
 71
     7
 72
     5
  1
\W0.7809;190
  7
cesky
 73
     2
 44
0.8433729999999998
  0
LINE
  5
316
330
1F
100
AcDbEntity
  8
2
100
AcDbLine
 10
404.404842
 20
308.407994
 30
0.0
 11
404.404842
 21
341.687968
 31
0.0
  0
LINE
  5
317
330
1F
100
AcDbEntity
  8
2
100
AcDbLine
 10
214.404842
 20
302.907994
 30
0.0
 11
214.404842
 21
341.687968
 31
0.0
  0
LINE
  5
318
330
1F
100
AcDbEntity
  8
2
100
AcDbLine
 10
404.404842
 20
340.687968
 30
0.0
 11
214.404842
 21
340.687968
 31
0.0
  0
SOLID
  5
319
330
1F
100
AcDbEntity
  8
2
100
AcDbTrace
 10
404.404842
 20
340.687968
 30
0.0
 11
400.9048439999999
 21
340.070823
 31
0.0
 12
400.90484
 22
341.305112
 32
0.0
 13
400.90484
 23
341.305112
 33
0.0
  0
SOLID
  5
31A
330
1F
100
AcDbEntity
  8
2
100
AcDbTrace
 10
214.404842
 20
340.687968
 30
0.0
 11
217.90484
 21
341.305112
 31
0.0
 12
217.904844
 22
340.070823
 32
0.0
 13
217.904844
 23
340.070823
 33
0.0
  0
MTEXT
  5
31B
330
1F
100
AcDbEntity
  8
2
100
AcDbMText
 10
242.590342
 20
327.385163
 30
0.0
 40
3.5
 41
0.0
 71
     7
 72
     5
  1
\W0.7045;60
  7
cesky
 73
     2
 44
0.8433729999999998
  0
LINE
  5
31C
330
1F
100
AcDbEntity
  8
2
100
AcDbLine
 10
274.404842
 20
288.907994
 30
0.0
 11
274.404842
 21
328.5109970000001
 31
0.0
  0
LINE
  5
31D
330
1F
100
AcDbEntity
  8
2
100
AcDbLine
 10
214.404842
 20
302.907994
 30
0.0
 11
214.404842
 21
328.5109970000001
 31
0.0
  0
LINE
  5
31E
330
1F
100
AcDbEntity
  8
2
100
AcDbLine
 10
274.404842
 20
327.510997
 30
0.0
 11
214.404842
 21
327.510997
 31
0.0
  0
SOLID
  5
31F
330
1F
100
AcDbEntity
  8
2
100
AcDbTrace
 10
274.404842
 20
327.510997
 30
0.0
 11
270.904844
 21
326.893852
 31
0.0
 12
270.90484
 22
328.128141
 32
0.0
 13
270.90484
 23
328.128141
 33
0.0
  0
SOLID
  5
320
330
1F
100
AcDbEntity
  8
2
100
AcDbTrace
 10
214.404842
 20
327.510997
 30
0.0
 11
217.90484
 21
328.128141
 31
0.0
 12
217.904844
 22
326.893852
 32
0.0
 13
217.904844
 23
326.893852
 33
0.0
  0
MTEXT
  5
321
330
1F
100
AcDbEntity
  8
2
100
AcDbMText
 10
342.558554
 20
316.722179
 30
0.0
 40
3.5
 41
0.0
 71
     7
 72
     5
  1
\W0.9110;112,5
  7
cesky
 73
     2
 44
0.8433729999999998
  0
LINE
  5
322
330
1F
100
AcDbEntity
  8
2
100
AcDbLine
 10
404.404842
 20
308.407994
 30
0.0
 11
404.404842
 21
317.848012
 31
0.0
  0
LINE
  5
323
330
1F
100
AcDbEntity
  8
2
100
AcDbLine
 10
291.916265
 20
306.077281
 30
0.0
 11
291.916265
 21
317.848012
 31
0.0
  0
LINE
  5
324
330
1F
100
AcDbEntity
  8
2
100
AcDbLine
 10
404.404842
 20
316.848012
 30
0.0
 11
291.916265
 21
316.848012
 31
0.0
  0
SOLID
  5
325
330
1F
100
AcDbEntity
  8
2
100
AcDbTrace
 10
404.404842
 20
316.848012
 30
0.0
 11
400.9048439999999
 21
316.2308680000001
 31
0.0
 12
400.90484
 22
317.465157
 32
0.0
 13
400.90484
 23
317.465157
 33
0.0
  0
SOLID
  5
326
330
1F
100
AcDbEntity
  8
2
100
AcDbTrace
 10
291.916265
 20
316.848012
 30
0.0
 11
295.416263
 21
317.465157
 31
0.0
 12
295.416268
 22
316.2308680000001
 32
0.0
 13
295.416268
 23
316.2308680000001
 33
0.0
  0
MTEXT
  5
327
330
1F
100
AcDbEntity
  8
2
100
AcDbMText
 10
336.327842
 20
327.385163
 30
0.0
 40
3.5
 41
0.0
 71
     7
 72
     5
  1
\W0.7809;130
  7
cesky
 73
     2
 44
0.8433729999999998
  0
LINE
  5
328
330
1F
100
AcDbEntity
  8
2
100
AcDbLine
 10
404.404842
 20
306.407994
 30
0.0
 11
404.404842
 21
328.5109970000001
 31
0.0
  0
LINE
  5
329
330
1F
100
AcDbEntity
  8
2
100
AcDbLine
 10
274.404842
 20
289.907567
 30
0.0
 11
274.404842
 21
328.5109970000001
 31
0.0
  0
LINE
  5
32A
330
1F
100
AcDbEntity
  8
2
100
AcDbLine
 10
404.404842
 20
327.510997
 30
0.0
 11
274.404842
 21
327.510997
 31
0.0
  0
SOLID
  5
32B
330
1F
100
AcDbEntity
  8
2
100
AcDbTrace
 10
404.404842
 20
327.510997
 30
0.0
 11
400.9048439999999
 21
326.893852
 31
0.0
 12
400.90484
 22
328.128141
 32
0.0
 13
400.90484
 23
328.128141
 33
0.0
  0
SOLID
  5
32C
330
1F
100
AcDbEntity
  8
2
100
AcDbTrace
 10
274.404842
 20
327.510997
 30
0.0
 11
277.90484
 21
328.128141
 31
0.0
 12
277.904844
 22
326.893852
 32
0.0
 13
277.904844
 23
326.893852
 33
0.0
  0
MTEXT
  5
32D
330
1F
100
AcDbEntity
  8
SK2
100
AcDbMText
 10
205.691127
 20
290.434244
 30
0.0
 40
3.5
 41
0.0
 71
     7
 72
     5
  1
\W0.7045;32
  7
cesky
 11
0.0000000000000001
 21
1.0
 31
0.0
 73
     2
 44
0.8433729999999998
  0
MTEXT
  5
32E
330
1F
100
AcDbEntity
  8
SK2
100
AcDbMText
 10
205.691127
 20
283.696744
 30
0.0
 40
3.5
 41
0.0
 71
     7
 72
     5
  1
\W3.0115;\H2.63;%%c\H3.50;
  7
cesky
 11
0.0000000000000001
 21
1.0
 31
0.0
 73
     2
 44
0.8433729999999998
  0
LINE
  5
32F
330
1F
100
AcDbEntity
  8
SK2
100
AcDbLine
 10
216.404842
 20
304.907994
 30
0.0
 11
204.878544
 21
304.907994
 31
0.0
  0
LINE
  5
330
330
1F
100
AcDbEntity
  8
SK2
100
AcDbLine
 10
216.404842
 20
272.907994
 30
0.0
 11
204.878544
 21
272.907994
 31
0.0
  0
LINE
  5
331
330
1F
100
AcDbEntity
  8
SK2
100
AcDbLine
 10
205.878544
 20
304.907994
 30
0.0
 11
205.878544
 21
272.907994
 31
0.0
  0
SOLID
  5
332
330
1F
100
AcDbEntity
  8
SK2
100
AcDbTrace
 10
205.878544
 20
304.907994
 30
0.0
 11
206.495689
 21
301.407996
 31
0.0
 12
205.2614
 22
301.407991
 32
0.0
 13
205.2614
 23
301.407991
 33
0.0
  0
SOLID
  5
333
330
1F
100
AcDbEntity
  8
SK2
100
AcDbTrace
 10
205.878544
 20
272.907994
 30
0.0
 11
205.2614
 21
276.407991
 31
0.0
 12
206.495689
 22
276.407996
 32
0.0
 13
206.495689
 23
276.407996
 33
0.0
  0
MTEXT
  5
334
330
1F
100
AcDbEntity
  8
SK2
100
AcDbMText
 10
193.332501
 20
290.434244
 30
0.0
 40
3.5
 41
0.0
 71
     7
 72
     5
  1
\W0.7045;42
  7
cesky
 11
0.0000000000000001
 21
1.0
 31
0.0
 73
     2
 44
0.8433729999999998
  0
MTEXT
  5
335
330
1F
100
AcDbEntity
  8
SK2
100
AcDbMText
 10
193.332501
 20
283.696744
 30
0.0
 40
3.5
 41
0.0
 71
     7
 72
     5
  1
\W3.0115;\H2.63;%%c\H3.50;
  7
cesky
 11
0.0000000000000001
 21
1.0
 31
0.0
 73
     2
 44
0.8433729999999998
  0
LINE
  5
336
330
1F
100
AcDbEntity
  8
SK2
100
AcDbLine
 10
274.904842
 20
309.907994
 30
0.0
 11
192.519918
 21
309.907994
 31
0.0
  0
LINE
  5
337
330
1F
100
AcDbEntity
  8
SK2
100
AcDbLine
 10
274.904842
 20
267.907994
 30
0.0
 11
192.519918
 21
267.907994
 31
0.0
  0
LINE
  5
338
330
1F
100
AcDbEntity
  8
SK2
100
AcDbLine
 10
193.519918
 20
309.907994
 30
0.0
 11
193.519918
 21
267.907994
 31
0.0
  0
SOLID
  5
339
330
1F
100
AcDbEntity
  8
SK2
100
AcDbTrace
 10
193.519918
 20
309.907994
 30
0.0
 11
194.137062
 21
306.407996
 31
0.0
 12
192.902773
 22
306.407991
 32
0.0
 13
192.902773
 23
306.407991
 33
0.0
  0
SOLID
  5
33A
330
1F
100
AcDbEntity
  8
SK2
100
AcDbTrace
 10
193.519918
 20
267.907994
 30
0.0
 11
192.902773
 21
271.4079910000001
 31
0.0
 12
194.137062
 22
271.407996
 32
0.0
 13
194.137062
 23
271.407996
 33
0.0
  0
LINE
  5
33C
330
1F
100
AcDbEntity
  8
CUT
100
AcDbLine
 10
403.6744348418796
 20
305.6586732925936
 30
0.0
 11
403.9649067722293
 21
297.6094751739601
 31
0.0
  0
LINE
  5
33D
330
1F
100
AcDbEntity
  8
CUT
100
AcDbLine
 10
404.2754235247553
 20
297.0161266556917
 30
0.0
 11
404.3998607906599
 21
289.8916003142345
 31
0.0
  0
LINE
  5
340
330
1F
100
AcDbEntity
  8
CUT
100
AcDbLine
 10
391.7325433852694
 20
305.9947134686475
 30
0.0
 11
402.8706493765341
 21
306.4047265598497
 31
0.0
  0
LINE
  5
341
330
1F
100
AcDbEntity
  8
CUT
100
AcDbLine
 10
403.9649067722293
 20
297.6094751739601
 30
0.0
 11
404.2334058386328
 21
297.1626487939952
 31
0.0
  0
LINE
  5
342
330
1F
100
AcDbEntity
  8
CUT
100
AcDbLine
 10
404.399861
 20
289.8916
 30
0.0
 11
404.399861
 21
288.907994
 31
0.0
  0
LINE
  5
343
330
1F
100
AcDbEntity
  8
CUT
100
AcDbLine
 10
404.399861
 20
288.907994
 30
0.0
 11
390.984573
 21
288.907994
 31
0.0
  0
LINE
  5
344
330
1F
100
AcDbEntity
  8
CUT
100
AcDbLine
 10
390.984573
 20
288.907994
 30
0.0
 11
390.984573
 21
305.191064
 31
0.0
  0
LINE
  5
345
330
1F
100
AcDbEntity
  8
CUT
100
AcDbLine
 10
390.9845729701558
 20
305.191064012734
 30
0.0
 11
390.9845729701558
 21
305.191064012734
 31
0.0
  0
ARC
  5
346
330
1F
100
AcDbEntity
  8
CUT
100
AcDbCircle
 10
391.7663897345099
 20
305.2133128738879
 30
0.0
 40
0.7821332781870992
100
AcDbArc
 50
92.48021506415716
 51
181.6300774611871
  0
LINE
  5
347
330
1F
100
AcDbEntity
  8
CUT
100
AcDbLine
 10
402.8706493765341
 20
306.4047265598497
 30
0.0
 11
402.8706493765341
 21
306.4047265598497
 31
0.0
  0
ARC
  5
348
330
1F
100
AcDbEntity
  8
CUT
100
AcDbCircle
 10
402.8947093881692
 20
305.6246291943704
 30
0.0
 40
0.7804683105595384
100
AcDbArc
 50
2.500040316521642
 51
91.76657468863187
  0
LINE
  5
349
330
1F
100
AcDbEntity
  8
CUT
100
AcDbLine
 10
404.2334058386329
 20
297.1626487939952
 30
0.0
 11
404.2334058386329
 21
297.1626487939952
 31
0.0
  0
ARC
  5
34A
330
1F
100
AcDbEntity
  8
CUT
100
AcDbCircle
 10
403.9810544906133
 20
297.010997095003
 30
0.0
 40
0.294413723617839
100
AcDbArc
 50
0.9983130070052377
 51
31.00395544053549
  0
ENDSEC
  0
SECTION
  2
OBJECTS
  0
DICTIONARY
  5
C
330
0
100
AcDbDictionary
281
     1
  3
ACAD_CIP_PREVIOUS_PRODUCT_INFO
350
30D
  3
ACAD_COLOR
350
308
  3
ACAD_DETAILVIEWSTYLE
350
304
  3
ACAD_GROUP
350
D
  3
ACAD_LAYOUT
350
1A
  3
ACAD_MATERIAL
350
43
  3
ACAD_MLEADERSTYLE
350
6B
  3
ACAD_MLINESTYLE
350
17
  3
ACAD_PLOTSETTINGS
350
19
  3
ACAD_PLOTSTYLENAME
350
E
  3
ACAD_SCALELIST
350
47
  3
ACAD_SECTIONVIEWSTYLE
350
305
  3
ACAD_TABLESTYLE
350
69
  3
ACAD_VISUALSTYLE
350
2A
  3
ACDB_RECOMPOSE_DATA
350
376
  3
AcDbVariableDictionary
350
2C1
  0
DICTIONARY
  5
359
330
10
100
AcDbDictionary
280
     1
281
     1
  3
ADSK_XREC_LAYER_RECONCILED
360
35A
  0
DICTIONARY
  5
35B
330
34B
100
AcDbDictionary
280
     1
281
     1
  3
ADSK_XREC_LAYER_RECONCILED
360
35C
  0
DICTIONARY
  5
35D
330
34C
100
AcDbDictionary
280
     1
281
     1
  3
ADSK_XREC_LAYER_RECONCILED
360
35E
  0
DICTIONARY
  5
35F
330
34D
100
AcDbDictionary
280
     1
281
     1
  3
ADSK_XREC_LAYER_RECONCILED
360
360
  0
DICTIONARY
  5
361
330
34F
100
AcDbDictionary
280
     1
281
     1
  3
ADSK_XREC_LAYER_RECONCILED
360
362
  0
DICTIONARY
  5
363
330
350
100
AcDbDictionary
280
     1
281
     1
  3
ADSK_XREC_LAYER_RECONCILED
360
364
  0
DICTIONARY
  5
365
330
352
100
AcDbDictionary
280
     1
281
     1
  3
ADSK_XREC_LAYER_RECONCILED
360
366
  0
DICTIONARY
  5
367
330
353
100
AcDbDictionary
280
     1
281
     1
  3
ADSK_XREC_LAYER_RECONCILED
360
368
  0
DICTIONARY
  5
369
330
354
100
AcDbDictionary
280
     1
281
     1
  3
ADSK_XREC_LAYER_RECONCILED
360
36A
  0
DICTIONARY
  5
36B
330
355
100
AcDbDictionary
280
     1
281
     1
  3
ADSK_XREC_LAYER_RECONCILED
360
36C
  0
DICTIONARY
  5
36D
330
356
100
AcDbDictionary
280
     1
281
     1
  3
ADSK_XREC_LAYER_RECONCILED
360
36E
  0
DICTIONARY
  5
36F
330
357
100
AcDbDictionary
280
     1
281
     1
  3
ADSK_XREC_LAYER_RECONCILED
360
370
  0
DICTIONARY
  5
30E
330
1F
100
AcDbDictionary
280
     1
281
     1
  3
ACAD_SORTENTS
360
30F
  0
XRECORD
  5
30D
102
{ACAD_REACTORS
330
C
102
}
330
C
100
AcDbXrecord
280
     1
300
ACD
300
2019
300
87084ACD_2019_0F
  0
DICTIONARY
  5
308
102
{ACAD_REACTORS
330
C
102
}
330
C
100
AcDbDictionary
281
     1
  0
DICTIONARY
  5
304
102
{ACAD_REACTORS
330
C
102
}
330
C
100
AcDbDictionary
281
     1
  3
Metric50
350
30A
  0
DICTIONARY
  5
D
102
{ACAD_REACTORS
330
C
102
}
330
C
100
AcDbDictionary
281
     1
  3
NULOVY_BOD
350
358
  0
DICTIONARY
  5
1A
102
{ACAD_REACTORS
330
C
102
}
330
C
100
AcDbDictionary
281
     1
  3
Layout1
350
1E
  3
Layout2
350
26
  3
Model
350
22
  0
DICTIONARY
  5
43
102
{ACAD_REACTORS
330
C
102
}
330
C
100
AcDbDictionary
281
     1
  3
ByBlock
350
45
  3
ByLayer
350
44
  3
Global
350
46
  0
DICTIONARY
  5
6B
102
{ACAD_REACTORS
330
C
102
}
330
C
100
AcDbDictionary
281
     1
  3
Standard
350
6C
  0
DICTIONARY
  5
17
102
{ACAD_REACTORS
330
C
102
}
330
C
100
AcDbDictionary
281
     1
  3
Standard
350
18
  0
DICTIONARY
  5
19
102
{ACAD_REACTORS
330
C
102
}
330
C
100
AcDbDictionary
281
     1
  0
ACDBDICTIONARYWDFLT
  5
E
102
{ACAD_REACTORS
330
C
102
}
330
C
100
AcDbDictionary
281
     1
  3
Normal
350
F
100
AcDbDictionaryWithDefault
340
F
  0
DICTIONARY
  5
47
102
{ACAD_REACTORS
330
C
102
}
330
C
100
AcDbDictionary
281
     1
  3
A0
350
48
  3
A1
350
49
  3
A2
350
4A
  3
A3
350
4B
  3
A4
350
4C
  3
A5
350
4D
  3
A6
350
4E
  3
A7
350
4F
  3
A8
350
50
  3
A9
350
51
  3
B0
350
52
  3
B1
350
53
  3
B2
350
54
  3
B3
350
55
  3
B4
350
56
  3
B5
350
57
  3
B6
350
58
  3
B7
350
59
  3
B8
350
5A
  3
B9
350
5B
  3
C0
350
5C
  3
C1
350
5D
  3
C2
350
5E
  3
C3
350
5F
  3
C4
350
60
  3
C5
350
61
  3
C6
350
62
  3
C7
350
63
  3
C8
350
64
  3
C9
350
65
  3
D0
350
66
  3
D1
350
67
  3
D2
350
68
  0
DICTIONARY
  5
305
102
{ACAD_REACTORS
330
C
102
}
330
C
100
AcDbDictionary
281
     1
  3
Metric50
350
309
  0
DICTIONARY
  5
69
102
{ACAD_REACTORS
330
C
102
}
330
C
100
AcDbDictionary
281
     1
  3
Standard
350
6A
  0
DICTIONARY
  5
2A
102
{ACAD_REACTORS
330
C
102
}
330
C
100
AcDbDictionary
281
     1
  3
2dWireframe
350
2F
  3
Basic
350
32
  3
Brighten
350
36
  3
ColorChange
350
3A
  3
Conceptual
350
34
  3
Dim
350
35
  3
EdgeColorOff
350
3D
  3
Facepattern
350
39
  3
Flat
350
2B
  3
FlatWithEdges
350
2C
  3
Gouraud
350
2D
  3
GouraudWithEdges
350
2E
  3
Hidden
350
31
  3
JitterOff
350
3B
  3
Linepattern
350
38
  3
OverhangOff
350
3C
  3
Realistic
350
33
  3
Shaded
350
42
  3
Shaded with edges
350
41
  3
Shades of Gray
350
3E
  3
Sketchy
350
3F
  3
Thicken
350
37
  3
Wireframe
350
30
  3
X-Ray
350
40
  0
XRECORD
  5
376
102
{ACAD_REACTORS
330
C
102
}
330
C
100
AcDbXrecord
280
     1
 90
        1
330
6A
  0
DICTIONARY
  5
2C1
102
{ACAD_REACTORS
330
C
102
}
330
C
100
AcDbDictionary
281
     1
  3
CANNOSCALE
350
2C2
  3
CMLEADERSTYLE
350
303
  3
CTABLESTYLE
350
302
  3
CVIEWDETAILSTYLE
350
371
  3
CVIEWSECTIONSTYLE
350
372
  3
MSLTSCALE
350
2C3
  3
XCLIPFRAME
350
373
  0
XRECORD
  5
35A
102
{ACAD_REACTORS
330
359
102
}
330
359
100
AcDbXrecord
280
     1
290
     1
  0
XRECORD
  5
35C
102
{ACAD_REACTORS
330
35B
102
}
330
35B
100
AcDbXrecord
280
     1
290
     1
  0
XRECORD
  5
35E
102
{ACAD_REACTORS
330
35D
102
}
330
35D
100
AcDbXrecord
280
     1
290
     1
  0
XRECORD
  5
360
102
{ACAD_REACTORS
330
35F
102
}
330
35F
100
AcDbXrecord
280
     1
290
     1
  0
XRECORD
  5
362
102
{ACAD_REACTORS
330
361
102
}
330
361
100
AcDbXrecord
280
     1
290
     1
  0
XRECORD
  5
364
102
{ACAD_REACTORS
330
363
102
}
330
363
100
AcDbXrecord
280
     1
290
     1
  0
XRECORD
  5
366
102
{ACAD_REACTORS
330
365
102
}
330
365
100
AcDbXrecord
280
     1
290
     1
  0
XRECORD
  5
368
102
{ACAD_REACTORS
330
367
102
}
330
367
100
AcDbXrecord
280
     1
290
     1
  0
XRECORD
  5
36A
102
{ACAD_REACTORS
330
369
102
}
330
369
100
AcDbXrecord
280
     1
290
     1
  0
XRECORD
  5
36C
102
{ACAD_REACTORS
330
36B
102
}
330
36B
100
AcDbXrecord
280
     1
290
     1
  0
XRECORD
  5
36E
102
{ACAD_REACTORS
330
36D
102
}
330
36D
100
AcDbXrecord
280
     1
290
     1
  0
XRECORD
  5
370
102
{ACAD_REACTORS
330
36F
102
}
330
36F
100
AcDbXrecord
280
     1
290
     1
  0
SORTENTSTABLE
  5
30F
102
{ACAD_REACTORS
330
30E
102
}
330
30E
100
AcDbSortentsTable
330
1F
331
310
  5
21B
331
311
  5
234
331
312
  5
310
331
313
  5
311
331
314
  5
312
331
315
  5
323
331
316
  5
324
331
317
  5
325
331
318
  5
326
331
319
  5
327
331
31A
  5
328
331
31B
  5
329
331
31C
  5
32A
331
31D
  5
32B
331
31E
  5
32C
331
31F
  5
32D
331
320
  5
32E
331
321
  5
32F
331
322
  5
330
331
323
  5
331
331
324
  5
332
331
325
  5
333
331
326
  5
334
331
327
  5
335
331
328
  5
336
331
329
  5
337
331
32A
  5
338
331
32B
  5
339
331
32C
  5
33A
331
32D
  5
315
331
32E
  5
316
331
32F
  5
317
331
330
  5
318
331
331
  5
319
331
332
  5
31A
331
333
  5
31B
331
334
  5
31C
331
335
  5
31D
331
336
  5
31E
331
337
  5
31F
331
338
  5
320
331
339
  5
321
331
33A
  5
322
331
33C
  5
340
331
33D
  5
341
331
340
  5
346
331
341
  5
347
331
342
  5
348
331
343
  5
349
331
344
  5
34A
331
345
  5
33C
331
346
  5
33D
331
347
  5
342
331
348
  5
343
331
349
  5
344
331
34A
  5
345
  0
ACDBDETAILVIEWSTYLE
  5
30A
102
{ACAD_XDICTIONARY
360
3AA
102
}
102
{ACAD_REACTORS
330
304
102
}
330
304
100
AcDbModelDocViewStyle
 70
     0
  3
Metric50
290
     0
100
AcDbDetailViewStyle
 70
     0
 71
     0
 90
        3
 71
     1
340
11
 62
   256
 40
5.0
340
0
 62
   256
 40
5.0
300

 40
0.0
280
     1
 71
     2
340
16
 90
       25
 62
   256
 71
     3
340
11
 62
   256
 40
5.0
 90
        0
 40
15.0
 90
        1
300
%<\AcVar ViewDetailId>% (%<\AcVar ViewScale \f "%sn">%)
 71
     4
340
16
 90
       25
 62
   256
340
16
 90
       25
 62
   256
280
     0
  0
GROUP
  5
358
102
{ACAD_REACTORS
330
D
102
}
330
D
100
AcDbGroup
300

 70
     0
 71
     1
340
73
  0
LAYOUT
  5
1E
102
{ACAD_REACTORS
330
1A
102
}
330
1A
100
AcDbPlotSettings
  1

  2
none_device
  4

  6

 40
0.0
 41
0.0
 42
0.0
 43
0.0
 44
0.0
 45
0.0
 46
0.0
 47
0.0
 48
0.0
 49
0.0
140
0.0
141
0.0
142
1.0
143
1.0
 70
   688
 72
     0
 73
     0
 74
     5
  7

 75
    16
147
1.0
 76
     0
 77
     2
 78
   300
148
0.0
149
0.0
100
AcDbLayout
  1
Layout1
 70
     1
 71
     1
 10
-0.5
 20
-0.5
 11
5.0
 21
5.0
 12
0.0
 22
0.0
 32
0.0
 14
-0.5
 24
-0.5
 34
-0.5
 15
5.0
 25
5.0
 35
5.0
146
0.0
 13
0.0
 23
0.0
 33
0.0
 16
1.0
 26
0.0
 36
0.0
 17
0.0
 27
1.0
 37
0.0
 76
     0
330
1B
  0
LAYOUT
  5
26
102
{ACAD_REACTORS
330
1A
102
}
330
1A
100
AcDbPlotSettings
  1

  2
none_device
  4

  6

 40
0.0
 41
0.0
 42
0.0
 43
0.0
 44
0.0
 45
0.0
 46
0.0
 47
0.0
 48
0.0
 49
0.0
140
0.0
141
0.0
142
1.0
143
1.0
 70
   688
 72
     0
 73
     0
 74
     5
  7

 75
    16
147
1.0
 76
     0
 77
     2
 78
   300
148
0.0
149
0.0
100
AcDbLayout
  1
Layout2
 70
     1
 71
     2
 10
0.0
 20
0.0
 11
0.0
 21
0.0
 12
0.0
 22
0.0
 32
0.0
 14
0.0
 24
0.0
 34
0.0
 15
0.0
 25
0.0
 35
0.0
146
0.0
 13
0.0
 23
0.0
 33
0.0
 16
1.0
 26
0.0
 36
0.0
 17
0.0
 27
1.0
 37
0.0
 76
     0
330
23
  0
LAYOUT
  5
22
102
{ACAD_REACTORS
330
1A
102
}
330
1A
100
AcDbPlotSettings
  1

  2
none_device
  4
Letter_(8.50_x_11.00_Inches)
  6

 40
6.349999999999999
 41
6.349999999999999
 42
6.350005
 43
6.350005
 44
215.9
 45
279.4
 46
0.0
 47
0.0
 48
0.0
 49
0.0
140
0.0
141
0.0
142
1.0
143
1.0
 70
  1712
 72
     0
 73
     0
 74
     0
  7

 75
     0
147
1.0
 76
     0
 77
     2
 78
   300
148
0.0
149
0.0
100
AcDbLayout
  1
Model
 70
     1
 71
     0
 10
-0.5
 20
-0.5
 11
5.0
 21
5.0
 12
0.0
 22
0.0
 32
0.0
 14
-0.5
 24
-0.5
 34
-0.5
 15
5.0
 25
5.0
 35
5.0
146
0.0
 13
0.0
 23
0.0
 33
0.0
 16
1.0
 26
0.0
 36
0.0
 17
0.0
 27
1.0
 37
0.0
 76
     0
330
1F
331
29
  0
MATERIAL
  5
45
102
{ACAD_XDICTIONARY
360
2F7
102
}
102
{ACAD_REACTORS
330
43
102
}
330
43
100
AcDbMaterial
  1
ByBlock
  0
MATERIAL
  5
44
102
{ACAD_XDICTIONARY
360
2F5
102
}
102
{ACAD_REACTORS
330
43
102
}
330
43
100
AcDbMaterial
  1
ByLayer
  0
MATERIAL
  5
46
102
{ACAD_XDICTIONARY
360
2F9
102
}
102
{ACAD_REACTORS
330
43
102
}
330
43
100
AcDbMaterial
  1
Global
  0
MLEADERSTYLE
  5
6C
102
{ACAD_REACTORS
330
6B
102
}
330
6B
100
AcDbMLeaderStyle
170
     2
171
     1
172
     0
 90
        2
 40
0.0
 41
0.0
173
     1
 91
-1056964608
340
14
 92
       -2
290
     1
 42
0.09
291
     1
 43
0.36
  3
Standard
 44
0.18
300

342
11
174
     1
178
     6
175
     1
176
     0
 93
-1056964608
 45
0.18
292
     0
297
     0
 46
0.18
 94
-1056964608
 47
1.0
 49
1.0
140
1.0
293
     1
141
0.0
294
     1
177
     0
142
1.0
295
     0
296
     0
143
0.125
1001
ACAD_MLEADERVER
1070
     2
  0
MLINESTYLE
  5
18
102
{ACAD_REACTORS
330
17
102
}
330
17
100
AcDbMlineStyle
  2
STANDARD
 70
     0
  3

 62
   256
 51
90.0
 52
90.0
 71
     2
 49
0.5
 62
   256
  6
BYLAYER
 49
-0.5
 62
   256
  6
BYLAYER
  0
ACDBPLACEHOLDER
  5
F
102
{ACAD_REACTORS
330
E
102
}
330
E
  0
SCALE
  5
48
102
{ACAD_REACTORS
330
47
102
}
330
47
100
AcDbScale
 70
     0
300
1:1
140
1.0
141
1.0
290
     1
  0
SCALE
  5
49
102
{ACAD_REACTORS
330
47
102
}
330
47
100
AcDbScale
 70
     0
300
1:2
140
1.0
141
2.0
290
     0
  0
SCALE
  5
4A
102
{ACAD_REACTORS
330
47
102
}
330
47
100
AcDbScale
 70
     0
300
1:4
140
1.0
141
4.0
290
     0
  0
SCALE
  5
4B
102
{ACAD_REACTORS
330
47
102
}
330
47
100
AcDbScale
 70
     0
300
1:5
140
1.0
141
5.0
290
     0
  0
SCALE
  5
4C
102
{ACAD_REACTORS
330
47
102
}
330
47
100
AcDbScale
 70
     0
300
1:8
140
1.0
141
8.0
290
     0
  0
SCALE
  5
4D
102
{ACAD_REACTORS
330
47
102
}
330
47
100
AcDbScale
 70
     0
300
1:10
140
1.0
141
10.0
290
     0
  0
SCALE
  5
4E
102
{ACAD_REACTORS
330
47
102
}
330
47
100
AcDbScale
 70
     0
300
1:16
140
1.0
141
16.0
290
     0
  0
SCALE
  5
4F
102
{ACAD_REACTORS
330
47
102
}
330
47
100
AcDbScale
 70
     0
300
1:20
140
1.0
141
20.0
290
     0
  0
SCALE
  5
50
102
{ACAD_REACTORS
330
47
102
}
330
47
100
AcDbScale
 70
     0
300
1:30
140
1.0
141
30.0
290
     0
  0
SCALE
  5
51
102
{ACAD_REACTORS
330
47
102
}
330
47
100
AcDbScale
 70
     0
300
1:40
140
1.0
141
40.0
290
     0
  0
SCALE
  5
52
102
{ACAD_REACTORS
330
47
102
}
330
47
100
AcDbScale
 70
     0
300
1:50
140
1.0
141
50.0
290
     0
  0
SCALE
  5
53
102
{ACAD_REACTORS
330
47
102
}
330
47
100
AcDbScale
 70
     0
300
1:100
140
1.0
141
100.0
290
     0
  0
SCALE
  5
54
102
{ACAD_REACTORS
330
47
102
}
330
47
100
AcDbScale
 70
     0
300
2:1
140
2.0
141
1.0
290
     0
  0
SCALE
  5
55
102
{ACAD_REACTORS
330
47
102
}
330
47
100
AcDbScale
 70
     0
300
4:1
140
4.0
141
1.0
290
     0
  0
SCALE
  5
56
102
{ACAD_REACTORS
330
47
102
}
330
47
100
AcDbScale
 70
     0
300
8:1
140
8.0
141
1.0
290
     0
  0
SCALE
  5
57
102
{ACAD_REACTORS
330
47
102
}
330
47
100
AcDbScale
 70
     0
300
10:1
140
10.0
141
1.0
290
     0
  0
SCALE
  5
58
102
{ACAD_REACTORS
330
47
102
}
330
47
100
AcDbScale
 70
     0
300
100:1
140
100.0
141
1.0
290
     0
  0
SCALE
  5
59
102
{ACAD_REACTORS
330
47
102
}
330
47
100
AcDbScale
 70
     0
300
1/128" = 1'-0"
140
0.007812
141
12.0
290
     0
  0
SCALE
  5
5A
102
{ACAD_REACTORS
330
47
102
}
330
47
100
AcDbScale
 70
     0
300
1/64" = 1'-0"
140
0.015625
141
12.0
290
     0
  0
SCALE
  5
5B
102
{ACAD_REACTORS
330
47
102
}
330
47
100
AcDbScale
 70
     0
300
1/32" = 1'-0"
140
0.03125
141
12.0
290
     0
  0
SCALE
  5
5C
102
{ACAD_REACTORS
330
47
102
}
330
47
100
AcDbScale
 70
     0
300
1/16" = 1'-0"
140
0.0625
141
12.0
290
     0
  0
SCALE
  5
5D
102
{ACAD_REACTORS
330
47
102
}
330
47
100
AcDbScale
 70
     0
300
3/32" = 1'-0"
140
0.09375
141
12.0
290
     0
  0
SCALE
  5
5E
102
{ACAD_REACTORS
330
47
102
}
330
47
100
AcDbScale
 70
     0
300
1/8" = 1'-0"
140
0.125
141
12.0
290
     0
  0
SCALE
  5
5F
102
{ACAD_REACTORS
330
47
102
}
330
47
100
AcDbScale
 70
     0
300
3/16" = 1'-0"
140
0.1875
141
12.0
290
     0
  0
SCALE
  5
60
102
{ACAD_REACTORS
330
47
102
}
330
47
100
AcDbScale
 70
     0
300
1/4" = 1'-0"
140
0.25
141
12.0
290
     0
  0
SCALE
  5
61
102
{ACAD_REACTORS
330
47
102
}
330
47
100
AcDbScale
 70
     0
300
3/8" = 1'-0"
140
0.375
141
12.0
290
     0
  0
SCALE
  5
62
102
{ACAD_REACTORS
330
47
102
}
330
47
100
AcDbScale
 70
     0
300
1/2" = 1'-0"
140
0.5
141
12.0
290
     0
  0
SCALE
  5
63
102
{ACAD_REACTORS
330
47
102
}
330
47
100
AcDbScale
 70
     0
300
3/4" = 1'-0"
140
0.75
141
12.0
290
     0
  0
SCALE
  5
64
102
{ACAD_REACTORS
330
47
102
}
330
47
100
AcDbScale
 70
     0
300
1" = 1'-0"
140
1.0
141
12.0
290
     0
  0
SCALE
  5
65
102
{ACAD_REACTORS
330
47
102
}
330
47
100
AcDbScale
 70
     0
300
1-1/2" = 1'-0"
140
1.5
141
12.0
290
     0
  0
SCALE
  5
66
102
{ACAD_REACTORS
330
47
102
}
330
47
100
AcDbScale
 70
     0
300
3" = 1'-0"
140
3.0
141
12.0
290
     0
  0
SCALE
  5
67
102
{ACAD_REACTORS
330
47
102
}
330
47
100
AcDbScale
 70
     0
300
6" = 1'-0"
140
6.0
141
12.0
290
     0
  0
SCALE
  5
68
102
{ACAD_REACTORS
330
47
102
}
330
47
100
AcDbScale
 70
     0
300
1'-0" = 1'-0"
140
12.0
141
12.0
290
     0
  0
ACDBSECTIONVIEWSTYLE
  5
309
102
{ACAD_XDICTIONARY
360
3A8
102
}
102
{ACAD_REACTORS
330
305
102
}
330
305
100
AcDbModelDocViewStyle
 70
     0
  3
Metric50
290
     0
100
AcDbSectionViewStyle
 70
     0
 71
     0
 90
      102
 71
     1
340
11
 62
   256
 40
5.0
340
0
340
0
 62
   256
 40
5.0
300
I, O, Q, S, X, Z
 40
10.0
 90
        0
 40
2.5
 90
        0
 71
     2
340
16
 90
       25
 62
   256
340
16
 90
       50
 62
   256
 40
5.0
 40
2.5
 40
5.0
 71
     3
340
11
 62
   256
 40
5.0
 90
        0
 40
15.0
 90
        1
300
%<\AcVar ViewSectionStartId>%-%<\AcVar ViewSectionEndId>% (%<\AcVar ViewScale \f "%sn">%)
 71
     4
 62
   256
 62
   257
300
ANSI31
 40
1.0
 90
        0
290
     0
290
     0
 90
        6
 40
0.0
 40
1.570796326794896
 40
0.2617993877991494
 40
1.308996938995747
 40
-0.2617993877991494
 40
1.832595714594046
  0
TABLESTYLE
  5
6A
102
{ACAD_XDICTIONARY
360
2FB
102
}
102
{ACAD_REACTORS
330
69
102
}
330
69
100
AcDbTableStyle
  3
Standard
 70
     0
 71
     0
 40
0.06
 41
0.06
280
     0
281
     0
  7
Standard
140
0.18
170
     2
 62
     0
 63
     7
283
     0
274
    -2
284
     1
 64
     0
275
    -2
285
     1
 65
     0
276
    -2
286
     1
 66
     0
277
    -2
287
     1
 67
     0
278
    -2
288
     1
 68
     0
279
    -2
289
     1
 69
     0
  7
Standard
140
0.25
170
     5
 62
     0
 63
     7
283
     0
274
    -2
284
     1
 64
     0
275
    -2
285
     1
 65
     0
276
    -2
286
     1
 66
     0
277
    -2
287
     1
 67
     0
278
    -2
288
     1
 68
     0
279
    -2
289
     1
 69
     0
  7
Standard
140
0.18
170
     5
 62
     0
 63
     7
283
     0
274
    -2
284
     1
 64
     0
275
    -2
285
     1
 65
     0
276
    -2
286
     1
 66
     0
277
    -2
287
     1
 67
     0
278
    -2
288
     1
 68
     0
279
    -2
289
     1
 69
     0
  0
VISUALSTYLE
  5
2F
102
{ACAD_XDICTIONARY
360
37F
102
}
102
{ACAD_REACTORS
330
2A
102
}
330
2A
100
AcDbVisualStyle
  2

 70
     4
 71
     0
 72
     2
 73
     0
 90
        0
 40
-0.6
 41
-30.0
 62
     5
 63
     7
421
 16777215
 74
     1
 91
        4
 64
     7
 65
   257
 75
     1
175
     1
 42
1.0
 92
        0
 66
   257
 43
1.0
 76
     1
 77
     6
 78
     2
 67
     7
 79
     5
170
     0
171
     0
290
     0
174
     0
 93
        1
 44
0.0
173
     0
291
     0
 45
0.0
1001
ACAD
1000
AcDbSavedByObjectVersion
1070
     0
  0
VISUALSTYLE
  5
32
102
{ACAD_XDICTIONARY
360
385
102
}
102
{ACAD_REACTORS
330
2A
102
}
330
2A
100
AcDbVisualStyle
  2

 70
     7
 71
     1
 72
     0
 73
     1
 90
        0
 40
-0.6
 41
-30.0
 62
     5
 63
     7
421
 16777215
 74
     0
 91
        4
 64
     7
 65
   257
 75
     1
175
     1
 42
1.0
 92
        8
 66
     7
 43
1.0
 76
     1
 77
     6
 78
     2
 67
     7
 79
     5
170
     0
171
     0
290
     0
174
     0
 93
        1
 44
0.0
173
     0
291
     1
 45
0.0
1001
ACAD
1000
AcDbSavedByObjectVersion
1070
     0
  0
VISUALSTYLE
  5
36
102
{ACAD_XDICTIONARY
360
38D
102
}
102
{ACAD_REACTORS
330
2A
102
}
330
2A
100
AcDbVisualStyle
  2

 70
    12
 71
     2
 72
     2
 73
     0
 90
        0
 40
-0.6
 41
-30.0
 62
     5
 63
     7
421
 16777215
 74
     1
 91
        4
 64
     7
 65
   257
 75
     1
175
     1
 42
1.0
 92
        8
 66
     7
 43
1.0
 76
     1
 77
     6
 78
     2
 67
     7
 79
     5
170
     0
171
     0
290
     0
174
     0
 93
        1
 44
50.0
173
     0
291
     1
 45
0.0
1001
ACAD
1000
AcDbSavedByObjectVersion
1070
     0
  0
VISUALSTYLE
  5
3A
102
{ACAD_XDICTIONARY
360
395
102
}
102
{ACAD_REACTORS
330
2A
102
}
330
2A
100
AcDbVisualStyle
  2

 70
    16
 71
     2
 72
     2
 73
     3
 90
        0
 40
-0.6
 41
-30.0
 62
     5
 63
     8
421
  8421504
 74
     1
 91
        4
 64
     7
 65
   257
 75
     1
175
     1
 42
1.0
 92
        8
 66
     8
424
  8421504
 43
1.0
 76
     1
 77
     6
 78
     2
 67
     7
 79
     5
170
     0
171
     0
290
     0
174
     0
 93
        1
 44
0.0
173
     0
291
     1
 45
0.0
1001
ACAD
1000
AcDbSavedByObjectVersion
1070
     0
  0
VISUALSTYLE
  5
34
102
{ACAD_XDICTIONARY
360
389
102
}
102
{ACAD_REACTORS
330
2A
102
}
330
2A
100
AcDbVisualStyle
  2

 70
     9
 71
     3
 72
     2
 73
     0
 90
        0
 40
-0.6
 41
-30.0
 62
     5
 63
     7
421
 16777215
 74
     2
 91
        2
 64
     7
 65
   257
 75
     1
175
     1
 42
179.0
 92
        8
 66
     7
 43
1.0
 76
     1
 77
     6
 78
     2
 67
     7
 79
     3
170
     0
171
     0
290
     0
174
     0
 93
        1
 44
0.0
173
     0
291
     0
 45
0.0
1001
ACAD
1000
AcDbSavedByObjectVersion
1070
     0
  0
VISUALSTYLE
  5
35
102
{ACAD_XDICTIONARY
360
38B
102
}
102
{ACAD_REACTORS
330
2A
102
}
330
2A
100
AcDbVisualStyle
  2

 70
    11
 71
     2
 72
     2
 73
     0
 90
        0
 40
-0.6
 41
-30.0
 62
     5
 63
     7
421
 16777215
 74
     1
 91
        4
 64
     7
 65
   257
 75
     1
175
     1
 42
1.0
 92
        8
 66
     7
 43
1.0
 76
     1
 77
     6
 78
     2
 67
     7
 79
     5
170
     0
171
     0
290
     0
174
     0
 93
        1
 44
-50.0
173
     0
291
     1
 45
0.0
1001
ACAD
1000
AcDbSavedByObjectVersion
1070
     0
  0
VISUALSTYLE
  5
3D
102
{ACAD_XDICTIONARY
360
39B
102
}
102
{ACAD_REACTORS
330
2A
102
}
330
2A
100
AcDbVisualStyle
  2

 70
    22
 71
     2
 72
     2
 73
     0
 90
        0
 40
-0.6
 41
-30.0
 62
     5
 63
     7
421
 16777215
 74
     1
 91
        4
 64
     7
 65
   257
 75
     1
175
     1
 42
1.0
 92
        8
 66
     7
 43
1.0
 76
     1
 77
     6
 78
     2
 67
     7
 79
     5
170
     0
171
     0
290
     0
174
     0
 93
        1
 44
0.0
173
     0
291
     1
 45
0.0
1001
ACAD
1000
AcDbSavedByObjectVersion
1070
     0
  0
VISUALSTYLE
  5
39
102
{ACAD_XDICTIONARY
360
393
102
}
102
{ACAD_REACTORS
330
2A
102
}
330
2A
100
AcDbVisualStyle
  2

 70
    15
 71
     2
 72
     2
 73
     0
 90
        0
 40
-0.6
 41
-30.0
 62
     5
 63
     7
421
 16777215
 74
     1
 91
        4
 64
     7
 65
   257
 75
     1
175
     1
 42
1.0
 92
        8
 66
     7
 43
1.0
 76
     1
 77
     6
 78
     2
 67
     7
 79
     5
170
     0
171
     0
290
     0
174
     0
 93
        1
 44
0.0
173
     0
291
     1
 45
0.0
1001
ACAD
1000
AcDbSavedByObjectVersion
1070
     0
  0
VISUALSTYLE
  5
2B
102
{ACAD_XDICTIONARY
360
377
102
}
102
{ACAD_REACTORS
330
2A
102
}
330
2A
100
AcDbVisualStyle
  2

 70
     0
 71
     2
 72
     1
 73
     1
 90
        2
 40
-0.6
 41
30.0
 62
     5
 63
     7
421
 16777215
 74
     0
 91
        0
 64
     7
 65
   257
 75
     1
175
     1
 42
1.0
 92
        8
 66
     7
 43
1.0
 76
     1
 77
     6
 78
     2
 67
     7
 79
     5
170
     0
171
     0
290
     0
174
     0
 93
       13
 44
0.0
173
     0
291
     1
 45
0.0
1001
ACAD
1000
AcDbSavedByObjectVersion
1070
     0
  0
VISUALSTYLE
  5
2C
102
{ACAD_XDICTIONARY
360
379
102
}
102
{ACAD_REACTORS
330
2A
102
}
330
2A
100
AcDbVisualStyle
  2

 70
     1
 71
     2
 72
     1
 73
     1
 90
        2
 40
-0.6
 41
30.0
 62
     5
 63
     7
421
 16777215
 74
     1
 91
        0
 64
     7
 65
   257
 75
     1
175
     1
 42
1.0
 92
        0
 66
   257
 43
1.0
 76
     1
 77
     6
 78
     2
 67
     7
 79
     5
170
     0
171
     0
290
     0
174
     0
 93
       13
 44
0.0
173
     0
291
     1
 45
0.0
1001
ACAD
1000
AcDbSavedByObjectVersion
1070
     0
  0
VISUALSTYLE
  5
2D
102
{ACAD_XDICTIONARY
360
37B
102
}
102
{ACAD_REACTORS
330
2A
102
}
330
2A
100
AcDbVisualStyle
  2

 70
     2
 71
     2
 72
     2
 73
     1
 90
        2
 40
-0.6
 41
30.0
 62
     5
 63
     7
421
 16777215
 74
     0
 91
        0
 64
     7
 65
   257
 75
     1
175
     1
 42
1.0
 92
        0
 66
     7
 43
1.0
 76
     1
 77
     6
 78
     2
 67
     7
 79
     5
170
     0
171
     0
290
     0
174
     0
 93
       13
 44
0.0
173
     0
291
     1
 45
0.0
1001
ACAD
1000
AcDbSavedByObjectVersion
1070
     0
  0
VISUALSTYLE
  5
2E
102
{ACAD_XDICTIONARY
360
37D
102
}
102
{ACAD_REACTORS
330
2A
102
}
330
2A
100
AcDbVisualStyle
  2

 70
     3
 71
     2
 72
     2
 73
     1
 90
        2
 40
-0.6
 41
30.0
 62
     5
 63
     7
421
 16777215
 74
     1
 91
        0
 64
     7
 65
   257
 75
     1
175
     1
 42
1.0
 92
        0
 66
   257
 43
1.0
 76
     1
 77
     6
 78
     2
 67
     7
 79
     5
170
     0
171
     0
290
     0
174
     0
 93
       13
 44
0.0
173
     0
291
     1
 45
0.0
1001
ACAD
1000
AcDbSavedByObjectVersion
1070
     0
  0
VISUALSTYLE
  5
31
102
{ACAD_XDICTIONARY
360
383
102
}
102
{ACAD_REACTORS
330
2A
102
}
330
2A
100
AcDbVisualStyle
  2

 70
     6
 71
     1
 72
     2
 73
     2
 90
        0
 40
-0.6
 41
-30.0
 62
     5
 63
     7
421
 16777215
 74
     2
 91
        2
 64
     7
 65
   257
 75
     2
175
     1
 42
40.0
 92
        0
 66
   257
 43
1.0
 76
     1
 77
     6
 78
     2
 67
     7
 79
     3
170
     0
171
     0
290
     0
174
     0
 93
        1
 44
0.0
173
     0
291
     0
 45
0.0
1001
ACAD
1000
AcDbSavedByObjectVersion
1070
     0
  0
VISUALSTYLE
  5
3B
102
{ACAD_XDICTIONARY
360
397
102
}
102
{ACAD_REACTORS
330
2A
102
}
330
2A
100
AcDbVisualStyle
  2

 70
    20
 71
     2
 72
     2
 73
     0
 90
        0
 40
-0.6
 41
-30.0
 62
     5
 63
     7
421
 16777215
 74
     1
 91
        4
 64
     7
 65
   257
 75
     1
175
     1
 42
1.0
 92
       10
 66
     7
 43
1.0
 76
     1
 77
     6
 78
     2
 67
     7
 79
     5
170
     0
171
     0
290
     0
174
     0
 93
        1
 44
0.0
173
     0
291
     1
 45
0.0
1001
ACAD
1000
AcDbSavedByObjectVersion
1070
     0
  0
VISUALSTYLE
  5
38
102
{ACAD_XDICTIONARY
360
391
102
}
102
{ACAD_REACTORS
330
2A
102
}
330
2A
100
AcDbVisualStyle
  2

 70
    14
 71
     2
 72
     2
 73
     0
 90
        0
 40
-0.6
 41
-30.0
 62
     5
 63
     7
421
 16777215
 74
     1
 91
        4
 64
     7
 65
   257
 75
     7
175
     7
 42
1.0
 92
        8
 66
     7
 43
1.0
 76
     1
 77
     6
 78
     2
 67
     7
 79
     5
170
     0
171
     0
290
     0
174
     0
 93
        1
 44
0.0
173
     0
291
     1
 45
0.0
1001
ACAD
1000
AcDbSavedByObjectVersion
1070
     0
  0
VISUALSTYLE
  5
3C
102
{ACAD_XDICTIONARY
360
399
102
}
102
{ACAD_REACTORS
330
2A
102
}
330
2A
100
AcDbVisualStyle
  2

 70
    21
 71
     2
 72
     2
 73
     0
 90
        0
 40
-0.6
 41
-30.0
 62
     5
 63
     7
421
 16777215
 74
     1
 91
        4
 64
     7
 65
   257
 75
     1
175
     1
 42
1.0
 92
        9
 66
     7
 43
1.0
 76
     1
 77
     6
 78
     2
 67
     7
 79
     5
170
     0
171
     0
290
     0
174
     0
 93
        1
 44
0.0
173
     0
291
     1
 45
0.0
1001
ACAD
1000
AcDbSavedByObjectVersion
1070
     0
  0
VISUALSTYLE
  5
33
102
{ACAD_XDICTIONARY
360
387
102
}
102
{ACAD_REACTORS
330
2A
102
}
330
2A
100
AcDbVisualStyle
  2

 70
     8
 71
     2
 72
     3
 73
     0
 90
        2
 40
-0.6
 41
30.0
 62
     5
 63
     7
421
 16777215
 74
     0
 91
        0
 64
     7
 65
   257
 75
     1
175
     1
 42
1.0
 92
        8
 66
   257
 43
1.0
 76
     1
 77
     6
 78
     2
 67
     7
 79
     3
170
     0
171
     0
290
     0
174
     0
 93
       13
 44
0.0
173
     0
291
     0
 45
0.0
1001
ACAD
1000
AcDbSavedByObjectVersion
1070
     0
  0
VISUALSTYLE
  5
42
102
{ACAD_XDICTIONARY
360
3A5
102
}
102
{ACAD_REACTORS
330
2A
102
}
330
2A
100
AcDbVisualStyle
  2

 70
    27
 71
     2
 72
     2
 73
     1
 90
        2
 40
-0.6
 41
30.0
 62
     5
 63
     7
421
 16777215
 74
     0
 91
        4
 64
     7
 65
   257
 75
     1
175
     1
 42
1.0
 92
        8
 66
   257
 43
1.0
 76
     1
 77
     6
 78
     2
 67
     8
425
  7895160
 79
     3
170
     0
171
     0
290
     0
174
     0
 93
        5
 44
0.0
173
     0
291
     0
 45
0.0
1001
ACAD
1000
AcDbSavedByObjectVersion
1070
     0
  0
VISUALSTYLE
  5
41
102
{ACAD_XDICTIONARY
360
3A3
102
}
102
{ACAD_REACTORS
330
2A
102
}
330
2A
100
AcDbVisualStyle
  2

 70
    26
 71
     2
 72
     2
 73
     1
 90
        2
 40
-0.6
 41
30.0
 62
     5
 63
     7
421
 16777215
 74
     1
 91
       10
 64
     7
 65
   257
 75
     2
175
     1
 42
1.0
 92
        8
 66
   257
 43
1.0
 76
     1
 77
     6
 78
     2
 67
     7
 79
     3
170
     0
171
     0
290
     0
174
     0
 93
        5
 44
0.0
173
     0
291
     0
 45
0.0
1001
ACAD
1000
AcDbSavedByObjectVersion
1070
     0
  0
VISUALSTYLE
  5
3E
102
{ACAD_XDICTIONARY
360
39D
102
}
102
{ACAD_REACTORS
330
2A
102
}
330
2A
100
AcDbVisualStyle
  2

 70
    23
 71
     2
 72
     2
 73
     3
 90
        0
 40
-0.6
 41
-30.0
 62
     5
 63
     7
421
 16777215
 74
     2
 91
        2
 64
     7
 65
     7
 75
     1
175
     1
 42
40.0
 92
        8
 66
     7
 43
1.0
 76
     1
 77
     6
 78
     2
 67
     7
 79
     3
170
     0
171
     0
290
     0
174
     0
 93
        1
 44
0.0
173
     0
291
     0
 45
0.0
1001
ACAD
1000
AcDbSavedByObjectVersion
1070
     0
  0
VISUALSTYLE
  5
3F
102
{ACAD_XDICTIONARY
360
39F
102
}
102
{ACAD_REACTORS
330
2A
102
}
330
2A
100
AcDbVisualStyle
  2

 70
    24
 71
     1
 72
     2
 73
     2
 90
        0
 40
-0.6
 41
-30.0
 62
     5
 63
     7
421
 16777215
 74
     2
 91
        2
 64
     7
 65
     7
 75
     1
175
     1
 42
40.0
 92
       11
 66
     7
 43
1.0
 76
     1
 77
     6
 78
     2
 67
     7
 79
     6
170
     0
171
     0
290
     0
174
     0
 93
        1
 44
0.0
173
     0
291
     0
 45
0.0
1001
ACAD
1000
AcDbSavedByObjectVersion
1070
     0
  0
VISUALSTYLE
  5
37
102
{ACAD_XDICTIONARY
360
38F
102
}
102
{ACAD_REACTORS
330
2A
102
}
330
2A
100
AcDbVisualStyle
  2

 70
    13
 71
     2
 72
     2
 73
     0
 90
        0
 40
-0.6
 41
-30.0
 62
     5
 63
     7
421
 16777215
 74
     1
 91
        4
 64
     7
 65
   257
 75
     1
175
     1
 42
1.0
 92
       12
 66
     7
 43
1.0
 76
     1
 77
     6
 78
     2
 67
     7
 79
     5
170
     0
171
     0
290
     0
174
     0
 93
        1
 44
0.0
173
     0
291
     1
 45
0.0
1001
ACAD
1000
AcDbSavedByObjectVersion
1070
     0
  0
VISUALSTYLE
  5
30
102
{ACAD_XDICTIONARY
360
381
102
}
102
{ACAD_REACTORS
330
2A
102
}
330
2A
100
AcDbVisualStyle
  2

 70
     5
 71
     0
 72
     2
 73
     0
 90
        0
 40
-0.6
 41
-30.0
 62
     5
 63
     7
421
 16777215
 74
     1
 91
        4
 64
     7
 65
   257
 75
     1
175
     1
 42
1.0
 92
        0
 66
   257
 43
1.0
 76
     1
 77
     6
 78
     2
 67
     7
 79
     3
170
     0
171
     0
290
     0
174
     0
 93
        1
 44
0.0
173
     0
291
     0
 45
0.0
1001
ACAD
1000
AcDbSavedByObjectVersion
1070
     0
  0
VISUALSTYLE
  5
40
102
{ACAD_XDICTIONARY
360
3A1
102
}
102
{ACAD_REACTORS
330
2A
102
}
330
2A
100
AcDbVisualStyle
  2

 70
    25
 71
     2
 72
     2
 73
     1
 90
        1
 40
0.5
 41
-30.0
 62
     5
 63
     7
421
 16777215
 74
     1
 91
        0
 64
     7
 65
   257
 75
     1
175
     1
 42
1.0
 92
        8
 66
     7
 43
1.0
 76
     1
 77
     6
 78
     2
 67
     7
 79
     3
170
     0
171
     0
290
     0
174
     0
 93
       13
 44
0.0
173
     0
291
     0
 45
0.0
1001
ACAD
1000
AcDbSavedByObjectVersion
1070
     0
  0
DICTIONARYVAR
  5
2C2
102
{ACAD_REACTORS
330
2C1
102
}
330
2C1
100
DictionaryVariables
280
     0
  1
1:1
  0
DICTIONARYVAR
  5
303
102
{ACAD_REACTORS
330
2C1
102
}
330
2C1
100
DictionaryVariables
280
     0
  1
STANDARD
  0
DICTIONARYVAR
  5
302
102
{ACAD_REACTORS
330
2C1
102
}
330
2C1
100
DictionaryVariables
280
     0
  1
STANDARD
  0
DICTIONARYVAR
  5
371
102
{ACAD_REACTORS
330
2C1
102
}
330
2C1
100
DictionaryVariables
280
     0
  1
Metric50
  0
DICTIONARYVAR
  5
372
102
{ACAD_REACTORS
330
2C1
102
}
330
2C1
100
DictionaryVariables
280
     0
  1
Metric50
  0
DICTIONARYVAR
  5
2C3
102
{ACAD_REACTORS
330
2C1
102
}
330
2C1
100
DictionaryVariables
280
     0
  1
1
  0
DICTIONARYVAR
  5
373
102
{ACAD_REACTORS
330
2C1
102
}
330
2C1
100
DictionaryVariables
280
     0
  1
2
  0
DICTIONARY
  5
3AA
330
30A
100
AcDbDictionary
280
     1
281
     1
  3
ACAD_XREC_ROUNDTRIP
360
3AB
  0
DICTIONARY
  5
2F7
330
45
100
AcDbDictionary
280
     1
281
     1
  3
ACAD_XREC_ROUNDTRIP
360
2F8
  0
DICTIONARY
  5
2F5
330
44
100
AcDbDictionary
280
     1
281
     1
  3
ACAD_XREC_ROUNDTRIP
360
2F6
  0
DICTIONARY
  5
2F9
330
46
100
AcDbDictionary
280
     1
281
     1
  3
ACAD_XREC_ROUNDTRIP
360
2FA
  0
DICTIONARY
  5
3A8
330
309
100
AcDbDictionary
280
     1
281
     1
  3
ACAD_XREC_ROUNDTRIP
360
3A9
  0
DICTIONARY
  5
2FB
330
6A
100
AcDbDictionary
280
     1
281
     1
  3
ACAD_ROUNDTRIP_2008_TABLESTYLE_CELLSTYLEMAP
360
375
  3
ACAD_XREC_ROUNDTRIP
360
3A7
  0
DICTIONARY
  5
37F
330
2F
100
AcDbDictionary
280
     1
281
     1
  3
ACAD_XREC_ROUNDTRIP
360
380
  0
DICTIONARY
  5
385
330
32
100
AcDbDictionary
280
     1
281
     1
  3
ACAD_XREC_ROUNDTRIP
360
386
  0
DICTIONARY
  5
38D
330
36
100
AcDbDictionary
280
     1
281
     1
  3
ACAD_XREC_ROUNDTRIP
360
38E
  0
DICTIONARY
  5
395
330
3A
100
AcDbDictionary
280
     1
281
     1
  3
ACAD_XREC_ROUNDTRIP
360
396
  0
DICTIONARY
  5
389
330
34
100
AcDbDictionary
280
     1
281
     1
  3
ACAD_XREC_ROUNDTRIP
360
38A
  0
DICTIONARY
  5
38B
330
35
100
AcDbDictionary
280
     1
281
     1
  3
ACAD_XREC_ROUNDTRIP
360
38C
  0
DICTIONARY
  5
39B
330
3D
100
AcDbDictionary
280
     1
281
     1
  3
ACAD_XREC_ROUNDTRIP
360
39C
  0
DICTIONARY
  5
393
330
39
100
AcDbDictionary
280
     1
281
     1
  3
ACAD_XREC_ROUNDTRIP
360
394
  0
DICTIONARY
  5
377
330
2B
100
AcDbDictionary
280
     1
281
     1
  3
ACAD_XREC_ROUNDTRIP
360
378
  0
DICTIONARY
  5
379
330
2C
100
AcDbDictionary
280
     1
281
     1
  3
ACAD_XREC_ROUNDTRIP
360
37A
  0
DICTIONARY
  5
37B
330
2D
100
AcDbDictionary
280
     1
281
     1
  3
ACAD_XREC_ROUNDTRIP
360
37C
  0
DICTIONARY
  5
37D
330
2E
100
AcDbDictionary
280
     1
281
     1
  3
ACAD_XREC_ROUNDTRIP
360
37E
  0
DICTIONARY
  5
383
330
31
100
AcDbDictionary
280
     1
281
     1
  3
ACAD_XREC_ROUNDTRIP
360
384
  0
DICTIONARY
  5
397
330
3B
100
AcDbDictionary
280
     1
281
     1
  3
ACAD_XREC_ROUNDTRIP
360
398
  0
DICTIONARY
  5
391
330
38
100
AcDbDictionary
280
     1
281
     1
  3
ACAD_XREC_ROUNDTRIP
360
392
  0
DICTIONARY
  5
399
330
3C
100
AcDbDictionary
280
     1
281
     1
  3
ACAD_XREC_ROUNDTRIP
360
39A
  0
DICTIONARY
  5
387
330
33
100
AcDbDictionary
280
     1
281
     1
  3
ACAD_XREC_ROUNDTRIP
360
388
  0
DICTIONARY
  5
3A5
330
42
100
AcDbDictionary
280
     1
281
     1
  3
ACAD_XREC_ROUNDTRIP
360
3A6
  0
DICTIONARY
  5
3A3
330
41
100
AcDbDictionary
280
     1
281
     1
  3
ACAD_XREC_ROUNDTRIP
360
3A4
  0
DICTIONARY
  5
39D
330
3E
100
AcDbDictionary
280
     1
281
     1
  3
ACAD_XREC_ROUNDTRIP
360
39E
  0
DICTIONARY
  5
39F
330
3F
100
AcDbDictionary
280
     1
281
     1
  3
ACAD_XREC_ROUNDTRIP
360
3A0
  0
DICTIONARY
  5
38F
330
37
100
AcDbDictionary
280
     1
281
     1
  3
ACAD_XREC_ROUNDTRIP
360
390
  0
DICTIONARY
  5
381
330
30
100
AcDbDictionary
280
     1
281
     1
  3
ACAD_XREC_ROUNDTRIP
360
382
  0
DICTIONARY
  5
3A1
330
40
100
AcDbDictionary
280
     1
281
     1
  3
ACAD_XREC_ROUNDTRIP
360
3A2
  0
XRECORD
  5
3AB
102
{ACAD_REACTORS
330
3AA
102
}
330
3AA
100
AcDbXrecord
280
     1
102
DISPLAYNAME
  1
Metric50
102
FLAGS
 90
        0
  0
XRECORD
  5
2F8
102
{ACAD_REACTORS
330
2F7
102
}
330
2F7
100
AcDbXrecord
280
     1
102
MATERIAL
148
0.0
149
0.0
149
0.0
 93
        0
 94
      127
282
     0
 72
     1
 77
     1
171
     1
175
     1
179
     1
273
     0
  0
XRECORD
  5
2F6
102
{ACAD_REACTORS
330
2F5
102
}
330
2F5
100
AcDbXrecord
280
     1
102
MATERIAL
148
0.0
149
0.0
149
0.0
 93
        0
 94
      127
282
     0
 72
     1
 77
     1
171
     1
175
     1
179
     1
273
     0
  0
XRECORD
  5
2FA
102
{ACAD_REACTORS
330
2F9
102
}
330
2F9
100
AcDbXrecord
280
     1
102
MATERIAL
148
0.0
149
0.0
149
0.0
 93
        0
 94
      127
282
     0
 72
     1
 77
     1
171
     1
175
     1
179
     1
273
     0
  0
XRECORD
  5
3A9
102
{ACAD_REACTORS
330
3A8
102
}
330
3A8
100
AcDbXrecord
280
     1
102
DISPLAYNAME
  1
Metric50
102
FLAGS
 90
        0
  0
CELLSTYLEMAP
  5
375
102
{ACAD_REACTORS
330
2FB
102
}
330
2FB
100
AcDbCellStyleMap
 90
        3
300
CELLSTYLE
  1
TABLEFORMAT_BEGIN
 90
        5
170
     1
 91
        0
 92
    32768
 62
   257
 93
        1
300
CONTENTFORMAT
  1
CONTENTFORMAT_BEGIN
 90
        0
 91
        0
 92
        4
 93
        0
300

 40
0.0
140
1.0
 94
        5
 62
     0
340
11
144
0.25
309
CONTENTFORMAT_END
171
     1
301
MARGIN
  1
CELLMARGIN_BEGIN
 40
0.06
 40
0.06
 40
0.06
 40
0.06
 40
0.18
 40
0.18
309
CELLMARGIN_END
 94
        6
 95
        1
302
GRIDFORMAT
  1
GRIDFORMAT_BEGIN
 90
        0
 91
        1
 62
     0
 92
       -2
340
14
 93
        0
 40
0.045
309
GRIDFORMAT_END
 95
        2
302
GRIDFORMAT
  1
GRIDFORMAT_BEGIN
 90
        0
 91
        1
 62
     0
 92
       -2
340
14
 93
        0
 40
0.045
309
GRIDFORMAT_END
 95
        4
302
GRIDFORMAT
  1
GRIDFORMAT_BEGIN
 90
        0
 91
        1
 62
     0
 92
       -2
340
14
 93
        0
 40
0.045
309
GRIDFORMAT_END
 95
        8
302
GRIDFORMAT
  1
GRIDFORMAT_BEGIN
 90
        0
 91
        1
 62
     0
 92
       -2
340
14
 93
        0
 40
0.045
309
GRIDFORMAT_END
 95
       16
302
GRIDFORMAT
  1
GRIDFORMAT_BEGIN
 90
        0
 91
        1
 62
     0
 92
       -2
340
14
 93
        0
 40
0.045
309
GRIDFORMAT_END
 95
       32
302
GRIDFORMAT
  1
GRIDFORMAT_BEGIN
 90
        0
 91
        1
 62
     0
 92
       -2
340
14
 93
        0
 40
0.045
309
GRIDFORMAT_END
309
TABLEFORMAT_END
  1
CELLSTYLE_BEGIN
 90
        1
 91
        1
300
_TITLE
309
CELLSTYLE_END
300
CELLSTYLE
  1
TABLEFORMAT_BEGIN
 90
        5
170
     1
 91
        0
 92
        0
 62
   257
 93
        1
300
CONTENTFORMAT
  1
CONTENTFORMAT_BEGIN
 90
        0
 91
        0
 92
        4
 93
        0
300

 40
0.0
140
1.0
 94
        5
 62
     0
340
11
144
0.18
309
CONTENTFORMAT_END
171
     1
301
MARGIN
  1
CELLMARGIN_BEGIN
 40
0.06
 40
0.06
 40
0.06
 40
0.06
 40
0.18
 40
0.18
309
CELLMARGIN_END
 94
        6
 95
        1
302
GRIDFORMAT
  1
GRIDFORMAT_BEGIN
 90
        0
 91
        1
 62
     0
 92
       -2
340
14
 93
        0
 40
0.045
309
GRIDFORMAT_END
 95
        2
302
GRIDFORMAT
  1
GRIDFORMAT_BEGIN
 90
        0
 91
        1
 62
     0
 92
       -2
340
14
 93
        0
 40
0.045
309
GRIDFORMAT_END
 95
        4
302
GRIDFORMAT
  1
GRIDFORMAT_BEGIN
 90
        0
 91
        1
 62
     0
 92
       -2
340
14
 93
        0
 40
0.045
309
GRIDFORMAT_END
 95
        8
302
GRIDFORMAT
  1
GRIDFORMAT_BEGIN
 90
        0
 91
        1
 62
     0
 92
       -2
340
14
 93
        0
 40
0.045
309
GRIDFORMAT_END
 95
       16
302
GRIDFORMAT
  1
GRIDFORMAT_BEGIN
 90
        0
 91
        1
 62
     0
 92
       -2
340
14
 93
        0
 40
0.045
309
GRIDFORMAT_END
 95
       32
302
GRIDFORMAT
  1
GRIDFORMAT_BEGIN
 90
        0
 91
        1
 62
     0
 92
       -2
340
14
 93
        0
 40
0.045
309
GRIDFORMAT_END
309
TABLEFORMAT_END
  1
CELLSTYLE_BEGIN
 90
        2
 91
        1
300
_HEADER
309
CELLSTYLE_END
300
CELLSTYLE
  1
TABLEFORMAT_BEGIN
 90
        5
170
     1
 91
        0
 92
        0
 62
   257
 93
        1
300
CONTENTFORMAT
  1
CONTENTFORMAT_BEGIN
 90
        0
 91
        0
 92
        4
 93
        0
300

 40
0.0
140
1.0
 94
        2
 62
     0
340
11
144
0.18
309
CONTENTFORMAT_END
171
     1
301
MARGIN
  1
CELLMARGIN_BEGIN
 40
0.06
 40
0.06
 40
0.06
 40
0.06
 40
0.18
 40
0.18
309
CELLMARGIN_END
 94
        6
 95
        1
302
GRIDFORMAT
  1
GRIDFORMAT_BEGIN
 90
        0
 91
        1
 62
     0
 92
       -2
340
14
 93
        0
 40
0.045
309
GRIDFORMAT_END
 95
        2
302
GRIDFORMAT
  1
GRIDFORMAT_BEGIN
 90
        0
 91
        1
 62
     0
 92
       -2
340
14
 93
        0
 40
0.045
309
GRIDFORMAT_END
 95
        4
302
GRIDFORMAT
  1
GRIDFORMAT_BEGIN
 90
        0
 91
        1
 62
     0
 92
       -2
340
14
 93
        0
 40
0.045
309
GRIDFORMAT_END
 95
        8
302
GRIDFORMAT
  1
GRIDFORMAT_BEGIN
 90
        0
 91
        1
 62
     0
 92
       -2
340
14
 93
        0
 40
0.045
309
GRIDFORMAT_END
 95
       16
302
GRIDFORMAT
  1
GRIDFORMAT_BEGIN
 90
        0
 91
        1
 62
     0
 92
       -2
340
14
 93
        0
 40
0.045
309
GRIDFORMAT_END
 95
       32
302
GRIDFORMAT
  1
GRIDFORMAT_BEGIN
 90
        0
 91
        1
 62
     0
 92
       -2
340
14
 93
        0
 40
0.045
309
GRIDFORMAT_END
309
TABLEFORMAT_END
  1
CELLSTYLE_BEGIN
 90
        3
 91
        2
300
_DATA
309
CELLSTYLE_END
  0
XRECORD
  5
3A7
102
{ACAD_REACTORS
330
2FB
102
}
330
2FB
100
AcDbXrecord
280
     1
102
ACAD_ROUNDTRIP_PRE2007_TABLESTYLE
 90
        4
 91
        0
  1

 92
        4
 93
        0
  2

 94
        4
 95
        0
  3

  0
XRECORD
  5
380
102
{ACAD_REACTORS
330
37F
102
}
330
37F
100
AcDbXrecord
280
     1
102
RTVSPost2010Prop28
280
     1
102
RTVSPost2010PropOp28
 70
     1
102
RTVSPost2010Prop29
280
     1
102
RTVSPost2010PropOp29
 70
     1
102
RTVSPost2010Prop30
280
     0
102
RTVSPost2010PropOp30
 70
     1
102
RTVSPost2010Prop31
280
     0
102
RTVSPost2010PropOp31
 70
     1
102
RTVSPost2010Prop32
280
     0
102
RTVSPost2010PropOp32
 70
     1
102
RTVSPost2010Prop33
280
     0
102
RTVSPost2010PropOp33
 70
     1
102
RTVSPost2010Prop34
280
     0
102
RTVSPost2010PropOp34
 70
     1
102
RTVSPost2010Prop35
280
     0
102
RTVSPost2010PropOp35
 70
     1
102
RTVSPost2010Prop36
280
     0
102
RTVSPost2010PropOp36
 70
     1
102
RTVSPost2010Prop37
 90
       50
102
RTVSPost2010PropOp37
 70
     1
102
RTVSPost2010Prop38
140
0.0
102
RTVSPost2010PropOp38
 70
     1
102
RTVSPost2010Prop39
140
1.0
102
RTVSPost2010PropOp39
 70
     1
102
RTVSPost2010Prop40
 90
        0
102
RTVSPost2010PropOp40
 70
     1
102
RTVSPost2010Prop41ColorIndex
 90
       18
102
RTVSPost2010Prop41ColorRGB
 90
        0
102
RTVSPost2010PropOp41
 70
     1
102
RTVSPost2010Prop42
 90
       50
102
RTVSPost2010PropOp42
 70
     1
102
RTVSPost2010Prop43
 90
        3
102
RTVSPost2010PropOp43
 70
     1
102
RTVSPost2010Prop44ColorIndex
 90
        5
102
RTVSPost2010Prop44ColorRGB
 90
      255
102
RTVSPost2010PropOp44
 70
     1
102
RTVSPost2010Prop45
280
     0
102
RTVSPost2010PropOp45
 70
     1
102
RTVSPost2010Prop46
 90
       50
102
RTVSPost2010PropOp46
 70
     1
102
RTVSPost2010Prop47
 90
       50
102
RTVSPost2010PropOp47
 70
     1
102
RTVSPost2010Prop48
 90
       50
102
RTVSPost2010PropOp48
 70
     1
102
RTVSPost2010Prop49
280
     0
102
RTVSPost2010PropOp49
 70
     1
102
RTVSPost2010Prop50
 90
       50
102
RTVSPost2010PropOp50
 70
     1
102
RTVSPost2010Prop51ColorIndex
 90
      256
102
RTVSPost2010Prop51ColorRGB
 90
-16777216
102
RTVSPost2010PropOp51
 70
     0
102
RTVSPost2010Prop52
140
1.0
102
RTVSPost2010PropOp52
 70
     0
102
RTVSPost2010Prop53
 90
        2
102
RTVSPost2010PropOp53
 70
     1
102
RTVSPost2010Prop54
  1
strokes_ogs.tif
102
RTVSPost2010PropOp54
 70
     1
102
RTVSPost2010Prop55
280
     0
102
RTVSPost2010PropOp55
 70
     1
102
RTVSPost2010Prop56
140
1.0
102
RTVSPost2010PropOp56
 70
     1
102
RTVSPost2010Prop57
140
1.0
102
RTVSPost2010PropOp57
 70
     1
102
RTVSPropertyOp0
 70
     1
102
RTVSPropertyOp1
 70
     1
102
RTVSPropertyOp2
 70
     1
102
RTVSPropertyOp3
 70
     1
102
RTVSPropertyOp4
 70
     1
102
RTVSPropertyOp5
 70
     1
102
RTVSPropertyOp6
 70
     1
102
RTVSPropertyOp7
 70
     1
102
RTVSPropertyOp8
 70
     1
102
RTVSPropertyOp9
 70
     1
102
RTVSPropertyOp10
 70
     1
102
RTVSPropertyOp11
 70
     1
102
RTVSPropertyOp12
 70
     1
102
RTVSPropertyOp13
 70
     1
102
RTVSPropertyOp14
 70
     1
102
RTVSPropertyOp15
 70
     1
102
RTVSPropertyOp16
 70
     1
102
RTVSPropertyOp17
 70
     1
102
RTVSPropertyOp18
 70
     1
102
RTVSPropertyOp19
 70
     1
102
RTVSPropertyOp20
 70
     1
102
RTVSPropertyOp21
 70
     1
102
RTVSPropertyOp22
 70
     1
102
RTVSPropertyOp23
 70
     1
102
RTVSPropertyOp24
 70
     1
102
RTVSPropertyOp25
 70
     1
102
RTVSPropertyOp26
 70
     1
102
RTVSPropertyOp27
 70
     1
102
RTVSPropertyOp28
 70
     1
102
RTVSPropertyOp29
 70
     1
102
RTVSPropertyOp30
 70
     1
102
RTVSPropertyOp31
 70
     1
102
RTVSPropertyOp32
 70
     1
102
RTVSPropertyOp33
 70
     1
102
RTVSPropertyOp34
 70
     1
102
RTVSPropertyOp35
 70
     1
102
RTVSPropertyOp36
 70
     1
102
RTVSPropertyOp37
 70
     1
102
RTVSPropertyOp38
 70
     1
102
RTVSPropertyOp39
 70
     1
102
RTVSPropertyOp40
 70
     1
102
RTVSPropertyOp41
 70
     1
102
RTVSPropertyOp42
 70
     1
102
RTVSPropertyOp43
 70
     1
102
RTVSPropertyOp44
 70
     1
102
RTVSPropertyOp45
 70
     1
102
RTVSPropertyOp46
 70
     1
102
RTVSPropertyOp47
 70
     1
102
RTVSPropertyOp48
 70
     1
102
RTVSPropertyOp49
 70
     1
102
RTVSPropertyOp50
 70
     1
102
RTVSPropertyOp51
 70
     0
102
RTVSPropertyOp52
 70
     0
102
RTVSPropertyOp53
 70
     1
102
RTVSPropertyOp54
 70
     1
102
RTVSPropertyOp55
 70
     1
102
RTVSPropertyOp56
 70
     1
102
RTVSPropertyOp57
 70
     1
102
RTVSPropertyOp58
 70
     1
102
RTVSPropertyOp59
 70
     1
102
RTVSPropertyOp60
 70
     1
102
RTVSPropertyOp61
 70
     1
102
RTVSPropertyOp62
 70
     1
  0
XRECORD
  5
386
102
{ACAD_REACTORS
330
385
102
}
330
385
100
AcDbXrecord
280
     1
102
RTVSPost2010Prop28
280
     0
102
RTVSPost2010PropOp28
 70
     1
102
RTVSPost2010Prop29
280
     1
102
RTVSPost2010PropOp29
 70
     1
102
RTVSPost2010Prop30
280
     1
102
RTVSPost2010PropOp30
 70
     1
102
RTVSPost2010Prop31
280
     0
102
RTVSPost2010PropOp31
 70
     1
102
RTVSPost2010Prop32
280
     0
102
RTVSPost2010PropOp32
 70
     1
102
RTVSPost2010Prop33
280
     0
102
RTVSPost2010PropOp33
 70
     1
102
RTVSPost2010Prop34
280
     0
102
RTVSPost2010PropOp34
 70
     1
102
RTVSPost2010Prop35
280
     0
102
RTVSPost2010PropOp35
 70
     1
102
RTVSPost2010Prop36
280
     0
102
RTVSPost2010PropOp36
 70
     1
102
RTVSPost2010Prop37
 90
       50
102
RTVSPost2010PropOp37
 70
     1
102
RTVSPost2010Prop38
140
0.0
102
RTVSPost2010PropOp38
 70
     1
102
RTVSPost2010Prop39
140
1.0
102
RTVSPost2010PropOp39
 70
     1
102
RTVSPost2010Prop40
 90
        0
102
RTVSPost2010PropOp40
 70
     1
102
RTVSPost2010Prop41ColorIndex
 90
       18
102
RTVSPost2010Prop41ColorRGB
 90
        0
102
RTVSPost2010PropOp41
 70
     1
102
RTVSPost2010Prop42
 90
       50
102
RTVSPost2010PropOp42
 70
     1
102
RTVSPost2010Prop43
 90
        3
102
RTVSPost2010PropOp43
 70
     1
102
RTVSPost2010Prop44ColorIndex
 90
        5
102
RTVSPost2010Prop44ColorRGB
 90
      255
102
RTVSPost2010PropOp44
 70
     1
102
RTVSPost2010Prop45
280
     0
102
RTVSPost2010PropOp45
 70
     1
102
RTVSPost2010Prop46
 90
       50
102
RTVSPost2010PropOp46
 70
     1
102
RTVSPost2010Prop47
 90
       50
102
RTVSPost2010PropOp47
 70
     1
102
RTVSPost2010Prop48
 90
       50
102
RTVSPost2010PropOp48
 70
     1
102
RTVSPost2010Prop49
280
     0
102
RTVSPost2010PropOp49
 70
     1
102
RTVSPost2010Prop50
 90
       50
102
RTVSPost2010PropOp50
 70
     1
102
RTVSPost2010Prop51ColorIndex
 90
      256
102
RTVSPost2010Prop51ColorRGB
 90
-16777216
102
RTVSPost2010PropOp51
 70
     0
102
RTVSPost2010Prop52
140
1.0
102
RTVSPost2010PropOp52
 70
     0
102
RTVSPost2010Prop53
 90
        2
102
RTVSPost2010PropOp53
 70
     1
102
RTVSPost2010Prop54
  1
strokes_ogs.tif
102
RTVSPost2010PropOp54
 70
     1
102
RTVSPost2010Prop55
280
     0
102
RTVSPost2010PropOp55
 70
     1
102
RTVSPost2010Prop56
140
1.0
102
RTVSPost2010PropOp56
 70
     1
102
RTVSPost2010Prop57
140
1.0
102
RTVSPost2010PropOp57
 70
     1
102
RTVSPropertyOp0
 70
     1
102
RTVSPropertyOp1
 70
     1
102
RTVSPropertyOp2
 70
     1
102
RTVSPropertyOp3
 70
     1
102
RTVSPropertyOp4
 70
     1
102
RTVSPropertyOp5
 70
     1
102
RTVSPropertyOp6
 70
     1
102
RTVSPropertyOp7
 70
     1
102
RTVSPropertyOp8
 70
     1
102
RTVSPropertyOp9
 70
     1
102
RTVSPropertyOp10
 70
     1
102
RTVSPropertyOp11
 70
     1
102
RTVSPropertyOp12
 70
     1
102
RTVSPropertyOp13
 70
     1
102
RTVSPropertyOp14
 70
     1
102
RTVSPropertyOp15
 70
     1
102
RTVSPropertyOp16
 70
     1
102
RTVSPropertyOp17
 70
     1
102
RTVSPropertyOp18
 70
     1
102
RTVSPropertyOp19
 70
     1
102
RTVSPropertyOp20
 70
     1
102
RTVSPropertyOp21
 70
     1
102
RTVSPropertyOp22
 70
     1
102
RTVSPropertyOp23
 70
     1
102
RTVSPropertyOp24
 70
     1
102
RTVSPropertyOp25
 70
     1
102
RTVSPropertyOp26
 70
     1
102
RTVSPropertyOp27
 70
     1
102
RTVSPropertyOp28
 70
     1
102
RTVSPropertyOp29
 70
     1
102
RTVSPropertyOp30
 70
     1
102
RTVSPropertyOp31
 70
     1
102
RTVSPropertyOp32
 70
     1
102
RTVSPropertyOp33
 70
     1
102
RTVSPropertyOp34
 70
     1
102
RTVSPropertyOp35
 70
     1
102
RTVSPropertyOp36
 70
     1
102
RTVSPropertyOp37
 70
     1
102
RTVSPropertyOp38
 70
     1
102
RTVSPropertyOp39
 70
     1
102
RTVSPropertyOp40
 70
     1
102
RTVSPropertyOp41
 70
     1
102
RTVSPropertyOp42
 70
     1
102
RTVSPropertyOp43
 70
     1
102
RTVSPropertyOp44
 70
     1
102
RTVSPropertyOp45
 70
     1
102
RTVSPropertyOp46
 70
     1
102
RTVSPropertyOp47
 70
     1
102
RTVSPropertyOp48
 70
     1
102
RTVSPropertyOp49
 70
     1
102
RTVSPropertyOp50
 70
     1
102
RTVSPropertyOp51
 70
     0
102
RTVSPropertyOp52
 70
     0
102
RTVSPropertyOp53
 70
     1
102
RTVSPropertyOp54
 70
     1
102
RTVSPropertyOp55
 70
     1
102
RTVSPropertyOp56
 70
     1
102
RTVSPropertyOp57
 70
     1
102
RTVSPropertyOp58
 70
     1
102
RTVSPropertyOp59
 70
     1
102
RTVSPropertyOp60
 70
     1
102
RTVSPropertyOp61
 70
     1
102
RTVSPropertyOp62
 70
     1
  0
XRECORD
  5
38E
102
{ACAD_REACTORS
330
38D
102
}
330
38D
100
AcDbXrecord
280
     1
102
RTVSPost2010Prop28
280
     0
102
RTVSPost2010PropOp28
 70
     1
102
RTVSPost2010Prop29
280
     1
102
RTVSPost2010PropOp29
 70
     1
102
RTVSPost2010Prop30
280
     1
102
RTVSPost2010PropOp30
 70
     1
102
RTVSPost2010Prop31
280
     0
102
RTVSPost2010PropOp31
 70
     1
102
RTVSPost2010Prop32
280
     0
102
RTVSPost2010PropOp32
 70
     1
102
RTVSPost2010Prop33
280
     0
102
RTVSPost2010PropOp33
 70
     1
102
RTVSPost2010Prop34
280
     0
102
RTVSPost2010PropOp34
 70
     1
102
RTVSPost2010Prop35
280
     0
102
RTVSPost2010PropOp35
 70
     1
102
RTVSPost2010Prop36
280
     0
102
RTVSPost2010PropOp36
 70
     1
102
RTVSPost2010Prop37
 90
       50
102
RTVSPost2010PropOp37
 70
     1
102
RTVSPost2010Prop38
140
0.0
102
RTVSPost2010PropOp38
 70
     1
102
RTVSPost2010Prop39
140
1.0
102
RTVSPost2010PropOp39
 70
     1
102
RTVSPost2010Prop40
 90
        0
102
RTVSPost2010PropOp40
 70
     1
102
RTVSPost2010Prop41ColorIndex
 90
       18
102
RTVSPost2010Prop41ColorRGB
 90
        0
102
RTVSPost2010PropOp41
 70
     1
102
RTVSPost2010Prop42
 90
       50
102
RTVSPost2010PropOp42
 70
     1
102
RTVSPost2010Prop43
 90
        3
102
RTVSPost2010PropOp43
 70
     1
102
RTVSPost2010Prop44ColorIndex
 90
        5
102
RTVSPost2010Prop44ColorRGB
 90
      255
102
RTVSPost2010PropOp44
 70
     1
102
RTVSPost2010Prop45
280
     0
102
RTVSPost2010PropOp45
 70
     1
102
RTVSPost2010Prop46
 90
       50
102
RTVSPost2010PropOp46
 70
     1
102
RTVSPost2010Prop47
 90
       50
102
RTVSPost2010PropOp47
 70
     1
102
RTVSPost2010Prop48
 90
       50
102
RTVSPost2010PropOp48
 70
     1
102
RTVSPost2010Prop49
280
     0
102
RTVSPost2010PropOp49
 70
     1
102
RTVSPost2010Prop50
 90
       50
102
RTVSPost2010PropOp50
 70
     1
102
RTVSPost2010Prop51ColorIndex
 90
      256
102
RTVSPost2010Prop51ColorRGB
 90
-16777216
102
RTVSPost2010PropOp51
 70
     0
102
RTVSPost2010Prop52
140
1.0
102
RTVSPost2010PropOp52
 70
     0
102
RTVSPost2010Prop53
 90
        2
102
RTVSPost2010PropOp53
 70
     1
102
RTVSPost2010Prop54
  1
strokes_ogs.tif
102
RTVSPost2010PropOp54
 70
     1
102
RTVSPost2010Prop55
280
     0
102
RTVSPost2010PropOp55
 70
     1
102
RTVSPost2010Prop56
140
1.0
102
RTVSPost2010PropOp56
 70
     1
102
RTVSPost2010Prop57
140
1.0
102
RTVSPost2010PropOp57
 70
     1
102
RTVSPropertyOp0
 70
     1
102
RTVSPropertyOp1
 70
     1
102
RTVSPropertyOp2
 70
     1
102
RTVSPropertyOp3
 70
     1
102
RTVSPropertyOp4
 70
     1
102
RTVSPropertyOp5
 70
     1
102
RTVSPropertyOp6
 70
     1
102
RTVSPropertyOp7
 70
     1
102
RTVSPropertyOp8
 70
     1
102
RTVSPropertyOp9
 70
     1
102
RTVSPropertyOp10
 70
     1
102
RTVSPropertyOp11
 70
     1
102
RTVSPropertyOp12
 70
     1
102
RTVSPropertyOp13
 70
     1
102
RTVSPropertyOp14
 70
     1
102
RTVSPropertyOp15
 70
     1
102
RTVSPropertyOp16
 70
     1
102
RTVSPropertyOp17
 70
     1
102
RTVSPropertyOp18
 70
     1
102
RTVSPropertyOp19
 70
     1
102
RTVSPropertyOp20
 70
     1
102
RTVSPropertyOp21
 70
     1
102
RTVSPropertyOp22
 70
     1
102
RTVSPropertyOp23
 70
     1
102
RTVSPropertyOp24
 70
     1
102
RTVSPropertyOp25
 70
     1
102
RTVSPropertyOp26
 70
     1
102
RTVSPropertyOp27
 70
     1
102
RTVSPropertyOp28
 70
     1
102
RTVSPropertyOp29
 70
     1
102
RTVSPropertyOp30
 70
     1
102
RTVSPropertyOp31
 70
     1
102
RTVSPropertyOp32
 70
     1
102
RTVSPropertyOp33
 70
     1
102
RTVSPropertyOp34
 70
     1
102
RTVSPropertyOp35
 70
     1
102
RTVSPropertyOp36
 70
     1
102
RTVSPropertyOp37
 70
     1
102
RTVSPropertyOp38
 70
     1
102
RTVSPropertyOp39
 70
     1
102
RTVSPropertyOp40
 70
     1
102
RTVSPropertyOp41
 70
     1
102
RTVSPropertyOp42
 70
     1
102
RTVSPropertyOp43
 70
     1
102
RTVSPropertyOp44
 70
     1
102
RTVSPropertyOp45
 70
     1
102
RTVSPropertyOp46
 70
     1
102
RTVSPropertyOp47
 70
     1
102
RTVSPropertyOp48
 70
     1
102
RTVSPropertyOp49
 70
     1
102
RTVSPropertyOp50
 70
     1
102
RTVSPropertyOp51
 70
     0
102
RTVSPropertyOp52
 70
     0
102
RTVSPropertyOp53
 70
     1
102
RTVSPropertyOp54
 70
     1
102
RTVSPropertyOp55
 70
     1
102
RTVSPropertyOp56
 70
     1
102
RTVSPropertyOp57
 70
     1
102
RTVSPropertyOp58
 70
     1
102
RTVSPropertyOp59
 70
     1
102
RTVSPropertyOp60
 70
     1
102
RTVSPropertyOp61
 70
     1
102
RTVSPropertyOp62
 70
     1
  0
XRECORD
  5
396
102
{ACAD_REACTORS
330
395
102
}
330
395
100
AcDbXrecord
280
     1
102
RTVSPost2010Prop28
280
     0
102
RTVSPost2010PropOp28
 70
     1
102
RTVSPost2010Prop29
280
     1
102
RTVSPost2010PropOp29
 70
     1
102
RTVSPost2010Prop30
280
     1
102
RTVSPost2010PropOp30
 70
     1
102
RTVSPost2010Prop31
280
     0
102
RTVSPost2010PropOp31
 70
     1
102
RTVSPost2010Prop32
280
     0
102
RTVSPost2010PropOp32
 70
     1
102
RTVSPost2010Prop33
280
     0
102
RTVSPost2010PropOp33
 70
     1
102
RTVSPost2010Prop34
280
     0
102
RTVSPost2010PropOp34
 70
     1
102
RTVSPost2010Prop35
280
     0
102
RTVSPost2010PropOp35
 70
     1
102
RTVSPost2010Prop36
280
     0
102
RTVSPost2010PropOp36
 70
     1
102
RTVSPost2010Prop37
 90
       50
102
RTVSPost2010PropOp37
 70
     1
102
RTVSPost2010Prop38
140
0.0
102
RTVSPost2010PropOp38
 70
     1
102
RTVSPost2010Prop39
140
1.0
102
RTVSPost2010PropOp39
 70
     1
102
RTVSPost2010Prop40
 90
        0
102
RTVSPost2010PropOp40
 70
     1
102
RTVSPost2010Prop41ColorIndex
 90
       18
102
RTVSPost2010Prop41ColorRGB
 90
        0
102
RTVSPost2010PropOp41
 70
     1
102
RTVSPost2010Prop42
 90
       50
102
RTVSPost2010PropOp42
 70
     1
102
RTVSPost2010Prop43
 90
        3
102
RTVSPost2010PropOp43
 70
     1
102
RTVSPost2010Prop44ColorIndex
 90
        5
102
RTVSPost2010Prop44ColorRGB
 90
      255
102
RTVSPost2010PropOp44
 70
     1
102
RTVSPost2010Prop45
280
     0
102
RTVSPost2010PropOp45
 70
     1
102
RTVSPost2010Prop46
 90
       50
102
RTVSPost2010PropOp46
 70
     1
102
RTVSPost2010Prop47
 90
       50
102
RTVSPost2010PropOp47
 70
     1
102
RTVSPost2010Prop48
 90
       50
102
RTVSPost2010PropOp48
 70
     1
102
RTVSPost2010Prop49
280
     0
102
RTVSPost2010PropOp49
 70
     1
102
RTVSPost2010Prop50
 90
       50
102
RTVSPost2010PropOp50
 70
     1
102
RTVSPost2010Prop51ColorIndex
 90
      256
102
RTVSPost2010Prop51ColorRGB
 90
-16777216
102
RTVSPost2010PropOp51
 70
     0
102
RTVSPost2010Prop52
140
1.0
102
RTVSPost2010PropOp52
 70
     0
102
RTVSPost2010Prop53
 90
        2
102
RTVSPost2010PropOp53
 70
     1
102
RTVSPost2010Prop54
  1
strokes_ogs.tif
102
RTVSPost2010PropOp54
 70
     1
102
RTVSPost2010Prop55
280
     0
102
RTVSPost2010PropOp55
 70
     1
102
RTVSPost2010Prop56
140
1.0
102
RTVSPost2010PropOp56
 70
     1
102
RTVSPost2010Prop57
140
1.0
102
RTVSPost2010PropOp57
 70
     1
102
RTVSPropertyOp0
 70
     1
102
RTVSPropertyOp1
 70
     1
102
RTVSPropertyOp2
 70
     1
102
RTVSPropertyOp3
 70
     1
102
RTVSPropertyOp4
 70
     1
102
RTVSPropertyOp5
 70
     1
102
RTVSPropertyOp6
 70
     1
102
RTVSPropertyOp7
 70
     1
102
RTVSPropertyOp8
 70
     1
102
RTVSPropertyOp9
 70
     1
102
RTVSPropertyOp10
 70
     1
102
RTVSPropertyOp11
 70
     1
102
RTVSPropertyOp12
 70
     1
102
RTVSPropertyOp13
 70
     1
102
RTVSPropertyOp14
 70
     1
102
RTVSPropertyOp15
 70
     1
102
RTVSPropertyOp16
 70
     1
102
RTVSPropertyOp17
 70
     1
102
RTVSPropertyOp18
 70
     1
102
RTVSPropertyOp19
 70
     1
102
RTVSPropertyOp20
 70
     1
102
RTVSPropertyOp21
 70
     1
102
RTVSPropertyOp22
 70
     1
102
RTVSPropertyOp23
 70
     1
102
RTVSPropertyOp24
 70
     1
102
RTVSPropertyOp25
 70
     1
102
RTVSPropertyOp26
 70
     1
102
RTVSPropertyOp27
 70
     1
102
RTVSPropertyOp28
 70
     1
102
RTVSPropertyOp29
 70
     1
102
RTVSPropertyOp30
 70
     1
102
RTVSPropertyOp31
 70
     1
102
RTVSPropertyOp32
 70
     1
102
RTVSPropertyOp33
 70
     1
102
RTVSPropertyOp34
 70
     1
102
RTVSPropertyOp35
 70
     1
102
RTVSPropertyOp36
 70
     1
102
RTVSPropertyOp37
 70
     1
102
RTVSPropertyOp38
 70
     1
102
RTVSPropertyOp39
 70
     1
102
RTVSPropertyOp40
 70
     1
102
RTVSPropertyOp41
 70
     1
102
RTVSPropertyOp42
 70
     1
102
RTVSPropertyOp43
 70
     1
102
RTVSPropertyOp44
 70
     1
102
RTVSPropertyOp45
 70
     1
102
RTVSPropertyOp46
 70
     1
102
RTVSPropertyOp47
 70
     1
102
RTVSPropertyOp48
 70
     1
102
RTVSPropertyOp49
 70
     1
102
RTVSPropertyOp50
 70
     1
102
RTVSPropertyOp51
 70
     0
102
RTVSPropertyOp52
 70
     0
102
RTVSPropertyOp53
 70
     1
102
RTVSPropertyOp54
 70
     1
102
RTVSPropertyOp55
 70
     1
102
RTVSPropertyOp56
 70
     1
102
RTVSPropertyOp57
 70
     1
102
RTVSPropertyOp58
 70
     1
102
RTVSPropertyOp59
 70
     1
102
RTVSPropertyOp60
 70
     1
102
RTVSPropertyOp61
 70
     1
102
RTVSPropertyOp62
 70
     1
  0
XRECORD
  5
38A
102
{ACAD_REACTORS
330
389
102
}
330
389
100
AcDbXrecord
280
     1
102
RTVSPost2010Prop28
280
     0
102
RTVSPost2010PropOp28
 70
     1
102
RTVSPost2010Prop29
280
     1
102
RTVSPost2010PropOp29
 70
     1
102
RTVSPost2010Prop30
280
     1
102
RTVSPost2010PropOp30
 70
     1
102
RTVSPost2010Prop31
280
     0
102
RTVSPost2010PropOp31
 70
     1
102
RTVSPost2010Prop32
280
     0
102
RTVSPost2010PropOp32
 70
     1
102
RTVSPost2010Prop33
280
     0
102
RTVSPost2010PropOp33
 70
     1
102
RTVSPost2010Prop34
280
     0
102
RTVSPost2010PropOp34
 70
     1
102
RTVSPost2010Prop35
280
     0
102
RTVSPost2010PropOp35
 70
     1
102
RTVSPost2010Prop36
280
     0
102
RTVSPost2010PropOp36
 70
     1
102
RTVSPost2010Prop37
 90
       50
102
RTVSPost2010PropOp37
 70
     1
102
RTVSPost2010Prop38
140
0.0
102
RTVSPost2010PropOp38
 70
     1
102
RTVSPost2010Prop39
140
1.0
102
RTVSPost2010PropOp39
 70
     1
102
RTVSPost2010Prop40
 90
        0
102
RTVSPost2010PropOp40
 70
     1
102
RTVSPost2010Prop41ColorIndex
 90
       18
102
RTVSPost2010Prop41ColorRGB
 90
        0
102
RTVSPost2010PropOp41
 70
     1
102
RTVSPost2010Prop42
 90
       50
102
RTVSPost2010PropOp42
 70
     1
102
RTVSPost2010Prop43
 90
        3
102
RTVSPost2010PropOp43
 70
     1
102
RTVSPost2010Prop44ColorIndex
 90
        5
102
RTVSPost2010Prop44ColorRGB
 90
      255
102
RTVSPost2010PropOp44
 70
     1
102
RTVSPost2010Prop45
280
     0
102
RTVSPost2010PropOp45
 70
     1
102
RTVSPost2010Prop46
 90
       50
102
RTVSPost2010PropOp46
 70
     1
102
RTVSPost2010Prop47
 90
       50
102
RTVSPost2010PropOp47
 70
     1
102
RTVSPost2010Prop48
 90
       50
102
RTVSPost2010PropOp48
 70
     1
102
RTVSPost2010Prop49
280
     0
102
RTVSPost2010PropOp49
 70
     1
102
RTVSPost2010Prop50
 90
       50
102
RTVSPost2010PropOp50
 70
     1
102
RTVSPost2010Prop51ColorIndex
 90
      256
102
RTVSPost2010Prop51ColorRGB
 90
-16777216
102
RTVSPost2010PropOp51
 70
     0
102
RTVSPost2010Prop52
140
1.0
102
RTVSPost2010PropOp52
 70
     0
102
RTVSPost2010Prop53
 90
        2
102
RTVSPost2010PropOp53
 70
     1
102
RTVSPost2010Prop54
  1
strokes_ogs.tif
102
RTVSPost2010PropOp54
 70
     1
102
RTVSPost2010Prop55
280
     0
102
RTVSPost2010PropOp55
 70
     1
102
RTVSPost2010Prop56
140
1.0
102
RTVSPost2010PropOp56
 70
     1
102
RTVSPost2010Prop57
140
1.0
102
RTVSPost2010PropOp57
 70
     1
102
RTVSPropertyOp0
 70
     1
102
RTVSPropertyOp1
 70
     1
102
RTVSPropertyOp2
 70
     1
102
RTVSPropertyOp3
 70
     1
102
RTVSPropertyOp4
 70
     1
102
RTVSPropertyOp5
 70
     1
102
RTVSPropertyOp6
 70
     1
102
RTVSPropertyOp7
 70
     1
102
RTVSPropertyOp8
 70
     1
102
RTVSPropertyOp9
 70
     1
102
RTVSPropertyOp10
 70
     1
102
RTVSPropertyOp11
 70
     1
102
RTVSPropertyOp12
 70
     1
102
RTVSPropertyOp13
 70
     1
102
RTVSPropertyOp14
 70
     1
102
RTVSPropertyOp15
 70
     1
102
RTVSPropertyOp16
 70
     1
102
RTVSPropertyOp17
 70
     1
102
RTVSPropertyOp18
 70
     1
102
RTVSPropertyOp19
 70
     1
102
RTVSPropertyOp20
 70
     1
102
RTVSPropertyOp21
 70
     1
102
RTVSPropertyOp22
 70
     1
102
RTVSPropertyOp23
 70
     1
102
RTVSPropertyOp24
 70
     1
102
RTVSPropertyOp25
 70
     1
102
RTVSPropertyOp26
 70
     1
102
RTVSPropertyOp27
 70
     1
102
RTVSPropertyOp28
 70
     1
102
RTVSPropertyOp29
 70
     1
102
RTVSPropertyOp30
 70
     1
102
RTVSPropertyOp31
 70
     1
102
RTVSPropertyOp32
 70
     1
102
RTVSPropertyOp33
 70
     1
102
RTVSPropertyOp34
 70
     1
102
RTVSPropertyOp35
 70
     1
102
RTVSPropertyOp36
 70
     1
102
RTVSPropertyOp37
 70
     1
102
RTVSPropertyOp38
 70
     1
102
RTVSPropertyOp39
 70
     1
102
RTVSPropertyOp40
 70
     1
102
RTVSPropertyOp41
 70
     1
102
RTVSPropertyOp42
 70
     1
102
RTVSPropertyOp43
 70
     1
102
RTVSPropertyOp44
 70
     1
102
RTVSPropertyOp45
 70
     1
102
RTVSPropertyOp46
 70
     1
102
RTVSPropertyOp47
 70
     1
102
RTVSPropertyOp48
 70
     1
102
RTVSPropertyOp49
 70
     1
102
RTVSPropertyOp50
 70
     1
102
RTVSPropertyOp51
 70
     0
102
RTVSPropertyOp52
 70
     0
102
RTVSPropertyOp53
 70
     1
102
RTVSPropertyOp54
 70
     1
102
RTVSPropertyOp55
 70
     1
102
RTVSPropertyOp56
 70
     1
102
RTVSPropertyOp57
 70
     1
102
RTVSPropertyOp58
 70
     1
102
RTVSPropertyOp59
 70
     1
102
RTVSPropertyOp60
 70
     1
102
RTVSPropertyOp61
 70
     1
102
RTVSPropertyOp62
 70
     1
  0
XRECORD
  5
38C
102
{ACAD_REACTORS
330
38B
102
}
330
38B
100
AcDbXrecord
280
     1
102
RTVSPost2010Prop28
280
     0
102
RTVSPost2010PropOp28
 70
     1
102
RTVSPost2010Prop29
280
     1
102
RTVSPost2010PropOp29
 70
     1
102
RTVSPost2010Prop30
280
     1
102
RTVSPost2010PropOp30
 70
     1
102
RTVSPost2010Prop31
280
     0
102
RTVSPost2010PropOp31
 70
     1
102
RTVSPost2010Prop32
280
     0
102
RTVSPost2010PropOp32
 70
     1
102
RTVSPost2010Prop33
280
     0
102
RTVSPost2010PropOp33
 70
     1
102
RTVSPost2010Prop34
280
     0
102
RTVSPost2010PropOp34
 70
     1
102
RTVSPost2010Prop35
280
     0
102
RTVSPost2010PropOp35
 70
     1
102
RTVSPost2010Prop36
280
     0
102
RTVSPost2010PropOp36
 70
     1
102
RTVSPost2010Prop37
 90
       50
102
RTVSPost2010PropOp37
 70
     1
102
RTVSPost2010Prop38
140
0.0
102
RTVSPost2010PropOp38
 70
     1
102
RTVSPost2010Prop39
140
1.0
102
RTVSPost2010PropOp39
 70
     1
102
RTVSPost2010Prop40
 90
        0
102
RTVSPost2010PropOp40
 70
     1
102
RTVSPost2010Prop41ColorIndex
 90
       18
102
RTVSPost2010Prop41ColorRGB
 90
        0
102
RTVSPost2010PropOp41
 70
     1
102
RTVSPost2010Prop42
 90
       50
102
RTVSPost2010PropOp42
 70
     1
102
RTVSPost2010Prop43
 90
        3
102
RTVSPost2010PropOp43
 70
     1
102
RTVSPost2010Prop44ColorIndex
 90
        5
102
RTVSPost2010Prop44ColorRGB
 90
      255
102
RTVSPost2010PropOp44
 70
     1
102
RTVSPost2010Prop45
280
     0
102
RTVSPost2010PropOp45
 70
     1
102
RTVSPost2010Prop46
 90
       50
102
RTVSPost2010PropOp46
 70
     1
102
RTVSPost2010Prop47
 90
       50
102
RTVSPost2010PropOp47
 70
     1
102
RTVSPost2010Prop48
 90
       50
102
RTVSPost2010PropOp48
 70
     1
102
RTVSPost2010Prop49
280
     0
102
RTVSPost2010PropOp49
 70
     1
102
RTVSPost2010Prop50
 90
       50
102
RTVSPost2010PropOp50
 70
     1
102
RTVSPost2010Prop51ColorIndex
 90
      256
102
RTVSPost2010Prop51ColorRGB
 90
-16777216
102
RTVSPost2010PropOp51
 70
     0
102
RTVSPost2010Prop52
140
1.0
102
RTVSPost2010PropOp52
 70
     0
102
RTVSPost2010Prop53
 90
        2
102
RTVSPost2010PropOp53
 70
     1
102
RTVSPost2010Prop54
  1
strokes_ogs.tif
102
RTVSPost2010PropOp54
 70
     1
102
RTVSPost2010Prop55
280
     0
102
RTVSPost2010PropOp55
 70
     1
102
RTVSPost2010Prop56
140
1.0
102
RTVSPost2010PropOp56
 70
     1
102
RTVSPost2010Prop57
140
1.0
102
RTVSPost2010PropOp57
 70
     1
102
RTVSPropertyOp0
 70
     1
102
RTVSPropertyOp1
 70
     1
102
RTVSPropertyOp2
 70
     1
102
RTVSPropertyOp3
 70
     1
102
RTVSPropertyOp4
 70
     1
102
RTVSPropertyOp5
 70
     1
102
RTVSPropertyOp6
 70
     1
102
RTVSPropertyOp7
 70
     1
102
RTVSPropertyOp8
 70
     1
102
RTVSPropertyOp9
 70
     1
102
RTVSPropertyOp10
 70
     1
102
RTVSPropertyOp11
 70
     1
102
RTVSPropertyOp12
 70
     1
102
RTVSPropertyOp13
 70
     1
102
RTVSPropertyOp14
 70
     1
102
RTVSPropertyOp15
 70
     1
102
RTVSPropertyOp16
 70
     1
102
RTVSPropertyOp17
 70
     1
102
RTVSPropertyOp18
 70
     1
102
RTVSPropertyOp19
 70
     1
102
RTVSPropertyOp20
 70
     1
102
RTVSPropertyOp21
 70
     1
102
RTVSPropertyOp22
 70
     1
102
RTVSPropertyOp23
 70
     1
102
RTVSPropertyOp24
 70
     1
102
RTVSPropertyOp25
 70
     1
102
RTVSPropertyOp26
 70
     1
102
RTVSPropertyOp27
 70
     1
102
RTVSPropertyOp28
 70
     1
102
RTVSPropertyOp29
 70
     1
102
RTVSPropertyOp30
 70
     1
102
RTVSPropertyOp31
 70
     1
102
RTVSPropertyOp32
 70
     1
102
RTVSPropertyOp33
 70
     1
102
RTVSPropertyOp34
 70
     1
102
RTVSPropertyOp35
 70
     1
102
RTVSPropertyOp36
 70
     1
102
RTVSPropertyOp37
 70
     1
102
RTVSPropertyOp38
 70
     1
102
RTVSPropertyOp39
 70
     1
102
RTVSPropertyOp40
 70
     1
102
RTVSPropertyOp41
 70
     1
102
RTVSPropertyOp42
 70
     1
102
RTVSPropertyOp43
 70
     1
102
RTVSPropertyOp44
 70
     1
102
RTVSPropertyOp45
 70
     1
102
RTVSPropertyOp46
 70
     1
102
RTVSPropertyOp47
 70
     1
102
RTVSPropertyOp48
 70
     1
102
RTVSPropertyOp49
 70
     1
102
RTVSPropertyOp50
 70
     1
102
RTVSPropertyOp51
 70
     0
102
RTVSPropertyOp52
 70
     0
102
RTVSPropertyOp53
 70
     1
102
RTVSPropertyOp54
 70
     1
102
RTVSPropertyOp55
 70
     1
102
RTVSPropertyOp56
 70
     1
102
RTVSPropertyOp57
 70
     1
102
RTVSPropertyOp58
 70
     1
102
RTVSPropertyOp59
 70
     1
102
RTVSPropertyOp60
 70
     1
102
RTVSPropertyOp61
 70
     1
102
RTVSPropertyOp62
 70
     1
  0
XRECORD
  5
39C
102
{ACAD_REACTORS
330
39B
102
}
330
39B
100
AcDbXrecord
280
     1
102
RTVSPost2010Prop28
280
     0
102
RTVSPost2010PropOp28
 70
     0
102
RTVSPost2010Prop29
280
     1
102
RTVSPost2010PropOp29
 70
     0
102
RTVSPost2010Prop30
280
     1
102
RTVSPost2010PropOp30
 70
     0
102
RTVSPost2010Prop31
280
     0
102
RTVSPost2010PropOp31
 70
     0
102
RTVSPost2010Prop32
280
     0
102
RTVSPost2010PropOp32
 70
     0
102
RTVSPost2010Prop33
280
     0
102
RTVSPost2010PropOp33
 70
     0
102
RTVSPost2010Prop34
280
     0
102
RTVSPost2010PropOp34
 70
     0
102
RTVSPost2010Prop35
280
     0
102
RTVSPost2010PropOp35
 70
     0
102
RTVSPost2010Prop36
280
     0
102
RTVSPost2010PropOp36
 70
     0
102
RTVSPost2010Prop37
 90
       50
102
RTVSPost2010PropOp37
 70
     0
102
RTVSPost2010Prop38
140
0.0
102
RTVSPost2010PropOp38
 70
     0
102
RTVSPost2010Prop39
140
1.0
102
RTVSPost2010PropOp39
 70
     0
102
RTVSPost2010Prop40
 90
        0
102
RTVSPost2010PropOp40
 70
     0
102
RTVSPost2010Prop41ColorIndex
 90
       18
102
RTVSPost2010Prop41ColorRGB
 90
        0
102
RTVSPost2010PropOp41
 70
     0
102
RTVSPost2010Prop42
 90
       50
102
RTVSPost2010PropOp42
 70
     0
102
RTVSPost2010Prop43
 90
        3
102
RTVSPost2010PropOp43
 70
     0
102
RTVSPost2010Prop44ColorIndex
 90
        5
102
RTVSPost2010Prop44ColorRGB
 90
      255
102
RTVSPost2010PropOp44
 70
     0
102
RTVSPost2010Prop45
280
     0
102
RTVSPost2010PropOp45
 70
     0
102
RTVSPost2010Prop46
 90
       50
102
RTVSPost2010PropOp46
 70
     0
102
RTVSPost2010Prop47
 90
       50
102
RTVSPost2010PropOp47
 70
     0
102
RTVSPost2010Prop48
 90
       50
102
RTVSPost2010PropOp48
 70
     0
102
RTVSPost2010Prop49
280
     0
102
RTVSPost2010PropOp49
 70
     0
102
RTVSPost2010Prop50
 90
       50
102
RTVSPost2010PropOp50
 70
     0
102
RTVSPost2010Prop51ColorIndex
 90
      256
102
RTVSPost2010Prop51ColorRGB
 90
-16777216
102
RTVSPost2010PropOp51
 70
     0
102
RTVSPost2010Prop52
140
1.0
102
RTVSPost2010PropOp52
 70
     0
102
RTVSPost2010Prop53
 90
        2
102
RTVSPost2010PropOp53
 70
     0
102
RTVSPost2010Prop54
  1
strokes_ogs.tif
102
RTVSPost2010PropOp54
 70
     0
102
RTVSPost2010Prop55
280
     0
102
RTVSPost2010PropOp55
 70
     0
102
RTVSPost2010Prop56
140
1.0
102
RTVSPost2010PropOp56
 70
     0
102
RTVSPost2010Prop57
140
1.0
102
RTVSPost2010PropOp57
 70
     0
102
RTVSPropertyOp0
 70
     0
102
RTVSPropertyOp1
 70
     0
102
RTVSPropertyOp2
 70
     0
102
RTVSPropertyOp3
 70
     0
102
RTVSPropertyOp4
 70
     0
102
RTVSPropertyOp5
 70
     0
102
RTVSPropertyOp6
 70
     0
102
RTVSPropertyOp7
 70
     0
102
RTVSPropertyOp8
 70
     0
102
RTVSPropertyOp9
 70
     0
102
RTVSPropertyOp10
 70
     0
102
RTVSPropertyOp11
 70
     0
102
RTVSPropertyOp12
 70
     0
102
RTVSPropertyOp13
 70
     0
102
RTVSPropertyOp14
 70
     2
102
RTVSPropertyOp15
 70
     0
102
RTVSPropertyOp16
 70
     0
102
RTVSPropertyOp17
 70
     0
102
RTVSPropertyOp18
 70
     0
102
RTVSPropertyOp19
 70
     0
102
RTVSPropertyOp20
 70
     0
102
RTVSPropertyOp21
 70
     0
102
RTVSPropertyOp22
 70
     0
102
RTVSPropertyOp23
 70
     0
102
RTVSPropertyOp24
 70
     0
102
RTVSPropertyOp25
 70
     0
102
RTVSPropertyOp26
 70
     0
102
RTVSPropertyOp27
 70
     0
102
RTVSPropertyOp28
 70
     0
102
RTVSPropertyOp29
 70
     0
102
RTVSPropertyOp30
 70
     0
102
RTVSPropertyOp31
 70
     0
102
RTVSPropertyOp32
 70
     0
102
RTVSPropertyOp33
 70
     0
102
RTVSPropertyOp34
 70
     0
102
RTVSPropertyOp35
 70
     0
102
RTVSPropertyOp36
 70
     0
102
RTVSPropertyOp37
 70
     0
102
RTVSPropertyOp38
 70
     0
102
RTVSPropertyOp39
 70
     0
102
RTVSPropertyOp40
 70
     0
102
RTVSPropertyOp41
 70
     0
102
RTVSPropertyOp42
 70
     0
102
RTVSPropertyOp43
 70
     0
102
RTVSPropertyOp44
 70
     0
102
RTVSPropertyOp45
 70
     0
102
RTVSPropertyOp46
 70
     0
102
RTVSPropertyOp47
 70
     0
102
RTVSPropertyOp48
 70
     0
102
RTVSPropertyOp49
 70
     0
102
RTVSPropertyOp50
 70
     0
102
RTVSPropertyOp51
 70
     0
102
RTVSPropertyOp52
 70
     0
102
RTVSPropertyOp53
 70
     0
102
RTVSPropertyOp54
 70
     0
102
RTVSPropertyOp55
 70
     0
102
RTVSPropertyOp56
 70
     0
102
RTVSPropertyOp57
 70
     0
102
RTVSPropertyOp58
 70
     1
102
RTVSPropertyOp59
 70
     1
102
RTVSPropertyOp60
 70
     1
102
RTVSPropertyOp61
 70
     1
102
RTVSPropertyOp62
 70
     1
  0
XRECORD
  5
394
102
{ACAD_REACTORS
330
393
102
}
330
393
100
AcDbXrecord
280
     1
102
RTVSPost2010Prop28
280
     0
102
RTVSPost2010PropOp28
 70
     1
102
RTVSPost2010Prop29
280
     1
102
RTVSPost2010PropOp29
 70
     1
102
RTVSPost2010Prop30
280
     1
102
RTVSPost2010PropOp30
 70
     1
102
RTVSPost2010Prop31
280
     0
102
RTVSPost2010PropOp31
 70
     1
102
RTVSPost2010Prop32
280
     0
102
RTVSPost2010PropOp32
 70
     1
102
RTVSPost2010Prop33
280
     0
102
RTVSPost2010PropOp33
 70
     1
102
RTVSPost2010Prop34
280
     0
102
RTVSPost2010PropOp34
 70
     1
102
RTVSPost2010Prop35
280
     0
102
RTVSPost2010PropOp35
 70
     1
102
RTVSPost2010Prop36
280
     0
102
RTVSPost2010PropOp36
 70
     1
102
RTVSPost2010Prop37
 90
       50
102
RTVSPost2010PropOp37
 70
     1
102
RTVSPost2010Prop38
140
0.0
102
RTVSPost2010PropOp38
 70
     1
102
RTVSPost2010Prop39
140
1.0
102
RTVSPost2010PropOp39
 70
     1
102
RTVSPost2010Prop40
 90
        0
102
RTVSPost2010PropOp40
 70
     1
102
RTVSPost2010Prop41ColorIndex
 90
       18
102
RTVSPost2010Prop41ColorRGB
 90
        0
102
RTVSPost2010PropOp41
 70
     1
102
RTVSPost2010Prop42
 90
       50
102
RTVSPost2010PropOp42
 70
     1
102
RTVSPost2010Prop43
 90
        3
102
RTVSPost2010PropOp43
 70
     1
102
RTVSPost2010Prop44ColorIndex
 90
        5
102
RTVSPost2010Prop44ColorRGB
 90
      255
102
RTVSPost2010PropOp44
 70
     1
102
RTVSPost2010Prop45
280
     0
102
RTVSPost2010PropOp45
 70
     1
102
RTVSPost2010Prop46
 90
       50
102
RTVSPost2010PropOp46
 70
     1
102
RTVSPost2010Prop47
 90
       50
102
RTVSPost2010PropOp47
 70
     1
102
RTVSPost2010Prop48
 90
       50
102
RTVSPost2010PropOp48
 70
     1
102
RTVSPost2010Prop49
280
     0
102
RTVSPost2010PropOp49
 70
     1
102
RTVSPost2010Prop50
 90
       50
102
RTVSPost2010PropOp50
 70
     1
102
RTVSPost2010Prop51ColorIndex
 90
      256
102
RTVSPost2010Prop51ColorRGB
 90
-16777216
102
RTVSPost2010PropOp51
 70
     0
102
RTVSPost2010Prop52
140
1.0
102
RTVSPost2010PropOp52
 70
     0
102
RTVSPost2010Prop53
 90
        2
102
RTVSPost2010PropOp53
 70
     1
102
RTVSPost2010Prop54
  1
strokes_ogs.tif
102
RTVSPost2010PropOp54
 70
     1
102
RTVSPost2010Prop55
280
     0
102
RTVSPost2010PropOp55
 70
     1
102
RTVSPost2010Prop56
140
1.0
102
RTVSPost2010PropOp56
 70
     1
102
RTVSPost2010Prop57
140
1.0
102
RTVSPost2010PropOp57
 70
     1
102
RTVSPropertyOp0
 70
     1
102
RTVSPropertyOp1
 70
     1
102
RTVSPropertyOp2
 70
     1
102
RTVSPropertyOp3
 70
     1
102
RTVSPropertyOp4
 70
     1
102
RTVSPropertyOp5
 70
     1
102
RTVSPropertyOp6
 70
     1
102
RTVSPropertyOp7
 70
     1
102
RTVSPropertyOp8
 70
     1
102
RTVSPropertyOp9
 70
     1
102
RTVSPropertyOp10
 70
     1
102
RTVSPropertyOp11
 70
     1
102
RTVSPropertyOp12
 70
     1
102
RTVSPropertyOp13
 70
     1
102
RTVSPropertyOp14
 70
     1
102
RTVSPropertyOp15
 70
     1
102
RTVSPropertyOp16
 70
     1
102
RTVSPropertyOp17
 70
     1
102
RTVSPropertyOp18
 70
     1
102
RTVSPropertyOp19
 70
     1
102
RTVSPropertyOp20
 70
     1
102
RTVSPropertyOp21
 70
     1
102
RTVSPropertyOp22
 70
     1
102
RTVSPropertyOp23
 70
     1
102
RTVSPropertyOp24
 70
     1
102
RTVSPropertyOp25
 70
     1
102
RTVSPropertyOp26
 70
     1
102
RTVSPropertyOp27
 70
     1
102
RTVSPropertyOp28
 70
     1
102
RTVSPropertyOp29
 70
     1
102
RTVSPropertyOp30
 70
     1
102
RTVSPropertyOp31
 70
     1
102
RTVSPropertyOp32
 70
     1
102
RTVSPropertyOp33
 70
     1
102
RTVSPropertyOp34
 70
     1
102
RTVSPropertyOp35
 70
     1
102
RTVSPropertyOp36
 70
     1
102
RTVSPropertyOp37
 70
     1
102
RTVSPropertyOp38
 70
     1
102
RTVSPropertyOp39
 70
     1
102
RTVSPropertyOp40
 70
     1
102
RTVSPropertyOp41
 70
     1
102
RTVSPropertyOp42
 70
     1
102
RTVSPropertyOp43
 70
     1
102
RTVSPropertyOp44
 70
     1
102
RTVSPropertyOp45
 70
     1
102
RTVSPropertyOp46
 70
     1
102
RTVSPropertyOp47
 70
     1
102
RTVSPropertyOp48
 70
     1
102
RTVSPropertyOp49
 70
     1
102
RTVSPropertyOp50
 70
     1
102
RTVSPropertyOp51
 70
     0
102
RTVSPropertyOp52
 70
     0
102
RTVSPropertyOp53
 70
     1
102
RTVSPropertyOp54
 70
     1
102
RTVSPropertyOp55
 70
     1
102
RTVSPropertyOp56
 70
     1
102
RTVSPropertyOp57
 70
     1
102
RTVSPropertyOp58
 70
     1
102
RTVSPropertyOp59
 70
     1
102
RTVSPropertyOp60
 70
     1
102
RTVSPropertyOp61
 70
     1
102
RTVSPropertyOp62
 70
     1
  0
XRECORD
  5
378
102
{ACAD_REACTORS
330
377
102
}
330
377
100
AcDbXrecord
280
     1
102
RTVSPost2010Prop28
280
     0
102
RTVSPost2010PropOp28
 70
     1
102
RTVSPost2010Prop29
280
     1
102
RTVSPost2010PropOp29
 70
     1
102
RTVSPost2010Prop30
280
     1
102
RTVSPost2010PropOp30
 70
     1
102
RTVSPost2010Prop31
280
     0
102
RTVSPost2010PropOp31
 70
     1
102
RTVSPost2010Prop32
280
     0
102
RTVSPost2010PropOp32
 70
     1
102
RTVSPost2010Prop33
280
     0
102
RTVSPost2010PropOp33
 70
     1
102
RTVSPost2010Prop34
280
     0
102
RTVSPost2010PropOp34
 70
     1
102
RTVSPost2010Prop35
280
     0
102
RTVSPost2010PropOp35
 70
     1
102
RTVSPost2010Prop36
280
     0
102
RTVSPost2010PropOp36
 70
     1
102
RTVSPost2010Prop37
 90
       50
102
RTVSPost2010PropOp37
 70
     1
102
RTVSPost2010Prop38
140
0.0
102
RTVSPost2010PropOp38
 70
     1
102
RTVSPost2010Prop39
140
1.0
102
RTVSPost2010PropOp39
 70
     1
102
RTVSPost2010Prop40
 90
        0
102
RTVSPost2010PropOp40
 70
     1
102
RTVSPost2010Prop41ColorIndex
 90
       18
102
RTVSPost2010Prop41ColorRGB
 90
        0
102
RTVSPost2010PropOp41
 70
     1
102
RTVSPost2010Prop42
 90
       50
102
RTVSPost2010PropOp42
 70
     1
102
RTVSPost2010Prop43
 90
        3
102
RTVSPost2010PropOp43
 70
     1
102
RTVSPost2010Prop44ColorIndex
 90
        5
102
RTVSPost2010Prop44ColorRGB
 90
      255
102
RTVSPost2010PropOp44
 70
     1
102
RTVSPost2010Prop45
280
     0
102
RTVSPost2010PropOp45
 70
     1
102
RTVSPost2010Prop46
 90
       50
102
RTVSPost2010PropOp46
 70
     1
102
RTVSPost2010Prop47
 90
       50
102
RTVSPost2010PropOp47
 70
     1
102
RTVSPost2010Prop48
 90
       50
102
RTVSPost2010PropOp48
 70
     1
102
RTVSPost2010Prop49
280
     0
102
RTVSPost2010PropOp49
 70
     1
102
RTVSPost2010Prop50
 90
       50
102
RTVSPost2010PropOp50
 70
     1
102
RTVSPost2010Prop51ColorIndex
 90
      256
102
RTVSPost2010Prop51ColorRGB
 90
-16777216
102
RTVSPost2010PropOp51
 70
     0
102
RTVSPost2010Prop52
140
1.0
102
RTVSPost2010PropOp52
 70
     0
102
RTVSPost2010Prop53
 90
        2
102
RTVSPost2010PropOp53
 70
     1
102
RTVSPost2010Prop54
  1
strokes_ogs.tif
102
RTVSPost2010PropOp54
 70
     1
102
RTVSPost2010Prop55
280
     0
102
RTVSPost2010PropOp55
 70
     1
102
RTVSPost2010Prop56
140
1.0
102
RTVSPost2010PropOp56
 70
     1
102
RTVSPost2010Prop57
140
1.0
102
RTVSPost2010PropOp57
 70
     1
102
RTVSPropertyOp0
 70
     1
102
RTVSPropertyOp1
 70
     1
102
RTVSPropertyOp2
 70
     1
102
RTVSPropertyOp3
 70
     1
102
RTVSPropertyOp4
 70
     1
102
RTVSPropertyOp5
 70
     1
102
RTVSPropertyOp6
 70
     1
102
RTVSPropertyOp7
 70
     1
102
RTVSPropertyOp8
 70
     1
102
RTVSPropertyOp9
 70
     1
102
RTVSPropertyOp10
 70
     1
102
RTVSPropertyOp11
 70
     1
102
RTVSPropertyOp12
 70
     1
102
RTVSPropertyOp13
 70
     1
102
RTVSPropertyOp14
 70
     1
102
RTVSPropertyOp15
 70
     1
102
RTVSPropertyOp16
 70
     1
102
RTVSPropertyOp17
 70
     1
102
RTVSPropertyOp18
 70
     1
102
RTVSPropertyOp19
 70
     1
102
RTVSPropertyOp20
 70
     1
102
RTVSPropertyOp21
 70
     1
102
RTVSPropertyOp22
 70
     1
102
RTVSPropertyOp23
 70
     1
102
RTVSPropertyOp24
 70
     1
102
RTVSPropertyOp25
 70
     1
102
RTVSPropertyOp26
 70
     1
102
RTVSPropertyOp27
 70
     1
102
RTVSPropertyOp28
 70
     1
102
RTVSPropertyOp29
 70
     1
102
RTVSPropertyOp30
 70
     1
102
RTVSPropertyOp31
 70
     1
102
RTVSPropertyOp32
 70
     1
102
RTVSPropertyOp33
 70
     1
102
RTVSPropertyOp34
 70
     1
102
RTVSPropertyOp35
 70
     1
102
RTVSPropertyOp36
 70
     1
102
RTVSPropertyOp37
 70
     1
102
RTVSPropertyOp38
 70
     1
102
RTVSPropertyOp39
 70
     1
102
RTVSPropertyOp40
 70
     1
102
RTVSPropertyOp41
 70
     1
102
RTVSPropertyOp42
 70
     1
102
RTVSPropertyOp43
 70
     1
102
RTVSPropertyOp44
 70
     1
102
RTVSPropertyOp45
 70
     1
102
RTVSPropertyOp46
 70
     1
102
RTVSPropertyOp47
 70
     1
102
RTVSPropertyOp48
 70
     1
102
RTVSPropertyOp49
 70
     1
102
RTVSPropertyOp50
 70
     1
102
RTVSPropertyOp51
 70
     0
102
RTVSPropertyOp52
 70
     0
102
RTVSPropertyOp53
 70
     1
102
RTVSPropertyOp54
 70
     1
102
RTVSPropertyOp55
 70
     1
102
RTVSPropertyOp56
 70
     1
102
RTVSPropertyOp57
 70
     1
102
RTVSPropertyOp58
 70
     1
102
RTVSPropertyOp59
 70
     1
102
RTVSPropertyOp60
 70
     1
102
RTVSPropertyOp61
 70
     1
102
RTVSPropertyOp62
 70
     1
  0
XRECORD
  5
37A
102
{ACAD_REACTORS
330
379
102
}
330
379
100
AcDbXrecord
280
     1
102
RTVSPost2010Prop28
280
     0
102
RTVSPost2010PropOp28
 70
     1
102
RTVSPost2010Prop29
280
     1
102
RTVSPost2010PropOp29
 70
     1
102
RTVSPost2010Prop30
280
     1
102
RTVSPost2010PropOp30
 70
     1
102
RTVSPost2010Prop31
280
     0
102
RTVSPost2010PropOp31
 70
     1
102
RTVSPost2010Prop32
280
     0
102
RTVSPost2010PropOp32
 70
     1
102
RTVSPost2010Prop33
280
     0
102
RTVSPost2010PropOp33
 70
     1
102
RTVSPost2010Prop34
280
     0
102
RTVSPost2010PropOp34
 70
     1
102
RTVSPost2010Prop35
280
     0
102
RTVSPost2010PropOp35
 70
     1
102
RTVSPost2010Prop36
280
     0
102
RTVSPost2010PropOp36
 70
     1
102
RTVSPost2010Prop37
 90
       50
102
RTVSPost2010PropOp37
 70
     1
102
RTVSPost2010Prop38
140
0.0
102
RTVSPost2010PropOp38
 70
     1
102
RTVSPost2010Prop39
140
1.0
102
RTVSPost2010PropOp39
 70
     1
102
RTVSPost2010Prop40
 90
        0
102
RTVSPost2010PropOp40
 70
     1
102
RTVSPost2010Prop41ColorIndex
 90
       18
102
RTVSPost2010Prop41ColorRGB
 90
        0
102
RTVSPost2010PropOp41
 70
     1
102
RTVSPost2010Prop42
 90
       50
102
RTVSPost2010PropOp42
 70
     1
102
RTVSPost2010Prop43
 90
        3
102
RTVSPost2010PropOp43
 70
     1
102
RTVSPost2010Prop44ColorIndex
 90
        5
102
RTVSPost2010Prop44ColorRGB
 90
      255
102
RTVSPost2010PropOp44
 70
     1
102
RTVSPost2010Prop45
280
     0
102
RTVSPost2010PropOp45
 70
     1
102
RTVSPost2010Prop46
 90
       50
102
RTVSPost2010PropOp46
 70
     1
102
RTVSPost2010Prop47
 90
       50
102
RTVSPost2010PropOp47
 70
     1
102
RTVSPost2010Prop48
 90
       50
102
RTVSPost2010PropOp48
 70
     1
102
RTVSPost2010Prop49
280
     0
102
RTVSPost2010PropOp49
 70
     1
102
RTVSPost2010Prop50
 90
       50
102
RTVSPost2010PropOp50
 70
     1
102
RTVSPost2010Prop51ColorIndex
 90
      256
102
RTVSPost2010Prop51ColorRGB
 90
-16777216
102
RTVSPost2010PropOp51
 70
     0
102
RTVSPost2010Prop52
140
1.0
102
RTVSPost2010PropOp52
 70
     0
102
RTVSPost2010Prop53
 90
        2
102
RTVSPost2010PropOp53
 70
     1
102
RTVSPost2010Prop54
  1
strokes_ogs.tif
102
RTVSPost2010PropOp54
 70
     1
102
RTVSPost2010Prop55
280
     0
102
RTVSPost2010PropOp55
 70
     1
102
RTVSPost2010Prop56
140
1.0
102
RTVSPost2010PropOp56
 70
     1
102
RTVSPost2010Prop57
140
1.0
102
RTVSPost2010PropOp57
 70
     1
102
RTVSPropertyOp0
 70
     1
102
RTVSPropertyOp1
 70
     1
102
RTVSPropertyOp2
 70
     1
102
RTVSPropertyOp3
 70
     1
102
RTVSPropertyOp4
 70
     1
102
RTVSPropertyOp5
 70
     1
102
RTVSPropertyOp6
 70
     1
102
RTVSPropertyOp7
 70
     1
102
RTVSPropertyOp8
 70
     1
102
RTVSPropertyOp9
 70
     1
102
RTVSPropertyOp10
 70
     1
102
RTVSPropertyOp11
 70
     1
102
RTVSPropertyOp12
 70
     1
102
RTVSPropertyOp13
 70
     1
102
RTVSPropertyOp14
 70
     1
102
RTVSPropertyOp15
 70
     1
102
RTVSPropertyOp16
 70
     1
102
RTVSPropertyOp17
 70
     1
102
RTVSPropertyOp18
 70
     1
102
RTVSPropertyOp19
 70
     1
102
RTVSPropertyOp20
 70
     1
102
RTVSPropertyOp21
 70
     1
102
RTVSPropertyOp22
 70
     1
102
RTVSPropertyOp23
 70
     1
102
RTVSPropertyOp24
 70
     1
102
RTVSPropertyOp25
 70
     1
102
RTVSPropertyOp26
 70
     1
102
RTVSPropertyOp27
 70
     1
102
RTVSPropertyOp28
 70
     1
102
RTVSPropertyOp29
 70
     1
102
RTVSPropertyOp30
 70
     1
102
RTVSPropertyOp31
 70
     1
102
RTVSPropertyOp32
 70
     1
102
RTVSPropertyOp33
 70
     1
102
RTVSPropertyOp34
 70
     1
102
RTVSPropertyOp35
 70
     1
102
RTVSPropertyOp36
 70
     1
102
RTVSPropertyOp37
 70
     1
102
RTVSPropertyOp38
 70
     1
102
RTVSPropertyOp39
 70
     1
102
RTVSPropertyOp40
 70
     1
102
RTVSPropertyOp41
 70
     1
102
RTVSPropertyOp42
 70
     1
102
RTVSPropertyOp43
 70
     1
102
RTVSPropertyOp44
 70
     1
102
RTVSPropertyOp45
 70
     1
102
RTVSPropertyOp46
 70
     1
102
RTVSPropertyOp47
 70
     1
102
RTVSPropertyOp48
 70
     1
102
RTVSPropertyOp49
 70
     1
102
RTVSPropertyOp50
 70
     1
102
RTVSPropertyOp51
 70
     0
102
RTVSPropertyOp52
 70
     0
102
RTVSPropertyOp53
 70
     1
102
RTVSPropertyOp54
 70
     1
102
RTVSPropertyOp55
 70
     1
102
RTVSPropertyOp56
 70
     1
102
RTVSPropertyOp57
 70
     1
102
RTVSPropertyOp58
 70
     1
102
RTVSPropertyOp59
 70
     1
102
RTVSPropertyOp60
 70
     1
102
RTVSPropertyOp61
 70
     1
102
RTVSPropertyOp62
 70
     1
  0
XRECORD
  5
37C
102
{ACAD_REACTORS
330
37B
102
}
330
37B
100
AcDbXrecord
280
     1
102
RTVSPost2010Prop28
280
     0
102
RTVSPost2010PropOp28
 70
     1
102
RTVSPost2010Prop29
280
     1
102
RTVSPost2010PropOp29
 70
     1
102
RTVSPost2010Prop30
280
     1
102
RTVSPost2010PropOp30
 70
     1
102
RTVSPost2010Prop31
280
     0
102
RTVSPost2010PropOp31
 70
     1
102
RTVSPost2010Prop32
280
     0
102
RTVSPost2010PropOp32
 70
     1
102
RTVSPost2010Prop33
280
     0
102
RTVSPost2010PropOp33
 70
     1
102
RTVSPost2010Prop34
280
     0
102
RTVSPost2010PropOp34
 70
     1
102
RTVSPost2010Prop35
280
     0
102
RTVSPost2010PropOp35
 70
     1
102
RTVSPost2010Prop36
280
     0
102
RTVSPost2010PropOp36
 70
     1
102
RTVSPost2010Prop37
 90
       50
102
RTVSPost2010PropOp37
 70
     1
102
RTVSPost2010Prop38
140
0.0
102
RTVSPost2010PropOp38
 70
     1
102
RTVSPost2010Prop39
140
1.0
102
RTVSPost2010PropOp39
 70
     1
102
RTVSPost2010Prop40
 90
        0
102
RTVSPost2010PropOp40
 70
     1
102
RTVSPost2010Prop41ColorIndex
 90
       18
102
RTVSPost2010Prop41ColorRGB
 90
        0
102
RTVSPost2010PropOp41
 70
     1
102
RTVSPost2010Prop42
 90
       50
102
RTVSPost2010PropOp42
 70
     1
102
RTVSPost2010Prop43
 90
        3
102
RTVSPost2010PropOp43
 70
     1
102
RTVSPost2010Prop44ColorIndex
 90
        5
102
RTVSPost2010Prop44ColorRGB
 90
      255
102
RTVSPost2010PropOp44
 70
     1
102
RTVSPost2010Prop45
280
     0
102
RTVSPost2010PropOp45
 70
     1
102
RTVSPost2010Prop46
 90
       50
102
RTVSPost2010PropOp46
 70
     1
102
RTVSPost2010Prop47
 90
       50
102
RTVSPost2010PropOp47
 70
     1
102
RTVSPost2010Prop48
 90
       50
102
RTVSPost2010PropOp48
 70
     1
102
RTVSPost2010Prop49
280
     0
102
RTVSPost2010PropOp49
 70
     1
102
RTVSPost2010Prop50
 90
       50
102
RTVSPost2010PropOp50
 70
     1
102
RTVSPost2010Prop51ColorIndex
 90
      256
102
RTVSPost2010Prop51ColorRGB
 90
-16777216
102
RTVSPost2010PropOp51
 70
     0
102
RTVSPost2010Prop52
140
1.0
102
RTVSPost2010PropOp52
 70
     0
102
RTVSPost2010Prop53
 90
        2
102
RTVSPost2010PropOp53
 70
     1
102
RTVSPost2010Prop54
  1
strokes_ogs.tif
102
RTVSPost2010PropOp54
 70
     1
102
RTVSPost2010Prop55
280
     0
102
RTVSPost2010PropOp55
 70
     1
102
RTVSPost2010Prop56
140
1.0
102
RTVSPost2010PropOp56
 70
     1
102
RTVSPost2010Prop57
140
1.0
102
RTVSPost2010PropOp57
 70
     1
102
RTVSPropertyOp0
 70
     1
102
RTVSPropertyOp1
 70
     1
102
RTVSPropertyOp2
 70
     1
102
RTVSPropertyOp3
 70
     1
102
RTVSPropertyOp4
 70
     1
102
RTVSPropertyOp5
 70
     1
102
RTVSPropertyOp6
 70
     1
102
RTVSPropertyOp7
 70
     1
102
RTVSPropertyOp8
 70
     1
102
RTVSPropertyOp9
 70
     1
102
RTVSPropertyOp10
 70
     1
102
RTVSPropertyOp11
 70
     1
102
RTVSPropertyOp12
 70
     1
102
RTVSPropertyOp13
 70
     1
102
RTVSPropertyOp14
 70
     1
102
RTVSPropertyOp15
 70
     1
102
RTVSPropertyOp16
 70
     1
102
RTVSPropertyOp17
 70
     1
102
RTVSPropertyOp18
 70
     1
102
RTVSPropertyOp19
 70
     1
102
RTVSPropertyOp20
 70
     1
102
RTVSPropertyOp21
 70
     1
102
RTVSPropertyOp22
 70
     1
102
RTVSPropertyOp23
 70
     1
102
RTVSPropertyOp24
 70
     1
102
RTVSPropertyOp25
 70
     1
102
RTVSPropertyOp26
 70
     1
102
RTVSPropertyOp27
 70
     1
102
RTVSPropertyOp28
 70
     1
102
RTVSPropertyOp29
 70
     1
102
RTVSPropertyOp30
 70
     1
102
RTVSPropertyOp31
 70
     1
102
RTVSPropertyOp32
 70
     1
102
RTVSPropertyOp33
 70
     1
102
RTVSPropertyOp34
 70
     1
102
RTVSPropertyOp35
 70
     1
102
RTVSPropertyOp36
 70
     1
102
RTVSPropertyOp37
 70
     1
102
RTVSPropertyOp38
 70
     1
102
RTVSPropertyOp39
 70
     1
102
RTVSPropertyOp40
 70
     1
102
RTVSPropertyOp41
 70
     1
102
RTVSPropertyOp42
 70
     1
102
RTVSPropertyOp43
 70
     1
102
RTVSPropertyOp44
 70
     1
102
RTVSPropertyOp45
 70
     1
102
RTVSPropertyOp46
 70
     1
102
RTVSPropertyOp47
 70
     1
102
RTVSPropertyOp48
 70
     1
102
RTVSPropertyOp49
 70
     1
102
RTVSPropertyOp50
 70
     1
102
RTVSPropertyOp51
 70
     0
102
RTVSPropertyOp52
 70
     0
102
RTVSPropertyOp53
 70
     1
102
RTVSPropertyOp54
 70
     1
102
RTVSPropertyOp55
 70
     1
102
RTVSPropertyOp56
 70
     1
102
RTVSPropertyOp57
 70
     1
102
RTVSPropertyOp58
 70
     1
102
RTVSPropertyOp59
 70
     1
102
RTVSPropertyOp60
 70
     1
102
RTVSPropertyOp61
 70
     1
102
RTVSPropertyOp62
 70
     1
  0
XRECORD
  5
37E
102
{ACAD_REACTORS
330
37D
102
}
330
37D
100
AcDbXrecord
280
     1
102
RTVSPost2010Prop28
280
     0
102
RTVSPost2010PropOp28
 70
     1
102
RTVSPost2010Prop29
280
     1
102
RTVSPost2010PropOp29
 70
     1
102
RTVSPost2010Prop30
280
     1
102
RTVSPost2010PropOp30
 70
     1
102
RTVSPost2010Prop31
280
     0
102
RTVSPost2010PropOp31
 70
     1
102
RTVSPost2010Prop32
280
     0
102
RTVSPost2010PropOp32
 70
     1
102
RTVSPost2010Prop33
280
     0
102
RTVSPost2010PropOp33
 70
     1
102
RTVSPost2010Prop34
280
     0
102
RTVSPost2010PropOp34
 70
     1
102
RTVSPost2010Prop35
280
     0
102
RTVSPost2010PropOp35
 70
     1
102
RTVSPost2010Prop36
280
     0
102
RTVSPost2010PropOp36
 70
     1
102
RTVSPost2010Prop37
 90
       50
102
RTVSPost2010PropOp37
 70
     1
102
RTVSPost2010Prop38
140
0.0
102
RTVSPost2010PropOp38
 70
     1
102
RTVSPost2010Prop39
140
1.0
102
RTVSPost2010PropOp39
 70
     1
102
RTVSPost2010Prop40
 90
        0
102
RTVSPost2010PropOp40
 70
     1
102
RTVSPost2010Prop41ColorIndex
 90
       18
102
RTVSPost2010Prop41ColorRGB
 90
        0
102
RTVSPost2010PropOp41
 70
     1
102
RTVSPost2010Prop42
 90
       50
102
RTVSPost2010PropOp42
 70
     1
102
RTVSPost2010Prop43
 90
        3
102
RTVSPost2010PropOp43
 70
     1
102
RTVSPost2010Prop44ColorIndex
 90
        5
102
RTVSPost2010Prop44ColorRGB
 90
      255
102
RTVSPost2010PropOp44
 70
     1
102
RTVSPost2010Prop45
280
     0
102
RTVSPost2010PropOp45
 70
     1
102
RTVSPost2010Prop46
 90
       50
102
RTVSPost2010PropOp46
 70
     1
102
RTVSPost2010Prop47
 90
       50
102
RTVSPost2010PropOp47
 70
     1
102
RTVSPost2010Prop48
 90
       50
102
RTVSPost2010PropOp48
 70
     1
102
RTVSPost2010Prop49
280
     0
102
RTVSPost2010PropOp49
 70
     1
102
RTVSPost2010Prop50
 90
       50
102
RTVSPost2010PropOp50
 70
     1
102
RTVSPost2010Prop51ColorIndex
 90
      256
102
RTVSPost2010Prop51ColorRGB
 90
-16777216
102
RTVSPost2010PropOp51
 70
     0
102
RTVSPost2010Prop52
140
1.0
102
RTVSPost2010PropOp52
 70
     0
102
RTVSPost2010Prop53
 90
        2
102
RTVSPost2010PropOp53
 70
     1
102
RTVSPost2010Prop54
  1
strokes_ogs.tif
102
RTVSPost2010PropOp54
 70
     1
102
RTVSPost2010Prop55
280
     0
102
RTVSPost2010PropOp55
 70
     1
102
RTVSPost2010Prop56
140
1.0
102
RTVSPost2010PropOp56
 70
     1
102
RTVSPost2010Prop57
140
1.0
102
RTVSPost2010PropOp57
 70
     1
102
RTVSPropertyOp0
 70
     1
102
RTVSPropertyOp1
 70
     1
102
RTVSPropertyOp2
 70
     1
102
RTVSPropertyOp3
 70
     1
102
RTVSPropertyOp4
 70
     1
102
RTVSPropertyOp5
 70
     1
102
RTVSPropertyOp6
 70
     1
102
RTVSPropertyOp7
 70
     1
102
RTVSPropertyOp8
 70
     1
102
RTVSPropertyOp9
 70
     1
102
RTVSPropertyOp10
 70
     1
102
RTVSPropertyOp11
 70
     1
102
RTVSPropertyOp12
 70
     1
102
RTVSPropertyOp13
 70
     1
102
RTVSPropertyOp14
 70
     1
102
RTVSPropertyOp15
 70
     1
102
RTVSPropertyOp16
 70
     1
102
RTVSPropertyOp17
 70
     1
102
RTVSPropertyOp18
 70
     1
102
RTVSPropertyOp19
 70
     1
102
RTVSPropertyOp20
 70
     1
102
RTVSPropertyOp21
 70
     1
102
RTVSPropertyOp22
 70
     1
102
RTVSPropertyOp23
 70
     1
102
RTVSPropertyOp24
 70
     1
102
RTVSPropertyOp25
 70
     1
102
RTVSPropertyOp26
 70
     1
102
RTVSPropertyOp27
 70
     1
102
RTVSPropertyOp28
 70
     1
102
RTVSPropertyOp29
 70
     1
102
RTVSPropertyOp30
 70
     1
102
RTVSPropertyOp31
 70
     1
102
RTVSPropertyOp32
 70
     1
102
RTVSPropertyOp33
 70
     1
102
RTVSPropertyOp34
 70
     1
102
RTVSPropertyOp35
 70
     1
102
RTVSPropertyOp36
 70
     1
102
RTVSPropertyOp37
 70
     1
102
RTVSPropertyOp38
 70
     1
102
RTVSPropertyOp39
 70
     1
102
RTVSPropertyOp40
 70
     1
102
RTVSPropertyOp41
 70
     1
102
RTVSPropertyOp42
 70
     1
102
RTVSPropertyOp43
 70
     1
102
RTVSPropertyOp44
 70
     1
102
RTVSPropertyOp45
 70
     1
102
RTVSPropertyOp46
 70
     1
102
RTVSPropertyOp47
 70
     1
102
RTVSPropertyOp48
 70
     1
102
RTVSPropertyOp49
 70
     1
102
RTVSPropertyOp50
 70
     1
102
RTVSPropertyOp51
 70
     0
102
RTVSPropertyOp52
 70
     0
102
RTVSPropertyOp53
 70
     1
102
RTVSPropertyOp54
 70
     1
102
RTVSPropertyOp55
 70
     1
102
RTVSPropertyOp56
 70
     1
102
RTVSPropertyOp57
 70
     1
102
RTVSPropertyOp58
 70
     1
102
RTVSPropertyOp59
 70
     1
102
RTVSPropertyOp60
 70
     1
102
RTVSPropertyOp61
 70
     1
102
RTVSPropertyOp62
 70
     1
  0
XRECORD
  5
384
102
{ACAD_REACTORS
330
383
102
}
330
383
100
AcDbXrecord
280
     1
102
RTVSPost2010Prop28
280
     0
102
RTVSPost2010PropOp28
 70
     1
102
RTVSPost2010Prop29
280
     1
102
RTVSPost2010PropOp29
 70
     1
102
RTVSPost2010Prop30
280
     1
102
RTVSPost2010PropOp30
 70
     1
102
RTVSPost2010Prop31
280
     0
102
RTVSPost2010PropOp31
 70
     1
102
RTVSPost2010Prop32
280
     0
102
RTVSPost2010PropOp32
 70
     1
102
RTVSPost2010Prop33
280
     0
102
RTVSPost2010PropOp33
 70
     1
102
RTVSPost2010Prop34
280
     0
102
RTVSPost2010PropOp34
 70
     1
102
RTVSPost2010Prop35
280
     0
102
RTVSPost2010PropOp35
 70
     1
102
RTVSPost2010Prop36
280
     0
102
RTVSPost2010PropOp36
 70
     1
102
RTVSPost2010Prop37
 90
       50
102
RTVSPost2010PropOp37
 70
     1
102
RTVSPost2010Prop38
140
0.0
102
RTVSPost2010PropOp38
 70
     1
102
RTVSPost2010Prop39
140
1.0
102
RTVSPost2010PropOp39
 70
     1
102
RTVSPost2010Prop40
 90
        0
102
RTVSPost2010PropOp40
 70
     1
102
RTVSPost2010Prop41ColorIndex
 90
       18
102
RTVSPost2010Prop41ColorRGB
 90
        0
102
RTVSPost2010PropOp41
 70
     1
102
RTVSPost2010Prop42
 90
       50
102
RTVSPost2010PropOp42
 70
     1
102
RTVSPost2010Prop43
 90
        3
102
RTVSPost2010PropOp43
 70
     1
102
RTVSPost2010Prop44ColorIndex
 90
        5
102
RTVSPost2010Prop44ColorRGB
 90
      255
102
RTVSPost2010PropOp44
 70
     1
102
RTVSPost2010Prop45
280
     0
102
RTVSPost2010PropOp45
 70
     1
102
RTVSPost2010Prop46
 90
       50
102
RTVSPost2010PropOp46
 70
     1
102
RTVSPost2010Prop47
 90
       50
102
RTVSPost2010PropOp47
 70
     1
102
RTVSPost2010Prop48
 90
       50
102
RTVSPost2010PropOp48
 70
     1
102
RTVSPost2010Prop49
280
     0
102
RTVSPost2010PropOp49
 70
     1
102
RTVSPost2010Prop50
 90
       50
102
RTVSPost2010PropOp50
 70
     1
102
RTVSPost2010Prop51ColorIndex
 90
      256
102
RTVSPost2010Prop51ColorRGB
 90
-16777216
102
RTVSPost2010PropOp51
 70
     0
102
RTVSPost2010Prop52
140
1.0
102
RTVSPost2010PropOp52
 70
     0
102
RTVSPost2010Prop53
 90
        2
102
RTVSPost2010PropOp53
 70
     1
102
RTVSPost2010Prop54
  1
strokes_ogs.tif
102
RTVSPost2010PropOp54
 70
     1
102
RTVSPost2010Prop55
280
     0
102
RTVSPost2010PropOp55
 70
     1
102
RTVSPost2010Prop56
140
1.0
102
RTVSPost2010PropOp56
 70
     1
102
RTVSPost2010Prop57
140
1.0
102
RTVSPost2010PropOp57
 70
     1
102
RTVSPropertyOp0
 70
     1
102
RTVSPropertyOp1
 70
     1
102
RTVSPropertyOp2
 70
     1
102
RTVSPropertyOp3
 70
     1
102
RTVSPropertyOp4
 70
     1
102
RTVSPropertyOp5
 70
     1
102
RTVSPropertyOp6
 70
     1
102
RTVSPropertyOp7
 70
     1
102
RTVSPropertyOp8
 70
     1
102
RTVSPropertyOp9
 70
     1
102
RTVSPropertyOp10
 70
     1
102
RTVSPropertyOp11
 70
     1
102
RTVSPropertyOp12
 70
     1
102
RTVSPropertyOp13
 70
     1
102
RTVSPropertyOp14
 70
     1
102
RTVSPropertyOp15
 70
     1
102
RTVSPropertyOp16
 70
     1
102
RTVSPropertyOp17
 70
     1
102
RTVSPropertyOp18
 70
     1
102
RTVSPropertyOp19
 70
     1
102
RTVSPropertyOp20
 70
     1
102
RTVSPropertyOp21
 70
     1
102
RTVSPropertyOp22
 70
     1
102
RTVSPropertyOp23
 70
     1
102
RTVSPropertyOp24
 70
     1
102
RTVSPropertyOp25
 70
     1
102
RTVSPropertyOp26
 70
     1
102
RTVSPropertyOp27
 70
     1
102
RTVSPropertyOp28
 70
     1
102
RTVSPropertyOp29
 70
     1
102
RTVSPropertyOp30
 70
     1
102
RTVSPropertyOp31
 70
     1
102
RTVSPropertyOp32
 70
     1
102
RTVSPropertyOp33
 70
     1
102
RTVSPropertyOp34
 70
     1
102
RTVSPropertyOp35
 70
     1
102
RTVSPropertyOp36
 70
     1
102
RTVSPropertyOp37
 70
     1
102
RTVSPropertyOp38
 70
     1
102
RTVSPropertyOp39
 70
     1
102
RTVSPropertyOp40
 70
     1
102
RTVSPropertyOp41
 70
     1
102
RTVSPropertyOp42
 70
     1
102
RTVSPropertyOp43
 70
     1
102
RTVSPropertyOp44
 70
     1
102
RTVSPropertyOp45
 70
     1
102
RTVSPropertyOp46
 70
     1
102
RTVSPropertyOp47
 70
     1
102
RTVSPropertyOp48
 70
     1
102
RTVSPropertyOp49
 70
     1
102
RTVSPropertyOp50
 70
     1
102
RTVSPropertyOp51
 70
     0
102
RTVSPropertyOp52
 70
     0
102
RTVSPropertyOp53
 70
     1
102
RTVSPropertyOp54
 70
     1
102
RTVSPropertyOp55
 70
     1
102
RTVSPropertyOp56
 70
     1
102
RTVSPropertyOp57
 70
     1
102
RTVSPropertyOp58
 70
     1
102
RTVSPropertyOp59
 70
     1
102
RTVSPropertyOp60
 70
     1
102
RTVSPropertyOp61
 70
     1
102
RTVSPropertyOp62
 70
     1
  0
XRECORD
  5
398
102
{ACAD_REACTORS
330
397
102
}
330
397
100
AcDbXrecord
280
     1
102
RTVSPost2010Prop28
280
     0
102
RTVSPost2010PropOp28
 70
     0
102
RTVSPost2010Prop29
280
     1
102
RTVSPost2010PropOp29
 70
     0
102
RTVSPost2010Prop30
280
     1
102
RTVSPost2010PropOp30
 70
     0
102
RTVSPost2010Prop31
280
     0
102
RTVSPost2010PropOp31
 70
     0
102
RTVSPost2010Prop32
280
     0
102
RTVSPost2010PropOp32
 70
     0
102
RTVSPost2010Prop33
280
     0
102
RTVSPost2010PropOp33
 70
     0
102
RTVSPost2010Prop34
280
     0
102
RTVSPost2010PropOp34
 70
     0
102
RTVSPost2010Prop35
280
     0
102
RTVSPost2010PropOp35
 70
     0
102
RTVSPost2010Prop36
280
     0
102
RTVSPost2010PropOp36
 70
     0
102
RTVSPost2010Prop37
 90
       50
102
RTVSPost2010PropOp37
 70
     0
102
RTVSPost2010Prop38
140
0.0
102
RTVSPost2010PropOp38
 70
     0
102
RTVSPost2010Prop39
140
1.0
102
RTVSPost2010PropOp39
 70
     0
102
RTVSPost2010Prop40
 90
        0
102
RTVSPost2010PropOp40
 70
     0
102
RTVSPost2010Prop41ColorIndex
 90
       18
102
RTVSPost2010Prop41ColorRGB
 90
        0
102
RTVSPost2010PropOp41
 70
     0
102
RTVSPost2010Prop42
 90
       50
102
RTVSPost2010PropOp42
 70
     0
102
RTVSPost2010Prop43
 90
        3
102
RTVSPost2010PropOp43
 70
     0
102
RTVSPost2010Prop44ColorIndex
 90
        5
102
RTVSPost2010Prop44ColorRGB
 90
      255
102
RTVSPost2010PropOp44
 70
     0
102
RTVSPost2010Prop45
280
     0
102
RTVSPost2010PropOp45
 70
     0
102
RTVSPost2010Prop46
 90
       50
102
RTVSPost2010PropOp46
 70
     0
102
RTVSPost2010Prop47
 90
       50
102
RTVSPost2010PropOp47
 70
     0
102
RTVSPost2010Prop48
 90
       50
102
RTVSPost2010PropOp48
 70
     0
102
RTVSPost2010Prop49
280
     0
102
RTVSPost2010PropOp49
 70
     0
102
RTVSPost2010Prop50
 90
       50
102
RTVSPost2010PropOp50
 70
     0
102
RTVSPost2010Prop51ColorIndex
 90
      256
102
RTVSPost2010Prop51ColorRGB
 90
-16777216
102
RTVSPost2010PropOp51
 70
     0
102
RTVSPost2010Prop52
140
1.0
102
RTVSPost2010PropOp52
 70
     0
102
RTVSPost2010Prop53
 90
        2
102
RTVSPost2010PropOp53
 70
     0
102
RTVSPost2010Prop54
  1
strokes_ogs.tif
102
RTVSPost2010PropOp54
 70
     0
102
RTVSPost2010Prop55
280
     0
102
RTVSPost2010PropOp55
 70
     0
102
RTVSPost2010Prop56
140
1.0
102
RTVSPost2010PropOp56
 70
     0
102
RTVSPost2010Prop57
140
1.0
102
RTVSPost2010PropOp57
 70
     0
102
RTVSPropertyOp0
 70
     0
102
RTVSPropertyOp1
 70
     0
102
RTVSPropertyOp2
 70
     0
102
RTVSPropertyOp3
 70
     0
102
RTVSPropertyOp4
 70
     0
102
RTVSPropertyOp5
 70
     0
102
RTVSPropertyOp6
 70
     0
102
RTVSPropertyOp7
 70
     0
102
RTVSPropertyOp8
 70
     0
102
RTVSPropertyOp9
 70
     0
102
RTVSPropertyOp10
 70
     0
102
RTVSPropertyOp11
 70
     0
102
RTVSPropertyOp12
 70
     0
102
RTVSPropertyOp13
 70
     0
102
RTVSPropertyOp14
 70
     2
102
RTVSPropertyOp15
 70
     0
102
RTVSPropertyOp16
 70
     0
102
RTVSPropertyOp17
 70
     0
102
RTVSPropertyOp18
 70
     0
102
RTVSPropertyOp19
 70
     0
102
RTVSPropertyOp20
 70
     0
102
RTVSPropertyOp21
 70
     0
102
RTVSPropertyOp22
 70
     0
102
RTVSPropertyOp23
 70
     0
102
RTVSPropertyOp24
 70
     0
102
RTVSPropertyOp25
 70
     0
102
RTVSPropertyOp26
 70
     0
102
RTVSPropertyOp27
 70
     0
102
RTVSPropertyOp28
 70
     0
102
RTVSPropertyOp29
 70
     0
102
RTVSPropertyOp30
 70
     0
102
RTVSPropertyOp31
 70
     0
102
RTVSPropertyOp32
 70
     0
102
RTVSPropertyOp33
 70
     0
102
RTVSPropertyOp34
 70
     0
102
RTVSPropertyOp35
 70
     0
102
RTVSPropertyOp36
 70
     0
102
RTVSPropertyOp37
 70
     0
102
RTVSPropertyOp38
 70
     0
102
RTVSPropertyOp39
 70
     0
102
RTVSPropertyOp40
 70
     0
102
RTVSPropertyOp41
 70
     0
102
RTVSPropertyOp42
 70
     0
102
RTVSPropertyOp43
 70
     0
102
RTVSPropertyOp44
 70
     0
102
RTVSPropertyOp45
 70
     0
102
RTVSPropertyOp46
 70
     0
102
RTVSPropertyOp47
 70
     0
102
RTVSPropertyOp48
 70
     0
102
RTVSPropertyOp49
 70
     0
102
RTVSPropertyOp50
 70
     0
102
RTVSPropertyOp51
 70
     0
102
RTVSPropertyOp52
 70
     0
102
RTVSPropertyOp53
 70
     0
102
RTVSPropertyOp54
 70
     0
102
RTVSPropertyOp55
 70
     0
102
RTVSPropertyOp56
 70
     0
102
RTVSPropertyOp57
 70
     0
102
RTVSPropertyOp58
 70
     1
102
RTVSPropertyOp59
 70
     1
102
RTVSPropertyOp60
 70
     1
102
RTVSPropertyOp61
 70
     1
102
RTVSPropertyOp62
 70
     1
  0
XRECORD
  5
392
102
{ACAD_REACTORS
330
391
102
}
330
391
100
AcDbXrecord
280
     1
102
RTVSPost2010Prop28
280
     0
102
RTVSPost2010PropOp28
 70
     1
102
RTVSPost2010Prop29
280
     1
102
RTVSPost2010PropOp29
 70
     1
102
RTVSPost2010Prop30
280
     1
102
RTVSPost2010PropOp30
 70
     1
102
RTVSPost2010Prop31
280
     0
102
RTVSPost2010PropOp31
 70
     1
102
RTVSPost2010Prop32
280
     0
102
RTVSPost2010PropOp32
 70
     1
102
RTVSPost2010Prop33
280
     0
102
RTVSPost2010PropOp33
 70
     1
102
RTVSPost2010Prop34
280
     0
102
RTVSPost2010PropOp34
 70
     1
102
RTVSPost2010Prop35
280
     0
102
RTVSPost2010PropOp35
 70
     1
102
RTVSPost2010Prop36
280
     0
102
RTVSPost2010PropOp36
 70
     1
102
RTVSPost2010Prop37
 90
       50
102
RTVSPost2010PropOp37
 70
     1
102
RTVSPost2010Prop38
140
0.0
102
RTVSPost2010PropOp38
 70
     1
102
RTVSPost2010Prop39
140
1.0
102
RTVSPost2010PropOp39
 70
     1
102
RTVSPost2010Prop40
 90
        0
102
RTVSPost2010PropOp40
 70
     1
102
RTVSPost2010Prop41ColorIndex
 90
       18
102
RTVSPost2010Prop41ColorRGB
 90
        0
102
RTVSPost2010PropOp41
 70
     1
102
RTVSPost2010Prop42
 90
       50
102
RTVSPost2010PropOp42
 70
     1
102
RTVSPost2010Prop43
 90
        3
102
RTVSPost2010PropOp43
 70
     1
102
RTVSPost2010Prop44ColorIndex
 90
        5
102
RTVSPost2010Prop44ColorRGB
 90
      255
102
RTVSPost2010PropOp44
 70
     1
102
RTVSPost2010Prop45
280
     0
102
RTVSPost2010PropOp45
 70
     1
102
RTVSPost2010Prop46
 90
       50
102
RTVSPost2010PropOp46
 70
     1
102
RTVSPost2010Prop47
 90
       50
102
RTVSPost2010PropOp47
 70
     1
102
RTVSPost2010Prop48
 90
       50
102
RTVSPost2010PropOp48
 70
     1
102
RTVSPost2010Prop49
280
     0
102
RTVSPost2010PropOp49
 70
     1
102
RTVSPost2010Prop50
 90
       50
102
RTVSPost2010PropOp50
 70
     1
102
RTVSPost2010Prop51ColorIndex
 90
      256
102
RTVSPost2010Prop51ColorRGB
 90
-16777216
102
RTVSPost2010PropOp51
 70
     0
102
RTVSPost2010Prop52
140
1.0
102
RTVSPost2010PropOp52
 70
     0
102
RTVSPost2010Prop53
 90
        2
102
RTVSPost2010PropOp53
 70
     1
102
RTVSPost2010Prop54
  1
strokes_ogs.tif
102
RTVSPost2010PropOp54
 70
     1
102
RTVSPost2010Prop55
280
     0
102
RTVSPost2010PropOp55
 70
     1
102
RTVSPost2010Prop56
140
1.0
102
RTVSPost2010PropOp56
 70
     1
102
RTVSPost2010Prop57
140
1.0
102
RTVSPost2010PropOp57
 70
     1
102
RTVSPropertyOp0
 70
     1
102
RTVSPropertyOp1
 70
     1
102
RTVSPropertyOp2
 70
     1
102
RTVSPropertyOp3
 70
     1
102
RTVSPropertyOp4
 70
     1
102
RTVSPropertyOp5
 70
     1
102
RTVSPropertyOp6
 70
     1
102
RTVSPropertyOp7
 70
     1
102
RTVSPropertyOp8
 70
     1
102
RTVSPropertyOp9
 70
     1
102
RTVSPropertyOp10
 70
     1
102
RTVSPropertyOp11
 70
     1
102
RTVSPropertyOp12
 70
     1
102
RTVSPropertyOp13
 70
     1
102
RTVSPropertyOp14
 70
     1
102
RTVSPropertyOp15
 70
     1
102
RTVSPropertyOp16
 70
     1
102
RTVSPropertyOp17
 70
     1
102
RTVSPropertyOp18
 70
     1
102
RTVSPropertyOp19
 70
     1
102
RTVSPropertyOp20
 70
     1
102
RTVSPropertyOp21
 70
     1
102
RTVSPropertyOp22
 70
     1
102
RTVSPropertyOp23
 70
     1
102
RTVSPropertyOp24
 70
     1
102
RTVSPropertyOp25
 70
     1
102
RTVSPropertyOp26
 70
     1
102
RTVSPropertyOp27
 70
     1
102
RTVSPropertyOp28
 70
     1
102
RTVSPropertyOp29
 70
     1
102
RTVSPropertyOp30
 70
     1
102
RTVSPropertyOp31
 70
     1
102
RTVSPropertyOp32
 70
     1
102
RTVSPropertyOp33
 70
     1
102
RTVSPropertyOp34
 70
     1
102
RTVSPropertyOp35
 70
     1
102
RTVSPropertyOp36
 70
     1
102
RTVSPropertyOp37
 70
     1
102
RTVSPropertyOp38
 70
     1
102
RTVSPropertyOp39
 70
     1
102
RTVSPropertyOp40
 70
     1
102
RTVSPropertyOp41
 70
     1
102
RTVSPropertyOp42
 70
     1
102
RTVSPropertyOp43
 70
     1
102
RTVSPropertyOp44
 70
     1
102
RTVSPropertyOp45
 70
     1
102
RTVSPropertyOp46
 70
     1
102
RTVSPropertyOp47
 70
     1
102
RTVSPropertyOp48
 70
     1
102
RTVSPropertyOp49
 70
     1
102
RTVSPropertyOp50
 70
     1
102
RTVSPropertyOp51
 70
     0
102
RTVSPropertyOp52
 70
     0
102
RTVSPropertyOp53
 70
     1
102
RTVSPropertyOp54
 70
     1
102
RTVSPropertyOp55
 70
     1
102
RTVSPropertyOp56
 70
     1
102
RTVSPropertyOp57
 70
     1
102
RTVSPropertyOp58
 70
     1
102
RTVSPropertyOp59
 70
     1
102
RTVSPropertyOp60
 70
     1
102
RTVSPropertyOp61
 70
     1
102
RTVSPropertyOp62
 70
     1
  0
XRECORD
  5
39A
102
{ACAD_REACTORS
330
399
102
}
330
399
100
AcDbXrecord
280
     1
102
RTVSPost2010Prop28
280
     0
102
RTVSPost2010PropOp28
 70
     0
102
RTVSPost2010Prop29
280
     1
102
RTVSPost2010PropOp29
 70
     0
102
RTVSPost2010Prop30
280
     1
102
RTVSPost2010PropOp30
 70
     0
102
RTVSPost2010Prop31
280
     0
102
RTVSPost2010PropOp31
 70
     0
102
RTVSPost2010Prop32
280
     0
102
RTVSPost2010PropOp32
 70
     0
102
RTVSPost2010Prop33
280
     0
102
RTVSPost2010PropOp33
 70
     0
102
RTVSPost2010Prop34
280
     0
102
RTVSPost2010PropOp34
 70
     0
102
RTVSPost2010Prop35
280
     0
102
RTVSPost2010PropOp35
 70
     0
102
RTVSPost2010Prop36
280
     0
102
RTVSPost2010PropOp36
 70
     0
102
RTVSPost2010Prop37
 90
       50
102
RTVSPost2010PropOp37
 70
     0
102
RTVSPost2010Prop38
140
0.0
102
RTVSPost2010PropOp38
 70
     0
102
RTVSPost2010Prop39
140
1.0
102
RTVSPost2010PropOp39
 70
     0
102
RTVSPost2010Prop40
 90
        0
102
RTVSPost2010PropOp40
 70
     0
102
RTVSPost2010Prop41ColorIndex
 90
       18
102
RTVSPost2010Prop41ColorRGB
 90
        0
102
RTVSPost2010PropOp41
 70
     0
102
RTVSPost2010Prop42
 90
       50
102
RTVSPost2010PropOp42
 70
     0
102
RTVSPost2010Prop43
 90
        3
102
RTVSPost2010PropOp43
 70
     0
102
RTVSPost2010Prop44ColorIndex
 90
        5
102
RTVSPost2010Prop44ColorRGB
 90
      255
102
RTVSPost2010PropOp44
 70
     0
102
RTVSPost2010Prop45
280
     0
102
RTVSPost2010PropOp45
 70
     0
102
RTVSPost2010Prop46
 90
       50
102
RTVSPost2010PropOp46
 70
     0
102
RTVSPost2010Prop47
 90
       50
102
RTVSPost2010PropOp47
 70
     0
102
RTVSPost2010Prop48
 90
       50
102
RTVSPost2010PropOp48
 70
     0
102
RTVSPost2010Prop49
280
     0
102
RTVSPost2010PropOp49
 70
     0
102
RTVSPost2010Prop50
 90
       50
102
RTVSPost2010PropOp50
 70
     0
102
RTVSPost2010Prop51ColorIndex
 90
      256
102
RTVSPost2010Prop51ColorRGB
 90
-16777216
102
RTVSPost2010PropOp51
 70
     0
102
RTVSPost2010Prop52
140
1.0
102
RTVSPost2010PropOp52
 70
     0
102
RTVSPost2010Prop53
 90
        2
102
RTVSPost2010PropOp53
 70
     0
102
RTVSPost2010Prop54
  1
strokes_ogs.tif
102
RTVSPost2010PropOp54
 70
     0
102
RTVSPost2010Prop55
280
     0
102
RTVSPost2010PropOp55
 70
     0
102
RTVSPost2010Prop56
140
1.0
102
RTVSPost2010PropOp56
 70
     0
102
RTVSPost2010Prop57
140
1.0
102
RTVSPost2010PropOp57
 70
     0
102
RTVSPropertyOp0
 70
     0
102
RTVSPropertyOp1
 70
     0
102
RTVSPropertyOp2
 70
     0
102
RTVSPropertyOp3
 70
     0
102
RTVSPropertyOp4
 70
     0
102
RTVSPropertyOp5
 70
     0
102
RTVSPropertyOp6
 70
     0
102
RTVSPropertyOp7
 70
     0
102
RTVSPropertyOp8
 70
     0
102
RTVSPropertyOp9
 70
     0
102
RTVSPropertyOp10
 70
     0
102
RTVSPropertyOp11
 70
     0
102
RTVSPropertyOp12
 70
     0
102
RTVSPropertyOp13
 70
     0
102
RTVSPropertyOp14
 70
     2
102
RTVSPropertyOp15
 70
     0
102
RTVSPropertyOp16
 70
     0
102
RTVSPropertyOp17
 70
     0
102
RTVSPropertyOp18
 70
     0
102
RTVSPropertyOp19
 70
     0
102
RTVSPropertyOp20
 70
     0
102
RTVSPropertyOp21
 70
     0
102
RTVSPropertyOp22
 70
     0
102
RTVSPropertyOp23
 70
     0
102
RTVSPropertyOp24
 70
     0
102
RTVSPropertyOp25
 70
     0
102
RTVSPropertyOp26
 70
     0
102
RTVSPropertyOp27
 70
     0
102
RTVSPropertyOp28
 70
     0
102
RTVSPropertyOp29
 70
     0
102
RTVSPropertyOp30
 70
     0
102
RTVSPropertyOp31
 70
     0
102
RTVSPropertyOp32
 70
     0
102
RTVSPropertyOp33
 70
     0
102
RTVSPropertyOp34
 70
     0
102
RTVSPropertyOp35
 70
     0
102
RTVSPropertyOp36
 70
     0
102
RTVSPropertyOp37
 70
     0
102
RTVSPropertyOp38
 70
     0
102
RTVSPropertyOp39
 70
     0
102
RTVSPropertyOp40
 70
     0
102
RTVSPropertyOp41
 70
     0
102
RTVSPropertyOp42
 70
     0
102
RTVSPropertyOp43
 70
     0
102
RTVSPropertyOp44
 70
     0
102
RTVSPropertyOp45
 70
     0
102
RTVSPropertyOp46
 70
     0
102
RTVSPropertyOp47
 70
     0
102
RTVSPropertyOp48
 70
     0
102
RTVSPropertyOp49
 70
     0
102
RTVSPropertyOp50
 70
     0
102
RTVSPropertyOp51
 70
     0
102
RTVSPropertyOp52
 70
     0
102
RTVSPropertyOp53
 70
     0
102
RTVSPropertyOp54
 70
     0
102
RTVSPropertyOp55
 70
     0
102
RTVSPropertyOp56
 70
     0
102
RTVSPropertyOp57
 70
     0
102
RTVSPropertyOp58
 70
     1
102
RTVSPropertyOp59
 70
     1
102
RTVSPropertyOp60
 70
     1
102
RTVSPropertyOp61
 70
     1
102
RTVSPropertyOp62
 70
     1
  0
XRECORD
  5
388
102
{ACAD_REACTORS
330
387
102
}
330
387
100
AcDbXrecord
280
     1
102
RTVSPost2010Prop28
280
     0
102
RTVSPost2010PropOp28
 70
     1
102
RTVSPost2010Prop29
280
     1
102
RTVSPost2010PropOp29
 70
     1
102
RTVSPost2010Prop30
280
     1
102
RTVSPost2010PropOp30
 70
     1
102
RTVSPost2010Prop31
280
     0
102
RTVSPost2010PropOp31
 70
     1
102
RTVSPost2010Prop32
280
     0
102
RTVSPost2010PropOp32
 70
     1
102
RTVSPost2010Prop33
280
     0
102
RTVSPost2010PropOp33
 70
     1
102
RTVSPost2010Prop34
280
     0
102
RTVSPost2010PropOp34
 70
     1
102
RTVSPost2010Prop35
280
     0
102
RTVSPost2010PropOp35
 70
     1
102
RTVSPost2010Prop36
280
     0
102
RTVSPost2010PropOp36
 70
     1
102
RTVSPost2010Prop37
 90
       50
102
RTVSPost2010PropOp37
 70
     1
102
RTVSPost2010Prop38
140
0.0
102
RTVSPost2010PropOp38
 70
     1
102
RTVSPost2010Prop39
140
1.0
102
RTVSPost2010PropOp39
 70
     1
102
RTVSPost2010Prop40
 90
        0
102
RTVSPost2010PropOp40
 70
     1
102
RTVSPost2010Prop41ColorIndex
 90
       18
102
RTVSPost2010Prop41ColorRGB
 90
        0
102
RTVSPost2010PropOp41
 70
     1
102
RTVSPost2010Prop42
 90
       50
102
RTVSPost2010PropOp42
 70
     1
102
RTVSPost2010Prop43
 90
        3
102
RTVSPost2010PropOp43
 70
     1
102
RTVSPost2010Prop44ColorIndex
 90
        5
102
RTVSPost2010Prop44ColorRGB
 90
      255
102
RTVSPost2010PropOp44
 70
     1
102
RTVSPost2010Prop45
280
     0
102
RTVSPost2010PropOp45
 70
     1
102
RTVSPost2010Prop46
 90
       50
102
RTVSPost2010PropOp46
 70
     1
102
RTVSPost2010Prop47
 90
       50
102
RTVSPost2010PropOp47
 70
     1
102
RTVSPost2010Prop48
 90
       50
102
RTVSPost2010PropOp48
 70
     1
102
RTVSPost2010Prop49
280
     0
102
RTVSPost2010PropOp49
 70
     1
102
RTVSPost2010Prop50
 90
       50
102
RTVSPost2010PropOp50
 70
     1
102
RTVSPost2010Prop51ColorIndex
 90
      256
102
RTVSPost2010Prop51ColorRGB
 90
-16777216
102
RTVSPost2010PropOp51
 70
     0
102
RTVSPost2010Prop52
140
1.0
102
RTVSPost2010PropOp52
 70
     0
102
RTVSPost2010Prop53
 90
        2
102
RTVSPost2010PropOp53
 70
     1
102
RTVSPost2010Prop54
  1
strokes_ogs.tif
102
RTVSPost2010PropOp54
 70
     1
102
RTVSPost2010Prop55
280
     0
102
RTVSPost2010PropOp55
 70
     1
102
RTVSPost2010Prop56
140
1.0
102
RTVSPost2010PropOp56
 70
     1
102
RTVSPost2010Prop57
140
1.0
102
RTVSPost2010PropOp57
 70
     1
102
RTVSPropertyOp0
 70
     1
102
RTVSPropertyOp1
 70
     1
102
RTVSPropertyOp2
 70
     1
102
RTVSPropertyOp3
 70
     1
102
RTVSPropertyOp4
 70
     1
102
RTVSPropertyOp5
 70
     1
102
RTVSPropertyOp6
 70
     1
102
RTVSPropertyOp7
 70
     1
102
RTVSPropertyOp8
 70
     1
102
RTVSPropertyOp9
 70
     1
102
RTVSPropertyOp10
 70
     1
102
RTVSPropertyOp11
 70
     1
102
RTVSPropertyOp12
 70
     1
102
RTVSPropertyOp13
 70
     1
102
RTVSPropertyOp14
 70
     1
102
RTVSPropertyOp15
 70
     1
102
RTVSPropertyOp16
 70
     1
102
RTVSPropertyOp17
 70
     1
102
RTVSPropertyOp18
 70
     1
102
RTVSPropertyOp19
 70
     1
102
RTVSPropertyOp20
 70
     1
102
RTVSPropertyOp21
 70
     1
102
RTVSPropertyOp22
 70
     1
102
RTVSPropertyOp23
 70
     1
102
RTVSPropertyOp24
 70
     1
102
RTVSPropertyOp25
 70
     1
102
RTVSPropertyOp26
 70
     1
102
RTVSPropertyOp27
 70
     1
102
RTVSPropertyOp28
 70
     1
102
RTVSPropertyOp29
 70
     1
102
RTVSPropertyOp30
 70
     1
102
RTVSPropertyOp31
 70
     1
102
RTVSPropertyOp32
 70
     1
102
RTVSPropertyOp33
 70
     1
102
RTVSPropertyOp34
 70
     1
102
RTVSPropertyOp35
 70
     1
102
RTVSPropertyOp36
 70
     1
102
RTVSPropertyOp37
 70
     1
102
RTVSPropertyOp38
 70
     1
102
RTVSPropertyOp39
 70
     1
102
RTVSPropertyOp40
 70
     1
102
RTVSPropertyOp41
 70
     1
102
RTVSPropertyOp42
 70
     1
102
RTVSPropertyOp43
 70
     1
102
RTVSPropertyOp44
 70
     1
102
RTVSPropertyOp45
 70
     1
102
RTVSPropertyOp46
 70
     1
102
RTVSPropertyOp47
 70
     1
102
RTVSPropertyOp48
 70
     1
102
RTVSPropertyOp49
 70
     1
102
RTVSPropertyOp50
 70
     1
102
RTVSPropertyOp51
 70
     0
102
RTVSPropertyOp52
 70
     0
102
RTVSPropertyOp53
 70
     1
102
RTVSPropertyOp54
 70
     1
102
RTVSPropertyOp55
 70
     1
102
RTVSPropertyOp56
 70
     1
102
RTVSPropertyOp57
 70
     1
102
RTVSPropertyOp58
 70
     1
102
RTVSPropertyOp59
 70
     1
102
RTVSPropertyOp60
 70
     1
102
RTVSPropertyOp61
 70
     1
102
RTVSPropertyOp62
 70
     1
  0
XRECORD
  5
3A6
102
{ACAD_REACTORS
330
3A5
102
}
330
3A5
100
AcDbXrecord
280
     1
102
RTVSPost2010Prop28
280
     0
102
RTVSPost2010PropOp28
 70
     1
102
RTVSPost2010Prop29
280
     1
102
RTVSPost2010PropOp29
 70
     1
102
RTVSPost2010Prop30
280
     1
102
RTVSPost2010PropOp30
 70
     1
102
RTVSPost2010Prop31
280
     0
102
RTVSPost2010PropOp31
 70
     1
102
RTVSPost2010Prop32
280
     0
102
RTVSPost2010PropOp32
 70
     1
102
RTVSPost2010Prop33
280
     0
102
RTVSPost2010PropOp33
 70
     1
102
RTVSPost2010Prop34
280
     0
102
RTVSPost2010PropOp34
 70
     1
102
RTVSPost2010Prop35
280
     0
102
RTVSPost2010PropOp35
 70
     1
102
RTVSPost2010Prop36
280
     0
102
RTVSPost2010PropOp36
 70
     1
102
RTVSPost2010Prop37
 90
       50
102
RTVSPost2010PropOp37
 70
     1
102
RTVSPost2010Prop38
140
0.0
102
RTVSPost2010PropOp38
 70
     1
102
RTVSPost2010Prop39
140
1.0
102
RTVSPost2010PropOp39
 70
     1
102
RTVSPost2010Prop40
 90
        0
102
RTVSPost2010PropOp40
 70
     1
102
RTVSPost2010Prop41ColorIndex
 90
       18
102
RTVSPost2010Prop41ColorRGB
 90
        0
102
RTVSPost2010PropOp41
 70
     1
102
RTVSPost2010Prop42
 90
       50
102
RTVSPost2010PropOp42
 70
     1
102
RTVSPost2010Prop43
 90
        3
102
RTVSPost2010PropOp43
 70
     1
102
RTVSPost2010Prop44ColorIndex
 90
        5
102
RTVSPost2010Prop44ColorRGB
 90
      255
102
RTVSPost2010PropOp44
 70
     1
102
RTVSPost2010Prop45
280
     0
102
RTVSPost2010PropOp45
 70
     1
102
RTVSPost2010Prop46
 90
       50
102
RTVSPost2010PropOp46
 70
     1
102
RTVSPost2010Prop47
 90
       50
102
RTVSPost2010PropOp47
 70
     1
102
RTVSPost2010Prop48
 90
       50
102
RTVSPost2010PropOp48
 70
     1
102
RTVSPost2010Prop49
280
     0
102
RTVSPost2010PropOp49
 70
     1
102
RTVSPost2010Prop50
 90
       50
102
RTVSPost2010PropOp50
 70
     1
102
RTVSPost2010Prop51ColorIndex
 90
      256
102
RTVSPost2010Prop51ColorRGB
 90
-16777216
102
RTVSPost2010PropOp51
 70
     0
102
RTVSPost2010Prop52
140
1.0
102
RTVSPost2010PropOp52
 70
     0
102
RTVSPost2010Prop53
 90
        2
102
RTVSPost2010PropOp53
 70
     1
102
RTVSPost2010Prop54
  1
strokes_ogs.tif
102
RTVSPost2010PropOp54
 70
     1
102
RTVSPost2010Prop55
280
     0
102
RTVSPost2010PropOp55
 70
     1
102
RTVSPost2010Prop56
140
1.0
102
RTVSPost2010PropOp56
 70
     1
102
RTVSPost2010Prop57
140
1.0
102
RTVSPost2010PropOp57
 70
     1
102
RTVSPropertyOp0
 70
     1
102
RTVSPropertyOp1
 70
     1
102
RTVSPropertyOp2
 70
     1
102
RTVSPropertyOp3
 70
     1
102
RTVSPropertyOp4
 70
     1
102
RTVSPropertyOp5
 70
     1
102
RTVSPropertyOp6
 70
     1
102
RTVSPropertyOp7
 70
     1
102
RTVSPropertyOp8
 70
     1
102
RTVSPropertyOp9
 70
     1
102
RTVSPropertyOp10
 70
     1
102
RTVSPropertyOp11
 70
     1
102
RTVSPropertyOp12
 70
     1
102
RTVSPropertyOp13
 70
     1
102
RTVSPropertyOp14
 70
     1
102
RTVSPropertyOp15
 70
     1
102
RTVSPropertyOp16
 70
     1
102
RTVSPropertyOp17
 70
     1
102
RTVSPropertyOp18
 70
     1
102
RTVSPropertyOp19
 70
     1
102
RTVSPropertyOp20
 70
     1
102
RTVSPropertyOp21
 70
     1
102
RTVSPropertyOp22
 70
     1
102
RTVSPropertyOp23
 70
     1
102
RTVSPropertyOp24
 70
     1
102
RTVSPropertyOp25
 70
     1
102
RTVSPropertyOp26
 70
     1
102
RTVSPropertyOp27
 70
     1
102
RTVSPropertyOp28
 70
     1
102
RTVSPropertyOp29
 70
     1
102
RTVSPropertyOp30
 70
     1
102
RTVSPropertyOp31
 70
     1
102
RTVSPropertyOp32
 70
     1
102
RTVSPropertyOp33
 70
     1
102
RTVSPropertyOp34
 70
     1
102
RTVSPropertyOp35
 70
     1
102
RTVSPropertyOp36
 70
     1
102
RTVSPropertyOp37
 70
     1
102
RTVSPropertyOp38
 70
     1
102
RTVSPropertyOp39
 70
     1
102
RTVSPropertyOp40
 70
     1
102
RTVSPropertyOp41
 70
     1
102
RTVSPropertyOp42
 70
     1
102
RTVSPropertyOp43
 70
     1
102
RTVSPropertyOp44
 70
     1
102
RTVSPropertyOp45
 70
     1
102
RTVSPropertyOp46
 70
     1
102
RTVSPropertyOp47
 70
     1
102
RTVSPropertyOp48
 70
     1
102
RTVSPropertyOp49
 70
     1
102
RTVSPropertyOp50
 70
     1
102
RTVSPropertyOp51
 70
     0
102
RTVSPropertyOp52
 70
     0
102
RTVSPropertyOp53
 70
     1
102
RTVSPropertyOp54
 70
     1
102
RTVSPropertyOp55
 70
     1
102
RTVSPropertyOp56
 70
     1
102
RTVSPropertyOp57
 70
     1
102
RTVSPropertyOp58
 70
     1
102
RTVSPropertyOp59
 70
     1
102
RTVSPropertyOp60
 70
     1
102
RTVSPropertyOp61
 70
     1
102
RTVSPropertyOp62
 70
     1
  0
XRECORD
  5
3A4
102
{ACAD_REACTORS
330
3A3
102
}
330
3A3
100
AcDbXrecord
280
     1
102
RTVSPost2010Prop28
280
     0
102
RTVSPost2010PropOp28
 70
     1
102
RTVSPost2010Prop29
280
     1
102
RTVSPost2010PropOp29
 70
     1
102
RTVSPost2010Prop30
280
     1
102
RTVSPost2010PropOp30
 70
     1
102
RTVSPost2010Prop31
280
     0
102
RTVSPost2010PropOp31
 70
     1
102
RTVSPost2010Prop32
280
     0
102
RTVSPost2010PropOp32
 70
     1
102
RTVSPost2010Prop33
280
     0
102
RTVSPost2010PropOp33
 70
     1
102
RTVSPost2010Prop34
280
     0
102
RTVSPost2010PropOp34
 70
     1
102
RTVSPost2010Prop35
280
     0
102
RTVSPost2010PropOp35
 70
     1
102
RTVSPost2010Prop36
280
     0
102
RTVSPost2010PropOp36
 70
     1
102
RTVSPost2010Prop37
 90
       50
102
RTVSPost2010PropOp37
 70
     1
102
RTVSPost2010Prop38
140
0.0
102
RTVSPost2010PropOp38
 70
     1
102
RTVSPost2010Prop39
140
1.0
102
RTVSPost2010PropOp39
 70
     1
102
RTVSPost2010Prop40
 90
        0
102
RTVSPost2010PropOp40
 70
     1
102
RTVSPost2010Prop41ColorIndex
 90
       18
102
RTVSPost2010Prop41ColorRGB
 90
        0
102
RTVSPost2010PropOp41
 70
     1
102
RTVSPost2010Prop42
 90
       50
102
RTVSPost2010PropOp42
 70
     1
102
RTVSPost2010Prop43
 90
        3
102
RTVSPost2010PropOp43
 70
     1
102
RTVSPost2010Prop44ColorIndex
 90
        5
102
RTVSPost2010Prop44ColorRGB
 90
      255
102
RTVSPost2010PropOp44
 70
     1
102
RTVSPost2010Prop45
280
     0
102
RTVSPost2010PropOp45
 70
     1
102
RTVSPost2010Prop46
 90
       50
102
RTVSPost2010PropOp46
 70
     1
102
RTVSPost2010Prop47
 90
       50
102
RTVSPost2010PropOp47
 70
     1
102
RTVSPost2010Prop48
 90
       50
102
RTVSPost2010PropOp48
 70
     1
102
RTVSPost2010Prop49
280
     0
102
RTVSPost2010PropOp49
 70
     1
102
RTVSPost2010Prop50
 90
       50
102
RTVSPost2010PropOp50
 70
     1
102
RTVSPost2010Prop51ColorIndex
 90
      256
102
RTVSPost2010Prop51ColorRGB
 90
-16777216
102
RTVSPost2010PropOp51
 70
     0
102
RTVSPost2010Prop52
140
1.0
102
RTVSPost2010PropOp52
 70
     0
102
RTVSPost2010Prop53
 90
        2
102
RTVSPost2010PropOp53
 70
     1
102
RTVSPost2010Prop54
  1
strokes_ogs.tif
102
RTVSPost2010PropOp54
 70
     1
102
RTVSPost2010Prop55
280
     0
102
RTVSPost2010PropOp55
 70
     1
102
RTVSPost2010Prop56
140
1.0
102
RTVSPost2010PropOp56
 70
     1
102
RTVSPost2010Prop57
140
1.0
102
RTVSPost2010PropOp57
 70
     1
102
RTVSPropertyOp0
 70
     1
102
RTVSPropertyOp1
 70
     1
102
RTVSPropertyOp2
 70
     1
102
RTVSPropertyOp3
 70
     1
102
RTVSPropertyOp4
 70
     1
102
RTVSPropertyOp5
 70
     1
102
RTVSPropertyOp6
 70
     1
102
RTVSPropertyOp7
 70
     1
102
RTVSPropertyOp8
 70
     1
102
RTVSPropertyOp9
 70
     1
102
RTVSPropertyOp10
 70
     1
102
RTVSPropertyOp11
 70
     1
102
RTVSPropertyOp12
 70
     1
102
RTVSPropertyOp13
 70
     1
102
RTVSPropertyOp14
 70
     1
102
RTVSPropertyOp15
 70
     1
102
RTVSPropertyOp16
 70
     1
102
RTVSPropertyOp17
 70
     1
102
RTVSPropertyOp18
 70
     1
102
RTVSPropertyOp19
 70
     1
102
RTVSPropertyOp20
 70
     1
102
RTVSPropertyOp21
 70
     1
102
RTVSPropertyOp22
 70
     1
102
RTVSPropertyOp23
 70
     1
102
RTVSPropertyOp24
 70
     1
102
RTVSPropertyOp25
 70
     1
102
RTVSPropertyOp26
 70
     1
102
RTVSPropertyOp27
 70
     1
102
RTVSPropertyOp28
 70
     1
102
RTVSPropertyOp29
 70
     1
102
RTVSPropertyOp30
 70
     1
102
RTVSPropertyOp31
 70
     1
102
RTVSPropertyOp32
 70
     1
102
RTVSPropertyOp33
 70
     1
102
RTVSPropertyOp34
 70
     1
102
RTVSPropertyOp35
 70
     1
102
RTVSPropertyOp36
 70
     1
102
RTVSPropertyOp37
 70
     1
102
RTVSPropertyOp38
 70
     1
102
RTVSPropertyOp39
 70
     1
102
RTVSPropertyOp40
 70
     1
102
RTVSPropertyOp41
 70
     1
102
RTVSPropertyOp42
 70
     1
102
RTVSPropertyOp43
 70
     1
102
RTVSPropertyOp44
 70
     1
102
RTVSPropertyOp45
 70
     1
102
RTVSPropertyOp46
 70
     1
102
RTVSPropertyOp47
 70
     1
102
RTVSPropertyOp48
 70
     1
102
RTVSPropertyOp49
 70
     1
102
RTVSPropertyOp50
 70
     1
102
RTVSPropertyOp51
 70
     0
102
RTVSPropertyOp52
 70
     0
102
RTVSPropertyOp53
 70
     1
102
RTVSPropertyOp54
 70
     1
102
RTVSPropertyOp55
 70
     1
102
RTVSPropertyOp56
 70
     1
102
RTVSPropertyOp57
 70
     1
102
RTVSPropertyOp58
 70
     1
102
RTVSPropertyOp59
 70
     1
102
RTVSPropertyOp60
 70
     1
102
RTVSPropertyOp61
 70
     1
102
RTVSPropertyOp62
 70
     1
  0
XRECORD
  5
39E
102
{ACAD_REACTORS
330
39D
102
}
330
39D
100
AcDbXrecord
280
     1
102
RTVSPost2010Prop28
280
     0
102
RTVSPost2010PropOp28
 70
     1
102
RTVSPost2010Prop29
280
     1
102
RTVSPost2010PropOp29
 70
     1
102
RTVSPost2010Prop30
280
     1
102
RTVSPost2010PropOp30
 70
     1
102
RTVSPost2010Prop31
280
     0
102
RTVSPost2010PropOp31
 70
     1
102
RTVSPost2010Prop32
280
     0
102
RTVSPost2010PropOp32
 70
     1
102
RTVSPost2010Prop33
280
     0
102
RTVSPost2010PropOp33
 70
     1
102
RTVSPost2010Prop34
280
     0
102
RTVSPost2010PropOp34
 70
     1
102
RTVSPost2010Prop35
280
     0
102
RTVSPost2010PropOp35
 70
     1
102
RTVSPost2010Prop36
280
     0
102
RTVSPost2010PropOp36
 70
     1
102
RTVSPost2010Prop37
 90
       50
102
RTVSPost2010PropOp37
 70
     1
102
RTVSPost2010Prop38
140
0.0
102
RTVSPost2010PropOp38
 70
     1
102
RTVSPost2010Prop39
140
1.0
102
RTVSPost2010PropOp39
 70
     1
102
RTVSPost2010Prop40
 90
        0
102
RTVSPost2010PropOp40
 70
     1
102
RTVSPost2010Prop41ColorIndex
 90
       18
102
RTVSPost2010Prop41ColorRGB
 90
        0
102
RTVSPost2010PropOp41
 70
     1
102
RTVSPost2010Prop42
 90
       50
102
RTVSPost2010PropOp42
 70
     1
102
RTVSPost2010Prop43
 90
        3
102
RTVSPost2010PropOp43
 70
     1
102
RTVSPost2010Prop44ColorIndex
 90
        5
102
RTVSPost2010Prop44ColorRGB
 90
      255
102
RTVSPost2010PropOp44
 70
     1
102
RTVSPost2010Prop45
280
     0
102
RTVSPost2010PropOp45
 70
     1
102
RTVSPost2010Prop46
 90
       50
102
RTVSPost2010PropOp46
 70
     1
102
RTVSPost2010Prop47
 90
       50
102
RTVSPost2010PropOp47
 70
     1
102
RTVSPost2010Prop48
 90
       50
102
RTVSPost2010PropOp48
 70
     1
102
RTVSPost2010Prop49
280
     0
102
RTVSPost2010PropOp49
 70
     1
102
RTVSPost2010Prop50
 90
       50
102
RTVSPost2010PropOp50
 70
     1
102
RTVSPost2010Prop51ColorIndex
 90
      256
102
RTVSPost2010Prop51ColorRGB
 90
-16777216
102
RTVSPost2010PropOp51
 70
     0
102
RTVSPost2010Prop52
140
1.0
102
RTVSPost2010PropOp52
 70
     0
102
RTVSPost2010Prop53
 90
        2
102
RTVSPost2010PropOp53
 70
     1
102
RTVSPost2010Prop54
  1
strokes_ogs.tif
102
RTVSPost2010PropOp54
 70
     1
102
RTVSPost2010Prop55
280
     0
102
RTVSPost2010PropOp55
 70
     1
102
RTVSPost2010Prop56
140
1.0
102
RTVSPost2010PropOp56
 70
     1
102
RTVSPost2010Prop57
140
1.0
102
RTVSPost2010PropOp57
 70
     1
102
RTVSPropertyOp0
 70
     1
102
RTVSPropertyOp1
 70
     1
102
RTVSPropertyOp2
 70
     1
102
RTVSPropertyOp3
 70
     1
102
RTVSPropertyOp4
 70
     1
102
RTVSPropertyOp5
 70
     1
102
RTVSPropertyOp6
 70
     1
102
RTVSPropertyOp7
 70
     1
102
RTVSPropertyOp8
 70
     1
102
RTVSPropertyOp9
 70
     1
102
RTVSPropertyOp10
 70
     1
102
RTVSPropertyOp11
 70
     1
102
RTVSPropertyOp12
 70
     1
102
RTVSPropertyOp13
 70
     1
102
RTVSPropertyOp14
 70
     1
102
RTVSPropertyOp15
 70
     1
102
RTVSPropertyOp16
 70
     1
102
RTVSPropertyOp17
 70
     1
102
RTVSPropertyOp18
 70
     1
102
RTVSPropertyOp19
 70
     1
102
RTVSPropertyOp20
 70
     1
102
RTVSPropertyOp21
 70
     1
102
RTVSPropertyOp22
 70
     1
102
RTVSPropertyOp23
 70
     1
102
RTVSPropertyOp24
 70
     1
102
RTVSPropertyOp25
 70
     1
102
RTVSPropertyOp26
 70
     1
102
RTVSPropertyOp27
 70
     1
102
RTVSPropertyOp28
 70
     1
102
RTVSPropertyOp29
 70
     1
102
RTVSPropertyOp30
 70
     1
102
RTVSPropertyOp31
 70
     1
102
RTVSPropertyOp32
 70
     1
102
RTVSPropertyOp33
 70
     1
102
RTVSPropertyOp34
 70
     1
102
RTVSPropertyOp35
 70
     1
102
RTVSPropertyOp36
 70
     1
102
RTVSPropertyOp37
 70
     1
102
RTVSPropertyOp38
 70
     1
102
RTVSPropertyOp39
 70
     1
102
RTVSPropertyOp40
 70
     1
102
RTVSPropertyOp41
 70
     1
102
RTVSPropertyOp42
 70
     1
102
RTVSPropertyOp43
 70
     1
102
RTVSPropertyOp44
 70
     1
102
RTVSPropertyOp45
 70
     1
102
RTVSPropertyOp46
 70
     1
102
RTVSPropertyOp47
 70
     1
102
RTVSPropertyOp48
 70
     1
102
RTVSPropertyOp49
 70
     1
102
RTVSPropertyOp50
 70
     1
102
RTVSPropertyOp51
 70
     0
102
RTVSPropertyOp52
 70
     0
102
RTVSPropertyOp53
 70
     1
102
RTVSPropertyOp54
 70
     1
102
RTVSPropertyOp55
 70
     1
102
RTVSPropertyOp56
 70
     1
102
RTVSPropertyOp57
 70
     1
102
RTVSPropertyOp58
 70
     1
102
RTVSPropertyOp59
 70
     1
102
RTVSPropertyOp60
 70
     1
102
RTVSPropertyOp61
 70
     1
102
RTVSPropertyOp62
 70
     1
  0
XRECORD
  5
3A0
102
{ACAD_REACTORS
330
39F
102
}
330
39F
100
AcDbXrecord
280
     1
102
RTVSPost2010Prop28
280
     0
102
RTVSPost2010PropOp28
 70
     1
102
RTVSPost2010Prop29
280
     1
102
RTVSPost2010PropOp29
 70
     1
102
RTVSPost2010Prop30
280
     1
102
RTVSPost2010PropOp30
 70
     1
102
RTVSPost2010Prop31
280
     0
102
RTVSPost2010PropOp31
 70
     1
102
RTVSPost2010Prop32
280
     0
102
RTVSPost2010PropOp32
 70
     1
102
RTVSPost2010Prop33
280
     0
102
RTVSPost2010PropOp33
 70
     1
102
RTVSPost2010Prop34
280
     0
102
RTVSPost2010PropOp34
 70
     1
102
RTVSPost2010Prop35
280
     0
102
RTVSPost2010PropOp35
 70
     1
102
RTVSPost2010Prop36
280
     0
102
RTVSPost2010PropOp36
 70
     1
102
RTVSPost2010Prop37
 90
       50
102
RTVSPost2010PropOp37
 70
     1
102
RTVSPost2010Prop38
140
0.0
102
RTVSPost2010PropOp38
 70
     1
102
RTVSPost2010Prop39
140
1.0
102
RTVSPost2010PropOp39
 70
     1
102
RTVSPost2010Prop40
 90
        0
102
RTVSPost2010PropOp40
 70
     1
102
RTVSPost2010Prop41ColorIndex
 90
       18
102
RTVSPost2010Prop41ColorRGB
 90
        0
102
RTVSPost2010PropOp41
 70
     1
102
RTVSPost2010Prop42
 90
       50
102
RTVSPost2010PropOp42
 70
     1
102
RTVSPost2010Prop43
 90
        3
102
RTVSPost2010PropOp43
 70
     1
102
RTVSPost2010Prop44ColorIndex
 90
        5
102
RTVSPost2010Prop44ColorRGB
 90
      255
102
RTVSPost2010PropOp44
 70
     1
102
RTVSPost2010Prop45
280
     0
102
RTVSPost2010PropOp45
 70
     1
102
RTVSPost2010Prop46
 90
       50
102
RTVSPost2010PropOp46
 70
     1
102
RTVSPost2010Prop47
 90
       50
102
RTVSPost2010PropOp47
 70
     1
102
RTVSPost2010Prop48
 90
       50
102
RTVSPost2010PropOp48
 70
     1
102
RTVSPost2010Prop49
280
     0
102
RTVSPost2010PropOp49
 70
     1
102
RTVSPost2010Prop50
 90
       50
102
RTVSPost2010PropOp50
 70
     1
102
RTVSPost2010Prop51ColorIndex
 90
      256
102
RTVSPost2010Prop51ColorRGB
 90
-16777216
102
RTVSPost2010PropOp51
 70
     0
102
RTVSPost2010Prop52
140
1.0
102
RTVSPost2010PropOp52
 70
     0
102
RTVSPost2010Prop53
 90
        2
102
RTVSPost2010PropOp53
 70
     1
102
RTVSPost2010Prop54
  1
strokes_ogs.tif
102
RTVSPost2010PropOp54
 70
     1
102
RTVSPost2010Prop55
280
     0
102
RTVSPost2010PropOp55
 70
     1
102
RTVSPost2010Prop56
140
1.0
102
RTVSPost2010PropOp56
 70
     1
102
RTVSPost2010Prop57
140
1.0
102
RTVSPost2010PropOp57
 70
     1
102
RTVSPropertyOp0
 70
     1
102
RTVSPropertyOp1
 70
     1
102
RTVSPropertyOp2
 70
     1
102
RTVSPropertyOp3
 70
     1
102
RTVSPropertyOp4
 70
     1
102
RTVSPropertyOp5
 70
     1
102
RTVSPropertyOp6
 70
     1
102
RTVSPropertyOp7
 70
     1
102
RTVSPropertyOp8
 70
     1
102
RTVSPropertyOp9
 70
     1
102
RTVSPropertyOp10
 70
     1
102
RTVSPropertyOp11
 70
     1
102
RTVSPropertyOp12
 70
     1
102
RTVSPropertyOp13
 70
     1
102
RTVSPropertyOp14
 70
     1
102
RTVSPropertyOp15
 70
     1
102
RTVSPropertyOp16
 70
     1
102
RTVSPropertyOp17
 70
     1
102
RTVSPropertyOp18
 70
     1
102
RTVSPropertyOp19
 70
     1
102
RTVSPropertyOp20
 70
     1
102
RTVSPropertyOp21
 70
     1
102
RTVSPropertyOp22
 70
     1
102
RTVSPropertyOp23
 70
     1
102
RTVSPropertyOp24
 70
     1
102
RTVSPropertyOp25
 70
     1
102
RTVSPropertyOp26
 70
     1
102
RTVSPropertyOp27
 70
     1
102
RTVSPropertyOp28
 70
     1
102
RTVSPropertyOp29
 70
     1
102
RTVSPropertyOp30
 70
     1
102
RTVSPropertyOp31
 70
     1
102
RTVSPropertyOp32
 70
     1
102
RTVSPropertyOp33
 70
     1
102
RTVSPropertyOp34
 70
     1
102
RTVSPropertyOp35
 70
     1
102
RTVSPropertyOp36
 70
     1
102
RTVSPropertyOp37
 70
     1
102
RTVSPropertyOp38
 70
     1
102
RTVSPropertyOp39
 70
     1
102
RTVSPropertyOp40
 70
     1
102
RTVSPropertyOp41
 70
     1
102
RTVSPropertyOp42
 70
     1
102
RTVSPropertyOp43
 70
     1
102
RTVSPropertyOp44
 70
     1
102
RTVSPropertyOp45
 70
     1
102
RTVSPropertyOp46
 70
     1
102
RTVSPropertyOp47
 70
     1
102
RTVSPropertyOp48
 70
     1
102
RTVSPropertyOp49
 70
     1
102
RTVSPropertyOp50
 70
     1
102
RTVSPropertyOp51
 70
     0
102
RTVSPropertyOp52
 70
     0
102
RTVSPropertyOp53
 70
     1
102
RTVSPropertyOp54
 70
     1
102
RTVSPropertyOp55
 70
     1
102
RTVSPropertyOp56
 70
     1
102
RTVSPropertyOp57
 70
     1
102
RTVSPropertyOp58
 70
     1
102
RTVSPropertyOp59
 70
     1
102
RTVSPropertyOp60
 70
     1
102
RTVSPropertyOp61
 70
     1
102
RTVSPropertyOp62
 70
     1
  0
XRECORD
  5
390
102
{ACAD_REACTORS
330
38F
102
}
330
38F
100
AcDbXrecord
280
     1
102
RTVSPost2010Prop28
280
     0
102
RTVSPost2010PropOp28
 70
     1
102
RTVSPost2010Prop29
280
     1
102
RTVSPost2010PropOp29
 70
     1
102
RTVSPost2010Prop30
280
     1
102
RTVSPost2010PropOp30
 70
     1
102
RTVSPost2010Prop31
280
     0
102
RTVSPost2010PropOp31
 70
     1
102
RTVSPost2010Prop32
280
     0
102
RTVSPost2010PropOp32
 70
     1
102
RTVSPost2010Prop33
280
     0
102
RTVSPost2010PropOp33
 70
     1
102
RTVSPost2010Prop34
280
     0
102
RTVSPost2010PropOp34
 70
     1
102
RTVSPost2010Prop35
280
     0
102
RTVSPost2010PropOp35
 70
     1
102
RTVSPost2010Prop36
280
     0
102
RTVSPost2010PropOp36
 70
     1
102
RTVSPost2010Prop37
 90
       50
102
RTVSPost2010PropOp37
 70
     1
102
RTVSPost2010Prop38
140
0.0
102
RTVSPost2010PropOp38
 70
     1
102
RTVSPost2010Prop39
140
1.0
102
RTVSPost2010PropOp39
 70
     1
102
RTVSPost2010Prop40
 90
        0
102
RTVSPost2010PropOp40
 70
     1
102
RTVSPost2010Prop41ColorIndex
 90
       18
102
RTVSPost2010Prop41ColorRGB
 90
        0
102
RTVSPost2010PropOp41
 70
     1
102
RTVSPost2010Prop42
 90
       50
102
RTVSPost2010PropOp42
 70
     1
102
RTVSPost2010Prop43
 90
        3
102
RTVSPost2010PropOp43
 70
     1
102
RTVSPost2010Prop44ColorIndex
 90
        5
102
RTVSPost2010Prop44ColorRGB
 90
      255
102
RTVSPost2010PropOp44
 70
     1
102
RTVSPost2010Prop45
280
     0
102
RTVSPost2010PropOp45
 70
     1
102
RTVSPost2010Prop46
 90
       50
102
RTVSPost2010PropOp46
 70
     1
102
RTVSPost2010Prop47
 90
       50
102
RTVSPost2010PropOp47
 70
     1
102
RTVSPost2010Prop48
 90
       50
102
RTVSPost2010PropOp48
 70
     1
102
RTVSPost2010Prop49
280
     0
102
RTVSPost2010PropOp49
 70
     1
102
RTVSPost2010Prop50
 90
       50
102
RTVSPost2010PropOp50
 70
     1
102
RTVSPost2010Prop51ColorIndex
 90
      256
102
RTVSPost2010Prop51ColorRGB
 90
-16777216
102
RTVSPost2010PropOp51
 70
     0
102
RTVSPost2010Prop52
140
1.0
102
RTVSPost2010PropOp52
 70
     0
102
RTVSPost2010Prop53
 90
        2
102
RTVSPost2010PropOp53
 70
     1
102
RTVSPost2010Prop54
  1
strokes_ogs.tif
102
RTVSPost2010PropOp54
 70
     1
102
RTVSPost2010Prop55
280
     0
102
RTVSPost2010PropOp55
 70
     1
102
RTVSPost2010Prop56
140
1.0
102
RTVSPost2010PropOp56
 70
     1
102
RTVSPost2010Prop57
140
1.0
102
RTVSPost2010PropOp57
 70
     1
102
RTVSPropertyOp0
 70
     1
102
RTVSPropertyOp1
 70
     1
102
RTVSPropertyOp2
 70
     1
102
RTVSPropertyOp3
 70
     1
102
RTVSPropertyOp4
 70
     1
102
RTVSPropertyOp5
 70
     1
102
RTVSPropertyOp6
 70
     1
102
RTVSPropertyOp7
 70
     1
102
RTVSPropertyOp8
 70
     1
102
RTVSPropertyOp9
 70
     1
102
RTVSPropertyOp10
 70
     1
102
RTVSPropertyOp11
 70
     1
102
RTVSPropertyOp12
 70
     1
102
RTVSPropertyOp13
 70
     1
102
RTVSPropertyOp14
 70
     1
102
RTVSPropertyOp15
 70
     1
102
RTVSPropertyOp16
 70
     1
102
RTVSPropertyOp17
 70
     1
102
RTVSPropertyOp18
 70
     1
102
RTVSPropertyOp19
 70
     1
102
RTVSPropertyOp20
 70
     1
102
RTVSPropertyOp21
 70
     1
102
RTVSPropertyOp22
 70
     1
102
RTVSPropertyOp23
 70
     1
102
RTVSPropertyOp24
 70
     1
102
RTVSPropertyOp25
 70
     1
102
RTVSPropertyOp26
 70
     1
102
RTVSPropertyOp27
 70
     1
102
RTVSPropertyOp28
 70
     1
102
RTVSPropertyOp29
 70
     1
102
RTVSPropertyOp30
 70
     1
102
RTVSPropertyOp31
 70
     1
102
RTVSPropertyOp32
 70
     1
102
RTVSPropertyOp33
 70
     1
102
RTVSPropertyOp34
 70
     1
102
RTVSPropertyOp35
 70
     1
102
RTVSPropertyOp36
 70
     1
102
RTVSPropertyOp37
 70
     1
102
RTVSPropertyOp38
 70
     1
102
RTVSPropertyOp39
 70
     1
102
RTVSPropertyOp40
 70
     1
102
RTVSPropertyOp41
 70
     1
102
RTVSPropertyOp42
 70
     1
102
RTVSPropertyOp43
 70
     1
102
RTVSPropertyOp44
 70
     1
102
RTVSPropertyOp45
 70
     1
102
RTVSPropertyOp46
 70
     1
102
RTVSPropertyOp47
 70
     1
102
RTVSPropertyOp48
 70
     1
102
RTVSPropertyOp49
 70
     1
102
RTVSPropertyOp50
 70
     1
102
RTVSPropertyOp51
 70
     0
102
RTVSPropertyOp52
 70
     0
102
RTVSPropertyOp53
 70
     1
102
RTVSPropertyOp54
 70
     1
102
RTVSPropertyOp55
 70
     1
102
RTVSPropertyOp56
 70
     1
102
RTVSPropertyOp57
 70
     1
102
RTVSPropertyOp58
 70
     1
102
RTVSPropertyOp59
 70
     1
102
RTVSPropertyOp60
 70
     1
102
RTVSPropertyOp61
 70
     1
102
RTVSPropertyOp62
 70
     1
  0
XRECORD
  5
382
102
{ACAD_REACTORS
330
381
102
}
330
381
100
AcDbXrecord
280
     1
102
RTVSPost2010Prop28
280
     0
102
RTVSPost2010PropOp28
 70
     1
102
RTVSPost2010Prop29
280
     1
102
RTVSPost2010PropOp29
 70
     1
102
RTVSPost2010Prop30
280
     1
102
RTVSPost2010PropOp30
 70
     1
102
RTVSPost2010Prop31
280
     0
102
RTVSPost2010PropOp31
 70
     1
102
RTVSPost2010Prop32
280
     0
102
RTVSPost2010PropOp32
 70
     1
102
RTVSPost2010Prop33
280
     0
102
RTVSPost2010PropOp33
 70
     1
102
RTVSPost2010Prop34
280
     0
102
RTVSPost2010PropOp34
 70
     1
102
RTVSPost2010Prop35
280
     0
102
RTVSPost2010PropOp35
 70
     1
102
RTVSPost2010Prop36
280
     0
102
RTVSPost2010PropOp36
 70
     1
102
RTVSPost2010Prop37
 90
       50
102
RTVSPost2010PropOp37
 70
     1
102
RTVSPost2010Prop38
140
0.0
102
RTVSPost2010PropOp38
 70
     1
102
RTVSPost2010Prop39
140
1.0
102
RTVSPost2010PropOp39
 70
     1
102
RTVSPost2010Prop40
 90
        0
102
RTVSPost2010PropOp40
 70
     1
102
RTVSPost2010Prop41ColorIndex
 90
       18
102
RTVSPost2010Prop41ColorRGB
 90
        0
102
RTVSPost2010PropOp41
 70
     1
102
RTVSPost2010Prop42
 90
       50
102
RTVSPost2010PropOp42
 70
     1
102
RTVSPost2010Prop43
 90
        3
102
RTVSPost2010PropOp43
 70
     1
102
RTVSPost2010Prop44ColorIndex
 90
        5
102
RTVSPost2010Prop44ColorRGB
 90
      255
102
RTVSPost2010PropOp44
 70
     1
102
RTVSPost2010Prop45
280
     0
102
RTVSPost2010PropOp45
 70
     1
102
RTVSPost2010Prop46
 90
       50
102
RTVSPost2010PropOp46
 70
     1
102
RTVSPost2010Prop47
 90
       50
102
RTVSPost2010PropOp47
 70
     1
102
RTVSPost2010Prop48
 90
       50
102
RTVSPost2010PropOp48
 70
     1
102
RTVSPost2010Prop49
280
     0
102
RTVSPost2010PropOp49
 70
     1
102
RTVSPost2010Prop50
 90
       50
102
RTVSPost2010PropOp50
 70
     1
102
RTVSPost2010Prop51ColorIndex
 90
      256
102
RTVSPost2010Prop51ColorRGB
 90
-16777216
102
RTVSPost2010PropOp51
 70
     0
102
RTVSPost2010Prop52
140
1.0
102
RTVSPost2010PropOp52
 70
     0
102
RTVSPost2010Prop53
 90
        2
102
RTVSPost2010PropOp53
 70
     1
102
RTVSPost2010Prop54
  1
strokes_ogs.tif
102
RTVSPost2010PropOp54
 70
     1
102
RTVSPost2010Prop55
280
     0
102
RTVSPost2010PropOp55
 70
     1
102
RTVSPost2010Prop56
140
1.0
102
RTVSPost2010PropOp56
 70
     1
102
RTVSPost2010Prop57
140
1.0
102
RTVSPost2010PropOp57
 70
     1
102
RTVSPropertyOp0
 70
     1
102
RTVSPropertyOp1
 70
     1
102
RTVSPropertyOp2
 70
     1
102
RTVSPropertyOp3
 70
     1
102
RTVSPropertyOp4
 70
     1
102
RTVSPropertyOp5
 70
     1
102
RTVSPropertyOp6
 70
     1
102
RTVSPropertyOp7
 70
     1
102
RTVSPropertyOp8
 70
     1
102
RTVSPropertyOp9
 70
     1
102
RTVSPropertyOp10
 70
     1
102
RTVSPropertyOp11
 70
     1
102
RTVSPropertyOp12
 70
     1
102
RTVSPropertyOp13
 70
     1
102
RTVSPropertyOp14
 70
     1
102
RTVSPropertyOp15
 70
     1
102
RTVSPropertyOp16
 70
     1
102
RTVSPropertyOp17
 70
     1
102
RTVSPropertyOp18
 70
     1
102
RTVSPropertyOp19
 70
     1
102
RTVSPropertyOp20
 70
     1
102
RTVSPropertyOp21
 70
     1
102
RTVSPropertyOp22
 70
     1
102
RTVSPropertyOp23
 70
     1
102
RTVSPropertyOp24
 70
     1
102
RTVSPropertyOp25
 70
     1
102
RTVSPropertyOp26
 70
     1
102
RTVSPropertyOp27
 70
     1
102
RTVSPropertyOp28
 70
     1
102
RTVSPropertyOp29
 70
     1
102
RTVSPropertyOp30
 70
     1
102
RTVSPropertyOp31
 70
     1
102
RTVSPropertyOp32
 70
     1
102
RTVSPropertyOp33
 70
     1
102
RTVSPropertyOp34
 70
     1
102
RTVSPropertyOp35
 70
     1
102
RTVSPropertyOp36
 70
     1
102
RTVSPropertyOp37
 70
     1
102
RTVSPropertyOp38
 70
     1
102
RTVSPropertyOp39
 70
     1
102
RTVSPropertyOp40
 70
     1
102
RTVSPropertyOp41
 70
     1
102
RTVSPropertyOp42
 70
     1
102
RTVSPropertyOp43
 70
     1
102
RTVSPropertyOp44
 70
     1
102
RTVSPropertyOp45
 70
     1
102
RTVSPropertyOp46
 70
     1
102
RTVSPropertyOp47
 70
     1
102
RTVSPropertyOp48
 70
     1
102
RTVSPropertyOp49
 70
     1
102
RTVSPropertyOp50
 70
     1
102
RTVSPropertyOp51
 70
     0
102
RTVSPropertyOp52
 70
     0
102
RTVSPropertyOp53
 70
     1
102
RTVSPropertyOp54
 70
     1
102
RTVSPropertyOp55
 70
     1
102
RTVSPropertyOp56
 70
     1
102
RTVSPropertyOp57
 70
     1
102
RTVSPropertyOp58
 70
     1
102
RTVSPropertyOp59
 70
     1
102
RTVSPropertyOp60
 70
     1
102
RTVSPropertyOp61
 70
     1
102
RTVSPropertyOp62
 70
     1
  0
XRECORD
  5
3A2
102
{ACAD_REACTORS
330
3A1
102
}
330
3A1
100
AcDbXrecord
280
     1
102
RTVSPost2010Prop28
280
     0
102
RTVSPost2010PropOp28
 70
     1
102
RTVSPost2010Prop29
280
     1
102
RTVSPost2010PropOp29
 70
     1
102
RTVSPost2010Prop30
280
     1
102
RTVSPost2010PropOp30
 70
     1
102
RTVSPost2010Prop31
280
     0
102
RTVSPost2010PropOp31
 70
     1
102
RTVSPost2010Prop32
280
     0
102
RTVSPost2010PropOp32
 70
     1
102
RTVSPost2010Prop33
280
     0
102
RTVSPost2010PropOp33
 70
     1
102
RTVSPost2010Prop34
280
     0
102
RTVSPost2010PropOp34
 70
     1
102
RTVSPost2010Prop35
280
     0
102
RTVSPost2010PropOp35
 70
     1
102
RTVSPost2010Prop36
280
     0
102
RTVSPost2010PropOp36
 70
     1
102
RTVSPost2010Prop37
 90
       50
102
RTVSPost2010PropOp37
 70
     1
102
RTVSPost2010Prop38
140
0.0
102
RTVSPost2010PropOp38
 70
     1
102
RTVSPost2010Prop39
140
1.0
102
RTVSPost2010PropOp39
 70
     1
102
RTVSPost2010Prop40
 90
        0
102
RTVSPost2010PropOp40
 70
     1
102
RTVSPost2010Prop41ColorIndex
 90
       18
102
RTVSPost2010Prop41ColorRGB
 90
        0
102
RTVSPost2010PropOp41
 70
     1
102
RTVSPost2010Prop42
 90
       50
102
RTVSPost2010PropOp42
 70
     1
102
RTVSPost2010Prop43
 90
        3
102
RTVSPost2010PropOp43
 70
     1
102
RTVSPost2010Prop44ColorIndex
 90
        5
102
RTVSPost2010Prop44ColorRGB
 90
      255
102
RTVSPost2010PropOp44
 70
     1
102
RTVSPost2010Prop45
280
     0
102
RTVSPost2010PropOp45
 70
     1
102
RTVSPost2010Prop46
 90
       50
102
RTVSPost2010PropOp46
 70
     1
102
RTVSPost2010Prop47
 90
       50
102
RTVSPost2010PropOp47
 70
     1
102
RTVSPost2010Prop48
 90
       50
102
RTVSPost2010PropOp48
 70
     1
102
RTVSPost2010Prop49
280
     0
102
RTVSPost2010PropOp49
 70
     1
102
RTVSPost2010Prop50
 90
       50
102
RTVSPost2010PropOp50
 70
     1
102
RTVSPost2010Prop51ColorIndex
 90
      256
102
RTVSPost2010Prop51ColorRGB
 90
-16777216
102
RTVSPost2010PropOp51
 70
     0
102
RTVSPost2010Prop52
140
1.0
102
RTVSPost2010PropOp52
 70
     0
102
RTVSPost2010Prop53
 90
        2
102
RTVSPost2010PropOp53
 70
     1
102
RTVSPost2010Prop54
  1
strokes_ogs.tif
102
RTVSPost2010PropOp54
 70
     1
102
RTVSPost2010Prop55
280
     0
102
RTVSPost2010PropOp55
 70
     1
102
RTVSPost2010Prop56
140
1.0
102
RTVSPost2010PropOp56
 70
     1
102
RTVSPost2010Prop57
140
1.0
102
RTVSPost2010PropOp57
 70
     1
102
RTVSPropertyOp0
 70
     1
102
RTVSPropertyOp1
 70
     1
102
RTVSPropertyOp2
 70
     1
102
RTVSPropertyOp3
 70
     1
102
RTVSPropertyOp4
 70
     1
102
RTVSPropertyOp5
 70
     1
102
RTVSPropertyOp6
 70
     1
102
RTVSPropertyOp7
 70
     1
102
RTVSPropertyOp8
 70
     1
102
RTVSPropertyOp9
 70
     1
102
RTVSPropertyOp10
 70
     1
102
RTVSPropertyOp11
 70
     1
102
RTVSPropertyOp12
 70
     1
102
RTVSPropertyOp13
 70
     1
102
RTVSPropertyOp14
 70
     1
102
RTVSPropertyOp15
 70
     1
102
RTVSPropertyOp16
 70
     1
102
RTVSPropertyOp17
 70
     1
102
RTVSPropertyOp18
 70
     1
102
RTVSPropertyOp19
 70
     1
102
RTVSPropertyOp20
 70
     1
102
RTVSPropertyOp21
 70
     1
102
RTVSPropertyOp22
 70
     1
102
RTVSPropertyOp23
 70
     1
102
RTVSPropertyOp24
 70
     1
102
RTVSPropertyOp25
 70
     1
102
RTVSPropertyOp26
 70
     1
102
RTVSPropertyOp27
 70
     1
102
RTVSPropertyOp28
 70
     1
102
RTVSPropertyOp29
 70
     1
102
RTVSPropertyOp30
 70
     1
102
RTVSPropertyOp31
 70
     1
102
RTVSPropertyOp32
 70
     1
102
RTVSPropertyOp33
 70
     1
102
RTVSPropertyOp34
 70
     1
102
RTVSPropertyOp35
 70
     1
102
RTVSPropertyOp36
 70
     1
102
RTVSPropertyOp37
 70
     1
102
RTVSPropertyOp38
 70
     1
102
RTVSPropertyOp39
 70
     1
102
RTVSPropertyOp40
 70
     1
102
RTVSPropertyOp41
 70
     1
102
RTVSPropertyOp42
 70
     1
102
RTVSPropertyOp43
 70
     1
102
RTVSPropertyOp44
 70
     1
102
RTVSPropertyOp45
 70
     1
102
RTVSPropertyOp46
 70
     1
102
RTVSPropertyOp47
 70
     1
102
RTVSPropertyOp48
 70
     1
102
RTVSPropertyOp49
 70
     1
102
RTVSPropertyOp50
 70
     1
102
RTVSPropertyOp51
 70
     0
102
RTVSPropertyOp52
 70
     0
102
RTVSPropertyOp53
 70
     1
102
RTVSPropertyOp54
 70
     1
102
RTVSPropertyOp55
 70
     1
102
RTVSPropertyOp56
 70
     1
102
RTVSPropertyOp57
 70
     1
102
RTVSPropertyOp58
 70
     1
102
RTVSPropertyOp59
 70
     1
102
RTVSPropertyOp60
 70
     1
102
RTVSPropertyOp61
 70
     1
102
RTVSPropertyOp62
 70
     1
  0
ENDSEC
  0
EOF
