  0
SECTION
  2
HEADER
  9
$ACADVER
  1
AC1018
  9
$ACADMAINTVER
 70
   104
  9
$DWGCODEPAGE
  3
ANSI_1250
  9
$LASTSAVEDBY
  1
wq7085
  9
$INSBASE
 10
0.0
 20
0.0
 30
0.0
  9
$EXTMIN
 10
175.9166823333333
 20
114.534924
 30
0.0
  9
$EXTMAX
 10
419.095956
 20
345.2288016666667
 30
0.0
  9
$LIMMIN
 10
-0.5
 20
-0.5
  9
$LIMMAX
 10
5.0
 20
5.0
  9
$ORTHOMODE
 70
     0
  9
$REGENMODE
 70
     1
  9
$FILLMODE
 70
     1
  9
$QTEXTMODE
 70
     0
  9
$MIRRTEXT
 70
     1
  9
$LTSCALE
 40
1.0
  9
$ATTMODE
 70
     1
  9
$TEXTSIZE
 40
0.2
  9
$TRACEWID
 40
0.05
  9
$TEXTSTYLE
  7
Standard
  9
$CLAYER
  8
0
  9
$CELTYPE
  6
ByLayer
  9
$CECOLOR
 62
   256
  9
$CELTSCALE
 40
1.0
  9
$DISPSILH
 70
     0
  9
$DIMSCALE
 40
1.0
  9
$DIMASZ
 40
0.18
  9
$DIMEXO
 40
0.0625
  9
$DIMDLI
 40
0.38
  9
$DIMRND
 40
0.0
  9
$DIMDLE
 40
0.0
  9
$DIMEXE
 40
0.18
  9
$DIMTP
 40
0.0
  9
$DIMTM
 40
0.0
  9
$DIMTXT
 40
0.18
  9
$DIMCEN
 40
0.09
  9
$DIMTSZ
 40
0.0
  9
$DIMTOL
 70
     0
  9
$DIMLIM
 70
     0
  9
$DIMTIH
 70
     1
  9
$DIMTOH
 70
     1
  9
$DIMSE1
 70
     0
  9
$DIMSE2
 70
     0
  9
$DIMTAD
 70
     0
  9
$DIMZIN
 70
     0
  9
$DIMBLK
  1

  9
$DIMASO
 70
     1
  9
$DIMSHO
 70
     1
  9
$DIMPOST
  1

  9
$DIMAPOST
  1

  9
$DIMALT
 70
     0
  9
$DIMALTD
 70
     2
  9
$DIMALTF
 40
25.4
  9
$DIMLFAC
 40
1.0
  9
$DIMTOFL
 70
     0
  9
$DIMTVP
 40
0.0
  9
$DIMTIX
 70
     0
  9
$DIMSOXD
 70
     0
  9
$DIMSAH
 70
     0
  9
$DIMBLK1
  1

  9
$DIMBLK2
  1

  9
$DIMSTYLE
  2
Standard
  9
$DIMCLRD
 70
     0
  9
$DIMCLRE
 70
     0
  9
$DIMCLRT
 70
     0
  9
$DIMTFAC
 40
1.0
  9
$DIMGAP
 40
0.09
  9
$DIMJUST
 70
     0
  9
$DIMSD1
 70
     0
  9
$DIMSD2
 70
     0
  9
$DIMTOLJ
 70
     1
  9
$DIMTZIN
 70
     0
  9
$DIMALTZ
 70
     0
  9
$DIMALTTZ
 70
     0
  9
$DIMUPT
 70
     0
  9
$DIMDEC
 70
     4
  9
$DIMTDEC
 70
     4
  9
$DIMALTU
 70
     2
  9
$DIMALTTD
 70
     2
  9
$DIMTXSTY
  7
Standard
  9
$DIMAUNIT
 70
     0
  9
$DIMADEC
 70
     0
  9
$DIMALTRND
 40
0.0
  9
$DIMAZIN
 70
     0
  9
$DIMDSEP
 70
    46
  9
$DIMATFIT
 70
     3
  9
$DIMFRAC
 70
     0
  9
$DIMLDRBLK
  1

  9
$DIMLUNIT
 70
     2
  9
$DIMLWD
 70
    -2
  9
$DIMLWE
 70
    -2
  9
$DIMTMOVE
 70
     0
  9
$LUNITS
 70
     2
  9
$LUPREC
 70
     4
  9
$SKETCHINC
 40
0.1
  9
$FILLETRAD
 40
0.5
  9
$AUNITS
 70
     0
  9
$AUPREC
 70
     0
  9
$MENU
  1
.
  9
$ELEVATION
 40
0.0
  9
$PELEVATION
 40
0.0
  9
$THICKNESS
 40
0.0
  9
$LIMCHECK
 70
     0
  9
$CHAMFERA
 40
0.0
  9
$CHAMFERB
 40
0.0
  9
$CHAMFERC
 40
0.0
  9
$CHAMFERD
 40
0.0
  9
$SKPOLY
 70
     0
  9
$TDCREATE
 40
2459065.570104167
  9
$TDUCREATE
 40
2459065.486774861
  9
$TDUPDATE
 40
2459065.572002315
  9
$TDUUPDATE
 40
2459065.488668982
  9
$TDINDWG
 40
0.0003356597
  9
$TDUSRTIMER
 40
0.0003356597
  9
$USRTIMER
 70
     1
  9
$ANGBASE
 50
0.0
  9
$ANGDIR
 70
     0
  9
$PDMODE
 70
     0
  9
$PDSIZE
 40
0.0
  9
$PLINEWID
 40
0.0
  9
$SPLFRAME
 70
     0
  9
$SPLINETYPE
 70
     6
  9
$SPLINESEGS
 70
     8
  9
$HANDSEED
  5
3B2
  9
$SURFTAB1
 70
     6
  9
$SURFTAB2
 70
     6
  9
$SURFTYPE
 70
     6
  9
$SURFU
 70
     6
  9
$SURFV
 70
     6
  9
$UCSBASE
  2

  9
$UCSNAME
  2

  9
$UCSORG
 10
274.404842
 20
288.907994
 30
0.0
  9
$UCSXDIR
 10
1.0
 20
0.0
 30
0.0
  9
$UCSYDIR
 10
0.0
 20
1.0
 30
0.0
  9
$UCSORTHOREF
  2

  9
$UCSORTHOVIEW
 70
     0
  9
$UCSORGTOP
 10
0.0
 20
0.0
 30
0.0
  9
$UCSORGBOTTOM
 10
0.0
 20
0.0
 30
0.0
  9
$UCSORGLEFT
 10
0.0
 20
0.0
 30
0.0
  9
$UCSORGRIGHT
 10
0.0
 20
0.0
 30
0.0
  9
$UCSORGFRONT
 10
0.0
 20
0.0
 30
0.0
  9
$UCSORGBACK
 10
0.0
 20
0.0
 30
0.0
  9
$PUCSBASE
  2

  9
$PUCSNAME
  2

  9
$PUCSORG
 10
0.0
 20
0.0
 30
0.0
  9
$PUCSXDIR
 10
1.0
 20
0.0
 30
0.0
  9
$PUCSYDIR
 10
0.0
 20
1.0
 30
0.0
  9
$PUCSORTHOREF
  2

  9
$PUCSORTHOVIEW
 70
     0
  9
$PUCSORGTOP
 10
0.0
 20
0.0
 30
0.0
  9
$PUCSORGBOTTOM
 10
0.0
 20
0.0
 30
0.0
  9
$PUCSORGLEFT
 10
0.0
 20
0.0
 30
0.0
  9
$PUCSORGRIGHT
 10
0.0
 20
0.0
 30
0.0
  9
$PUCSORGFRONT
 10
0.0
 20
0.0
 30
0.0
  9
$PUCSORGBACK
 10
0.0
 20
0.0
 30
0.0
  9
$USERI1
 70
     0
  9
$USERI2
 70
     0
  9
$USERI3
 70
     0
  9
$USERI4
 70
     0
  9
$USERI5
 70
     0
  9
$USERR1
 40
0.0
  9
$USERR2
 40
0.0
  9
$USERR3
 40
0.0
  9
$USERR4
 40
0.0
  9
$USERR5
 40
0.0
  9
$WORLDVIEW
 70
     1
  9
$SHADEDGE
 70
     3
  9
$SHADEDIF
 70
    70
  9
$TILEMODE
 70
     1
  9
$MAXACTVP
 70
    64
  9
$PINSBASE
 10
0.0
 20
0.0
 30
0.0
  9
$PLIMCHECK
 70
     0
  9
$PEXTMIN
 10
-0.5
 20
-0.5
 30
-0.5
  9
$PEXTMAX
 10
5.0
 20
5.0
 30
5.0
  9
$PLIMMIN
 10
-0.5
 20
-0.5
  9
$PLIMMAX
 10
5.0
 20
5.0
  9
$UNITMODE
 70
     0
  9
$VISRETAIN
 70
     1
  9
$PLINEGEN
 70
     0
  9
$PSLTSCALE
 70
     1
  9
$TREEDEPTH
 70
  3020
  9
$CMLSTYLE
  2
Standard
  9
$CMLJUST
 70
     0
  9
$CMLSCALE
 40
1.0
  9
$PROXYGRAPHICS
 70
     1
  9
$MEASUREMENT
 70
     1
  9
$CELWEIGHT
370
    13
  9
$ENDCAPS
280
     0
  9
$JOINSTYLE
280
     0
  9
$LWDISPLAY
290
     0
  9
$INSUNITS
 70
     4
  9
$HYPERLINKBASE
  1

  9
$STYLESHEET
  1

  9
$XEDIT
290
     1
  9
$CEPSNTYPE
380
     0
  9
$PSTYLEMODE
290
     1
  9
$FINGERPRINTGUID
  2
{96D83038-61CB-4988-99BD-543846663369}
  9
$VERSIONGUID
  2
{5E43333D-C25C-ED43-8BB4-47F954B17D4C}
  9
$EXTNAMES
290
     1
  9
$PSVPSCALE
 40
0.0
  9
$OLESTARTUP
290
     0
  9
$SORTENTS
280
   127
  9
$INDEXCTL
280
     0
  9
$HIDETEXT
280
     1
  9
$XCLIPFRAME
290
     0
  9
$HALOGAP
280
     0
  9
$OBSCOLOR
 70
   257
  9
$OBSLTYPE
280
     0
  9
$INTERSECTIONDISPLAY
280
     0
  9
$INTERSECTIONCOLOR
 70
   257
  9
$DIMASSOC
280
     2
  9
$PROJECTNAME
  1

  0
ENDSEC
  0
SECTION
  2
CLASSES
  0
CLASS
  1
ACDBDICTIONARYWDFLT
  2
AcDbDictionaryWithDefault
  3
ObjectDBX Classes
 90
        0
 91
        1
280
     0
281
     0
  0
CLASS
  1
VISUALSTYLE
  2
AcDbVisualStyle
  3
ObjectDBX Classes
 90
     4095
 91
       24
280
     0
281
     0
  0
CLASS
  1
MATERIAL
  2
AcDbMaterial
  3
ObjectDBX Classes
 90
     1153
 91
        3
280
     0
281
     0
  0
CLASS
  1
SCALE
  2
AcDbScale
  3
ObjectDBX Classes
 90
     1153
 91
       33
280
     0
281
     0
  0
CLASS
  1
TABLESTYLE
  2
AcDbTableStyle
  3
ObjectDBX Classes
 90
     4095
 91
        1
280
     0
281
     0
  0
CLASS
  1
MLEADERSTYLE
  2
AcDbMLeaderStyle
  3
ACDB_MLEADERSTYLE_CLASS
 90
     4095
 91
        1
280
     0
281
     0
  0
CLASS
  1
SUN
  2
AcDbSun
  3
SCENEOE
 90
     1153
 91
        0
280
     0
281
     0
  0
CLASS
  1
DIMASSOC
  2
AcDbDimAssoc
  3
"AcDbDimAssoc|Product Desc:     AcDim ARX App For Dimension|Company:          Autodesk, Inc.|WEB Address:      www.autodesk.com"
 90
        0
 91
        7
280
     0
281
     0
  0
CLASS
  1
DICTIONARYVAR
  2
AcDbDictionaryVar
  3
ObjectDBX Classes
 90
        0
 91
        8
280
     0
281
     0
  0
CLASS
  1
CELLSTYLEMAP
  2
AcDbCellStyleMap
  3
ObjectDBX Classes
 90
     1152
 91
        2
280
     0
281
     0
  0
CLASS
  1
ACDBSECTIONVIEWSTYLE
  2
AcDbSectionViewStyle
  3
ObjectDBX Classes
 90
     1025
 91
        1
280
     0
281
     0
  0
CLASS
  1
ACDBDETAILVIEWSTYLE
  2
AcDbDetailViewStyle
  3
ObjectDBX Classes
 90
     1025
 91
        1
280
     0
281
     0
  0
CLASS
  1
SORTENTSTABLE
  2
AcDbSortentsTable
  3
ObjectDBX Classes
 90
        0
 91
        1
280
     0
281
     0
  0
ENDSEC
  0
SECTION
  2
TABLES
  0
TABLE
  2
VPORT
  5
8
330
0
100
AcDbSymbolTable
 70
    16
  0
VPORT
  5
29
330
8
100
AcDbSymbolTableRecord
100
AcDbViewportTableRecord
  2
*Active
 70
     0
 10
0.0
 20
0.0
 11
1.0
 21
1.0
 12
302.5562788213491
 22
294.4902579386639
 13
0.0
 23
0.0
 14
0.5
 24
0.5
 15
0.5
 25
0.5
 16
0.0
 26
0.0
 36
1.0
 17
0.0
 27
0.0
 37
0.0
 40
205.3648950870089
 41
2.292712066905615
 42
50.0
 43
446.86797
 44
-446.86797
 50
0.0
 51
0.0
 71
     0
 72
   100
 73
     1
 74
     3
 75
     0
 76
     0
 77
     0
 78
     0
281
     0
 65
     1
110
274.404842
120
288.907994
130
0.0
111
1.0
121
0.0
131
0.0
112
0.0
122
1.0
132
0.0
 79
     0
146
0.0
1001
ACAD_NAV_VCDISPLAY
1070
     3
  0
VPORT
  5
2B3
330
8
100
AcDbSymbolTableRecord
100
AcDbViewportTableRecord
  2
L1
 70
     0
 10
0.0
 20
0.0
 11
1.0
 21
1.0
 12
297.002106
 22
229.842833
 13
0.0
 23
0.0
 14
0.5
 24
0.5
 15
0.5
 25
0.5
 16
0.0
 26
0.0
 36
1.0
 17
0.0
 27
0.0
 37
0.0
 40
207.433333
 41
0.085602
 42
50.0
 43
446.86797
 44
-446.86797
 50
0.0
 51
0.0
 71
     0
 72
   100
 73
     1
 74
     3
 75
     0
 76
     0
 77
     0
 78
     0
281
     0
 65
     1
110
0.0
120
0.0
130
0.0
111
1.0
121
0.0
131
0.0
112
0.0
122
1.0
132
0.0
 79
     0
146
0.0
  0
VPORT
  5
2B4
330
8
100
AcDbSymbolTableRecord
100
AcDbViewportTableRecord
  2
L2
 70
     0
 10
0.0
 20
0.0
 11
0.5
 21
1.0
 12
0.0
 22
0.0
 13
0.0
 23
0.0
 14
0.5
 24
0.5
 15
0.5
 25
0.5
 16
0.0
 26
-1.0
 36
0.0
 17
0.0
 27
0.0
 37
0.0
 40
1319.143726
 41
0.013461
 42
50.0
 43
679.601336
 44
-679.601336
 50
0.0
 51
0.0
 71
     0
 72
   100
 73
     1
 74
     3
 75
     0
 76
     0
 77
     0
 78
     0
281
     0
 65
     1
110
0.0
120
0.0
130
0.0
111
1.0
121
0.0
131
0.0
112
0.0
122
1.0
132
0.0
 79
     0
146
0.0
  0
VPORT
  5
2B5
330
8
100
AcDbSymbolTableRecord
100
AcDbViewportTableRecord
  2
L2
 70
     0
 10
0.5
 20
0.0
 11
1.0
 21
1.0
 12
0.0
 22
0.0
 13
0.0
 23
0.0
 14
0.5
 24
0.5
 15
0.5
 25
0.5
 16
1.0
 26
0.0
 36
0.0
 17
0.0
 27
0.0
 37
0.0
 40
1319.143726
 41
0.013461
 42
50.0
 43
667.6767099999999
 44
-667.6767099999999
 50
0.0
 51
0.0
 71
     0
 72
   100
 73
     1
 74
     3
 75
     0
 76
     0
 77
     0
 78
     0
281
     0
 65
     1
110
0.0
120
0.0
130
0.0
111
1.0
121
0.0
131
0.0
112
0.0
122
1.0
132
0.0
 79
     0
146
0.0
  0
VPORT
  5
2B6
330
8
100
AcDbSymbolTableRecord
100
AcDbViewportTableRecord
  2
L3
 70
     0
 10
0.0
 20
0.5
 11
1.0
 21
1.0
 12
297.002106
 22
229.842833
 13
0.0
 23
0.0
 14
0.5
 24
0.5
 15
0.5
 25
0.5
 16
0.0
 26
0.0
 36
1.0
 17
0.0
 27
0.0
 37
0.0
 40
207.433333
 41
0.085602
 42
50.0
 43
446.86797
 44
-446.86797
 50
0.0
 51
0.0
 71
     0
 72
   100
 73
     1
 74
     3
 75
     0
 76
     0
 77
     0
 78
     0
281
     0
 65
     1
110
0.0
120
0.0
130
0.0
111
1.0
121
0.0
131
0.0
112
0.0
122
1.0
132
0.0
 79
     0
146
0.0
  0
VPORT
  5
2B7
330
8
100
AcDbSymbolTableRecord
100
AcDbViewportTableRecord
  2
L3
 70
     0
 10
0.0
 20
0.0
 11
1.0
 21
0.5
 12
0.0
 22
0.0
 13
0.0
 23
0.0
 14
0.5
 24
0.5
 15
0.5
 25
0.5
 16
0.0
 26
-1.0
 36
0.0
 17
0.0
 27
0.0
 37
0.0
 40
1319.143726
 41
0.013461
 42
50.0
 43
679.601336
 44
-679.601336
 50
0.0
 51
0.0
 71
     0
 72
   100
 73
     1
 74
     3
 75
     0
 76
     0
 77
     0
 78
     0
281
     0
 65
     1
110
0.0
120
0.0
130
0.0
111
1.0
121
0.0
131
0.0
112
0.0
122
1.0
132
0.0
 79
     0
146
0.0
  0
VPORT
  5
2B8
330
8
100
AcDbSymbolTableRecord
100
AcDbViewportTableRecord
  2
L4
 70
     0
 10
0.0
 20
0.5
 11
0.5
 21
1.0
 12
297.002106
 22
229.842833
 13
0.0
 23
0.0
 14
0.5
 24
0.5
 15
0.5
 25
0.5
 16
0.0
 26
0.0
 36
1.0
 17
0.0
 27
0.0
 37
0.0
 40
207.433333
 41
0.085602
 42
50.0
 43
446.86797
 44
-446.86797
 50
0.0
 51
0.0
 71
     0
 72
   100
 73
     1
 74
     3
 75
     0
 76
     0
 77
     0
 78
     0
281
     0
 65
     1
110
0.0
120
0.0
130
0.0
111
1.0
121
0.0
131
0.0
112
0.0
122
1.0
132
0.0
 79
     0
146
0.0
  0
VPORT
  5
2B9
330
8
100
AcDbSymbolTableRecord
100
AcDbViewportTableRecord
  2
L4
 70
     0
 10
0.0
 20
0.0
 11
0.5
 21
0.5
 12
0.0
 22
0.0
 13
0.0
 23
0.0
 14
0.5
 24
0.5
 15
0.5
 25
0.5
 16
0.0
 26
-1.0
 36
0.0
 17
0.0
 27
0.0
 37
0.0
 40
1319.143726
 41
0.013461
 42
50.0
 43
679.601336
 44
-679.601336
 50
0.0
 51
0.0
 71
     0
 72
   100
 73
     1
 74
     3
 75
     0
 76
     0
 77
     0
 78
     0
281
     0
 65
     1
110
0.0
120
0.0
130
0.0
111
1.0
121
0.0
131
0.0
112
0.0
122
1.0
132
0.0
 79
     0
146
0.0
  0
VPORT
  5
2BA
330
8
100
AcDbSymbolTableRecord
100
AcDbViewportTableRecord
  2
L4
 70
     0
 10
0.5
 20
0.0
 11
1.0
 21
0.5
 12
0.0
 22
0.0
 13
0.0
 23
0.0
 14
0.5
 24
0.5
 15
0.5
 25
0.5
 16
1.0
 26
0.0
 36
0.0
 17
0.0
 27
0.0
 37
0.0
 40
1319.143726
 41
0.013461
 42
50.0
 43
667.6767099999999
 44
-667.6767099999999
 50
0.0
 51
0.0
 71
     0
 72
   100
 73
     1
 74
     3
 75
     0
 76
     0
 77
     0
 78
     0
281
     0
 65
     1
110
0.0
120
0.0
130
0.0
111
1.0
121
0.0
131
0.0
112
0.0
122
1.0
132
0.0
 79
     0
146
0.0
  0
VPORT
  5
2BB
330
8
100
AcDbSymbolTableRecord
100
AcDbViewportTableRecord
  2
L4
 70
     0
 10
0.5
 20
0.5
 11
1.0
 21
1.0
 12
0.0
 22
0.0
 13
0.0
 23
0.0
 14
0.5
 24
0.5
 15
0.5
 25
0.5
 16
0.5773502691896259
 26
-0.5773502691896259
 36
0.5773502691896259
 17
0.0
 27
0.0
 37
0.0
 40
1295.484074
 41
0.013707
 42
50.0
 43
674.79345
 44
-674.79345
 50
0.0
 51
0.0
 71
     0
 72
   100
 73
     1
 74
     3
 75
     0
 76
     0
 77
     0
 78
     0
281
     0
 65
     1
110
0.0
120
0.0
130
0.0
111
1.0
121
0.0
131
0.0
112
0.0
122
1.0
132
0.0
 79
     0
146
0.0
  0
VPORT
  5
2BC
330
8
100
AcDbSymbolTableRecord
100
AcDbViewportTableRecord
  2
L6
 70
     0
 10
0.0
 20
0.5
 11
0.333333
 21
1.0
 12
0.0
 22
0.0
 13
0.0
 23
0.0
 14
0.5
 24
0.5
 15
0.5
 25
0.5
 16
0.7188730927569434
 26
-0.5850486126764433
 36
0.3754192287502549
 17
0.0
 27
0.0
 37
0.0
 40
1367.187154
 41
0.012988
 42
50.0
 43
707.8776949999999
 44
-707.8776949999999
 50
0.0
 51
0.0
 71
     0
 72
   100
 73
     1
 74
     3
 75
     0
 76
     0
 77
     0
 78
     0
281
     0
 65
     1
110
0.0
120
0.0
130
0.0
111
1.0
121
0.0
131
0.0
112
0.0
122
1.0
132
0.0
 79
     0
146
0.0
  0
VPORT
  5
2BD
330
8
100
AcDbSymbolTableRecord
100
AcDbViewportTableRecord
  2
L6
 70
     0
 10
0.0
 20
0.0
 11
0.333333
 21
0.5
 12
0.0
 22
0.0
 13
0.0
 23
0.0
 14
0.5
 24
0.5
 15
0.5
 25
0.5
 16
-1.0
 26
0.0
 36
0.0
 17
0.0
 27
0.0
 37
0.0
 40
1319.143726
 41
0.013461
 42
50.0
 43
667.6767099999999
 44
-667.6767099999999
 50
0.0
 51
0.0
 71
     0
 72
   100
 73
     1
 74
     3
 75
     0
 76
     0
 77
     0
 78
     0
281
     0
 65
     1
110
0.0
120
0.0
130
0.0
111
1.0
121
0.0
131
0.0
112
0.0
122
1.0
132
0.0
 79
     0
146
0.0
  0
VPORT
  5
2BE
330
8
100
AcDbSymbolTableRecord
100
AcDbViewportTableRecord
  2
L6
 70
     0
 10
0.333333
 20
0.5
 11
0.666667
 21
1.0
 12
297.002106
 22
229.842833
 13
0.0
 23
0.0
 14
0.5
 24
0.5
 15
0.5
 25
0.5
 16
0.0
 26
0.0
 36
1.0
 17
0.0
 27
0.0
 37
0.0
 40
207.433333
 41
0.085602
 42
50.0
 43
446.86797
 44
-446.86797
 50
0.0
 51
0.0
 71
     0
 72
   100
 73
     1
 74
     3
 75
     0
 76
     0
 77
     0
 78
     0
281
     0
 65
     1
110
0.0
120
0.0
130
0.0
111
1.0
121
0.0
131
0.0
112
0.0
122
1.0
132
0.0
 79
     0
146
0.0
  0
VPORT
  5
2BF
330
8
100
AcDbSymbolTableRecord
100
AcDbViewportTableRecord
  2
L6
 70
     0
 10
0.333333
 20
0.0
 11
0.666667
 21
0.5
 12
0.0
 22
0.0
 13
0.0
 23
0.0
 14
0.5
 24
0.5
 15
0.5
 25
0.5
 16
0.0
 26
-1.0
 36
0.0
 17
0.0
 27
0.0
 37
0.0
 40
1319.143726
 41
0.013461
 42
50.0
 43
679.601336
 44
-679.601336
 50
0.0
 51
0.0
 71
     0
 72
   100
 73
     1
 74
     3
 75
     0
 76
     0
 77
     0
 78
     0
281
     0
 65
     1
110
0.0
120
0.0
130
0.0
111
1.0
121
0.0
131
0.0
112
0.0
122
1.0
132
0.0
 79
     0
146
0.0
  0
VPORT
  5
2C0
330
8
100
AcDbSymbolTableRecord
100
AcDbViewportTableRecord
  2
L6
 70
     0
 10
0.666667
 20
0.5
 11
1.0
 21
1.0
 12
0.0
 22
0.0
 13
0.0
 23
0.0
 14
0.5
 24
0.5
 15
0.5
 25
0.5
 16
0.5773502691896259
 26
-0.5773502691896259
 36
0.5773502691896259
 17
0.0
 27
0.0
 37
0.0
 40
1295.484074
 41
0.013707
 42
50.0
 43
674.79345
 44
-674.79345
 50
0.0
 51
0.0
 71
     0
 72
   100
 73
     1
 74
     3
 75
     0
 76
     0
 77
     0
 78
     0
281
     0
 65
     1
110
0.0
120
0.0
130
0.0
111
1.0
121
0.0
131
0.0
112
0.0
122
1.0
132
0.0
 79
     0
146
0.0
  0
VPORT
  5
2C1
330
8
100
AcDbSymbolTableRecord
100
AcDbViewportTableRecord
  2
L6
 70
     0
 10
0.666667
 20
0.0
 11
1.0
 21
0.5
 12
0.0
 22
0.0
 13
0.0
 23
0.0
 14
0.5
 24
0.5
 15
0.5
 25
0.5
 16
1.0
 26
0.0
 36
0.0
 17
0.0
 27
0.0
 37
0.0
 40
1319.143726
 41
0.013461
 42
50.0
 43
667.6767099999999
 44
-667.6767099999999
 50
0.0
 51
0.0
 71
     0
 72
   100
 73
     1
 74
     3
 75
     0
 76
     0
 77
     0
 78
     0
281
     0
 65
     1
110
0.0
120
0.0
130
0.0
111
1.0
121
0.0
131
0.0
112
0.0
122
1.0
132
0.0
 79
     0
146
0.0
  0
ENDTAB
  0
TABLE
  2
LTYPE
  5
5
330
0
100
AcDbSymbolTable
 70
     7
  0
LTYPE
  5
14
330
5
100
AcDbSymbolTableRecord
100
AcDbLinetypeTableRecord
  2
ByBlock
 70
     0
  3

 72
    65
 73
     0
 40
0.0
  0
LTYPE
  5
15
330
5
100
AcDbSymbolTableRecord
100
AcDbLinetypeTableRecord
  2
ByLayer
 70
     0
  3

 72
    65
 73
     0
 40
0.0
  0
LTYPE
  5
16
330
5
100
AcDbSymbolTableRecord
100
AcDbLinetypeTableRecord
  2
Continuous
 70
     0
  3
Solid line
 72
    65
 73
     0
 40
0.0
  0
LTYPE
  5
6E
330
5
100
AcDbSymbolTableRecord
100
AcDbLinetypeTableRecord
  2
CENTER
 70
     0
  3
____ _ ____ _ ____ _ ____
 72
    65
 73
     4
 40
47.4
 49
22.0
 74
     4
 75
     0
340
0
 46
0.0
 50
0.0
 44
0.0
 45
0.0
 49
-8.5
 74
     4
 75
     0
340
0
 46
0.0
 50
0.0
 44
0.0
 45
0.0
 49
8.5
 74
     4
 75
     0
340
0
 46
0.0
 50
0.0
 44
0.0
 45
0.0
 49
-8.5
 74
     4
 75
     0
340
0
 46
0.0
 50
0.0
 44
0.0
 45
0.0
  0
LTYPE
  5
6F
330
5
100
AcDbSymbolTableRecord
100
AcDbLinetypeTableRecord
  2
DASHDOT
 70
     0
  3
_._._._._._._._._._._._._._._._.
 72
    65
 73
     4
 40
70.0
 49
31.0
 74
     4
 75
     0
340
0
 46
0.0
 50
0.0
 44
0.0
 45
0.0
 49
-13.0
 74
     4
 75
     0
340
0
 46
0.0
 50
0.0
 44
0.0
 45
0.0
 49
13.0
 74
     4
 75
     0
340
0
 46
0.0
 50
0.0
 44
0.0
 45
0.0
 49
-13.0
 74
     4
 75
     0
340
0
 46
0.0
 50
0.0
 44
0.0
 45
0.0
  0
LTYPE
  5
70
330
5
100
AcDbSymbolTableRecord
100
AcDbLinetypeTableRecord
  2
DASHED
 70
     0
  3
__ __ __ __ __ __ __ __ __
 72
    65
 73
     2
 40
25.72
 49
12.86
 74
     4
 75
     0
340
0
 46
0.0
 50
0.0
 44
0.0
 45
0.0
 49
-12.86
 74
     4
 75
     0
340
0
 46
0.0
 50
0.0
 44
0.0
 45
0.0
  0
LTYPE
  5
71
330
5
100
AcDbSymbolTableRecord
100
AcDbLinetypeTableRecord
  2
DOT
 70
     0
  3
.........................
 72
    65
 73
     2
 40
10.0
 49
0.0
 74
     4
 75
     0
340
0
 46
0.0
 50
0.0
 44
0.0
 45
0.0
 49
-10.0
 74
     4
 75
     0
340
0
 46
0.0
 50
0.0
 44
0.0
 45
0.0
  0
LTYPE
  5
72
330
5
100
AcDbSymbolTableRecord
100
AcDbLinetypeTableRecord
  2
PHANTOM
 70
     0
  3
____ _ _ ____ _ _ _____ _ _ ____
 72
    65
 73
     6
 40
50.5
 49
18.0
 74
     4
 75
     0
340
0
 46
0.0
 50
0.0
 44
0.0
 45
0.0
 49
-6.5
 74
     4
 75
     0
340
0
 46
0.0
 50
0.0
 44
0.0
 45
0.0
 49
6.5
 74
     4
 75
     0
340
0
 46
0.0
 50
0.0
 44
0.0
 45
0.0
 49
-6.5
 74
     4
 75
     0
340
0
 46
0.0
 50
0.0
 44
0.0
 45
0.0
 49
6.5
 74
     4
 75
     0
340
0
 46
0.0
 50
0.0
 44
0.0
 45
0.0
 49
-6.5
 74
     4
 75
     0
340
0
 46
0.0
 50
0.0
 44
0.0
 45
0.0
  0
LTYPE
  5
354
330
5
100
AcDbSymbolTableRecord
100
AcDbLinetypeTableRecord
  2
CENTER2
 70
     0
  3
Center (.5x) ___ _ ___ _ ___ _ ___ _ ___ _ ___
 72
    65
 73
     4
 40
1.125
 49
0.75
 74
     0
 49
-0.125
 74
     0
 49
0.125
 74
     0
 49
-0.125
 74
     0
  0
ENDTAB
  0
TABLE
  2
LAYER
  5
2
330
0
100
AcDbSymbolTable
 70
    22
  0
LAYER
  5
10
102
{ACAD_XDICTIONARY
360
35F
102
}
330
2
100
AcDbSymbolTableRecord
100
AcDbLayerTableRecord
  2
0
 70
     0
 62
     7
  6
Continuous
370
    -3
390
F
  0
LAYER
  5
20D
330
2
100
AcDbSymbolTableRecord
100
AcDbLayerTableRecord
  2
Defpoints
 70
     0
 62
     7
  6
Continuous
290
     0
370
    -3
390
F
  0
LAYER
  5
351
102
{ACAD_XDICTIONARY
360
361
102
}
330
2
100
AcDbSymbolTableRecord
100
AcDbLayerTableRecord
  2
1
 70
     0
 62
     4
  6
Continuous
370
    -3
390
F
  0
LAYER
  5
352
102
{ACAD_XDICTIONARY
360
363
102
}
330
2
100
AcDbSymbolTableRecord
100
AcDbLayerTableRecord
  2
2
 70
     0
 62
     7
  6
Continuous
370
    -3
390
F
  0
LAYER
  5
353
102
{ACAD_XDICTIONARY
360
365
102
}
330
2
100
AcDbSymbolTableRecord
100
AcDbLayerTableRecord
  2
4
 70
     0
 62
     2
  6
CENTER2
370
    -3
390
F
  0
LAYER
  5
355
102
{ACAD_XDICTIONARY
360
367
102
}
330
2
100
AcDbSymbolTableRecord
100
AcDbLayerTableRecord
  2
SK1
 70
     0
 62
     4
  6
Continuous
370
    -3
390
F
  0
LAYER
  5
356
102
{ACAD_XDICTIONARY
360
369
102
}
330
2
100
AcDbSymbolTableRecord
100
AcDbLayerTableRecord
  2
SK2
 70
     0
 62
     7
  6
Continuous
370
    -3
390
F
  0
LAYER
  5
358
102
{ACAD_XDICTIONARY
360
36B
102
}
330
2
100
AcDbSymbolTableRecord
100
AcDbLayerTableRecord
  2
SK4
 70
     0
 62
     2
  6
CENTER2
370
    -3
390
F
  0
LAYER
  5
359
102
{ACAD_XDICTIONARY
360
36D
102
}
330
2
100
AcDbSymbolTableRecord
100
AcDbLayerTableRecord
  2
SK6
 70
     0
 62
     5
  6
Continuous
370
    -3
390
F
  0
LAYER
  5
35A
102
{ACAD_XDICTIONARY
360
36F
102
}
330
2
100
AcDbSymbolTableRecord
100
AcDbLayerTableRecord
  2
CUT
 70
     0
 62
     1
  6
Continuous
370
    -3
390
F
  0
LAYER
  5
35B
102
{ACAD_XDICTIONARY
360
371
102
}
330
2
100
AcDbSymbolTableRecord
100
AcDbLayerTableRecord
  2
NOCUT
 70
     0
 62
     7
  6
Continuous
370
    -3
390
F
  0
LAYER
  5
35C
102
{ACAD_XDICTIONARY
360
373
102
}
330
2
100
AcDbSymbolTableRecord
100
AcDbLayerTableRecord
  2
80
 70
     0
 62
     6
  6
Continuous
370
    -3
390
F
  0
LAYER
  5
35D
102
{ACAD_XDICTIONARY
360
375
102
}
330
2
100
AcDbSymbolTableRecord
100
AcDbLayerTableRecord
  2
81
 70
     0
 62
     3
  6
Continuous
370
    -3
390
F
  0
ENDTAB
  0
TABLE
  2
STYLE
  5
3
330
0
100
AcDbSymbolTable
 70
     3
  0
STYLE
  5
11
330
3
100
AcDbSymbolTableRecord
100
AcDbTextStyleTableRecord
  2
Standard
 70
     0
 40
0.0
 41
1.0
 50
0.0
 71
     0
 42
0.2
  3
txt
  4

  0
STYLE
  5
206
330
3
100
AcDbSymbolTableRecord
100
AcDbTextStyleTableRecord
  2
cesky
 70
     0
 40
0.0
 41
1.0
 50
0.0
 71
     0
 42
0.2
  3
simplex.shx
  4

  0
STYLE
  5
207
330
3
100
AcDbSymbolTableRecord
100
AcDbTextStyleTableRecord
  2
DWGDirectTextStyle
 70
     0
 40
0.0
 41
1.0
 50
0.0
 71
     0
 42
0.2
  3
simplex
  4

  0
ENDTAB
  0
TABLE
  2
VIEW
  5
6
330
0
100
AcDbSymbolTable
 70
     0
  0
ENDTAB
  0
TABLE
  2
UCS
  5
7
330
0
100
AcDbSymbolTable
 70
     0
  0
ENDTAB
  0
TABLE
  2
APPID
  5
9
330
0
100
AcDbSymbolTable
 70
     7
  0
APPID
  5
12
330
9
100
AcDbSymbolTableRecord
100
AcDbRegAppTableRecord
  2
ACAD
 70
     0
  0
APPID
  5
209
330
9
100
AcDbSymbolTableRecord
100
AcDbRegAppTableRecord
  2
ACAD_DSTYLE_DIMBREAK
 70
     0
  0
APPID
  5
2C2
330
9
100
AcDbSymbolTableRecord
100
AcDbRegAppTableRecord
  2
ACAD_DSTYLE_DIM_LINETYPE
 70
     0
  0
APPID
  5
2C3
330
9
100
AcDbSymbolTableRecord
100
AcDbRegAppTableRecord
  2
ACAD_DSTYLE_DIM_EXT1_LINETYPE
 70
     0
  0
APPID
  5
2C4
330
9
100
AcDbSymbolTableRecord
100
AcDbRegAppTableRecord
  2
ACAD_DSTYLE_DIM_EXT2_LINETYPE
 70
     0
  0
APPID
  5
304
330
9
100
AcDbSymbolTableRecord
100
AcDbRegAppTableRecord
  2
ACAD_MLEADERVER
 70
     0
  0
APPID
  5
37A
330
9
100
AcDbSymbolTableRecord
100
AcDbRegAppTableRecord
  2
ACAD_NAV_VCDISPLAY
 70
     0
  0
ENDTAB
  0
TABLE
  2
DIMSTYLE
  5
A
330
0
100
AcDbSymbolTable
 70
     1
100
AcDbDimStyleTable
 71
     0
  0
DIMSTYLE
105
27
330
A
100
AcDbSymbolTableRecord
100
AcDbDimStyleTableRecord
  2
Standard
 70
     0
340
11
1001
ACAD_DSTYLE_DIMBREAK
1070
   391
1040
6.349999999999999
  0
ENDTAB
  0
TABLE
  2
BLOCK_RECORD
  5
1
330
0
100
AcDbSymbolTable
 70
    16
  0
BLOCK_RECORD
  5
1F
102
{ACAD_XDICTIONARY
360
314
102
}
330
1
100
AcDbSymbolTableRecord
100
AcDbBlockTableRecord
  2
*Model_Space
340
22
  0
BLOCK_RECORD
  5
1B
330
1
100
AcDbSymbolTableRecord
100
AcDbBlockTableRecord
  2
*Paper_Space
340
1E
  0
BLOCK_RECORD
  5
23
330
1
100
AcDbSymbolTableRecord
100
AcDbBlockTableRecord
  2
*Paper_Space0
340
26
  0
BLOCK_RECORD
  5
200
330
1
100
AcDbSymbolTableRecord
100
AcDbBlockTableRecord
  2
ASSORTED_DRAFT1
340
0
  0
BLOCK_RECORD
  5
20E
330
1
100
AcDbSymbolTableRecord
100
AcDbBlockTableRecord
  2
*D2
340
0
  0
BLOCK_RECORD
  5
21A
330
1
100
AcDbSymbolTableRecord
100
AcDbBlockTableRecord
  2
_U0
340
0
  0
BLOCK_RECORD
  5
226
330
1
100
AcDbSymbolTableRecord
100
AcDbBlockTableRecord
  2
*D4
340
0
  0
BLOCK_RECORD
  5
232
330
1
100
AcDbSymbolTableRecord
100
AcDbBlockTableRecord
  2
_U1
340
0
  0
BLOCK_RECORD
  5
23E
330
1
100
AcDbSymbolTableRecord
100
AcDbBlockTableRecord
  2
*D6
340
0
  0
BLOCK_RECORD
  5
24A
330
1
100
AcDbSymbolTableRecord
100
AcDbBlockTableRecord
  2
_U2
340
0
  0
BLOCK_RECORD
  5
256
330
1
100
AcDbSymbolTableRecord
100
AcDbBlockTableRecord
  2
*D8
340
0
  0
BLOCK_RECORD
  5
262
330
1
100
AcDbSymbolTableRecord
100
AcDbBlockTableRecord
  2
_U3
340
0
  0
BLOCK_RECORD
  5
26E
330
1
100
AcDbSymbolTableRecord
100
AcDbBlockTableRecord
  2
*D10
340
0
  0
BLOCK_RECORD
  5
279
330
1
100
AcDbSymbolTableRecord
100
AcDbBlockTableRecord
  2
_U4
340
0
  0
BLOCK_RECORD
  5
284
330
1
100
AcDbSymbolTableRecord
100
AcDbBlockTableRecord
  2
*D12
340
0
  0
BLOCK_RECORD
  5
290
330
1
100
AcDbSymbolTableRecord
100
AcDbBlockTableRecord
  2
_U5
340
0
  0
BLOCK_RECORD
  5
29D
330
1
100
AcDbSymbolTableRecord
100
AcDbBlockTableRecord
  2
*D14
340
0
  0
BLOCK_RECORD
  5
2A9
330
1
100
AcDbSymbolTableRecord
100
AcDbBlockTableRecord
  2
_U6
340
0
  0
ENDTAB
  0
ENDSEC
  0
SECTION
  2
BLOCKS
  0
BLOCK
  5
20
330
1F
100
AcDbEntity
  8
0
100
AcDbBlockBegin
  2
*Model_Space
 70
     0
 10
0.0
 20
0.0
 30
0.0
  3
*Model_Space
  1

  0
ENDBLK
  5
21
330
1F
100
AcDbEntity
  8
0
100
AcDbBlockEnd
  0
BLOCK
  5
1C
330
1B
100
AcDbEntity
 67
     1
  8
0
100
AcDbBlockBegin
  2
*Paper_Space
 70
     0
 10
0.0
 20
0.0
 30
0.0
  3
*Paper_Space
  1

  0
ENDBLK
  5
1D
330
1B
100
AcDbEntity
 67
     1
  8
0
100
AcDbBlockEnd
  0
BLOCK
  5
24
330
23
100
AcDbEntity
 67
     1
  8
0
100
AcDbBlockBegin
  2
*Paper_Space0
 70
     0
 10
0.0
 20
0.0
 30
0.0
  3
*Paper_Space0
  1

  0
ENDBLK
  5
25
330
23
100
AcDbEntity
 67
     1
  8
0
100
AcDbBlockEnd
  0
BLOCK
  5
203
330
200
100
AcDbEntity
  8
0
100
AcDbBlockBegin
  2
ASSORTED_DRAFT1
 70
     0
 10
0.0
 20
0.0
 30
0.0
  3
ASSORTED_DRAFT1
  1

  0
SOLID
  5
201
330
200
100
AcDbEntity
  8
0
 62
   254
370
    13
100
AcDbTrace
 10
270.185042
 20
168.534924
 30
0.0
 11
265.185046
 21
167.42645
 31
0.0
 12
265.1850379999999
 22
169.643397
 32
0.0
 13
270.185042
 23
168.534924
 33
0.0
  0
ENDBLK
  5
204
330
200
100
AcDbEntity
  8
0
100
AcDbBlockEnd
  0
BLOCK
  5
20F
330
20E
100
AcDbEntity
  8
0
100
AcDbBlockBegin
  2
*D2
 70
     1
 10
0.0
 20
0.0
 30
0.0
  3
*D2
  1

  0
LINE
  5
211
330
20E
100
AcDbEntity
  8
0
 62
   254
370
    -2
100
AcDbLine
 10
398.404842
 20
305.407994
 30
0.0
 11
398.404842
 21
328.5109970000001
 31
0.0
  0
LINE
  5
212
330
20E
100
AcDbEntity
  8
0
 62
   254
370
    -2
100
AcDbLine
 10
274.404842
 20
288.907994
 30
0.0
 11
274.404842
 21
328.5109970000001
 31
0.0
  0
LINE
  5
213
330
20E
100
AcDbEntity
  8
0
 62
   254
370
    -2
100
AcDbLine
 10
394.904842
 20
327.510997
 30
0.0
 11
277.904842
 21
327.510997
 31
0.0
  0
SOLID
  5
214
330
20E
100
AcDbEntity
  8
0
 62
   254
100
AcDbTrace
 10
394.904842
 20
326.927663
 30
0.0
 11
394.904842
 21
328.09433
 31
0.0
 12
398.404842
 22
327.510997
 32
0.0
 13
398.404842
 23
327.510997
 33
0.0
  0
SOLID
  5
215
330
20E
100
AcDbEntity
  8
0
 62
   254
100
AcDbTrace
 10
277.904842
 20
328.09433
 30
0.0
 11
277.904842
 21
326.927663
 31
0.0
 12
274.404842
 22
327.510997
 32
0.0
 13
274.404842
 23
327.510997
 33
0.0
  0
MTEXT
  5
216
330
20E
100
AcDbEntity
  8
0
 62
   254
370
    13
100
AcDbMText
 10
336.404842
 20
332.7609970000001
 30
0.0
 40
3.5
 41
0.0
 71
     5
 72
     1
  1
\A1;124
  7
cesky
 73
     1
 44
1.0
  0
POINT
  5
217
330
20E
100
AcDbEntity
  8
Defpoints
 62
     0
100
AcDbPoint
 10
398.404842
 20
305.407994
 30
0.0
  0
POINT
  5
218
330
20E
100
AcDbEntity
  8
Defpoints
 62
     0
100
AcDbPoint
 10
274.404842
 20
288.907994
 30
0.0
  0
POINT
  5
219
330
20E
100
AcDbEntity
  8
Defpoints
 62
     0
100
AcDbPoint
 10
274.404842
 20
327.510997
 30
0.0
  0
ENDBLK
  5
210
330
20E
100
AcDbEntity
  8
0
100
AcDbBlockEnd
  0
BLOCK
  5
221
330
21A
100
AcDbEntity
  8
0
100
AcDbBlockBegin
  2
_U0
 70
     0
 10
0.0
 20
0.0
 30
0.0
  3
_U0
  1

  0
ENDBLK
  5
222
330
21A
100
AcDbEntity
  8
0
100
AcDbBlockEnd
  0
BLOCK
  5
227
330
226
100
AcDbEntity
  8
0
100
AcDbBlockBegin
  2
*D4
 70
     1
 10
0.0
 20
0.0
 30
0.0
  3
*D4
  1

  0
LINE
  5
229
330
226
100
AcDbEntity
  8
0
 62
   254
370
    -2
100
AcDbLine
 10
398.404842
 20
307.407994
 30
0.0
 11
398.404842
 21
341.687968
 31
0.0
  0
LINE
  5
22A
330
226
100
AcDbEntity
  8
0
 62
   254
370
    -2
100
AcDbLine
 10
204.404842
 20
306.907994
 30
0.0
 11
204.404842
 21
341.687968
 31
0.0
  0
LINE
  5
22B
330
226
100
AcDbEntity
  8
0
 62
   254
370
    -2
100
AcDbLine
 10
394.904842
 20
340.687968
 30
0.0
 11
207.904842
 21
340.687968
 31
0.0
  0
SOLID
  5
22C
330
226
100
AcDbEntity
  8
0
 62
   254
100
AcDbTrace
 10
394.904842
 20
340.104634
 30
0.0
 11
394.904842
 21
341.271301
 31
0.0
 12
398.404842
 22
340.687968
 32
0.0
 13
398.404842
 23
340.687968
 33
0.0
  0
SOLID
  5
22D
330
226
100
AcDbEntity
  8
0
 62
   254
100
AcDbTrace
 10
207.904842
 20
341.271301
 30
0.0
 11
207.904842
 21
340.104634
 31
0.0
 12
204.404842
 22
340.687968
 32
0.0
 13
204.404842
 23
340.687968
 33
0.0
  0
MTEXT
  5
22E
330
226
100
AcDbEntity
  8
0
 62
   254
370
    13
100
AcDbMText
 10
301.404842
 20
345.937968
 30
0.0
 40
3.5
 41
0.0
 71
     5
 72
     1
  1
\A1;194
  7
cesky
 73
     1
 44
1.0
  0
POINT
  5
22F
330
226
100
AcDbEntity
  8
Defpoints
 62
     0
100
AcDbPoint
 10
398.404842
 20
307.407994
 30
0.0
  0
POINT
  5
230
330
226
100
AcDbEntity
  8
Defpoints
 62
     0
100
AcDbPoint
 10
204.404842
 20
306.907994
 30
0.0
  0
POINT
  5
231
330
226
100
AcDbEntity
  8
Defpoints
 62
     0
100
AcDbPoint
 10
204.404842
 20
340.687968
 30
0.0
  0
ENDBLK
  5
228
330
226
100
AcDbEntity
  8
0
100
AcDbBlockEnd
  0
BLOCK
  5
239
330
232
100
AcDbEntity
  8
0
100
AcDbBlockBegin
  2
_U1
 70
     0
 10
0.0
 20
0.0
 30
0.0
  3
_U1
  1

  0
ENDBLK
  5
23A
330
232
100
AcDbEntity
  8
0
100
AcDbBlockEnd
  0
BLOCK
  5
23F
330
23E
100
AcDbEntity
  8
0
100
AcDbBlockBegin
  2
*D6
 70
     1
 10
0.0
 20
0.0
 30
0.0
  3
*D6
  1

  0
LINE
  5
241
330
23E
100
AcDbEntity
  8
0
 62
   254
370
    -2
100
AcDbLine
 10
274.404842
 20
288.907994
 30
0.0
 11
274.404842
 21
328.5109970000001
 31
0.0
  0
LINE
  5
242
330
23E
100
AcDbEntity
  8
0
 62
   254
370
    -2
100
AcDbLine
 10
204.404842
 20
297.907994
 30
0.0
 11
204.404842
 21
328.5109970000001
 31
0.0
  0
LINE
  5
243
330
23E
100
AcDbEntity
  8
0
 62
   254
370
    -2
100
AcDbLine
 10
270.904842
 20
327.510997
 30
0.0
 11
207.904842
 21
327.510997
 31
0.0
  0
SOLID
  5
244
330
23E
100
AcDbEntity
  8
0
 62
   254
100
AcDbTrace
 10
270.904842
 20
326.927663
 30
0.0
 11
270.904842
 21
328.09433
 31
0.0
 12
274.404842
 22
327.510997
 32
0.0
 13
274.404842
 23
327.510997
 33
0.0
  0
SOLID
  5
245
330
23E
100
AcDbEntity
  8
0
 62
   254
100
AcDbTrace
 10
207.904842
 20
328.09433
 30
0.0
 11
207.904842
 21
326.927663
 31
0.0
 12
204.404842
 22
327.510997
 32
0.0
 13
204.404842
 23
327.510997
 33
0.0
  0
MTEXT
  5
246
330
23E
100
AcDbEntity
  8
0
 62
   254
370
    13
100
AcDbMText
 10
239.404842
 20
332.7609970000001
 30
0.0
 40
3.5
 41
0.0
 71
     5
 72
     1
  1
\A1;70
  7
cesky
 73
     1
 44
1.0
  0
POINT
  5
247
330
23E
100
AcDbEntity
  8
Defpoints
 62
     0
100
AcDbPoint
 10
274.404842
 20
288.907994
 30
0.0
  0
POINT
  5
248
330
23E
100
AcDbEntity
  8
Defpoints
 62
     0
100
AcDbPoint
 10
204.404842
 20
297.907994
 30
0.0
  0
POINT
  5
249
330
23E
100
AcDbEntity
  8
Defpoints
 62
     0
100
AcDbPoint
 10
204.404842
 20
327.510997
 30
0.0
  0
ENDBLK
  5
240
330
23E
100
AcDbEntity
  8
0
100
AcDbBlockEnd
  0
BLOCK
  5
251
330
24A
100
AcDbEntity
  8
0
100
AcDbBlockBegin
  2
_U2
 70
     0
 10
0.0
 20
0.0
 30
0.0
  3
_U2
  1

  0
ENDBLK
  5
252
330
24A
100
AcDbEntity
  8
0
100
AcDbBlockEnd
  0
BLOCK
  5
257
330
256
100
AcDbEntity
  8
0
100
AcDbBlockBegin
  2
*D8
 70
     1
 10
0.0
 20
0.0
 30
0.0
  3
*D8
  1

  0
LINE
  5
259
330
256
100
AcDbEntity
  8
0
 62
   254
370
    -2
100
AcDbLine
 10
398.404842
 20
305.407994
 30
0.0
 11
398.404842
 21
317.275348
 31
0.0
  0
LINE
  5
25A
330
256
100
AcDbEntity
  8
0
 62
   254
370
    -2
100
AcDbLine
 10
292.87428
 20
305.601089
 30
0.0
 11
292.87428
 21
317.275348
 31
0.0
  0
LINE
  5
25B
330
256
100
AcDbEntity
  8
0
 62
   254
370
    -2
100
AcDbLine
 10
394.904842
 20
316.275348
 30
0.0
 11
296.37428
 21
316.275348
 31
0.0
  0
SOLID
  5
25C
330
256
100
AcDbEntity
  8
0
 62
   254
100
AcDbTrace
 10
394.904842
 20
315.692015
 30
0.0
 11
394.904842
 21
316.858681
 31
0.0
 12
398.404842
 22
316.275348
 32
0.0
 13
398.404842
 23
316.275348
 33
0.0
  0
SOLID
  5
25D
330
256
100
AcDbEntity
  8
0
 62
   254
100
AcDbTrace
 10
296.37428
 20
316.858681
 30
0.0
 11
296.37428
 21
315.692015
 31
0.0
 12
292.87428
 22
316.275348
 32
0.0
 13
292.87428
 23
316.275348
 33
0.0
  0
MTEXT
  5
25E
330
256
100
AcDbEntity
  8
0
 62
   254
370
    13
100
AcDbMText
 10
345.639561
 20
321.525348
 30
0.0
 40
3.5
 41
0.0
 71
     5
 72
     1
  1
\A1;105.5
  7
cesky
 73
     1
 44
1.0
  0
POINT
  5
25F
330
256
100
AcDbEntity
  8
Defpoints
 62
     0
100
AcDbPoint
 10
398.404842
 20
305.407994
 30
0.0
  0
POINT
  5
260
330
256
100
AcDbEntity
  8
Defpoints
 62
     0
100
AcDbPoint
 10
292.87428
 20
305.601089
 30
0.0
  0
POINT
  5
261
330
256
100
AcDbEntity
  8
Defpoints
 62
     0
100
AcDbPoint
 10
292.87428
 20
316.275348
 30
0.0
  0
ENDBLK
  5
258
330
256
100
AcDbEntity
  8
0
100
AcDbBlockEnd
  0
BLOCK
  5
269
330
262
100
AcDbEntity
  8
0
100
AcDbBlockBegin
  2
_U3
 70
     0
 10
0.0
 20
0.0
 30
0.0
  3
_U3
  1

  0
ENDBLK
  5
26A
330
262
100
AcDbEntity
  8
0
100
AcDbBlockEnd
  0
BLOCK
  5
26F
330
26E
100
AcDbEntity
  8
0
100
AcDbBlockBegin
  2
*D10
 70
     1
 10
0.0
 20
0.0
 30
0.0
  3
*D10
  1

  0
LINE
  5
271
330
26E
100
AcDbEntity
  8
0
 62
   254
370
    -2
100
AcDbLine
 10
294.203832
 20
288.907994
 30
0.0
 11
419.095956
 21
288.907994
 31
0.0
  0
LINE
  5
272
330
26E
100
AcDbEntity
  8
0
 62
   254
370
    -2
100
AcDbLine
 10
330.83929
 20
305.407994
 30
0.0
 11
419.095956
 21
305.407994
 31
0.0
  0
LINE
  5
273
330
26E
100
AcDbEntity
  8
0
 62
   254
370
    -2
100
AcDbLine
 10
418.0959559999999
 20
288.907994
 30
0.0
 11
418.0959559999999
 21
305.407994
 31
0.0
  0
SOLID
  5
274
330
26E
100
AcDbEntity
  8
0
 62
   254
100
AcDbTrace
 10
418.679289
 20
301.907994
 30
0.0
 11
417.512623
 21
301.907994
 31
0.0
 12
418.0959559999999
 22
305.407994
 32
0.0
 13
418.0959559999999
 23
305.407994
 33
0.0
  0
MTEXT
  5
275
330
26E
100
AcDbEntity
  8
0
 62
   254
370
    13
100
AcDbMText
 10
412.845956
 20
279.07466
 30
0.0
 40
3.5
 41
0.0
 71
     5
 72
     1
  1
\A1;33
  7
cesky
 11
0.0
 21
1.0
 31
0.0
 73
     1
 44
1.0
  0
POINT
  5
276
330
26E
100
AcDbEntity
  8
Defpoints
 62
     0
100
AcDbPoint
 10
294.203832
 20
288.907994
 30
0.0
  0
POINT
  5
277
330
26E
100
AcDbEntity
  8
Defpoints
 62
     0
100
AcDbPoint
 10
330.83929
 20
305.407994
 30
0.0
  0
POINT
  5
278
330
26E
100
AcDbEntity
  8
Defpoints
 62
     0
100
AcDbPoint
 10
418.0959559999999
 20
305.407994
 30
0.0
  0
ENDBLK
  5
270
330
26E
100
AcDbEntity
  8
0
100
AcDbBlockEnd
  0
BLOCK
  5
27F
330
279
100
AcDbEntity
  8
0
100
AcDbBlockBegin
  2
_U4
 70
     0
 10
0.0
 20
0.0
 30
0.0
  3
_U4
  1

  0
ENDBLK
  5
280
330
279
100
AcDbEntity
  8
0
100
AcDbBlockEnd
  0
BLOCK
  5
285
330
284
100
AcDbEntity
  8
0
100
AcDbBlockBegin
  2
*D12
 70
     1
 10
0.0
 20
0.0
 30
0.0
  3
*D12
  1

  0
LINE
  5
287
330
284
100
AcDbEntity
  8
0
 62
    95
370
    -2
100
AcDbLine
 10
206.404842
 20
308.907994
 30
0.0
 11
191.47114
 21
308.907994
 31
0.0
  0
LINE
  5
288
330
284
100
AcDbEntity
  8
0
 62
    95
370
    -2
100
AcDbLine
 10
206.404842
 20
268.907994
 30
0.0
 11
191.47114
 21
268.907994
 31
0.0
  0
LINE
  5
289
330
284
100
AcDbEntity
  8
0
 62
    95
370
    -2
100
AcDbLine
 10
192.4711399999999
 20
305.407994
 30
0.0
 11
192.4711399999999
 21
272.407994
 31
0.0
  0
SOLID
  5
28A
330
284
100
AcDbEntity
  8
0
 62
    95
100
AcDbTrace
 10
193.054474
 20
305.407994
 30
0.0
 11
191.887807
 21
305.407994
 31
0.0
 12
192.4711399999999
 22
308.907994
 32
0.0
 13
192.4711399999999
 23
308.907994
 33
0.0
  0
SOLID
  5
28B
330
284
100
AcDbEntity
  8
0
 62
    95
100
AcDbTrace
 10
191.887807
 20
272.407994
 30
0.0
 11
193.054474
 21
272.407994
 31
0.0
 12
192.4711399999999
 22
268.907994
 32
0.0
 13
192.4711399999999
 23
268.907994
 33
0.0
  0
MTEXT
  5
28C
330
284
100
AcDbEntity
  8
0
 62
    95
370
    13
100
AcDbMText
 10
187.22114
 20
288.907994
 30
0.0
 40
3.5
 41
0.0
 71
     5
 72
     1
  1
\A1;40
  7
cesky
 11
0.0
 21
1.0
 31
0.0
 73
     1
 44
1.0
  0
POINT
  5
28D
330
284
100
AcDbEntity
  8
Defpoints
 62
     0
100
AcDbPoint
 10
206.404842
 20
308.907994
 30
0.0
  0
POINT
  5
28E
330
284
100
AcDbEntity
  8
Defpoints
 62
     0
100
AcDbPoint
 10
206.404842
 20
268.907994
 30
0.0
  0
POINT
  5
28F
330
284
100
AcDbEntity
  8
Defpoints
 62
     0
100
AcDbPoint
 10
192.4711399999999
 20
268.907994
 30
0.0
  0
ENDBLK
  5
286
330
284
100
AcDbEntity
  8
0
100
AcDbBlockEnd
  0
BLOCK
  5
298
330
290
100
AcDbEntity
  8
0
100
AcDbBlockBegin
  2
_U5
 70
     0
 10
0.0
 20
0.0
 30
0.0
  3
_U5
  1

  0
ENDBLK
  5
299
330
290
100
AcDbEntity
  8
0
100
AcDbBlockEnd
  0
BLOCK
  5
29E
330
29D
100
AcDbEntity
  8
0
100
AcDbBlockBegin
  2
*D14
 70
     1
 10
0.0
 20
0.0
 30
0.0
  3
*D14
  1

  0
LINE
  5
2A0
330
29D
100
AcDbEntity
  8
0
 62
    95
370
    -2
100
AcDbLine
 10
277.154842
 20
313.907994
 30
0.0
 11
179.770766
 21
313.907994
 31
0.0
  0
LINE
  5
2A1
330
29D
100
AcDbEntity
  8
0
 62
    95
370
    -2
100
AcDbLine
 10
277.154842
 20
263.907994
 30
0.0
 11
179.770766
 21
263.907994
 31
0.0
  0
LINE
  5
2A2
330
29D
100
AcDbEntity
  8
0
 62
    95
370
    -2
100
AcDbLine
 10
180.770766
 20
310.407994
 30
0.0
 11
180.770766
 21
267.407994
 31
0.0
  0
SOLID
  5
2A3
330
29D
100
AcDbEntity
  8
0
 62
    95
100
AcDbTrace
 10
181.3541
 20
310.407994
 30
0.0
 11
180.187433
 21
310.407994
 31
0.0
 12
180.770766
 22
313.907994
 32
0.0
 13
180.770766
 23
313.907994
 33
0.0
  0
SOLID
  5
2A4
330
29D
100
AcDbEntity
  8
0
 62
    95
100
AcDbTrace
 10
180.187433
 20
267.407994
 30
0.0
 11
181.3541
 21
267.407994
 31
0.0
 12
180.770766
 22
263.907994
 32
0.0
 13
180.770766
 23
263.907994
 33
0.0
  0
MTEXT
  5
2A5
330
29D
100
AcDbEntity
  8
0
 62
    95
370
    13
100
AcDbMText
 10
175.520766
 20
288.907994
 30
0.0
 40
3.5
 41
0.0
 71
     5
 72
     1
  1
\A1;50
  7
cesky
 11
0.0
 21
1.0
 31
0.0
 73
     1
 44
1.0
  0
POINT
  5
2A6
330
29D
100
AcDbEntity
  8
Defpoints
 62
     0
100
AcDbPoint
 10
277.154842
 20
313.907994
 30
0.0
  0
POINT
  5
2A7
330
29D
100
AcDbEntity
  8
Defpoints
 62
     0
100
AcDbPoint
 10
277.154842
 20
263.907994
 30
0.0
  0
POINT
  5
2A8
330
29D
100
AcDbEntity
  8
Defpoints
 62
     0
100
AcDbPoint
 10
180.770766
 20
263.907994
 30
0.0
  0
ENDBLK
  5
29F
330
29D
100
AcDbEntity
  8
0
100
AcDbBlockEnd
  0
BLOCK
  5
2B1
330
2A9
100
AcDbEntity
  8
0
100
AcDbBlockBegin
  2
_U6
 70
     0
 10
0.0
 20
0.0
 30
0.0
  3
_U6
  1

  0
ENDBLK
  5
2B2
330
2A9
100
AcDbEntity
  8
0
100
AcDbBlockEnd
  0
ENDSEC
  0
SECTION
  2
ENTITIES
  0
POINT
  5
73
102
{ACAD_REACTORS
330
35E
102
}
330
1F
100
AcDbEntity
  8
80
100
AcDbPoint
 10
274.404842
 20
288.907994
 30
0.0
  0
POINT
  5
76
330
1F
100
AcDbEntity
  8
SK4
 60
     1
100
AcDbPoint
 10
206.404842
 20
288.907994
 30
0.0
  0
POINT
  5
78
330
1F
100
AcDbEntity
  8
SK4
 60
     1
100
AcDbPoint
 10
274.404842
 20
288.907994
 30
0.0
  0
POINT
  5
79
330
1F
100
AcDbEntity
  8
4
 60
     1
100
AcDbPoint
 10
294.203832
 20
288.907994
 30
0.0
  0
POINT
  5
7A
330
1F
100
AcDbEntity
  8
4
 60
     1
100
AcDbPoint
 10
397.649162
 20
288.907994
 30
0.0
  0
POINT
  5
7B
330
1F
100
AcDbEntity
  8
SK6
 60
     1
100
AcDbPoint
 10
274.404842
 20
288.907994
 30
0.0
  0
POINT
  5
7C
330
1F
100
AcDbEntity
  8
SK6
 60
     1
100
AcDbPoint
 10
292.87428
 20
305.601089
 30
0.0
  0
LINE
  5
7D
330
1F
100
AcDbEntity
  8
1
100
AcDbLine
 10
295.168681
 20
273.23108
 30
0.0
 11
295.168681
 21
273.057992
 31
0.0
  0
LINE
  5
7F
330
1F
100
AcDbEntity
  8
1
100
AcDbLine
 10
294.203832
 20
272.907994
 30
0.0
 11
304.706794
 21
272.907994
 31
0.0
  0
LINE
  5
80
330
1F
100
AcDbEntity
  8
1
100
AcDbLine
 10
388.464907
 20
304.907994
 30
0.0
 11
378.819503
 21
304.907994
 31
0.0
  0
LINE
  5
81
330
1F
100
AcDbEntity
  8
1
100
AcDbLine
 10
397.624842
 20
290.843392
 30
0.0
 11
397.624842
 21
290.943407
 31
0.0
  0
LINE
  5
82
330
1F
100
AcDbEntity
  8
1
100
AcDbLine
 10
303.780789
 20
304.907994
 30
0.0
 11
294.203832
 21
304.907994
 31
0.0
  0
LINE
  5
83
330
1F
100
AcDbEntity
  8
1
100
AcDbLine
 10
394.226258
 20
300.985234
 30
0.0
 11
394.257245
 21
301.088563
 31
0.0
  0
LINE
  5
85
330
1F
100
AcDbEntity
  8
1
100
AcDbLine
 10
392.303476
 20
298.993825
 30
0.0
 11
392.272726
 21
298.891284
 31
0.0
  0
LINE
  5
86
330
1F
100
AcDbEntity
  8
1
100
AcDbLine
 10
393.031555
 20
298.704715
 30
0.0
 11
393.062226
 21
298.806991
 31
0.0
  0
LINE
  5
87
330
1F
100
AcDbEntity
  8
1
100
AcDbLine
 10
392.188698
 20
301.460918
 30
0.0
 11
392.219643
 21
301.564111
 31
0.0
  0
LINE
  5
88
330
1F
100
AcDbEntity
  8
1
100
AcDbLine
 10
391.454446
 20
300.274672
 30
0.0
 11
391.424017
 21
300.173199
 31
0.0
  0
LINE
  5
89
330
1F
100
AcDbEntity
  8
1
100
AcDbLine
 10
391.523231
 20
300.264788
 30
0.0
 11
391.492367
 21
300.161866
 31
0.0
  0
LINE
  5
8A
330
1F
100
AcDbEntity
  8
1
100
AcDbLine
 10
394.358211
 20
299.49789
 30
0.0
 11
394.388619
 21
299.59929
 31
0.0
  0
LINE
  5
8B
330
1F
100
AcDbEntity
  8
1
100
AcDbLine
 10
394.287083
 20
299.5178
 30
0.0
 11
394.317953
 21
299.620741
 31
0.0
  0
LINE
  5
8C
330
1F
100
AcDbEntity
  8
1
100
AcDbLine
 10
393.029879
 20
298.722893
 30
0.0
 11
393.060671
 21
298.825573
 31
0.0
  0
LINE
  5
8D
330
1F
100
AcDbEntity
  8
1
100
AcDbLine
 10
397.682658
 20
289.897775
 30
0.0
 11
397.190758
 21
289.422752
 31
0.0
  0
LINE
  5
8F
330
1F
100
AcDbEntity
  8
1
100
AcDbLine
 10
396.846018
 20
289.0898410000001
 30
0.0
 11
396.708098
 21
288.956653
 31
0.0
  0
LINE
  5
90
330
1F
100
AcDbEntity
  8
1
100
AcDbLine
 10
398.388062
 20
288.62519
 30
0.0
 11
397.724553
 21
288.459759
 31
0.0
  0
LINE
  5
91
330
1F
100
AcDbEntity
  8
1
100
AcDbLine
 10
397.073508
 20
288.297435
 30
0.0
 11
397.724553
 21
288.459759
 31
0.0
  0
LINE
  5
92
330
1F
100
AcDbEntity
  8
1
100
AcDbLine
 10
397.59984
 20
281.314907
 30
0.0
 11
396.954856
 21
281.499853
 31
0.0
  0
LINE
  5
93
330
1F
100
AcDbEntity
  8
1
100
AcDbLine
 10
397.59984
 20
281.314907
 30
0.0
 11
398.264067
 21
281.124443
 31
0.0
  0
LINE
  5
94
330
1F
100
AcDbEntity
  8
1
100
AcDbLine
 10
396.784789
 20
280.6279120000001
 30
0.0
 11
397.032761
 21
280.37113
 31
0.0
  0
LINE
  5
95
330
1F
100
AcDbEntity
  8
1
100
AcDbLine
 10
397.507783
 20
279.87923
 30
0.0
 11
397.032761
 21
280.37113
 31
0.0
  0
LINE
  5
96
330
1F
100
AcDbEntity
  8
1
100
AcDbLine
 10
382.459521
 20
297.067348
 30
0.0
 11
382.457729
 21
297.06587
 31
0.0
  0
LINE
  5
97
330
1F
100
AcDbEntity
  8
1
100
AcDbLine
 10
385.963508
 20
292.245224
 30
0.0
 11
385.975738
 21
291.887746
 31
0.0
  0
LINE
  5
98
330
1F
100
AcDbEntity
  8
1
100
AcDbLine
 10
395.873614
 20
294.883399
 30
0.0
 11
389.459816
 21
294.659761
 31
0.0
  0
LINE
  5
99
330
1F
100
AcDbEntity
  8
1
100
AcDbLine
 10
288.404842
 20
304.665159
 30
0.0
 11
288.404842
 21
285.917124
 31
0.0
  0
LINE
  5
9A
330
1F
100
AcDbEntity
  8
1
100
AcDbLine
 10
274.404842
 20
313.407994
 30
0.0
 11
274.404842
 21
288.907994
 31
0.0
  0
LINE
  5
9B
330
1F
100
AcDbEntity
  8
1
100
AcDbLine
 10
274.404842
 20
288.907994
 30
0.0
 11
274.404842
 21
264.407994
 31
0.0
  0
LINE
  5
9C
330
1F
100
AcDbEntity
  8
1
100
AcDbLine
 10
394.293802
 20
301.122324
 30
0.0
 11
394.287347
 21
301.11805
 31
0.0
  0
LINE
  5
9D
330
1F
100
AcDbEntity
  8
1
100
AcDbLine
 10
397.237296
 20
289.361736
 30
0.0
 11
397.69747
 21
288.531559
 31
0.0
  0
LINE
  5
9E
330
1F
100
AcDbEntity
  8
1
100
AcDbLine
 10
397.570267
 20
281.244096
 30
0.0
 11
397.0814
 21
280.430484
 31
0.0
  0
LINE
  5
9F
330
1F
100
AcDbEntity
  8
1
100
AcDbLine
 10
396.971745
 20
280.324592
 30
0.0
 11
396.73888
 21
280.195512
 31
0.0
  0
LINE
  5
A0
330
1F
100
AcDbEntity
  8
1
100
AcDbLine
 10
397.052839
 20
289.518598
 30
0.0
 11
397.131403
 21
289.4713910000001
 31
0.0
  0
LINE
  5
A1
330
1F
100
AcDbEntity
  8
1
100
AcDbLine
 10
397.734349
 20
288.3836490000001
 30
0.0
 11
397.612285
 21
281.390629
 31
0.0
  0
LINE
  5
A2
330
1F
100
AcDbEntity
  8
1
100
AcDbLine
 10
397.758798
 20
304.547285
 30
0.0
 11
398.045323
 21
296.5865990000001
 31
0.0
  0
LINE
  5
A3
330
1F
100
AcDbEntity
  8
1
100
AcDbLine
 10
388.985995
 20
305.013559
 30
0.0
 11
396.95868
 21
305.291553
 31
0.0
  0
LINE
  5
A4
330
1F
100
AcDbEntity
  8
1
100
AcDbLine
 10
388.527916
 20
296.254744
 30
0.0
 11
388.241391
 21
304.21543
 31
0.0
  0
LINE
  5
A5
330
1F
100
AcDbEntity
  8
1
100
AcDbLine
 10
397.30072
 20
295.78847
 30
0.0
 11
389.328035
 21
295.510477
 31
0.0
  0
LINE
  5
A6
330
1F
100
AcDbEntity
  8
1
100
AcDbLine
 10
389.769215
 20
296.778402
 30
0.0
 11
389.517847
 21
303.762295
 31
0.0
  0
LINE
  5
A7
330
1F
100
AcDbEntity
  8
1
100
AcDbLine
 10
396.763635
 20
297.022285
 30
0.0
 11
389.769215
 21
296.778402
 31
0.0
  0
LINE
  5
A8
330
1F
100
AcDbEntity
  8
1
100
AcDbLine
 10
396.512267
 20
304.006178
 30
0.0
 11
396.763635
 21
297.022285
 31
0.0
  0
LINE
  5
A9
330
1F
100
AcDbEntity
  8
1
100
AcDbLine
 10
389.517847
 20
303.762295
 30
0.0
 11
396.512267
 21
304.006178
 31
0.0
  0
LINE
  5
AA
330
1F
100
AcDbEntity
  8
1
100
AcDbLine
 10
397.05284
 20
288.34357
 30
0.0
 11
397.061292
 21
288.328323
 31
0.0
  0
LINE
  5
AB
330
1F
100
AcDbEntity
  8
1
100
AcDbLine
 10
396.95972
 20
281.532711
 30
0.0
 11
396.975253
 21
282.4225600000001
 31
0.0
  0
LINE
  5
AC
330
1F
100
AcDbEntity
  8
1
100
AcDbLine
 10
397.052839
 20
286.867491
 30
0.0
 11
397.077223
 21
288.264428
 31
0.0
  0
LINE
  5
AD
330
1F
100
AcDbEntity
  8
1
100
AcDbLine
 10
396.859618
 20
281.33302
 30
0.0
 11
396.941569
 21
281.46941
 31
0.0
  0
LINE
  5
AE
330
1F
100
AcDbEntity
  8
1
100
AcDbLine
 10
398.359382
 20
288.696592
 30
0.0
 11
397.728011
 21
289.835615
 31
0.0
  0
LINE
  5
AF
330
1F
100
AcDbEntity
  8
1
100
AcDbLine
 10
397.623573
 20
289.946675
 30
0.0
 11
397.438136
 21
290.064481
 31
0.0
  0
LINE
  5
B0
330
1F
100
AcDbEntity
  8
1
100
AcDbLine
 10
397.173409
 20
290.223545
 30
0.0
 11
397.438136
 21
290.064481
 31
0.0
  0
LINE
  5
B1
330
1F
100
AcDbEntity
  8
1
100
AcDbLine
 10
397.556683
 20
279.938314
 30
0.0
 11
397.67449
 21
280.1237509999999
 31
0.0
  0
LINE
  5
B2
330
1F
100
AcDbEntity
  8
1
100
AcDbLine
 10
398.233406
 20
281.053944
 30
0.0
 11
397.67449
 21
280.1237509999999
 31
0.0
  0
LINE
  5
B3
330
1F
100
AcDbEntity
  8
1
100
AcDbLine
 10
398.399861
 20
288.329483
 30
0.0
 11
398.2754240000001
 21
281.200477
 31
0.0
  0
LINE
  5
B4
330
1F
100
AcDbEntity
  8
1
100
AcDbLine
 10
398.399861
 20
288.329483
 30
0.0
 11
398.3982220000001
 21
288.549171
 31
0.0
  0
LINE
  5
B5
330
1F
100
AcDbEntity
  8
1
100
AcDbLine
 10
396.723252
 20
279.433459
 30
0.0
 11
397.445624
 21
279.833876
 31
0.0
  0
LINE
  5
BA
330
1F
100
AcDbEntity
  8
80
100
AcDbLine
 10
275.404416
 20
288.907994
 30
0.0
 11
273.405268
 21
288.907994
 31
0.0
  0
LINE
  5
BB
330
1F
100
AcDbEntity
  8
1
100
AcDbLine
 10
388.491977
 20
304.800501
 30
0.0
 11
388.488294
 21
304.907134
 31
0.0
  0
LINE
  5
BC
330
1F
100
AcDbEntity
  8
1
100
AcDbLine
 10
391.183966
 20
295.369644
 30
0.0
 11
397.417689
 21
295.587003
 31
0.0
  0
LINE
  5
BD
330
1F
100
AcDbEntity
  8
1
100
AcDbLine
 10
397.418917
 20
295.436757
 30
0.0
 11
397.417689
 21
295.587003
 31
0.0
  0
LINE
  5
BE
330
1F
100
AcDbEntity
  8
1
100
AcDbLine
 10
397.339393
 20
294.900125
 30
0.0
 11
389.467796
 21
294.625657
 31
0.0
  0
LINE
  5
BF
330
1F
100
AcDbEntity
  8
1
100
AcDbLine
 10
397.339393
 20
294.900125
 30
0.0
 11
395.410809
 21
291.704792
 31
0.0
  0
LINE
  5
C0
330
1F
100
AcDbEntity
  8
1
100
AcDbLine
 10
397.459673
 20
295.605733
 30
0.0
 11
391.189198
 21
295.387093
 31
0.0
  0
LINE
  5
C1
330
1F
100
AcDbEntity
  8
1
100
AcDbLine
 10
391.183966
 20
295.369644
 30
0.0
 11
391.189198
 21
295.387093
 31
0.0
  0
LINE
  5
C2
330
1F
100
AcDbEntity
  8
1
100
AcDbLine
 10
397.123111
 20
290.224418
 30
0.0
 11
397.29918
 21
290.221344
 31
0.0
  0
LINE
  5
C3
330
1F
100
AcDbEntity
  8
1
100
AcDbLine
 10
397.29918
 20
290.221344
 30
0.0
 11
397.58268
 21
290.605517
 31
0.0
  0
LINE
  5
C4
330
1F
100
AcDbEntity
  8
1
100
AcDbLine
 10
397.58268
 20
290.8441279999999
 30
0.0
 11
397.58268
 21
290.605517
 31
0.0
  0
LINE
  5
C5
330
1F
100
AcDbEntity
  8
1
100
AcDbLine
 10
397.58268
 20
290.8441279999999
 30
0.0
 11
397.624842
 21
290.843392
 31
0.0
  0
LINE
  5
C6
330
1F
100
AcDbEntity
  8
1
100
AcDbLine
 10
397.624842
 20
295.884749
 30
0.0
 11
397.624842
 21
290.943407
 31
0.0
  0
LINE
  5
C7
330
1F
100
AcDbEntity
  8
1
100
AcDbLine
 10
397.459673
 20
295.605733
 30
0.0
 11
397.457843
 21
295.829696
 31
0.0
  0
LINE
  5
C8
330
1F
100
AcDbEntity
  8
1
100
AcDbLine
 10
397.459673
 20
295.605733
 30
0.0
 11
397.417689
 21
295.587003
 31
0.0
  0
LINE
  5
C9
330
1F
100
AcDbEntity
  8
1
100
AcDbLine
 10
397.339393
 20
294.900125
 30
0.0
 11
397.353023
 21
294.906206
 31
0.0
  0
LINE
  5
CA
330
1F
100
AcDbEntity
  8
1
100
AcDbLine
 10
396.537414
 20
272.907994
 30
0.0
 11
397.162502
 21
278.797429
 31
0.0
  0
LINE
  5
CB
330
1F
100
AcDbEntity
  8
1
100
AcDbLine
 10
397.162502
 20
278.797429
 30
0.0
 11
397.120411
 21
278.798103
 31
0.0
  0
LINE
  5
CC
330
1F
100
AcDbEntity
  8
1
100
AcDbLine
 10
397.145693
 20
279.036303
 30
0.0
 11
397.120411
 21
278.798103
 31
0.0
  0
LINE
  5
CD
330
1F
100
AcDbEntity
  8
1
100
AcDbLine
 10
397.145693
 20
279.036303
 30
0.0
 11
396.903903
 21
279.429284
 31
0.0
  0
LINE
  5
CE
330
1F
100
AcDbEntity
  8
1
100
AcDbLine
 10
396.903903
 20
279.429284
 30
0.0
 11
396.728133
 21
279.432097
 31
0.0
  0
LINE
  5
CF
330
1F
100
AcDbEntity
  8
1
100
AcDbLine
 10
396.710967
 20
279.932435
 30
0.0
 11
397.052841
 21
283.153494
 31
0.0
  0
LINE
  5
D0
330
1F
100
AcDbEntity
  8
1
100
AcDbLine
 10
395.526658
 20
283.153494
 30
0.0
 11
397.052841
 21
283.153494
 31
0.0
  0
LINE
  5
D1
330
1F
100
AcDbEntity
  8
1
100
AcDbLine
 10
397.052841
 20
283.153494
 30
0.0
 11
397.052841
 21
289.725568
 31
0.0
  0
LINE
  5
D2
330
1F
100
AcDbEntity
  8
1
100
AcDbLine
 10
388.26291
 20
304.407768
 30
0.0
 11
388.248241
 21
304.832551
 31
0.0
  0
LINE
  5
D3
330
1F
100
AcDbEntity
  8
SK1
100
AcDbLine
 10
206.404842
 20
308.907994
 30
0.0
 11
206.404842
 21
268.907994
 31
0.0
  0
LINE
  5
D4
330
1F
100
AcDbEntity
  8
81
100
AcDbLine
 10
398.404842
 20
307.407994
 30
0.0
 11
398.404842
 21
303.407994
 31
0.0
  0
LINE
  5
D5
330
1F
100
AcDbEntity
  8
81
100
AcDbLine
 10
396.404842
 20
305.407994
 30
0.0
 11
400.404842
 21
305.407994
 31
0.0
  0
LINE
  5
D6
330
1F
100
AcDbEntity
  8
1
100
AcDbLine
 10
274.904842
 20
263.907994
 30
0.0
 11
279.404842
 21
263.907994
 31
0.0
  0
LINE
  5
D7
330
1F
100
AcDbEntity
  8
SK1
100
AcDbLine
 10
206.404842
 20
268.907994
 30
0.0
 11
274.404842
 21
268.907994
 31
0.0
  0
LINE
  5
D8
330
1F
100
AcDbEntity
  8
80
100
AcDbLine
 10
274.404842
 20
287.90842
 30
0.0
 11
274.404842
 21
289.907567
 31
0.0
  0
LINE
  5
D9
330
1F
100
AcDbEntity
  8
SK1
100
AcDbLine
 10
204.404842
 20
306.907994
 30
0.0
 11
204.404842
 21
270.907994
 31
0.0
  0
LINE
  5
DA
330
1F
100
AcDbEntity
  8
1
100
AcDbLine
 10
388.256501
 20
298.096908
 30
0.0
 11
388.251269
 21
298.079459
 31
0.0
  0
LINE
  5
DB
330
1F
100
AcDbEntity
  8
1
100
AcDbLine
 10
388.256501
 20
298.096908
 30
0.0
 11
388.023874
 21
304.832931
 31
0.0
  0
LINE
  5
DC
330
1F
100
AcDbEntity
  8
1
100
AcDbLine
 10
388.01914
 20
304.801071
 30
0.0
 11
388.251269
 21
298.079459
 31
0.0
  0
LINE
  5
DD
330
1F
100
AcDbEntity
  8
1
100
AcDbLine
 10
396.537414
 20
272.907994
 30
0.0
 11
377.424754
 21
272.907994
 31
0.0
  0
LINE
  5
DE
330
1F
100
AcDbEntity
  8
1
100
AcDbLine
 10
274.904842
 20
263.907994
 30
0.0
 11
274.904842
 21
288.907994
 31
0.0
  0
LINE
  5
DF
330
1F
100
AcDbEntity
  8
1
100
AcDbLine
 10
274.904842
 20
288.907994
 30
0.0
 11
274.904842
 21
313.907994
 31
0.0
  0
LINE
  5
E0
330
1F
100
AcDbEntity
  8
1
100
AcDbLine
 10
279.404842
 20
263.907994
 30
0.0
 11
279.404842
 21
269.759531
 31
0.0
  0
LINE
  5
E1
330
1F
100
AcDbEntity
  8
1
100
AcDbLine
 10
279.404842
 20
313.907994
 30
0.0
 11
279.404842
 21
278.333213
 31
0.0
  0
LINE
  5
E2
330
1F
100
AcDbEntity
  8
1
100
AcDbLine
 10
391.744832
 20
299.49216
 30
0.0
 11
391.776019
 21
299.596158
 31
0.0
  0
LINE
  5
E3
330
1F
100
AcDbEntity
  8
1
100
AcDbLine
 10
393.817132
 20
299.206763
 30
0.0
 11
393.785641
 21
299.1017540000001
 31
0.0
  0
LINE
  5
E4
330
1F
100
AcDbEntity
  8
1
100
AcDbLine
 10
392.168321
 20
301.3317629999999
 30
0.0
 11
392.199811
 21
301.436773
 31
0.0
  0
LINE
  5
E5
330
1F
100
AcDbEntity
  8
1
100
AcDbLine
 10
394.240317
 20
301.045356
 30
0.0
 11
394.2091299999999
 21
300.941358
 31
0.0
  0
LINE
  5
E6
330
1F
100
AcDbEntity
  8
1
100
AcDbLine
 10
390.369036
 20
301.093923
 30
0.0
 11
390.348584
 21
301.025722
 31
0.0
  0
LINE
  5
E7
330
1F
100
AcDbEntity
  8
1
100
AcDbLine
 10
395.6168
 20
299.445881
 30
0.0
 11
395.637252
 21
299.5140819999999
 31
0.0
  0
LINE
  5
E8
330
1F
100
AcDbEntity
  8
SK1
100
AcDbLine
 10
204.404842
 20
270.907994
 30
0.0
 11
206.404842
 21
268.907994
 31
0.0
  0
LINE
  5
E9
330
1F
100
AcDbEntity
  8
SK1
100
AcDbLine
 10
206.404842
 20
308.907994
 30
0.0
 11
204.404842
 21
306.907994
 31
0.0
  0
LINE
  5
EA
330
1F
100
AcDbEntity
  8
1
100
AcDbLine
 10
279.404842
 20
263.907994
 30
0.0
 11
284.304337
 21
268.807488
 31
0.0
  0
LINE
  5
EB
330
1F
100
AcDbEntity
  8
1
100
AcDbLine
 10
284.304337
 20
309.008499
 30
0.0
 11
279.404842
 21
313.907994
 31
0.0
  0
LINE
  5
EC
330
1F
100
AcDbEntity
  8
SK1
100
AcDbLine
 10
274.404842
 20
308.907994
 30
0.0
 11
206.404842
 21
308.907994
 31
0.0
  0
LINE
  5
ED
330
1F
100
AcDbEntity
  8
1
100
AcDbLine
 10
274.904842
 20
263.907994
 30
0.0
 11
274.404842
 21
264.407994
 31
0.0
  0
LINE
  5
EE
330
1F
100
AcDbEntity
  8
1
100
AcDbLine
 10
274.404842
 20
313.407994
 30
0.0
 11
274.904842
 21
313.907994
 31
0.0
  0
LINE
  5
EF
330
1F
100
AcDbEntity
  8
1
100
AcDbLine
 10
279.404842
 20
313.907994
 30
0.0
 11
274.904842
 21
313.907994
 31
0.0
  0
LINE
  5
119
330
1F
100
AcDbEntity
  8
NOCUT
100
AcDbLine
 10
397.315219
 20
304.907994
 30
0.0
 11
397.624842
 21
296.11371
 31
0.0
  0
LINE
  5
11A
330
1F
100
AcDbEntity
  8
NOCUT
100
AcDbLine
 10
397.624842
 20
296.11371
 30
0.0
 11
397.624842
 21
288.907994
 31
0.0
  0
LINE
  5
11B
330
1F
100
AcDbEntity
  8
NOCUT
100
AcDbLine
 10
294.203832
 20
304.907994
 30
0.0
 11
397.315219
 21
304.907994
 31
0.0
  0
LINE
  5
11C
330
1F
100
AcDbEntity
  8
NOCUT
100
AcDbLine
 10
274.404842
 20
308.907994
 30
0.0
 11
206.404842
 21
308.907994
 31
0.0
  0
LINE
  5
11D
330
1F
100
AcDbEntity
  8
NOCUT
100
AcDbLine
 10
274.404842
 20
308.907994
 30
0.0
 11
274.404842
 21
313.407994
 31
0.0
  0
LINE
  5
11E
330
1F
100
AcDbEntity
  8
NOCUT
100
AcDbLine
 10
274.404842
 20
313.407994
 30
0.0
 11
274.904842
 21
313.907994
 31
0.0
  0
LINE
  5
11F
330
1F
100
AcDbEntity
  8
NOCUT
100
AcDbLine
 10
279.404842
 20
313.907994
 30
0.0
 11
284.304337
 21
309.008499
 31
0.0
  0
LINE
  5
120
330
1F
100
AcDbEntity
  8
NOCUT
100
AcDbLine
 10
397.624842
 20
288.907994
 30
0.0
 11
204.404842
 21
288.907994
 31
0.0
  0
LINE
  5
121
330
1F
100
AcDbEntity
  8
NOCUT
100
AcDbLine
 10
204.404842
 20
306.907994
 30
0.0
 11
206.404842
 21
308.907994
 31
0.0
  0
LINE
  5
122
330
1F
100
AcDbEntity
  8
NOCUT
100
AcDbLine
 10
279.404842
 20
313.907994
 30
0.0
 11
274.904842
 21
313.907994
 31
0.0
  0
LINE
  5
123
330
1F
100
AcDbEntity
  8
NOCUT
100
AcDbLine
 10
204.404842
 20
306.907994
 30
0.0
 11
204.404842
 21
288.907994
 31
0.0
  0
ARC
  5
12C
330
1F
100
AcDbEntity
  8
1
100
AcDbCircle
 10
392.418941
 20
285.14888
 30
0.0
 40
1.75
100
AcDbArc
 50
75.0
 51
345.0
  0
CIRCLE
  5
12D
330
1F
100
AcDbEntity
  8
1
100
AcDbCircle
 10
392.418941
 20
285.14888
 30
0.0
 40
1.35
  0
ARC
  5
12E
330
1F
100
AcDbEntity
  8
1
100
AcDbCircle
 10
294.203832
 20
258.907994
 30
0.0
 40
14.0
100
AcDbArc
 50
90.0
 51
135.0
  0
ARC
  5
12F
330
1F
100
AcDbEntity
  8
1
100
AcDbCircle
 10
294.203832
 20
318.907994
 30
0.0
 40
14.0
100
AcDbArc
 50
225.0
 51
270.0
  0
ARC
  5
13E
330
1F
100
AcDbEntity
  8
NOCUT
100
AcDbCircle
 10
294.203832
 20
318.907994
 30
0.0
 40
14.0
100
AcDbArc
 50
225.0
 51
270.0
  0
ELLIPSE
  5
13F
330
1F
100
AcDbEntity
  8
1
100
AcDbEllipse
 10
224.502382
 20
288.90801
 30
0.0
 11
90.73228347813484
 21
-13.82489014918712
 31
0.0
210
0.0
220
0.0
230
1.0
 40
0.088771
 41
5.601844896428809
 42
5.618621319612089
  0
ELLIPSE
  5
140
330
1F
100
AcDbEntity
  8
1
100
AcDbEllipse
 10
296.536761
 20
273.855698
 30
0.0
 11
-19.34388092543391
 21
3.979209328181285
 31
0.0
210
0.0
220
0.0
230
1.0
 40
0.5072130000000001
 41
5.117030482571649
 42
5.413865879439976
  0
ELLIPSE
  5
141
330
1F
100
AcDbEntity
  8
1
100
AcDbEllipse
 10
387.144362
 20
292.9081299999999
 30
0.0
 11
-4.674875948337844
 21
-0.1837340425443154
 31
0.0
210
0.0
220
0.0
230
1.0
 40
0.22151
 41
2.103565438575342
 42
4.177368642186364
  0
ELLIPSE
  5
142
330
1F
100
AcDbEntity
  8
1
100
AcDbEllipse
 10
389.014336
 20
307.231012
 30
0.0
 11
12.06900443626107
 21
-3.619272291153364
 31
0.0
210
0.0
220
0.0
230
1.0
 40
0.9981549999999998
 41
4.601645954120658
 42
5.038597669754248
  0
ELLIPSE
  5
143
330
1F
100
AcDbEntity
  8
1
100
AcDbEllipse
 10
393.003144
 20
300.304002
 30
0.0
 11
-2.634108111088727
 21
0.7899205397358522
 31
0.0
210
0.0
220
0.0
230
1.0
 40
0.9981549999999998
 41
3.141630460996419
 42
6.283124831951991
  0
ELLIPSE
  5
144
330
1F
100
AcDbEntity
  8
1
100
AcDbEllipse
 10
392.353671
 20
298.840971
 30
0.0
 11
-0.0913005075502099
 21
0.027379341758456
 31
0.0
210
0.0
220
0.0
230
1.0
 40
0.9981549999999998
 41
5.409617918979455
 42
6.086349835859824
  0
ELLIPSE
  5
145
330
1F
100
AcDbEntity
  8
1
100
AcDbEllipse
 10
392.185285
 20
298.930317
 30
0.0
 11
-0.0913005075502098
 21
0.0273793417584559
 31
0.0
210
0.0
220
0.0
230
0.9999999999999998
 40
0.9981549999999998
 41
1.744426489791259
 42
2.944757182270076
  0
ELLIPSE
  5
146
330
1F
100
AcDbEntity
  8
1
100
AcDbEllipse
 10
392.2443990000001
 20
299.431515
 30
0.0
 11
-0.5755712196801062
 21
0.1726032149524092
 31
0.0
210
0.0
220
0.0
230
1.0
 40
0.9981549999999998
 41
0.4798964455609675
 42
1.744426489791163
  0
ELLIPSE
  5
147
330
1F
100
AcDbEntity
  8
1
100
AcDbEllipse
 10
391.747906
 20
299.337166
 30
0.0
 11
-0.091300507550212
 21
0.0273793417584565
 31
0.0
210
0.0
220
0.0
230
1.0
 40
0.9981549999999998
 41
5.562751060261786
 42
6.763081752740571
  0
ELLIPSE
  5
148
330
1F
100
AcDbEntity
  8
1
100
AcDbEllipse
 10
391.646736
 20
299.49856
 30
0.0
 11
-0.091300507550212
 21
0.0273793417584565
 31
0.0
210
0.0
220
0.0
230
1.0
 40
0.9981549999999998
 41
2.421158406671669
 42
3.097890323552419
  0
ELLIPSE
  5
149
330
1F
100
AcDbEntity
  8
1
100
AcDbEllipse
 10
391.169261
 20
299.664763
 30
0.0
 11
-0.5755712196801058
 21
0.1726032149524092
 31
0.0
210
0.0
220
0.0
230
1.0
 40
0.9981549999999998
 41
3.097890323552441
 42
4.362420367782663
  0
ELLIPSE
  5
14A
330
1F
100
AcDbEntity
  8
1
100
AcDbEllipse
 10
391.471471
 20
300.069047
 30
0.0
 11
-0.0913005075502099
 21
0.027379341758456
 31
0.0
210
0.0
220
0.0
230
1.0
 40
0.9981549999999998
 41
4.362420367782767
 42
5.039152284663392
  0
ELLIPSE
  5
14B
330
1F
100
AcDbEntity
  8
1
100
AcDbEllipse
 10
391.464625
 20
300.259243
 30
0.0
 11
-0.0913005075502098
 21
0.0273793417584559
 31
0.0
210
0.0
220
0.0
230
0.9999999999999998
 40
0.9981549999999998
 41
0.6972289385945667
 42
1.897559631073669
  0
ELLIPSE
  5
14C
330
1F
100
AcDbEntity
  8
1
100
AcDbEllipse
 10
391.928955
 20
300.458285
 30
0.0
 11
-0.5755712196801062
 21
0.1726032149524092
 31
0.0
210
0.0
220
0.0
230
1.0
 40
0.9981549999999998
 41
5.715884201543927
 42
6.980414245774133
  0
ELLIPSE
  5
14D
330
1F
100
AcDbEntity
  8
1
100
AcDbEllipse
 10
391.598436
 20
300.840507
 30
0.0
 11
-0.091300507550212
 21
0.0273793417584565
 31
0.0
210
0.0
220
0.0
230
1.0
 40
0.9981549999999998
 41
4.515553509064954
 42
5.715884201543882
  0
ELLIPSE
  5
14E
330
1F
100
AcDbEntity
  8
1
100
AcDbEllipse
 10
391.687749
 20
301.008542
 30
0.0
 11
-0.091300507550212
 21
0.0273793417584565
 31
0.0
210
0.0
220
0.0
230
1.0
 40
0.9981549999999998
 41
1.373960855475132
 42
2.050692772355913
  0
ELLIPSE
  5
14F
330
1F
100
AcDbEntity
  8
1
100
AcDbEllipse
 10
391.5927490000001
 20
301.504367
 30
0.0
 11
-0.5755712196801058
 21
0.1726032149524092
 31
0.0
210
0.0
220
0.0
230
1.0
 40
0.9981549999999998
 41
2.050692772355807
 42
3.315222816586018
  0
ELLIPSE
  5
150
330
1F
100
AcDbEntity
  8
1
100
AcDbEllipse
 10
392.094781
 20
301.4448339999999
 30
0.0
 11
-0.0913005075502099
 21
0.027379341758456
 31
0.0
210
0.0
220
0.0
230
1.0
 40
0.9981549999999998
 41
3.315222816586269
 42
3.991954733466849
  0
ELLIPSE
  5
151
330
1F
100
AcDbEntity
  8
1
100
AcDbEllipse
 10
392.256321
 20
301.545684
 30
0.0
 11
-0.0913005075502098
 21
0.0273793417584559
 31
0.0
210
0.0
220
0.0
230
0.9999999999999998
 40
0.9981549999999998
 41
5.933216694577607
 42
7.13354738705653
  0
ELLIPSE
  5
152
330
1F
100
AcDbEntity
  8
1
100
AcDbEllipse
 10
392.661536
 20
301.243529
 30
0.0
 11
-0.5755712196801062
 21
0.1726032149524092
 31
0.0
210
0.0
220
0.0
230
1.0
 40
0.9981549999999998
 41
4.66868665034737
 42
5.933216694577525
  0
ELLIPSE
  5
153
330
1F
100
AcDbEntity
  8
1
100
AcDbEllipse
 10
392.8275109999999
 20
301.7201
 30
0.0
 11
-0.091300507550212
 21
0.0273793417584565
 31
0.0
210
0.0
220
0.0
230
1.0
 40
0.9981549999999998
 41
3.468355957868354
 42
4.668686650347361
  0
ELLIPSE
  5
154
330
1F
100
AcDbEntity
  8
1
100
AcDbEllipse
 10
393.017994
 20
301.726741
 30
0.0
 11
-0.091300507550212
 21
0.0273793417584565
 31
0.0
210
0.0
220
0.0
230
1.0
 40
0.9981549999999998
 41
0.3267633042786552
 42
1.003495221159276
  0
ELLIPSE
  5
155
330
1F
100
AcDbEntity
  8
1
100
AcDbEllipse
 10
393.40047
 20
302.056362
 30
0.0
 11
-0.5755712196801058
 21
0.1726032149524092
 31
0.0
210
0.0
220
0.0
230
1.0
 40
0.9981549999999998
 41
1.003495221159285
 42
2.268025265389483
  0
ELLIPSE
  5
156
330
1F
100
AcDbEntity
  8
1
100
AcDbEllipse
 10
393.600291
 20
301.592546
 30
0.0
 11
-0.0913005075502099
 21
0.027379341758456
 31
0.0
210
0.0
220
0.0
230
1.0
 40
0.9981549999999998
 41
2.268025265389435
 42
2.944757182270001
  0
ELLIPSE
  5
157
330
1F
100
AcDbEntity
  8
1
100
AcDbEllipse
 10
393.768677
 20
301.5032
 30
0.0
 11
-0.0913005075502098
 21
0.0273793417584559
 31
0.0
210
0.0
220
0.0
230
0.9999999999999998
 40
0.9981549999999998
 41
4.886019143381063
 42
6.086349835860088
  0
ELLIPSE
  5
158
330
1F
100
AcDbEntity
  8
1
100
AcDbEllipse
 10
393.709563
 20
301.002002
 30
0.0
 11
-0.5755712196801062
 21
0.1726032149524092
 31
0.0
210
0.0
220
0.0
230
1.0
 40
0.9981549999999998
 41
3.621489099150759
 42
4.88601914338096
  0
ELLIPSE
  5
159
330
1F
100
AcDbEntity
  8
1
100
AcDbEllipse
 10
394.206056
 20
301.096351
 30
0.0
 11
-0.091300507550212
 21
0.0273793417584565
 31
0.0
210
0.0
220
0.0
230
1.0
 40
0.9981549999999998
 41
2.421158406671838
 42
3.621489099150841
  0
ELLIPSE
  5
15A
330
1F
100
AcDbEntity
  8
1
100
AcDbEllipse
 10
394.307226
 20
300.934958
 30
0.0
 11
-0.091300507550212
 21
0.0273793417584565
 31
0.0
210
0.0
220
0.0
230
1.0
 40
0.9981549999999998
 41
5.562751060261365
 42
6.239482977142207
  0
ELLIPSE
  5
15B
330
1F
100
AcDbEntity
  8
1
100
AcDbEllipse
 10
394.784701
 20
300.768754
 30
0.0
 11
-0.5755712196801058
 21
0.1726032149524092
 31
0.0
210
0.0
220
0.0
230
1.0
 40
0.9981549999999998
 41
6.239482977142224
 42
7.504013021372407
  0
ELLIPSE
  5
15C
330
1F
100
AcDbEntity
  8
1
100
AcDbEllipse
 10
394.482491
 20
300.3644700000001
 30
0.0
 11
-0.0913005075502099
 21
0.027379341758456
 31
0.0
210
0.0
220
0.0
230
1.0
 40
0.9981549999999998
 41
1.220827714192924
 42
1.89755963107348
  0
ELLIPSE
  5
15D
330
1F
100
AcDbEntity
  8
1
100
AcDbEllipse
 10
394.489337
 20
300.174274
 30
0.0
 11
-0.0913005075502098
 21
0.0273793417584559
 31
0.0
210
0.0
220
0.0
230
0.9999999999999998
 40
0.9981549999999998
 41
3.838821592184321
 42
5.039152284663414
  0
ELLIPSE
  5
15E
330
1F
100
AcDbEntity
  8
1
100
AcDbEllipse
 10
394.025007
 20
299.975232
 30
0.0
 11
-0.5755712196801062
 21
0.1726032149524092
 31
0.0
210
0.0
220
0.0
230
1.0
 40
0.9981549999999998
 41
2.574291547954158
 42
3.838821592184333
  0
ELLIPSE
  5
15F
330
1F
100
AcDbEntity
  8
1
100
AcDbEllipse
 10
394.355526
 20
299.59301
 30
0.0
 11
-0.091300507550212
 21
0.0273793417584565
 31
0.0
210
0.0
220
0.0
230
1.0
 40
0.9981549999999998
 41
1.373960855475293
 42
2.574291547954026
  0
ELLIPSE
  5
160
330
1F
100
AcDbEntity
  8
1
100
AcDbEllipse
 10
394.266213
 20
299.424975
 30
0.0
 11
-0.091300507550212
 21
0.0273793417584565
 31
0.0
210
0.0
220
0.0
230
1.0
 40
0.9981549999999998
 41
4.515553509064925
 42
5.192285425945676
  0
ELLIPSE
  5
161
330
1F
100
AcDbEntity
  8
1
100
AcDbEllipse
 10
394.3612129999999
 20
298.929151
 30
0.0
 11
-0.5755712196801058
 21
0.1726032149524092
 31
0.0
210
0.0
220
0.0
230
1.0
 40
0.9981549999999998
 41
5.192285425945627
 42
6.456815470175807
  0
ELLIPSE
  5
162
330
1F
100
AcDbEntity
  8
1
100
AcDbEllipse
 10
393.859181
 20
298.988683
 30
0.0
 11
-0.0913005075502099
 21
0.027379341758456
 31
0.0
210
0.0
220
0.0
230
1.0
 40
0.9981549999999998
 41
0.1736301629963306
 42
0.8503620798769581
  0
ELLIPSE
  5
163
330
1F
100
AcDbEntity
  8
1
100
AcDbEllipse
 10
393.697641
 20
298.887833
 30
0.0
 11
-0.0913005075502098
 21
0.0273793417584559
 31
0.0
210
0.0
220
0.0
230
0.9999999999999998
 40
0.9981549999999998
 41
2.791624040987624
 42
3.991954733466589
  0
ELLIPSE
  5
164
330
1F
100
AcDbEntity
  8
1
100
AcDbEllipse
 10
393.292426
 20
299.189989
 30
0.0
 11
-0.5755712196801062
 21
0.1726032149524092
 31
0.0
210
0.0
220
0.0
230
1.0
 40
0.9981549999999998
 41
1.527093996757576
 42
2.791624040987763
  0
ELLIPSE
  5
165
330
1F
100
AcDbEntity
  8
1
100
AcDbEllipse
 10
393.126451
 20
298.713418
 30
0.0
 11
-0.091300507550212
 21
0.0273793417584565
 31
0.0
210
0.0
220
0.0
230
1.0
 40
0.9981549999999998
 41
0.3267633042785387
 42
1.527093996757416
  0
ELLIPSE
  5
166
330
1F
100
AcDbEntity
  8
1
100
AcDbEllipse
 10
392.935968
 20
298.706776
 30
0.0
 11
-0.091300507550212
 21
0.0273793417584565
 31
0.0
210
0.0
220
0.0
230
1.0
 40
0.9981549999999998
 41
3.468355957868332
 42
4.145087874749033
  0
ELLIPSE
  5
167
330
1F
100
AcDbEntity
  8
1
100
AcDbEllipse
 10
392.553492
 20
298.377155
 30
0.0
 11
-0.5755712196801058
 21
0.1726032149524092
 31
0.0
210
0.0
220
0.0
230
1.0
 40
0.9981549999999998
 41
4.145087874749006
 42
5.409617918979241
  0
ELLIPSE
  5
168
330
1F
100
AcDbEntity
  8
1
100
AcDbEllipse
 10
392.976981
 20
300.2167589999999
 30
0.0
 11
1.724143490894439
 21
-0.5170388987361955
 31
0.0
210
0.0
220
0.0
230
1.0
 40
0.9981549999999998
 41
0.0
 42
6.283185307179585
  0
ELLIPSE
  5
169
330
1F
100
AcDbEntity
  8
1
100
AcDbEllipse
 10
392.982692
 20
300.235802
 30
0.0
 11
2.634108111088727
 21
-0.7899205397358537
 31
0.0
210
0.0
220
0.0
230
1.0
 40
0.9981549999999998
 41
0.0
 42
6.283185307179585
  0
ELLIPSE
  5
16A
330
1F
100
AcDbEntity
  8
1
100
AcDbEllipse
 10
398.105838
 20
288.554824
 30
0.0
 11
0.1315188413428743
 21
-0.2701031954946707
 31
0.0
210
0.0
220
0.0
230
1.0
 40
0.9668319999999999
 41
1.111868186438178
 42
1.625627445031395
  0
ELLIPSE
  5
16B
330
1F
100
AcDbEntity
  8
1
100
AcDbEllipse
 10
397.37015
 20
288.371396
 30
0.0
 11
0.3432777497363161
 21
0.1251912046384531
 31
0.0
210
0.0
220
0.0
230
1.0
 40
0.81881
 41
6.26471981155646
 42
6.411625127191467
  0
ELLIPSE
  5
16C
330
1F
100
AcDbEntity
  8
1
100
AcDbEllipse
 10
396.928017
 20
289.169026
 30
0.0
 11
0.2880776591193959
 21
0.224774813008419
 31
0.0
210
0.0
220
0.0
230
1.0
 40
0.81881
 41
6.154745489715768
 42
6.301650804505043
  0
ELLIPSE
  5
16D
330
1F
100
AcDbEntity
  8
1
100
AcDbEllipse
 10
396.779035
 20
280.63387
 30
0.0
 11
0.2800576356638534
 21
-0.2346916474402038
 31
0.0
210
0.0
220
0.0
230
1.0
 40
0.81881
 41
6.264719811882471
 42
6.411625128208387
  0
ELLIPSE
  5
16E
330
1F
100
AcDbEntity
  8
1
100
AcDbEllipse
 10
397.248736
 20
281.415584
 30
0.0
 11
0.3386995382491484
 21
-0.1370951705610275
 31
0.0
210
0.0
220
0.0
230
0.9999999999999996
 40
0.8188100000000002
 41
6.154745495475553
 42
6.301650807853249
  0
ELLIPSE
  5
16F
330
1F
100
AcDbEntity
  8
1
100
AcDbEllipse
 10
396.779035
 20
280.63387
 30
0.0
 11
0.224774809438653
 21
-0.2880776529922509
 31
0.0
210
0.0
220
0.0
230
1.0
 40
0.8188099999999998
 41
6.154745486339491
 42
6.301650802544101
  0
ELLIPSE
  5
170
330
1F
100
AcDbEntity
  8
1
100
AcDbEllipse
 10
396.928017
 20
289.169026
 30
0.0
 11
0.234691649209972
 21
0.2800576384659536
 31
0.0
210
0.0
220
0.0
230
1.0
 40
0.81881
 41
6.264719810972253
 42
6.411625126636697
  0
ELLIPSE
  5
171
330
1F
100
AcDbEntity
  8
1
100
AcDbEllipse
 10
397.248736
 20
281.415584
 30
0.0
 11
0.3598828651475204
 21
-0.0632201116505847
 31
0.0
210
0.0
220
0.0
230
1.0
 40
0.81881
 41
6.264719808294534
 42
6.411625121735755
  0
ELLIPSE
  5
172
330
1F
100
AcDbEntity
  8
1
100
AcDbEllipse
 10
397.37015
 20
288.371396
 30
0.0
 11
0.3618699703933648
 21
0.0506218684187147
 31
0.0
210
0.0
220
0.0
230
1.0
 40
0.81881
 41
6.154745486717464
 42
6.301650802941794
  0
ELLIPSE
  5
173
330
1F
100
AcDbEntity
  8
1
100
AcDbEllipse
 10
393.163415
 20
300.467901
 30
0.0
 11
2.964812602894983
 21
-0.8890927299587897
 31
0.0
210
0.0
220
0.0
230
1.0
 40
0.9981549999999998
 41
2.10912636362539
 42
6.283185307179585
  0
ELLIPSE
  5
174
330
1F
100
AcDbEntity
  8
1
100
AcDbEllipse
 10
393.163415
 20
300.467901
 30
0.0
 11
2.964812602894983
 21
-0.8890927299587897
 31
0.0
210
0.0
220
0.0
230
1.0
 40
0.9981549999999998
 41
0.0
 42
1.032541571739218
  0
ELLIPSE
  5
175
330
1F
100
AcDbEntity
  8
1
100
AcDbEllipse
 10
389.2469430000001
 20
296.18504
 30
0.0
 11
0.9632498683213713
 21
1.034013650503176
 31
0.0
210
0.0
220
0.0
230
1.0
 40
0.019037
 41
0.9774479007259612
 42
1.53225893377292
  0
ELLIPSE
  5
176
330
1F
100
AcDbEntity
  8
1
100
AcDbEllipse
 10
393.143619
 20
300.401887
 30
0.0
 11
3.02178867693871
 21
-0.9061788058761703
 31
0.0
210
0.0
220
0.0
230
0.9999999999999998
 40
0.9981549999999998
 41
0.0
 42
6.283185307179585
  0
ELLIPSE
  5
177
330
1F
100
AcDbEntity
  8
1
100
AcDbEllipse
 10
393.140741
 20
300.39229
 30
0.0
 11
-3.113036858559408
 21
0.9335424560514631
 31
0.0
210
0.0
220
0.0
230
1.0
 40
0.9981549999999998
 41
0.0
 42
6.283185307179585
  0
ELLIPSE
  5
178
330
1F
100
AcDbEntity
  8
1
100
AcDbEllipse
 10
397.294089
 20
296.46563
 30
0.0
 11
1.034593836476098
 21
-0.9637903486735332
 31
0.0
210
0.0
220
0.0
230
1.0
 40
0.038513
 41
1.589809900721298
 42
2.144620933669488
  0
ELLIPSE
  5
179
330
1F
100
AcDbEntity
  8
1
100
AcDbEllipse
 10
388.957742
 20
304.220075
 30
0.0
 11
1.034593835747911
 21
-0.9637903480149898
 31
0.0
210
0.0
220
0.0
230
0.9999999999999998
 40
0.038513
 41
1.034998867686532
 42
1.589809901002829
  0
ELLIPSE
  5
17A
330
1F
100
AcDbEntity
  8
1
100
AcDbEllipse
 10
397.004887
 20
304.500664
 30
0.0
 11
0.9632498694258828
 21
1.034013651673334
 31
0.0
210
0.0
220
0.0
230
1.0
 40
0.019037
 41
1.532258934215449
 42
2.087069966655556
  0
ELLIPSE
  5
17B
330
1F
100
AcDbEntity
  8
1
100
AcDbEllipse
 10
396.646217
 20
281.588354
 30
0.0
 11
-0.3086390084417319
 21
0.0885008115358406
 31
0.0
210
0.0
220
0.0
230
0.9999999999999998
 40
0.6229040000000001
 41
2.976210626445484
 42
3.306974680734073
  0
ELLIPSE
  5
17C
330
1F
100
AcDbEntity
  8
1
100
AcDbEllipse
 10
396.761969
 20
288.21976
 30
0.0
 11
-0.3115396276772998
 21
-0.0776755531752887
 31
0.0
210
-0.0000000000000001
220
0.0
230
1.0
 40
0.6229040000000001
 41
2.976210626445503
 42
3.306974680734095
  0
ELLIPSE
  5
17D
330
1F
100
AcDbEntity
  8
1
100
AcDbEllipse
 10
397.473427
 20
289.695723
 30
0.0
 11
0.1593661331518383
 21
-0.2546671895563108
 31
0.0
210
0.0
220
0.0
230
1.0
 40
0.9668320000000001
 41
1.515965208168985
 42
2.02972446679682
  0
ELLIPSE
  5
17E
330
1F
100
AcDbEntity
  8
1
100
AcDbEllipse
 10
397.969907
 20
281.208792
 30
0.0
 11
-0.2941597133632818
 21
0.0843489404830548
 31
0.0
210
0.0
220
0.0
230
0.9999999999999998
 40
0.9803469999999999
 41
2.884713024277078
 42
3.3984722829025
  0
ELLIPSE
  5
17F
330
1F
100
AcDbEntity
  8
1
100
AcDbEllipse
 10
397.305732
 20
280.08846
 30
0.0
 11
0.2546671897574548
 21
0.1593661329236211
 31
0.0
210
0.0
220
0.0
230
1.0
 40
0.9668319999999999
 41
4.657557862801706
 42
5.17131712134694
  0
ELLIPSE
  5
180
330
1F
100
AcDbEntity
  8
1
100
AcDbEllipse
 10
395.940529
 20
288.907993
 30
0.0
 11
27.44889970424934
 21
-15.78500515808137
 31
0.0
210
0.0
220
0.0
230
0.9999999999999998
 40
0.095236
 41
4.212692804147533
 42
4.271922956554213
  0
ELLIPSE
  5
181
330
1F
100
AcDbEntity
  8
1
100
AcDbEllipse
 10
389.019682
 20
288.907994
 30
0.0
 11
0.5348381080672742
 21
-15.9999965529613
 31
0.0
210
0.0
220
0.0
230
1.0
 40
0.019399
 41
3.033213750456488
 42
3.130579520685444
  0
ELLIPSE
  5
182
330
1F
100
AcDbEntity
  8
1
100
AcDbEllipse
 10
389.789458
 20
296.802073
 30
0.0
 11
1.91571498988271
 21
-0.5744876652624389
 31
0.0
210
0.0
220
0.0
230
1.0
 40
0.9981549999999998
 41
5.654578117271852
 42
5.774937007238182
  0
ELLIPSE
  5
183
330
1F
100
AcDbEntity
  8
1
100
AcDbEllipse
 10
388.887464
 20
288.907994
 30
0.0
 11
0.4311062623509371
 21
-15.99988487184201
 31
0.0
210
0.0
220
0.0
230
1.0
 40
0.140795
 41
3.12743438775402
 42
3.234946998128477
  0
ELLIPSE
  5
184
330
1F
100
AcDbEntity
  8
1
100
AcDbEllipse
 10
233.129505
 20
288.907995
 30
0.0
 11
417.4857927873878
 21
15.60305602641083
 31
0.0
210
0.0
220
0.0
230
1.0
 40
0.008484
 41
5.096182430082424
 42
5.111304009262482
  0
ELLIPSE
  5
185
330
1F
100
AcDbEntity
  8
1
100
AcDbEllipse
 10
389.79469
 20
296.819522
 30
0.0
 11
-1.91571498988271
 21
0.5744876652624379
 31
0.0
210
0.0
220
0.0
230
1.0
 40
0.9981549999999998
 41
2.633344353648383
 42
2.764625407905429
  0
ELLIPSE
  5
186
330
1F
100
AcDbEntity
  8
1
100
AcDbEllipse
 10
397.123111
 20
289.7243410000001
 30
0.0
 11
0.0001758288819751
 21
-0.5000776676640047
 31
0.0
210
0.0
220
0.0
230
1.0
 40
0.140519
 41
3.139090475969326
 42
4.709886802767994
  0
ELLIPSE
  5
187
330
1F
100
AcDbEntity
  8
1
100
AcDbEllipse
 10
397.348944
 20
295.40554
 30
0.0
 11
0.0003006604980783
 21
0.5003081624102787
 31
0.0
210
0.0
220
0.0
230
0.9999999999999998
 40
0.140096
 41
3.204112759000493
 42
4.774909085799525
  0
ELLIPSE
  5
188
330
1F
100
AcDbEntity
  8
1
100
AcDbEllipse
 10
396.781118
 20
279.931313
 30
0.0
 11
0.0538770024347869
 21
0.4991611425064919
 31
0.0
210
0.0
220
0.0
230
0.9999999999999998
 40
0.139171
 41
1.583568179242781
 42
3.154364506043228
  0
ELLIPSE
  5
189
330
1F
100
AcDbEntity
  8
1
100
AcDbEllipse
 10
398.235608
 20
288.907994
 30
0.0
 11
1.731820310724737
 21
15.99819048337647
 31
0.0
210
0.0
220
0.0
230
1.0
 40
0.138944
 41
1.953735534481779
 42
3.156632395651084
  0
ELLIPSE
  5
18A
330
1F
100
AcDbEntity
  8
1
100
AcDbEllipse
 10
397.624842
 20
288.907994
 30
0.0
 11
0.0
 21
16.00000000008692
 31
0.0
210
0.0
220
0.0
230
1.0
 40
0.140541
 41
1.395093783949207
 42
1.938695792418495
  0
ELLIPSE
  5
18B
330
1F
100
AcDbEntity
  8
1
100
AcDbEllipse
 10
389.86219
 20
297.04461
 30
0.0
 11
-1.91571498988271
 21
0.5744876652624379
 31
0.0
210
0.0
220
0.0
230
1.0
 40
0.9981549999999998
 41
0.0634585961627205
 42
1.897559557858011
  0
ELLIPSE
  5
18C
330
1F
100
AcDbEntity
  8
1
100
AcDbEllipse
 10
389.86219
 20
297.04461
 30
0.0
 11
-1.91571498988271
 21
0.5744876652624379
 31
0.0
210
0.0
220
0.0
230
1.0
 40
0.9981549999999998
 41
1.897559557858011
 42
2.60736334151817
  0
ELLIPSE
  5
18D
330
1F
100
AcDbEntity
  8
1
100
AcDbEllipse
 10
389.79469
 20
296.819522
 30
0.0
 11
-1.91571498988271
 21
0.5744876652624379
 31
0.0
210
0.0
220
0.0
230
1.0
 40
0.9981549999999998
 41
5.737896998741036
 42
5.880835539025661
  0
ELLIPSE
  5
18E
330
1F
100
AcDbEntity
  8
1
100
AcDbEllipse
 10
389.789458
 20
296.802073
 30
0.0
 11
1.91571498988271
 21
-0.5744876652624389
 31
0.0
210
0.0
220
0.0
230
1.0
 40
0.9981549999999998
 41
2.739242885435857
 42
4.401664854490347
  0
ELLIPSE
  5
18F
330
1F
100
AcDbEntity
  8
1
100
AcDbEllipse
 10
388.586066
 20
288.90803
 30
0.0
 11
0.5348368125713793
 21
-15.99996006193794
 31
0.0
210
0.0
220
0.0
230
1.0
 40
0.019399
 41
3.237847434703571
 42
3.256617115992765
  0
ELLIPSE
  5
190
330
1F
100
AcDbEntity
  8
1
100
AcDbEllipse
 10
335.330861
 20
288.905755
 30
0.0
 11
917.2612110560258
 21
-0.9309628312122622
 31
0.0
210
0.0
220
0.0
230
0.9999999999999998
 40
0.017416
 41
1.513341502284905
 42
1.517813535883099
  0
ELLIPSE
  5
191
330
1F
100
AcDbEntity
  8
1
100
AcDbEllipse
 10
315.242962
 20
288.907993
 30
0.0
 11
90.73220927364401
 21
-13.82487473169023
 31
0.0
210
0.0
220
0.0
230
0.9999999999999998
 40
0.088771
 41
4.491924400835593
 42
4.533658330561441
  0
ELLIPSE
  5
192
330
1F
100
AcDbEntity
  8
1
100
AcDbEllipse
 10
297.904842
 20
279.67487
 30
0.0
 11
-2.382605310748636
 21
-7.636962218918691
 31
0.0
210
0.0
220
0.0
230
0.9999999999999998
 40
0.176153
 41
4.24911909410122
 42
5.769183607869612
  0
SPLINE
  5
199
330
1F
100
AcDbEntity
  8
1
100
AcDbSpline
210
0.0
220
0.0
230
1.0
 70
     8
 71
     3
 72
    10
 73
     6
 74
     0
 42
0.000000001
 43
0.0000000001
 40
0.0
 40
0.0
 40
0.0
 40
0.0
 40
0.5
 40
0.5
 40
1.0
 40
1.0
 40
1.0
 40
1.0
 10
295.1686807986904
 20
273.0579924406361
 30
0.0
 10
295.3096466506903
 20
273.0468192043064
 30
0.0
 10
295.4530266727189
 20
273.036945637003
 30
0.0
 10
295.7451139827382
 20
273.0194840070563
 30
0.0
 10
295.893820419143
 20
273.0118955450836
 30
0.0
 10
296.0455023577093
 20
273.0053119481722
 30
0.0
  0
SPLINE
  5
19A
330
1F
100
AcDbEntity
  8
1
100
AcDbSpline
210
0.0
220
0.0
230
1.0
 70
     8
 71
     3
 72
    32
 73
    28
 74
     0
 42
0.000000001
 43
0.0000000001
 40
0.0
 40
0.0
 40
0.0
 40
0.0
 40
0.0625000000000003
 40
0.0625000000000003
 40
0.1250000000000006
 40
0.1250000000000006
 40
0.1875000000000008
 40
0.1875000000000008
 40
0.2500000000000011
 40
0.2500000000000011
 40
0.3125000000000014
 40
0.3125000000000014
 40
0.3750000000000017
 40
0.4375000000000019
 40
0.4375000000000019
 40
0.4531250000000019
 40
0.4531250000000019
 40
0.4687500000000018
 40
0.5000000000000019
 40
0.5000000000000019
 40
0.6250000000000015
 40
0.6250000000000015
 40
0.750000000000001
 40
0.750000000000001
 40
0.8750000000000005
 40
0.8750000000000005
 40
1.0
 40
1.0
 40
1.0
 40
1.0
 10
294.2038318185191
 20
273.0968900924176
 30
0.0
 10
293.9603604414525
 20
273.1071626018511
 30
0.0
 10
293.7205024703302
 20
273.1125235741021
 30
0.0
 10
293.2471396250791
 20
273.1146100448749
 30
0.0
 10
293.013635939966
 20
273.1113339272219
 30
0.0
 10
292.5522841104264
 20
273.0970943745215
 30
0.0
 10
292.3244368759579
 20
273.0861297026101
 30
0.0
 10
291.8738423265825
 20
273.0572682717368
 30
0.0
 10
291.6510957219527
 20
273.0393705473281
 30
0.0
 10
291.2102647172982
 20
272.9972379773503
 30
0.0
 10
290.9921808759835
 20
272.9730023723524
 30
0.0
 10
290.5603367237451
 20
272.9186543855425
 30
0.0
 10
290.1328166390775
 20
272.8584288917545
 30
0.0
 10
289.7134356760299
 20
272.7871402627735
 30
0.0
 10
289.4537520560837
 20
272.7392825861207
 30
0.0
 10
289.4019391569885
 20
272.7295458534513
 30
0.0
 10
289.2987770369864
 20
272.7097884691113
 30
0.0
 10
289.144644229769
 20
272.6797108966275
 30
0.0
 10
288.9923093330165
 20
272.6483328562164
 30
0.0
 10
288.4883940609218
 20
272.5409417838986
 30
0.0
 10
288.0975748344054
 20
272.446122670476
 30
0.0
 10
287.3384237006403
 20
272.2402188742129
 30
0.0
 10
286.9701085230955
 20
272.1291220904122
 30
0.0
 10
286.255169773076
 20
271.8912385108596
 30
0.0
 10
285.9085545049547
 20
271.7644457083876
 30
0.0
 10
285.2371459239876
 20
271.4950758063409
 30
0.0
 10
284.9123556298168
 20
271.3524965232924
 30
0.0
 10
284.5989245613996
 20
271.2017008640354
 30
0.0
  0
SPLINE
  5
19B
330
1F
100
AcDbEntity
  8
1
100
AcDbSpline
210
0.0
220
0.0
230
1.0
 70
     8
 71
     3
 72
    18
 73
    14
 74
     0
 42
0.000000001
 43
0.0000000001
 40
0.0
 40
0.0
 40
0.0
 40
0.0
 40
0.2499999999999989
 40
0.2499999999999989
 40
0.4999999999999979
 40
0.4999999999999979
 40
0.5624999999999982
 40
0.5624999999999982
 40
0.6249999999999983
 40
0.6249999999999983
 40
0.7499999999999988
 40
0.8749999999999994
 40
1.0
 40
1.0
 40
1.0
 40
1.0
 10
279.4048419452957
 20
278.3332132531183
 30
0.0
 10
279.1507330625045
 20
278.0829877750778
 30
0.0
 10
278.9187591460411
 20
277.8217327503781
 30
0.0
 10
278.4968757027178
 20
277.2798170595842
 30
0.0
 10
278.3069711530808
 20
276.999148438848
 30
0.0
 10
278.0961184706782
 20
276.6369609188375
 30
0.0
 10
278.0552806126254
 20
276.5639526492517
 30
0.0
 10
277.9763020332936
 20
276.4168014193169
 30
0.0
 10
277.9381059397575
 20
276.3425400496858
 30
0.0
 10
277.8282560731348
 20
276.1193674757241
 30
0.0
 10
277.694131895334
 20
275.820331480576
 30
0.0
 10
277.5293716562192
 20
275.3679027256695
 30
0.0
 10
277.443797484801
 20
275.063966597564
 30
0.0
 10
277.4071687949595
 20
274.9114638209497
 30
0.0
  0
SPLINE
  5
19C
330
1F
100
AcDbEntity
  8
1
100
AcDbSpline
210
0.0
220
0.0
230
1.0
 70
     8
 71
     3
 72
    14
 73
    10
 74
     0
 42
0.000000001
 43
0.0000000001
 40
0.0
 40
0.0
 40
0.0
 40
0.0
 40
0.25
 40
0.25
 40
0.5
 40
0.5
 40
0.75
 40
0.75
 40
1.0
 40
1.0
 40
1.0
 40
1.0
 10
284.3043368819074
 20
283.3131199110548
 30
0.0
 10
284.5149990840002
 20
283.4372485731199
 30
0.0
 10
284.7320296615658
 20
283.5510718850115
 30
0.0
 10
285.1790076854092
 20
283.7578980252392
 30
0.0
 10
285.4089551111457
 20
283.8509025433651
 30
0.0
 10
285.8821417121083
 20
284.01531923155
 30
0.0
 10
286.1253807172172
 20
284.0867348019563
 30
0.0
 10
286.6257230446417
 20
284.206563638149
 30
0.0
 10
286.8828262789177
 20
284.2549822047767
 30
0.0
 10
287.1472492702812
 20
284.290810715984
 30
0.0
  0
SPLINE
  5
19D
330
1F
100
AcDbEntity
  8
1
100
AcDbSpline
210
0.0
220
0.0
230
1.0
 70
     8
 71
     3
 72
    24
 73
    20
 74
     0
 42
0.000000001
 43
0.0000000001
 40
0.0
 40
0.0
 40
0.0
 40
0.0
 40
0.2499999999999985
 40
0.2499999999999985
 40
0.3749999999999981
 40
0.3749999999999981
 40
0.4999999999999975
 40
0.4999999999999975
 40
0.5624999999999972
 40
0.5624999999999972
 40
0.5937499999999972
 40
0.5937499999999972
 40
0.6249999999999969
 40
0.6249999999999969
 40
0.7499999999999979
 40
0.7499999999999979
 40
0.8749999999999989
 40
0.8749999999999989
 40
1.0
 40
1.0
 40
1.0
 40
1.0
 10
284.3043368819074
 20
283.3131199110548
 30
0.0
 10
283.8480880283934
 20
283.0442840250118
 30
0.0
 10
283.4008808679106
 20
282.7457740975603
 30
0.0
 10
282.7449871166612
 20
282.2440628695892
 30
0.0
 10
282.5288304790506
 20
282.0678416300581
 30
0.0
 10
282.1016040177021
 20
281.6956992853771
 30
0.0
 10
281.8905328923306
 20
281.4997867133329
 30
0.0
 10
281.5778353078825
 20
281.1895730824841
 30
0.0
 10
281.4742543384053
 20
281.0834407207374
 30
0.0
 10
281.3198740238782
 20
280.9199079595574
 30
0.0
 10
281.2685791293133
 20
280.8646742969274
 30
0.0
 10
281.1663223770739
 20
280.7527159602501
 30
0.0
 10
281.1152950163543
 20
280.6959159360109
 30
0.0
 10
280.8621408055573
 20
280.4093701369313
 30
0.0
 10
280.6655631935182
 20
280.1716187070182
 30
0.0
 10
280.2843806488226
 20
279.6783432573642
 30
0.0
 10
280.0997716181946
 20
279.4228268740707
 30
0.0
 10
279.7428761672467
 20
278.8927799357753
 30
0.0
 10
279.5705827467863
 20
278.6182628206727
 30
0.0
 10
279.4048419452957
 20
278.3332132531183
 30
0.0
  0
SPLINE
  5
19E
330
1F
100
AcDbEntity
  8
1
100
AcDbSpline
210
0.0
220
0.0
230
1.0
 70
     8
 71
     3
 72
    34
 73
    30
 74
     0
 42
0.000000001
 43
0.0000000001
 40
0.0
 40
0.0
 40
0.0
 40
0.0
 40
0.2500000000000513
 40
0.2500000000000513
 40
0.3750000000000633
 40
0.3750000000000633
 40
0.5000000000000754
 40
0.5000000000000754
 40
0.5625000000000713
 40
0.5625000000000713
 40
0.6250000000000671
 40
0.6250000000000671
 40
0.6875000000000631
 40
0.6875000000000631
 40
0.7500000000000587
 40
0.7500000000000587
 40
0.781250000000052
 40
0.781250000000052
 40
0.8125000000000451
 40
0.8125000000000451
 40
0.8437500000000383
 40
0.8437500000000383
 40
0.8750000000000316
 40
0.8750000000000316
 40
0.9375000000000179
 40
0.9375000000000179
 40
0.968750000000009
 40
0.968750000000009
 40
1.0
 40
1.0
 40
1.0
 40
1.0
 10
382.7322901254886
 20
296.3380944528953
 30
0.0
 10
382.6785998858415
 20
296.3840595637281
 30
0.0
 10
382.6279319679329
 20
296.4328013692243
 30
0.0
 10
382.5578549589221
 20
296.5113571325074
 30
0.0
 10
382.535494198985
 20
296.5384589983622
 30
0.0
 10
382.4932973213791
 20
296.5949688356022
 30
0.0
 10
382.473445980194
 20
296.6243634794903
 30
0.0
 10
382.4463216740904
 20
296.6708580272138
 30
0.0
 10
382.437700856828
 20
296.6868162452913
 30
0.0
 10
382.421729412695
 20
296.7194717506647
 30
0.0
 10
382.4143935187986
 20
296.7361248885415
 30
0.0
 10
382.4013527159497
 20
296.7702416730507
 30
0.0
 10
382.3956239026505
 20
296.7877867763718
 30
0.0
 10
382.3864512799312
 20
296.8234829589114
 30
0.0
 10
382.3829987322564
 20
296.841604120867
 30
0.0
 10
382.3800875675576
 20
296.8693245784951
 30
0.0
 10
382.3794979820858
 20
296.8786551666699
 30
0.0
 10
382.379230066588
 20
296.897531260956
 30
0.0
 10
382.3795591104425
 20
296.9070802327281
 30
0.0
 10
382.3812688923024
 20
296.9259940918628
 30
0.0
 10
382.3826468989186
 20
296.9354084865198
 30
0.0
 10
382.3865941300192
 20
296.9541390523801
 30
0.0
 10
382.3891833761878
 20
296.9635115046459
 30
0.0
 10
382.3988866975375
 20
296.991065606794
 30
0.0
 10
382.4077549829923
 20
297.0082743200564
 30
0.0
 10
382.4248076623246
 20
297.032268784585
 30
0.0
 10
382.4311422949276
 20
297.0399712888016
 30
0.0
 10
382.4446535919532
 20
297.0543304521931
 30
0.0
 10
382.4518704822382
 20
297.0610514756677
 30
0.0
 10
382.4595096072617
 20
297.0673527474759
 30
0.0
  0
SPLINE
  5
19F
330
1F
100
AcDbEntity
  8
1
100
AcDbSpline
210
0.0
220
0.0
230
1.0
 70
     8
 71
     3
 72
     8
 73
     4
 74
     0
 42
0.000000001
 43
0.0000000001
 40
0.0
 40
0.0
 40
0.0
 40
0.0
 40
1.0
 40
1.0
 40
1.0
 40
1.0
 10
328.6242772244615
 20
276.2537732417226
 30
0.0
 10
329.5685355981839
 20
276.4311128654876
 30
0.0
 10
330.514449963492
 20
276.6070067434158
 30
0.0
 10
331.4612978721908
 20
276.7832907084708
 30
0.0
  0
SPLINE
  5
1A0
330
1F
100
AcDbEntity
  8
1
100
AcDbSpline
210
0.0
220
0.0
230
1.0
 70
    12
 71
     3
 72
     9
 73
     5
 74
     0
 42
0.000000001
 43
0.0000000001
 40
0.0
 40
0.0
 40
0.0
 40
0.0
 40
0.9086198596862494
 40
1.0
 40
1.0
 40
1.0
 40
1.0
 10
328.6242772244669
 20
276.2537732417231
 30
0.0
 41
1.001377172670367
 10
329.6943702904942
 20
276.3641897122244
 30
0.0
 41
1.001577657999114
 10
330.8736163591886
 20
276.4933653197784
 30
0.0
 41
1.001863072910504
 10
332.0579486277277
 20
276.6340666787723
 30
0.0
 41
1.002227934956916
 10
332.1661761990179
 20
276.6470191016364
 30
0.0
 41
1.00226187805958
  0
SPLINE
  5
1A1
330
1F
100
AcDbEntity
  8
1
100
AcDbSpline
210
0.0
220
0.0
230
1.0
 70
     8
 71
     3
 72
    14
 73
    10
 74
     0
 42
0.000000001
 43
0.0000000001
 40
0.0
 40
0.0
 40
0.0
 40
0.0
 40
0.25
 40
0.25
 40
0.5
 40
0.5
 40
0.75
 40
0.75
 40
1.0
 40
1.0
 40
1.0
 40
1.0
 10
389.4928756213626
 20
293.892634327717
 30
0.0
 10
389.2888168589596
 20
293.911307794564
 30
0.0
 10
389.0810970411917
 20
293.9324338912225
 30
0.0
 10
388.6594024886293
 20
293.9811889279134
 30
0.0
 10
388.4454225622332
 20
294.008811318131
 30
0.0
 10
388.0118699891406
 20
294.0718582696411
 30
0.0
 10
387.7922948627817
 20
294.1072785018948
 30
0.0
 10
387.3479366690516
 20
294.1870993275601
 30
0.0
 10
387.1231527290533
 20
294.2314964307412
 30
0.0
 10
386.8958419452964
 20
294.2809685271679
 30
0.0
  0
SPLINE
  5
1A2
330
1F
100
AcDbEntity
  8
1
100
AcDbSpline
210
0.0
220
0.0
230
1.0
 70
     9
 71
     3
 72
   182
 73
   178
 74
     0
 42
0.000000001
 43
0.0000000001
 40
0.0
 40
0.0
 40
0.0
 40
0.0
 40
0.0156249999999987
 40
0.0156249999999987
 40
0.0234374999999978
 40
0.0234374999999978
 40
0.031249999999997
 40
0.031249999999997
 40
0.0468749999999957
 40
0.0468749999999957
 40
0.0546874999999951
 40
0.0546874999999951
 40
0.0624999999999944
 40
0.0624999999999944
 40
0.0781249999999939
 40
0.0781249999999939
 40
0.085937499999994
 40
0.085937499999994
 40
0.0937499999999941
 40
0.1015624999999942
 40
0.1015624999999942
 40
0.1093749999999943
 40
0.1093749999999943
 40
0.1249999999999946
 40
0.1249999999999946
 40
0.1328124999999945
 40
0.1328124999999945
 40
0.1406249999999945
 40
0.1406249999999945
 40
0.1562499999999948
 40
0.1562499999999948
 40
0.164062499999995
 40
0.164062499999995
 40
0.1718749999999952
 40
0.1796874999999954
 40
0.1796874999999954
 40
0.1874999999999956
 40
0.1874999999999956
 40
0.2031249999999963
 40
0.2031249999999963
 40
0.2109374999999965
 40
0.2109374999999965
 40
0.2187499999999968
 40
0.2187499999999968
 40
0.2343749999999971
 40
0.2343749999999971
 40
0.2499999999999976
 40
0.2499999999999976
 40
0.2578124999999978
 40
0.2578124999999978
 40
0.265624999999998
 40
0.265624999999998
 40
0.2812499999999987
 40
0.2812499999999987
 40
0.2890624999999989
 40
0.2890624999999989
 40
0.2968749999999993
 40
0.2968749999999993
 40
0.3125000000000001
 40
0.3125000000000001
 40
0.3281250000000008
 40
0.3281250000000008
 40
0.3359375000000013
 40
0.3359375000000013
 40
0.3437500000000018
 40
0.3437500000000018
 40
0.3593750000000031
 40
0.3593750000000031
 40
0.3671875000000041
 40
0.3671875000000041
 40
0.3750000000000049
 40
0.3750000000000049
 40
0.3906250000000062
 40
0.3906250000000062
 40
0.4062500000000074
 40
0.4062500000000074
 40
0.4140625000000079
 40
0.4140625000000079
 40
0.4218750000000084
 40
0.4218750000000084
 40
0.4375000000000093
 40
0.4375000000000093
 40
0.4453125000000095
 40
0.4453125000000095
 40
0.4531250000000095
 40
0.4531250000000095
 40
0.4687500000000104
 40
0.4687500000000104
 40
0.4843750000000112
 40
0.4843750000000112
 40
0.4921875000000114
 40
0.4921875000000114
 40
0.5000000000000116
 40
0.5000000000000116
 40
0.5156250000000119
 40
0.5156250000000119
 40
0.523437500000012
 40
0.523437500000012
 40
0.5312500000000121
 40
0.5390625000000124
 40
0.5390625000000124
 40
0.5468750000000125
 40
0.5468750000000125
 40
0.5625000000000135
 40
0.5625000000000135
 40
0.5703125000000137
 40
0.5703125000000137
 40
0.5781250000000138
 40
0.5781250000000138
 40
0.5937500000000134
 40
0.5937500000000134
 40
0.601562500000013
 40
0.601562500000013
 40
0.6093750000000126
 40
0.6171875000000121
 40
0.6171875000000121
 40
0.6250000000000117
 40
0.6250000000000117
 40
0.6406250000000111
 40
0.6406250000000111
 40
0.6562500000000106
 40
0.6562500000000106
 40
0.6718750000000102
 40
0.6718750000000102
 40
0.6796875000000098
 40
0.6796875000000098
 40
0.6875000000000095
 40
0.6953125000000091
 40
0.6953125000000091
 40
0.7031250000000088
 40
0.7031250000000088
 40
0.7187500000000082
 40
0.7187500000000082
 40
0.7343750000000079
 40
0.7343750000000079
 40
0.7500000000000072
 40
0.7500000000000072
 40
0.757812500000007
 40
0.757812500000007
 40
0.7656250000000066
 40
0.7734375000000063
 40
0.7734375000000063
 40
0.7812500000000059
 40
0.7812500000000059
 40
0.7968750000000052
 40
0.7968750000000052
 40
0.8125000000000042
 40
0.8125000000000042
 40
0.8281250000000035
 40
0.8281250000000035
 40
0.8359375000000031
 40
0.8359375000000031
 40
0.8437500000000028
 40
0.8515625000000026
 40
0.8515625000000026
 40
0.8593750000000023
 40
0.8593750000000023
 40
0.8750000000000019
 40
0.8750000000000019
 40
0.8906250000000014
 40
0.8906250000000014
 40
0.906250000000001
 40
0.906250000000001
 40
0.9140625000000012
 40
0.9140625000000012
 40
0.9218750000000012
 40
0.9296875000000012
 40
0.9296875000000012
 40
0.9375000000000012
 40
0.9375000000000012
 40
0.9687500000000012
 40
0.9687500000000012
 40
0.984375000000001
 40
0.984375000000001
 40
0.9921875000000003
 40
0.9921875000000003
 40
1.0
 40
1.0
 40
1.0
 40
1.0
 10
396.0182153142883
 20
283.6194074907539
 30
0.0
 10
396.0273790476322
 20
283.6185957419509
 30
0.0
 10
396.0365114877025
 20
283.6209851666229
 30
0.0
 10
396.0501634933069
 20
283.6293418675927
 30
0.0
 10
396.0547063721328
 20
283.6329242898249
 30
0.0
 10
396.0637764291034
 20
283.6416952495639
 30
0.0
 10
396.0683053983619
 20
283.6468886530628
 30
0.0
 10
396.0817957330992
 20
283.6648029782955
 30
0.0
 10
396.0906847739012
 20
283.6798716913062
 30
0.0
 10
396.1038610906934
 20
283.7071775879687
 30
0.0
 10
396.1082322360269
 20
283.7170781430676
 30
0.0
 10
396.1168948052066
 20
283.7384024632249
 30
0.0
 10
396.1211818096838
 20
283.7498129061086
 30
0.0
 10
396.1339106384589
 20
283.7862780029234
 30
0.0
 10
396.1422206009787
 20
283.8135609687347
 30
0.0
 10
396.1544184994252
 20
283.8589981754222
 30
0.0
 10
396.1584314152743
 20
283.8748677348322
 30
0.0
 10
396.1663276296492
 20
283.9079533343483
 30
0.0
 10
396.1741017181732
 20
283.9424130645294
 30
0.0
 10
396.1816316999903
 20
283.9796194245841
 30
0.0
 10
396.1890388055485
 20
284.0182083587111
 30
0.0
 10
396.192684252352
 20
284.038215681287
 30
0.0
 10
396.2033780902616
 20
284.1000057616347
 30
0.0
 10
396.2102014423525
 20
284.1436323725712
 30
0.0
 10
396.2199775453203
 20
284.2127230430038
 30
0.0
 10
396.2231630972577
 20
284.2363903509827
 30
0.0
 10
396.2293625755937
 20
284.2848261760845
 30
0.0
 10
396.2323721246995
 20
284.309557394474
 30
0.0
 10
396.2411319649783
 20
284.3852809324174
 30
0.0
 10
396.246614107271
 20
284.4377993889174
 30
0.0
 10
396.2542958770086
 20
284.5196586350578
 30
0.0
 10
396.2567601774482
 20
284.5473996850426
 30
0.0
 10
396.2614835153127
 20
284.6036289011185
 30
0.0
 10
396.2660060970516
 20
284.6606529061507
 30
0.0
 10
396.270128057734
 20
284.7192629608761
 30
0.0
 10
396.2740486800742
 20
284.7786701095408
 30
0.0
 10
396.275909414702
 20
284.8087967327148
 30
0.0
 10
396.2811588900789
 20
284.8998865754197
 30
0.0
 10
396.2842261253877
 20
284.9617032124901
 30
0.0
 10
396.288180348608
 20
285.0560582576703
 30
0.0
 10
396.2893918098836
 20
285.0878231332529
 30
0.0
 10
396.2915897330572
 20
285.1516921644184
 30
0.0
 10
396.2925755662802
 20
285.1837676226438
 30
0.0
 10
396.2951964171422
 20
285.2804134162071
 30
0.0
 10
396.2964956026489
 20
285.3454021529665
 30
0.0
 10
396.2981926930319
 20
285.4765025002677
 30
0.0
 10
396.2985840950629
 20
285.5421528307685
 30
0.0
 10
396.2984929610586
 20
285.6406040299043
 30
0.0
 10
396.2983494596337
 20
285.6734265405053
 30
0.0
 10
396.2978353537642
 20
285.739082491356
 30
0.0
 10
396.2974642055662
 20
285.7719293343566
 30
0.0
 10
396.2960162129848
 20
285.8699572663667
 30
0.0
 10
396.2946048163789
 20
285.9348008530009
 30
0.0
 10
396.2918218093432
 20
286.0313073166517
 30
0.0
 10
396.2907813551031
 20
286.0633914861903
 30
0.0
 10
396.2884850167667
 20
286.1270682342496
 30
0.0
 10
396.2872298524656
 20
286.1586516786437
 30
0.0
 10
396.2831460264284
 20
286.2526435422801
 30
0.0
 10
396.2799997934554
 20
286.3142953072941
 30
0.0
 10
396.2728556344294
 20
286.4355695692533
 30
0.0
 10
396.2688848987134
 20
286.494728395271
 30
0.0
 10
396.2623409722803
 20
286.5812422080313
 30
0.0
 10
396.2600613935806
 20
286.6097107806327
 30
0.0
 10
396.2553048973077
 20
286.6659061923209
 30
0.0
 10
396.2528276958432
 20
286.6936310673278
 30
0.0
 10
396.245138969443
 20
286.7752620323403
 30
0.0
 10
396.239658830871
 20
286.8277762963831
 30
0.0
 10
396.230908630494
 20
286.903696134547
 30
0.0
 10
396.2278993494387
 20
286.9285574219955
 30
0.0
 10
396.2217274552613
 20
286.9771242817309
 30
0.0
 10
396.2185646208274
 20
287.0008357779358
 30
0.0
 10
396.2088469919157
 20
287.0702658944029
 30
0.0
 10
396.2020614006671
 20
287.1142972224621
 30
0.0
 10
396.1878843714863
 20
287.1977332746959
 30
0.0
 10
396.1805431176577
 20
287.2368452395767
 30
0.0
 10
396.1691556892903
 20
287.2916408158529
 30
0.0
 10
396.165297176349
 20
287.309259455696
 30
0.0
 10
396.1574539902137
 20
287.3431958635945
 30
0.0
 10
396.1534711806427
 20
287.359502762129
 30
0.0
 10
396.1413939913313
 20
287.4062246804122
 30
0.0
 10
396.1331518774148
 20
287.4345316018178
 30
0.0
 10
396.1205022413021
 20
287.4727232403009
 30
0.0
 10
396.1162326131383
 20
287.4847537167162
 30
0.0
 10
396.107634759661
 20
287.5072771073527
 30
0.0
 10
396.103304299631
 20
287.5177790247562
 30
0.0
 10
396.0902187289119
 20
287.5470153037568
 30
0.0
 10
396.08136311536
 20
287.563495300874
 30
0.0
 10
396.0634251773204
 20
287.5902964186405
 30
0.0
 10
396.0543988194407
 20
287.6005387247481
 30
0.0
 10
396.0407736260033
 20
287.6111882855624
 30
0.0
 10
396.0362175932888
 20
287.6139510879873
 30
0.0
 10
396.0270766870584
 20
287.617889511277
 30
0.0
 10
396.0224969287289
 20
287.6190608334011
 30
0.0
 10
396.0087834956269
 20
287.6201745470372
 30
0.0
 10
395.9996549280547
 20
287.6177324458013
 30
0.0
 10
395.9859827749958
 20
287.6092653767418
 30
0.0
 10
395.9814239306243
 20
287.6056347028913
 30
0.0
 10
395.9723572348225
 20
287.5967957827328
 30
0.0
 10
395.9633334267949
 20
287.586377783666
 30
0.0
 10
395.9543951496294
 20
287.5728106358561
 30
0.0
 10
395.9454998248359
 20
287.5576620307106
 30
0.0
 10
395.94106933445
 20
287.5492878850238
 30
0.0
 10
395.9278729588435
 20
287.5218288294992
 30
0.0
 10
395.9192324692176
 20
287.5004837041126
 30
0.0
 10
395.9065066461328
 20
287.4639215021972
 30
0.0
 10
395.9023039275002
 20
287.4509753186542
 30
0.0
 10
395.8939776721166
 20
287.4235511262595
 30
0.0
 10
395.8898619522017
 20
287.4090969557049
 30
0.0
 10
395.8776956083617
 20
287.3636545733429
 30
0.0
 10
395.8698092677287
 20
287.3305392059644
 30
0.0
 10
395.8583187463095
 20
287.2766083984781
 30
0.0
 10
395.8545420187134
 20
287.2579017228427
 30
0.0
 10
395.8471419347869
 20
287.2192570215791
 30
0.0
 10
395.8398861726858
 20
287.1793420151186
 30
0.0
 10
395.8329181322982
 20
287.1368945130569
 30
0.0
 10
395.8260945449148
 20
287.0931755511755
 30
0.0
 10
395.8227510318104
 20
287.0706519583862
 30
0.0
 10
395.8129690792659
 20
287.0013630747272
 30
0.0
 10
395.8067925729551
 20
286.9529957047062
 30
0.0
 10
395.7951257845431
 20
286.851932637265
 30
0.0
 10
395.7896241960124
 20
286.7990964582984
 30
0.0
 10
395.7794216722639
 20
286.6901101394282
 30
0.0
 10
395.7747093571795
 20
286.6338871331743
 30
0.0
 10
395.7682265226154
 20
286.5469479895194
 30
0.0
 10
395.7661625025982
 20
286.517514750531
 30
0.0
 10
395.7622529782137
 20
286.4580994779771
 30
0.0
 10
395.7585559784477
 20
286.3980600296912
 30
0.0
 10
395.755282008259
 20
286.3367781615964
 30
0.0
 10
395.7522200943116
 20
286.274873493374
 30
0.0
 10
395.7507934630239
 20
286.2435672355277
 30
0.0
 10
395.7468486808799
 20
286.1490477391395
 30
0.0
 10
395.7446663084696
 20
286.0853086004034
 30
0.0
 10
395.7411893286175
 20
285.9563897238406
 30
0.0
 10
395.7398945384272
 20
285.8910613672845
 30
0.0
 10
395.7382219463887
 20
285.760274620787
 30
0.0
 10
395.7378388475003
 20
285.6946958628914
 30
0.0
 10
395.7379446524803
 20
285.5960493800733
 30
0.0
 10
395.7380939687506
 20
285.5631145500147
 30
0.0
 10
395.7386180469488
 20
285.4975089726327
 30
0.0
 10
395.739367431116
 20
285.4320780148741
 30
0.0
 10
395.7405648526222
 20
285.3669943009627
 30
0.0
 10
395.7419866330564
 20
285.3020844726867
 30
0.0
 10
395.742811055607
 20
285.2696732661493
 30
0.0
 10
395.7456120482989
 20
285.1730883170239
 30
0.0
 10
395.7479138317482
 20
285.1095645879028
 30
0.0
 10
395.7533785677534
 20
284.9842341694729
 30
0.0
 10
395.7565501718574
 20
284.9223144860541
 30
0.0
 10
395.7636932141249
 20
284.8014240787934
 30
0.0
 10
395.7676686979244
 20
284.742319863759
 30
0.0
 10
395.7742386103565
 20
284.6556774896725
 30
0.0
 10
395.7765295920609
 20
284.6271422258246
 30
0.0
 10
395.7812900226179
 20
284.5710399912753
 30
0.0
 10
395.7862344755818
 20
284.5158304628892
 30
0.0
 10
395.7915451781922
 20
284.4623976383422
 30
0.0
 10
395.7970394213306
 20
284.4098551823288
 30
0.0
 10
395.7998821098174
 20
284.3839977045112
 30
0.0
 10
395.8086500152007
 20
284.3080944980831
 30
0.0
 10
395.814817695582
 20
284.2596680585457
 30
0.0
 10
395.8277939369219
 20
284.1671399897986
 30
0.0
 10
395.8346153280899
 20
284.1229809864333
 30
0.0
 10
395.8487674158437
 20
284.039871489994
 30
0.0
 10
395.8561113847639
 20
284.0008118377767
 30
0.0
 10
395.8675311976987
 20
283.9459833679261
 30
0.0
 10
395.8714023046957
 20
283.9283518869335
 30
0.0
 10
395.8792405280913
 20
283.8945204912708
 30
0.0
 10
395.8871837204948
 20
283.8620768325763
 30
0.0
 10
395.895336284369
 20
283.832401157841
 30
0.0
 10
395.9035939987396
 20
283.8041156194323
 30
0.0
 10
395.9077828129526
 20
283.790647686526
 30
0.0
 10
395.928845178782
 20
283.7272482891412
 30
0.0
 10
395.9461405251269
 20
283.6887366932323
 30
0.0
 10
395.9727371033581
 20
283.6488804630602
 30
0.0
 10
395.9817123154191
 20
283.6386010623631
 30
0.0
 10
395.9953449176594
 20
283.6278349964882
 30
0.0
 10
395.9999166840903
 20
283.6250273252514
 30
0.0
 10
396.0090571059865
 20
283.6210198640385
 30
0.0
 10
396.0136334476164
 20
283.6198133651554
 30
0.0
 10
396.0182153142883
 20
283.6194074907539
 30
0.0
  0
SPLINE
  5
1A3
330
1F
100
AcDbEntity
  8
1
100
AcDbSpline
210
0.0
220
0.0
230
1.0
 70
     8
 71
     3
 72
     8
 73
     4
 74
     0
 42
0.000000001
 43
0.0000000001
 40
0.0
 40
0.0
 40
0.0
 40
0.0
 40
1.0
 40
1.0
 40
1.0
 40
1.0
 10
394.2405355651279
 20
301.0460889548042
 30
0.0
 10
394.2429462412347
 20
301.0540905609773
 30
0.0
 10
394.2455313211348
 20
301.0620434397518
 30
0.0
 10
394.2482910260965
 20
301.0699481817857
 30
0.0
  0
SPLINE
  5
1A4
330
1F
100
AcDbEntity
  8
1
100
AcDbSpline
210
0.0
220
0.0
230
1.0
 70
     8
 71
     3
 72
    10
 73
     6
 74
     0
 42
0.000000001
 43
0.0000000001
 40
0.0
 40
0.0
 40
0.0
 40
0.0
 40
0.9000885583045521
 40
0.9000885583045521
 40
1.0
 40
1.0
 40
1.0
 40
1.0
 10
392.2205147271714
 20
301.5372664123277
 30
0.0
 10
392.2170175995956
 20
301.5068307769773
 30
0.0
 10
392.2111335041113
 20
301.4768548770517
 30
0.0
 10
392.2019481251692
 20
301.4440272349086
 30
0.0
 10
392.2010010605674
 20
301.440752648599
 30
0.0
 10
392.2000243867318
 20
301.4374833359052
 30
0.0
  0
SPLINE
  5
1A5
330
1F
100
AcDbEntity
  8
1
100
AcDbSpline
210
0.0
220
0.0
230
1.0
 70
     8
 71
     3
 72
    20
 73
    16
 74
     0
 42
0.000000001
 43
0.0000000001
 40
0.0
 40
0.0
 40
0.0
 40
0.0
 40
0.1249999999999583
 40
0.1249999999999583
 40
0.2499999999999166
 40
0.2499999999999166
 40
0.3749999999998749
 40
0.3749999999998749
 40
0.4999999999998332
 40
0.4999999999998332
 40
0.6249999999997915
 40
0.6249999999997915
 40
0.7499999999997498
 40
0.7499999999997498
 40
1.0
 40
1.0
 40
1.0
 40
1.0
 10
392.3001845003324
 20
298.9880398937224
 30
0.0
 10
392.2979512100866
 20
298.9837947356498
 30
0.0
 10
392.295426740942
 20
298.9797396220907
 30
0.0
 10
392.2897993868709
 20
298.9720070740828
 30
0.0
 10
392.2866880130231
 20
298.9683278529153
 30
0.0
 10
392.2800296904853
 20
298.9615233447174
 30
0.0
 10
392.2764671595456
 20
298.9583738300343
 30
0.0
 10
392.2688681542922
 20
298.9525889361818
 30
0.0
 10
392.2647970856691
 20
298.9499365776338
 30
0.0
 10
392.2563555084287
 20
298.9452988855188
 30
0.0
 10
392.2519854382701
 20
298.9433051736047
 30
0.0
 10
392.2429445208091
 20
298.9399746049233
 30
0.0
 10
392.2382420100962
 20
298.9386315259506
 30
0.0
 10
392.2238715983539
 20
298.9357095929796
 30
0.0
 10
392.21414835519
 20
298.9352313378063
 30
0.0
 10
392.2042752772254
 20
298.9363157590618
 30
0.0
  0
SPLINE
  5
1A6
330
1F
100
AcDbEntity
  8
1
100
AcDbSpline
210
0.0
220
0.0
230
1.0
 70
     8
 71
     3
 72
    18
 73
    14
 74
     0
 42
0.000000001
 43
0.0000000001
 40
0.0
 40
0.0
 40
0.0
 40
0.0
 40
0.250000000000046
 40
0.250000000000046
 40
0.3750000000000557
 40
0.3750000000000557
 40
0.5000000000000656
 40
0.5000000000000656
 40
0.6250000000000754
 40
0.6250000000000754
 40
0.7500000000000849
 40
0.7500000000000849
 40
1.0
 40
1.0
 40
1.0
 40
1.0
 10
393.1252947223222
 20
298.7240590236391
 30
0.0
 10
393.115939852291
 20
298.7274075689878
 30
0.0
 10
393.1072283987231
 20
298.7322242987836
 30
0.0
 10
393.0957473102653
 20
298.7410575663554
 30
0.0
 10
393.0921558662585
 20
298.7442827933486
 30
0.0
 10
393.0854479430877
 20
298.7512983004166
 30
0.0
 10
393.0823677765323
 20
298.7550588956191
 30
0.0
 10
393.0768706483304
 20
298.762884067187
 30
0.0
 10
393.074429115856
 20
298.7669738877723
 30
0.0
 10
393.0701511680543
 20
298.7755020219383
 30
0.0
 10
393.0683052974781
 20
298.7799772754027
 30
0.0
 10
393.0638302342132
 20
298.7935735118851
 30
0.0
 10
393.0621944637396
 20
298.8029009017023
 30
0.0
 10
393.061916176932
 20
298.812492374282
 30
0.0
  0
SPLINE
  5
1A7
330
1F
100
AcDbEntity
  8
1
100
AcDbSpline
210
0.0
220
0.0
230
1.0
 70
     8
 71
     3
 72
    10
 73
     6
 74
     0
 42
0.000000001
 43
0.0000000001
 40
0.0
 40
0.0
 40
0.0
 40
0.0
 40
0.5
 40
0.5
 40
1.0
 40
1.0
 40
1.0
 40
1.0
 10
392.3001845003324
 20
298.9880398937224
 30
0.0
 10
392.3052892309467
 20
298.9977432399032
 30
0.0
 10
392.3118552232154
 20
299.0064075083429
 30
0.0
 10
392.3278520819416
 20
299.0214813741726
 30
0.0
 10
392.3369057993133
 20
299.0275523177686
 30
0.0
 10
392.3470826647297
 20
299.0320714617262
 30
0.0
  0
SPLINE
  5
1A8
330
1F
100
AcDbEntity
  8
1
100
AcDbSpline
210
0.0
220
0.0
230
1.0
 70
     8
 71
     3
 72
    10
 73
     6
 74
     0
 42
0.000000001
 43
0.0000000001
 40
0.0
 40
0.0
 40
0.0
 40
0.0
 40
0.5
 40
0.5
 40
1.0
 40
1.0
 40
1.0
 40
1.0
 10
393.0391616454289
 20
298.8725759962613
 30
0.0
 10
393.0463135964126
 20
298.8640631372863
 30
0.0
 10
393.0518066000061
 20
298.8545813013934
 30
0.0
 10
393.0595232011784
 20
298.8340531942176
 30
0.0
 10
393.0615984297943
 20
298.8234438921915
 30
0.0
 10
393.061916176932
 20
298.812492374282
 30
0.0
  0
SPLINE
  5
1A9
330
1F
100
AcDbEntity
  8
1
100
AcDbSpline
210
0.0
220
0.0
230
1.0
 70
     8
 71
     3
 72
    27
 73
    23
 74
     0
 42
0.000000001
 43
0.0000000001
 40
0.0
 40
0.0
 40
0.0
 40
0.0
 40
0.125000000000033
 40
0.125000000000033
 40
0.1875000000000485
 40
0.1875000000000485
 40
0.2500000000000641
 40
0.2500000000000641
 40
0.3750000000000457
 40
0.3750000000000457
 40
0.4375000000000613
 40
0.4375000000000613
 40
0.5000000000000769
 40
0.5000000000000769
 40
0.6250000000000729
 40
0.6250000000000729
 40
0.687500000000054
 40
0.687500000000054
 40
0.7500000000000351
 40
0.7500000000000351
 40
0.8750000000000175
 40
1.0
 40
1.0
 40
1.0
 40
1.0
 10
392.2042752772254
 20
298.9363157590618
 30
0.0
 10
392.1726957612561
 20
298.9397843327406
 30
0.0
 10
392.1416931957468
 20
298.9457292695563
 30
0.0
 10
392.0960463407589
 20
298.9583006522801
 30
0.0
 10
392.0809741917818
 20
298.9631029147459
 30
0.0
 10
392.0511233059736
 20
298.9739553585323
 30
0.0
 10
392.036304542723
 20
298.9800286571875
 30
0.0
 10
391.9930002748345
 20
298.9998476830582
 30
0.0
 10
391.9654482692125
 20
299.0152440828506
 30
0.0
 10
391.9260660075666
 20
299.0415610811521
 30
0.0
 10
391.9132643819528
 20
299.0508729908061
 30
0.0
 10
391.8883260809492
 20
299.0705978682165
 30
0.0
 10
391.8761366347835
 20
299.0810632568711
 30
0.0
 10
391.8411264922123
 20
299.1136722574913
 30
0.0
 10
391.8197851910185
 20
299.1370395322099
 30
0.0
 10
391.7906808532454
 20
299.1744586043857
 30
0.0
 10
391.7814663510494
 20
299.1873282291672
 30
0.0
 10
391.764023867744
 20
299.2138709782513
 30
0.0
 10
391.7557679499763
 20
299.2275961321216
 30
0.0
 10
391.732727045784
 20
299.2696454116318
 30
0.0
 10
391.7068699839189
 20
299.3274292360425
 30
0.0
 10
391.6903167732229
 20
299.3884933976428
 30
0.0
 10
391.6844364605858
 20
299.4198682643022
 30
0.0
  0
SPLINE
  5
1AA
330
1F
100
AcDbEntity
  8
1
100
AcDbSpline
210
0.0
220
0.0
230
1.0
 70
     8
 71
     3
 72
    24
 73
    20
 74
     0
 42
0.000000001
 43
0.0000000001
 40
0.0
 40
0.0
 40
0.0
 40
0.0
 40
0.1249999999999662
 40
0.1249999999999662
 40
0.2499999999999326
 40
0.2499999999999326
 40
0.3124999999999157
 40
0.3124999999999157
 40
0.3749999999998989
 40
0.3749999999998989
 40
0.4999999999999191
 40
0.4999999999999191
 40
0.6249999999999393
 40
0.6249999999999393
 40
0.7499999999999596
 40
0.7499999999999596
 40
0.8749999999999797
 40
0.8749999999999797
 40
1.0
 40
1.0
 40
1.0
 40
1.0
 10
392.3470826647297
 20
299.0320714617262
 30
0.0
 10
392.3759039666924
 20
299.0448698635213
 30
0.0
 10
392.405463133461
 20
299.0553192791022
 30
0.0
 10
392.4660927685767
 20
299.0715426464677
 30
0.0
 10
392.4971624551091
 20
299.0773188584528
 30
0.0
 10
392.5450231843232
 20
299.082203242755
 30
0.0
 10
392.5610874157562
 20
299.0831821493973
 30
0.0
 10
392.5930486548619
 20
299.0838239635278
 30
0.0
 10
392.6090044733376
 20
299.0834933486403
 30
0.0
 10
392.6567994974176
 20
299.0805469915218
 30
0.0
 10
392.6886171472158
 20
299.0759786811072
 30
0.0
 10
392.7518498179555
 20
299.0613964736031
 30
0.0
 10
392.7823411137477
 20
299.0516044563117
 30
0.0
 10
392.8412066115649
 20
299.0273019354151
 30
0.0
 10
392.8695910573211
 20
299.0127839357829
 30
0.0
 10
392.9241731394698
 20
298.9789618372805
 30
0.0
 10
392.9495786429374
 20
298.9601543762024
 30
0.0
 10
392.9969466611731
 20
298.9190165944277
 30
0.0
 10
393.0189073030908
 20
298.8966844332946
 30
0.0
 10
393.039161645429
 20
298.8725759962613
 30
0.0
  0
SPLINE
  5
1AB
330
1F
100
AcDbEntity
  8
1
100
AcDbSpline
210
0.0
220
0.0
230
1.0
 70
     8
 71
     3
 72
    27
 73
    23
 74
     0
 42
0.000000001
 43
0.0000000001
 40
0.0
 40
0.0
 40
0.0
 40
0.0
 40
0.0969339437284994
 40
0.0969339437284994
 40
0.1614386620336015
 40
0.1614386620336015
 40
0.2259433803387035
 40
0.2259433803387035
 40
0.3549528169489035
 40
0.3549528169489035
 40
0.419457535254002
 40
0.419457535254002
 40
0.4839622535591004
 40
0.4839622535591004
 40
0.6129716901692973
 40
0.6129716901692973
 40
0.6774764084743957
 40
0.6774764084743957
 40
0.7419811267794944
 40
0.7419811267794944
 40
0.870990563389747
 40
1.0
 40
1.0
 40
1.0
 40
1.0
 10
393.7896305843452
 20
298.9125613310856
 30
0.0
 10
393.7746423320192
 20
298.893952849478
 30
0.0
 10
393.7586277756182
 20
298.8763273161131
 30
0.0
 10
393.7302680747192
 20
298.8485917705536
 30
0.0
 10
393.7184856674697
 20
298.8379421219821
 30
0.0
 10
393.6940010145304
 20
298.8175254126825
 30
0.0
 10
393.6812587180352
 20
298.8077353834333
 30
0.0
 10
393.6422476004231
 20
298.7801689975873
 30
0.0
 10
393.6150388665274
 20
298.7640326178765
 30
0.0
 10
393.5724524859526
 20
298.7431364238296
 30
0.0
 10
393.5579601016014
 20
298.7367249909433
 30
0.0
 10
393.5283693799897
 20
298.7250326480567
 30
0.0
 10
393.5131992965302
 20
298.719732389153
 30
0.0
 10
393.4674420457085
 20
298.7057928986239
 30
0.0
 10
393.436557562668
 20
298.6990517762856
 30
0.0
 10
393.3896789775468
 20
298.6926524655142
 30
0.0
 10
393.3739603695073
 20
298.6911410821315
 30
0.0
 10
393.3423361049958
 20
298.6893779492372
 30
0.0
 10
393.3263715144216
 20
298.6891281728849
 30
0.0
 10
393.2786085245932
 20
298.6903157471551
 30
0.0
 10
393.2159265232399
 20
298.6969808924097
 30
0.0
 10
393.1551718651833
 20
298.7133645973744
 30
0.0
 10
393.1252947223222
 20
298.7240590236391
 30
0.0
  0
SPLINE
  5
1AC
330
1F
100
AcDbEntity
  8
1
100
AcDbSpline
210
0.0
220
0.0
230
1.0
 70
     8
 71
     3
 72
    24
 73
    20
 74
     0
 42
0.000000001
 43
0.0000000001
 40
0.0
 40
0.0
 40
0.0
 40
0.0
 40
0.1294225722710009
 40
0.1294225722710009
 40
0.2588451445420018
 40
0.2588451445420018
 40
0.3235564306775154
 40
0.3235564306775154
 40
0.3882677168130289
 40
0.3882677168130289
 40
0.5176902890840501
 40
0.5176902890840501
 40
0.6471128613550711
 40
0.6471128613550711
 40
0.7765354336260922
 40
0.7765354336260922
 40
0.9059580058971132
 40
0.9059580058971132
 40
1.0
 40
1.0
 40
1.0
 40
1.0
 10
391.5595318320796
 20
300.2489232026869
 30
0.0
 10
391.5847034293094
 20
300.2307765561605
 30
0.0
 10
391.6082392495927
 20
300.2107854429755
 30
0.0
 10
391.6520853641588
 20
300.1670856477412
 30
0.0
 10
391.6723971807178
 20
300.143378817825
 30
0.0
 10
391.700281656631
 20
300.1047757372635
 30
0.0
 10
391.7090807796546
 20
300.0914755915821
 30
0.0
 10
391.7254807244416
 20
300.0643345802013
 30
0.0
 10
391.7331162551708
 20
300.0504464725243
 30
0.0
 10
391.7543317743092
 20
300.0078263939427
 30
0.0
 10
391.7662476542959
 20
299.9780960511381
 30
0.0
 10
391.7852718765804
 20
299.9161405189608
 30
0.0
 10
391.7921095769273
 20
299.8848255854442
 30
0.0
 10
391.8007392043987
 20
299.821557775437
 30
0.0
 10
391.8025298441255
 20
299.7895925377219
 30
0.0
 10
391.8009659955436
 20
299.7250555563269
 30
0.0
 10
391.797638929673
 20
299.6934242241967
 30
0.0
 10
391.7878303419058
 20
299.6397945739907
 30
0.0
 10
391.7824584893928
 20
299.6175270868479
 30
0.0
 10
391.7758398589425
 20
299.5955550585693
 30
0.0
  0
SPLINE
  5
1AD
330
1F
100
AcDbEntity
  8
1
100
AcDbSpline
210
0.0
220
0.0
230
1.0
 70
     8
 71
     3
 72
    10
 73
     6
 74
     0
 42
0.000000001
 43
0.0000000001
 40
0.0
 40
0.0
 40
0.0
 40
0.0
 40
0.5
 40
0.5
 40
1.0
 40
1.0
 40
1.0
 40
1.0
 10
391.4987547356876
 20
300.266540449982
 30
0.0
 10
391.5095635690926
 20
300.2671425081688
 30
0.0
 10
391.5202078758775
 20
300.2659589906912
 30
0.0
 10
391.5409851363389
 20
300.2599785056741
 30
0.0
 10
391.55064326455
 20
300.255331127127
 30
0.0
 10
391.5595318320796
 20
300.2489232026869
 30
0.0
  0
SPLINE
  5
1AE
330
1F
100
AcDbEntity
  8
1
100
AcDbSpline
210
0.0
220
0.0
230
1.0
 70
     8
 71
     3
 72
    20
 73
    16
 74
     0
 42
0.000000001
 43
0.0000000001
 40
0.0
 40
0.0
 40
0.0
 40
0.0
 40
0.125000000000004
 40
0.125000000000004
 40
0.250000000000008
 40
0.250000000000008
 40
0.3750000000000119
 40
0.3750000000000119
 40
0.5000000000000158
 40
0.5000000000000158
 40
0.6250000000000198
 40
0.6250000000000198
 40
0.7500000000000236
 40
0.7500000000000236
 40
1.0
 40
1.0
 40
1.0
 40
1.0
 10
391.4987547356876
 20
300.266540449982
 30
0.0
 10
391.4940258050214
 20
300.2662770458461
 30
0.0
 10
391.4893152190202
 20
300.2663607178728
 30
0.0
 10
391.4799306559622
 20
300.267217729282
 30
0.0
 10
391.475251288576
 20
300.2679973891559
 30
0.0
 10
391.4661505895076
 20
300.2702142185613
 30
0.0
 10
391.4617008035295
 20
300.2716523415298
 30
0.0
 10
391.4530063119597
 20
300.2751986105944
 30
0.0
 10
391.4487300539697
 20
300.2773277081178
 30
0.0
 10
391.4406002824637
 20
300.2821841863827
 30
0.0
 10
391.4367394316747
 20
300.2849071059771
 30
0.0
 10
391.4294305252338
 20
300.2909475198883
 30
0.0
 10
391.4259613680103
 20
300.2942891532488
 30
0.0
 10
391.4163720611725
 20
300.3051052668222
 30
0.0
 10
391.4111646243447
 20
300.3131917883487
 30
0.0
 10
391.4072196042213
 20
300.3222073360704
 30
0.0
  0
SPLINE
  5
1AF
330
1F
100
AcDbEntity
  8
1
100
AcDbSpline
210
0.0
220
0.0
230
1.0
 70
     8
 71
     3
 72
    22
 73
    18
 74
     0
 42
0.000000001
 43
0.0000000001
 40
0.0
 40
0.0
 40
0.0
 40
0.0
 40
0.1290468714502699
 40
0.1290468714502699
 40
0.2016262988293994
 40
0.2016262988293994
 40
0.274205726208529
 40
0.274205726208529
 40
0.4193645809668232
 40
0.4193645809668232
 40
0.5645234357251175
 40
0.5645234357251175
 40
0.7096822904834116
 40
0.7096822904834116
 40
0.8548411452417056
 40
0.8548411452417056
 40
1.0
 40
1.0
 40
1.0
 40
1.0
 10
393.8170199314453
 20
299.20639120173
 30
0.0
 10
393.8250564401263
 20
299.2332899286665
 30
0.0
 10
393.8349675547627
 20
299.2597683178106
 30
0.0
 10
393.8535907966198
 20
299.3004562595757
 30
0.0
 10
393.8608963380866
 20
299.3148697214171
 30
0.0
 10
393.8765269168996
 20
299.3428833888892
 30
0.0
 10
393.8848763472845
 20
299.3565380160932
 30
0.0
 10
393.9115262576503
 20
299.3964466262381
 30
0.0
 10
393.9314516802722
 20
299.4216897539395
 30
0.0
 10
393.9756607843856
 20
299.4690633493817
 30
0.0
 10
393.9992901659772
 20
299.4905049353193
 30
0.0
 10
394.0494324299134
 20
299.5291579492115
 30
0.0
 10
394.0759560633812
 20
299.5463740463098
 30
0.0
 10
394.1319218863396
 20
299.5764856938984
 30
0.0
 10
394.1605457456871
 20
299.5889462857992
 30
0.0
 10
394.2190272060853
 20
299.6091013901494
 30
0.0
 10
394.2488853987352
 20
299.6167933419837
 30
0.0
 10
394.2793871117038
 20
299.62210950668
 30
0.0
  0
SPLINE
  5
1B0
330
1F
100
AcDbEntity
  8
1
100
AcDbSpline
210
0.0
220
0.0
230
1.0
 70
     8
 71
     3
 72
    10
 73
     6
 74
     0
 42
0.000000001
 43
0.0000000001
 40
0.0
 40
0.0
 40
0.0
 40
0.0
 40
0.5
 40
0.5
 40
1.0
 40
1.0
 40
1.0
 40
1.0
 10
394.2793871117038
 20
299.62210950668
 30
0.0
 10
394.2901566560778
 20
299.6239865380342
 30
0.0
 10
394.3009211884591
 20
299.6239389446112
 30
0.0
 10
394.3221366796102
 20
299.620226331555
 30
0.0
 10
394.3321489986987
 20
299.6166539975548
 30
0.0
 10
394.3415760544925
 20
299.6113881882876
 30
0.0
  0
SPLINE
  5
1B1
330
1F
100
AcDbEntity
  8
1
100
AcDbSpline
210
0.0
220
0.0
230
1.0
 70
     8
 71
     3
 72
    18
 73
    14
 74
     0
 42
0.000000001
 43
0.0000000001
 40
0.0
 40
0.0
 40
0.0
 40
0.0
 40
0.2500000000003272
 40
0.2500000000003272
 40
0.3750000000003262
 40
0.3750000000003262
 40
0.5000000000003252
 40
0.5000000000003252
 40
0.6250000000003242
 40
0.6250000000003242
 40
0.7500000000003232
 40
0.7500000000003232
 40
1.0
 40
1.0
 40
1.0
 40
1.0
 10
394.4479744518363
 20
299.621439615463
 30
0.0
 10
394.4404857500385
 20
299.6150477200221
 30
0.0
 10
394.4320738999247
 20
299.609954754145
 30
0.0
 10
394.4188821847877
 20
299.6044986645493
 30
0.0
 10
394.4143640929248
 20
299.6030254852854
 30
0.0
 10
394.4050852866086
 20
299.6007754678266
 30
0.0
 10
394.4003696167493
 20
299.6000153220297
 30
0.0
 10
394.3910095242228
 20
299.5992216075022
 30
0.0
 10
394.3863320587897
 20
299.5991797397258
 30
0.0
 10
394.3769830682332
 20
299.5997954897262
 30
0.0
 10
394.3722757987567
 20
299.6004636409484
 30
0.0
 10
394.3585411881065
 20
299.6034723598016
 30
0.0
 10
394.3498324409238
 20
299.6067762970318
 30
0.0
 10
394.3415760544925
 20
299.6113881882877
 30
0.0
  0
SPLINE
  5
1B2
330
1F
100
AcDbEntity
  8
1
100
AcDbSpline
210
0.0
220
0.0
230
1.0
 70
     8
 71
     3
 72
    18
 73
    14
 74
     0
 42
0.000000001
 43
0.0000000001
 40
0.0
 40
0.0
 40
0.0
 40
0.0
 40
0.2502969362750934
 40
0.2502969362750934
 40
0.37544540441264
 40
0.37544540441264
 40
0.5005938725501867
 40
0.5005938725501867
 40
0.7508908088252936
 40
0.7508908088252936
 40
0.8760392769628438
 40
0.8760392769628438
 40
1.0
 40
1.0
 40
1.0
 40
1.0
 10
391.4072196042213
 20
300.3222073360704
 30
0.0
 10
391.3946019332168
 20
300.3510424779766
 30
0.0
 10
391.3843967107471
 20
300.380640674417
 30
0.0
 10
391.3726534588029
 20
300.4261568189531
 30
0.0
 10
391.3693358572075
 20
300.4415162270279
 30
0.0
 10
391.3639186742356
 20
300.4726162497326
 30
0.0
 10
391.3618192318509
 20
300.4884026785724
 30
0.0
 10
391.3574654462408
 20
300.5355842995562
 30
0.0
 10
391.3570919739926
 20
300.5670159420808
 30
0.0
 10
391.3602655978784
 20
300.6141274808914
 30
0.0
 10
391.3619486735202
 20
300.6298253295038
 30
0.0
 10
391.3665687487886
 20
300.6610596643234
 30
0.0
 10
391.3695123513302
 20
300.6766666812786
 30
0.0
 10
391.3730494930117
 20
300.692040081249
 30
0.0
  0
SPLINE
  5
1B3
330
1F
100
AcDbEntity
  8
1
100
AcDbSpline
210
0.0
220
0.0
230
1.0
 70
     8
 71
     3
 72
    13
 73
     9
 74
     0
 42
0.000000001
 43
0.0000000001
 40
0.0
 40
0.0
 40
0.0
 40
0.0
 40
0.1055865034784804
 40
0.1055865034784804
 40
0.2844692027828098
 40
0.2844692027828098
 40
0.642234601391405
 40
1.0
 40
1.0
 40
1.0
 40
1.0
 10
394.6040245759103
 20
299.8307427703367
 30
0.0
 10
394.6002537322637
 20
299.8222547538188
 30
0.0
 10
394.5962808710035
 20
299.8138485385372
 30
0.0
 10
394.5850289018865
 20
299.7914227983096
 30
0.0
 10
394.5773382304707
 20
299.7775075015223
 30
0.0
 10
394.5526775108817
 20
299.7368514533555
 30
0.0
 10
394.5159536368726
 20
299.6860702141962
 30
0.0
 10
394.4718913763103
 20
299.6418536317547
 30
0.0
 10
394.4479744518363
 20
299.621439615463
 30
0.0
  0
SPLINE
  5
1B4
330
1F
100
AcDbEntity
  8
1
100
AcDbSpline
210
0.0
220
0.0
230
1.0
 70
     8
 71
     3
 72
    10
 73
     6
 74
     0
 42
0.000000001
 43
0.0000000001
 40
0.0
 40
0.0
 40
0.0
 40
0.0
 40
0.5
 40
0.5
 40
1.0
 40
1.0
 40
1.0
 40
1.0
 10
392.2062578155363
 20
301.5976547980177
 30
0.0
 10
392.2120312417293
 20
301.5887810456811
 30
0.0
 10
392.2161756724666
 20
301.5791569390626
 30
0.0
 10
392.2210859272982
 20
301.558532641679
 30
0.0
 10
392.2217495290413
 20
301.5480129403369
 30
0.0
 10
392.2205147271714
 20
301.5372664123277
 30
0.0
  0
SPLINE
  5
1B5
330
1F
100
AcDbEntity
  8
1
100
AcDbSpline
210
0.0
220
0.0
230
1.0
 70
     8
 71
     3
 72
    10
 73
     6
 74
     0
 42
0.000000001
 43
0.0000000001
 40
0.0
 40
0.0
 40
0.0
 40
0.0
 40
0.6199212008825727
 40
0.6199212008825727
 40
1.0
 40
1.0
 40
1.0
 40
1.0
 10
392.2062578155363
 20
301.5976547980177
 30
0.0
 10
392.2037320092923
 20
301.6015369605866
 30
0.0
 10
392.201516053745
 20
301.6055769328608
 30
0.0
 10
392.1984380926193
 20
301.6123466106663
 30
0.0
 10
392.1973850539408
 20
301.6149813511078
 30
0.0
 10
392.1964573332466
 20
301.6176526056396
 30
0.0
  0
SPLINE
  5
1B6
330
1F
100
AcDbEntity
  8
1
100
AcDbSpline
210
0.0
220
0.0
230
1.0
 70
     8
 71
     3
 72
    10
 73
     6
 74
     0
 42
0.000000001
 43
0.0000000001
 40
0.0
 40
0.0
 40
0.0
 40
0.0
 40
0.5
 40
0.5
 40
1.0
 40
1.0
 40
1.0
 40
1.0
 10
394.2482910260965
 20
301.0699481817857
 30
0.0
 10
394.2518554574446
 20
301.0801579363416
 30
0.0
 10
394.2570659180388
 20
301.089394100571
 30
0.0
 10
394.2704364223156
 20
301.1057757579389
 30
0.0
 10
394.2783065297309
 20
301.112590737173
 30
0.0
 10
394.2873474577415
 20
301.1180500557637
 30
0.0
  0
SPLINE
  5
1B7
330
1F
100
AcDbEntity
  8
1
100
AcDbSpline
210
0.0
220
0.0
230
1.0
 70
     8
 71
     3
 72
     8
 73
     4
 74
     0
 42
0.000000001
 43
0.0000000001
 40
0.0
 40
0.0
 40
0.0
 40
0.0
 40
1.0
 40
1.0
 40
1.0
 40
1.0
 10
397.7311931720172
 20
288.4274807728481
 30
0.0
 10
397.7276505834055
 20
288.4492200467838
 30
0.0
 10
397.722340263689
 20
288.4705185758535
 30
0.0
 10
397.7152622128679
 20
288.4913763600573
 30
0.0
  0
SPLINE
  5
1B8
330
1F
100
AcDbEntity
  8
1
100
AcDbSpline
210
0.0
220
0.0
230
1.0
 70
     8
 71
     3
 72
     8
 73
     4
 74
     0
 42
0.000000001
 43
0.0000000001
 40
0.0
 40
0.0
 40
0.0
 40
0.0
 40
1.0
 40
1.0
 40
1.0
 40
1.0
 10
397.5894505876547
 20
281.2836331788933
 30
0.0
 10
397.5972522528897
 20
281.3042312366872
 30
0.0
 10
397.6033026456479
 20
281.3253314637831
 30
0.0
 10
397.6076017659293
 20
281.3469338601809
 30
0.0
  0
SPLINE
  5
1B9
330
1F
100
AcDbEntity
  8
1
100
AcDbSpline
210
0.0
220
0.0
230
1.0
 70
     8
 71
     3
 72
     8
 73
     4
 74
     0
 42
0.000000001
 43
0.0000000001
 40
0.0
 40
0.0
 40
0.0
 40
0.0
 40
1.0
 40
1.0
 40
1.0
 40
1.0
 10
397.0081269389877
 20
280.3492402055163
 30
0.0
 10
397.0251824081699
 20
280.363177814217
 30
0.0
 10
397.0409723155493
 20
280.3784259505285
 30
0.0
 10
397.0554966611258
 20
280.3949846144508
 30
0.0
  0
SPLINE
  5
1BA
330
1F
100
AcDbEntity
  8
1
100
AcDbSpline
210
0.0
220
0.0
230
1.0
 70
     8
 71
     3
 72
     8
 73
     4
 74
     0
 42
0.000000001
 43
0.0000000001
 40
0.0
 40
0.0
 40
0.0
 40
0.0
 40
1.0
 40
1.0
 40
1.0
 40
1.0
 10
397.2126469442886
 20
289.3981183071029
 30
0.0
 10
397.1987093355878
 20
289.4151737762852
 30
0.0
 10
397.1834611992763
 20
289.4309636836646
 30
0.0
 10
397.166902535354
 20
289.4454880292411
 30
0.0
  0
SPLINE
  5
1BB
330
1F
100
AcDbEntity
  8
1
100
AcDbSpline
210
0.0
220
0.0
230
1.0
 70
     8
 71
     3
 72
    36
 73
    32
 74
     0
 42
0.000000001
 43
0.0000000001
 40
0.0
 40
0.0
 40
0.0
 40
0.0
 40
0.1250000000000378
 40
0.1250000000000378
 40
0.1875000000000608
 40
0.1875000000000608
 40
0.2187500000000682
 40
0.2187500000000682
 40
0.2500000000000756
 40
0.2500000000000756
 40
0.3750000000001132
 40
0.3750000000001132
 40
0.4062500000001192
 40
0.4062500000001192
 40
0.4375000000001254
 40
0.4375000000001254
 40
0.5000000000001148
 40
0.5000000000001148
 40
0.6250000000000996
 40
0.6250000000000996
 40
0.6562500000000742
 40
0.6562500000000742
 40
0.6875000000000487
 40
0.7500000000000322
 40
0.8125000000000158
 40
0.8125000000000158
 40
0.8437500000000241
 40
0.8437500000000241
 40
0.8750000000000323
 40
0.8750000000000323
 40
1.0
 40
1.0
 40
1.0
 40
1.0
 10
397.7587978615781
 20
304.5472851080299
 30
0.0
 10
397.7569678199444
 20
304.5981301254305
 30
0.0
 10
397.7499897360221
 20
304.6479123301745
 30
0.0
 10
397.7322802063589
 20
304.721090443978
 30
0.0
 10
397.7251599073614
 20
304.7452318738102
 30
0.0
 10
397.7126276406249
 20
304.781061710925
 30
0.0
 10
397.7081277498409
 20
304.7929726790886
 30
0.0
 10
397.6985694472235
 20
304.8164926481655
 30
0.0
 10
397.6935175621601
 20
304.8280911786191
 30
0.0
 10
397.6669253152101
 20
304.8852948214836
 30
0.0
 10
397.641426025727
 20
304.9285563111443
 30
0.0
 10
397.6043490240471
 20
304.9795531444333
 30
0.0
 10
397.5966710320209
 20
304.9895970609485
 30
0.0
 10
397.5807818954764
 20
305.0093692761053
 30
0.0
 10
397.5725555131581
 20
305.019112600938
 30
0.0
 10
397.5473278815467
 20
305.0475671308608
 30
0.0
 10
397.529709559106
 20
305.0655986747762
 30
0.0
 10
397.4745210824352
 20
305.1169565131464
 30
0.0
 10
397.4346406866349
 20
305.1475733032111
 30
0.0
 10
397.3807969563743
 20
305.1811609324427
 30
0.0
 10
397.3698128118243
 20
305.1876477836608
 30
0.0
 10
397.3476771314873
 20
305.2000056954628
 30
0.0
 10
397.3141387175686
 20
305.2176729005059
 30
0.0
 10
397.2565953621191
 20
305.242843856007
 30
0.0
 10
397.2088159593917
 20
305.2584498761292
 30
0.0
 10
397.1723112013248
 20
305.2684139773226
 30
0.0
 10
397.1600310383918
 20
305.2714447320409
 30
0.0
 10
397.1352415194549
 20
305.2769110650796
 30
0.0
 10
397.1227159216713
 20
305.279347903631
 30
0.0
 10
397.0600953455937
 20
305.2899099861905
 30
0.0
 10
397.009595582824
 20
305.293328121291
 30
0.0
 10
396.9586795366027
 20
305.2915527697479
 30
0.0
  0
SPLINE
  5
1BC
330
1F
100
AcDbEntity
  8
1
100
AcDbSpline
210
0.0
220
0.0
230
1.0
 70
     8
 71
     3
 72
    36
 73
    32
 74
     0
 42
0.000000001
 43
0.0000000001
 40
0.0
 40
0.0
 40
0.0
 40
0.0
 40
0.1249999999999096
 40
0.1249999999999096
 40
0.1874999999998812
 40
0.1874999999998812
 40
0.2187499999998831
 40
0.2187499999998831
 40
0.2499999999998851
 40
0.2499999999998851
 40
0.3749999999997994
 40
0.3749999999997994
 40
0.4062499999997919
 40
0.4062499999997919
 40
0.4374999999997844
 40
0.4374999999997844
 40
0.4999999999998006
 40
0.4999999999998006
 40
0.6249999999998267
 40
0.6249999999998267
 40
0.656249999999843
 40
0.656249999999843
 40
0.6874999999998596
 40
0.7499999999998849
 40
0.8124999999999062
 40
0.8124999999999062
 40
0.8437499999999213
 40
0.8437499999999213
 40
0.8749999999999364
 40
0.8749999999999364
 40
1.0
 40
1.0
 40
1.0
 40
1.0
 10
388.9859945339268
 20
305.0135594911481
 30
0.0
 10
388.9350728783181
 20
305.0117839440157
 30
0.0
 10
388.8852209083292
 20
305.0048672047758
 30
0.0
 10
388.8119478157268
 20
304.9872593291543
 30
0.0
 10
388.7877763512312
 20
304.9801745343869
 30
0.0
 10
388.7519039344153
 20
304.9676979880952
 30
0.0
 10
388.7399791506371
 20
304.9632171347041
 30
0.0
 10
388.7164325841715
 20
304.9536974603527
 30
0.0
 10
388.7048212814756
 20
304.9486651454667
 30
0.0
 10
388.6475563501177
 20
304.9221720006663
 30
0.0
 10
388.6042539860395
 20
304.8967559598259
 30
0.0
 10
388.5532161027561
 20
304.8597879034602
 30
0.0
 10
388.5431644831172
 20
304.8521319470198
 30
0.0
 10
388.5233778908459
 20
304.8362873821745
 30
0.0
 10
388.5136278843106
 20
304.8280835747142
 30
0.0
 10
388.4851550639083
 20
304.8029237244869
 30
0.0
 10
388.4671135876763
 20
304.7853508683873
 30
0.0
 10
388.4157325492304
 20
304.7302996039269
 30
0.0
 10
388.3851090225025
 20
304.690511759075
 30
0.0
 10
388.3515242613939
 20
304.6367851090729
 30
0.0
 10
388.3450385588483
 20
304.6258244779455
 30
0.0
 10
388.332684065218
 20
304.6037354564654
 30
0.0
 10
388.3150236704417
 20
304.5702666628563
 30
0.0
 10
388.2898722339189
 20
304.5128375724601
 30
0.0
 10
388.2742907832802
 20
304.46514759306
 30
0.0
 10
388.26434839974
 20
304.4287091959284
 30
0.0
 10
388.2613254466451
 20
304.4164510303418
 30
0.0
 10
388.2558758686652
 20
304.391705254264
 30
0.0
 10
388.2534479981103
 20
304.3792014282935
 30
0.0
 10
388.2429332523281
 20
304.3166880512608
 30
0.0
 10
388.2395611645715
 20
304.2662695552938
 30
0.0
 10
388.2413910046129
 20
304.2154301388385
 30
0.0
  0
SPLINE
  5
1BD
330
1F
100
AcDbEntity
  8
1
100
AcDbSpline
210
0.0
220
0.0
230
1.0
 70
     8
 71
     3
 72
    36
 73
    32
 74
     0
 42
0.000000001
 43
0.0000000001
 40
0.0
 40
0.0
 40
0.0
 40
0.0
 40
0.1250000000000346
 40
0.1250000000000346
 40
0.187500000000056
 40
0.187500000000056
 40
0.2187500000000667
 40
0.2187500000000667
 40
0.2500000000000774
 40
0.2500000000000774
 40
0.3750000000000806
 40
0.3750000000000806
 40
0.4062500000000774
 40
0.4062500000000774
 40
0.4375000000000739
 40
0.4375000000000739
 40
0.5000000000000445
 40
0.5000000000000445
 40
0.6250000000000111
 40
0.6250000000000111
 40
0.6562500000000096
 40
0.6562500000000096
 40
0.6875000000000081
 40
0.7499999999999734
 40
0.8124999999999387
 40
0.8124999999999387
 40
0.8437499999999376
 40
0.8437499999999376
 40
0.8749999999999367
 40
0.8749999999999367
 40
1.0
 40
1.0
 40
1.0
 40
1.0
 10
388.5279163603373
 20
296.2547442019086
 30
0.0
 10
388.529746401971
 20
296.203899184508
 30
0.0
 10
388.5367244858932
 20
296.154116979764
 30
0.0
 10
388.5544340155564
 20
296.0809388659604
 30
0.0
 10
388.5615543145539
 20
296.0567974361283
 30
0.0
 10
388.5740865812905
 20
296.0209675990135
 30
0.0
 10
388.5785864720747
 20
296.0090566308499
 30
0.0
 10
388.5881447746919
 20
295.9855366617729
 30
0.0
 10
388.5931966597551
 20
295.9739381313194
 30
0.0
 10
388.6197889067053
 20
295.9167344884548
 30
0.0
 10
388.6452881961884
 20
295.8734729987942
 30
0.0
 10
388.6823651978682
 20
295.8224761655052
 30
0.0
 10
388.6900431898945
 20
295.81243224899
 30
0.0
 10
388.705932326439
 20
295.7926600338332
 30
0.0
 10
388.7141587087573
 20
295.7829167090005
 30
0.0
 10
388.7393863403687
 20
295.7544621790777
 30
0.0
 10
388.7570046628093
 20
295.7364306351624
 30
0.0
 10
388.8121931394802
 20
295.6850727967922
 30
0.0
 10
388.8520735352805
 20
295.6544560067273
 30
0.0
 10
388.9059172655412
 20
295.6208683774958
 30
0.0
 10
388.9169014100911
 20
295.6143815262777
 30
0.0
 10
388.9390370904282
 20
295.6020236144757
 30
0.0
 10
388.9725755043468
 20
295.5843564094326
 30
0.0
 10
389.0301188597961
 20
295.5591854539315
 30
0.0
 10
389.0778982625237
 20
295.5435794338093
 30
0.0
 10
389.1144030205905
 20
295.533615332616
 30
0.0
 10
389.1266831835237
 20
295.5305845778975
 30
0.0
 10
389.1514727024604
 20
295.5251182448588
 30
0.0
 10
389.1639983002442
 20
295.5226814063075
 30
0.0
 10
389.2266188763218
 20
295.512119323748
 30
0.0
 10
389.2771186390914
 20
295.5087011886475
 30
0.0
 10
389.3280346853127
 20
295.5104765401906
 30
0.0
  0
SPLINE
  5
1BE
330
1F
100
AcDbEntity
  8
1
100
AcDbSpline
210
0.0
220
0.0
230
1.0
 70
     8
 71
     3
 72
    36
 73
    32
 74
     0
 42
0.000000001
 43
0.0000000001
 40
0.0
 40
0.0
 40
0.0
 40
0.0
 40
0.125000000000025
 40
0.125000000000025
 40
0.1875000000000372
 40
0.1875000000000372
 40
0.2187500000000595
 40
0.2187500000000595
 40
0.2500000000000818
 40
0.2500000000000818
 40
0.3750000000000775
 40
0.3750000000000775
 40
0.4062500000000633
 40
0.4062500000000633
 40
0.437500000000049
 40
0.437500000000049
 40
0.5000000000000444
 40
0.5000000000000444
 40
0.6250000000000121
 40
0.6250000000000121
 40
0.6562500000000081
 40
0.6562500000000081
 40
0.6875000000000041
 40
0.7500000000000114
 40
0.8125000000000186
 40
0.8125000000000186
 40
0.8437500000000177
 40
0.8437500000000177
 40
0.8750000000000168
 40
0.8750000000000168
 40
1.0
 40
1.0
 40
1.0
 40
1.0
 10
397.3007196879885
 20
295.7884698187903
 30
0.0
 10
397.3516413435974
 20
295.7902453659228
 30
0.0
 10
397.4014933135862
 20
295.7971621051627
 30
0.0
 10
397.4747664061883
 20
295.8147699807841
 30
0.0
 10
397.4989378706843
 20
295.8218547755516
 30
0.0
 10
397.5348102875
 20
295.8343313218433
 30
0.0
 10
397.5467350712784
 20
295.8388121752345
 30
0.0
 10
397.570281637744
 20
295.8483318495859
 30
0.0
 10
397.5818929404397
 20
295.8533641644719
 30
0.0
 10
397.6391578717977
 20
295.8798573092722
 30
0.0
 10
397.682460235876
 20
295.9052733501127
 30
0.0
 10
397.7334981191593
 20
295.9422414064783
 30
0.0
 10
397.7435497387982
 20
295.9498973629187
 30
0.0
 10
397.7633363310695
 20
295.9657419277641
 30
0.0
 10
397.7730863376049
 20
295.9739457352242
 30
0.0
 10
397.8015591580072
 20
295.9991055854516
 30
0.0
 10
397.8196006342391
 20
296.0166784415512
 30
0.0
 10
397.8709816726851
 20
296.0717297060116
 30
0.0
 10
397.9016051994129
 20
296.1115175508635
 30
0.0
 10
397.9351899605215
 20
296.1652442008656
 30
0.0
 10
397.9416756630669
 20
296.1762048319931
 30
0.0
 10
397.9540301566973
 20
296.1982938534731
 30
0.0
 10
397.9716905514737
 20
296.2317626470822
 30
0.0
 10
397.9968418845493
 20
296.2891917772811
 30
0.0
 10
398.0124234386352
 20
296.3368817168786
 30
0.0
 10
398.0223658221753
 20
296.3733201140101
 30
0.0
 10
398.0253887752703
 20
296.3855782795968
 30
0.0
 10
398.0308383532502
 20
296.4103240556746
 30
0.0
 10
398.0332662238052
 20
296.422827881645
 30
0.0
 10
398.0437809695875
 20
296.4853412586777
 30
0.0
 10
398.0471530573439
 20
296.5357597546447
 30
0.0
 10
398.0453232173026
 20
296.5865991710999
 30
0.0
  0
SPLINE
  5
1C6
330
1F
100
AcDbEntity
  8
1
100
AcDbSpline
210
0.0
220
0.0
230
1.0
 70
     8
 71
     3
 72
    14
 73
    10
 74
     0
 42
0.000000001
 43
0.0000000001
 40
0.0
 40
0.0
 40
0.0
 40
0.0
 40
0.25
 40
0.25
 40
0.5
 40
0.5
 40
0.75
 40
0.75
 40
1.0
 40
1.0
 40
1.0
 40
1.0
 10
386.8958419452958
 20
292.0622412271948
 30
0.0
 10
387.1291102914822
 20
292.0324956772423
 30
0.0
 10
387.3596481532087
 20
292.0118497757943
 30
0.0
 10
387.8151041583667
 20
291.9875718574166
 30
0.0
 10
388.0400232570906
 20
291.9839429900361
 30
0.0
 10
388.4838185723694
 20
291.9928280408911
 30
0.0
 10
388.7026976640939
 20
292.0053438728859
 30
0.0
 10
389.1336712737636
 20
292.0458776545246
 30
0.0
 10
389.3457719380701
 20
292.0738964733124
 30
0.0
 10
389.5538859343743
 20
292.1094404907993
 30
0.0
  0
SPLINE
  5
1C7
330
1F
100
AcDbEntity
  8
1
100
AcDbSpline
210
0.0
220
0.0
230
1.0
 70
    24
 71
     3
 72
    22
 73
    18
 74
     0
 42
0.000000001
 43
0.0000000001
 40
0.0
 40
0.0
 40
0.0
 40
0.0
 40
0.1252180018371151
 40
0.1252180018371151
 40
0.2504360036742301
 40
0.2504360036742301
 40
0.3756540055113449
 40
0.3756540055113449
 40
0.50087200734846
 40
0.50087200734846
 40
0.6260900091855748
 40
0.6260900091855748
 40
0.7513080110226897
 40
0.7513080110226897
 40
0.8765260128598045
 40
0.8765260128598045
 40
1.0
 40
1.0
 40
1.0
 40
1.0
 10
386.8958419452958
 20
294.2809685271678
 30
0.0
 10
386.8958419452957
 20
293.923972197128
 30
0.0
 10
386.8958419452957
 20
293.5910015836018
 30
0.0
 10
386.8958419452958
 20
292.9827404372596
 30
0.0
 10
386.8958419452957
 20
292.7074584439472
 30
0.0
 10
386.8958419452958
 20
292.2225520592508
 30
0.0
 10
386.8958419452958
 20
292.0129344755675
 30
0.0
 10
386.8958419452958
 20
291.6654321230997
 30
0.0
 10
386.8958419452958
 20
291.5275522329722
 30
0.0
 10
386.8958419452958
 20
291.3275221542162
 30
0.0
 10
386.8958419452958
 20
291.2653747738512
 30
0.0
 10
386.8958419452957
 20
291.2186124724131
 30
0.0
 10
386.8958419452957
 20
291.2339982078457
 30
0.0
 10
386.8958419452958
 20
291.3418585353974
 30
0.0
 10
386.8958419452958
 20
291.4343316132431
 30
0.0
 10
386.8958419452958
 20
291.6918833691611
 30
0.0
 10
386.8958419452958
 20
291.8559293301869
 30
0.0
 10
386.8958419452958
 20
292.0538349826167
 30
0.0
  0
SPLINE
  5
1C8
330
1F
100
AcDbEntity
  8
1
100
AcDbSpline
210
0.0
220
0.0
230
1.0
 70
     8
 71
     3
 72
    14
 73
    10
 74
     0
 42
0.000000001
 43
0.0000000001
 40
0.0
 40
0.0
 40
0.0
 40
0.0
 40
0.25
 40
0.25
 40
0.5
 40
0.5
 40
0.75
 40
0.75
 40
1.0
 40
1.0
 40
1.0
 40
1.0
 10
383.8012512261165
 20
295.7227286993177
 30
0.0
 10
384.0529408725268
 20
295.5694031408583
 30
0.0
 10
384.3058446920121
 20
295.4248205801352
 30
0.0
 10
384.8145181151919
 20
295.1522375568701
 30
0.0
 10
385.0702865533078
 20
295.0242388698238
 30
0.0
 10
385.5852300284229
 20
294.784339232909
 30
0.0
 10
385.8444037744281
 20
294.6724385440651
 30
0.0
 10
386.3668405525838
 20
294.4646336265314
 30
0.0
 10
386.6301018830421
 20
294.3687282913813
 30
0.0
 10
386.8958419452957
 20
294.2809685271678
 30
0.0
  0
SPLINE
  5
1C9
330
1F
100
AcDbEntity
  8
1
100
AcDbSpline
210
0.0
220
0.0
230
1.0
 70
     8
 71
     3
 72
    10
 73
     6
 74
     0
 42
0.000000001
 43
0.0000000001
 40
0.0
 40
0.0
 40
0.0
 40
0.0
 40
0.5
 40
0.5
 40
1.0
 40
1.0
 40
1.0
 40
1.0
 10
382.8731167926207
 20
293.4037787286473
 30
0.0
 10
382.6384236392755
 20
293.5301103640609
 30
0.0
 10
382.4040755106272
 20
293.6578654487683
 30
0.0
 10
381.9359553006054
 20
293.9157521845399
 30
0.0
 10
381.702183597048
 20
294.0458853943385
 30
0.0
 10
381.4686577394768
 20
294.1770328773151
 30
0.0
  0
SPLINE
  5
1CA
330
1F
100
AcDbEntity
  8
1
100
AcDbSpline
210
0.0
220
0.0
230
1.0
 70
     8
 71
     3
 72
    26
 73
    22
 74
     0
 42
0.000000001
 43
0.0000000001
 40
0.0
 40
0.0
 40
0.0
 40
0.0
 40
0.0904956818392737
 40
0.0904956818392737
 40
0.1473397017243193
 40
0.1473397017243193
 40
0.204183721609365
 40
0.204183721609365
 40
0.3178717613794558
 40
0.3178717613794558
 40
0.4315598011495466
 40
0.4315598011495466
 40
0.5452478409196371
 40
0.5452478409196371
 40
0.6589358806897278
 40
0.6589358806897278
 40
0.7726239204598186
 40
0.7726239204598186
 40
0.8863119602299091
 40
0.8863119602299091
 40
1.0
 40
1.0
 40
1.0
 40
1.0
 10
337.3844839992788
 20
275.7297100962368
 30
0.0
 10
336.4105877391619
 20
275.5642241680783
 30
0.0
 10
335.4366518564475
 20
275.4050551346926
 30
0.0
 10
333.8504344937231
 20
275.1570893318197
 30
0.0
 10
333.238337101754
 20
275.0641427587698
 30
0.0
 10
332.0136625041961
 20
274.8840395519965
 30
0.0
 10
331.401057116875
 20
274.796927753699
 30
0.0
 10
329.5623924088502
 20
274.5443915497669
 30
0.0
 10
328.3355758319054
 20
274.3875733246568
 30
0.0
 10
325.8804958057493
 20
274.0961135421025
 30
0.0
 10
324.6539355668021
 20
273.9616906285085
 30
0.0
 10
322.2027132962667
 20
273.7157978838252
 30
0.0
 10
320.9780515257763
 20
273.6043551164081
 30
0.0
 10
318.529895012241
 20
273.4055759476215
 30
0.0
 10
317.3063954394541
 20
273.3182676434611
 30
0.0
 10
314.8592223991944
 20
273.1688289431818
 30
0.0
 10
313.6355408415749
 20
273.1067197586165
 30
0.0
 10
311.1862551596606
 20
273.0079004182443
 30
0.0
 10
309.9606421385523
 20
272.9711997730422
 30
0.0
 10
307.5056014924805
 20
272.9220926922494
 30
0.0
 10
306.2761662527453
 20
272.9096836257172
 30
0.0
 10
305.0439335625459
 20
272.9081557852467
 30
0.0
  0
SPLINE
  5
1CB
330
1F
100
AcDbEntity
  8
1
100
AcDbSpline
210
0.0
220
0.0
230
1.0
 70
     8
 71
     3
 72
    24
 73
    20
 74
     0
 42
0.000000001
 43
0.0000000001
 40
0.0
 40
0.0
 40
0.0
 40
0.0
 40
0.125
 40
0.125
 40
0.25
 40
0.25
 40
0.375
 40
0.375
 40
0.4375
 40
0.4375
 40
0.5
 40
0.5
 40
0.625
 40
0.625
 40
0.75
 40
0.75
 40
0.875
 40
0.875
 40
1.0
 40
1.0
 40
1.0
 40
1.0
 10
305.043933562546
 20
272.9081557852467
 30
0.0
 10
306.0302088881162
 20
272.9721815970723
 30
0.0
 10
307.0140910159961
 20
273.0480458756121
 30
0.0
 10
308.9787624184803
 20
273.2228134439619
 30
0.0
 10
309.9595554248721
 20
273.3217153408651
 30
0.0
 10
311.9197912816881
 20
273.5410342627549
 30
0.0
 10
312.8992381820402
 20
273.6614480942874
 30
0.0
 10
314.3686470559016
 20
273.8564475967033
 30
0.0
 10
314.8584888014879
 20
273.9238377803672
 30
0.0
 10
315.8384404367525
 20
274.0630401617799
 30
0.0
 10
316.3286074772203
 20
274.1348609416695
 30
0.0
 10
317.7991598913597
 20
274.3562690732808
 30
0.0
 10
318.7797058977995
 20
274.5118196019658
 30
0.0
 10
320.7424121650149
 20
274.835327717813
 30
0.0
 10
321.724577095171
 20
275.0032657349671
 30
0.0
 10
323.6913854168545
 20
275.3480855264631
 30
0.0
 10
324.6760330000665
 20
275.5249369688753
 30
0.0
 10
326.6481299475985
 20
275.8849094612773
 30
0.0
 10
327.6355804675217
 20
276.0679983052718
 30
0.0
 10
328.6242772244615
 20
276.2537732417226
 30
0.0
  0
SPLINE
  5
1CC
330
1F
100
AcDbEntity
  8
1
100
AcDbSpline
210
0.0
220
0.0
230
1.0
 70
     8
 71
     3
 72
    26
 73
    22
 74
     0
 42
0.000000001
 43
0.0000000001
 40
0.0
 40
0.0
 40
0.0
 40
0.0
 40
0.1250000000000157
 40
0.1250000000000157
 40
0.2500000000000315
 40
0.2500000000000315
 40
0.3125000000000394
 40
0.3125000000000394
 40
0.3750000000000472
 40
0.3750000000000472
 40
0.500000000000063
 40
0.500000000000063
 40
0.6250000000000787
 40
0.6250000000000787
 40
0.6875000000000739
 40
0.6875000000000739
 40
0.7500000000000693
 40
0.7500000000000693
 40
0.8750000000000346
 40
0.8750000000000346
 40
1.0
 40
1.0
 40
1.0
 40
1.0
 10
391.0017922779927
 20
295.213002872411
 30
0.0
 10
390.9466023407238
 20
295.1710505234507
 30
0.0
 10
390.8899148031154
 20
295.132260785779
 30
0.0
 10
390.7734608599081
 20
295.0606340609724
 30
0.0
 10
390.7136966062183
 20
295.0277998432344
 30
0.0
 10
390.6216040604198
 20
294.9829795907176
 30
0.0
 10
390.5904248617098
 20
294.9687514410826
 30
0.0
 10
390.5277380024871
 20
294.9420132994119
 30
0.0
 10
390.4961988821013
 20
294.9294831615313
 30
0.0
 10
390.4009397446446
 20
294.8943594428911
 30
0.0
 10
390.3365824404112
 20
294.8742207690277
 30
0.0
 10
390.2057805626606
 20
294.8405176509207
 30
0.0
 10
390.1393345497989
 20
294.8269522559904
 30
0.0
 10
390.0377142963139
 20
294.8118442980964
 30
0.0
 10
390.0035147320324
 20
294.8076848994385
 30
0.0
 10
389.9343967734333
 20
294.801209243011
 30
0.0
 10
389.8998958961014
 20
294.7989344735836
 30
0.0
 10
389.7968359539479
 20
294.7949541207374
 30
0.0
 10
389.7286093864559
 20
294.7960768409258
 30
0.0
 10
389.5929811311246
 20
294.8055814480941
 30
0.0
 10
389.5255749215924
 20
294.8139591359123
 30
0.0
 10
389.4584543662429
 20
294.8259203354748
 30
0.0
  0
SPLINE
  5
1CD
330
1F
100
AcDbEntity
  8
1
100
AcDbSpline
210
0.0
220
0.0
230
1.0
 70
     8
 71
     3
 72
    22
 73
    18
 74
     0
 42
0.000000001
 43
0.0000000001
 40
0.0
 40
0.0
 40
0.0
 40
0.0
 40
0.2499999999999911
 40
0.2499999999999911
 40
0.3749999999999867
 40
0.3749999999999867
 40
0.4374999999999846
 40
0.4374999999999846
 40
0.4999999999999822
 40
0.4999999999999822
 40
0.7499999999999945
 40
0.7499999999999945
 40
0.8124999999999957
 40
0.8124999999999957
 40
0.8749999999999971
 40
0.8749999999999971
 40
1.0
 40
1.0
 40
1.0
 40
1.0
 10
389.4563779448722
 20
294.6252569380285
 30
0.0
 10
388.9697909911177
 20
294.6081329371988
 30
0.0
 10
388.4855162039361
 20
294.618824945805
 30
0.0
 10
387.7624999220461
 20
294.6756560849877
 30
0.0
 10
387.5220619556587
 20
294.701415998345
 30
0.0
 10
387.1622602375045
 20
294.750316472873
 30
0.0
 10
387.0424689599833
 20
294.7683277764222
 30
0.0
 10
386.8031734350534
 20
294.8077914429061
 30
0.0
 10
386.6836266750097
 20
294.8292521009968
 30
0.0
 10
386.0870653510811
 20
294.9451391632317
 30
0.0
 10
385.6178035524554
 20
295.0643877657531
 30
0.0
 10
385.0411105074206
 20
295.2461132319469
 30
0.0
 10
384.9262677043422
 20
295.2840965270794
 30
0.0
 10
384.6975776007123
 20
295.3633464669993
 30
0.0
 10
384.5836483575364
 20
295.4046459236821
 30
0.0
 10
384.2443524360776
 20
295.5331063544593
 30
0.0
 10
384.0212617085431
 20
295.6248889551453
 30
0.0
 10
383.8012512261164
 20
295.7227286993177
 30
0.0
  0
SPLINE
  5
1CE
330
1F
100
AcDbEntity
  8
1
100
AcDbSpline
210
0.0
220
0.0
230
1.0
 70
     8
 71
     3
 72
     8
 73
     4
 74
     0
 42
0.000000001
 43
0.0000000001
 40
0.0
 40
0.0
 40
0.0
 40
0.0
 40
1.0
 40
1.0
 40
1.0
 40
1.0
 10
389.4563779448722
 20
294.6252569380285
 30
0.0
 10
389.4601828302197
 20
294.6253908398098
 30
0.0
 10
389.463988827192
 20
294.6255241647712
 30
0.0
 10
389.4677959377183
 20
294.6256569119118
 30
0.0
  0
SPLINE
  5
1CF
330
1F
100
AcDbEntity
  8
1
100
AcDbSpline
210
0.0
220
0.0
230
1.0
 70
     8
 71
     3
 72
    27
 73
    23
 74
     0
 42
0.000000001
 43
0.0000000001
 40
0.0
 40
0.0
 40
0.0
 40
0.0
 40
0.124999999999989
 40
0.124999999999989
 40
0.2499999999999782
 40
0.2499999999999782
 40
0.2812499999999755
 40
0.2812499999999755
 40
0.3124999999999728
 40
0.3749999999999727
 40
0.3749999999999727
 40
0.4999999999999727
 40
0.4999999999999727
 40
0.5312499999999769
 40
0.5312499999999769
 40
0.5624999999999813
 40
0.6249999999999839
 40
0.6249999999999839
 40
0.7499999999999892
 40
0.8749999999999944
 40
0.8749999999999944
 40
1.0
 40
1.0
 40
1.0
 40
1.0
 10
382.8775743153923
 20
293.2734953922433
 30
0.0
 10
383.1242221361457
 20
293.1165321284154
 30
0.0
 10
383.376519839472
 20
292.9689093931145
 30
0.0
 10
383.8923259698317
 20
292.6926240226185
 30
0.0
 10
384.155833769869
 20
292.5639598593077
 30
0.0
 10
384.4922660056441
 20
292.4152864053068
 30
0.0
 10
384.5599303063756
 20
292.3861503477915
 30
0.0
 10
384.6956747128253
 20
292.3292250802297
 30
0.0
 10
384.9000087023772
 20
292.2458146999878
 30
0.0
 10
385.1064841960509
 20
292.1683271207467
 30
0.0
 10
385.5222734137796
 20
292.0212495244425
 30
0.0
 10
385.8032463284967
 20
291.9337175901861
 30
0.0
 10
386.1591922667662
 20
291.8376025636105
 30
0.0
 10
386.2306436259506
 20
291.8190390558963
 30
0.0
 10
386.3739120276516
 20
291.7832779031212
 30
0.0
 10
386.5890428240356
 20
291.7317636816645
 30
0.0
 10
386.8048517733349
 20
291.6865828550965
 30
0.0
 10
387.2373610405081
 20
291.604570245409
 30
0.0
 10
387.8164141892062
 20
291.5174605096427
 30
0.0
 10
388.4001496462941
 20
291.4744012669619
 30
0.0
 10
388.9862395704068
 20
291.4535395433824
 30
0.0
 10
389.2804616227614
 20
291.4542061512965
 30
0.0
 10
389.5758917149068
 20
291.4662611611861
 30
0.0
  0
SPLINE
  5
1D0
330
1F
100
AcDbEntity
  8
1
100
AcDbSpline
210
0.0
220
0.0
230
1.0
 70
     8
 71
     3
 72
    17
 73
    13
 74
     0
 42
0.000000001
 43
0.0000000001
 40
0.0
 40
0.0
 40
0.0
 40
0.0
 40
0.2500000000000002
 40
0.2500000000000002
 40
0.5000000000000005
 40
0.5000000000000005
 40
0.7500000000000007
 40
0.7500000000000007
 40
0.8125000000000005
 40
0.8125000000000005
 40
0.8750000000000005
 40
1.0
 40
1.0
 40
1.0
 40
1.0
 10
386.8958419452957
 20
292.0622412271948
 30
0.0
 10
386.5389583331283
 20
292.1195986168921
 30
0.0
 10
386.1879322411347
 20
292.1901376940324
 30
0.0
 10
385.4965539926209
 20
292.3579920484447
 30
0.0
 10
385.1562058213108
 20
292.4553059641286
 30
0.0
 10
384.4855791538632
 20
292.6776450204534
 30
0.0
 10
384.1553026969444
 20
292.8026660306652
 30
0.0
 10
383.7485831241421
 20
292.9772217688412
 30
0.0
 10
383.6675011017148
 20
293.0130693376371
 30
0.0
 10
383.5061772798359
 20
293.086522657311
 30
0.0
 10
383.2655624784436
 20
293.1992862444557
 30
0.0
 10
383.0290218000869
 20
293.3198575137264
 30
0.0
 10
382.8731167926207
 20
293.4037787286474
 30
0.0
  0
SPLINE
  5
1D1
330
1F
100
AcDbEntity
  8
1
100
AcDbSpline
210
0.0
220
0.0
230
1.0
 70
     9
 71
     3
 72
   131
 73
   127
 74
     0
 42
0.000000001
 43
0.0000000001
 40
0.0
 40
0.0
 40
0.0
 40
0.0
 40
0.0312500000000109
 40
0.0312500000000109
 40
0.0468750000000162
 40
0.0468750000000162
 40
0.0625000000000216
 40
0.0625000000000216
 40
0.0937500000000321
 40
0.0937500000000321
 40
0.1093750000000374
 40
0.1093750000000374
 40
0.1250000000000427
 40
0.1250000000000427
 40
0.1562500000000501
 40
0.1562500000000501
 40
0.1640625000000491
 40
0.1640625000000491
 40
0.171875000000048
 40
0.171875000000048
 40
0.1875000000000499
 40
0.2031250000000517
 40
0.2031250000000517
 40
0.2109375000000526
 40
0.2109375000000526
 40
0.2187500000000535
 40
0.2187500000000535
 40
0.2500000000000572
 40
0.2500000000000572
 40
0.2656250000000591
 40
0.2656250000000591
 40
0.2734375000000601
 40
0.2734375000000601
 40
0.281250000000061
 40
0.281250000000061
 40
0.3125000000000648
 40
0.3125000000000648
 40
0.3203125000000658
 40
0.3203125000000658
 40
0.3281250000000667
 40
0.3281250000000667
 40
0.3437500000000647
 40
0.3593750000000628
 40
0.3593750000000628
 40
0.3671875000000617
 40
0.3671875000000617
 40
0.3750000000000606
 40
0.3750000000000606
 40
0.4062500000000595
 40
0.4062500000000595
 40
0.4218750000000589
 40
0.4218750000000589
 40
0.4296875000000595
 40
0.4296875000000595
 40
0.4375000000000599
 40
0.4375000000000599
 40
0.4687500000000615
 40
0.4687500000000615
 40
0.476562500000062
 40
0.476562500000062
 40
0.4843750000000626
 40
0.4843750000000626
 40
0.5000000000000636
 40
0.5000000000000636
 40
0.5312500000000658
 40
0.5312500000000658
 40
0.5390625000000667
 40
0.5390625000000667
 40
0.5468750000000675
 40
0.5468750000000675
 40
0.562500000000069
 40
0.5781250000000706
 40
0.5781250000000706
 40
0.5859375000000724
 40
0.5859375000000724
 40
0.5937500000000743
 40
0.5937500000000743
 40
0.6250000000000818
 40
0.6250000000000818
 40
0.6406250000000857
 40
0.6406250000000857
 40
0.6484375000000858
 40
0.6484375000000858
 40
0.656250000000086
 40
0.656250000000086
 40
0.6875000000000786
 40
0.6875000000000786
 40
0.6953125000000778
 40
0.6953125000000778
 40
0.703125000000077
 40
0.703125000000077
 40
0.7187500000000798
 40
0.7187500000000798
 40
0.7500000000000853
 40
0.7500000000000853
 40
0.7578125000000857
 40
0.7578125000000857
 40
0.7656250000000858
 40
0.7656250000000858
 40
0.7812500000000864
 40
0.796875000000087
 40
0.796875000000087
 40
0.8046875000000872
 40
0.8046875000000872
 40
0.8125000000000873
 40
0.8125000000000873
 40
0.8437500000000806
 40
0.8437500000000806
 40
0.8515625000000779
 40
0.8515625000000779
 40
0.8593750000000754
 40
0.8593750000000754
 40
0.8750000000000671
 40
0.8750000000000671
 40
0.9062500000000531
 40
0.9062500000000531
 40
0.9218750000000447
 40
0.9218750000000447
 40
0.9375000000000365
 40
0.9531250000000284
 40
0.9531250000000284
 40
0.9609375000000236
 40
0.9609375000000236
 40
0.9687500000000188
 40
0.9687500000000188
 40
1.0
 40
1.0
 40
1.0
 40
1.0
 10
390.9691615337858
 20
285.174186265565
 30
0.0
 10
390.9708111028402
 20
285.2686900133981
 30
0.0
 10
390.9815917956155
 20
285.3617419740334
 30
0.0
 10
391.0111095782292
 20
285.4991759280439
 30
0.0
 10
391.0231888279825
 20
285.5446271410431
 30
0.0
 10
391.0519587735097
 20
285.6347807613347
 30
0.0
 10
391.0687468829378
 20
285.6796602899192
 30
0.0
 10
391.1251218961049
 20
285.8103452422587
 30
0.0
 10
391.1708379779942
 20
285.8930268942412
 30
0.0
 10
391.2516080188785
 20
286.0103256164126
 30
0.0
 10
391.2805798884619
 20
286.0482996447844
 30
0.0
 10
391.3427848937
 20
286.1218701103591
 30
0.0
 10
391.3754832276485
 20
286.1568341726752
 30
0.0
 10
391.4782167583771
 20
286.2564165637841
 30
0.0
 10
391.5528464387227
 20
286.3157755986072
 30
0.0
 10
391.6539924968536
 20
286.380924616297
 30
0.0
 10
391.6746567064384
 20
286.3935198031783
 30
0.0
 10
391.7166252046359
 20
286.4176746486143
 30
0.0
 10
391.737831048017
 20
286.4291803934829
 30
0.0
 10
391.802100206508
 20
286.4620149623036
 30
0.0
 10
391.8895268579721
 20
286.5013154770985
 30
0.0
 10
391.9803627165683
 20
286.5317976383487
 30
0.0
 10
392.0497838259032
 20
286.5513070928892
 30
0.0
 10
392.0731402921778
 20
286.5572505415429
 30
0.0
 10
392.1202930292758
 20
286.5679977112091
 30
0.0
 10
392.144158283333
 20
286.5728121269533
 30
0.0
 10
392.2635003954331
 20
286.5937798969732
 30
0.0
 10
392.3592239223066
 20
286.6008269501778
 30
0.0
 10
392.5031729543379
 20
286.5972271735854
 30
0.0
 10
392.5512170458568
 20
286.5936479511914
 30
0.0
 10
392.6233776424317
 20
286.5846007226678
 30
0.0
 10
392.6474516324627
 20
286.5809653317015
 30
0.0
 10
392.6950812619962
 20
286.5725485106145
 30
0.0
 10
392.7187066392737
 20
286.5677595850406
 30
0.0
 10
392.8359022957991
 20
286.5409624867507
 30
0.0
 10
392.9267063705065
 20
286.5104800211278
 30
0.0
 10
393.0364941664425
 20
286.4610188727687
 30
0.0
 10
393.0582641374066
 20
286.4505535311735
 30
0.0
 10
393.1014210862737
 20
286.4284537371509
 30
0.0
 10
393.1226553888192
 20
286.4168964380019
 30
0.0
 10
393.1852032771164
 20
286.3808130551205
 30
0.0
 10
393.2656551471341
 20
286.3288804341083
 30
0.0
 10
393.340351440773
 20
286.2694993147869
 30
0.0
 10
393.3942031365242
 20
286.2221623283167
 30
0.0
 10
393.4117913048005
 20
286.205915648482
 30
0.0
 10
393.4462328537577
 20
286.1724753777741
 30
0.0
 10
393.4631290182003
 20
286.1552350258801
 30
0.0
 10
393.5451797469036
 20
286.0672221962384
 30
0.0
 10
393.6027226491433
 20
285.9915768676647
 30
0.0
 10
393.6774193687039
 20
285.8706667658819
 30
0.0
 10
393.7003678054786
 20
285.8291137640458
 30
0.0
 10
393.7318052073601
 20
285.7648794849258
 30
0.0
 10
393.7418029691721
 20
285.743104163603
 30
0.0
 10
393.7605951340927
 20
285.6993618750991
 30
0.0
 10
393.7694136154782
 20
285.6773511577105
 30
0.0
 10
393.8106781818774
 20
285.5666172781614
 30
0.0
 10
393.8347183175119
 20
285.4758732022568
 30
0.0
 10
393.8537082505254
 20
285.35981917384
 30
0.0
 10
393.8569484120352
 20
285.3364759358537
 30
0.0
 10
393.8622973392583
 20
285.2895213911384
 30
0.0
 10
393.8644019884427
 20
285.2659102352937
 30
0.0
 10
393.8689583979985
 20
285.1954220604207
 30
0.0
 10
393.8696893932292
 20
285.148639510935
 30
0.0
 10
393.8651750331447
 20
285.0089029891165
 30
0.0
 10
393.8532848467083
 20
284.9165559187935
 30
0.0
 10
393.8270685075291
 20
284.8021423859125
 30
0.0
 10
393.8212497219081
 20
284.7793164795121
 30
0.0
 10
393.8085890447727
 20
284.7342413117699
 30
0.0
 10
393.8017342273927
 20
284.711931580755
 30
0.0
 10
393.7796212973217
 20
284.6456734583641
 30
0.0
 10
393.7460147973378
 20
284.559115948226
 30
0.0
 10
393.7042462791274
 20
284.4760743476373
 30
0.0
 10
393.6698005674875
 20
284.4151268170112
 30
0.0
 10
393.6577978427649
 20
284.3950336328864
 30
0.0
 10
393.6327290226738
 20
284.3552999778271
 30
0.0
 10
393.6196351500507
 20
284.3356242285971
 30
0.0
 10
393.552153506593
 20
284.2393914004727
 30
0.0
 10
393.4913831947857
 20
284.1685042399976
 30
0.0
 10
393.3901185057766
 20
284.0711483163983
 30
0.0
 10
393.3546667156596
 20
284.04020284147
 30
0.0
 10
393.2988364877717
 20
283.9961246214185
 30
0.0
 10
393.2797264365788
 20
283.9817831044502
 30
0.0
 10
393.2409093485804
 20
283.9541269820038
 30
0.0
 10
393.2212187060118
 20
283.9408188144063
 30
0.0
 10
393.1213725845063
 20
283.8768387835318
 30
0.0
 10
393.0370790692596
 20
283.8337735141699
 30
0.0
 10
392.9260606930857
 20
283.7902419478512
 30
0.0
 10
392.903571872101
 20
283.7820554193086
 30
0.0
 10
392.8580098694549
 20
283.766745757576
 30
0.0
 10
392.8348678727305
 20
283.7596039804246
 30
0.0
 10
392.7650757473467
 20
283.7399705178982
 30
0.0
 10
392.7182222221415
 20
283.7292940596802
 30
0.0
 10
392.5767093945043
 20
283.7043087553218
 30
0.0
 10
392.4811070413587
 20
283.6969738340761
 30
0.0
 10
392.3599693575163
 20
283.6998772767605
 30
0.0
 10
392.3356205184059
 20
283.7010737342198
 30
0.0
 10
392.2873373713736
 20
283.7046619407839
 30
0.0
 10
392.263334997055
 20
283.7070532018615
 30
0.0
 10
392.1917371969859
 20
283.715983808105
 30
0.0
 10
392.0973630042092
 20
283.7325674447913
 30
0.0
 10
392.0051290240215
 20
283.7583520158148
 30
0.0
 10
391.9367648717553
 20
283.7811874329931
 30
0.0
 10
391.914071202047
 20
283.7893993737163
 30
0.0
 10
391.8691440452849
 20
283.8069394528451
 30
0.0
 10
391.8470106956715
 20
283.8162258999962
 30
0.0
 10
391.7379505444423
 20
283.8651754308429
 30
0.0
 10
391.6557965042698
 20
283.9123155230217
 30
0.0
 10
391.5592581889956
 20
283.9809730305889
 30
0.0
 10
391.5402611246347
 20
283.9951957573051
 30
0.0
 10
391.5028944241825
 20
284.0246360916562
 30
0.0
 10
391.4845303087635
 20
284.0398545417826
 30
0.0
 10
391.4309528529911
 20
284.0865133883148
 30
0.0
 10
391.3970479288478
 20
284.1191093769749
 30
0.0
 10
391.3005747746834
 20
284.2212330529169
 30
0.0
 10
391.2431978752627
 20
284.2950548752008
 30
0.0
 10
391.1676975874104
 20
284.4146371691403
 30
0.0
 10
391.1446607987541
 20
284.4554253763752
 30
0.0
 10
391.1027874883248
 20
284.5386263337402
 30
0.0
 10
391.0650790607813
 20
284.6235102859466
 30
0.0
 10
391.0356120218403
 20
284.7117482201019
 30
0.0
 10
391.0166592964957
 20
284.7792148202174
 30
0.0
 10
391.0108672493434
 20
284.8019187416753
 30
0.0
 10
391.0003556341008
 20
284.8477664109134
 30
0.0
 10
390.9956599460701
 20
284.8708119848429
 30
0.0
 10
390.9750388234712
 20
284.9862509846002
 30
0.0
 10
390.9675119647314
 20
285.0796825177318
 30
0.0
 10
390.9691615337858
 20
285.174186265565
 30
0.0
  0
SPLINE
  5
1D2
330
1F
100
AcDbEntity
  8
1
100
AcDbSpline
210
0.0
220
0.0
230
1.0
 70
     8
 71
     3
 72
    10
 73
     6
 74
     0
 42
0.000000001
 43
0.0000000001
 40
0.0
 40
0.0
 40
0.0
 40
0.0
 40
0.5
 40
0.5
 40
1.0
 40
1.0
 40
1.0
 40
1.0
 10
382.9930595793329
 20
296.1543758841712
 30
0.0
 10
382.9468315656908
 20
296.181186540128
 30
0.0
 10
382.9019283665835
 20
296.2098036258865
 30
0.0
 10
382.8149229867102
 20
296.2709123163876
 30
0.0
 10
382.772817042269
 20
296.3033986826068
 30
0.0
 10
382.7322901254886
 20
296.3380944528953
 30
0.0
  0
SPLINE
  5
1D3
330
1F
100
AcDbEntity
  8
1
100
AcDbSpline
210
0.0
220
0.0
230
1.0
 70
     8
 71
     3
 72
    16
 73
    12
 74
     0
 42
0.000000001
 43
0.0000000001
 40
0.0
 40
0.0
 40
0.0
 40
0.0
 40
0.2500000000000042
 40
0.2500000000000042
 40
0.3750000000000036
 40
0.3750000000000036
 40
0.4375000000000033
 40
0.4375000000000033
 40
0.5000000000000031
 40
0.7500000000000015
 40
1.0
 40
1.0
 40
1.0
 40
1.0
 10
296.0455023577094
 20
273.0053119481722
 30
0.0
 10
296.1926999008895
 20
272.9989229917821
 30
0.0
 10
296.3425903993945
 20
272.9935573344694
 30
0.0
 10
296.5716762031535
 20
272.9868109570543
 30
0.0
 10
296.6487473470154
 20
272.9847799617892
 30
0.0
 10
296.765452975733
 20
272.9820385098615
 30
0.0
 10
296.804551039475
 20
272.9811754863566
 30
0.0
 10
296.8826959132154
 20
272.979556417308
 30
0.0
 10
297.0781883233863
 20
272.9757713239191
 30
0.0
 10
297.4312380839706
 20
272.9711842977731
 30
0.0
 10
297.7466988772861
 20
272.9698614200541
 30
0.0
 10
297.9048419452956
 20
272.9698614200541
 30
0.0
  0
SPLINE
  5
1D4
330
1F
100
AcDbEntity
  8
1
100
AcDbSpline
210
0.0
220
0.0
230
1.0
 70
     8
 71
     3
 72
    10
 73
     6
 74
     0
 42
0.000000001
 43
0.0000000001
 40
0.0
 40
0.0
 40
0.0
 40
0.0
 40
0.5
 40
0.5
 40
1.0
 40
1.0
 40
1.0
 40
1.0
 10
305.043933562546
 20
272.9081557852468
 30
0.0
 10
303.8575668115037
 20
272.9069816795557
 30
0.0
 10
302.6696000807771
 20
272.9122166657009
 30
0.0
 10
300.2900459992046
 20
272.9334902547644
 30
0.0
 10
299.0984612939087
 20
272.949530161337
 30
0.0
 10
297.9048419452957
 20
272.9698614200541
 30
0.0
  0
SPLINE
  5
1D5
330
1F
100
AcDbEntity
  8
1
100
AcDbSpline
210
0.0
220
0.0
230
1.0
 70
     8
 71
     3
 72
    18
 73
    14
 74
     0
 42
0.000000001
 43
0.0000000001
 40
0.0
 40
0.0
 40
0.0
 40
0.0
 40
0.2500000000000308
 40
0.2500000000000308
 40
0.5000000000000617
 40
0.5000000000000617
 40
0.7500000000000924
 40
0.7500000000000924
 40
0.8125000000000794
 40
0.8125000000000794
 40
0.8750000000000662
 40
0.8750000000000662
 40
1.0
 40
1.0
 40
1.0
 40
1.0
 10
389.4584543662432
 20
294.8259203354748
 30
0.0
 10
389.3866719026081
 20
294.8387123090833
 30
0.0
 10
389.3164295122593
 20
294.8553438374283
 30
0.0
 10
389.1784024088872
 20
294.8958950192962
 30
0.0
 10
389.1106217207708
 20
294.9198169299968
 30
0.0
 10
388.9771164664539
 20
294.9750100308343
 30
0.0
 10
388.9113961278504
 20
295.0062783702536
 30
0.0
 10
388.8303365492046
 20
295.05027249927
 30
0.0
 10
388.8141641792712
 20
295.0593276665583
 30
0.0
 10
388.7821460779168
 20
295.0778126605178
 30
0.0
 10
388.7662747984762
 20
295.0872558028587
 30
0.0
 10
388.7190706874006
 20
295.1161803144767
 30
0.0
 10
388.6881473352333
 20
295.1362564779455
 30
0.0
 10
388.6577636998077
 20
295.1571115827452
 30
0.0
  0
SPLINE
  5
1D6
330
1F
100
AcDbEntity
  8
1
100
AcDbSpline
210
0.0
220
0.0
230
1.0
 70
    12
 71
     2
 72
     6
 73
     3
 74
     0
 42
0.000000001
 43
0.0000000001
 40
0.0
 40
0.0
 40
0.0
 40
1.0
 40
1.0
 40
1.0
 10
388.0238744585055
 20
304.8329305241253
 30
0.0
 41
0.5000025452721935
 10
388.1360580946676
 20
304.8327410410642
 30
0.0
 41
0.4999974547278065
 10
388.2482406644651
 20
304.8325510808168
 30
0.0
 41
0.5000025452721935
  0
SPLINE
  5
1D7
330
1F
100
AcDbEntity
  8
1
100
AcDbSpline
210
0.0
220
0.0
230
1.0
 70
     8
 71
     3
 72
     8
 73
     4
 74
     0
 42
0.000000001
 43
0.0000000001
 40
0.0
 40
0.0
 40
0.0
 40
0.0
 40
1.0
 40
1.0
 40
1.0
 40
1.0
 10
383.8979725312806
 20
299.5569578519639
 30
0.0
 10
383.9088041200411
 20
301.3076809254642
 30
0.0
 10
383.9167559262912
 20
303.0584229927399
 30
0.0
 10
383.9233762267733
 20
304.8091710785442
 30
0.0
  0
SPLINE
  5
1D8
330
1F
100
AcDbEntity
  8
1
100
AcDbSpline
210
0.0
220
0.0
230
1.0
 70
    28
 71
     4
 72
    13
 73
     8
 74
     0
 42
0.000000001
 43
0.0000000001
 40
0.0
 40
0.0
 40
0.0
 40
0.0
 40
0.0
 40
0.3195893740042861
 40
0.3195893740042861
 40
0.3195893740042861
 40
1.0
 40
1.0
 40
1.0
 40
1.0
 40
1.0
 10
297.9048419452959
 20
283.444090420022
 30
0.0
 41
0.9970833396756187
 10
297.9048419452957
 20
282.5886079308153
 30
0.0
 41
0.9974632904819296
 10
297.9048419452957
 20
281.6646649079927
 30
0.0
 41
0.9990396959731027
 10
297.9048419452957
 20
280.7201807645249
 30
0.0
 41
1.001498006703475
 10
297.9048419452957
 20
277.8862578625163
 30
0.0
 41
1.001498006703475
 10
297.9048419452957
 20
275.7357600800213
 30
0.0
 41
0.9903552078852399
 10
297.9048419452957
 20
274.0328080521834
 30
0.0
 41
1.00030335904211
 10
297.9048419452957
 20
272.9698614200543
 30
0.0
 41
1.001412619237358
  0
SPLINE
  5
1D9
330
1F
100
AcDbEntity
  8
1
100
AcDbSpline
210
0.0
220
0.0
230
1.0
 70
     8
 71
     3
 72
     8
 73
     4
 74
     0
 42
0.000000001
 43
0.0000000001
 40
0.0
 40
0.0
 40
0.0
 40
0.0
 40
1.0
 40
1.0
 40
1.0
 40
1.0
 10
383.8012512261164
 20
295.7227286993177
 30
0.0
 10
383.5284780570892
 20
295.8563184628026
 30
0.0
 10
383.2591637101634
 20
296.0000446521264
 30
0.0
 10
382.993059579333
 20
296.1543758841715
 30
0.0
  0
SPLINE
  5
1DA
330
1F
100
AcDbEntity
  8
1
100
AcDbSpline
210
0.0
220
0.0
230
1.0
 70
     8
 71
     3
 72
    28
 73
    24
 74
     0
 42
0.000000001
 43
0.0000000001
 40
0.0
 40
0.0
 40
0.0
 40
0.0
 40
0.1250000000000032
 40
0.1250000000000032
 40
0.2500000000000064
 40
0.2500000000000064
 40
0.3125000000000033
 40
0.3125000000000033
 40
0.3750000000000001
 40
0.3750000000000001
 40
0.4999999999999952
 40
0.4999999999999952
 40
0.6249999999999904
 40
0.6249999999999904
 40
0.6562499999999933
 40
0.6562499999999933
 40
0.6874999999999961
 40
0.6874999999999961
 40
0.7499999999999952
 40
0.7499999999999952
 40
0.8749999999999976
 40
0.8749999999999976
 40
1.0
 40
1.0
 40
1.0
 40
1.0
 10
382.4595096072617
 20
297.0673527474759
 30
0.0
 10
382.5543975907164
 20
297.1456228338056
 30
0.0
 10
382.6468747457832
 20
297.2266130797983
 30
0.0
 10
382.826331121756
 20
297.3947969410522
 30
0.0
 10
382.9133137477449
 20
297.4819867143277
 30
0.0
 10
383.0389829504351
 20
297.6181926020315
 30
0.0
 10
383.0800697490096
 20
297.6645005242243
 30
0.0
 10
383.160490382248
 20
297.7590942537822
 30
0.0
 10
383.199903826843
 20
297.8074874148894
 30
0.0
 10
383.3143621738563
 20
297.9547569645057
 30
0.0
 10
383.3858087551802
 20
298.0558783417485
 30
0.0
 10
383.5176372659095
 20
298.2648197480354
 30
0.0
 10
383.5780274564972
 20
298.3726347756761
 30
0.0
 10
383.6454273759636
 20
298.5123000072331
 30
0.0
 10
383.6585012541608
 20
298.5404789140264
 30
0.0
 10
383.6837995813149
 20
298.5973509806371
 30
0.0
 10
383.6960413327476
 20
298.6260871568275
 30
0.0
 10
383.7313066316536
 20
298.7127958149173
 30
0.0
 10
383.7527842027237
 20
298.7710379602244
 30
0.0
 10
383.810913119596
 20
298.9471177218917
 30
0.0
 10
383.8412767171221
 20
299.0663052187326
 30
0.0
 10
383.8837860843554
 20
299.3085912929933
 30
0.0
 10
383.8959380853562
 20
299.4316885326494
 30
0.0
 10
383.8979725312806
 20
299.5569578519639
 30
0.0
  0
SPLINE
  5
1DB
330
1F
100
AcDbEntity
  8
1
100
AcDbSpline
210
0.0
220
0.0
230
1.0
 70
    12
 71
     3
 72
     9
 73
     5
 74
     0
 42
0.000000001
 43
0.0000000001
 40
0.0
 40
0.0
 40
0.0
 40
0.0
 40
0.2432596543407832
 40
1.0
 40
1.0
 40
1.0
 40
1.0
 10
358.961840717899
 20
299.314219726009
 30
0.0
 41
1.00157373684125
 10
360.9855719832186
 20
299.2597925317476
 30
0.0
 41
1.001741530046279
 10
369.3030250359202
 20
298.9679663029739
 30
0.0
 41
1.002319976668712
 10
377.719777770155
 20
298.6942362386999
 30
0.0
 41
1.000632763981444
 10
383.8979725312892
 20
299.5569578519651
 30
0.0
 41
1.001111350751087
  0
SPLINE
  5
1DC
330
1F
100
AcDbEntity
  8
1
100
AcDbSpline
210
0.0
220
0.0
230
1.0
 70
     8
 71
     3
 72
    20
 73
    16
 74
     0
 42
0.000000001
 43
0.0000000001
 40
0.0
 40
0.0
 40
0.0
 40
0.0
 40
0.1250000000000005
 40
0.2500000000000009
 40
0.3750000000000014
 40
0.3750000000000014
 40
0.4375000000000023
 40
0.4687500000000026
 40
0.4687500000000026
 40
0.5000000000000031
 40
0.5000000000000031
 40
0.6250000000000023
 40
0.7500000000000015
 40
0.8750000000000007
 40
1.0
 40
1.0
 40
1.0
 40
1.0
 10
287.1472492702812
 20
284.290810715984
 30
0.0
 10
287.4149089585418
 20
284.3270777897779
 30
0.0
 10
287.958552559476
 20
284.3879837940017
 30
0.0
 10
288.7985612003824
 20
284.4450582479977
 30
0.0
 10
289.3748369706492
 20
284.4603802404933
 30
0.0
 10
289.813180631903
 20
284.4632991668009
 30
0.0
 10
290.0338877624264
 20
284.4626139632064
 30
0.0
 10
290.2569146275343
 20
284.4586883128176
 30
0.0
 10
290.4061172912749
 20
284.4553474946918
 30
0.0
 10
290.4810272437769
 20
284.4533136375582
 30
0.0
 10
290.856301184211
 20
284.4413442986514
 30
0.0
 10
291.4586874636472
 20
284.4107880609984
 30
0.0
 10
292.3679165377886
 20
284.3318752550577
 30
0.0
 10
293.2826756225195
 20
284.2205845116628
 30
0.0
 10
293.8961685273375
 20
284.1249995338093
 30
0.0
 10
294.2038318185191
 20
284.071838999387
 30
0.0
  0
SPLINE
  5
1DD
330
1F
100
AcDbEntity
  8
1
100
AcDbSpline
210
0.0
220
0.0
230
1.0
 70
     8
 71
     3
 72
    23
 73
    19
 74
     0
 42
0.000000001
 43
0.0000000001
 40
0.0
 40
0.0
 40
0.0
 40
0.0
 40
0.125
 40
0.125
 40
0.2500000000000001
 40
0.2500000000000001
 40
0.3750000000000001
 40
0.3750000000000001
 40
0.4375000000000003
 40
0.4375000000000003
 40
0.5000000000000005
 40
0.5000000000000005
 40
0.6250000000000004
 40
0.6250000000000004
 40
0.7500000000000004
 40
0.8750000000000001
 40
0.8750000000000001
 40
1.0
 40
1.0
 40
1.0
 40
1.0
 10
279.4048419452957
 20
269.7595310723851
 30
0.0
 10
279.5743514031065
 20
269.7153869168623
 30
0.0
 10
279.7504409316509
 20
269.6896927602806
 30
0.0
 10
280.1142005664699
 20
269.6693454337715
 30
0.0
 10
280.3018810190336
 20
269.6747235644195
 30
0.0
 10
280.6875766312754
 20
269.7121696271744
 30
0.0
 10
280.8855987022495
 20
269.74425582268
 30
0.0
 10
281.1894881265091
 20
269.8096603290485
 30
0.0
 10
281.2919271325619
 20
269.8343449227263
 30
0.0
 10
281.4989301458636
 20
269.8890495406512
 30
0.0
 10
281.6035833139787
 20
269.919101653878
 30
0.0
 10
281.9189649199316
 20
270.0161364314965
 30
0.0
 10
282.1315620291421
 20
270.0900864939969
 30
0.0
 10
282.5602859628117
 20
270.2527312149364
 30
0.0
 10
282.9925423902679
 20
270.4301308413958
 30
0.0
 10
283.4292316648113
 20
270.6300652835633
 30
0.0
 10
283.8666464306147
 20
270.837997831726
 30
0.0
 10
284.0857135908029
 20
270.9459573561821
 30
0.0
 10
284.3043368819074
 20
271.0564351328764
 30
0.0
  0
SPLINE
  5
1DE
330
1F
100
AcDbEntity
  8
1
100
AcDbSpline
210
0.0
220
0.0
230
1.0
 70
     8
 71
     3
 72
    32
 73
    28
 74
     0
 42
0.000000001
 43
0.0000000001
 40
0.0
 40
0.0
 40
0.0
 40
0.0
 40
0.1249999999999996
 40
0.1249999999999996
 40
0.2499999999999992
 40
0.2499999999999992
 40
0.3124999999999995
 40
0.3124999999999995
 40
0.3437500000000002
 40
0.3437500000000002
 40
0.3750000000000009
 40
0.3750000000000009
 40
0.5000000000000048
 40
0.5000000000000048
 40
0.6250000000000086
 40
0.6250000000000086
 40
0.6875000000000111
 40
0.6875000000000111
 40
0.7031250000000112
 40
0.7031250000000112
 40
0.7187500000000114
 40
0.7187500000000114
 40
0.7500000000000099
 40
0.7500000000000099
 40
0.8750000000000051
 40
0.8750000000000051
 40
1.0
 40
1.0
 40
1.0
 40
1.0
 10
277.4071687949595
 20
274.9114638209495
 30
0.0
 10
277.3535265107179
 20
274.6545445181307
 30
0.0
 10
277.3182100130674
 20
274.4009577165336
 30
0.0
 10
277.282559081832
 20
273.9004595672187
 30
0.0
 10
277.2822305678487
 20
273.6535481114906
 30
0.0
 10
277.3079257169801
 20
273.2882068062797
 30
0.0
 10
277.3208672114803
 20
273.1672641491125
 30
0.0
 10
277.3469459520302
 20
272.9871104948249
 30
0.0
 10
277.3567507233121
 20
272.9272693407949
 30
0.0
 10
277.3786106308607
 20
272.8080078782447
 30
0.0
 10
277.39067706091
 20
272.748556558609
 30
0.0
 10
277.4562388418626
 20
272.4543110051338
 30
0.0
 10
277.5256206056467
 20
272.2269637787865
 30
0.0
 10
277.6971495997411
 20
271.7872847955378
 30
0.0
 10
277.799300149411
 20
271.5749561056443
 30
0.0
 10
277.9773769634775
 20
271.2672274143543
 30
0.0
 10
278.0408887393953
 20
271.1664481657829
 30
0.0
 10
278.1255845023585
 20
271.0426892899726
 30
0.0
 10
278.1427891964136
 20
271.0180483283358
 30
0.0
 10
278.1777335213678
 20
270.9689874740692
 30
0.0
 10
278.1954849251088
 20
270.9445521088735
 30
0.0
 10
278.2494055160915
 20
270.8717666482723
 30
0.0
 10
278.2862690597081
 20
270.8238949853435
 30
0.0
 10
278.4751335468051
 20
270.5877212738181
 30
0.0
 10
278.6407248196267
 20
270.4089445119154
 30
0.0
 10
279.000810138074
 20
270.07026872807
 30
0.0
 10
279.1953013046984
 20
269.9103719408096
 30
0.0
 10
279.4048419452957
 20
269.7595310723851
 30
0.0
  0
SPLINE
  5
1DF
330
1F
100
AcDbEntity
  8
1
100
AcDbSpline
210
0.0
220
0.0
230
1.0
 70
     8
 71
     3
 72
    60
 73
    56
 74
     0
 42
0.000000001
 43
0.0000000001
 40
0.0
 40
0.0
 40
0.0
 40
0.0
 40
0.0624999999999991
 40
0.0624999999999991
 40
0.1249999999999983
 40
0.1249999999999983
 40
0.1874999999999974
 40
0.1874999999999974
 40
0.2031249999999974
 40
0.2031249999999974
 40
0.2187499999999973
 40
0.2187499999999973
 40
0.2499999999999975
 40
0.2499999999999975
 40
0.3124999999999978
 40
0.3124999999999978
 40
0.3749999999999981
 40
0.3749999999999981
 40
0.4062499999999984
 40
0.4062499999999984
 40
0.4218749999999984
 40
0.4218749999999984
 40
0.4374999999999984
 40
0.4374999999999984
 40
0.4687499999999988
 40
0.4687499999999988
 40
0.4999999999999992
 40
0.4999999999999992
 40
0.5312499999999993
 40
0.5312499999999993
 40
0.5624999999999995
 40
0.5624999999999995
 40
0.5937499999999996
 40
0.5937499999999996
 40
0.6249999999999997
 40
0.6249999999999997
 40
0.65625
 40
0.65625
 40
0.6718749999999997
 40
0.6718749999999997
 40
0.6874999999999995
 40
0.6874999999999995
 40
0.7499999999999992
 40
0.7499999999999992
 40
0.8124999999999989
 40
0.8124999999999989
 40
0.8437499999999991
 40
0.8437499999999991
 40
0.8749999999999992
 40
0.8749999999999992
 40
0.9374999999999996
 40
0.9374999999999996
 40
0.9687499999999998
 40
0.9687499999999998
 40
1.0
 40
1.0
 40
1.0
 40
1.0
 10
297.9048419452957
 20
283.4397251378671
 30
0.0
 10
299.5772034702808
 20
283.1146783892178
 30
0.0
 10
301.2477896180343
 20
282.7871747603525
 30
0.0
 10
304.5854118040563
 20
282.1285144700133
 30
0.0
 10
306.2524470707976
 20
281.7973517912914
 30
0.0
 10
309.5829260175939
 20
281.1326533488346
 30
0.0
 10
311.24636749135
 20
280.7991060849309
 30
0.0
 10
313.3233987173518
 20
280.3816641840704
 30
0.0
 10
313.738691544329
 20
280.2981516495661
 30
0.0
 10
314.5690504557434
 20
280.1311089441385
 30
0.0
 10
314.9841436988832
 20
280.0475732868326
 30
0.0
 10
316.2288624833815
 20
279.7970354431769
 30
0.0
 10
317.0578867496467
 20
279.6301081853528
 30
0.0
 10
319.5425639671177
 20
279.1301111700666
 30
0.0
 10
321.1958092301057
 20
278.7977748789942
 30
0.0
 10
324.4959343558881
 20
278.1387378806165
 30
0.0
 10
326.14280497483
 20
277.8120210734504
 30
0.0
 10
328.6087352264158
 20
277.3302621338068
 30
0.0
 10
329.4299875223716
 20
277.1710779801055
 30
0.0
 10
330.6608827481182
 20
276.9350689204568
 30
0.0
 10
331.0710176937601
 20
276.8568614915172
 30
0.0
 10
331.8909830722276
 20
276.7014942527451
 30
0.0
 10
332.3008040188478
 20
276.6243118177322
 30
0.0
 10
333.5299394089207
 20
276.3947485317418
 30
0.0
 10
334.348553887482
 20
276.2445450217656
 30
0.0
 10
335.9853430872614
 20
275.952933010794
 30
0.0
 10
336.8035332486034
 20
275.8115191651183
 30
0.0
 10
338.440608726442
 20
275.5396078149453
 30
0.0
 10
339.2594939152727
 20
275.40910538721
 30
0.0
 10
340.8988895927257
 20
275.1602841830744
 30
0.0
 10
341.719398762305
 20
275.0419588597255
 30
0.0
 10
343.3628177206202
 20
274.8180745222116
 30
0.0
 10
344.1857848636146
 20
274.7125921561725
 30
0.0
 10
345.8339569317312
 20
274.5131948375364
 30
0.0
 10
346.6591483120911
 20
274.4192592200808
 30
0.0
 10
348.3114843148517
 20
274.2418024441745
 30
0.0
 10
349.1386296773455
 20
274.1582847400796
 30
0.0
 10
350.3806878881206
 20
274.0402036344817
 30
0.0
 10
350.7949342252187
 20
274.002044454948
 30
0.0
 10
351.6235100784687
 20
273.9280741190721
 30
0.0
 10
352.0378843704955
 20
273.8922586861174
 30
0.0
 10
354.1101805284646
 20
273.7188318793171
 30
0.0
 10
355.7693600413129
 20
273.5981160205321
 30
0.0
 10
359.0905197405975
 20
273.3887555942758
 30
0.0
 10
360.75250261882
 20
273.3001406141941
 30
0.0
 10
363.2479275573957
 20
273.1889595310593
 30
0.0
 10
364.0801467233007
 20
273.1555266318022
 30
0.0
 10
365.7454991061177
 20
273.0955460628512
 30
0.0
 10
366.5786318141102
 20
273.0689912884681
 30
0.0
 10
369.0791323171305
 20
272.9988669510973
 30
0.0
 10
370.7476162029582
 20
272.9647674748185
 30
0.0
 10
373.2512621949021
 20
272.9306975684429
 30
0.0
 10
374.0859608670851
 20
272.9222042543525
 30
0.0
 10
375.755399084075
 20
272.910852654248
 30
0.0
 10
376.5901387121689
 20
272.9079935137005
 30
0.0
 10
377.4247543877462
 20
272.9079935137005
 30
0.0
  0
SPLINE
  5
1E0
330
1F
100
AcDbEntity
  8
1
100
AcDbSpline
210
0.0
220
0.0
230
1.0
 70
     8
 71
     3
 72
    73
 73
    69
 74
     0
 42
0.000000001
 43
0.0000000001
 40
0.0
 40
0.0
 40
0.0
 40
0.0
 40
0.0260121911538016
 40
0.0260121911538016
 40
0.0595979776657395
 40
0.0595979776657395
 40
0.0931837641776774
 40
0.0931837641776774
 40
0.1267695506896154
 40
0.1267695506896154
 40
0.1603553372015533
 40
0.1603553372015533
 40
0.1939411237134912
 40
0.1939411237134912
 40
0.2275269102254291
 40
0.2275269102254291
 40
0.261112696737367
 40
0.261112696737367
 40
0.294698483249305
 40
0.294698483249305
 40
0.3282842697612429
 40
0.3282842697612429
 40
0.3618700562731808
 40
0.3618700562731808
 40
0.3954558427851187
 40
0.3954558427851187
 40
0.4290416292970566
 40
0.4290416292970566
 40
0.4626274158089944
 40
0.4626274158089944
 40
0.496213202320932
 40
0.496213202320932
 40
0.5297989888328697
 40
0.5297989888328697
 40
0.5633847753448073
 40
0.5633847753448073
 40
0.5969705618567449
 40
0.5969705618567449
 40
0.6305563483686827
 40
0.6305563483686827
 40
0.6641421348806204
 40
0.6641421348806204
 40
0.6977279213925579
 40
0.6977279213925579
 40
0.7313137079044957
 40
0.7313137079044957
 40
0.7648994944164335
 40
0.7648994944164335
 40
0.7816923876724023
 40
0.7816923876724023
 40
0.7984852809283709
 40
0.7984852809283709
 40
0.8320710674403091
 40
0.8320710674403091
 40
0.8656568539522474
 40
0.8656568539522474
 40
0.8992426404641856
 40
0.8992426404641856
 40
0.9160355337201545
 40
0.9160355337201545
 40
0.9328284269761235
 40
0.9328284269761235
 40
0.9496213202320927
 40
0.966414213488062
 40
0.966414213488062
 40
0.9832071067440308
 40
0.9832071067440308
 40
1.0
 40
1.0
 40
1.0
 40
1.0
 10
303.7839121004825
 20
304.9079908947907
 30
0.0
 10
304.4641797327271
 20
304.9080694382001
 30
0.0
 10
305.1438748136084
 20
304.9062517395013
 30
0.0
 10
306.6999383983041
 20
304.89725746374
 30
0.0
 10
307.5759506051101
 20
304.888673272176
 30
0.0
 10
309.3264077424721
 20
304.8636287464551
 30
0.0
 10
310.2008527379815
 20
304.8471668852904
 30
0.0
 10
311.9484363655868
 20
304.8056300193895
 30
0.0
 10
312.8213612267911
 20
304.7805581946789
 30
0.0
 10
314.5655719182642
 20
304.7212530373569
 30
0.0
 10
315.436895308013
 20
304.6870176978623
 30
0.0
 10
317.1783533120384
 20
304.6090180256386
 30
0.0
 10
318.0484884445931
 20
304.5652530305657
 30
0.0
 10
319.7879811743807
 20
304.4680533038317
 30
0.0
 10
320.6573394269321
 20
304.4146185518655
 30
0.0
 10
322.3957072712338
 20
304.298174397955
 30
0.0
 10
323.2647175861298
 20
304.2351656942678
 30
0.0
 10
325.0028150875629
 20
304.0998945695645
 30
0.0
 10
325.8717856677844
 20
304.027642121884
 30
0.0
 10
327.6096321940948
 20
303.8744563454162
 30
0.0
 10
328.4785616847845
 20
303.7935208309864
 30
0.0
 10
330.2168045479812
 20
303.6236317789747
 30
0.0
 10
331.0861183860213
 20
303.5346803090682
 30
0.0
 10
332.8254492674023
 20
303.3495118572221
 30
0.0
 10
333.6954727111665
 20
303.2533294142754
 30
0.0
 10
335.435576274891
 20
303.052775416673
 30
0.0
 10
336.3056559498
 20
302.9483944279993
 30
0.0
 10
338.0455661122627
 20
302.7307346551213
 30
0.0
 10
338.9153315611775
 20
302.6174599087621
 30
0.0
 10
340.654008857074
 20
302.3818847487338
 30
0.0
 10
341.5229917334057
 20
302.2595759901421
 30
0.0
 10
343.2604905098074
 20
302.0062515016609
 30
0.0
 10
344.1289985711613
 20
301.8752114181735
 30
0.0
 10
345.8661041716458
 20
301.6055962497967
 30
0.0
 10
346.7347080122267
 20
301.467039495614
 30
0.0
 10
348.4724212444348
 20
301.1834799401051
 30
0.0
 10
349.3415292425539
 20
301.038477529932
 30
0.0
 10
351.0804772243213
 20
300.7427789064221
 30
0.0
 10
351.9502890899372
 20
300.5920867024798
 30
0.0
 10
353.6901068766647
 20
300.2855668295188
 30
0.0
 10
354.5601901842767
 20
300.1297255686427
 30
0.0
 10
356.3007038455393
 20
299.813030514719
 30
0.0
 10
357.1711336368049
 20
299.6521765202728
 30
0.0
 10
358.9122541950391
 20
299.3253146964557
 30
0.0
 10
359.782944807221
 20
299.1593076552216
 30
0.0
 10
361.5244296422296
 20
298.821702188709
 30
0.0
 10
362.3952242458104
 20
298.6501063509048
 30
0.0
 10
363.7013201561956
 20
298.3879330747646
 30
0.0
 10
364.1366874728202
 20
298.2997386383672
 30
0.0
 10
365.007247318296
 20
298.1216328026818
 30
0.0
 10
365.4424393821466
 20
298.0317362024372
 30
0.0
 10
366.7476181657869
 20
297.7590677723605
 30
0.0
 10
367.6171828492105
 20
297.5732473868277
 30
0.0
 10
369.3545586365904
 20
297.1911617534673
 30
0.0
 10
370.2223645856864
 20
296.9948744396601
 30
0.0
 10
371.9560124607503
 20
296.590701360196
 30
0.0
 10
372.821847612395
 20
296.3827847534225
 30
0.0
 10
374.119436711751
 20
296.0628717879774
 30
0.0
 10
374.5517780212779
 20
295.9549134015801
 30
0.0
 10
375.4162122249452
 20
295.7367439429069
 30
0.0
 10
375.8483134659255
 20
295.626529587295
 30
0.0
 10
376.712297559855
 20
295.4044972297646
 30
0.0
 10
377.5760984721774
 20
295.1808512529837
 30
0.0
 10
378.4400126143552
 20
294.9557017658563
 30
0.0
 10
379.3042884079341
 20
294.7309310598655
 30
0.0
 10
379.7366072164379
 20
294.6187351265075
 30
0.0
 10
380.6019762407013
 20
294.396127435281
 30
0.0
 10
381.0350266924298
 20
294.2857163377443
 30
0.0
 10
381.4686577394774
 20
294.1770328773149
 30
0.0
  0
SPLINE
  5
1E1
330
1F
100
AcDbEntity
  8
1
100
AcDbSpline
210
0.0
220
0.0
230
1.0
 70
     8
 71
     3
 72
    45
 73
    41
 74
     0
 42
0.000000001
 43
0.0000000001
 40
0.0
 40
0.0
 40
0.0
 40
0.0
 40
0.0606630466326406
 40
0.0606630466326406
 40
0.1213260932652812
 40
0.1213260932652812
 40
0.1819891398979218
 40
0.1819891398979218
 40
0.2426521865305624
 40
0.2426521865305624
 40
0.2729837098468831
 40
0.2729837098468831
 40
0.2881494715050431
 40
0.2881494715050431
 40
0.303315233163203
 40
0.303315233163203
 40
0.3639782797958409
 40
0.3639782797958409
 40
0.4246413264284789
 40
0.4246413264284789
 40
0.4853043730611167
 40
0.4853043730611167
 40
0.5459674196937546
 40
0.5459674196937546
 40
0.6066304663263926
 40
0.6066304663263926
 40
0.6672935129590306
 40
0.6672935129590306
 40
0.7279565595916684
 40
0.7279565595916684
 40
0.7886196062243063
 40
0.7886196062243063
 40
0.8492826528569441
 40
0.8492826528569441
 40
0.909945699489582
 40
0.909945699489582
 40
0.9402772228059003
 40
0.9402772228059003
 40
0.9706087461222191
 40
1.0
 40
1.0
 40
1.0
 40
1.0
 10
383.9233762267733
 20
304.8091710785442
 30
0.0
 10
383.0652474677988
 20
304.8462977866366
 30
0.0
 10
382.2023117588425
 20
304.8712529172396
 30
0.0
 10
380.4665591574835
 20
304.9024116344133
 30
0.0
 10
379.5937450961945
 20
304.9086277947631
 30
0.0
 10
377.8385985397156
 20
304.9072583954079
 30
0.0
 10
376.9562685029711
 20
304.8996803866519
 30
0.0
 10
375.1829975979057
 20
304.8746965631459
 30
0.0
 10
374.2920590605424
 20
304.8572945816321
 30
0.0
 10
372.9502292543687
 20
304.8259448192741
 30
0.0
 10
372.5020524733051
 20
304.8146111955958
 30
0.0
 10
371.8285952565968
 20
304.7964653429675
 30
0.0
 10
371.6039110337806
 20
304.790225227179
 30
0.0
 10
371.154174176988
 20
304.7773848569041
 30
0.0
 10
370.9291133564969
 20
304.7707843189854
 30
0.0
 10
369.8034245680175
 20
304.7369407049817
 30
0.0
 10
368.9012573460193
 20
304.707212902263
 30
0.0
 10
367.0950413013852
 20
304.6428474426713
 30
0.0
 10
366.1909940794739
 20
304.6082091914935
 30
0.0
 10
364.3825710851295
 20
304.533190265736
 30
0.0
 10
363.4782556847102
 20
304.4927136014044
 30
0.0
 10
361.6696665999265
 20
304.4056056190283
 30
0.0
 10
360.7653887377618
 20
304.3589781697725
 30
0.0
 10
358.9570801111946
 20
304.2592294498172
 30
0.0
 10
358.0530499188853
 20
304.2061067943339
 30
0.0
 10
356.2454215452315
 20
304.092903060664
 30
0.0
 10
355.3417719744675
 20
304.0328177690478
 30
0.0
 10
353.5353004638988
 20
303.905158727598
 30
0.0
 10
352.6325379037045
 20
303.8375905326931
 30
0.0
 10
350.8281136544791
 20
303.694353064942
 30
0.0
 10
349.9264505776678
 20
303.6186866791107
 30
0.0
 10
348.1243897523338
 20
303.4584918480761
 30
0.0
 10
347.223990135512
 20
303.3739687375642
 30
0.0
 10
345.4246816062289
 20
303.1950388146315
 30
0.0
 10
344.5257705483026
 20
303.1006400883172
 30
0.0
 10
343.1787825596288
 20
302.9505172089908
 30
0.0
 10
342.7300250563808
 20
302.8990343877524
 30
0.0
 10
341.8329830819506
 20
302.7930737617285
 30
0.0
 10
340.9502999877129
 20
302.685829386098
 30
0.0
 10
340.0684217338174
 20
302.5727988273896
 30
0.0
 10
339.634596529362
 20
302.5157750279162
 30
0.0
  0
SPLINE
  5
1E2
330
1F
100
AcDbEntity
  8
1
100
AcDbSpline
210
0.0
220
0.0
230
1.0
 70
     8
 71
     3
 72
     8
 73
     4
 74
     0
 42
0.000000001
 43
0.0000000001
 40
0.0
 40
0.0
 40
0.0
 40
0.0
 40
1.0
 40
1.0
 40
1.0
 40
1.0
 10
284.5989245613996
 20
271.2017008640354
 30
0.0
 10
284.4992711496322
 20
271.1537563446852
 30
0.0
 10
284.401070658508
 20
271.1053179967107
 30
0.0
 10
284.3043368819074
 20
271.0564351328764
 30
0.0
  0
LINE
  5
1FE
330
1F
100
AcDbEntity
  8
SK4
100
AcDbLine
 10
200.904842
 20
288.907994
 30
0.0
 11
277.404842
 21
288.907994
 31
0.0
  0
LINE
  5
1FF
330
1F
100
AcDbEntity
  8
4
100
AcDbLine
 10
271.203832
 20
288.907994
 30
0.0
 11
402.449162
 21
288.907994
 31
0.0
  0
MTEXT
  5
205
330
1F
100
AcDbEntity
  8
SK6
100
AcDbMText
 10
258.520787
 20
241.27662
 30
0.0
 40
3.5
 41
0.0
 71
     7
 72
     5
  1
\W0.7022;803D-33-99-S40
  7
cesky
 73
     2
 44
0.8433729999999998
  0
MTEXT
  5
316
330
1F
100
AcDbEntity
  8
2
100
AcDbMText
 10
333.327842
 20
327.385163
 30
0.0
 40
3.5
 41
0.0
 71
     7
 72
     5
  1
\W0.7656;124
  7
cesky
 73
     2
 44
0.8433729999999998
  0
LINE
  5
317
330
1F
100
AcDbEntity
  8
2
100
AcDbLine
 10
398.404842
 20
305.407994
 30
0.0
 11
398.404842
 21
328.5109970000001
 31
0.0
  0
LINE
  5
318
330
1F
100
AcDbEntity
  8
2
100
AcDbLine
 10
274.404842
 20
289.907567
 30
0.0
 11
274.404842
 21
328.5109970000001
 31
0.0
  0
LINE
  5
319
330
1F
100
AcDbEntity
  8
2
100
AcDbLine
 10
398.404842
 20
327.510997
 30
0.0
 11
274.404842
 21
327.510997
 31
0.0
  0
SOLID
  5
31A
330
1F
100
AcDbEntity
  8
2
100
AcDbTrace
 10
398.404842
 20
327.510997
 30
0.0
 11
394.904844
 21
326.893852
 31
0.0
 12
394.90484
 22
328.128141
 32
0.0
 13
394.90484
 23
328.128141
 33
0.0
  0
SOLID
  5
31B
330
1F
100
AcDbEntity
  8
2
100
AcDbTrace
 10
274.404842
 20
327.510997
 30
0.0
 11
277.90484
 21
328.128141
 31
0.0
 12
277.904844
 22
326.893852
 32
0.0
 13
277.904844
 23
326.893852
 33
0.0
  0
MTEXT
  5
31C
330
1F
100
AcDbEntity
  8
2
100
AcDbMText
 10
298.327842
 20
340.562135
 30
0.0
 40
3.5
 41
0.0
 71
     7
 72
     5
  1
\W0.7656;194
  7
cesky
 73
     2
 44
0.8433729999999998
  0
LINE
  5
31D
330
1F
100
AcDbEntity
  8
2
100
AcDbLine
 10
398.404842
 20
307.407994
 30
0.0
 11
398.404842
 21
341.687968
 31
0.0
  0
LINE
  5
31E
330
1F
100
AcDbEntity
  8
2
100
AcDbLine
 10
204.404842
 20
306.907994
 30
0.0
 11
204.404842
 21
341.687968
 31
0.0
  0
LINE
  5
31F
330
1F
100
AcDbEntity
  8
2
100
AcDbLine
 10
398.404842
 20
340.687968
 30
0.0
 11
204.404842
 21
340.687968
 31
0.0
  0
SOLID
  5
320
330
1F
100
AcDbEntity
  8
2
100
AcDbTrace
 10
398.404842
 20
340.687968
 30
0.0
 11
394.904844
 21
340.070823
 31
0.0
 12
394.90484
 22
341.305112
 32
0.0
 13
394.90484
 23
341.305112
 33
0.0
  0
SOLID
  5
321
330
1F
100
AcDbEntity
  8
2
100
AcDbTrace
 10
204.404842
 20
340.687968
 30
0.0
 11
207.90484
 21
341.305112
 31
0.0
 12
207.904844
 22
340.070823
 32
0.0
 13
207.904844
 23
340.070823
 33
0.0
  0
MTEXT
  5
322
330
1F
100
AcDbEntity
  8
2
100
AcDbMText
 10
237.590342
 20
327.385163
 30
0.0
 40
3.5
 41
0.0
 71
     7
 72
     5
  1
\W0.7045;70
  7
cesky
 73
     2
 44
0.8433729999999998
  0
LINE
  5
323
330
1F
100
AcDbEntity
  8
2
100
AcDbLine
 10
274.404842
 20
288.907994
 30
0.0
 11
274.404842
 21
328.5109970000001
 31
0.0
  0
LINE
  5
324
330
1F
100
AcDbEntity
  8
2
100
AcDbLine
 10
204.404842
 20
306.907994
 30
0.0
 11
204.404842
 21
328.5109970000001
 31
0.0
  0
LINE
  5
325
330
1F
100
AcDbEntity
  8
2
100
AcDbLine
 10
274.404842
 20
327.510997
 30
0.0
 11
204.404842
 21
327.510997
 31
0.0
  0
SOLID
  5
326
330
1F
100
AcDbEntity
  8
2
100
AcDbTrace
 10
274.404842
 20
327.510997
 30
0.0
 11
270.904844
 21
326.893852
 31
0.0
 12
270.90484
 22
328.128141
 32
0.0
 13
270.90484
 23
328.128141
 33
0.0
  0
SOLID
  5
327
330
1F
100
AcDbEntity
  8
2
100
AcDbTrace
 10
204.404842
 20
327.510997
 30
0.0
 11
207.90484
 21
328.128141
 31
0.0
 12
207.904844
 22
326.893852
 32
0.0
 13
207.904844
 23
326.893852
 33
0.0
  0
MTEXT
  5
328
330
1F
100
AcDbEntity
  8
2
100
AcDbMText
 10
340.037561
 20
316.149515
 30
0.0
 40
3.5
 41
0.0
 71
     7
 72
     5
  1
\W0.8654;105,5
  7
cesky
 73
     2
 44
0.8433729999999998
  0
LINE
  5
329
330
1F
100
AcDbEntity
  8
2
100
AcDbLine
 10
398.404842
 20
307.407994
 30
0.0
 11
398.404842
 21
317.275348
 31
0.0
  0
LINE
  5
32A
330
1F
100
AcDbEntity
  8
2
100
AcDbLine
 10
292.87428
 20
305.601089
 30
0.0
 11
292.87428
 21
317.275348
 31
0.0
  0
LINE
  5
32B
330
1F
100
AcDbEntity
  8
2
100
AcDbLine
 10
398.404842
 20
316.275348
 30
0.0
 11
292.87428
 21
316.275348
 31
0.0
  0
SOLID
  5
32C
330
1F
100
AcDbEntity
  8
2
100
AcDbTrace
 10
398.404842
 20
316.275348
 30
0.0
 11
394.904844
 21
315.658204
 31
0.0
 12
394.90484
 22
316.892492
 32
0.0
 13
394.90484
 23
316.892492
 33
0.0
  0
SOLID
  5
32D
330
1F
100
AcDbEntity
  8
2
100
AcDbTrace
 10
292.87428
 20
316.275348
 30
0.0
 11
296.374278
 21
316.892492
 31
0.0
 12
296.374282
 22
315.658204
 32
0.0
 13
296.374282
 23
315.658204
 33
0.0
  0
MTEXT
  5
32E
330
1F
100
AcDbEntity
  8
2
100
AcDbMText
 10
417.908539
 20
289.378058
 30
0.0
 40
3.5
 41
0.0
 71
     7
 72
     5
  1
\W0.7045;33
  7
cesky
 11
0.0000000000000001
 21
1.0
 31
0.0
 73
     2
 44
0.8433729999999998
  0
MTEXT
  5
32F
330
1F
100
AcDbEntity
  8
2
100
AcDbMText
 10
417.908539
 20
282.640558
 30
0.0
 40
3.5
 41
0.0
 71
     7
 72
     5
  1
\W3.0115;\H2.63;%%c\H3.50;
  7
cesky
 11
0.0000000000000001
 21
1.0
 31
0.0
 73
     2
 44
0.8433729999999998
  0
LINE
  5
330
330
1F
100
AcDbEntity
  8
2
100
AcDbLine
 10
400.404842
 20
305.407994
 30
0.0
 11
419.095956
 21
305.407994
 31
0.0
  0
LINE
  5
331
330
1F
100
AcDbEntity
  8
2
100
AcDbLine
 10
418.0959559999999
 20
305.407994
 30
0.0
 11
418.0959559999999
 21
282.483058
 31
0.0
  0
SOLID
  5
332
330
1F
100
AcDbEntity
  8
2
100
AcDbTrace
 10
418.0959559999999
 20
305.407994
 30
0.0
 11
418.7131009999999
 21
301.907996
 31
0.0
 12
417.478812
 22
301.907991
 32
0.0
 13
417.478812
 23
301.907991
 33
0.0
  0
MTEXT
  5
333
330
1F
100
AcDbEntity
  8
SK2
100
AcDbMText
 10
192.283723
 20
290.434244
 30
0.0
 40
3.5
 41
0.0
 71
     7
 72
     5
  1
\W0.7045;40
  7
cesky
 11
0.0000000000000001
 21
1.0
 31
0.0
 73
     2
 44
0.8433729999999998
  0
MTEXT
  5
334
330
1F
100
AcDbEntity
  8
SK2
100
AcDbMText
 10
192.283723
 20
283.696744
 30
0.0
 40
3.5
 41
0.0
 71
     7
 72
     5
  1
\W3.0115;\H2.63;%%c\H3.50;
  7
cesky
 11
0.0000000000000001
 21
1.0
 31
0.0
 73
     2
 44
0.8433729999999998
  0
LINE
  5
335
330
1F
100
AcDbEntity
  8
SK2
100
AcDbLine
 10
206.404842
 20
308.907994
 30
0.0
 11
191.47114
 21
308.907994
 31
0.0
  0
LINE
  5
336
330
1F
100
AcDbEntity
  8
SK2
100
AcDbLine
 10
206.404842
 20
268.907994
 30
0.0
 11
191.47114
 21
268.907994
 31
0.0
  0
LINE
  5
337
330
1F
100
AcDbEntity
  8
SK2
100
AcDbLine
 10
192.4711399999999
 20
308.907994
 30
0.0
 11
192.4711399999999
 21
268.907994
 31
0.0
  0
SOLID
  5
338
330
1F
100
AcDbEntity
  8
SK2
100
AcDbTrace
 10
192.4711399999999
 20
308.907994
 30
0.0
 11
193.088285
 21
305.407996
 31
0.0
 12
191.853996
 22
305.407991
 32
0.0
 13
191.853996
 23
305.407991
 33
0.0
  0
SOLID
  5
339
330
1F
100
AcDbEntity
  8
SK2
100
AcDbTrace
 10
192.4711399999999
 20
268.907994
 30
0.0
 11
191.853996
 21
272.407991
 31
0.0
 12
193.088285
 22
272.407996
 32
0.0
 13
193.088285
 23
272.407996
 33
0.0
  0
MTEXT
  5
33A
330
1F
100
AcDbEntity
  8
SK2
100
AcDbMText
 10
180.583349
 20
290.434244
 30
0.0
 40
3.5
 41
0.0
 71
     7
 72
     5
  1
\W0.7045;50
  7
cesky
 11
0.0000000000000001
 21
1.0
 31
0.0
 73
     2
 44
0.8433729999999998
  0
MTEXT
  5
33B
330
1F
100
AcDbEntity
  8
SK2
100
AcDbMText
 10
180.583349
 20
283.696744
 30
0.0
 40
3.5
 41
0.0
 71
     7
 72
     5
  1
\W3.0115;\H2.63;%%c\H3.50;
  7
cesky
 11
0.0000000000000001
 21
1.0
 31
0.0
 73
     2
 44
0.8433729999999998
  0
LINE
  5
33C
330
1F
100
AcDbEntity
  8
SK2
100
AcDbLine
 10
274.904842
 20
313.907994
 30
0.0
 11
179.770766
 21
313.907994
 31
0.0
  0
LINE
  5
33D
330
1F
100
AcDbEntity
  8
SK2
100
AcDbLine
 10
274.904842
 20
263.907994
 30
0.0
 11
179.770766
 21
263.907994
 31
0.0
  0
LINE
  5
33E
330
1F
100
AcDbEntity
  8
SK2
100
AcDbLine
 10
180.770766
 20
313.907994
 30
0.0
 11
180.770766
 21
263.907994
 31
0.0
  0
SOLID
  5
33F
330
1F
100
AcDbEntity
  8
SK2
100
AcDbTrace
 10
180.770766
 20
313.907994
 30
0.0
 11
181.387911
 21
310.407996
 31
0.0
 12
180.153622
 22
310.407991
 32
0.0
 13
180.153622
 23
310.407991
 33
0.0
  0
SOLID
  5
340
330
1F
100
AcDbEntity
  8
SK2
100
AcDbTrace
 10
180.770766
 20
263.907994
 30
0.0
 11
180.153622
 21
267.4079910000001
 31
0.0
 12
181.387911
 22
267.407996
 32
0.0
 13
181.387911
 23
267.407996
 33
0.0
  0
LINE
  5
341
330
1F
100
AcDbEntity
  8
CUT
100
AcDbLine
 10
388.9859945339268
 20
305.1111561585326
 30
0.0
 11
396.9586795366027
 21
305.4049848808489
 31
0.0
  0
LINE
  5
344
330
1F
100
AcDbEntity
  8
CUT
100
AcDbLine
 10
397.7587978615781
 20
304.6625010657879
 30
0.0
 11
398.031654694514
 21
297.0984238339418
 31
0.0
  0
LINE
  5
346
330
1F
100
AcDbEntity
  8
CUT
100
AcDbLine
 10
398.031654694514
 20
297.098423833942
 30
0.0
 11
398.2334058386329
 21
296.7626796414267
 31
0.0
  0
LINE
  5
347
330
1F
100
AcDbEntity
  8
CUT
100
AcDbLine
 10
398.2754235247553
 20
296.6161586575744
 30
0.0
 11
398.3998607906599
 21
289.4950830522923
 31
0.0
  0
LINE
  5
348
330
1F
100
AcDbEntity
  8
CUT
100
AcDbLine
 10
398.399861
 20
288.907994
 30
0.0
 11
388.241391
 21
288.907994
 31
0.0
  0
LINE
  5
349
330
1F
100
AcDbEntity
  8
CUT
100
AcDbLine
 10
388.241391
 20
288.907994
 30
0.0
 11
388.241391
 21
304.311338
 31
0.0
  0
LINE
  5
34A
330
1F
100
AcDbEntity
  8
CUT
100
AcDbLine
 10
398.399861
 20
289.495083
 30
0.0
 11
398.399861
 21
288.907994
 31
0.0
  0
ARC
  5
34B
330
1F
100
AcDbEntity
  8
CUT
100
AcDbCircle
 10
396.9791973680294
 20
304.6241332151053
 30
0.0
 40
0.7811211847728635
100
AcDbArc
 50
6.969229218928723
 51
91.50517025469463
  0
ARC
  5
34C
330
1F
100
AcDbEntity
  8
CUT
100
AcDbCircle
 10
397.0367365592793
 20
304.6364575397829
 30
0.0
 40
0.7225308225427552
100
AcDbArc
 50
2.065666102888932
 51
6.552774403375432
  0
ARC
  5
34D
330
1F
100
AcDbEntity
  8
CUT
100
AcDbCircle
 10
389.0236732365634
 20
304.3299202537963
 30
0.0
 40
0.7825029129895712
100
AcDbArc
 50
95.52612475018278
 51
181.3607782712438
  0
ARC
  5
34E
330
1F
100
AcDbEntity
  8
CUT
100
AcDbCircle
 10
389.0126416200129
 20
304.3868183547421
 30
0.0
 40
0.7248277872688026
100
AcDbArc
 50
92.10685864977525
 51
95.09127420005965
  0
LINE
  5
34F
330
1F
100
AcDbEntity
  8
CUT
100
AcDbLine
 10
398.233405838633
 20
296.7626796414267
 30
0.0
 11
398.233405838633
 21
296.7626796414267
 31
0.0
  0
ARC
  5
350
330
1F
100
AcDbEntity
  8
CUT
100
AcDbCircle
 10
397.981058423822
 20
296.6110290299361
 30
0.0
 40
0.294409792172785
100
AcDbArc
 50
0.9983393706857807
 51
31.0041683178027
  0
ENDSEC
  0
SECTION
  2
OBJECTS
  0
DICTIONARY
  5
C
330
0
100
AcDbDictionary
281
     1
  3
ACAD_CIP_PREVIOUS_PRODUCT_INFO
350
313
  3
ACAD_COLOR
350
30E
  3
ACAD_DETAILVIEWSTYLE
350
30A
  3
ACAD_GROUP
350
D
  3
ACAD_LAYOUT
350
1A
  3
ACAD_MATERIAL
350
43
  3
ACAD_MLEADERSTYLE
350
6B
  3
ACAD_MLINESTYLE
350
17
  3
ACAD_PLOTSETTINGS
350
19
  3
ACAD_PLOTSTYLENAME
350
E
  3
ACAD_SCALELIST
350
47
  3
ACAD_SECTIONVIEWSTYLE
350
30B
  3
ACAD_TABLESTYLE
350
69
  3
ACAD_VISUALSTYLE
350
2A
  3
ACDB_RECOMPOSE_DATA
350
37C
  3
AcDbVariableDictionary
350
2C7
  0
DICTIONARY
  5
35F
330
10
100
AcDbDictionary
280
     1
281
     1
  3
ADSK_XREC_LAYER_RECONCILED
360
360
  0
DICTIONARY
  5
361
330
351
100
AcDbDictionary
280
     1
281
     1
  3
ADSK_XREC_LAYER_RECONCILED
360
362
  0
DICTIONARY
  5
363
330
352
100
AcDbDictionary
280
     1
281
     1
  3
ADSK_XREC_LAYER_RECONCILED
360
364
  0
DICTIONARY
  5
365
330
353
100
AcDbDictionary
280
     1
281
     1
  3
ADSK_XREC_LAYER_RECONCILED
360
366
  0
DICTIONARY
  5
367
330
355
100
AcDbDictionary
280
     1
281
     1
  3
ADSK_XREC_LAYER_RECONCILED
360
368
  0
DICTIONARY
  5
369
330
356
100
AcDbDictionary
280
     1
281
     1
  3
ADSK_XREC_LAYER_RECONCILED
360
36A
  0
DICTIONARY
  5
36B
330
358
100
AcDbDictionary
280
     1
281
     1
  3
ADSK_XREC_LAYER_RECONCILED
360
36C
  0
DICTIONARY
  5
36D
330
359
100
AcDbDictionary
280
     1
281
     1
  3
ADSK_XREC_LAYER_RECONCILED
360
36E
  0
DICTIONARY
  5
36F
330
35A
100
AcDbDictionary
280
     1
281
     1
  3
ADSK_XREC_LAYER_RECONCILED
360
370
  0
DICTIONARY
  5
371
330
35B
100
AcDbDictionary
280
     1
281
     1
  3
ADSK_XREC_LAYER_RECONCILED
360
372
  0
DICTIONARY
  5
373
330
35C
100
AcDbDictionary
280
     1
281
     1
  3
ADSK_XREC_LAYER_RECONCILED
360
374
  0
DICTIONARY
  5
375
330
35D
100
AcDbDictionary
280
     1
281
     1
  3
ADSK_XREC_LAYER_RECONCILED
360
376
  0
DICTIONARY
  5
314
330
1F
100
AcDbDictionary
280
     1
281
     1
  3
ACAD_SORTENTS
360
315
  0
XRECORD
  5
313
102
{ACAD_REACTORS
330
C
102
}
330
C
100
AcDbXrecord
280
     1
300
ACD
300
2019
300
87084ACD_2019_0F
  0
DICTIONARY
  5
30E
102
{ACAD_REACTORS
330
C
102
}
330
C
100
AcDbDictionary
281
     1
  0
DICTIONARY
  5
30A
102
{ACAD_REACTORS
330
C
102
}
330
C
100
AcDbDictionary
281
     1
  3
Metric50
350
310
  0
DICTIONARY
  5
D
102
{ACAD_REACTORS
330
C
102
}
330
C
100
AcDbDictionary
281
     1
  3
NULOVY_BOD
350
35E
  0
DICTIONARY
  5
1A
102
{ACAD_REACTORS
330
C
102
}
330
C
100
AcDbDictionary
281
     1
  3
Layout1
350
1E
  3
Layout2
350
26
  3
Model
350
22
  0
DICTIONARY
  5
43
102
{ACAD_REACTORS
330
C
102
}
330
C
100
AcDbDictionary
281
     1
  3
ByBlock
350
45
  3
ByLayer
350
44
  3
Global
350
46
  0
DICTIONARY
  5
6B
102
{ACAD_REACTORS
330
C
102
}
330
C
100
AcDbDictionary
281
     1
  3
Standard
350
6C
  0
DICTIONARY
  5
17
102
{ACAD_REACTORS
330
C
102
}
330
C
100
AcDbDictionary
281
     1
  3
Standard
350
18
  0
DICTIONARY
  5
19
102
{ACAD_REACTORS
330
C
102
}
330
C
100
AcDbDictionary
281
     1
  0
ACDBDICTIONARYWDFLT
  5
E
102
{ACAD_REACTORS
330
C
102
}
330
C
100
AcDbDictionary
281
     1
  3
Normal
350
F
100
AcDbDictionaryWithDefault
340
F
  0
DICTIONARY
  5
47
102
{ACAD_REACTORS
330
C
102
}
330
C
100
AcDbDictionary
281
     1
  3
A0
350
48
  3
A1
350
49
  3
A2
350
4A
  3
A3
350
4B
  3
A4
350
4C
  3
A5
350
4D
  3
A6
350
4E
  3
A7
350
4F
  3
A8
350
50
  3
A9
350
51
  3
B0
350
52
  3
B1
350
53
  3
B2
350
54
  3
B3
350
55
  3
B4
350
56
  3
B5
350
57
  3
B6
350
58
  3
B7
350
59
  3
B8
350
5A
  3
B9
350
5B
  3
C0
350
5C
  3
C1
350
5D
  3
C2
350
5E
  3
C3
350
5F
  3
C4
350
60
  3
C5
350
61
  3
C6
350
62
  3
C7
350
63
  3
C8
350
64
  3
C9
350
65
  3
D0
350
66
  3
D1
350
67
  3
D2
350
68
  0
DICTIONARY
  5
30B
102
{ACAD_REACTORS
330
C
102
}
330
C
100
AcDbDictionary
281
     1
  3
Metric50
350
30F
  0
DICTIONARY
  5
69
102
{ACAD_REACTORS
330
C
102
}
330
C
100
AcDbDictionary
281
     1
  3
Standard
350
6A
  0
DICTIONARY
  5
2A
102
{ACAD_REACTORS
330
C
102
}
330
C
100
AcDbDictionary
281
     1
  3
2dWireframe
350
2F
  3
Basic
350
32
  3
Brighten
350
36
  3
ColorChange
350
3A
  3
Conceptual
350
34
  3
Dim
350
35
  3
EdgeColorOff
350
3D
  3
Facepattern
350
39
  3
Flat
350
2B
  3
FlatWithEdges
350
2C
  3
Gouraud
350
2D
  3
GouraudWithEdges
350
2E
  3
Hidden
350
31
  3
JitterOff
350
3B
  3
Linepattern
350
38
  3
OverhangOff
350
3C
  3
Realistic
350
33
  3
Shaded
350
42
  3
Shaded with edges
350
41
  3
Shades of Gray
350
3E
  3
Sketchy
350
3F
  3
Thicken
350
37
  3
Wireframe
350
30
  3
X-Ray
350
40
  0
XRECORD
  5
37C
102
{ACAD_REACTORS
330
C
102
}
330
C
100
AcDbXrecord
280
     1
 90
        1
330
6A
  0
DICTIONARY
  5
2C7
102
{ACAD_REACTORS
330
C
102
}
330
C
100
AcDbDictionary
281
     1
  3
CANNOSCALE
350
2C8
  3
CMLEADERSTYLE
350
309
  3
CTABLESTYLE
350
308
  3
CVIEWDETAILSTYLE
350
377
  3
CVIEWSECTIONSTYLE
350
378
  3
MSLTSCALE
350
2C9
  3
XCLIPFRAME
350
379
  0
XRECORD
  5
360
102
{ACAD_REACTORS
330
35F
102
}
330
35F
100
AcDbXrecord
280
     1
290
     1
  0
XRECORD
  5
362
102
{ACAD_REACTORS
330
361
102
}
330
361
100
AcDbXrecord
280
     1
290
     1
  0
XRECORD
  5
364
102
{ACAD_REACTORS
330
363
102
}
330
363
100
AcDbXrecord
280
     1
290
     1
  0
XRECORD
  5
366
102
{ACAD_REACTORS
330
365
102
}
330
365
100
AcDbXrecord
280
     1
290
     1
  0
XRECORD
  5
368
102
{ACAD_REACTORS
330
367
102
}
330
367
100
AcDbXrecord
280
     1
290
     1
  0
XRECORD
  5
36A
102
{ACAD_REACTORS
330
369
102
}
330
369
100
AcDbXrecord
280
     1
290
     1
  0
XRECORD
  5
36C
102
{ACAD_REACTORS
330
36B
102
}
330
36B
100
AcDbXrecord
280
     1
290
     1
  0
XRECORD
  5
36E
102
{ACAD_REACTORS
330
36D
102
}
330
36D
100
AcDbXrecord
280
     1
290
     1
  0
XRECORD
  5
370
102
{ACAD_REACTORS
330
36F
102
}
330
36F
100
AcDbXrecord
280
     1
290
     1
  0
XRECORD
  5
372
102
{ACAD_REACTORS
330
371
102
}
330
371
100
AcDbXrecord
280
     1
290
     1
  0
XRECORD
  5
374
102
{ACAD_REACTORS
330
373
102
}
330
373
100
AcDbXrecord
280
     1
290
     1
  0
XRECORD
  5
376
102
{ACAD_REACTORS
330
375
102
}
330
375
100
AcDbXrecord
280
     1
290
     1
  0
SORTENTSTABLE
  5
315
102
{ACAD_REACTORS
330
314
102
}
330
314
100
AcDbSortentsTable
330
1F
331
316
  5
281
331
317
  5
29A
331
318
  5
316
331
319
  5
317
331
31A
  5
318
331
31B
  5
319
331
31C
  5
31A
331
31D
  5
31B
331
31E
  5
31C
331
31F
  5
31D
331
320
  5
31E
331
321
  5
31F
331
322
  5
320
331
323
  5
321
331
324
  5
322
331
325
  5
323
331
326
  5
324
331
327
  5
325
331
328
  5
326
331
329
  5
327
331
32A
  5
328
331
32B
  5
329
331
32C
  5
32A
331
32D
  5
32B
331
32E
  5
32C
331
32F
  5
32D
331
330
  5
32E
331
331
  5
32F
331
332
  5
330
331
344
  5
349
331
346
  5
34C
331
347
  5
34D
331
348
  5
34E
331
349
  5
34F
331
34A
  5
350
331
34B
  5
344
331
34C
  5
346
331
34D
  5
347
331
34E
  5
348
331
34F
  5
34A
331
350
  5
34B
  0
ACDBDETAILVIEWSTYLE
  5
310
102
{ACAD_XDICTIONARY
360
3B0
102
}
102
{ACAD_REACTORS
330
30A
102
}
330
30A
100
AcDbModelDocViewStyle
 70
     0
  3
Metric50
290
     0
100
AcDbDetailViewStyle
 70
     0
 71
     0
 90
        3
 71
     1
340
11
 62
   256
 40
5.0
340
0
 62
   256
 40
5.0
300

 40
0.0
280
     1
 71
     2
340
16
 90
       25
 62
   256
 71
     3
340
11
 62
   256
 40
5.0
 90
        0
 40
15.0
 90
        1
300
%<\AcVar ViewDetailId>% (%<\AcVar ViewScale \f "%sn">%)
 71
     4
340
16
 90
       25
 62
   256
340
16
 90
       25
 62
   256
280
     0
  0
GROUP
  5
35E
102
{ACAD_REACTORS
330
D
102
}
330
D
100
AcDbGroup
300

 70
     0
 71
     1
340
73
  0
LAYOUT
  5
1E
102
{ACAD_REACTORS
330
1A
102
}
330
1A
100
AcDbPlotSettings
  1

  2
none_device
  4

  6

 40
0.0
 41
0.0
 42
0.0
 43
0.0
 44
0.0
 45
0.0
 46
0.0
 47
0.0
 48
0.0
 49
0.0
140
0.0
141
0.0
142
1.0
143
1.0
 70
   688
 72
     0
 73
     0
 74
     5
  7

 75
    16
147
1.0
 76
     0
 77
     2
 78
   300
148
0.0
149
0.0
100
AcDbLayout
  1
Layout1
 70
     1
 71
     1
 10
-0.5
 20
-0.5
 11
5.0
 21
5.0
 12
0.0
 22
0.0
 32
0.0
 14
-0.5
 24
-0.5
 34
-0.5
 15
5.0
 25
5.0
 35
5.0
146
0.0
 13
0.0
 23
0.0
 33
0.0
 16
1.0
 26
0.0
 36
0.0
 17
0.0
 27
1.0
 37
0.0
 76
     0
330
1B
  0
LAYOUT
  5
26
102
{ACAD_REACTORS
330
1A
102
}
330
1A
100
AcDbPlotSettings
  1

  2
none_device
  4

  6

 40
0.0
 41
0.0
 42
0.0
 43
0.0
 44
0.0
 45
0.0
 46
0.0
 47
0.0
 48
0.0
 49
0.0
140
0.0
141
0.0
142
1.0
143
1.0
 70
   688
 72
     0
 73
     0
 74
     5
  7

 75
    16
147
1.0
 76
     0
 77
     2
 78
   300
148
0.0
149
0.0
100
AcDbLayout
  1
Layout2
 70
     1
 71
     2
 10
0.0
 20
0.0
 11
0.0
 21
0.0
 12
0.0
 22
0.0
 32
0.0
 14
0.0
 24
0.0
 34
0.0
 15
0.0
 25
0.0
 35
0.0
146
0.0
 13
0.0
 23
0.0
 33
0.0
 16
1.0
 26
0.0
 36
0.0
 17
0.0
 27
1.0
 37
0.0
 76
     0
330
23
  0
LAYOUT
  5
22
102
{ACAD_REACTORS
330
1A
102
}
330
1A
100
AcDbPlotSettings
  1

  2
none_device
  4
Letter_(8.50_x_11.00_Inches)
  6

 40
6.349999999999999
 41
6.349999999999999
 42
6.350005
 43
6.350005
 44
215.9
 45
279.4
 46
0.0
 47
0.0
 48
0.0
 49
0.0
140
0.0
141
0.0
142
1.0
143
1.0
 70
  1712
 72
     0
 73
     0
 74
     0
  7

 75
     0
147
1.0
 76
     0
 77
     2
 78
   300
148
0.0
149
0.0
100
AcDbLayout
  1
Model
 70
     1
 71
     0
 10
-0.5
 20
-0.5
 11
5.0
 21
5.0
 12
0.0
 22
0.0
 32
0.0
 14
-0.5
 24
-0.5
 34
-0.5
 15
5.0
 25
5.0
 35
5.0
146
0.0
 13
0.0
 23
0.0
 33
0.0
 16
1.0
 26
0.0
 36
0.0
 17
0.0
 27
1.0
 37
0.0
 76
     0
330
1F
331
29
  0
MATERIAL
  5
45
102
{ACAD_XDICTIONARY
360
2FD
102
}
102
{ACAD_REACTORS
330
43
102
}
330
43
100
AcDbMaterial
  1
ByBlock
  0
MATERIAL
  5
44
102
{ACAD_XDICTIONARY
360
2FB
102
}
102
{ACAD_REACTORS
330
43
102
}
330
43
100
AcDbMaterial
  1
ByLayer
  0
MATERIAL
  5
46
102
{ACAD_XDICTIONARY
360
2FF
102
}
102
{ACAD_REACTORS
330
43
102
}
330
43
100
AcDbMaterial
  1
Global
  0
MLEADERSTYLE
  5
6C
102
{ACAD_REACTORS
330
6B
102
}
330
6B
100
AcDbMLeaderStyle
170
     2
171
     1
172
     0
 90
        2
 40
0.0
 41
0.0
173
     1
 91
-1056964608
340
14
 92
       -2
290
     1
 42
0.09
291
     1
 43
0.36
  3
Standard
 44
0.18
300

342
11
174
     1
178
     6
175
     1
176
     0
 93
-1056964608
 45
0.18
292
     0
297
     0
 46
0.18
 94
-1056964608
 47
1.0
 49
1.0
140
1.0
293
     1
141
0.0
294
     1
177
     0
142
1.0
295
     0
296
     0
143
0.125
1001
ACAD_MLEADERVER
1070
     2
  0
MLINESTYLE
  5
18
102
{ACAD_REACTORS
330
17
102
}
330
17
100
AcDbMlineStyle
  2
STANDARD
 70
     0
  3

 62
   256
 51
90.0
 52
90.0
 71
     2
 49
0.5
 62
   256
  6
BYLAYER
 49
-0.5
 62
   256
  6
BYLAYER
  0
ACDBPLACEHOLDER
  5
F
102
{ACAD_REACTORS
330
E
102
}
330
E
  0
SCALE
  5
48
102
{ACAD_REACTORS
330
47
102
}
330
47
100
AcDbScale
 70
     0
300
1:1
140
1.0
141
1.0
290
     1
  0
SCALE
  5
49
102
{ACAD_REACTORS
330
47
102
}
330
47
100
AcDbScale
 70
     0
300
1:2
140
1.0
141
2.0
290
     0
  0
SCALE
  5
4A
102
{ACAD_REACTORS
330
47
102
}
330
47
100
AcDbScale
 70
     0
300
1:4
140
1.0
141
4.0
290
     0
  0
SCALE
  5
4B
102
{ACAD_REACTORS
330
47
102
}
330
47
100
AcDbScale
 70
     0
300
1:5
140
1.0
141
5.0
290
     0
  0
SCALE
  5
4C
102
{ACAD_REACTORS
330
47
102
}
330
47
100
AcDbScale
 70
     0
300
1:8
140
1.0
141
8.0
290
     0
  0
SCALE
  5
4D
102
{ACAD_REACTORS
330
47
102
}
330
47
100
AcDbScale
 70
     0
300
1:10
140
1.0
141
10.0
290
     0
  0
SCALE
  5
4E
102
{ACAD_REACTORS
330
47
102
}
330
47
100
AcDbScale
 70
     0
300
1:16
140
1.0
141
16.0
290
     0
  0
SCALE
  5
4F
102
{ACAD_REACTORS
330
47
102
}
330
47
100
AcDbScale
 70
     0
300
1:20
140
1.0
141
20.0
290
     0
  0
SCALE
  5
50
102
{ACAD_REACTORS
330
47
102
}
330
47
100
AcDbScale
 70
     0
300
1:30
140
1.0
141
30.0
290
     0
  0
SCALE
  5
51
102
{ACAD_REACTORS
330
47
102
}
330
47
100
AcDbScale
 70
     0
300
1:40
140
1.0
141
40.0
290
     0
  0
SCALE
  5
52
102
{ACAD_REACTORS
330
47
102
}
330
47
100
AcDbScale
 70
     0
300
1:50
140
1.0
141
50.0
290
     0
  0
SCALE
  5
53
102
{ACAD_REACTORS
330
47
102
}
330
47
100
AcDbScale
 70
     0
300
1:100
140
1.0
141
100.0
290
     0
  0
SCALE
  5
54
102
{ACAD_REACTORS
330
47
102
}
330
47
100
AcDbScale
 70
     0
300
2:1
140
2.0
141
1.0
290
     0
  0
SCALE
  5
55
102
{ACAD_REACTORS
330
47
102
}
330
47
100
AcDbScale
 70
     0
300
4:1
140
4.0
141
1.0
290
     0
  0
SCALE
  5
56
102
{ACAD_REACTORS
330
47
102
}
330
47
100
AcDbScale
 70
     0
300
8:1
140
8.0
141
1.0
290
     0
  0
SCALE
  5
57
102
{ACAD_REACTORS
330
47
102
}
330
47
100
AcDbScale
 70
     0
300
10:1
140
10.0
141
1.0
290
     0
  0
SCALE
  5
58
102
{ACAD_REACTORS
330
47
102
}
330
47
100
AcDbScale
 70
     0
300
100:1
140
100.0
141
1.0
290
     0
  0
SCALE
  5
59
102
{ACAD_REACTORS
330
47
102
}
330
47
100
AcDbScale
 70
     0
300
1/128" = 1'-0"
140
0.007812
141
12.0
290
     0
  0
SCALE
  5
5A
102
{ACAD_REACTORS
330
47
102
}
330
47
100
AcDbScale
 70
     0
300
1/64" = 1'-0"
140
0.015625
141
12.0
290
     0
  0
SCALE
  5
5B
102
{ACAD_REACTORS
330
47
102
}
330
47
100
AcDbScale
 70
     0
300
1/32" = 1'-0"
140
0.03125
141
12.0
290
     0
  0
SCALE
  5
5C
102
{ACAD_REACTORS
330
47
102
}
330
47
100
AcDbScale
 70
     0
300
1/16" = 1'-0"
140
0.0625
141
12.0
290
     0
  0
SCALE
  5
5D
102
{ACAD_REACTORS
330
47
102
}
330
47
100
AcDbScale
 70
     0
300
3/32" = 1'-0"
140
0.09375
141
12.0
290
     0
  0
SCALE
  5
5E
102
{ACAD_REACTORS
330
47
102
}
330
47
100
AcDbScale
 70
     0
300
1/8" = 1'-0"
140
0.125
141
12.0
290
     0
  0
SCALE
  5
5F
102
{ACAD_REACTORS
330
47
102
}
330
47
100
AcDbScale
 70
     0
300
3/16" = 1'-0"
140
0.1875
141
12.0
290
     0
  0
SCALE
  5
60
102
{ACAD_REACTORS
330
47
102
}
330
47
100
AcDbScale
 70
     0
300
1/4" = 1'-0"
140
0.25
141
12.0
290
     0
  0
SCALE
  5
61
102
{ACAD_REACTORS
330
47
102
}
330
47
100
AcDbScale
 70
     0
300
3/8" = 1'-0"
140
0.375
141
12.0
290
     0
  0
SCALE
  5
62
102
{ACAD_REACTORS
330
47
102
}
330
47
100
AcDbScale
 70
     0
300
1/2" = 1'-0"
140
0.5
141
12.0
290
     0
  0
SCALE
  5
63
102
{ACAD_REACTORS
330
47
102
}
330
47
100
AcDbScale
 70
     0
300
3/4" = 1'-0"
140
0.75
141
12.0
290
     0
  0
SCALE
  5
64
102
{ACAD_REACTORS
330
47
102
}
330
47
100
AcDbScale
 70
     0
300
1" = 1'-0"
140
1.0
141
12.0
290
     0
  0
SCALE
  5
65
102
{ACAD_REACTORS
330
47
102
}
330
47
100
AcDbScale
 70
     0
300
1-1/2" = 1'-0"
140
1.5
141
12.0
290
     0
  0
SCALE
  5
66
102
{ACAD_REACTORS
330
47
102
}
330
47
100
AcDbScale
 70
     0
300
3" = 1'-0"
140
3.0
141
12.0
290
     0
  0
SCALE
  5
67
102
{ACAD_REACTORS
330
47
102
}
330
47
100
AcDbScale
 70
     0
300
6" = 1'-0"
140
6.0
141
12.0
290
     0
  0
SCALE
  5
68
102
{ACAD_REACTORS
330
47
102
}
330
47
100
AcDbScale
 70
     0
300
1'-0" = 1'-0"
140
12.0
141
12.0
290
     0
  0
ACDBSECTIONVIEWSTYLE
  5
30F
102
{ACAD_XDICTIONARY
360
3AE
102
}
102
{ACAD_REACTORS
330
30B
102
}
330
30B
100
AcDbModelDocViewStyle
 70
     0
  3
Metric50
290
     0
100
AcDbSectionViewStyle
 70
     0
 71
     0
 90
      102
 71
     1
340
11
 62
   256
 40
5.0
340
0
340
0
 62
   256
 40
5.0
300
I, O, Q, S, X, Z
 40
10.0
 90
        0
 40
2.5
 90
        0
 71
     2
340
16
 90
       25
 62
   256
340
16
 90
       50
 62
   256
 40
5.0
 40
2.5
 40
5.0
 71
     3
340
11
 62
   256
 40
5.0
 90
        0
 40
15.0
 90
        1
300
%<\AcVar ViewSectionStartId>%-%<\AcVar ViewSectionEndId>% (%<\AcVar ViewScale \f "%sn">%)
 71
     4
 62
   256
 62
   257
300
ANSI31
 40
1.0
 90
        0
290
     0
290
     0
 90
        6
 40
0.0
 40
1.570796326794896
 40
0.2617993877991494
 40
1.308996938995747
 40
-0.2617993877991494
 40
1.832595714594046
  0
TABLESTYLE
  5
6A
102
{ACAD_XDICTIONARY
360
301
102
}
102
{ACAD_REACTORS
330
69
102
}
330
69
100
AcDbTableStyle
  3
Standard
 70
     0
 71
     0
 40
0.06
 41
0.06
280
     0
281
     0
  7
Standard
140
0.18
170
     2
 62
     0
 63
     7
283
     0
274
    -2
284
     1
 64
     0
275
    -2
285
     1
 65
     0
276
    -2
286
     1
 66
     0
277
    -2
287
     1
 67
     0
278
    -2
288
     1
 68
     0
279
    -2
289
     1
 69
     0
  7
Standard
140
0.25
170
     5
 62
     0
 63
     7
283
     0
274
    -2
284
     1
 64
     0
275
    -2
285
     1
 65
     0
276
    -2
286
     1
 66
     0
277
    -2
287
     1
 67
     0
278
    -2
288
     1
 68
     0
279
    -2
289
     1
 69
     0
  7
Standard
140
0.18
170
     5
 62
     0
 63
     7
283
     0
274
    -2
284
     1
 64
     0
275
    -2
285
     1
 65
     0
276
    -2
286
     1
 66
     0
277
    -2
287
     1
 67
     0
278
    -2
288
     1
 68
     0
279
    -2
289
     1
 69
     0
  0
VISUALSTYLE
  5
2F
102
{ACAD_XDICTIONARY
360
385
102
}
102
{ACAD_REACTORS
330
2A
102
}
330
2A
100
AcDbVisualStyle
  2

 70
     4
 71
     0
 72
     2
 73
     0
 90
        0
 40
-0.6
 41
-30.0
 62
     5
 63
     7
421
 16777215
 74
     1
 91
        4
 64
     7
 65
   257
 75
     1
175
     1
 42
1.0
 92
        0
 66
   257
 43
1.0
 76
     1
 77
     6
 78
     2
 67
     7
 79
     5
170
     0
171
     0
290
     0
174
     0
 93
        1
 44
0.0
173
     0
291
     0
 45
0.0
1001
ACAD
1000
AcDbSavedByObjectVersion
1070
     0
  0
VISUALSTYLE
  5
32
102
{ACAD_XDICTIONARY
360
38B
102
}
102
{ACAD_REACTORS
330
2A
102
}
330
2A
100
AcDbVisualStyle
  2

 70
     7
 71
     1
 72
     0
 73
     1
 90
        0
 40
-0.6
 41
-30.0
 62
     5
 63
     7
421
 16777215
 74
     0
 91
        4
 64
     7
 65
   257
 75
     1
175
     1
 42
1.0
 92
        8
 66
     7
 43
1.0
 76
     1
 77
     6
 78
     2
 67
     7
 79
     5
170
     0
171
     0
290
     0
174
     0
 93
        1
 44
0.0
173
     0
291
     1
 45
0.0
1001
ACAD
1000
AcDbSavedByObjectVersion
1070
     0
  0
VISUALSTYLE
  5
36
102
{ACAD_XDICTIONARY
360
393
102
}
102
{ACAD_REACTORS
330
2A
102
}
330
2A
100
AcDbVisualStyle
  2

 70
    12
 71
     2
 72
     2
 73
     0
 90
        0
 40
-0.6
 41
-30.0
 62
     5
 63
     7
421
 16777215
 74
     1
 91
        4
 64
     7
 65
   257
 75
     1
175
     1
 42
1.0
 92
        8
 66
     7
 43
1.0
 76
     1
 77
     6
 78
     2
 67
     7
 79
     5
170
     0
171
     0
290
     0
174
     0
 93
        1
 44
50.0
173
     0
291
     1
 45
0.0
1001
ACAD
1000
AcDbSavedByObjectVersion
1070
     0
  0
VISUALSTYLE
  5
3A
102
{ACAD_XDICTIONARY
360
39B
102
}
102
{ACAD_REACTORS
330
2A
102
}
330
2A
100
AcDbVisualStyle
  2

 70
    16
 71
     2
 72
     2
 73
     3
 90
        0
 40
-0.6
 41
-30.0
 62
     5
 63
     8
421
  8421504
 74
     1
 91
        4
 64
     7
 65
   257
 75
     1
175
     1
 42
1.0
 92
        8
 66
     8
424
  8421504
 43
1.0
 76
     1
 77
     6
 78
     2
 67
     7
 79
     5
170
     0
171
     0
290
     0
174
     0
 93
        1
 44
0.0
173
     0
291
     1
 45
0.0
1001
ACAD
1000
AcDbSavedByObjectVersion
1070
     0
  0
VISUALSTYLE
  5
34
102
{ACAD_XDICTIONARY
360
38F
102
}
102
{ACAD_REACTORS
330
2A
102
}
330
2A
100
AcDbVisualStyle
  2

 70
     9
 71
     3
 72
     2
 73
     0
 90
        0
 40
-0.6
 41
-30.0
 62
     5
 63
     7
421
 16777215
 74
     2
 91
        2
 64
     7
 65
   257
 75
     1
175
     1
 42
179.0
 92
        8
 66
     7
 43
1.0
 76
     1
 77
     6
 78
     2
 67
     7
 79
     3
170
     0
171
     0
290
     0
174
     0
 93
        1
 44
0.0
173
     0
291
     0
 45
0.0
1001
ACAD
1000
AcDbSavedByObjectVersion
1070
     0
  0
VISUALSTYLE
  5
35
102
{ACAD_XDICTIONARY
360
391
102
}
102
{ACAD_REACTORS
330
2A
102
}
330
2A
100
AcDbVisualStyle
  2

 70
    11
 71
     2
 72
     2
 73
     0
 90
        0
 40
-0.6
 41
-30.0
 62
     5
 63
     7
421
 16777215
 74
     1
 91
        4
 64
     7
 65
   257
 75
     1
175
     1
 42
1.0
 92
        8
 66
     7
 43
1.0
 76
     1
 77
     6
 78
     2
 67
     7
 79
     5
170
     0
171
     0
290
     0
174
     0
 93
        1
 44
-50.0
173
     0
291
     1
 45
0.0
1001
ACAD
1000
AcDbSavedByObjectVersion
1070
     0
  0
VISUALSTYLE
  5
3D
102
{ACAD_XDICTIONARY
360
3A1
102
}
102
{ACAD_REACTORS
330
2A
102
}
330
2A
100
AcDbVisualStyle
  2

 70
    22
 71
     2
 72
     2
 73
     0
 90
        0
 40
-0.6
 41
-30.0
 62
     5
 63
     7
421
 16777215
 74
     1
 91
        4
 64
     7
 65
   257
 75
     1
175
     1
 42
1.0
 92
        8
 66
     7
 43
1.0
 76
     1
 77
     6
 78
     2
 67
     7
 79
     5
170
     0
171
     0
290
     0
174
     0
 93
        1
 44
0.0
173
     0
291
     1
 45
0.0
1001
ACAD
1000
AcDbSavedByObjectVersion
1070
     0
  0
VISUALSTYLE
  5
39
102
{ACAD_XDICTIONARY
360
399
102
}
102
{ACAD_REACTORS
330
2A
102
}
330
2A
100
AcDbVisualStyle
  2

 70
    15
 71
     2
 72
     2
 73
     0
 90
        0
 40
-0.6
 41
-30.0
 62
     5
 63
     7
421
 16777215
 74
     1
 91
        4
 64
     7
 65
   257
 75
     1
175
     1
 42
1.0
 92
        8
 66
     7
 43
1.0
 76
     1
 77
     6
 78
     2
 67
     7
 79
     5
170
     0
171
     0
290
     0
174
     0
 93
        1
 44
0.0
173
     0
291
     1
 45
0.0
1001
ACAD
1000
AcDbSavedByObjectVersion
1070
     0
  0
VISUALSTYLE
  5
2B
102
{ACAD_XDICTIONARY
360
37D
102
}
102
{ACAD_REACTORS
330
2A
102
}
330
2A
100
AcDbVisualStyle
  2

 70
     0
 71
     2
 72
     1
 73
     1
 90
        2
 40
-0.6
 41
30.0
 62
     5
 63
     7
421
 16777215
 74
     0
 91
        0
 64
     7
 65
   257
 75
     1
175
     1
 42
1.0
 92
        8
 66
     7
 43
1.0
 76
     1
 77
     6
 78
     2
 67
     7
 79
     5
170
     0
171
     0
290
     0
174
     0
 93
       13
 44
0.0
173
     0
291
     1
 45
0.0
1001
ACAD
1000
AcDbSavedByObjectVersion
1070
     0
  0
VISUALSTYLE
  5
2C
102
{ACAD_XDICTIONARY
360
37F
102
}
102
{ACAD_REACTORS
330
2A
102
}
330
2A
100
AcDbVisualStyle
  2

 70
     1
 71
     2
 72
     1
 73
     1
 90
        2
 40
-0.6
 41
30.0
 62
     5
 63
     7
421
 16777215
 74
     1
 91
        0
 64
     7
 65
   257
 75
     1
175
     1
 42
1.0
 92
        0
 66
   257
 43
1.0
 76
     1
 77
     6
 78
     2
 67
     7
 79
     5
170
     0
171
     0
290
     0
174
     0
 93
       13
 44
0.0
173
     0
291
     1
 45
0.0
1001
ACAD
1000
AcDbSavedByObjectVersion
1070
     0
  0
VISUALSTYLE
  5
2D
102
{ACAD_XDICTIONARY
360
381
102
}
102
{ACAD_REACTORS
330
2A
102
}
330
2A
100
AcDbVisualStyle
  2

 70
     2
 71
     2
 72
     2
 73
     1
 90
        2
 40
-0.6
 41
30.0
 62
     5
 63
     7
421
 16777215
 74
     0
 91
        0
 64
     7
 65
   257
 75
     1
175
     1
 42
1.0
 92
        0
 66
     7
 43
1.0
 76
     1
 77
     6
 78
     2
 67
     7
 79
     5
170
     0
171
     0
290
     0
174
     0
 93
       13
 44
0.0
173
     0
291
     1
 45
0.0
1001
ACAD
1000
AcDbSavedByObjectVersion
1070
     0
  0
VISUALSTYLE
  5
2E
102
{ACAD_XDICTIONARY
360
383
102
}
102
{ACAD_REACTORS
330
2A
102
}
330
2A
100
AcDbVisualStyle
  2

 70
     3
 71
     2
 72
     2
 73
     1
 90
        2
 40
-0.6
 41
30.0
 62
     5
 63
     7
421
 16777215
 74
     1
 91
        0
 64
     7
 65
   257
 75
     1
175
     1
 42
1.0
 92
        0
 66
   257
 43
1.0
 76
     1
 77
     6
 78
     2
 67
     7
 79
     5
170
     0
171
     0
290
     0
174
     0
 93
       13
 44
0.0
173
     0
291
     1
 45
0.0
1001
ACAD
1000
AcDbSavedByObjectVersion
1070
     0
  0
VISUALSTYLE
  5
31
102
{ACAD_XDICTIONARY
360
389
102
}
102
{ACAD_REACTORS
330
2A
102
}
330
2A
100
AcDbVisualStyle
  2

 70
     6
 71
     1
 72
     2
 73
     2
 90
        0
 40
-0.6
 41
-30.0
 62
     5
 63
     7
421
 16777215
 74
     2
 91
        2
 64
     7
 65
   257
 75
     2
175
     1
 42
40.0
 92
        0
 66
   257
 43
1.0
 76
     1
 77
     6
 78
     2
 67
     7
 79
     3
170
     0
171
     0
290
     0
174
     0
 93
        1
 44
0.0
173
     0
291
     0
 45
0.0
1001
ACAD
1000
AcDbSavedByObjectVersion
1070
     0
  0
VISUALSTYLE
  5
3B
102
{ACAD_XDICTIONARY
360
39D
102
}
102
{ACAD_REACTORS
330
2A
102
}
330
2A
100
AcDbVisualStyle
  2

 70
    20
 71
     2
 72
     2
 73
     0
 90
        0
 40
-0.6
 41
-30.0
 62
     5
 63
     7
421
 16777215
 74
     1
 91
        4
 64
     7
 65
   257
 75
     1
175
     1
 42
1.0
 92
       10
 66
     7
 43
1.0
 76
     1
 77
     6
 78
     2
 67
     7
 79
     5
170
     0
171
     0
290
     0
174
     0
 93
        1
 44
0.0
173
     0
291
     1
 45
0.0
1001
ACAD
1000
AcDbSavedByObjectVersion
1070
     0
  0
VISUALSTYLE
  5
38
102
{ACAD_XDICTIONARY
360
397
102
}
102
{ACAD_REACTORS
330
2A
102
}
330
2A
100
AcDbVisualStyle
  2

 70
    14
 71
     2
 72
     2
 73
     0
 90
        0
 40
-0.6
 41
-30.0
 62
     5
 63
     7
421
 16777215
 74
     1
 91
        4
 64
     7
 65
   257
 75
     7
175
     7
 42
1.0
 92
        8
 66
     7
 43
1.0
 76
     1
 77
     6
 78
     2
 67
     7
 79
     5
170
     0
171
     0
290
     0
174
     0
 93
        1
 44
0.0
173
     0
291
     1
 45
0.0
1001
ACAD
1000
AcDbSavedByObjectVersion
1070
     0
  0
VISUALSTYLE
  5
3C
102
{ACAD_XDICTIONARY
360
39F
102
}
102
{ACAD_REACTORS
330
2A
102
}
330
2A
100
AcDbVisualStyle
  2

 70
    21
 71
     2
 72
     2
 73
     0
 90
        0
 40
-0.6
 41
-30.0
 62
     5
 63
     7
421
 16777215
 74
     1
 91
        4
 64
     7
 65
   257
 75
     1
175
     1
 42
1.0
 92
        9
 66
     7
 43
1.0
 76
     1
 77
     6
 78
     2
 67
     7
 79
     5
170
     0
171
     0
290
     0
174
     0
 93
        1
 44
0.0
173
     0
291
     1
 45
0.0
1001
ACAD
1000
AcDbSavedByObjectVersion
1070
     0
  0
VISUALSTYLE
  5
33
102
{ACAD_XDICTIONARY
360
38D
102
}
102
{ACAD_REACTORS
330
2A
102
}
330
2A
100
AcDbVisualStyle
  2

 70
     8
 71
     2
 72
     3
 73
     0
 90
        2
 40
-0.6
 41
30.0
 62
     5
 63
     7
421
 16777215
 74
     0
 91
        0
 64
     7
 65
   257
 75
     1
175
     1
 42
1.0
 92
        8
 66
   257
 43
1.0
 76
     1
 77
     6
 78
     2
 67
     7
 79
     3
170
     0
171
     0
290
     0
174
     0
 93
       13
 44
0.0
173
     0
291
     0
 45
0.0
1001
ACAD
1000
AcDbSavedByObjectVersion
1070
     0
  0
VISUALSTYLE
  5
42
102
{ACAD_XDICTIONARY
360
3AB
102
}
102
{ACAD_REACTORS
330
2A
102
}
330
2A
100
AcDbVisualStyle
  2

 70
    27
 71
     2
 72
     2
 73
     1
 90
        2
 40
-0.6
 41
30.0
 62
     5
 63
     7
421
 16777215
 74
     0
 91
        4
 64
     7
 65
   257
 75
     1
175
     1
 42
1.0
 92
        8
 66
   257
 43
1.0
 76
     1
 77
     6
 78
     2
 67
     8
425
  7895160
 79
     3
170
     0
171
     0
290
     0
174
     0
 93
        5
 44
0.0
173
     0
291
     0
 45
0.0
1001
ACAD
1000
AcDbSavedByObjectVersion
1070
     0
  0
VISUALSTYLE
  5
41
102
{ACAD_XDICTIONARY
360
3A9
102
}
102
{ACAD_REACTORS
330
2A
102
}
330
2A
100
AcDbVisualStyle
  2

 70
    26
 71
     2
 72
     2
 73
     1
 90
        2
 40
-0.6
 41
30.0
 62
     5
 63
     7
421
 16777215
 74
     1
 91
       10
 64
     7
 65
   257
 75
     2
175
     1
 42
1.0
 92
        8
 66
   257
 43
1.0
 76
     1
 77
     6
 78
     2
 67
     7
 79
     3
170
     0
171
     0
290
     0
174
     0
 93
        5
 44
0.0
173
     0
291
     0
 45
0.0
1001
ACAD
1000
AcDbSavedByObjectVersion
1070
     0
  0
VISUALSTYLE
  5
3E
102
{ACAD_XDICTIONARY
360
3A3
102
}
102
{ACAD_REACTORS
330
2A
102
}
330
2A
100
AcDbVisualStyle
  2

 70
    23
 71
     2
 72
     2
 73
     3
 90
        0
 40
-0.6
 41
-30.0
 62
     5
 63
     7
421
 16777215
 74
     2
 91
        2
 64
     7
 65
     7
 75
     1
175
     1
 42
40.0
 92
        8
 66
     7
 43
1.0
 76
     1
 77
     6
 78
     2
 67
     7
 79
     3
170
     0
171
     0
290
     0
174
     0
 93
        1
 44
0.0
173
     0
291
     0
 45
0.0
1001
ACAD
1000
AcDbSavedByObjectVersion
1070
     0
  0
VISUALSTYLE
  5
3F
102
{ACAD_XDICTIONARY
360
3A5
102
}
102
{ACAD_REACTORS
330
2A
102
}
330
2A
100
AcDbVisualStyle
  2

 70
    24
 71
     1
 72
     2
 73
     2
 90
        0
 40
-0.6
 41
-30.0
 62
     5
 63
     7
421
 16777215
 74
     2
 91
        2
 64
     7
 65
     7
 75
     1
175
     1
 42
40.0
 92
       11
 66
     7
 43
1.0
 76
     1
 77
     6
 78
     2
 67
     7
 79
     6
170
     0
171
     0
290
     0
174
     0
 93
        1
 44
0.0
173
     0
291
     0
 45
0.0
1001
ACAD
1000
AcDbSavedByObjectVersion
1070
     0
  0
VISUALSTYLE
  5
37
102
{ACAD_XDICTIONARY
360
395
102
}
102
{ACAD_REACTORS
330
2A
102
}
330
2A
100
AcDbVisualStyle
  2

 70
    13
 71
     2
 72
     2
 73
     0
 90
        0
 40
-0.6
 41
-30.0
 62
     5
 63
     7
421
 16777215
 74
     1
 91
        4
 64
     7
 65
   257
 75
     1
175
     1
 42
1.0
 92
       12
 66
     7
 43
1.0
 76
     1
 77
     6
 78
     2
 67
     7
 79
     5
170
     0
171
     0
290
     0
174
     0
 93
        1
 44
0.0
173
     0
291
     1
 45
0.0
1001
ACAD
1000
AcDbSavedByObjectVersion
1070
     0
  0
VISUALSTYLE
  5
30
102
{ACAD_XDICTIONARY
360
387
102
}
102
{ACAD_REACTORS
330
2A
102
}
330
2A
100
AcDbVisualStyle
  2

 70
     5
 71
     0
 72
     2
 73
     0
 90
        0
 40
-0.6
 41
-30.0
 62
     5
 63
     7
421
 16777215
 74
     1
 91
        4
 64
     7
 65
   257
 75
     1
175
     1
 42
1.0
 92
        0
 66
   257
 43
1.0
 76
     1
 77
     6
 78
     2
 67
     7
 79
     3
170
     0
171
     0
290
     0
174
     0
 93
        1
 44
0.0
173
     0
291
     0
 45
0.0
1001
ACAD
1000
AcDbSavedByObjectVersion
1070
     0
  0
VISUALSTYLE
  5
40
102
{ACAD_XDICTIONARY
360
3A7
102
}
102
{ACAD_REACTORS
330
2A
102
}
330
2A
100
AcDbVisualStyle
  2

 70
    25
 71
     2
 72
     2
 73
     1
 90
        1
 40
0.5
 41
-30.0
 62
     5
 63
     7
421
 16777215
 74
     1
 91
        0
 64
     7
 65
   257
 75
     1
175
     1
 42
1.0
 92
        8
 66
     7
 43
1.0
 76
     1
 77
     6
 78
     2
 67
     7
 79
     3
170
     0
171
     0
290
     0
174
     0
 93
       13
 44
0.0
173
     0
291
     0
 45
0.0
1001
ACAD
1000
AcDbSavedByObjectVersion
1070
     0
  0
DICTIONARYVAR
  5
2C8
102
{ACAD_REACTORS
330
2C7
102
}
330
2C7
100
DictionaryVariables
280
     0
  1
1:1
  0
DICTIONARYVAR
  5
309
102
{ACAD_REACTORS
330
2C7
102
}
330
2C7
100
DictionaryVariables
280
     0
  1
STANDARD
  0
DICTIONARYVAR
  5
308
102
{ACAD_REACTORS
330
2C7
102
}
330
2C7
100
DictionaryVariables
280
     0
  1
STANDARD
  0
DICTIONARYVAR
  5
377
102
{ACAD_REACTORS
330
2C7
102
}
330
2C7
100
DictionaryVariables
280
     0
  1
Metric50
  0
DICTIONARYVAR
  5
378
102
{ACAD_REACTORS
330
2C7
102
}
330
2C7
100
DictionaryVariables
280
     0
  1
Metric50
  0
DICTIONARYVAR
  5
2C9
102
{ACAD_REACTORS
330
2C7
102
}
330
2C7
100
DictionaryVariables
280
     0
  1
1
  0
DICTIONARYVAR
  5
379
102
{ACAD_REACTORS
330
2C7
102
}
330
2C7
100
DictionaryVariables
280
     0
  1
2
  0
DICTIONARY
  5
3B0
330
310
100
AcDbDictionary
280
     1
281
     1
  3
ACAD_XREC_ROUNDTRIP
360
3B1
  0
DICTIONARY
  5
2FD
330
45
100
AcDbDictionary
280
     1
281
     1
  3
ACAD_XREC_ROUNDTRIP
360
2FE
  0
DICTIONARY
  5
2FB
330
44
100
AcDbDictionary
280
     1
281
     1
  3
ACAD_XREC_ROUNDTRIP
360
2FC
  0
DICTIONARY
  5
2FF
330
46
100
AcDbDictionary
280
     1
281
     1
  3
ACAD_XREC_ROUNDTRIP
360
300
  0
DICTIONARY
  5
3AE
330
30F
100
AcDbDictionary
280
     1
281
     1
  3
ACAD_XREC_ROUNDTRIP
360
3AF
  0
DICTIONARY
  5
301
330
6A
100
AcDbDictionary
280
     1
281
     1
  3
ACAD_ROUNDTRIP_2008_TABLESTYLE_CELLSTYLEMAP
360
37B
  3
ACAD_XREC_ROUNDTRIP
360
3AD
  0
DICTIONARY
  5
385
330
2F
100
AcDbDictionary
280
     1
281
     1
  3
ACAD_XREC_ROUNDTRIP
360
386
  0
DICTIONARY
  5
38B
330
32
100
AcDbDictionary
280
     1
281
     1
  3
ACAD_XREC_ROUNDTRIP
360
38C
  0
DICTIONARY
  5
393
330
36
100
AcDbDictionary
280
     1
281
     1
  3
ACAD_XREC_ROUNDTRIP
360
394
  0
DICTIONARY
  5
39B
330
3A
100
AcDbDictionary
280
     1
281
     1
  3
ACAD_XREC_ROUNDTRIP
360
39C
  0
DICTIONARY
  5
38F
330
34
100
AcDbDictionary
280
     1
281
     1
  3
ACAD_XREC_ROUNDTRIP
360
390
  0
DICTIONARY
  5
391
330
35
100
AcDbDictionary
280
     1
281
     1
  3
ACAD_XREC_ROUNDTRIP
360
392
  0
DICTIONARY
  5
3A1
330
3D
100
AcDbDictionary
280
     1
281
     1
  3
ACAD_XREC_ROUNDTRIP
360
3A2
  0
DICTIONARY
  5
399
330
39
100
AcDbDictionary
280
     1
281
     1
  3
ACAD_XREC_ROUNDTRIP
360
39A
  0
DICTIONARY
  5
37D
330
2B
100
AcDbDictionary
280
     1
281
     1
  3
ACAD_XREC_ROUNDTRIP
360
37E
  0
DICTIONARY
  5
37F
330
2C
100
AcDbDictionary
280
     1
281
     1
  3
ACAD_XREC_ROUNDTRIP
360
380
  0
DICTIONARY
  5
381
330
2D
100
AcDbDictionary
280
     1
281
     1
  3
ACAD_XREC_ROUNDTRIP
360
382
  0
DICTIONARY
  5
383
330
2E
100
AcDbDictionary
280
     1
281
     1
  3
ACAD_XREC_ROUNDTRIP
360
384
  0
DICTIONARY
  5
389
330
31
100
AcDbDictionary
280
     1
281
     1
  3
ACAD_XREC_ROUNDTRIP
360
38A
  0
DICTIONARY
  5
39D
330
3B
100
AcDbDictionary
280
     1
281
     1
  3
ACAD_XREC_ROUNDTRIP
360
39E
  0
DICTIONARY
  5
397
330
38
100
AcDbDictionary
280
     1
281
     1
  3
ACAD_XREC_ROUNDTRIP
360
398
  0
DICTIONARY
  5
39F
330
3C
100
AcDbDictionary
280
     1
281
     1
  3
ACAD_XREC_ROUNDTRIP
360
3A0
  0
DICTIONARY
  5
38D
330
33
100
AcDbDictionary
280
     1
281
     1
  3
ACAD_XREC_ROUNDTRIP
360
38E
  0
DICTIONARY
  5
3AB
330
42
100
AcDbDictionary
280
     1
281
     1
  3
ACAD_XREC_ROUNDTRIP
360
3AC
  0
DICTIONARY
  5
3A9
330
41
100
AcDbDictionary
280
     1
281
     1
  3
ACAD_XREC_ROUNDTRIP
360
3AA
  0
DICTIONARY
  5
3A3
330
3E
100
AcDbDictionary
280
     1
281
     1
  3
ACAD_XREC_ROUNDTRIP
360
3A4
  0
DICTIONARY
  5
3A5
330
3F
100
AcDbDictionary
280
     1
281
     1
  3
ACAD_XREC_ROUNDTRIP
360
3A6
  0
DICTIONARY
  5
395
330
37
100
AcDbDictionary
280
     1
281
     1
  3
ACAD_XREC_ROUNDTRIP
360
396
  0
DICTIONARY
  5
387
330
30
100
AcDbDictionary
280
     1
281
     1
  3
ACAD_XREC_ROUNDTRIP
360
388
  0
DICTIONARY
  5
3A7
330
40
100
AcDbDictionary
280
     1
281
     1
  3
ACAD_XREC_ROUNDTRIP
360
3A8
  0
XRECORD
  5
3B1
102
{ACAD_REACTORS
330
3B0
102
}
330
3B0
100
AcDbXrecord
280
     1
102
DISPLAYNAME
  1
Metric50
102
FLAGS
 90
        0
  0
XRECORD
  5
2FE
102
{ACAD_REACTORS
330
2FD
102
}
330
2FD
100
AcDbXrecord
280
     1
102
MATERIAL
148
0.0
149
0.0
149
0.0
 93
        0
 94
      127
282
     0
 72
     1
 77
     1
171
     1
175
     1
179
     1
273
     0
  0
XRECORD
  5
2FC
102
{ACAD_REACTORS
330
2FB
102
}
330
2FB
100
AcDbXrecord
280
     1
102
MATERIAL
148
0.0
149
0.0
149
0.0
 93
        0
 94
      127
282
     0
 72
     1
 77
     1
171
     1
175
     1
179
     1
273
     0
  0
XRECORD
  5
300
102
{ACAD_REACTORS
330
2FF
102
}
330
2FF
100
AcDbXrecord
280
     1
102
MATERIAL
148
0.0
149
0.0
149
0.0
 93
        0
 94
      127
282
     0
 72
     1
 77
     1
171
     1
175
     1
179
     1
273
     0
  0
XRECORD
  5
3AF
102
{ACAD_REACTORS
330
3AE
102
}
330
3AE
100
AcDbXrecord
280
     1
102
DISPLAYNAME
  1
Metric50
102
FLAGS
 90
        0
  0
CELLSTYLEMAP
  5
37B
102
{ACAD_REACTORS
330
301
102
}
330
301
100
AcDbCellStyleMap
 90
        3
300
CELLSTYLE
  1
TABLEFORMAT_BEGIN
 90
        5
170
     1
 91
        0
 92
    32768
 62
   257
 93
        1
300
CONTENTFORMAT
  1
CONTENTFORMAT_BEGIN
 90
        0
 91
        0
 92
        4
 93
        0
300

 40
0.0
140
1.0
 94
        5
 62
     0
340
11
144
0.25
309
CONTENTFORMAT_END
171
     1
301
MARGIN
  1
CELLMARGIN_BEGIN
 40
0.06
 40
0.06
 40
0.06
 40
0.06
 40
0.18
 40
0.18
309
CELLMARGIN_END
 94
        6
 95
        1
302
GRIDFORMAT
  1
GRIDFORMAT_BEGIN
 90
        0
 91
        1
 62
     0
 92
       -2
340
14
 93
        0
 40
0.045
309
GRIDFORMAT_END
 95
        2
302
GRIDFORMAT
  1
GRIDFORMAT_BEGIN
 90
        0
 91
        1
 62
     0
 92
       -2
340
14
 93
        0
 40
0.045
309
GRIDFORMAT_END
 95
        4
302
GRIDFORMAT
  1
GRIDFORMAT_BEGIN
 90
        0
 91
        1
 62
     0
 92
       -2
340
14
 93
        0
 40
0.045
309
GRIDFORMAT_END
 95
        8
302
GRIDFORMAT
  1
GRIDFORMAT_BEGIN
 90
        0
 91
        1
 62
     0
 92
       -2
340
14
 93
        0
 40
0.045
309
GRIDFORMAT_END
 95
       16
302
GRIDFORMAT
  1
GRIDFORMAT_BEGIN
 90
        0
 91
        1
 62
     0
 92
       -2
340
14
 93
        0
 40
0.045
309
GRIDFORMAT_END
 95
       32
302
GRIDFORMAT
  1
GRIDFORMAT_BEGIN
 90
        0
 91
        1
 62
     0
 92
       -2
340
14
 93
        0
 40
0.045
309
GRIDFORMAT_END
309
TABLEFORMAT_END
  1
CELLSTYLE_BEGIN
 90
        1
 91
        1
300
_TITLE
309
CELLSTYLE_END
300
CELLSTYLE
  1
TABLEFORMAT_BEGIN
 90
        5
170
     1
 91
        0
 92
        0
 62
   257
 93
        1
300
CONTENTFORMAT
  1
CONTENTFORMAT_BEGIN
 90
        0
 91
        0
 92
        4
 93
        0
300

 40
0.0
140
1.0
 94
        5
 62
     0
340
11
144
0.18
309
CONTENTFORMAT_END
171
     1
301
MARGIN
  1
CELLMARGIN_BEGIN
 40
0.06
 40
0.06
 40
0.06
 40
0.06
 40
0.18
 40
0.18
309
CELLMARGIN_END
 94
        6
 95
        1
302
GRIDFORMAT
  1
GRIDFORMAT_BEGIN
 90
        0
 91
        1
 62
     0
 92
       -2
340
14
 93
        0
 40
0.045
309
GRIDFORMAT_END
 95
        2
302
GRIDFORMAT
  1
GRIDFORMAT_BEGIN
 90
        0
 91
        1
 62
     0
 92
       -2
340
14
 93
        0
 40
0.045
309
GRIDFORMAT_END
 95
        4
302
GRIDFORMAT
  1
GRIDFORMAT_BEGIN
 90
        0
 91
        1
 62
     0
 92
       -2
340
14
 93
        0
 40
0.045
309
GRIDFORMAT_END
 95
        8
302
GRIDFORMAT
  1
GRIDFORMAT_BEGIN
 90
        0
 91
        1
 62
     0
 92
       -2
340
14
 93
        0
 40
0.045
309
GRIDFORMAT_END
 95
       16
302
GRIDFORMAT
  1
GRIDFORMAT_BEGIN
 90
        0
 91
        1
 62
     0
 92
       -2
340
14
 93
        0
 40
0.045
309
GRIDFORMAT_END
 95
       32
302
GRIDFORMAT
  1
GRIDFORMAT_BEGIN
 90
        0
 91
        1
 62
     0
 92
       -2
340
14
 93
        0
 40
0.045
309
GRIDFORMAT_END
309
TABLEFORMAT_END
  1
CELLSTYLE_BEGIN
 90
        2
 91
        1
300
_HEADER
309
CELLSTYLE_END
300
CELLSTYLE
  1
TABLEFORMAT_BEGIN
 90
        5
170
     1
 91
        0
 92
        0
 62
   257
 93
        1
300
CONTENTFORMAT
  1
CONTENTFORMAT_BEGIN
 90
        0
 91
        0
 92
        4
 93
        0
300

 40
0.0
140
1.0
 94
        2
 62
     0
340
11
144
0.18
309
CONTENTFORMAT_END
171
     1
301
MARGIN
  1
CELLMARGIN_BEGIN
 40
0.06
 40
0.06
 40
0.06
 40
0.06
 40
0.18
 40
0.18
309
CELLMARGIN_END
 94
        6
 95
        1
302
GRIDFORMAT
  1
GRIDFORMAT_BEGIN
 90
        0
 91
        1
 62
     0
 92
       -2
340
14
 93
        0
 40
0.045
309
GRIDFORMAT_END
 95
        2
302
GRIDFORMAT
  1
GRIDFORMAT_BEGIN
 90
        0
 91
        1
 62
     0
 92
       -2
340
14
 93
        0
 40
0.045
309
GRIDFORMAT_END
 95
        4
302
GRIDFORMAT
  1
GRIDFORMAT_BEGIN
 90
        0
 91
        1
 62
     0
 92
       -2
340
14
 93
        0
 40
0.045
309
GRIDFORMAT_END
 95
        8
302
GRIDFORMAT
  1
GRIDFORMAT_BEGIN
 90
        0
 91
        1
 62
     0
 92
       -2
340
14
 93
        0
 40
0.045
309
GRIDFORMAT_END
 95
       16
302
GRIDFORMAT
  1
GRIDFORMAT_BEGIN
 90
        0
 91
        1
 62
     0
 92
       -2
340
14
 93
        0
 40
0.045
309
GRIDFORMAT_END
 95
       32
302
GRIDFORMAT
  1
GRIDFORMAT_BEGIN
 90
        0
 91
        1
 62
     0
 92
       -2
340
14
 93
        0
 40
0.045
309
GRIDFORMAT_END
309
TABLEFORMAT_END
  1
CELLSTYLE_BEGIN
 90
        3
 91
        2
300
_DATA
309
CELLSTYLE_END
  0
XRECORD
  5
3AD
102
{ACAD_REACTORS
330
301
102
}
330
301
100
AcDbXrecord
280
     1
102
ACAD_ROUNDTRIP_PRE2007_TABLESTYLE
 90
        4
 91
        0
  1

 92
        4
 93
        0
  2

 94
        4
 95
        0
  3

  0
XRECORD
  5
386
102
{ACAD_REACTORS
330
385
102
}
330
385
100
AcDbXrecord
280
     1
102
RTVSPost2010Prop28
280
     1
102
RTVSPost2010PropOp28
 70
     1
102
RTVSPost2010Prop29
280
     1
102
RTVSPost2010PropOp29
 70
     1
102
RTVSPost2010Prop30
280
     0
102
RTVSPost2010PropOp30
 70
     1
102
RTVSPost2010Prop31
280
     0
102
RTVSPost2010PropOp31
 70
     1
102
RTVSPost2010Prop32
280
     0
102
RTVSPost2010PropOp32
 70
     1
102
RTVSPost2010Prop33
280
     0
102
RTVSPost2010PropOp33
 70
     1
102
RTVSPost2010Prop34
280
     0
102
RTVSPost2010PropOp34
 70
     1
102
RTVSPost2010Prop35
280
     0
102
RTVSPost2010PropOp35
 70
     1
102
RTVSPost2010Prop36
280
     0
102
RTVSPost2010PropOp36
 70
     1
102
RTVSPost2010Prop37
 90
       50
102
RTVSPost2010PropOp37
 70
     1
102
RTVSPost2010Prop38
140
0.0
102
RTVSPost2010PropOp38
 70
     1
102
RTVSPost2010Prop39
140
1.0
102
RTVSPost2010PropOp39
 70
     1
102
RTVSPost2010Prop40
 90
        0
102
RTVSPost2010PropOp40
 70
     1
102
RTVSPost2010Prop41ColorIndex
 90
       18
102
RTVSPost2010Prop41ColorRGB
 90
        0
102
RTVSPost2010PropOp41
 70
     1
102
RTVSPost2010Prop42
 90
       50
102
RTVSPost2010PropOp42
 70
     1
102
RTVSPost2010Prop43
 90
        3
102
RTVSPost2010PropOp43
 70
     1
102
RTVSPost2010Prop44ColorIndex
 90
        5
102
RTVSPost2010Prop44ColorRGB
 90
      255
102
RTVSPost2010PropOp44
 70
     1
102
RTVSPost2010Prop45
280
     0
102
RTVSPost2010PropOp45
 70
     1
102
RTVSPost2010Prop46
 90
       50
102
RTVSPost2010PropOp46
 70
     1
102
RTVSPost2010Prop47
 90
       50
102
RTVSPost2010PropOp47
 70
     1
102
RTVSPost2010Prop48
 90
       50
102
RTVSPost2010PropOp48
 70
     1
102
RTVSPost2010Prop49
280
     0
102
RTVSPost2010PropOp49
 70
     1
102
RTVSPost2010Prop50
 90
       50
102
RTVSPost2010PropOp50
 70
     1
102
RTVSPost2010Prop51ColorIndex
 90
      256
102
RTVSPost2010Prop51ColorRGB
 90
-16777216
102
RTVSPost2010PropOp51
 70
     0
102
RTVSPost2010Prop52
140
1.0
102
RTVSPost2010PropOp52
 70
     0
102
RTVSPost2010Prop53
 90
        2
102
RTVSPost2010PropOp53
 70
     1
102
RTVSPost2010Prop54
  1
strokes_ogs.tif
102
RTVSPost2010PropOp54
 70
     1
102
RTVSPost2010Prop55
280
     0
102
RTVSPost2010PropOp55
 70
     1
102
RTVSPost2010Prop56
140
1.0
102
RTVSPost2010PropOp56
 70
     1
102
RTVSPost2010Prop57
140
1.0
102
RTVSPost2010PropOp57
 70
     1
102
RTVSPropertyOp0
 70
     1
102
RTVSPropertyOp1
 70
     1
102
RTVSPropertyOp2
 70
     1
102
RTVSPropertyOp3
 70
     1
102
RTVSPropertyOp4
 70
     1
102
RTVSPropertyOp5
 70
     1
102
RTVSPropertyOp6
 70
     1
102
RTVSPropertyOp7
 70
     1
102
RTVSPropertyOp8
 70
     1
102
RTVSPropertyOp9
 70
     1
102
RTVSPropertyOp10
 70
     1
102
RTVSPropertyOp11
 70
     1
102
RTVSPropertyOp12
 70
     1
102
RTVSPropertyOp13
 70
     1
102
RTVSPropertyOp14
 70
     1
102
RTVSPropertyOp15
 70
     1
102
RTVSPropertyOp16
 70
     1
102
RTVSPropertyOp17
 70
     1
102
RTVSPropertyOp18
 70
     1
102
RTVSPropertyOp19
 70
     1
102
RTVSPropertyOp20
 70
     1
102
RTVSPropertyOp21
 70
     1
102
RTVSPropertyOp22
 70
     1
102
RTVSPropertyOp23
 70
     1
102
RTVSPropertyOp24
 70
     1
102
RTVSPropertyOp25
 70
     1
102
RTVSPropertyOp26
 70
     1
102
RTVSPropertyOp27
 70
     1
102
RTVSPropertyOp28
 70
     1
102
RTVSPropertyOp29
 70
     1
102
RTVSPropertyOp30
 70
     1
102
RTVSPropertyOp31
 70
     1
102
RTVSPropertyOp32
 70
     1
102
RTVSPropertyOp33
 70
     1
102
RTVSPropertyOp34
 70
     1
102
RTVSPropertyOp35
 70
     1
102
RTVSPropertyOp36
 70
     1
102
RTVSPropertyOp37
 70
     1
102
RTVSPropertyOp38
 70
     1
102
RTVSPropertyOp39
 70
     1
102
RTVSPropertyOp40
 70
     1
102
RTVSPropertyOp41
 70
     1
102
RTVSPropertyOp42
 70
     1
102
RTVSPropertyOp43
 70
     1
102
RTVSPropertyOp44
 70
     1
102
RTVSPropertyOp45
 70
     1
102
RTVSPropertyOp46
 70
     1
102
RTVSPropertyOp47
 70
     1
102
RTVSPropertyOp48
 70
     1
102
RTVSPropertyOp49
 70
     1
102
RTVSPropertyOp50
 70
     1
102
RTVSPropertyOp51
 70
     0
102
RTVSPropertyOp52
 70
     0
102
RTVSPropertyOp53
 70
     1
102
RTVSPropertyOp54
 70
     1
102
RTVSPropertyOp55
 70
     1
102
RTVSPropertyOp56
 70
     1
102
RTVSPropertyOp57
 70
     1
102
RTVSPropertyOp58
 70
     1
102
RTVSPropertyOp59
 70
     1
102
RTVSPropertyOp60
 70
     1
102
RTVSPropertyOp61
 70
     1
102
RTVSPropertyOp62
 70
     1
  0
XRECORD
  5
38C
102
{ACAD_REACTORS
330
38B
102
}
330
38B
100
AcDbXrecord
280
     1
102
RTVSPost2010Prop28
280
     0
102
RTVSPost2010PropOp28
 70
     1
102
RTVSPost2010Prop29
280
     1
102
RTVSPost2010PropOp29
 70
     1
102
RTVSPost2010Prop30
280
     1
102
RTVSPost2010PropOp30
 70
     1
102
RTVSPost2010Prop31
280
     0
102
RTVSPost2010PropOp31
 70
     1
102
RTVSPost2010Prop32
280
     0
102
RTVSPost2010PropOp32
 70
     1
102
RTVSPost2010Prop33
280
     0
102
RTVSPost2010PropOp33
 70
     1
102
RTVSPost2010Prop34
280
     0
102
RTVSPost2010PropOp34
 70
     1
102
RTVSPost2010Prop35
280
     0
102
RTVSPost2010PropOp35
 70
     1
102
RTVSPost2010Prop36
280
     0
102
RTVSPost2010PropOp36
 70
     1
102
RTVSPost2010Prop37
 90
       50
102
RTVSPost2010PropOp37
 70
     1
102
RTVSPost2010Prop38
140
0.0
102
RTVSPost2010PropOp38
 70
     1
102
RTVSPost2010Prop39
140
1.0
102
RTVSPost2010PropOp39
 70
     1
102
RTVSPost2010Prop40
 90
        0
102
RTVSPost2010PropOp40
 70
     1
102
RTVSPost2010Prop41ColorIndex
 90
       18
102
RTVSPost2010Prop41ColorRGB
 90
        0
102
RTVSPost2010PropOp41
 70
     1
102
RTVSPost2010Prop42
 90
       50
102
RTVSPost2010PropOp42
 70
     1
102
RTVSPost2010Prop43
 90
        3
102
RTVSPost2010PropOp43
 70
     1
102
RTVSPost2010Prop44ColorIndex
 90
        5
102
RTVSPost2010Prop44ColorRGB
 90
      255
102
RTVSPost2010PropOp44
 70
     1
102
RTVSPost2010Prop45
280
     0
102
RTVSPost2010PropOp45
 70
     1
102
RTVSPost2010Prop46
 90
       50
102
RTVSPost2010PropOp46
 70
     1
102
RTVSPost2010Prop47
 90
       50
102
RTVSPost2010PropOp47
 70
     1
102
RTVSPost2010Prop48
 90
       50
102
RTVSPost2010PropOp48
 70
     1
102
RTVSPost2010Prop49
280
     0
102
RTVSPost2010PropOp49
 70
     1
102
RTVSPost2010Prop50
 90
       50
102
RTVSPost2010PropOp50
 70
     1
102
RTVSPost2010Prop51ColorIndex
 90
      256
102
RTVSPost2010Prop51ColorRGB
 90
-16777216
102
RTVSPost2010PropOp51
 70
     0
102
RTVSPost2010Prop52
140
1.0
102
RTVSPost2010PropOp52
 70
     0
102
RTVSPost2010Prop53
 90
        2
102
RTVSPost2010PropOp53
 70
     1
102
RTVSPost2010Prop54
  1
strokes_ogs.tif
102
RTVSPost2010PropOp54
 70
     1
102
RTVSPost2010Prop55
280
     0
102
RTVSPost2010PropOp55
 70
     1
102
RTVSPost2010Prop56
140
1.0
102
RTVSPost2010PropOp56
 70
     1
102
RTVSPost2010Prop57
140
1.0
102
RTVSPost2010PropOp57
 70
     1
102
RTVSPropertyOp0
 70
     1
102
RTVSPropertyOp1
 70
     1
102
RTVSPropertyOp2
 70
     1
102
RTVSPropertyOp3
 70
     1
102
RTVSPropertyOp4
 70
     1
102
RTVSPropertyOp5
 70
     1
102
RTVSPropertyOp6
 70
     1
102
RTVSPropertyOp7
 70
     1
102
RTVSPropertyOp8
 70
     1
102
RTVSPropertyOp9
 70
     1
102
RTVSPropertyOp10
 70
     1
102
RTVSPropertyOp11
 70
     1
102
RTVSPropertyOp12
 70
     1
102
RTVSPropertyOp13
 70
     1
102
RTVSPropertyOp14
 70
     1
102
RTVSPropertyOp15
 70
     1
102
RTVSPropertyOp16
 70
     1
102
RTVSPropertyOp17
 70
     1
102
RTVSPropertyOp18
 70
     1
102
RTVSPropertyOp19
 70
     1
102
RTVSPropertyOp20
 70
     1
102
RTVSPropertyOp21
 70
     1
102
RTVSPropertyOp22
 70
     1
102
RTVSPropertyOp23
 70
     1
102
RTVSPropertyOp24
 70
     1
102
RTVSPropertyOp25
 70
     1
102
RTVSPropertyOp26
 70
     1
102
RTVSPropertyOp27
 70
     1
102
RTVSPropertyOp28
 70
     1
102
RTVSPropertyOp29
 70
     1
102
RTVSPropertyOp30
 70
     1
102
RTVSPropertyOp31
 70
     1
102
RTVSPropertyOp32
 70
     1
102
RTVSPropertyOp33
 70
     1
102
RTVSPropertyOp34
 70
     1
102
RTVSPropertyOp35
 70
     1
102
RTVSPropertyOp36
 70
     1
102
RTVSPropertyOp37
 70
     1
102
RTVSPropertyOp38
 70
     1
102
RTVSPropertyOp39
 70
     1
102
RTVSPropertyOp40
 70
     1
102
RTVSPropertyOp41
 70
     1
102
RTVSPropertyOp42
 70
     1
102
RTVSPropertyOp43
 70
     1
102
RTVSPropertyOp44
 70
     1
102
RTVSPropertyOp45
 70
     1
102
RTVSPropertyOp46
 70
     1
102
RTVSPropertyOp47
 70
     1
102
RTVSPropertyOp48
 70
     1
102
RTVSPropertyOp49
 70
     1
102
RTVSPropertyOp50
 70
     1
102
RTVSPropertyOp51
 70
     0
102
RTVSPropertyOp52
 70
     0
102
RTVSPropertyOp53
 70
     1
102
RTVSPropertyOp54
 70
     1
102
RTVSPropertyOp55
 70
     1
102
RTVSPropertyOp56
 70
     1
102
RTVSPropertyOp57
 70
     1
102
RTVSPropertyOp58
 70
     1
102
RTVSPropertyOp59
 70
     1
102
RTVSPropertyOp60
 70
     1
102
RTVSPropertyOp61
 70
     1
102
RTVSPropertyOp62
 70
     1
  0
XRECORD
  5
394
102
{ACAD_REACTORS
330
393
102
}
330
393
100
AcDbXrecord
280
     1
102
RTVSPost2010Prop28
280
     0
102
RTVSPost2010PropOp28
 70
     1
102
RTVSPost2010Prop29
280
     1
102
RTVSPost2010PropOp29
 70
     1
102
RTVSPost2010Prop30
280
     1
102
RTVSPost2010PropOp30
 70
     1
102
RTVSPost2010Prop31
280
     0
102
RTVSPost2010PropOp31
 70
     1
102
RTVSPost2010Prop32
280
     0
102
RTVSPost2010PropOp32
 70
     1
102
RTVSPost2010Prop33
280
     0
102
RTVSPost2010PropOp33
 70
     1
102
RTVSPost2010Prop34
280
     0
102
RTVSPost2010PropOp34
 70
     1
102
RTVSPost2010Prop35
280
     0
102
RTVSPost2010PropOp35
 70
     1
102
RTVSPost2010Prop36
280
     0
102
RTVSPost2010PropOp36
 70
     1
102
RTVSPost2010Prop37
 90
       50
102
RTVSPost2010PropOp37
 70
     1
102
RTVSPost2010Prop38
140
0.0
102
RTVSPost2010PropOp38
 70
     1
102
RTVSPost2010Prop39
140
1.0
102
RTVSPost2010PropOp39
 70
     1
102
RTVSPost2010Prop40
 90
        0
102
RTVSPost2010PropOp40
 70
     1
102
RTVSPost2010Prop41ColorIndex
 90
       18
102
RTVSPost2010Prop41ColorRGB
 90
        0
102
RTVSPost2010PropOp41
 70
     1
102
RTVSPost2010Prop42
 90
       50
102
RTVSPost2010PropOp42
 70
     1
102
RTVSPost2010Prop43
 90
        3
102
RTVSPost2010PropOp43
 70
     1
102
RTVSPost2010Prop44ColorIndex
 90
        5
102
RTVSPost2010Prop44ColorRGB
 90
      255
102
RTVSPost2010PropOp44
 70
     1
102
RTVSPost2010Prop45
280
     0
102
RTVSPost2010PropOp45
 70
     1
102
RTVSPost2010Prop46
 90
       50
102
RTVSPost2010PropOp46
 70
     1
102
RTVSPost2010Prop47
 90
       50
102
RTVSPost2010PropOp47
 70
     1
102
RTVSPost2010Prop48
 90
       50
102
RTVSPost2010PropOp48
 70
     1
102
RTVSPost2010Prop49
280
     0
102
RTVSPost2010PropOp49
 70
     1
102
RTVSPost2010Prop50
 90
       50
102
RTVSPost2010PropOp50
 70
     1
102
RTVSPost2010Prop51ColorIndex
 90
      256
102
RTVSPost2010Prop51ColorRGB
 90
-16777216
102
RTVSPost2010PropOp51
 70
     0
102
RTVSPost2010Prop52
140
1.0
102
RTVSPost2010PropOp52
 70
     0
102
RTVSPost2010Prop53
 90
        2
102
RTVSPost2010PropOp53
 70
     1
102
RTVSPost2010Prop54
  1
strokes_ogs.tif
102
RTVSPost2010PropOp54
 70
     1
102
RTVSPost2010Prop55
280
     0
102
RTVSPost2010PropOp55
 70
     1
102
RTVSPost2010Prop56
140
1.0
102
RTVSPost2010PropOp56
 70
     1
102
RTVSPost2010Prop57
140
1.0
102
RTVSPost2010PropOp57
 70
     1
102
RTVSPropertyOp0
 70
     1
102
RTVSPropertyOp1
 70
     1
102
RTVSPropertyOp2
 70
     1
102
RTVSPropertyOp3
 70
     1
102
RTVSPropertyOp4
 70
     1
102
RTVSPropertyOp5
 70
     1
102
RTVSPropertyOp6
 70
     1
102
RTVSPropertyOp7
 70
     1
102
RTVSPropertyOp8
 70
     1
102
RTVSPropertyOp9
 70
     1
102
RTVSPropertyOp10
 70
     1
102
RTVSPropertyOp11
 70
     1
102
RTVSPropertyOp12
 70
     1
102
RTVSPropertyOp13
 70
     1
102
RTVSPropertyOp14
 70
     1
102
RTVSPropertyOp15
 70
     1
102
RTVSPropertyOp16
 70
     1
102
RTVSPropertyOp17
 70
     1
102
RTVSPropertyOp18
 70
     1
102
RTVSPropertyOp19
 70
     1
102
RTVSPropertyOp20
 70
     1
102
RTVSPropertyOp21
 70
     1
102
RTVSPropertyOp22
 70
     1
102
RTVSPropertyOp23
 70
     1
102
RTVSPropertyOp24
 70
     1
102
RTVSPropertyOp25
 70
     1
102
RTVSPropertyOp26
 70
     1
102
RTVSPropertyOp27
 70
     1
102
RTVSPropertyOp28
 70
     1
102
RTVSPropertyOp29
 70
     1
102
RTVSPropertyOp30
 70
     1
102
RTVSPropertyOp31
 70
     1
102
RTVSPropertyOp32
 70
     1
102
RTVSPropertyOp33
 70
     1
102
RTVSPropertyOp34
 70
     1
102
RTVSPropertyOp35
 70
     1
102
RTVSPropertyOp36
 70
     1
102
RTVSPropertyOp37
 70
     1
102
RTVSPropertyOp38
 70
     1
102
RTVSPropertyOp39
 70
     1
102
RTVSPropertyOp40
 70
     1
102
RTVSPropertyOp41
 70
     1
102
RTVSPropertyOp42
 70
     1
102
RTVSPropertyOp43
 70
     1
102
RTVSPropertyOp44
 70
     1
102
RTVSPropertyOp45
 70
     1
102
RTVSPropertyOp46
 70
     1
102
RTVSPropertyOp47
 70
     1
102
RTVSPropertyOp48
 70
     1
102
RTVSPropertyOp49
 70
     1
102
RTVSPropertyOp50
 70
     1
102
RTVSPropertyOp51
 70
     0
102
RTVSPropertyOp52
 70
     0
102
RTVSPropertyOp53
 70
     1
102
RTVSPropertyOp54
 70
     1
102
RTVSPropertyOp55
 70
     1
102
RTVSPropertyOp56
 70
     1
102
RTVSPropertyOp57
 70
     1
102
RTVSPropertyOp58
 70
     1
102
RTVSPropertyOp59
 70
     1
102
RTVSPropertyOp60
 70
     1
102
RTVSPropertyOp61
 70
     1
102
RTVSPropertyOp62
 70
     1
  0
XRECORD
  5
39C
102
{ACAD_REACTORS
330
39B
102
}
330
39B
100
AcDbXrecord
280
     1
102
RTVSPost2010Prop28
280
     0
102
RTVSPost2010PropOp28
 70
     1
102
RTVSPost2010Prop29
280
     1
102
RTVSPost2010PropOp29
 70
     1
102
RTVSPost2010Prop30
280
     1
102
RTVSPost2010PropOp30
 70
     1
102
RTVSPost2010Prop31
280
     0
102
RTVSPost2010PropOp31
 70
     1
102
RTVSPost2010Prop32
280
     0
102
RTVSPost2010PropOp32
 70
     1
102
RTVSPost2010Prop33
280
     0
102
RTVSPost2010PropOp33
 70
     1
102
RTVSPost2010Prop34
280
     0
102
RTVSPost2010PropOp34
 70
     1
102
RTVSPost2010Prop35
280
     0
102
RTVSPost2010PropOp35
 70
     1
102
RTVSPost2010Prop36
280
     0
102
RTVSPost2010PropOp36
 70
     1
102
RTVSPost2010Prop37
 90
       50
102
RTVSPost2010PropOp37
 70
     1
102
RTVSPost2010Prop38
140
0.0
102
RTVSPost2010PropOp38
 70
     1
102
RTVSPost2010Prop39
140
1.0
102
RTVSPost2010PropOp39
 70
     1
102
RTVSPost2010Prop40
 90
        0
102
RTVSPost2010PropOp40
 70
     1
102
RTVSPost2010Prop41ColorIndex
 90
       18
102
RTVSPost2010Prop41ColorRGB
 90
        0
102
RTVSPost2010PropOp41
 70
     1
102
RTVSPost2010Prop42
 90
       50
102
RTVSPost2010PropOp42
 70
     1
102
RTVSPost2010Prop43
 90
        3
102
RTVSPost2010PropOp43
 70
     1
102
RTVSPost2010Prop44ColorIndex
 90
        5
102
RTVSPost2010Prop44ColorRGB
 90
      255
102
RTVSPost2010PropOp44
 70
     1
102
RTVSPost2010Prop45
280
     0
102
RTVSPost2010PropOp45
 70
     1
102
RTVSPost2010Prop46
 90
       50
102
RTVSPost2010PropOp46
 70
     1
102
RTVSPost2010Prop47
 90
       50
102
RTVSPost2010PropOp47
 70
     1
102
RTVSPost2010Prop48
 90
       50
102
RTVSPost2010PropOp48
 70
     1
102
RTVSPost2010Prop49
280
     0
102
RTVSPost2010PropOp49
 70
     1
102
RTVSPost2010Prop50
 90
       50
102
RTVSPost2010PropOp50
 70
     1
102
RTVSPost2010Prop51ColorIndex
 90
      256
102
RTVSPost2010Prop51ColorRGB
 90
-16777216
102
RTVSPost2010PropOp51
 70
     0
102
RTVSPost2010Prop52
140
1.0
102
RTVSPost2010PropOp52
 70
     0
102
RTVSPost2010Prop53
 90
        2
102
RTVSPost2010PropOp53
 70
     1
102
RTVSPost2010Prop54
  1
strokes_ogs.tif
102
RTVSPost2010PropOp54
 70
     1
102
RTVSPost2010Prop55
280
     0
102
RTVSPost2010PropOp55
 70
     1
102
RTVSPost2010Prop56
140
1.0
102
RTVSPost2010PropOp56
 70
     1
102
RTVSPost2010Prop57
140
1.0
102
RTVSPost2010PropOp57
 70
     1
102
RTVSPropertyOp0
 70
     1
102
RTVSPropertyOp1
 70
     1
102
RTVSPropertyOp2
 70
     1
102
RTVSPropertyOp3
 70
     1
102
RTVSPropertyOp4
 70
     1
102
RTVSPropertyOp5
 70
     1
102
RTVSPropertyOp6
 70
     1
102
RTVSPropertyOp7
 70
     1
102
RTVSPropertyOp8
 70
     1
102
RTVSPropertyOp9
 70
     1
102
RTVSPropertyOp10
 70
     1
102
RTVSPropertyOp11
 70
     1
102
RTVSPropertyOp12
 70
     1
102
RTVSPropertyOp13
 70
     1
102
RTVSPropertyOp14
 70
     1
102
RTVSPropertyOp15
 70
     1
102
RTVSPropertyOp16
 70
     1
102
RTVSPropertyOp17
 70
     1
102
RTVSPropertyOp18
 70
     1
102
RTVSPropertyOp19
 70
     1
102
RTVSPropertyOp20
 70
     1
102
RTVSPropertyOp21
 70
     1
102
RTVSPropertyOp22
 70
     1
102
RTVSPropertyOp23
 70
     1
102
RTVSPropertyOp24
 70
     1
102
RTVSPropertyOp25
 70
     1
102
RTVSPropertyOp26
 70
     1
102
RTVSPropertyOp27
 70
     1
102
RTVSPropertyOp28
 70
     1
102
RTVSPropertyOp29
 70
     1
102
RTVSPropertyOp30
 70
     1
102
RTVSPropertyOp31
 70
     1
102
RTVSPropertyOp32
 70
     1
102
RTVSPropertyOp33
 70
     1
102
RTVSPropertyOp34
 70
     1
102
RTVSPropertyOp35
 70
     1
102
RTVSPropertyOp36
 70
     1
102
RTVSPropertyOp37
 70
     1
102
RTVSPropertyOp38
 70
     1
102
RTVSPropertyOp39
 70
     1
102
RTVSPropertyOp40
 70
     1
102
RTVSPropertyOp41
 70
     1
102
RTVSPropertyOp42
 70
     1
102
RTVSPropertyOp43
 70
     1
102
RTVSPropertyOp44
 70
     1
102
RTVSPropertyOp45
 70
     1
102
RTVSPropertyOp46
 70
     1
102
RTVSPropertyOp47
 70
     1
102
RTVSPropertyOp48
 70
     1
102
RTVSPropertyOp49
 70
     1
102
RTVSPropertyOp50
 70
     1
102
RTVSPropertyOp51
 70
     0
102
RTVSPropertyOp52
 70
     0
102
RTVSPropertyOp53
 70
     1
102
RTVSPropertyOp54
 70
     1
102
RTVSPropertyOp55
 70
     1
102
RTVSPropertyOp56
 70
     1
102
RTVSPropertyOp57
 70
     1
102
RTVSPropertyOp58
 70
     1
102
RTVSPropertyOp59
 70
     1
102
RTVSPropertyOp60
 70
     1
102
RTVSPropertyOp61
 70
     1
102
RTVSPropertyOp62
 70
     1
  0
XRECORD
  5
390
102
{ACAD_REACTORS
330
38F
102
}
330
38F
100
AcDbXrecord
280
     1
102
RTVSPost2010Prop28
280
     0
102
RTVSPost2010PropOp28
 70
     1
102
RTVSPost2010Prop29
280
     1
102
RTVSPost2010PropOp29
 70
     1
102
RTVSPost2010Prop30
280
     1
102
RTVSPost2010PropOp30
 70
     1
102
RTVSPost2010Prop31
280
     0
102
RTVSPost2010PropOp31
 70
     1
102
RTVSPost2010Prop32
280
     0
102
RTVSPost2010PropOp32
 70
     1
102
RTVSPost2010Prop33
280
     0
102
RTVSPost2010PropOp33
 70
     1
102
RTVSPost2010Prop34
280
     0
102
RTVSPost2010PropOp34
 70
     1
102
RTVSPost2010Prop35
280
     0
102
RTVSPost2010PropOp35
 70
     1
102
RTVSPost2010Prop36
280
     0
102
RTVSPost2010PropOp36
 70
     1
102
RTVSPost2010Prop37
 90
       50
102
RTVSPost2010PropOp37
 70
     1
102
RTVSPost2010Prop38
140
0.0
102
RTVSPost2010PropOp38
 70
     1
102
RTVSPost2010Prop39
140
1.0
102
RTVSPost2010PropOp39
 70
     1
102
RTVSPost2010Prop40
 90
        0
102
RTVSPost2010PropOp40
 70
     1
102
RTVSPost2010Prop41ColorIndex
 90
       18
102
RTVSPost2010Prop41ColorRGB
 90
        0
102
RTVSPost2010PropOp41
 70
     1
102
RTVSPost2010Prop42
 90
       50
102
RTVSPost2010PropOp42
 70
     1
102
RTVSPost2010Prop43
 90
        3
102
RTVSPost2010PropOp43
 70
     1
102
RTVSPost2010Prop44ColorIndex
 90
        5
102
RTVSPost2010Prop44ColorRGB
 90
      255
102
RTVSPost2010PropOp44
 70
     1
102
RTVSPost2010Prop45
280
     0
102
RTVSPost2010PropOp45
 70
     1
102
RTVSPost2010Prop46
 90
       50
102
RTVSPost2010PropOp46
 70
     1
102
RTVSPost2010Prop47
 90
       50
102
RTVSPost2010PropOp47
 70
     1
102
RTVSPost2010Prop48
 90
       50
102
RTVSPost2010PropOp48
 70
     1
102
RTVSPost2010Prop49
280
     0
102
RTVSPost2010PropOp49
 70
     1
102
RTVSPost2010Prop50
 90
       50
102
RTVSPost2010PropOp50
 70
     1
102
RTVSPost2010Prop51ColorIndex
 90
      256
102
RTVSPost2010Prop51ColorRGB
 90
-16777216
102
RTVSPost2010PropOp51
 70
     0
102
RTVSPost2010Prop52
140
1.0
102
RTVSPost2010PropOp52
 70
     0
102
RTVSPost2010Prop53
 90
        2
102
RTVSPost2010PropOp53
 70
     1
102
RTVSPost2010Prop54
  1
strokes_ogs.tif
102
RTVSPost2010PropOp54
 70
     1
102
RTVSPost2010Prop55
280
     0
102
RTVSPost2010PropOp55
 70
     1
102
RTVSPost2010Prop56
140
1.0
102
RTVSPost2010PropOp56
 70
     1
102
RTVSPost2010Prop57
140
1.0
102
RTVSPost2010PropOp57
 70
     1
102
RTVSPropertyOp0
 70
     1
102
RTVSPropertyOp1
 70
     1
102
RTVSPropertyOp2
 70
     1
102
RTVSPropertyOp3
 70
     1
102
RTVSPropertyOp4
 70
     1
102
RTVSPropertyOp5
 70
     1
102
RTVSPropertyOp6
 70
     1
102
RTVSPropertyOp7
 70
     1
102
RTVSPropertyOp8
 70
     1
102
RTVSPropertyOp9
 70
     1
102
RTVSPropertyOp10
 70
     1
102
RTVSPropertyOp11
 70
     1
102
RTVSPropertyOp12
 70
     1
102
RTVSPropertyOp13
 70
     1
102
RTVSPropertyOp14
 70
     1
102
RTVSPropertyOp15
 70
     1
102
RTVSPropertyOp16
 70
     1
102
RTVSPropertyOp17
 70
     1
102
RTVSPropertyOp18
 70
     1
102
RTVSPropertyOp19
 70
     1
102
RTVSPropertyOp20
 70
     1
102
RTVSPropertyOp21
 70
     1
102
RTVSPropertyOp22
 70
     1
102
RTVSPropertyOp23
 70
     1
102
RTVSPropertyOp24
 70
     1
102
RTVSPropertyOp25
 70
     1
102
RTVSPropertyOp26
 70
     1
102
RTVSPropertyOp27
 70
     1
102
RTVSPropertyOp28
 70
     1
102
RTVSPropertyOp29
 70
     1
102
RTVSPropertyOp30
 70
     1
102
RTVSPropertyOp31
 70
     1
102
RTVSPropertyOp32
 70
     1
102
RTVSPropertyOp33
 70
     1
102
RTVSPropertyOp34
 70
     1
102
RTVSPropertyOp35
 70
     1
102
RTVSPropertyOp36
 70
     1
102
RTVSPropertyOp37
 70
     1
102
RTVSPropertyOp38
 70
     1
102
RTVSPropertyOp39
 70
     1
102
RTVSPropertyOp40
 70
     1
102
RTVSPropertyOp41
 70
     1
102
RTVSPropertyOp42
 70
     1
102
RTVSPropertyOp43
 70
     1
102
RTVSPropertyOp44
 70
     1
102
RTVSPropertyOp45
 70
     1
102
RTVSPropertyOp46
 70
     1
102
RTVSPropertyOp47
 70
     1
102
RTVSPropertyOp48
 70
     1
102
RTVSPropertyOp49
 70
     1
102
RTVSPropertyOp50
 70
     1
102
RTVSPropertyOp51
 70
     0
102
RTVSPropertyOp52
 70
     0
102
RTVSPropertyOp53
 70
     1
102
RTVSPropertyOp54
 70
     1
102
RTVSPropertyOp55
 70
     1
102
RTVSPropertyOp56
 70
     1
102
RTVSPropertyOp57
 70
     1
102
RTVSPropertyOp58
 70
     1
102
RTVSPropertyOp59
 70
     1
102
RTVSPropertyOp60
 70
     1
102
RTVSPropertyOp61
 70
     1
102
RTVSPropertyOp62
 70
     1
  0
XRECORD
  5
392
102
{ACAD_REACTORS
330
391
102
}
330
391
100
AcDbXrecord
280
     1
102
RTVSPost2010Prop28
280
     0
102
RTVSPost2010PropOp28
 70
     1
102
RTVSPost2010Prop29
280
     1
102
RTVSPost2010PropOp29
 70
     1
102
RTVSPost2010Prop30
280
     1
102
RTVSPost2010PropOp30
 70
     1
102
RTVSPost2010Prop31
280
     0
102
RTVSPost2010PropOp31
 70
     1
102
RTVSPost2010Prop32
280
     0
102
RTVSPost2010PropOp32
 70
     1
102
RTVSPost2010Prop33
280
     0
102
RTVSPost2010PropOp33
 70
     1
102
RTVSPost2010Prop34
280
     0
102
RTVSPost2010PropOp34
 70
     1
102
RTVSPost2010Prop35
280
     0
102
RTVSPost2010PropOp35
 70
     1
102
RTVSPost2010Prop36
280
     0
102
RTVSPost2010PropOp36
 70
     1
102
RTVSPost2010Prop37
 90
       50
102
RTVSPost2010PropOp37
 70
     1
102
RTVSPost2010Prop38
140
0.0
102
RTVSPost2010PropOp38
 70
     1
102
RTVSPost2010Prop39
140
1.0
102
RTVSPost2010PropOp39
 70
     1
102
RTVSPost2010Prop40
 90
        0
102
RTVSPost2010PropOp40
 70
     1
102
RTVSPost2010Prop41ColorIndex
 90
       18
102
RTVSPost2010Prop41ColorRGB
 90
        0
102
RTVSPost2010PropOp41
 70
     1
102
RTVSPost2010Prop42
 90
       50
102
RTVSPost2010PropOp42
 70
     1
102
RTVSPost2010Prop43
 90
        3
102
RTVSPost2010PropOp43
 70
     1
102
RTVSPost2010Prop44ColorIndex
 90
        5
102
RTVSPost2010Prop44ColorRGB
 90
      255
102
RTVSPost2010PropOp44
 70
     1
102
RTVSPost2010Prop45
280
     0
102
RTVSPost2010PropOp45
 70
     1
102
RTVSPost2010Prop46
 90
       50
102
RTVSPost2010PropOp46
 70
     1
102
RTVSPost2010Prop47
 90
       50
102
RTVSPost2010PropOp47
 70
     1
102
RTVSPost2010Prop48
 90
       50
102
RTVSPost2010PropOp48
 70
     1
102
RTVSPost2010Prop49
280
     0
102
RTVSPost2010PropOp49
 70
     1
102
RTVSPost2010Prop50
 90
       50
102
RTVSPost2010PropOp50
 70
     1
102
RTVSPost2010Prop51ColorIndex
 90
      256
102
RTVSPost2010Prop51ColorRGB
 90
-16777216
102
RTVSPost2010PropOp51
 70
     0
102
RTVSPost2010Prop52
140
1.0
102
RTVSPost2010PropOp52
 70
     0
102
RTVSPost2010Prop53
 90
        2
102
RTVSPost2010PropOp53
 70
     1
102
RTVSPost2010Prop54
  1
strokes_ogs.tif
102
RTVSPost2010PropOp54
 70
     1
102
RTVSPost2010Prop55
280
     0
102
RTVSPost2010PropOp55
 70
     1
102
RTVSPost2010Prop56
140
1.0
102
RTVSPost2010PropOp56
 70
     1
102
RTVSPost2010Prop57
140
1.0
102
RTVSPost2010PropOp57
 70
     1
102
RTVSPropertyOp0
 70
     1
102
RTVSPropertyOp1
 70
     1
102
RTVSPropertyOp2
 70
     1
102
RTVSPropertyOp3
 70
     1
102
RTVSPropertyOp4
 70
     1
102
RTVSPropertyOp5
 70
     1
102
RTVSPropertyOp6
 70
     1
102
RTVSPropertyOp7
 70
     1
102
RTVSPropertyOp8
 70
     1
102
RTVSPropertyOp9
 70
     1
102
RTVSPropertyOp10
 70
     1
102
RTVSPropertyOp11
 70
     1
102
RTVSPropertyOp12
 70
     1
102
RTVSPropertyOp13
 70
     1
102
RTVSPropertyOp14
 70
     1
102
RTVSPropertyOp15
 70
     1
102
RTVSPropertyOp16
 70
     1
102
RTVSPropertyOp17
 70
     1
102
RTVSPropertyOp18
 70
     1
102
RTVSPropertyOp19
 70
     1
102
RTVSPropertyOp20
 70
     1
102
RTVSPropertyOp21
 70
     1
102
RTVSPropertyOp22
 70
     1
102
RTVSPropertyOp23
 70
     1
102
RTVSPropertyOp24
 70
     1
102
RTVSPropertyOp25
 70
     1
102
RTVSPropertyOp26
 70
     1
102
RTVSPropertyOp27
 70
     1
102
RTVSPropertyOp28
 70
     1
102
RTVSPropertyOp29
 70
     1
102
RTVSPropertyOp30
 70
     1
102
RTVSPropertyOp31
 70
     1
102
RTVSPropertyOp32
 70
     1
102
RTVSPropertyOp33
 70
     1
102
RTVSPropertyOp34
 70
     1
102
RTVSPropertyOp35
 70
     1
102
RTVSPropertyOp36
 70
     1
102
RTVSPropertyOp37
 70
     1
102
RTVSPropertyOp38
 70
     1
102
RTVSPropertyOp39
 70
     1
102
RTVSPropertyOp40
 70
     1
102
RTVSPropertyOp41
 70
     1
102
RTVSPropertyOp42
 70
     1
102
RTVSPropertyOp43
 70
     1
102
RTVSPropertyOp44
 70
     1
102
RTVSPropertyOp45
 70
     1
102
RTVSPropertyOp46
 70
     1
102
RTVSPropertyOp47
 70
     1
102
RTVSPropertyOp48
 70
     1
102
RTVSPropertyOp49
 70
     1
102
RTVSPropertyOp50
 70
     1
102
RTVSPropertyOp51
 70
     0
102
RTVSPropertyOp52
 70
     0
102
RTVSPropertyOp53
 70
     1
102
RTVSPropertyOp54
 70
     1
102
RTVSPropertyOp55
 70
     1
102
RTVSPropertyOp56
 70
     1
102
RTVSPropertyOp57
 70
     1
102
RTVSPropertyOp58
 70
     1
102
RTVSPropertyOp59
 70
     1
102
RTVSPropertyOp60
 70
     1
102
RTVSPropertyOp61
 70
     1
102
RTVSPropertyOp62
 70
     1
  0
XRECORD
  5
3A2
102
{ACAD_REACTORS
330
3A1
102
}
330
3A1
100
AcDbXrecord
280
     1
102
RTVSPost2010Prop28
280
     0
102
RTVSPost2010PropOp28
 70
     0
102
RTVSPost2010Prop29
280
     1
102
RTVSPost2010PropOp29
 70
     0
102
RTVSPost2010Prop30
280
     1
102
RTVSPost2010PropOp30
 70
     0
102
RTVSPost2010Prop31
280
     0
102
RTVSPost2010PropOp31
 70
     0
102
RTVSPost2010Prop32
280
     0
102
RTVSPost2010PropOp32
 70
     0
102
RTVSPost2010Prop33
280
     0
102
RTVSPost2010PropOp33
 70
     0
102
RTVSPost2010Prop34
280
     0
102
RTVSPost2010PropOp34
 70
     0
102
RTVSPost2010Prop35
280
     0
102
RTVSPost2010PropOp35
 70
     0
102
RTVSPost2010Prop36
280
     0
102
RTVSPost2010PropOp36
 70
     0
102
RTVSPost2010Prop37
 90
       50
102
RTVSPost2010PropOp37
 70
     0
102
RTVSPost2010Prop38
140
0.0
102
RTVSPost2010PropOp38
 70
     0
102
RTVSPost2010Prop39
140
1.0
102
RTVSPost2010PropOp39
 70
     0
102
RTVSPost2010Prop40
 90
        0
102
RTVSPost2010PropOp40
 70
     0
102
RTVSPost2010Prop41ColorIndex
 90
       18
102
RTVSPost2010Prop41ColorRGB
 90
        0
102
RTVSPost2010PropOp41
 70
     0
102
RTVSPost2010Prop42
 90
       50
102
RTVSPost2010PropOp42
 70
     0
102
RTVSPost2010Prop43
 90
        3
102
RTVSPost2010PropOp43
 70
     0
102
RTVSPost2010Prop44ColorIndex
 90
        5
102
RTVSPost2010Prop44ColorRGB
 90
      255
102
RTVSPost2010PropOp44
 70
     0
102
RTVSPost2010Prop45
280
     0
102
RTVSPost2010PropOp45
 70
     0
102
RTVSPost2010Prop46
 90
       50
102
RTVSPost2010PropOp46
 70
     0
102
RTVSPost2010Prop47
 90
       50
102
RTVSPost2010PropOp47
 70
     0
102
RTVSPost2010Prop48
 90
       50
102
RTVSPost2010PropOp48
 70
     0
102
RTVSPost2010Prop49
280
     0
102
RTVSPost2010PropOp49
 70
     0
102
RTVSPost2010Prop50
 90
       50
102
RTVSPost2010PropOp50
 70
     0
102
RTVSPost2010Prop51ColorIndex
 90
      256
102
RTVSPost2010Prop51ColorRGB
 90
-16777216
102
RTVSPost2010PropOp51
 70
     0
102
RTVSPost2010Prop52
140
1.0
102
RTVSPost2010PropOp52
 70
     0
102
RTVSPost2010Prop53
 90
        2
102
RTVSPost2010PropOp53
 70
     0
102
RTVSPost2010Prop54
  1
strokes_ogs.tif
102
RTVSPost2010PropOp54
 70
     0
102
RTVSPost2010Prop55
280
     0
102
RTVSPost2010PropOp55
 70
     0
102
RTVSPost2010Prop56
140
1.0
102
RTVSPost2010PropOp56
 70
     0
102
RTVSPost2010Prop57
140
1.0
102
RTVSPost2010PropOp57
 70
     0
102
RTVSPropertyOp0
 70
     0
102
RTVSPropertyOp1
 70
     0
102
RTVSPropertyOp2
 70
     0
102
RTVSPropertyOp3
 70
     0
102
RTVSPropertyOp4
 70
     0
102
RTVSPropertyOp5
 70
     0
102
RTVSPropertyOp6
 70
     0
102
RTVSPropertyOp7
 70
     0
102
RTVSPropertyOp8
 70
     0
102
RTVSPropertyOp9
 70
     0
102
RTVSPropertyOp10
 70
     0
102
RTVSPropertyOp11
 70
     0
102
RTVSPropertyOp12
 70
     0
102
RTVSPropertyOp13
 70
     0
102
RTVSPropertyOp14
 70
     2
102
RTVSPropertyOp15
 70
     0
102
RTVSPropertyOp16
 70
     0
102
RTVSPropertyOp17
 70
     0
102
RTVSPropertyOp18
 70
     0
102
RTVSPropertyOp19
 70
     0
102
RTVSPropertyOp20
 70
     0
102
RTVSPropertyOp21
 70
     0
102
RTVSPropertyOp22
 70
     0
102
RTVSPropertyOp23
 70
     0
102
RTVSPropertyOp24
 70
     0
102
RTVSPropertyOp25
 70
     0
102
RTVSPropertyOp26
 70
     0
102
RTVSPropertyOp27
 70
     0
102
RTVSPropertyOp28
 70
     0
102
RTVSPropertyOp29
 70
     0
102
RTVSPropertyOp30
 70
     0
102
RTVSPropertyOp31
 70
     0
102
RTVSPropertyOp32
 70
     0
102
RTVSPropertyOp33
 70
     0
102
RTVSPropertyOp34
 70
     0
102
RTVSPropertyOp35
 70
     0
102
RTVSPropertyOp36
 70
     0
102
RTVSPropertyOp37
 70
     0
102
RTVSPropertyOp38
 70
     0
102
RTVSPropertyOp39
 70
     0
102
RTVSPropertyOp40
 70
     0
102
RTVSPropertyOp41
 70
     0
102
RTVSPropertyOp42
 70
     0
102
RTVSPropertyOp43
 70
     0
102
RTVSPropertyOp44
 70
     0
102
RTVSPropertyOp45
 70
     0
102
RTVSPropertyOp46
 70
     0
102
RTVSPropertyOp47
 70
     0
102
RTVSPropertyOp48
 70
     0
102
RTVSPropertyOp49
 70
     0
102
RTVSPropertyOp50
 70
     0
102
RTVSPropertyOp51
 70
     0
102
RTVSPropertyOp52
 70
     0
102
RTVSPropertyOp53
 70
     0
102
RTVSPropertyOp54
 70
     0
102
RTVSPropertyOp55
 70
     0
102
RTVSPropertyOp56
 70
     0
102
RTVSPropertyOp57
 70
     0
102
RTVSPropertyOp58
 70
     1
102
RTVSPropertyOp59
 70
     1
102
RTVSPropertyOp60
 70
     1
102
RTVSPropertyOp61
 70
     1
102
RTVSPropertyOp62
 70
     1
  0
XRECORD
  5
39A
102
{ACAD_REACTORS
330
399
102
}
330
399
100
AcDbXrecord
280
     1
102
RTVSPost2010Prop28
280
     0
102
RTVSPost2010PropOp28
 70
     1
102
RTVSPost2010Prop29
280
     1
102
RTVSPost2010PropOp29
 70
     1
102
RTVSPost2010Prop30
280
     1
102
RTVSPost2010PropOp30
 70
     1
102
RTVSPost2010Prop31
280
     0
102
RTVSPost2010PropOp31
 70
     1
102
RTVSPost2010Prop32
280
     0
102
RTVSPost2010PropOp32
 70
     1
102
RTVSPost2010Prop33
280
     0
102
RTVSPost2010PropOp33
 70
     1
102
RTVSPost2010Prop34
280
     0
102
RTVSPost2010PropOp34
 70
     1
102
RTVSPost2010Prop35
280
     0
102
RTVSPost2010PropOp35
 70
     1
102
RTVSPost2010Prop36
280
     0
102
RTVSPost2010PropOp36
 70
     1
102
RTVSPost2010Prop37
 90
       50
102
RTVSPost2010PropOp37
 70
     1
102
RTVSPost2010Prop38
140
0.0
102
RTVSPost2010PropOp38
 70
     1
102
RTVSPost2010Prop39
140
1.0
102
RTVSPost2010PropOp39
 70
     1
102
RTVSPost2010Prop40
 90
        0
102
RTVSPost2010PropOp40
 70
     1
102
RTVSPost2010Prop41ColorIndex
 90
       18
102
RTVSPost2010Prop41ColorRGB
 90
        0
102
RTVSPost2010PropOp41
 70
     1
102
RTVSPost2010Prop42
 90
       50
102
RTVSPost2010PropOp42
 70
     1
102
RTVSPost2010Prop43
 90
        3
102
RTVSPost2010PropOp43
 70
     1
102
RTVSPost2010Prop44ColorIndex
 90
        5
102
RTVSPost2010Prop44ColorRGB
 90
      255
102
RTVSPost2010PropOp44
 70
     1
102
RTVSPost2010Prop45
280
     0
102
RTVSPost2010PropOp45
 70
     1
102
RTVSPost2010Prop46
 90
       50
102
RTVSPost2010PropOp46
 70
     1
102
RTVSPost2010Prop47
 90
       50
102
RTVSPost2010PropOp47
 70
     1
102
RTVSPost2010Prop48
 90
       50
102
RTVSPost2010PropOp48
 70
     1
102
RTVSPost2010Prop49
280
     0
102
RTVSPost2010PropOp49
 70
     1
102
RTVSPost2010Prop50
 90
       50
102
RTVSPost2010PropOp50
 70
     1
102
RTVSPost2010Prop51ColorIndex
 90
      256
102
RTVSPost2010Prop51ColorRGB
 90
-16777216
102
RTVSPost2010PropOp51
 70
     0
102
RTVSPost2010Prop52
140
1.0
102
RTVSPost2010PropOp52
 70
     0
102
RTVSPost2010Prop53
 90
        2
102
RTVSPost2010PropOp53
 70
     1
102
RTVSPost2010Prop54
  1
strokes_ogs.tif
102
RTVSPost2010PropOp54
 70
     1
102
RTVSPost2010Prop55
280
     0
102
RTVSPost2010PropOp55
 70
     1
102
RTVSPost2010Prop56
140
1.0
102
RTVSPost2010PropOp56
 70
     1
102
RTVSPost2010Prop57
140
1.0
102
RTVSPost2010PropOp57
 70
     1
102
RTVSPropertyOp0
 70
     1
102
RTVSPropertyOp1
 70
     1
102
RTVSPropertyOp2
 70
     1
102
RTVSPropertyOp3
 70
     1
102
RTVSPropertyOp4
 70
     1
102
RTVSPropertyOp5
 70
     1
102
RTVSPropertyOp6
 70
     1
102
RTVSPropertyOp7
 70
     1
102
RTVSPropertyOp8
 70
     1
102
RTVSPropertyOp9
 70
     1
102
RTVSPropertyOp10
 70
     1
102
RTVSPropertyOp11
 70
     1
102
RTVSPropertyOp12
 70
     1
102
RTVSPropertyOp13
 70
     1
102
RTVSPropertyOp14
 70
     1
102
RTVSPropertyOp15
 70
     1
102
RTVSPropertyOp16
 70
     1
102
RTVSPropertyOp17
 70
     1
102
RTVSPropertyOp18
 70
     1
102
RTVSPropertyOp19
 70
     1
102
RTVSPropertyOp20
 70
     1
102
RTVSPropertyOp21
 70
     1
102
RTVSPropertyOp22
 70
     1
102
RTVSPropertyOp23
 70
     1
102
RTVSPropertyOp24
 70
     1
102
RTVSPropertyOp25
 70
     1
102
RTVSPropertyOp26
 70
     1
102
RTVSPropertyOp27
 70
     1
102
RTVSPropertyOp28
 70
     1
102
RTVSPropertyOp29
 70
     1
102
RTVSPropertyOp30
 70
     1
102
RTVSPropertyOp31
 70
     1
102
RTVSPropertyOp32
 70
     1
102
RTVSPropertyOp33
 70
     1
102
RTVSPropertyOp34
 70
     1
102
RTVSPropertyOp35
 70
     1
102
RTVSPropertyOp36
 70
     1
102
RTVSPropertyOp37
 70
     1
102
RTVSPropertyOp38
 70
     1
102
RTVSPropertyOp39
 70
     1
102
RTVSPropertyOp40
 70
     1
102
RTVSPropertyOp41
 70
     1
102
RTVSPropertyOp42
 70
     1
102
RTVSPropertyOp43
 70
     1
102
RTVSPropertyOp44
 70
     1
102
RTVSPropertyOp45
 70
     1
102
RTVSPropertyOp46
 70
     1
102
RTVSPropertyOp47
 70
     1
102
RTVSPropertyOp48
 70
     1
102
RTVSPropertyOp49
 70
     1
102
RTVSPropertyOp50
 70
     1
102
RTVSPropertyOp51
 70
     0
102
RTVSPropertyOp52
 70
     0
102
RTVSPropertyOp53
 70
     1
102
RTVSPropertyOp54
 70
     1
102
RTVSPropertyOp55
 70
     1
102
RTVSPropertyOp56
 70
     1
102
RTVSPropertyOp57
 70
     1
102
RTVSPropertyOp58
 70
     1
102
RTVSPropertyOp59
 70
     1
102
RTVSPropertyOp60
 70
     1
102
RTVSPropertyOp61
 70
     1
102
RTVSPropertyOp62
 70
     1
  0
XRECORD
  5
37E
102
{ACAD_REACTORS
330
37D
102
}
330
37D
100
AcDbXrecord
280
     1
102
RTVSPost2010Prop28
280
     0
102
RTVSPost2010PropOp28
 70
     1
102
RTVSPost2010Prop29
280
     1
102
RTVSPost2010PropOp29
 70
     1
102
RTVSPost2010Prop30
280
     1
102
RTVSPost2010PropOp30
 70
     1
102
RTVSPost2010Prop31
280
     0
102
RTVSPost2010PropOp31
 70
     1
102
RTVSPost2010Prop32
280
     0
102
RTVSPost2010PropOp32
 70
     1
102
RTVSPost2010Prop33
280
     0
102
RTVSPost2010PropOp33
 70
     1
102
RTVSPost2010Prop34
280
     0
102
RTVSPost2010PropOp34
 70
     1
102
RTVSPost2010Prop35
280
     0
102
RTVSPost2010PropOp35
 70
     1
102
RTVSPost2010Prop36
280
     0
102
RTVSPost2010PropOp36
 70
     1
102
RTVSPost2010Prop37
 90
       50
102
RTVSPost2010PropOp37
 70
     1
102
RTVSPost2010Prop38
140
0.0
102
RTVSPost2010PropOp38
 70
     1
102
RTVSPost2010Prop39
140
1.0
102
RTVSPost2010PropOp39
 70
     1
102
RTVSPost2010Prop40
 90
        0
102
RTVSPost2010PropOp40
 70
     1
102
RTVSPost2010Prop41ColorIndex
 90
       18
102
RTVSPost2010Prop41ColorRGB
 90
        0
102
RTVSPost2010PropOp41
 70
     1
102
RTVSPost2010Prop42
 90
       50
102
RTVSPost2010PropOp42
 70
     1
102
RTVSPost2010Prop43
 90
        3
102
RTVSPost2010PropOp43
 70
     1
102
RTVSPost2010Prop44ColorIndex
 90
        5
102
RTVSPost2010Prop44ColorRGB
 90
      255
102
RTVSPost2010PropOp44
 70
     1
102
RTVSPost2010Prop45
280
     0
102
RTVSPost2010PropOp45
 70
     1
102
RTVSPost2010Prop46
 90
       50
102
RTVSPost2010PropOp46
 70
     1
102
RTVSPost2010Prop47
 90
       50
102
RTVSPost2010PropOp47
 70
     1
102
RTVSPost2010Prop48
 90
       50
102
RTVSPost2010PropOp48
 70
     1
102
RTVSPost2010Prop49
280
     0
102
RTVSPost2010PropOp49
 70
     1
102
RTVSPost2010Prop50
 90
       50
102
RTVSPost2010PropOp50
 70
     1
102
RTVSPost2010Prop51ColorIndex
 90
      256
102
RTVSPost2010Prop51ColorRGB
 90
-16777216
102
RTVSPost2010PropOp51
 70
     0
102
RTVSPost2010Prop52
140
1.0
102
RTVSPost2010PropOp52
 70
     0
102
RTVSPost2010Prop53
 90
        2
102
RTVSPost2010PropOp53
 70
     1
102
RTVSPost2010Prop54
  1
strokes_ogs.tif
102
RTVSPost2010PropOp54
 70
     1
102
RTVSPost2010Prop55
280
     0
102
RTVSPost2010PropOp55
 70
     1
102
RTVSPost2010Prop56
140
1.0
102
RTVSPost2010PropOp56
 70
     1
102
RTVSPost2010Prop57
140
1.0
102
RTVSPost2010PropOp57
 70
     1
102
RTVSPropertyOp0
 70
     1
102
RTVSPropertyOp1
 70
     1
102
RTVSPropertyOp2
 70
     1
102
RTVSPropertyOp3
 70
     1
102
RTVSPropertyOp4
 70
     1
102
RTVSPropertyOp5
 70
     1
102
RTVSPropertyOp6
 70
     1
102
RTVSPropertyOp7
 70
     1
102
RTVSPropertyOp8
 70
     1
102
RTVSPropertyOp9
 70
     1
102
RTVSPropertyOp10
 70
     1
102
RTVSPropertyOp11
 70
     1
102
RTVSPropertyOp12
 70
     1
102
RTVSPropertyOp13
 70
     1
102
RTVSPropertyOp14
 70
     1
102
RTVSPropertyOp15
 70
     1
102
RTVSPropertyOp16
 70
     1
102
RTVSPropertyOp17
 70
     1
102
RTVSPropertyOp18
 70
     1
102
RTVSPropertyOp19
 70
     1
102
RTVSPropertyOp20
 70
     1
102
RTVSPropertyOp21
 70
     1
102
RTVSPropertyOp22
 70
     1
102
RTVSPropertyOp23
 70
     1
102
RTVSPropertyOp24
 70
     1
102
RTVSPropertyOp25
 70
     1
102
RTVSPropertyOp26
 70
     1
102
RTVSPropertyOp27
 70
     1
102
RTVSPropertyOp28
 70
     1
102
RTVSPropertyOp29
 70
     1
102
RTVSPropertyOp30
 70
     1
102
RTVSPropertyOp31
 70
     1
102
RTVSPropertyOp32
 70
     1
102
RTVSPropertyOp33
 70
     1
102
RTVSPropertyOp34
 70
     1
102
RTVSPropertyOp35
 70
     1
102
RTVSPropertyOp36
 70
     1
102
RTVSPropertyOp37
 70
     1
102
RTVSPropertyOp38
 70
     1
102
RTVSPropertyOp39
 70
     1
102
RTVSPropertyOp40
 70
     1
102
RTVSPropertyOp41
 70
     1
102
RTVSPropertyOp42
 70
     1
102
RTVSPropertyOp43
 70
     1
102
RTVSPropertyOp44
 70
     1
102
RTVSPropertyOp45
 70
     1
102
RTVSPropertyOp46
 70
     1
102
RTVSPropertyOp47
 70
     1
102
RTVSPropertyOp48
 70
     1
102
RTVSPropertyOp49
 70
     1
102
RTVSPropertyOp50
 70
     1
102
RTVSPropertyOp51
 70
     0
102
RTVSPropertyOp52
 70
     0
102
RTVSPropertyOp53
 70
     1
102
RTVSPropertyOp54
 70
     1
102
RTVSPropertyOp55
 70
     1
102
RTVSPropertyOp56
 70
     1
102
RTVSPropertyOp57
 70
     1
102
RTVSPropertyOp58
 70
     1
102
RTVSPropertyOp59
 70
     1
102
RTVSPropertyOp60
 70
     1
102
RTVSPropertyOp61
 70
     1
102
RTVSPropertyOp62
 70
     1
  0
XRECORD
  5
380
102
{ACAD_REACTORS
330
37F
102
}
330
37F
100
AcDbXrecord
280
     1
102
RTVSPost2010Prop28
280
     0
102
RTVSPost2010PropOp28
 70
     1
102
RTVSPost2010Prop29
280
     1
102
RTVSPost2010PropOp29
 70
     1
102
RTVSPost2010Prop30
280
     1
102
RTVSPost2010PropOp30
 70
     1
102
RTVSPost2010Prop31
280
     0
102
RTVSPost2010PropOp31
 70
     1
102
RTVSPost2010Prop32
280
     0
102
RTVSPost2010PropOp32
 70
     1
102
RTVSPost2010Prop33
280
     0
102
RTVSPost2010PropOp33
 70
     1
102
RTVSPost2010Prop34
280
     0
102
RTVSPost2010PropOp34
 70
     1
102
RTVSPost2010Prop35
280
     0
102
RTVSPost2010PropOp35
 70
     1
102
RTVSPost2010Prop36
280
     0
102
RTVSPost2010PropOp36
 70
     1
102
RTVSPost2010Prop37
 90
       50
102
RTVSPost2010PropOp37
 70
     1
102
RTVSPost2010Prop38
140
0.0
102
RTVSPost2010PropOp38
 70
     1
102
RTVSPost2010Prop39
140
1.0
102
RTVSPost2010PropOp39
 70
     1
102
RTVSPost2010Prop40
 90
        0
102
RTVSPost2010PropOp40
 70
     1
102
RTVSPost2010Prop41ColorIndex
 90
       18
102
RTVSPost2010Prop41ColorRGB
 90
        0
102
RTVSPost2010PropOp41
 70
     1
102
RTVSPost2010Prop42
 90
       50
102
RTVSPost2010PropOp42
 70
     1
102
RTVSPost2010Prop43
 90
        3
102
RTVSPost2010PropOp43
 70
     1
102
RTVSPost2010Prop44ColorIndex
 90
        5
102
RTVSPost2010Prop44ColorRGB
 90
      255
102
RTVSPost2010PropOp44
 70
     1
102
RTVSPost2010Prop45
280
     0
102
RTVSPost2010PropOp45
 70
     1
102
RTVSPost2010Prop46
 90
       50
102
RTVSPost2010PropOp46
 70
     1
102
RTVSPost2010Prop47
 90
       50
102
RTVSPost2010PropOp47
 70
     1
102
RTVSPost2010Prop48
 90
       50
102
RTVSPost2010PropOp48
 70
     1
102
RTVSPost2010Prop49
280
     0
102
RTVSPost2010PropOp49
 70
     1
102
RTVSPost2010Prop50
 90
       50
102
RTVSPost2010PropOp50
 70
     1
102
RTVSPost2010Prop51ColorIndex
 90
      256
102
RTVSPost2010Prop51ColorRGB
 90
-16777216
102
RTVSPost2010PropOp51
 70
     0
102
RTVSPost2010Prop52
140
1.0
102
RTVSPost2010PropOp52
 70
     0
102
RTVSPost2010Prop53
 90
        2
102
RTVSPost2010PropOp53
 70
     1
102
RTVSPost2010Prop54
  1
strokes_ogs.tif
102
RTVSPost2010PropOp54
 70
     1
102
RTVSPost2010Prop55
280
     0
102
RTVSPost2010PropOp55
 70
     1
102
RTVSPost2010Prop56
140
1.0
102
RTVSPost2010PropOp56
 70
     1
102
RTVSPost2010Prop57
140
1.0
102
RTVSPost2010PropOp57
 70
     1
102
RTVSPropertyOp0
 70
     1
102
RTVSPropertyOp1
 70
     1
102
RTVSPropertyOp2
 70
     1
102
RTVSPropertyOp3
 70
     1
102
RTVSPropertyOp4
 70
     1
102
RTVSPropertyOp5
 70
     1
102
RTVSPropertyOp6
 70
     1
102
RTVSPropertyOp7
 70
     1
102
RTVSPropertyOp8
 70
     1
102
RTVSPropertyOp9
 70
     1
102
RTVSPropertyOp10
 70
     1
102
RTVSPropertyOp11
 70
     1
102
RTVSPropertyOp12
 70
     1
102
RTVSPropertyOp13
 70
     1
102
RTVSPropertyOp14
 70
     1
102
RTVSPropertyOp15
 70
     1
102
RTVSPropertyOp16
 70
     1
102
RTVSPropertyOp17
 70
     1
102
RTVSPropertyOp18
 70
     1
102
RTVSPropertyOp19
 70
     1
102
RTVSPropertyOp20
 70
     1
102
RTVSPropertyOp21
 70
     1
102
RTVSPropertyOp22
 70
     1
102
RTVSPropertyOp23
 70
     1
102
RTVSPropertyOp24
 70
     1
102
RTVSPropertyOp25
 70
     1
102
RTVSPropertyOp26
 70
     1
102
RTVSPropertyOp27
 70
     1
102
RTVSPropertyOp28
 70
     1
102
RTVSPropertyOp29
 70
     1
102
RTVSPropertyOp30
 70
     1
102
RTVSPropertyOp31
 70
     1
102
RTVSPropertyOp32
 70
     1
102
RTVSPropertyOp33
 70
     1
102
RTVSPropertyOp34
 70
     1
102
RTVSPropertyOp35
 70
     1
102
RTVSPropertyOp36
 70
     1
102
RTVSPropertyOp37
 70
     1
102
RTVSPropertyOp38
 70
     1
102
RTVSPropertyOp39
 70
     1
102
RTVSPropertyOp40
 70
     1
102
RTVSPropertyOp41
 70
     1
102
RTVSPropertyOp42
 70
     1
102
RTVSPropertyOp43
 70
     1
102
RTVSPropertyOp44
 70
     1
102
RTVSPropertyOp45
 70
     1
102
RTVSPropertyOp46
 70
     1
102
RTVSPropertyOp47
 70
     1
102
RTVSPropertyOp48
 70
     1
102
RTVSPropertyOp49
 70
     1
102
RTVSPropertyOp50
 70
     1
102
RTVSPropertyOp51
 70
     0
102
RTVSPropertyOp52
 70
     0
102
RTVSPropertyOp53
 70
     1
102
RTVSPropertyOp54
 70
     1
102
RTVSPropertyOp55
 70
     1
102
RTVSPropertyOp56
 70
     1
102
RTVSPropertyOp57
 70
     1
102
RTVSPropertyOp58
 70
     1
102
RTVSPropertyOp59
 70
     1
102
RTVSPropertyOp60
 70
     1
102
RTVSPropertyOp61
 70
     1
102
RTVSPropertyOp62
 70
     1
  0
XRECORD
  5
382
102
{ACAD_REACTORS
330
381
102
}
330
381
100
AcDbXrecord
280
     1
102
RTVSPost2010Prop28
280
     0
102
RTVSPost2010PropOp28
 70
     1
102
RTVSPost2010Prop29
280
     1
102
RTVSPost2010PropOp29
 70
     1
102
RTVSPost2010Prop30
280
     1
102
RTVSPost2010PropOp30
 70
     1
102
RTVSPost2010Prop31
280
     0
102
RTVSPost2010PropOp31
 70
     1
102
RTVSPost2010Prop32
280
     0
102
RTVSPost2010PropOp32
 70
     1
102
RTVSPost2010Prop33
280
     0
102
RTVSPost2010PropOp33
 70
     1
102
RTVSPost2010Prop34
280
     0
102
RTVSPost2010PropOp34
 70
     1
102
RTVSPost2010Prop35
280
     0
102
RTVSPost2010PropOp35
 70
     1
102
RTVSPost2010Prop36
280
     0
102
RTVSPost2010PropOp36
 70
     1
102
RTVSPost2010Prop37
 90
       50
102
RTVSPost2010PropOp37
 70
     1
102
RTVSPost2010Prop38
140
0.0
102
RTVSPost2010PropOp38
 70
     1
102
RTVSPost2010Prop39
140
1.0
102
RTVSPost2010PropOp39
 70
     1
102
RTVSPost2010Prop40
 90
        0
102
RTVSPost2010PropOp40
 70
     1
102
RTVSPost2010Prop41ColorIndex
 90
       18
102
RTVSPost2010Prop41ColorRGB
 90
        0
102
RTVSPost2010PropOp41
 70
     1
102
RTVSPost2010Prop42
 90
       50
102
RTVSPost2010PropOp42
 70
     1
102
RTVSPost2010Prop43
 90
        3
102
RTVSPost2010PropOp43
 70
     1
102
RTVSPost2010Prop44ColorIndex
 90
        5
102
RTVSPost2010Prop44ColorRGB
 90
      255
102
RTVSPost2010PropOp44
 70
     1
102
RTVSPost2010Prop45
280
     0
102
RTVSPost2010PropOp45
 70
     1
102
RTVSPost2010Prop46
 90
       50
102
RTVSPost2010PropOp46
 70
     1
102
RTVSPost2010Prop47
 90
       50
102
RTVSPost2010PropOp47
 70
     1
102
RTVSPost2010Prop48
 90
       50
102
RTVSPost2010PropOp48
 70
     1
102
RTVSPost2010Prop49
280
     0
102
RTVSPost2010PropOp49
 70
     1
102
RTVSPost2010Prop50
 90
       50
102
RTVSPost2010PropOp50
 70
     1
102
RTVSPost2010Prop51ColorIndex
 90
      256
102
RTVSPost2010Prop51ColorRGB
 90
-16777216
102
RTVSPost2010PropOp51
 70
     0
102
RTVSPost2010Prop52
140
1.0
102
RTVSPost2010PropOp52
 70
     0
102
RTVSPost2010Prop53
 90
        2
102
RTVSPost2010PropOp53
 70
     1
102
RTVSPost2010Prop54
  1
strokes_ogs.tif
102
RTVSPost2010PropOp54
 70
     1
102
RTVSPost2010Prop55
280
     0
102
RTVSPost2010PropOp55
 70
     1
102
RTVSPost2010Prop56
140
1.0
102
RTVSPost2010PropOp56
 70
     1
102
RTVSPost2010Prop57
140
1.0
102
RTVSPost2010PropOp57
 70
     1
102
RTVSPropertyOp0
 70
     1
102
RTVSPropertyOp1
 70
     1
102
RTVSPropertyOp2
 70
     1
102
RTVSPropertyOp3
 70
     1
102
RTVSPropertyOp4
 70
     1
102
RTVSPropertyOp5
 70
     1
102
RTVSPropertyOp6
 70
     1
102
RTVSPropertyOp7
 70
     1
102
RTVSPropertyOp8
 70
     1
102
RTVSPropertyOp9
 70
     1
102
RTVSPropertyOp10
 70
     1
102
RTVSPropertyOp11
 70
     1
102
RTVSPropertyOp12
 70
     1
102
RTVSPropertyOp13
 70
     1
102
RTVSPropertyOp14
 70
     1
102
RTVSPropertyOp15
 70
     1
102
RTVSPropertyOp16
 70
     1
102
RTVSPropertyOp17
 70
     1
102
RTVSPropertyOp18
 70
     1
102
RTVSPropertyOp19
 70
     1
102
RTVSPropertyOp20
 70
     1
102
RTVSPropertyOp21
 70
     1
102
RTVSPropertyOp22
 70
     1
102
RTVSPropertyOp23
 70
     1
102
RTVSPropertyOp24
 70
     1
102
RTVSPropertyOp25
 70
     1
102
RTVSPropertyOp26
 70
     1
102
RTVSPropertyOp27
 70
     1
102
RTVSPropertyOp28
 70
     1
102
RTVSPropertyOp29
 70
     1
102
RTVSPropertyOp30
 70
     1
102
RTVSPropertyOp31
 70
     1
102
RTVSPropertyOp32
 70
     1
102
RTVSPropertyOp33
 70
     1
102
RTVSPropertyOp34
 70
     1
102
RTVSPropertyOp35
 70
     1
102
RTVSPropertyOp36
 70
     1
102
RTVSPropertyOp37
 70
     1
102
RTVSPropertyOp38
 70
     1
102
RTVSPropertyOp39
 70
     1
102
RTVSPropertyOp40
 70
     1
102
RTVSPropertyOp41
 70
     1
102
RTVSPropertyOp42
 70
     1
102
RTVSPropertyOp43
 70
     1
102
RTVSPropertyOp44
 70
     1
102
RTVSPropertyOp45
 70
     1
102
RTVSPropertyOp46
 70
     1
102
RTVSPropertyOp47
 70
     1
102
RTVSPropertyOp48
 70
     1
102
RTVSPropertyOp49
 70
     1
102
RTVSPropertyOp50
 70
     1
102
RTVSPropertyOp51
 70
     0
102
RTVSPropertyOp52
 70
     0
102
RTVSPropertyOp53
 70
     1
102
RTVSPropertyOp54
 70
     1
102
RTVSPropertyOp55
 70
     1
102
RTVSPropertyOp56
 70
     1
102
RTVSPropertyOp57
 70
     1
102
RTVSPropertyOp58
 70
     1
102
RTVSPropertyOp59
 70
     1
102
RTVSPropertyOp60
 70
     1
102
RTVSPropertyOp61
 70
     1
102
RTVSPropertyOp62
 70
     1
  0
XRECORD
  5
384
102
{ACAD_REACTORS
330
383
102
}
330
383
100
AcDbXrecord
280
     1
102
RTVSPost2010Prop28
280
     0
102
RTVSPost2010PropOp28
 70
     1
102
RTVSPost2010Prop29
280
     1
102
RTVSPost2010PropOp29
 70
     1
102
RTVSPost2010Prop30
280
     1
102
RTVSPost2010PropOp30
 70
     1
102
RTVSPost2010Prop31
280
     0
102
RTVSPost2010PropOp31
 70
     1
102
RTVSPost2010Prop32
280
     0
102
RTVSPost2010PropOp32
 70
     1
102
RTVSPost2010Prop33
280
     0
102
RTVSPost2010PropOp33
 70
     1
102
RTVSPost2010Prop34
280
     0
102
RTVSPost2010PropOp34
 70
     1
102
RTVSPost2010Prop35
280
     0
102
RTVSPost2010PropOp35
 70
     1
102
RTVSPost2010Prop36
280
     0
102
RTVSPost2010PropOp36
 70
     1
102
RTVSPost2010Prop37
 90
       50
102
RTVSPost2010PropOp37
 70
     1
102
RTVSPost2010Prop38
140
0.0
102
RTVSPost2010PropOp38
 70
     1
102
RTVSPost2010Prop39
140
1.0
102
RTVSPost2010PropOp39
 70
     1
102
RTVSPost2010Prop40
 90
        0
102
RTVSPost2010PropOp40
 70
     1
102
RTVSPost2010Prop41ColorIndex
 90
       18
102
RTVSPost2010Prop41ColorRGB
 90
        0
102
RTVSPost2010PropOp41
 70
     1
102
RTVSPost2010Prop42
 90
       50
102
RTVSPost2010PropOp42
 70
     1
102
RTVSPost2010Prop43
 90
        3
102
RTVSPost2010PropOp43
 70
     1
102
RTVSPost2010Prop44ColorIndex
 90
        5
102
RTVSPost2010Prop44ColorRGB
 90
      255
102
RTVSPost2010PropOp44
 70
     1
102
RTVSPost2010Prop45
280
     0
102
RTVSPost2010PropOp45
 70
     1
102
RTVSPost2010Prop46
 90
       50
102
RTVSPost2010PropOp46
 70
     1
102
RTVSPost2010Prop47
 90
       50
102
RTVSPost2010PropOp47
 70
     1
102
RTVSPost2010Prop48
 90
       50
102
RTVSPost2010PropOp48
 70
     1
102
RTVSPost2010Prop49
280
     0
102
RTVSPost2010PropOp49
 70
     1
102
RTVSPost2010Prop50
 90
       50
102
RTVSPost2010PropOp50
 70
     1
102
RTVSPost2010Prop51ColorIndex
 90
      256
102
RTVSPost2010Prop51ColorRGB
 90
-16777216
102
RTVSPost2010PropOp51
 70
     0
102
RTVSPost2010Prop52
140
1.0
102
RTVSPost2010PropOp52
 70
     0
102
RTVSPost2010Prop53
 90
        2
102
RTVSPost2010PropOp53
 70
     1
102
RTVSPost2010Prop54
  1
strokes_ogs.tif
102
RTVSPost2010PropOp54
 70
     1
102
RTVSPost2010Prop55
280
     0
102
RTVSPost2010PropOp55
 70
     1
102
RTVSPost2010Prop56
140
1.0
102
RTVSPost2010PropOp56
 70
     1
102
RTVSPost2010Prop57
140
1.0
102
RTVSPost2010PropOp57
 70
     1
102
RTVSPropertyOp0
 70
     1
102
RTVSPropertyOp1
 70
     1
102
RTVSPropertyOp2
 70
     1
102
RTVSPropertyOp3
 70
     1
102
RTVSPropertyOp4
 70
     1
102
RTVSPropertyOp5
 70
     1
102
RTVSPropertyOp6
 70
     1
102
RTVSPropertyOp7
 70
     1
102
RTVSPropertyOp8
 70
     1
102
RTVSPropertyOp9
 70
     1
102
RTVSPropertyOp10
 70
     1
102
RTVSPropertyOp11
 70
     1
102
RTVSPropertyOp12
 70
     1
102
RTVSPropertyOp13
 70
     1
102
RTVSPropertyOp14
 70
     1
102
RTVSPropertyOp15
 70
     1
102
RTVSPropertyOp16
 70
     1
102
RTVSPropertyOp17
 70
     1
102
RTVSPropertyOp18
 70
     1
102
RTVSPropertyOp19
 70
     1
102
RTVSPropertyOp20
 70
     1
102
RTVSPropertyOp21
 70
     1
102
RTVSPropertyOp22
 70
     1
102
RTVSPropertyOp23
 70
     1
102
RTVSPropertyOp24
 70
     1
102
RTVSPropertyOp25
 70
     1
102
RTVSPropertyOp26
 70
     1
102
RTVSPropertyOp27
 70
     1
102
RTVSPropertyOp28
 70
     1
102
RTVSPropertyOp29
 70
     1
102
RTVSPropertyOp30
 70
     1
102
RTVSPropertyOp31
 70
     1
102
RTVSPropertyOp32
 70
     1
102
RTVSPropertyOp33
 70
     1
102
RTVSPropertyOp34
 70
     1
102
RTVSPropertyOp35
 70
     1
102
RTVSPropertyOp36
 70
     1
102
RTVSPropertyOp37
 70
     1
102
RTVSPropertyOp38
 70
     1
102
RTVSPropertyOp39
 70
     1
102
RTVSPropertyOp40
 70
     1
102
RTVSPropertyOp41
 70
     1
102
RTVSPropertyOp42
 70
     1
102
RTVSPropertyOp43
 70
     1
102
RTVSPropertyOp44
 70
     1
102
RTVSPropertyOp45
 70
     1
102
RTVSPropertyOp46
 70
     1
102
RTVSPropertyOp47
 70
     1
102
RTVSPropertyOp48
 70
     1
102
RTVSPropertyOp49
 70
     1
102
RTVSPropertyOp50
 70
     1
102
RTVSPropertyOp51
 70
     0
102
RTVSPropertyOp52
 70
     0
102
RTVSPropertyOp53
 70
     1
102
RTVSPropertyOp54
 70
     1
102
RTVSPropertyOp55
 70
     1
102
RTVSPropertyOp56
 70
     1
102
RTVSPropertyOp57
 70
     1
102
RTVSPropertyOp58
 70
     1
102
RTVSPropertyOp59
 70
     1
102
RTVSPropertyOp60
 70
     1
102
RTVSPropertyOp61
 70
     1
102
RTVSPropertyOp62
 70
     1
  0
XRECORD
  5
38A
102
{ACAD_REACTORS
330
389
102
}
330
389
100
AcDbXrecord
280
     1
102
RTVSPost2010Prop28
280
     0
102
RTVSPost2010PropOp28
 70
     1
102
RTVSPost2010Prop29
280
     1
102
RTVSPost2010PropOp29
 70
     1
102
RTVSPost2010Prop30
280
     1
102
RTVSPost2010PropOp30
 70
     1
102
RTVSPost2010Prop31
280
     0
102
RTVSPost2010PropOp31
 70
     1
102
RTVSPost2010Prop32
280
     0
102
RTVSPost2010PropOp32
 70
     1
102
RTVSPost2010Prop33
280
     0
102
RTVSPost2010PropOp33
 70
     1
102
RTVSPost2010Prop34
280
     0
102
RTVSPost2010PropOp34
 70
     1
102
RTVSPost2010Prop35
280
     0
102
RTVSPost2010PropOp35
 70
     1
102
RTVSPost2010Prop36
280
     0
102
RTVSPost2010PropOp36
 70
     1
102
RTVSPost2010Prop37
 90
       50
102
RTVSPost2010PropOp37
 70
     1
102
RTVSPost2010Prop38
140
0.0
102
RTVSPost2010PropOp38
 70
     1
102
RTVSPost2010Prop39
140
1.0
102
RTVSPost2010PropOp39
 70
     1
102
RTVSPost2010Prop40
 90
        0
102
RTVSPost2010PropOp40
 70
     1
102
RTVSPost2010Prop41ColorIndex
 90
       18
102
RTVSPost2010Prop41ColorRGB
 90
        0
102
RTVSPost2010PropOp41
 70
     1
102
RTVSPost2010Prop42
 90
       50
102
RTVSPost2010PropOp42
 70
     1
102
RTVSPost2010Prop43
 90
        3
102
RTVSPost2010PropOp43
 70
     1
102
RTVSPost2010Prop44ColorIndex
 90
        5
102
RTVSPost2010Prop44ColorRGB
 90
      255
102
RTVSPost2010PropOp44
 70
     1
102
RTVSPost2010Prop45
280
     0
102
RTVSPost2010PropOp45
 70
     1
102
RTVSPost2010Prop46
 90
       50
102
RTVSPost2010PropOp46
 70
     1
102
RTVSPost2010Prop47
 90
       50
102
RTVSPost2010PropOp47
 70
     1
102
RTVSPost2010Prop48
 90
       50
102
RTVSPost2010PropOp48
 70
     1
102
RTVSPost2010Prop49
280
     0
102
RTVSPost2010PropOp49
 70
     1
102
RTVSPost2010Prop50
 90
       50
102
RTVSPost2010PropOp50
 70
     1
102
RTVSPost2010Prop51ColorIndex
 90
      256
102
RTVSPost2010Prop51ColorRGB
 90
-16777216
102
RTVSPost2010PropOp51
 70
     0
102
RTVSPost2010Prop52
140
1.0
102
RTVSPost2010PropOp52
 70
     0
102
RTVSPost2010Prop53
 90
        2
102
RTVSPost2010PropOp53
 70
     1
102
RTVSPost2010Prop54
  1
strokes_ogs.tif
102
RTVSPost2010PropOp54
 70
     1
102
RTVSPost2010Prop55
280
     0
102
RTVSPost2010PropOp55
 70
     1
102
RTVSPost2010Prop56
140
1.0
102
RTVSPost2010PropOp56
 70
     1
102
RTVSPost2010Prop57
140
1.0
102
RTVSPost2010PropOp57
 70
     1
102
RTVSPropertyOp0
 70
     1
102
RTVSPropertyOp1
 70
     1
102
RTVSPropertyOp2
 70
     1
102
RTVSPropertyOp3
 70
     1
102
RTVSPropertyOp4
 70
     1
102
RTVSPropertyOp5
 70
     1
102
RTVSPropertyOp6
 70
     1
102
RTVSPropertyOp7
 70
     1
102
RTVSPropertyOp8
 70
     1
102
RTVSPropertyOp9
 70
     1
102
RTVSPropertyOp10
 70
     1
102
RTVSPropertyOp11
 70
     1
102
RTVSPropertyOp12
 70
     1
102
RTVSPropertyOp13
 70
     1
102
RTVSPropertyOp14
 70
     1
102
RTVSPropertyOp15
 70
     1
102
RTVSPropertyOp16
 70
     1
102
RTVSPropertyOp17
 70
     1
102
RTVSPropertyOp18
 70
     1
102
RTVSPropertyOp19
 70
     1
102
RTVSPropertyOp20
 70
     1
102
RTVSPropertyOp21
 70
     1
102
RTVSPropertyOp22
 70
     1
102
RTVSPropertyOp23
 70
     1
102
RTVSPropertyOp24
 70
     1
102
RTVSPropertyOp25
 70
     1
102
RTVSPropertyOp26
 70
     1
102
RTVSPropertyOp27
 70
     1
102
RTVSPropertyOp28
 70
     1
102
RTVSPropertyOp29
 70
     1
102
RTVSPropertyOp30
 70
     1
102
RTVSPropertyOp31
 70
     1
102
RTVSPropertyOp32
 70
     1
102
RTVSPropertyOp33
 70
     1
102
RTVSPropertyOp34
 70
     1
102
RTVSPropertyOp35
 70
     1
102
RTVSPropertyOp36
 70
     1
102
RTVSPropertyOp37
 70
     1
102
RTVSPropertyOp38
 70
     1
102
RTVSPropertyOp39
 70
     1
102
RTVSPropertyOp40
 70
     1
102
RTVSPropertyOp41
 70
     1
102
RTVSPropertyOp42
 70
     1
102
RTVSPropertyOp43
 70
     1
102
RTVSPropertyOp44
 70
     1
102
RTVSPropertyOp45
 70
     1
102
RTVSPropertyOp46
 70
     1
102
RTVSPropertyOp47
 70
     1
102
RTVSPropertyOp48
 70
     1
102
RTVSPropertyOp49
 70
     1
102
RTVSPropertyOp50
 70
     1
102
RTVSPropertyOp51
 70
     0
102
RTVSPropertyOp52
 70
     0
102
RTVSPropertyOp53
 70
     1
102
RTVSPropertyOp54
 70
     1
102
RTVSPropertyOp55
 70
     1
102
RTVSPropertyOp56
 70
     1
102
RTVSPropertyOp57
 70
     1
102
RTVSPropertyOp58
 70
     1
102
RTVSPropertyOp59
 70
     1
102
RTVSPropertyOp60
 70
     1
102
RTVSPropertyOp61
 70
     1
102
RTVSPropertyOp62
 70
     1
  0
XRECORD
  5
39E
102
{ACAD_REACTORS
330
39D
102
}
330
39D
100
AcDbXrecord
280
     1
102
RTVSPost2010Prop28
280
     0
102
RTVSPost2010PropOp28
 70
     0
102
RTVSPost2010Prop29
280
     1
102
RTVSPost2010PropOp29
 70
     0
102
RTVSPost2010Prop30
280
     1
102
RTVSPost2010PropOp30
 70
     0
102
RTVSPost2010Prop31
280
     0
102
RTVSPost2010PropOp31
 70
     0
102
RTVSPost2010Prop32
280
     0
102
RTVSPost2010PropOp32
 70
     0
102
RTVSPost2010Prop33
280
     0
102
RTVSPost2010PropOp33
 70
     0
102
RTVSPost2010Prop34
280
     0
102
RTVSPost2010PropOp34
 70
     0
102
RTVSPost2010Prop35
280
     0
102
RTVSPost2010PropOp35
 70
     0
102
RTVSPost2010Prop36
280
     0
102
RTVSPost2010PropOp36
 70
     0
102
RTVSPost2010Prop37
 90
       50
102
RTVSPost2010PropOp37
 70
     0
102
RTVSPost2010Prop38
140
0.0
102
RTVSPost2010PropOp38
 70
     0
102
RTVSPost2010Prop39
140
1.0
102
RTVSPost2010PropOp39
 70
     0
102
RTVSPost2010Prop40
 90
        0
102
RTVSPost2010PropOp40
 70
     0
102
RTVSPost2010Prop41ColorIndex
 90
       18
102
RTVSPost2010Prop41ColorRGB
 90
        0
102
RTVSPost2010PropOp41
 70
     0
102
RTVSPost2010Prop42
 90
       50
102
RTVSPost2010PropOp42
 70
     0
102
RTVSPost2010Prop43
 90
        3
102
RTVSPost2010PropOp43
 70
     0
102
RTVSPost2010Prop44ColorIndex
 90
        5
102
RTVSPost2010Prop44ColorRGB
 90
      255
102
RTVSPost2010PropOp44
 70
     0
102
RTVSPost2010Prop45
280
     0
102
RTVSPost2010PropOp45
 70
     0
102
RTVSPost2010Prop46
 90
       50
102
RTVSPost2010PropOp46
 70
     0
102
RTVSPost2010Prop47
 90
       50
102
RTVSPost2010PropOp47
 70
     0
102
RTVSPost2010Prop48
 90
       50
102
RTVSPost2010PropOp48
 70
     0
102
RTVSPost2010Prop49
280
     0
102
RTVSPost2010PropOp49
 70
     0
102
RTVSPost2010Prop50
 90
       50
102
RTVSPost2010PropOp50
 70
     0
102
RTVSPost2010Prop51ColorIndex
 90
      256
102
RTVSPost2010Prop51ColorRGB
 90
-16777216
102
RTVSPost2010PropOp51
 70
     0
102
RTVSPost2010Prop52
140
1.0
102
RTVSPost2010PropOp52
 70
     0
102
RTVSPost2010Prop53
 90
        2
102
RTVSPost2010PropOp53
 70
     0
102
RTVSPost2010Prop54
  1
strokes_ogs.tif
102
RTVSPost2010PropOp54
 70
     0
102
RTVSPost2010Prop55
280
     0
102
RTVSPost2010PropOp55
 70
     0
102
RTVSPost2010Prop56
140
1.0
102
RTVSPost2010PropOp56
 70
     0
102
RTVSPost2010Prop57
140
1.0
102
RTVSPost2010PropOp57
 70
     0
102
RTVSPropertyOp0
 70
     0
102
RTVSPropertyOp1
 70
     0
102
RTVSPropertyOp2
 70
     0
102
RTVSPropertyOp3
 70
     0
102
RTVSPropertyOp4
 70
     0
102
RTVSPropertyOp5
 70
     0
102
RTVSPropertyOp6
 70
     0
102
RTVSPropertyOp7
 70
     0
102
RTVSPropertyOp8
 70
     0
102
RTVSPropertyOp9
 70
     0
102
RTVSPropertyOp10
 70
     0
102
RTVSPropertyOp11
 70
     0
102
RTVSPropertyOp12
 70
     0
102
RTVSPropertyOp13
 70
     0
102
RTVSPropertyOp14
 70
     2
102
RTVSPropertyOp15
 70
     0
102
RTVSPropertyOp16
 70
     0
102
RTVSPropertyOp17
 70
     0
102
RTVSPropertyOp18
 70
     0
102
RTVSPropertyOp19
 70
     0
102
RTVSPropertyOp20
 70
     0
102
RTVSPropertyOp21
 70
     0
102
RTVSPropertyOp22
 70
     0
102
RTVSPropertyOp23
 70
     0
102
RTVSPropertyOp24
 70
     0
102
RTVSPropertyOp25
 70
     0
102
RTVSPropertyOp26
 70
     0
102
RTVSPropertyOp27
 70
     0
102
RTVSPropertyOp28
 70
     0
102
RTVSPropertyOp29
 70
     0
102
RTVSPropertyOp30
 70
     0
102
RTVSPropertyOp31
 70
     0
102
RTVSPropertyOp32
 70
     0
102
RTVSPropertyOp33
 70
     0
102
RTVSPropertyOp34
 70
     0
102
RTVSPropertyOp35
 70
     0
102
RTVSPropertyOp36
 70
     0
102
RTVSPropertyOp37
 70
     0
102
RTVSPropertyOp38
 70
     0
102
RTVSPropertyOp39
 70
     0
102
RTVSPropertyOp40
 70
     0
102
RTVSPropertyOp41
 70
     0
102
RTVSPropertyOp42
 70
     0
102
RTVSPropertyOp43
 70
     0
102
RTVSPropertyOp44
 70
     0
102
RTVSPropertyOp45
 70
     0
102
RTVSPropertyOp46
 70
     0
102
RTVSPropertyOp47
 70
     0
102
RTVSPropertyOp48
 70
     0
102
RTVSPropertyOp49
 70
     0
102
RTVSPropertyOp50
 70
     0
102
RTVSPropertyOp51
 70
     0
102
RTVSPropertyOp52
 70
     0
102
RTVSPropertyOp53
 70
     0
102
RTVSPropertyOp54
 70
     0
102
RTVSPropertyOp55
 70
     0
102
RTVSPropertyOp56
 70
     0
102
RTVSPropertyOp57
 70
     0
102
RTVSPropertyOp58
 70
     1
102
RTVSPropertyOp59
 70
     1
102
RTVSPropertyOp60
 70
     1
102
RTVSPropertyOp61
 70
     1
102
RTVSPropertyOp62
 70
     1
  0
XRECORD
  5
398
102
{ACAD_REACTORS
330
397
102
}
330
397
100
AcDbXrecord
280
     1
102
RTVSPost2010Prop28
280
     0
102
RTVSPost2010PropOp28
 70
     1
102
RTVSPost2010Prop29
280
     1
102
RTVSPost2010PropOp29
 70
     1
102
RTVSPost2010Prop30
280
     1
102
RTVSPost2010PropOp30
 70
     1
102
RTVSPost2010Prop31
280
     0
102
RTVSPost2010PropOp31
 70
     1
102
RTVSPost2010Prop32
280
     0
102
RTVSPost2010PropOp32
 70
     1
102
RTVSPost2010Prop33
280
     0
102
RTVSPost2010PropOp33
 70
     1
102
RTVSPost2010Prop34
280
     0
102
RTVSPost2010PropOp34
 70
     1
102
RTVSPost2010Prop35
280
     0
102
RTVSPost2010PropOp35
 70
     1
102
RTVSPost2010Prop36
280
     0
102
RTVSPost2010PropOp36
 70
     1
102
RTVSPost2010Prop37
 90
       50
102
RTVSPost2010PropOp37
 70
     1
102
RTVSPost2010Prop38
140
0.0
102
RTVSPost2010PropOp38
 70
     1
102
RTVSPost2010Prop39
140
1.0
102
RTVSPost2010PropOp39
 70
     1
102
RTVSPost2010Prop40
 90
        0
102
RTVSPost2010PropOp40
 70
     1
102
RTVSPost2010Prop41ColorIndex
 90
       18
102
RTVSPost2010Prop41ColorRGB
 90
        0
102
RTVSPost2010PropOp41
 70
     1
102
RTVSPost2010Prop42
 90
       50
102
RTVSPost2010PropOp42
 70
     1
102
RTVSPost2010Prop43
 90
        3
102
RTVSPost2010PropOp43
 70
     1
102
RTVSPost2010Prop44ColorIndex
 90
        5
102
RTVSPost2010Prop44ColorRGB
 90
      255
102
RTVSPost2010PropOp44
 70
     1
102
RTVSPost2010Prop45
280
     0
102
RTVSPost2010PropOp45
 70
     1
102
RTVSPost2010Prop46
 90
       50
102
RTVSPost2010PropOp46
 70
     1
102
RTVSPost2010Prop47
 90
       50
102
RTVSPost2010PropOp47
 70
     1
102
RTVSPost2010Prop48
 90
       50
102
RTVSPost2010PropOp48
 70
     1
102
RTVSPost2010Prop49
280
     0
102
RTVSPost2010PropOp49
 70
     1
102
RTVSPost2010Prop50
 90
       50
102
RTVSPost2010PropOp50
 70
     1
102
RTVSPost2010Prop51ColorIndex
 90
      256
102
RTVSPost2010Prop51ColorRGB
 90
-16777216
102
RTVSPost2010PropOp51
 70
     0
102
RTVSPost2010Prop52
140
1.0
102
RTVSPost2010PropOp52
 70
     0
102
RTVSPost2010Prop53
 90
        2
102
RTVSPost2010PropOp53
 70
     1
102
RTVSPost2010Prop54
  1
strokes_ogs.tif
102
RTVSPost2010PropOp54
 70
     1
102
RTVSPost2010Prop55
280
     0
102
RTVSPost2010PropOp55
 70
     1
102
RTVSPost2010Prop56
140
1.0
102
RTVSPost2010PropOp56
 70
     1
102
RTVSPost2010Prop57
140
1.0
102
RTVSPost2010PropOp57
 70
     1
102
RTVSPropertyOp0
 70
     1
102
RTVSPropertyOp1
 70
     1
102
RTVSPropertyOp2
 70
     1
102
RTVSPropertyOp3
 70
     1
102
RTVSPropertyOp4
 70
     1
102
RTVSPropertyOp5
 70
     1
102
RTVSPropertyOp6
 70
     1
102
RTVSPropertyOp7
 70
     1
102
RTVSPropertyOp8
 70
     1
102
RTVSPropertyOp9
 70
     1
102
RTVSPropertyOp10
 70
     1
102
RTVSPropertyOp11
 70
     1
102
RTVSPropertyOp12
 70
     1
102
RTVSPropertyOp13
 70
     1
102
RTVSPropertyOp14
 70
     1
102
RTVSPropertyOp15
 70
     1
102
RTVSPropertyOp16
 70
     1
102
RTVSPropertyOp17
 70
     1
102
RTVSPropertyOp18
 70
     1
102
RTVSPropertyOp19
 70
     1
102
RTVSPropertyOp20
 70
     1
102
RTVSPropertyOp21
 70
     1
102
RTVSPropertyOp22
 70
     1
102
RTVSPropertyOp23
 70
     1
102
RTVSPropertyOp24
 70
     1
102
RTVSPropertyOp25
 70
     1
102
RTVSPropertyOp26
 70
     1
102
RTVSPropertyOp27
 70
     1
102
RTVSPropertyOp28
 70
     1
102
RTVSPropertyOp29
 70
     1
102
RTVSPropertyOp30
 70
     1
102
RTVSPropertyOp31
 70
     1
102
RTVSPropertyOp32
 70
     1
102
RTVSPropertyOp33
 70
     1
102
RTVSPropertyOp34
 70
     1
102
RTVSPropertyOp35
 70
     1
102
RTVSPropertyOp36
 70
     1
102
RTVSPropertyOp37
 70
     1
102
RTVSPropertyOp38
 70
     1
102
RTVSPropertyOp39
 70
     1
102
RTVSPropertyOp40
 70
     1
102
RTVSPropertyOp41
 70
     1
102
RTVSPropertyOp42
 70
     1
102
RTVSPropertyOp43
 70
     1
102
RTVSPropertyOp44
 70
     1
102
RTVSPropertyOp45
 70
     1
102
RTVSPropertyOp46
 70
     1
102
RTVSPropertyOp47
 70
     1
102
RTVSPropertyOp48
 70
     1
102
RTVSPropertyOp49
 70
     1
102
RTVSPropertyOp50
 70
     1
102
RTVSPropertyOp51
 70
     0
102
RTVSPropertyOp52
 70
     0
102
RTVSPropertyOp53
 70
     1
102
RTVSPropertyOp54
 70
     1
102
RTVSPropertyOp55
 70
     1
102
RTVSPropertyOp56
 70
     1
102
RTVSPropertyOp57
 70
     1
102
RTVSPropertyOp58
 70
     1
102
RTVSPropertyOp59
 70
     1
102
RTVSPropertyOp60
 70
     1
102
RTVSPropertyOp61
 70
     1
102
RTVSPropertyOp62
 70
     1
  0
XRECORD
  5
3A0
102
{ACAD_REACTORS
330
39F
102
}
330
39F
100
AcDbXrecord
280
     1
102
RTVSPost2010Prop28
280
     0
102
RTVSPost2010PropOp28
 70
     0
102
RTVSPost2010Prop29
280
     1
102
RTVSPost2010PropOp29
 70
     0
102
RTVSPost2010Prop30
280
     1
102
RTVSPost2010PropOp30
 70
     0
102
RTVSPost2010Prop31
280
     0
102
RTVSPost2010PropOp31
 70
     0
102
RTVSPost2010Prop32
280
     0
102
RTVSPost2010PropOp32
 70
     0
102
RTVSPost2010Prop33
280
     0
102
RTVSPost2010PropOp33
 70
     0
102
RTVSPost2010Prop34
280
     0
102
RTVSPost2010PropOp34
 70
     0
102
RTVSPost2010Prop35
280
     0
102
RTVSPost2010PropOp35
 70
     0
102
RTVSPost2010Prop36
280
     0
102
RTVSPost2010PropOp36
 70
     0
102
RTVSPost2010Prop37
 90
       50
102
RTVSPost2010PropOp37
 70
     0
102
RTVSPost2010Prop38
140
0.0
102
RTVSPost2010PropOp38
 70
     0
102
RTVSPost2010Prop39
140
1.0
102
RTVSPost2010PropOp39
 70
     0
102
RTVSPost2010Prop40
 90
        0
102
RTVSPost2010PropOp40
 70
     0
102
RTVSPost2010Prop41ColorIndex
 90
       18
102
RTVSPost2010Prop41ColorRGB
 90
        0
102
RTVSPost2010PropOp41
 70
     0
102
RTVSPost2010Prop42
 90
       50
102
RTVSPost2010PropOp42
 70
     0
102
RTVSPost2010Prop43
 90
        3
102
RTVSPost2010PropOp43
 70
     0
102
RTVSPost2010Prop44ColorIndex
 90
        5
102
RTVSPost2010Prop44ColorRGB
 90
      255
102
RTVSPost2010PropOp44
 70
     0
102
RTVSPost2010Prop45
280
     0
102
RTVSPost2010PropOp45
 70
     0
102
RTVSPost2010Prop46
 90
       50
102
RTVSPost2010PropOp46
 70
     0
102
RTVSPost2010Prop47
 90
       50
102
RTVSPost2010PropOp47
 70
     0
102
RTVSPost2010Prop48
 90
       50
102
RTVSPost2010PropOp48
 70
     0
102
RTVSPost2010Prop49
280
     0
102
RTVSPost2010PropOp49
 70
     0
102
RTVSPost2010Prop50
 90
       50
102
RTVSPost2010PropOp50
 70
     0
102
RTVSPost2010Prop51ColorIndex
 90
      256
102
RTVSPost2010Prop51ColorRGB
 90
-16777216
102
RTVSPost2010PropOp51
 70
     0
102
RTVSPost2010Prop52
140
1.0
102
RTVSPost2010PropOp52
 70
     0
102
RTVSPost2010Prop53
 90
        2
102
RTVSPost2010PropOp53
 70
     0
102
RTVSPost2010Prop54
  1
strokes_ogs.tif
102
RTVSPost2010PropOp54
 70
     0
102
RTVSPost2010Prop55
280
     0
102
RTVSPost2010PropOp55
 70
     0
102
RTVSPost2010Prop56
140
1.0
102
RTVSPost2010PropOp56
 70
     0
102
RTVSPost2010Prop57
140
1.0
102
RTVSPost2010PropOp57
 70
     0
102
RTVSPropertyOp0
 70
     0
102
RTVSPropertyOp1
 70
     0
102
RTVSPropertyOp2
 70
     0
102
RTVSPropertyOp3
 70
     0
102
RTVSPropertyOp4
 70
     0
102
RTVSPropertyOp5
 70
     0
102
RTVSPropertyOp6
 70
     0
102
RTVSPropertyOp7
 70
     0
102
RTVSPropertyOp8
 70
     0
102
RTVSPropertyOp9
 70
     0
102
RTVSPropertyOp10
 70
     0
102
RTVSPropertyOp11
 70
     0
102
RTVSPropertyOp12
 70
     0
102
RTVSPropertyOp13
 70
     0
102
RTVSPropertyOp14
 70
     2
102
RTVSPropertyOp15
 70
     0
102
RTVSPropertyOp16
 70
     0
102
RTVSPropertyOp17
 70
     0
102
RTVSPropertyOp18
 70
     0
102
RTVSPropertyOp19
 70
     0
102
RTVSPropertyOp20
 70
     0
102
RTVSPropertyOp21
 70
     0
102
RTVSPropertyOp22
 70
     0
102
RTVSPropertyOp23
 70
     0
102
RTVSPropertyOp24
 70
     0
102
RTVSPropertyOp25
 70
     0
102
RTVSPropertyOp26
 70
     0
102
RTVSPropertyOp27
 70
     0
102
RTVSPropertyOp28
 70
     0
102
RTVSPropertyOp29
 70
     0
102
RTVSPropertyOp30
 70
     0
102
RTVSPropertyOp31
 70
     0
102
RTVSPropertyOp32
 70
     0
102
RTVSPropertyOp33
 70
     0
102
RTVSPropertyOp34
 70
     0
102
RTVSPropertyOp35
 70
     0
102
RTVSPropertyOp36
 70
     0
102
RTVSPropertyOp37
 70
     0
102
RTVSPropertyOp38
 70
     0
102
RTVSPropertyOp39
 70
     0
102
RTVSPropertyOp40
 70
     0
102
RTVSPropertyOp41
 70
     0
102
RTVSPropertyOp42
 70
     0
102
RTVSPropertyOp43
 70
     0
102
RTVSPropertyOp44
 70
     0
102
RTVSPropertyOp45
 70
     0
102
RTVSPropertyOp46
 70
     0
102
RTVSPropertyOp47
 70
     0
102
RTVSPropertyOp48
 70
     0
102
RTVSPropertyOp49
 70
     0
102
RTVSPropertyOp50
 70
     0
102
RTVSPropertyOp51
 70
     0
102
RTVSPropertyOp52
 70
     0
102
RTVSPropertyOp53
 70
     0
102
RTVSPropertyOp54
 70
     0
102
RTVSPropertyOp55
 70
     0
102
RTVSPropertyOp56
 70
     0
102
RTVSPropertyOp57
 70
     0
102
RTVSPropertyOp58
 70
     1
102
RTVSPropertyOp59
 70
     1
102
RTVSPropertyOp60
 70
     1
102
RTVSPropertyOp61
 70
     1
102
RTVSPropertyOp62
 70
     1
  0
XRECORD
  5
38E
102
{ACAD_REACTORS
330
38D
102
}
330
38D
100
AcDbXrecord
280
     1
102
RTVSPost2010Prop28
280
     0
102
RTVSPost2010PropOp28
 70
     1
102
RTVSPost2010Prop29
280
     1
102
RTVSPost2010PropOp29
 70
     1
102
RTVSPost2010Prop30
280
     1
102
RTVSPost2010PropOp30
 70
     1
102
RTVSPost2010Prop31
280
     0
102
RTVSPost2010PropOp31
 70
     1
102
RTVSPost2010Prop32
280
     0
102
RTVSPost2010PropOp32
 70
     1
102
RTVSPost2010Prop33
280
     0
102
RTVSPost2010PropOp33
 70
     1
102
RTVSPost2010Prop34
280
     0
102
RTVSPost2010PropOp34
 70
     1
102
RTVSPost2010Prop35
280
     0
102
RTVSPost2010PropOp35
 70
     1
102
RTVSPost2010Prop36
280
     0
102
RTVSPost2010PropOp36
 70
     1
102
RTVSPost2010Prop37
 90
       50
102
RTVSPost2010PropOp37
 70
     1
102
RTVSPost2010Prop38
140
0.0
102
RTVSPost2010PropOp38
 70
     1
102
RTVSPost2010Prop39
140
1.0
102
RTVSPost2010PropOp39
 70
     1
102
RTVSPost2010Prop40
 90
        0
102
RTVSPost2010PropOp40
 70
     1
102
RTVSPost2010Prop41ColorIndex
 90
       18
102
RTVSPost2010Prop41ColorRGB
 90
        0
102
RTVSPost2010PropOp41
 70
     1
102
RTVSPost2010Prop42
 90
       50
102
RTVSPost2010PropOp42
 70
     1
102
RTVSPost2010Prop43
 90
        3
102
RTVSPost2010PropOp43
 70
     1
102
RTVSPost2010Prop44ColorIndex
 90
        5
102
RTVSPost2010Prop44ColorRGB
 90
      255
102
RTVSPost2010PropOp44
 70
     1
102
RTVSPost2010Prop45
280
     0
102
RTVSPost2010PropOp45
 70
     1
102
RTVSPost2010Prop46
 90
       50
102
RTVSPost2010PropOp46
 70
     1
102
RTVSPost2010Prop47
 90
       50
102
RTVSPost2010PropOp47
 70
     1
102
RTVSPost2010Prop48
 90
       50
102
RTVSPost2010PropOp48
 70
     1
102
RTVSPost2010Prop49
280
     0
102
RTVSPost2010PropOp49
 70
     1
102
RTVSPost2010Prop50
 90
       50
102
RTVSPost2010PropOp50
 70
     1
102
RTVSPost2010Prop51ColorIndex
 90
      256
102
RTVSPost2010Prop51ColorRGB
 90
-16777216
102
RTVSPost2010PropOp51
 70
     0
102
RTVSPost2010Prop52
140
1.0
102
RTVSPost2010PropOp52
 70
     0
102
RTVSPost2010Prop53
 90
        2
102
RTVSPost2010PropOp53
 70
     1
102
RTVSPost2010Prop54
  1
strokes_ogs.tif
102
RTVSPost2010PropOp54
 70
     1
102
RTVSPost2010Prop55
280
     0
102
RTVSPost2010PropOp55
 70
     1
102
RTVSPost2010Prop56
140
1.0
102
RTVSPost2010PropOp56
 70
     1
102
RTVSPost2010Prop57
140
1.0
102
RTVSPost2010PropOp57
 70
     1
102
RTVSPropertyOp0
 70
     1
102
RTVSPropertyOp1
 70
     1
102
RTVSPropertyOp2
 70
     1
102
RTVSPropertyOp3
 70
     1
102
RTVSPropertyOp4
 70
     1
102
RTVSPropertyOp5
 70
     1
102
RTVSPropertyOp6
 70
     1
102
RTVSPropertyOp7
 70
     1
102
RTVSPropertyOp8
 70
     1
102
RTVSPropertyOp9
 70
     1
102
RTVSPropertyOp10
 70
     1
102
RTVSPropertyOp11
 70
     1
102
RTVSPropertyOp12
 70
     1
102
RTVSPropertyOp13
 70
     1
102
RTVSPropertyOp14
 70
     1
102
RTVSPropertyOp15
 70
     1
102
RTVSPropertyOp16
 70
     1
102
RTVSPropertyOp17
 70
     1
102
RTVSPropertyOp18
 70
     1
102
RTVSPropertyOp19
 70
     1
102
RTVSPropertyOp20
 70
     1
102
RTVSPropertyOp21
 70
     1
102
RTVSPropertyOp22
 70
     1
102
RTVSPropertyOp23
 70
     1
102
RTVSPropertyOp24
 70
     1
102
RTVSPropertyOp25
 70
     1
102
RTVSPropertyOp26
 70
     1
102
RTVSPropertyOp27
 70
     1
102
RTVSPropertyOp28
 70
     1
102
RTVSPropertyOp29
 70
     1
102
RTVSPropertyOp30
 70
     1
102
RTVSPropertyOp31
 70
     1
102
RTVSPropertyOp32
 70
     1
102
RTVSPropertyOp33
 70
     1
102
RTVSPropertyOp34
 70
     1
102
RTVSPropertyOp35
 70
     1
102
RTVSPropertyOp36
 70
     1
102
RTVSPropertyOp37
 70
     1
102
RTVSPropertyOp38
 70
     1
102
RTVSPropertyOp39
 70
     1
102
RTVSPropertyOp40
 70
     1
102
RTVSPropertyOp41
 70
     1
102
RTVSPropertyOp42
 70
     1
102
RTVSPropertyOp43
 70
     1
102
RTVSPropertyOp44
 70
     1
102
RTVSPropertyOp45
 70
     1
102
RTVSPropertyOp46
 70
     1
102
RTVSPropertyOp47
 70
     1
102
RTVSPropertyOp48
 70
     1
102
RTVSPropertyOp49
 70
     1
102
RTVSPropertyOp50
 70
     1
102
RTVSPropertyOp51
 70
     0
102
RTVSPropertyOp52
 70
     0
102
RTVSPropertyOp53
 70
     1
102
RTVSPropertyOp54
 70
     1
102
RTVSPropertyOp55
 70
     1
102
RTVSPropertyOp56
 70
     1
102
RTVSPropertyOp57
 70
     1
102
RTVSPropertyOp58
 70
     1
102
RTVSPropertyOp59
 70
     1
102
RTVSPropertyOp60
 70
     1
102
RTVSPropertyOp61
 70
     1
102
RTVSPropertyOp62
 70
     1
  0
XRECORD
  5
3AC
102
{ACAD_REACTORS
330
3AB
102
}
330
3AB
100
AcDbXrecord
280
     1
102
RTVSPost2010Prop28
280
     0
102
RTVSPost2010PropOp28
 70
     1
102
RTVSPost2010Prop29
280
     1
102
RTVSPost2010PropOp29
 70
     1
102
RTVSPost2010Prop30
280
     1
102
RTVSPost2010PropOp30
 70
     1
102
RTVSPost2010Prop31
280
     0
102
RTVSPost2010PropOp31
 70
     1
102
RTVSPost2010Prop32
280
     0
102
RTVSPost2010PropOp32
 70
     1
102
RTVSPost2010Prop33
280
     0
102
RTVSPost2010PropOp33
 70
     1
102
RTVSPost2010Prop34
280
     0
102
RTVSPost2010PropOp34
 70
     1
102
RTVSPost2010Prop35
280
     0
102
RTVSPost2010PropOp35
 70
     1
102
RTVSPost2010Prop36
280
     0
102
RTVSPost2010PropOp36
 70
     1
102
RTVSPost2010Prop37
 90
       50
102
RTVSPost2010PropOp37
 70
     1
102
RTVSPost2010Prop38
140
0.0
102
RTVSPost2010PropOp38
 70
     1
102
RTVSPost2010Prop39
140
1.0
102
RTVSPost2010PropOp39
 70
     1
102
RTVSPost2010Prop40
 90
        0
102
RTVSPost2010PropOp40
 70
     1
102
RTVSPost2010Prop41ColorIndex
 90
       18
102
RTVSPost2010Prop41ColorRGB
 90
        0
102
RTVSPost2010PropOp41
 70
     1
102
RTVSPost2010Prop42
 90
       50
102
RTVSPost2010PropOp42
 70
     1
102
RTVSPost2010Prop43
 90
        3
102
RTVSPost2010PropOp43
 70
     1
102
RTVSPost2010Prop44ColorIndex
 90
        5
102
RTVSPost2010Prop44ColorRGB
 90
      255
102
RTVSPost2010PropOp44
 70
     1
102
RTVSPost2010Prop45
280
     0
102
RTVSPost2010PropOp45
 70
     1
102
RTVSPost2010Prop46
 90
       50
102
RTVSPost2010PropOp46
 70
     1
102
RTVSPost2010Prop47
 90
       50
102
RTVSPost2010PropOp47
 70
     1
102
RTVSPost2010Prop48
 90
       50
102
RTVSPost2010PropOp48
 70
     1
102
RTVSPost2010Prop49
280
     0
102
RTVSPost2010PropOp49
 70
     1
102
RTVSPost2010Prop50
 90
       50
102
RTVSPost2010PropOp50
 70
     1
102
RTVSPost2010Prop51ColorIndex
 90
      256
102
RTVSPost2010Prop51ColorRGB
 90
-16777216
102
RTVSPost2010PropOp51
 70
     0
102
RTVSPost2010Prop52
140
1.0
102
RTVSPost2010PropOp52
 70
     0
102
RTVSPost2010Prop53
 90
        2
102
RTVSPost2010PropOp53
 70
     1
102
RTVSPost2010Prop54
  1
strokes_ogs.tif
102
RTVSPost2010PropOp54
 70
     1
102
RTVSPost2010Prop55
280
     0
102
RTVSPost2010PropOp55
 70
     1
102
RTVSPost2010Prop56
140
1.0
102
RTVSPost2010PropOp56
 70
     1
102
RTVSPost2010Prop57
140
1.0
102
RTVSPost2010PropOp57
 70
     1
102
RTVSPropertyOp0
 70
     1
102
RTVSPropertyOp1
 70
     1
102
RTVSPropertyOp2
 70
     1
102
RTVSPropertyOp3
 70
     1
102
RTVSPropertyOp4
 70
     1
102
RTVSPropertyOp5
 70
     1
102
RTVSPropertyOp6
 70
     1
102
RTVSPropertyOp7
 70
     1
102
RTVSPropertyOp8
 70
     1
102
RTVSPropertyOp9
 70
     1
102
RTVSPropertyOp10
 70
     1
102
RTVSPropertyOp11
 70
     1
102
RTVSPropertyOp12
 70
     1
102
RTVSPropertyOp13
 70
     1
102
RTVSPropertyOp14
 70
     1
102
RTVSPropertyOp15
 70
     1
102
RTVSPropertyOp16
 70
     1
102
RTVSPropertyOp17
 70
     1
102
RTVSPropertyOp18
 70
     1
102
RTVSPropertyOp19
 70
     1
102
RTVSPropertyOp20
 70
     1
102
RTVSPropertyOp21
 70
     1
102
RTVSPropertyOp22
 70
     1
102
RTVSPropertyOp23
 70
     1
102
RTVSPropertyOp24
 70
     1
102
RTVSPropertyOp25
 70
     1
102
RTVSPropertyOp26
 70
     1
102
RTVSPropertyOp27
 70
     1
102
RTVSPropertyOp28
 70
     1
102
RTVSPropertyOp29
 70
     1
102
RTVSPropertyOp30
 70
     1
102
RTVSPropertyOp31
 70
     1
102
RTVSPropertyOp32
 70
     1
102
RTVSPropertyOp33
 70
     1
102
RTVSPropertyOp34
 70
     1
102
RTVSPropertyOp35
 70
     1
102
RTVSPropertyOp36
 70
     1
102
RTVSPropertyOp37
 70
     1
102
RTVSPropertyOp38
 70
     1
102
RTVSPropertyOp39
 70
     1
102
RTVSPropertyOp40
 70
     1
102
RTVSPropertyOp41
 70
     1
102
RTVSPropertyOp42
 70
     1
102
RTVSPropertyOp43
 70
     1
102
RTVSPropertyOp44
 70
     1
102
RTVSPropertyOp45
 70
     1
102
RTVSPropertyOp46
 70
     1
102
RTVSPropertyOp47
 70
     1
102
RTVSPropertyOp48
 70
     1
102
RTVSPropertyOp49
 70
     1
102
RTVSPropertyOp50
 70
     1
102
RTVSPropertyOp51
 70
     0
102
RTVSPropertyOp52
 70
     0
102
RTVSPropertyOp53
 70
     1
102
RTVSPropertyOp54
 70
     1
102
RTVSPropertyOp55
 70
     1
102
RTVSPropertyOp56
 70
     1
102
RTVSPropertyOp57
 70
     1
102
RTVSPropertyOp58
 70
     1
102
RTVSPropertyOp59
 70
     1
102
RTVSPropertyOp60
 70
     1
102
RTVSPropertyOp61
 70
     1
102
RTVSPropertyOp62
 70
     1
  0
XRECORD
  5
3AA
102
{ACAD_REACTORS
330
3A9
102
}
330
3A9
100
AcDbXrecord
280
     1
102
RTVSPost2010Prop28
280
     0
102
RTVSPost2010PropOp28
 70
     1
102
RTVSPost2010Prop29
280
     1
102
RTVSPost2010PropOp29
 70
     1
102
RTVSPost2010Prop30
280
     1
102
RTVSPost2010PropOp30
 70
     1
102
RTVSPost2010Prop31
280
     0
102
RTVSPost2010PropOp31
 70
     1
102
RTVSPost2010Prop32
280
     0
102
RTVSPost2010PropOp32
 70
     1
102
RTVSPost2010Prop33
280
     0
102
RTVSPost2010PropOp33
 70
     1
102
RTVSPost2010Prop34
280
     0
102
RTVSPost2010PropOp34
 70
     1
102
RTVSPost2010Prop35
280
     0
102
RTVSPost2010PropOp35
 70
     1
102
RTVSPost2010Prop36
280
     0
102
RTVSPost2010PropOp36
 70
     1
102
RTVSPost2010Prop37
 90
       50
102
RTVSPost2010PropOp37
 70
     1
102
RTVSPost2010Prop38
140
0.0
102
RTVSPost2010PropOp38
 70
     1
102
RTVSPost2010Prop39
140
1.0
102
RTVSPost2010PropOp39
 70
     1
102
RTVSPost2010Prop40
 90
        0
102
RTVSPost2010PropOp40
 70
     1
102
RTVSPost2010Prop41ColorIndex
 90
       18
102
RTVSPost2010Prop41ColorRGB
 90
        0
102
RTVSPost2010PropOp41
 70
     1
102
RTVSPost2010Prop42
 90
       50
102
RTVSPost2010PropOp42
 70
     1
102
RTVSPost2010Prop43
 90
        3
102
RTVSPost2010PropOp43
 70
     1
102
RTVSPost2010Prop44ColorIndex
 90
        5
102
RTVSPost2010Prop44ColorRGB
 90
      255
102
RTVSPost2010PropOp44
 70
     1
102
RTVSPost2010Prop45
280
     0
102
RTVSPost2010PropOp45
 70
     1
102
RTVSPost2010Prop46
 90
       50
102
RTVSPost2010PropOp46
 70
     1
102
RTVSPost2010Prop47
 90
       50
102
RTVSPost2010PropOp47
 70
     1
102
RTVSPost2010Prop48
 90
       50
102
RTVSPost2010PropOp48
 70
     1
102
RTVSPost2010Prop49
280
     0
102
RTVSPost2010PropOp49
 70
     1
102
RTVSPost2010Prop50
 90
       50
102
RTVSPost2010PropOp50
 70
     1
102
RTVSPost2010Prop51ColorIndex
 90
      256
102
RTVSPost2010Prop51ColorRGB
 90
-16777216
102
RTVSPost2010PropOp51
 70
     0
102
RTVSPost2010Prop52
140
1.0
102
RTVSPost2010PropOp52
 70
     0
102
RTVSPost2010Prop53
 90
        2
102
RTVSPost2010PropOp53
 70
     1
102
RTVSPost2010Prop54
  1
strokes_ogs.tif
102
RTVSPost2010PropOp54
 70
     1
102
RTVSPost2010Prop55
280
     0
102
RTVSPost2010PropOp55
 70
     1
102
RTVSPost2010Prop56
140
1.0
102
RTVSPost2010PropOp56
 70
     1
102
RTVSPost2010Prop57
140
1.0
102
RTVSPost2010PropOp57
 70
     1
102
RTVSPropertyOp0
 70
     1
102
RTVSPropertyOp1
 70
     1
102
RTVSPropertyOp2
 70
     1
102
RTVSPropertyOp3
 70
     1
102
RTVSPropertyOp4
 70
     1
102
RTVSPropertyOp5
 70
     1
102
RTVSPropertyOp6
 70
     1
102
RTVSPropertyOp7
 70
     1
102
RTVSPropertyOp8
 70
     1
102
RTVSPropertyOp9
 70
     1
102
RTVSPropertyOp10
 70
     1
102
RTVSPropertyOp11
 70
     1
102
RTVSPropertyOp12
 70
     1
102
RTVSPropertyOp13
 70
     1
102
RTVSPropertyOp14
 70
     1
102
RTVSPropertyOp15
 70
     1
102
RTVSPropertyOp16
 70
     1
102
RTVSPropertyOp17
 70
     1
102
RTVSPropertyOp18
 70
     1
102
RTVSPropertyOp19
 70
     1
102
RTVSPropertyOp20
 70
     1
102
RTVSPropertyOp21
 70
     1
102
RTVSPropertyOp22
 70
     1
102
RTVSPropertyOp23
 70
     1
102
RTVSPropertyOp24
 70
     1
102
RTVSPropertyOp25
 70
     1
102
RTVSPropertyOp26
 70
     1
102
RTVSPropertyOp27
 70
     1
102
RTVSPropertyOp28
 70
     1
102
RTVSPropertyOp29
 70
     1
102
RTVSPropertyOp30
 70
     1
102
RTVSPropertyOp31
 70
     1
102
RTVSPropertyOp32
 70
     1
102
RTVSPropertyOp33
 70
     1
102
RTVSPropertyOp34
 70
     1
102
RTVSPropertyOp35
 70
     1
102
RTVSPropertyOp36
 70
     1
102
RTVSPropertyOp37
 70
     1
102
RTVSPropertyOp38
 70
     1
102
RTVSPropertyOp39
 70
     1
102
RTVSPropertyOp40
 70
     1
102
RTVSPropertyOp41
 70
     1
102
RTVSPropertyOp42
 70
     1
102
RTVSPropertyOp43
 70
     1
102
RTVSPropertyOp44
 70
     1
102
RTVSPropertyOp45
 70
     1
102
RTVSPropertyOp46
 70
     1
102
RTVSPropertyOp47
 70
     1
102
RTVSPropertyOp48
 70
     1
102
RTVSPropertyOp49
 70
     1
102
RTVSPropertyOp50
 70
     1
102
RTVSPropertyOp51
 70
     0
102
RTVSPropertyOp52
 70
     0
102
RTVSPropertyOp53
 70
     1
102
RTVSPropertyOp54
 70
     1
102
RTVSPropertyOp55
 70
     1
102
RTVSPropertyOp56
 70
     1
102
RTVSPropertyOp57
 70
     1
102
RTVSPropertyOp58
 70
     1
102
RTVSPropertyOp59
 70
     1
102
RTVSPropertyOp60
 70
     1
102
RTVSPropertyOp61
 70
     1
102
RTVSPropertyOp62
 70
     1
  0
XRECORD
  5
3A4
102
{ACAD_REACTORS
330
3A3
102
}
330
3A3
100
AcDbXrecord
280
     1
102
RTVSPost2010Prop28
280
     0
102
RTVSPost2010PropOp28
 70
     1
102
RTVSPost2010Prop29
280
     1
102
RTVSPost2010PropOp29
 70
     1
102
RTVSPost2010Prop30
280
     1
102
RTVSPost2010PropOp30
 70
     1
102
RTVSPost2010Prop31
280
     0
102
RTVSPost2010PropOp31
 70
     1
102
RTVSPost2010Prop32
280
     0
102
RTVSPost2010PropOp32
 70
     1
102
RTVSPost2010Prop33
280
     0
102
RTVSPost2010PropOp33
 70
     1
102
RTVSPost2010Prop34
280
     0
102
RTVSPost2010PropOp34
 70
     1
102
RTVSPost2010Prop35
280
     0
102
RTVSPost2010PropOp35
 70
     1
102
RTVSPost2010Prop36
280
     0
102
RTVSPost2010PropOp36
 70
     1
102
RTVSPost2010Prop37
 90
       50
102
RTVSPost2010PropOp37
 70
     1
102
RTVSPost2010Prop38
140
0.0
102
RTVSPost2010PropOp38
 70
     1
102
RTVSPost2010Prop39
140
1.0
102
RTVSPost2010PropOp39
 70
     1
102
RTVSPost2010Prop40
 90
        0
102
RTVSPost2010PropOp40
 70
     1
102
RTVSPost2010Prop41ColorIndex
 90
       18
102
RTVSPost2010Prop41ColorRGB
 90
        0
102
RTVSPost2010PropOp41
 70
     1
102
RTVSPost2010Prop42
 90
       50
102
RTVSPost2010PropOp42
 70
     1
102
RTVSPost2010Prop43
 90
        3
102
RTVSPost2010PropOp43
 70
     1
102
RTVSPost2010Prop44ColorIndex
 90
        5
102
RTVSPost2010Prop44ColorRGB
 90
      255
102
RTVSPost2010PropOp44
 70
     1
102
RTVSPost2010Prop45
280
     0
102
RTVSPost2010PropOp45
 70
     1
102
RTVSPost2010Prop46
 90
       50
102
RTVSPost2010PropOp46
 70
     1
102
RTVSPost2010Prop47
 90
       50
102
RTVSPost2010PropOp47
 70
     1
102
RTVSPost2010Prop48
 90
       50
102
RTVSPost2010PropOp48
 70
     1
102
RTVSPost2010Prop49
280
     0
102
RTVSPost2010PropOp49
 70
     1
102
RTVSPost2010Prop50
 90
       50
102
RTVSPost2010PropOp50
 70
     1
102
RTVSPost2010Prop51ColorIndex
 90
      256
102
RTVSPost2010Prop51ColorRGB
 90
-16777216
102
RTVSPost2010PropOp51
 70
     0
102
RTVSPost2010Prop52
140
1.0
102
RTVSPost2010PropOp52
 70
     0
102
RTVSPost2010Prop53
 90
        2
102
RTVSPost2010PropOp53
 70
     1
102
RTVSPost2010Prop54
  1
strokes_ogs.tif
102
RTVSPost2010PropOp54
 70
     1
102
RTVSPost2010Prop55
280
     0
102
RTVSPost2010PropOp55
 70
     1
102
RTVSPost2010Prop56
140
1.0
102
RTVSPost2010PropOp56
 70
     1
102
RTVSPost2010Prop57
140
1.0
102
RTVSPost2010PropOp57
 70
     1
102
RTVSPropertyOp0
 70
     1
102
RTVSPropertyOp1
 70
     1
102
RTVSPropertyOp2
 70
     1
102
RTVSPropertyOp3
 70
     1
102
RTVSPropertyOp4
 70
     1
102
RTVSPropertyOp5
 70
     1
102
RTVSPropertyOp6
 70
     1
102
RTVSPropertyOp7
 70
     1
102
RTVSPropertyOp8
 70
     1
102
RTVSPropertyOp9
 70
     1
102
RTVSPropertyOp10
 70
     1
102
RTVSPropertyOp11
 70
     1
102
RTVSPropertyOp12
 70
     1
102
RTVSPropertyOp13
 70
     1
102
RTVSPropertyOp14
 70
     1
102
RTVSPropertyOp15
 70
     1
102
RTVSPropertyOp16
 70
     1
102
RTVSPropertyOp17
 70
     1
102
RTVSPropertyOp18
 70
     1
102
RTVSPropertyOp19
 70
     1
102
RTVSPropertyOp20
 70
     1
102
RTVSPropertyOp21
 70
     1
102
RTVSPropertyOp22
 70
     1
102
RTVSPropertyOp23
 70
     1
102
RTVSPropertyOp24
 70
     1
102
RTVSPropertyOp25
 70
     1
102
RTVSPropertyOp26
 70
     1
102
RTVSPropertyOp27
 70
     1
102
RTVSPropertyOp28
 70
     1
102
RTVSPropertyOp29
 70
     1
102
RTVSPropertyOp30
 70
     1
102
RTVSPropertyOp31
 70
     1
102
RTVSPropertyOp32
 70
     1
102
RTVSPropertyOp33
 70
     1
102
RTVSPropertyOp34
 70
     1
102
RTVSPropertyOp35
 70
     1
102
RTVSPropertyOp36
 70
     1
102
RTVSPropertyOp37
 70
     1
102
RTVSPropertyOp38
 70
     1
102
RTVSPropertyOp39
 70
     1
102
RTVSPropertyOp40
 70
     1
102
RTVSPropertyOp41
 70
     1
102
RTVSPropertyOp42
 70
     1
102
RTVSPropertyOp43
 70
     1
102
RTVSPropertyOp44
 70
     1
102
RTVSPropertyOp45
 70
     1
102
RTVSPropertyOp46
 70
     1
102
RTVSPropertyOp47
 70
     1
102
RTVSPropertyOp48
 70
     1
102
RTVSPropertyOp49
 70
     1
102
RTVSPropertyOp50
 70
     1
102
RTVSPropertyOp51
 70
     0
102
RTVSPropertyOp52
 70
     0
102
RTVSPropertyOp53
 70
     1
102
RTVSPropertyOp54
 70
     1
102
RTVSPropertyOp55
 70
     1
102
RTVSPropertyOp56
 70
     1
102
RTVSPropertyOp57
 70
     1
102
RTVSPropertyOp58
 70
     1
102
RTVSPropertyOp59
 70
     1
102
RTVSPropertyOp60
 70
     1
102
RTVSPropertyOp61
 70
     1
102
RTVSPropertyOp62
 70
     1
  0
XRECORD
  5
3A6
102
{ACAD_REACTORS
330
3A5
102
}
330
3A5
100
AcDbXrecord
280
     1
102
RTVSPost2010Prop28
280
     0
102
RTVSPost2010PropOp28
 70
     1
102
RTVSPost2010Prop29
280
     1
102
RTVSPost2010PropOp29
 70
     1
102
RTVSPost2010Prop30
280
     1
102
RTVSPost2010PropOp30
 70
     1
102
RTVSPost2010Prop31
280
     0
102
RTVSPost2010PropOp31
 70
     1
102
RTVSPost2010Prop32
280
     0
102
RTVSPost2010PropOp32
 70
     1
102
RTVSPost2010Prop33
280
     0
102
RTVSPost2010PropOp33
 70
     1
102
RTVSPost2010Prop34
280
     0
102
RTVSPost2010PropOp34
 70
     1
102
RTVSPost2010Prop35
280
     0
102
RTVSPost2010PropOp35
 70
     1
102
RTVSPost2010Prop36
280
     0
102
RTVSPost2010PropOp36
 70
     1
102
RTVSPost2010Prop37
 90
       50
102
RTVSPost2010PropOp37
 70
     1
102
RTVSPost2010Prop38
140
0.0
102
RTVSPost2010PropOp38
 70
     1
102
RTVSPost2010Prop39
140
1.0
102
RTVSPost2010PropOp39
 70
     1
102
RTVSPost2010Prop40
 90
        0
102
RTVSPost2010PropOp40
 70
     1
102
RTVSPost2010Prop41ColorIndex
 90
       18
102
RTVSPost2010Prop41ColorRGB
 90
        0
102
RTVSPost2010PropOp41
 70
     1
102
RTVSPost2010Prop42
 90
       50
102
RTVSPost2010PropOp42
 70
     1
102
RTVSPost2010Prop43
 90
        3
102
RTVSPost2010PropOp43
 70
     1
102
RTVSPost2010Prop44ColorIndex
 90
        5
102
RTVSPost2010Prop44ColorRGB
 90
      255
102
RTVSPost2010PropOp44
 70
     1
102
RTVSPost2010Prop45
280
     0
102
RTVSPost2010PropOp45
 70
     1
102
RTVSPost2010Prop46
 90
       50
102
RTVSPost2010PropOp46
 70
     1
102
RTVSPost2010Prop47
 90
       50
102
RTVSPost2010PropOp47
 70
     1
102
RTVSPost2010Prop48
 90
       50
102
RTVSPost2010PropOp48
 70
     1
102
RTVSPost2010Prop49
280
     0
102
RTVSPost2010PropOp49
 70
     1
102
RTVSPost2010Prop50
 90
       50
102
RTVSPost2010PropOp50
 70
     1
102
RTVSPost2010Prop51ColorIndex
 90
      256
102
RTVSPost2010Prop51ColorRGB
 90
-16777216
102
RTVSPost2010PropOp51
 70
     0
102
RTVSPost2010Prop52
140
1.0
102
RTVSPost2010PropOp52
 70
     0
102
RTVSPost2010Prop53
 90
        2
102
RTVSPost2010PropOp53
 70
     1
102
RTVSPost2010Prop54
  1
strokes_ogs.tif
102
RTVSPost2010PropOp54
 70
     1
102
RTVSPost2010Prop55
280
     0
102
RTVSPost2010PropOp55
 70
     1
102
RTVSPost2010Prop56
140
1.0
102
RTVSPost2010PropOp56
 70
     1
102
RTVSPost2010Prop57
140
1.0
102
RTVSPost2010PropOp57
 70
     1
102
RTVSPropertyOp0
 70
     1
102
RTVSPropertyOp1
 70
     1
102
RTVSPropertyOp2
 70
     1
102
RTVSPropertyOp3
 70
     1
102
RTVSPropertyOp4
 70
     1
102
RTVSPropertyOp5
 70
     1
102
RTVSPropertyOp6
 70
     1
102
RTVSPropertyOp7
 70
     1
102
RTVSPropertyOp8
 70
     1
102
RTVSPropertyOp9
 70
     1
102
RTVSPropertyOp10
 70
     1
102
RTVSPropertyOp11
 70
     1
102
RTVSPropertyOp12
 70
     1
102
RTVSPropertyOp13
 70
     1
102
RTVSPropertyOp14
 70
     1
102
RTVSPropertyOp15
 70
     1
102
RTVSPropertyOp16
 70
     1
102
RTVSPropertyOp17
 70
     1
102
RTVSPropertyOp18
 70
     1
102
RTVSPropertyOp19
 70
     1
102
RTVSPropertyOp20
 70
     1
102
RTVSPropertyOp21
 70
     1
102
RTVSPropertyOp22
 70
     1
102
RTVSPropertyOp23
 70
     1
102
RTVSPropertyOp24
 70
     1
102
RTVSPropertyOp25
 70
     1
102
RTVSPropertyOp26
 70
     1
102
RTVSPropertyOp27
 70
     1
102
RTVSPropertyOp28
 70
     1
102
RTVSPropertyOp29
 70
     1
102
RTVSPropertyOp30
 70
     1
102
RTVSPropertyOp31
 70
     1
102
RTVSPropertyOp32
 70
     1
102
RTVSPropertyOp33
 70
     1
102
RTVSPropertyOp34
 70
     1
102
RTVSPropertyOp35
 70
     1
102
RTVSPropertyOp36
 70
     1
102
RTVSPropertyOp37
 70
     1
102
RTVSPropertyOp38
 70
     1
102
RTVSPropertyOp39
 70
     1
102
RTVSPropertyOp40
 70
     1
102
RTVSPropertyOp41
 70
     1
102
RTVSPropertyOp42
 70
     1
102
RTVSPropertyOp43
 70
     1
102
RTVSPropertyOp44
 70
     1
102
RTVSPropertyOp45
 70
     1
102
RTVSPropertyOp46
 70
     1
102
RTVSPropertyOp47
 70
     1
102
RTVSPropertyOp48
 70
     1
102
RTVSPropertyOp49
 70
     1
102
RTVSPropertyOp50
 70
     1
102
RTVSPropertyOp51
 70
     0
102
RTVSPropertyOp52
 70
     0
102
RTVSPropertyOp53
 70
     1
102
RTVSPropertyOp54
 70
     1
102
RTVSPropertyOp55
 70
     1
102
RTVSPropertyOp56
 70
     1
102
RTVSPropertyOp57
 70
     1
102
RTVSPropertyOp58
 70
     1
102
RTVSPropertyOp59
 70
     1
102
RTVSPropertyOp60
 70
     1
102
RTVSPropertyOp61
 70
     1
102
RTVSPropertyOp62
 70
     1
  0
XRECORD
  5
396
102
{ACAD_REACTORS
330
395
102
}
330
395
100
AcDbXrecord
280
     1
102
RTVSPost2010Prop28
280
     0
102
RTVSPost2010PropOp28
 70
     1
102
RTVSPost2010Prop29
280
     1
102
RTVSPost2010PropOp29
 70
     1
102
RTVSPost2010Prop30
280
     1
102
RTVSPost2010PropOp30
 70
     1
102
RTVSPost2010Prop31
280
     0
102
RTVSPost2010PropOp31
 70
     1
102
RTVSPost2010Prop32
280
     0
102
RTVSPost2010PropOp32
 70
     1
102
RTVSPost2010Prop33
280
     0
102
RTVSPost2010PropOp33
 70
     1
102
RTVSPost2010Prop34
280
     0
102
RTVSPost2010PropOp34
 70
     1
102
RTVSPost2010Prop35
280
     0
102
RTVSPost2010PropOp35
 70
     1
102
RTVSPost2010Prop36
280
     0
102
RTVSPost2010PropOp36
 70
     1
102
RTVSPost2010Prop37
 90
       50
102
RTVSPost2010PropOp37
 70
     1
102
RTVSPost2010Prop38
140
0.0
102
RTVSPost2010PropOp38
 70
     1
102
RTVSPost2010Prop39
140
1.0
102
RTVSPost2010PropOp39
 70
     1
102
RTVSPost2010Prop40
 90
        0
102
RTVSPost2010PropOp40
 70
     1
102
RTVSPost2010Prop41ColorIndex
 90
       18
102
RTVSPost2010Prop41ColorRGB
 90
        0
102
RTVSPost2010PropOp41
 70
     1
102
RTVSPost2010Prop42
 90
       50
102
RTVSPost2010PropOp42
 70
     1
102
RTVSPost2010Prop43
 90
        3
102
RTVSPost2010PropOp43
 70
     1
102
RTVSPost2010Prop44ColorIndex
 90
        5
102
RTVSPost2010Prop44ColorRGB
 90
      255
102
RTVSPost2010PropOp44
 70
     1
102
RTVSPost2010Prop45
280
     0
102
RTVSPost2010PropOp45
 70
     1
102
RTVSPost2010Prop46
 90
       50
102
RTVSPost2010PropOp46
 70
     1
102
RTVSPost2010Prop47
 90
       50
102
RTVSPost2010PropOp47
 70
     1
102
RTVSPost2010Prop48
 90
       50
102
RTVSPost2010PropOp48
 70
     1
102
RTVSPost2010Prop49
280
     0
102
RTVSPost2010PropOp49
 70
     1
102
RTVSPost2010Prop50
 90
       50
102
RTVSPost2010PropOp50
 70
     1
102
RTVSPost2010Prop51ColorIndex
 90
      256
102
RTVSPost2010Prop51ColorRGB
 90
-16777216
102
RTVSPost2010PropOp51
 70
     0
102
RTVSPost2010Prop52
140
1.0
102
RTVSPost2010PropOp52
 70
     0
102
RTVSPost2010Prop53
 90
        2
102
RTVSPost2010PropOp53
 70
     1
102
RTVSPost2010Prop54
  1
strokes_ogs.tif
102
RTVSPost2010PropOp54
 70
     1
102
RTVSPost2010Prop55
280
     0
102
RTVSPost2010PropOp55
 70
     1
102
RTVSPost2010Prop56
140
1.0
102
RTVSPost2010PropOp56
 70
     1
102
RTVSPost2010Prop57
140
1.0
102
RTVSPost2010PropOp57
 70
     1
102
RTVSPropertyOp0
 70
     1
102
RTVSPropertyOp1
 70
     1
102
RTVSPropertyOp2
 70
     1
102
RTVSPropertyOp3
 70
     1
102
RTVSPropertyOp4
 70
     1
102
RTVSPropertyOp5
 70
     1
102
RTVSPropertyOp6
 70
     1
102
RTVSPropertyOp7
 70
     1
102
RTVSPropertyOp8
 70
     1
102
RTVSPropertyOp9
 70
     1
102
RTVSPropertyOp10
 70
     1
102
RTVSPropertyOp11
 70
     1
102
RTVSPropertyOp12
 70
     1
102
RTVSPropertyOp13
 70
     1
102
RTVSPropertyOp14
 70
     1
102
RTVSPropertyOp15
 70
     1
102
RTVSPropertyOp16
 70
     1
102
RTVSPropertyOp17
 70
     1
102
RTVSPropertyOp18
 70
     1
102
RTVSPropertyOp19
 70
     1
102
RTVSPropertyOp20
 70
     1
102
RTVSPropertyOp21
 70
     1
102
RTVSPropertyOp22
 70
     1
102
RTVSPropertyOp23
 70
     1
102
RTVSPropertyOp24
 70
     1
102
RTVSPropertyOp25
 70
     1
102
RTVSPropertyOp26
 70
     1
102
RTVSPropertyOp27
 70
     1
102
RTVSPropertyOp28
 70
     1
102
RTVSPropertyOp29
 70
     1
102
RTVSPropertyOp30
 70
     1
102
RTVSPropertyOp31
 70
     1
102
RTVSPropertyOp32
 70
     1
102
RTVSPropertyOp33
 70
     1
102
RTVSPropertyOp34
 70
     1
102
RTVSPropertyOp35
 70
     1
102
RTVSPropertyOp36
 70
     1
102
RTVSPropertyOp37
 70
     1
102
RTVSPropertyOp38
 70
     1
102
RTVSPropertyOp39
 70
     1
102
RTVSPropertyOp40
 70
     1
102
RTVSPropertyOp41
 70
     1
102
RTVSPropertyOp42
 70
     1
102
RTVSPropertyOp43
 70
     1
102
RTVSPropertyOp44
 70
     1
102
RTVSPropertyOp45
 70
     1
102
RTVSPropertyOp46
 70
     1
102
RTVSPropertyOp47
 70
     1
102
RTVSPropertyOp48
 70
     1
102
RTVSPropertyOp49
 70
     1
102
RTVSPropertyOp50
 70
     1
102
RTVSPropertyOp51
 70
     0
102
RTVSPropertyOp52
 70
     0
102
RTVSPropertyOp53
 70
     1
102
RTVSPropertyOp54
 70
     1
102
RTVSPropertyOp55
 70
     1
102
RTVSPropertyOp56
 70
     1
102
RTVSPropertyOp57
 70
     1
102
RTVSPropertyOp58
 70
     1
102
RTVSPropertyOp59
 70
     1
102
RTVSPropertyOp60
 70
     1
102
RTVSPropertyOp61
 70
     1
102
RTVSPropertyOp62
 70
     1
  0
XRECORD
  5
388
102
{ACAD_REACTORS
330
387
102
}
330
387
100
AcDbXrecord
280
     1
102
RTVSPost2010Prop28
280
     0
102
RTVSPost2010PropOp28
 70
     1
102
RTVSPost2010Prop29
280
     1
102
RTVSPost2010PropOp29
 70
     1
102
RTVSPost2010Prop30
280
     1
102
RTVSPost2010PropOp30
 70
     1
102
RTVSPost2010Prop31
280
     0
102
RTVSPost2010PropOp31
 70
     1
102
RTVSPost2010Prop32
280
     0
102
RTVSPost2010PropOp32
 70
     1
102
RTVSPost2010Prop33
280
     0
102
RTVSPost2010PropOp33
 70
     1
102
RTVSPost2010Prop34
280
     0
102
RTVSPost2010PropOp34
 70
     1
102
RTVSPost2010Prop35
280
     0
102
RTVSPost2010PropOp35
 70
     1
102
RTVSPost2010Prop36
280
     0
102
RTVSPost2010PropOp36
 70
     1
102
RTVSPost2010Prop37
 90
       50
102
RTVSPost2010PropOp37
 70
     1
102
RTVSPost2010Prop38
140
0.0
102
RTVSPost2010PropOp38
 70
     1
102
RTVSPost2010Prop39
140
1.0
102
RTVSPost2010PropOp39
 70
     1
102
RTVSPost2010Prop40
 90
        0
102
RTVSPost2010PropOp40
 70
     1
102
RTVSPost2010Prop41ColorIndex
 90
       18
102
RTVSPost2010Prop41ColorRGB
 90
        0
102
RTVSPost2010PropOp41
 70
     1
102
RTVSPost2010Prop42
 90
       50
102
RTVSPost2010PropOp42
 70
     1
102
RTVSPost2010Prop43
 90
        3
102
RTVSPost2010PropOp43
 70
     1
102
RTVSPost2010Prop44ColorIndex
 90
        5
102
RTVSPost2010Prop44ColorRGB
 90
      255
102
RTVSPost2010PropOp44
 70
     1
102
RTVSPost2010Prop45
280
     0
102
RTVSPost2010PropOp45
 70
     1
102
RTVSPost2010Prop46
 90
       50
102
RTVSPost2010PropOp46
 70
     1
102
RTVSPost2010Prop47
 90
       50
102
RTVSPost2010PropOp47
 70
     1
102
RTVSPost2010Prop48
 90
       50
102
RTVSPost2010PropOp48
 70
     1
102
RTVSPost2010Prop49
280
     0
102
RTVSPost2010PropOp49
 70
     1
102
RTVSPost2010Prop50
 90
       50
102
RTVSPost2010PropOp50
 70
     1
102
RTVSPost2010Prop51ColorIndex
 90
      256
102
RTVSPost2010Prop51ColorRGB
 90
-16777216
102
RTVSPost2010PropOp51
 70
     0
102
RTVSPost2010Prop52
140
1.0
102
RTVSPost2010PropOp52
 70
     0
102
RTVSPost2010Prop53
 90
        2
102
RTVSPost2010PropOp53
 70
     1
102
RTVSPost2010Prop54
  1
strokes_ogs.tif
102
RTVSPost2010PropOp54
 70
     1
102
RTVSPost2010Prop55
280
     0
102
RTVSPost2010PropOp55
 70
     1
102
RTVSPost2010Prop56
140
1.0
102
RTVSPost2010PropOp56
 70
     1
102
RTVSPost2010Prop57
140
1.0
102
RTVSPost2010PropOp57
 70
     1
102
RTVSPropertyOp0
 70
     1
102
RTVSPropertyOp1
 70
     1
102
RTVSPropertyOp2
 70
     1
102
RTVSPropertyOp3
 70
     1
102
RTVSPropertyOp4
 70
     1
102
RTVSPropertyOp5
 70
     1
102
RTVSPropertyOp6
 70
     1
102
RTVSPropertyOp7
 70
     1
102
RTVSPropertyOp8
 70
     1
102
RTVSPropertyOp9
 70
     1
102
RTVSPropertyOp10
 70
     1
102
RTVSPropertyOp11
 70
     1
102
RTVSPropertyOp12
 70
     1
102
RTVSPropertyOp13
 70
     1
102
RTVSPropertyOp14
 70
     1
102
RTVSPropertyOp15
 70
     1
102
RTVSPropertyOp16
 70
     1
102
RTVSPropertyOp17
 70
     1
102
RTVSPropertyOp18
 70
     1
102
RTVSPropertyOp19
 70
     1
102
RTVSPropertyOp20
 70
     1
102
RTVSPropertyOp21
 70
     1
102
RTVSPropertyOp22
 70
     1
102
RTVSPropertyOp23
 70
     1
102
RTVSPropertyOp24
 70
     1
102
RTVSPropertyOp25
 70
     1
102
RTVSPropertyOp26
 70
     1
102
RTVSPropertyOp27
 70
     1
102
RTVSPropertyOp28
 70
     1
102
RTVSPropertyOp29
 70
     1
102
RTVSPropertyOp30
 70
     1
102
RTVSPropertyOp31
 70
     1
102
RTVSPropertyOp32
 70
     1
102
RTVSPropertyOp33
 70
     1
102
RTVSPropertyOp34
 70
     1
102
RTVSPropertyOp35
 70
     1
102
RTVSPropertyOp36
 70
     1
102
RTVSPropertyOp37
 70
     1
102
RTVSPropertyOp38
 70
     1
102
RTVSPropertyOp39
 70
     1
102
RTVSPropertyOp40
 70
     1
102
RTVSPropertyOp41
 70
     1
102
RTVSPropertyOp42
 70
     1
102
RTVSPropertyOp43
 70
     1
102
RTVSPropertyOp44
 70
     1
102
RTVSPropertyOp45
 70
     1
102
RTVSPropertyOp46
 70
     1
102
RTVSPropertyOp47
 70
     1
102
RTVSPropertyOp48
 70
     1
102
RTVSPropertyOp49
 70
     1
102
RTVSPropertyOp50
 70
     1
102
RTVSPropertyOp51
 70
     0
102
RTVSPropertyOp52
 70
     0
102
RTVSPropertyOp53
 70
     1
102
RTVSPropertyOp54
 70
     1
102
RTVSPropertyOp55
 70
     1
102
RTVSPropertyOp56
 70
     1
102
RTVSPropertyOp57
 70
     1
102
RTVSPropertyOp58
 70
     1
102
RTVSPropertyOp59
 70
     1
102
RTVSPropertyOp60
 70
     1
102
RTVSPropertyOp61
 70
     1
102
RTVSPropertyOp62
 70
     1
  0
XRECORD
  5
3A8
102
{ACAD_REACTORS
330
3A7
102
}
330
3A7
100
AcDbXrecord
280
     1
102
RTVSPost2010Prop28
280
     0
102
RTVSPost2010PropOp28
 70
     1
102
RTVSPost2010Prop29
280
     1
102
RTVSPost2010PropOp29
 70
     1
102
RTVSPost2010Prop30
280
     1
102
RTVSPost2010PropOp30
 70
     1
102
RTVSPost2010Prop31
280
     0
102
RTVSPost2010PropOp31
 70
     1
102
RTVSPost2010Prop32
280
     0
102
RTVSPost2010PropOp32
 70
     1
102
RTVSPost2010Prop33
280
     0
102
RTVSPost2010PropOp33
 70
     1
102
RTVSPost2010Prop34
280
     0
102
RTVSPost2010PropOp34
 70
     1
102
RTVSPost2010Prop35
280
     0
102
RTVSPost2010PropOp35
 70
     1
102
RTVSPost2010Prop36
280
     0
102
RTVSPost2010PropOp36
 70
     1
102
RTVSPost2010Prop37
 90
       50
102
RTVSPost2010PropOp37
 70
     1
102
RTVSPost2010Prop38
140
0.0
102
RTVSPost2010PropOp38
 70
     1
102
RTVSPost2010Prop39
140
1.0
102
RTVSPost2010PropOp39
 70
     1
102
RTVSPost2010Prop40
 90
        0
102
RTVSPost2010PropOp40
 70
     1
102
RTVSPost2010Prop41ColorIndex
 90
       18
102
RTVSPost2010Prop41ColorRGB
 90
        0
102
RTVSPost2010PropOp41
 70
     1
102
RTVSPost2010Prop42
 90
       50
102
RTVSPost2010PropOp42
 70
     1
102
RTVSPost2010Prop43
 90
        3
102
RTVSPost2010PropOp43
 70
     1
102
RTVSPost2010Prop44ColorIndex
 90
        5
102
RTVSPost2010Prop44ColorRGB
 90
      255
102
RTVSPost2010PropOp44
 70
     1
102
RTVSPost2010Prop45
280
     0
102
RTVSPost2010PropOp45
 70
     1
102
RTVSPost2010Prop46
 90
       50
102
RTVSPost2010PropOp46
 70
     1
102
RTVSPost2010Prop47
 90
       50
102
RTVSPost2010PropOp47
 70
     1
102
RTVSPost2010Prop48
 90
       50
102
RTVSPost2010PropOp48
 70
     1
102
RTVSPost2010Prop49
280
     0
102
RTVSPost2010PropOp49
 70
     1
102
RTVSPost2010Prop50
 90
       50
102
RTVSPost2010PropOp50
 70
     1
102
RTVSPost2010Prop51ColorIndex
 90
      256
102
RTVSPost2010Prop51ColorRGB
 90
-16777216
102
RTVSPost2010PropOp51
 70
     0
102
RTVSPost2010Prop52
140
1.0
102
RTVSPost2010PropOp52
 70
     0
102
RTVSPost2010Prop53
 90
        2
102
RTVSPost2010PropOp53
 70
     1
102
RTVSPost2010Prop54
  1
strokes_ogs.tif
102
RTVSPost2010PropOp54
 70
     1
102
RTVSPost2010Prop55
280
     0
102
RTVSPost2010PropOp55
 70
     1
102
RTVSPost2010Prop56
140
1.0
102
RTVSPost2010PropOp56
 70
     1
102
RTVSPost2010Prop57
140
1.0
102
RTVSPost2010PropOp57
 70
     1
102
RTVSPropertyOp0
 70
     1
102
RTVSPropertyOp1
 70
     1
102
RTVSPropertyOp2
 70
     1
102
RTVSPropertyOp3
 70
     1
102
RTVSPropertyOp4
 70
     1
102
RTVSPropertyOp5
 70
     1
102
RTVSPropertyOp6
 70
     1
102
RTVSPropertyOp7
 70
     1
102
RTVSPropertyOp8
 70
     1
102
RTVSPropertyOp9
 70
     1
102
RTVSPropertyOp10
 70
     1
102
RTVSPropertyOp11
 70
     1
102
RTVSPropertyOp12
 70
     1
102
RTVSPropertyOp13
 70
     1
102
RTVSPropertyOp14
 70
     1
102
RTVSPropertyOp15
 70
     1
102
RTVSPropertyOp16
 70
     1
102
RTVSPropertyOp17
 70
     1
102
RTVSPropertyOp18
 70
     1
102
RTVSPropertyOp19
 70
     1
102
RTVSPropertyOp20
 70
     1
102
RTVSPropertyOp21
 70
     1
102
RTVSPropertyOp22
 70
     1
102
RTVSPropertyOp23
 70
     1
102
RTVSPropertyOp24
 70
     1
102
RTVSPropertyOp25
 70
     1
102
RTVSPropertyOp26
 70
     1
102
RTVSPropertyOp27
 70
     1
102
RTVSPropertyOp28
 70
     1
102
RTVSPropertyOp29
 70
     1
102
RTVSPropertyOp30
 70
     1
102
RTVSPropertyOp31
 70
     1
102
RTVSPropertyOp32
 70
     1
102
RTVSPropertyOp33
 70
     1
102
RTVSPropertyOp34
 70
     1
102
RTVSPropertyOp35
 70
     1
102
RTVSPropertyOp36
 70
     1
102
RTVSPropertyOp37
 70
     1
102
RTVSPropertyOp38
 70
     1
102
RTVSPropertyOp39
 70
     1
102
RTVSPropertyOp40
 70
     1
102
RTVSPropertyOp41
 70
     1
102
RTVSPropertyOp42
 70
     1
102
RTVSPropertyOp43
 70
     1
102
RTVSPropertyOp44
 70
     1
102
RTVSPropertyOp45
 70
     1
102
RTVSPropertyOp46
 70
     1
102
RTVSPropertyOp47
 70
     1
102
RTVSPropertyOp48
 70
     1
102
RTVSPropertyOp49
 70
     1
102
RTVSPropertyOp50
 70
     1
102
RTVSPropertyOp51
 70
     0
102
RTVSPropertyOp52
 70
     0
102
RTVSPropertyOp53
 70
     1
102
RTVSPropertyOp54
 70
     1
102
RTVSPropertyOp55
 70
     1
102
RTVSPropertyOp56
 70
     1
102
RTVSPropertyOp57
 70
     1
102
RTVSPropertyOp58
 70
     1
102
RTVSPropertyOp59
 70
     1
102
RTVSPropertyOp60
 70
     1
102
RTVSPropertyOp61
 70
     1
102
RTVSPropertyOp62
 70
     1
  0
ENDSEC
  0
EOF
