  0
SECTION
  2
HEADER
  9
$ACADVER
  1
AC1018
  9
$ACADMAINTVER
 70
   104
  9
$DWGCODEPAGE
  3
ANSI_1250
  9
$LASTSAVEDBY
  1
wq7085
  9
$INSBASE
 10
0.0
 20
0.0
 30
0.0
  9
$EXTMIN
 10
188.6658343333333
 20
118.534924
 30
0.0
  9
$EXTMAX
 10
411.805085
 20
345.2288016666667
 30
0.0
  9
$LIMMIN
 10
-0.5
 20
-0.5
  9
$LIMMAX
 10
5.0
 20
5.0
  9
$ORTHOMODE
 70
     0
  9
$REGENMODE
 70
     1
  9
$FILLMODE
 70
     1
  9
$QTEXTMODE
 70
     0
  9
$MIRRTEXT
 70
     1
  9
$LTSCALE
 40
1.0
  9
$ATTMODE
 70
     1
  9
$TEXTSIZE
 40
0.2
  9
$TRACEWID
 40
0.05
  9
$TEXTSTYLE
  7
Standard
  9
$CLAYER
  8
0
  9
$CELTYPE
  6
ByLayer
  9
$CECOLOR
 62
   256
  9
$CELTSCALE
 40
1.0
  9
$DISPSILH
 70
     0
  9
$DIMSCALE
 40
1.0
  9
$DIMASZ
 40
0.18
  9
$DIMEXO
 40
0.0625
  9
$DIMDLI
 40
0.38
  9
$DIMRND
 40
0.0
  9
$DIMDLE
 40
0.0
  9
$DIMEXE
 40
0.18
  9
$DIMTP
 40
0.0
  9
$DIMTM
 40
0.0
  9
$DIMTXT
 40
0.18
  9
$DIMCEN
 40
0.09
  9
$DIMTSZ
 40
0.0
  9
$DIMTOL
 70
     0
  9
$DIMLIM
 70
     0
  9
$DIMTIH
 70
     1
  9
$DIMTOH
 70
     1
  9
$DIMSE1
 70
     0
  9
$DIMSE2
 70
     0
  9
$DIMTAD
 70
     0
  9
$DIMZIN
 70
     0
  9
$DIMBLK
  1

  9
$DIMASO
 70
     1
  9
$DIMSHO
 70
     1
  9
$DIMPOST
  1

  9
$DIMAPOST
  1

  9
$DIMALT
 70
     0
  9
$DIMALTD
 70
     2
  9
$DIMALTF
 40
25.4
  9
$DIMLFAC
 40
1.0
  9
$DIMTOFL
 70
     0
  9
$DIMTVP
 40
0.0
  9
$DIMTIX
 70
     0
  9
$DIMSOXD
 70
     0
  9
$DIMSAH
 70
     0
  9
$DIMBLK1
  1

  9
$DIMBLK2
  1

  9
$DIMSTYLE
  2
Standard
  9
$DIMCLRD
 70
     0
  9
$DIMCLRE
 70
     0
  9
$DIMCLRT
 70
     0
  9
$DIMTFAC
 40
1.0
  9
$DIMGAP
 40
0.09
  9
$DIMJUST
 70
     0
  9
$DIMSD1
 70
     0
  9
$DIMSD2
 70
     0
  9
$DIMTOLJ
 70
     1
  9
$DIMTZIN
 70
     0
  9
$DIMALTZ
 70
     0
  9
$DIMALTTZ
 70
     0
  9
$DIMUPT
 70
     0
  9
$DIMDEC
 70
     4
  9
$DIMTDEC
 70
     4
  9
$DIMALTU
 70
     2
  9
$DIMALTTD
 70
     2
  9
$DIMTXSTY
  7
Standard
  9
$DIMAUNIT
 70
     0
  9
$DIMADEC
 70
     0
  9
$DIMALTRND
 40
0.0
  9
$DIMAZIN
 70
     0
  9
$DIMDSEP
 70
    46
  9
$DIMATFIT
 70
     3
  9
$DIMFRAC
 70
     0
  9
$DIMLDRBLK
  1

  9
$DIMLUNIT
 70
     2
  9
$DIMLWD
 70
    -2
  9
$DIMLWE
 70
    -2
  9
$DIMTMOVE
 70
     0
  9
$LUNITS
 70
     2
  9
$LUPREC
 70
     4
  9
$SKETCHINC
 40
0.1
  9
$FILLETRAD
 40
0.5
  9
$AUNITS
 70
     0
  9
$AUPREC
 70
     0
  9
$MENU
  1
.
  9
$ELEVATION
 40
0.0
  9
$PELEVATION
 40
0.0
  9
$THICKNESS
 40
0.0
  9
$LIMCHECK
 70
     0
  9
$CHAMFERA
 40
0.0
  9
$CHAMFERB
 40
0.0
  9
$CHAMFERC
 40
0.0
  9
$CHAMFERD
 40
0.0
  9
$SKPOLY
 70
     0
  9
$TDCREATE
 40
2459005.402094908
  9
$TDUCREATE
 40
2459005.318771945
  9
$TDUPDATE
 40
2459005.402893519
  9
$TDUUPDATE
 40
2459005.319560185
  9
$TDINDWG
 40
0.0005092708
  9
$TDUSRTIMER
 40
0.0004976968
  9
$USRTIMER
 70
     1
  9
$ANGBASE
 50
0.0
  9
$ANGDIR
 70
     0
  9
$PDMODE
 70
     0
  9
$PDSIZE
 40
0.0
  9
$PLINEWID
 40
0.0
  9
$SPLFRAME
 70
     0
  9
$SPLINETYPE
 70
     6
  9
$SPLINESEGS
 70
     8
  9
$HANDSEED
  5
3A5
  9
$SURFTAB1
 70
     6
  9
$SURFTAB2
 70
     6
  9
$SURFTYPE
 70
     6
  9
$SURFU
 70
     6
  9
$SURFV
 70
     6
  9
$UCSBASE
  2

  9
$UCSNAME
  2

  9
$UCSORG
 10
274.404842
 20
288.907994
 30
0.0
  9
$UCSXDIR
 10
1.0
 20
0.0
 30
0.0
  9
$UCSYDIR
 10
0.0
 20
1.0
 30
0.0
  9
$UCSORTHOREF
  2

  9
$UCSORTHOVIEW
 70
     0
  9
$UCSORGTOP
 10
0.0
 20
0.0
 30
0.0
  9
$UCSORGBOTTOM
 10
0.0
 20
0.0
 30
0.0
  9
$UCSORGLEFT
 10
0.0
 20
0.0
 30
0.0
  9
$UCSORGRIGHT
 10
0.0
 20
0.0
 30
0.0
  9
$UCSORGFRONT
 10
0.0
 20
0.0
 30
0.0
  9
$UCSORGBACK
 10
0.0
 20
0.0
 30
0.0
  9
$PUCSBASE
  2

  9
$PUCSNAME
  2

  9
$PUCSORG
 10
0.0
 20
0.0
 30
0.0
  9
$PUCSXDIR
 10
1.0
 20
0.0
 30
0.0
  9
$PUCSYDIR
 10
0.0
 20
1.0
 30
0.0
  9
$PUCSORTHOREF
  2

  9
$PUCSORTHOVIEW
 70
     0
  9
$PUCSORGTOP
 10
0.0
 20
0.0
 30
0.0
  9
$PUCSORGBOTTOM
 10
0.0
 20
0.0
 30
0.0
  9
$PUCSORGLEFT
 10
0.0
 20
0.0
 30
0.0
  9
$PUCSORGRIGHT
 10
0.0
 20
0.0
 30
0.0
  9
$PUCSORGFRONT
 10
0.0
 20
0.0
 30
0.0
  9
$PUCSORGBACK
 10
0.0
 20
0.0
 30
0.0
  9
$USERI1
 70
     0
  9
$USERI2
 70
     0
  9
$USERI3
 70
     0
  9
$USERI4
 70
     0
  9
$USERI5
 70
     0
  9
$USERR1
 40
0.0
  9
$USERR2
 40
0.0
  9
$USERR3
 40
0.0
  9
$USERR4
 40
0.0
  9
$USERR5
 40
0.0
  9
$WORLDVIEW
 70
     1
  9
$SHADEDGE
 70
     3
  9
$SHADEDIF
 70
    70
  9
$TILEMODE
 70
     1
  9
$MAXACTVP
 70
    64
  9
$PINSBASE
 10
0.0
 20
0.0
 30
0.0
  9
$PLIMCHECK
 70
     0
  9
$PEXTMIN
 10
-0.5
 20
-0.5
 30
-0.5
  9
$PEXTMAX
 10
5.0
 20
5.0
 30
5.0
  9
$PLIMMIN
 10
-0.5
 20
-0.5
  9
$PLIMMAX
 10
5.0
 20
5.0
  9
$UNITMODE
 70
     0
  9
$VISRETAIN
 70
     1
  9
$PLINEGEN
 70
     0
  9
$PSLTSCALE
 70
     1
  9
$TREEDEPTH
 70
  3020
  9
$CMLSTYLE
  2
Standard
  9
$CMLJUST
 70
     0
  9
$CMLSCALE
 40
1.0
  9
$PROXYGRAPHICS
 70
     1
  9
$MEASUREMENT
 70
     1
  9
$CELWEIGHT
370
    13
  9
$ENDCAPS
280
     0
  9
$JOINSTYLE
280
     0
  9
$LWDISPLAY
290
     0
  9
$INSUNITS
 70
     4
  9
$HYPERLINKBASE
  1

  9
$STYLESHEET
  1

  9
$XEDIT
290
     1
  9
$CEPSNTYPE
380
     0
  9
$PSTYLEMODE
290
     1
  9
$FINGERPRINTGUID
  2
{5F2576BC-83EC-4D91-8057-F65FC288C059}
  9
$VERSIONGUID
  2
{8885C5A8-6BFE-7E45-AAB1-E40C9E87B474}
  9
$EXTNAMES
290
     1
  9
$PSVPSCALE
 40
0.0
  9
$OLESTARTUP
290
     0
  9
$SORTENTS
280
   127
  9
$INDEXCTL
280
     0
  9
$HIDETEXT
280
     1
  9
$XCLIPFRAME
290
     0
  9
$HALOGAP
280
     0
  9
$OBSCOLOR
 70
   257
  9
$OBSLTYPE
280
     0
  9
$INTERSECTIONDISPLAY
280
     0
  9
$INTERSECTIONCOLOR
 70
   257
  9
$DIMASSOC
280
     2
  9
$PROJECTNAME
  1

  0
ENDSEC
  0
SECTION
  2
CLASSES
  0
CLASS
  1
ACDBDICTIONARYWDFLT
  2
AcDbDictionaryWithDefault
  3
ObjectDBX Classes
 90
        0
 91
        1
280
     0
281
     0
  0
CLASS
  1
VISUALSTYLE
  2
AcDbVisualStyle
  3
ObjectDBX Classes
 90
     4095
 91
       24
280
     0
281
     0
  0
CLASS
  1
MATERIAL
  2
AcDbMaterial
  3
ObjectDBX Classes
 90
     1153
 91
        3
280
     0
281
     0
  0
CLASS
  1
SCALE
  2
AcDbScale
  3
ObjectDBX Classes
 90
     1153
 91
       33
280
     0
281
     0
  0
CLASS
  1
TABLESTYLE
  2
AcDbTableStyle
  3
ObjectDBX Classes
 90
     4095
 91
        1
280
     0
281
     0
  0
CLASS
  1
MLEADERSTYLE
  2
AcDbMLeaderStyle
  3
ACDB_MLEADERSTYLE_CLASS
 90
     4095
 91
        1
280
     0
281
     0
  0
CLASS
  1
SUN
  2
AcDbSun
  3
SCENEOE
 90
     1153
 91
        0
280
     0
281
     0
  0
CLASS
  1
DIMASSOC
  2
AcDbDimAssoc
  3
"AcDbDimAssoc|Product Desc:     AcDim ARX App For Dimension|Company:          Autodesk, Inc.|WEB Address:      www.autodesk.com"
 90
        0
 91
        7
280
     0
281
     0
  0
CLASS
  1
DICTIONARYVAR
  2
AcDbDictionaryVar
  3
ObjectDBX Classes
 90
        0
 91
        8
280
     0
281
     0
  0
CLASS
  1
CELLSTYLEMAP
  2
AcDbCellStyleMap
  3
ObjectDBX Classes
 90
     1152
 91
        2
280
     0
281
     0
  0
CLASS
  1
ACDBSECTIONVIEWSTYLE
  2
AcDbSectionViewStyle
  3
ObjectDBX Classes
 90
     1025
 91
        1
280
     0
281
     0
  0
CLASS
  1
ACDBDETAILVIEWSTYLE
  2
AcDbDetailViewStyle
  3
ObjectDBX Classes
 90
     1025
 91
        1
280
     0
281
     0
  0
CLASS
  1
SORTENTSTABLE
  2
AcDbSortentsTable
  3
ObjectDBX Classes
 90
        0
 91
        1
280
     0
281
     0
  0
ENDSEC
  0
SECTION
  2
TABLES
  0
TABLE
  2
VPORT
  5
8
330
0
100
AcDbSymbolTable
 70
    16
  0
VPORT
  5
29
330
8
100
AcDbSymbolTableRecord
100
AcDbViewportTableRecord
  2
*Active
 70
     0
 10
0.0
 20
0.0
 11
1.0
 21
1.0
 12
307.5980309473942
 22
287.470631890291
 13
0.0
 23
0.0
 14
0.5
 24
0.5
 15
0.5
 25
0.5
 16
0.0
 26
0.0
 36
1.0
 17
0.0
 27
0.0
 37
0.0
 40
207.4880483081291
 41
2.283154121863799
 42
50.0
 43
423.5281179999999
 44
-423.5281179999999
 50
0.0
 51
0.0
 71
     0
 72
   100
 73
     1
 74
     3
 75
     0
 76
     0
 77
     0
 78
     0
281
     0
 65
     1
110
274.404842
120
288.907994
130
0.0
111
1.0
121
0.0
131
0.0
112
0.0
122
1.0
132
0.0
 79
     0
146
0.0
1001
ACAD_NAV_VCDISPLAY
1070
     3
  0
VPORT
  5
2A6
330
8
100
AcDbSymbolTableRecord
100
AcDbViewportTableRecord
  2
L1
 70
     0
 10
0.0
 20
0.0
 11
1.0
 21
1.0
 12
299.731255
 22
231.854446
 13
0.0
 23
0.0
 14
0.5
 24
0.5
 15
0.5
 25
0.5
 16
0.0
 26
0.0
 36
1.0
 17
0.0
 27
0.0
 37
0.0
 40
207.433333
 41
0.085602
 42
50.0
 43
423.5281179999999
 44
-423.5281179999999
 50
0.0
 51
0.0
 71
     0
 72
   100
 73
     1
 74
     3
 75
     0
 76
     0
 77
     0
 78
     0
281
     0
 65
     1
110
0.0
120
0.0
130
0.0
111
1.0
121
0.0
131
0.0
112
0.0
122
1.0
132
0.0
 79
     0
146
0.0
  0
VPORT
  5
2A7
330
8
100
AcDbSymbolTableRecord
100
AcDbViewportTableRecord
  2
L2
 70
     0
 10
0.0
 20
0.0
 11
0.5
 21
1.0
 12
0.0
 22
0.0
 13
0.0
 23
0.0
 14
0.5
 24
0.5
 15
0.5
 25
0.5
 16
0.0
 26
-1.0
 36
0.0
 17
0.0
 27
0.0
 37
0.0
 40
1319.735116
 41
0.013455
 42
50.0
 43
679.920199
 44
-679.920199
 50
0.0
 51
0.0
 71
     0
 72
   100
 73
     1
 74
     3
 75
     0
 76
     0
 77
     0
 78
     0
281
     0
 65
     1
110
0.0
120
0.0
130
0.0
111
1.0
121
0.0
131
0.0
112
0.0
122
1.0
132
0.0
 79
     0
146
0.0
  0
VPORT
  5
2A8
330
8
100
AcDbSymbolTableRecord
100
AcDbViewportTableRecord
  2
L2
 70
     0
 10
0.5
 20
0.0
 11
1.0
 21
1.0
 12
0.0
 22
0.0
 13
0.0
 23
0.0
 14
0.5
 24
0.5
 15
0.5
 25
0.5
 16
1.0
 26
0.0
 36
0.0
 17
0.0
 27
0.0
 37
0.0
 40
1319.735116
 41
0.013455
 42
50.0
 43
667.9688169999999
 44
-667.9688169999999
 50
0.0
 51
0.0
 71
     0
 72
   100
 73
     1
 74
     3
 75
     0
 76
     0
 77
     0
 78
     0
281
     0
 65
     1
110
0.0
120
0.0
130
0.0
111
1.0
121
0.0
131
0.0
112
0.0
122
1.0
132
0.0
 79
     0
146
0.0
  0
VPORT
  5
2A9
330
8
100
AcDbSymbolTableRecord
100
AcDbViewportTableRecord
  2
L3
 70
     0
 10
0.0
 20
0.5
 11
1.0
 21
1.0
 12
299.731255
 22
231.854446
 13
0.0
 23
0.0
 14
0.5
 24
0.5
 15
0.5
 25
0.5
 16
0.0
 26
0.0
 36
1.0
 17
0.0
 27
0.0
 37
0.0
 40
207.433333
 41
0.085602
 42
50.0
 43
423.5281179999999
 44
-423.5281179999999
 50
0.0
 51
0.0
 71
     0
 72
   100
 73
     1
 74
     3
 75
     0
 76
     0
 77
     0
 78
     0
281
     0
 65
     1
110
0.0
120
0.0
130
0.0
111
1.0
121
0.0
131
0.0
112
0.0
122
1.0
132
0.0
 79
     0
146
0.0
  0
VPORT
  5
2AA
330
8
100
AcDbSymbolTableRecord
100
AcDbViewportTableRecord
  2
L3
 70
     0
 10
0.0
 20
0.0
 11
1.0
 21
0.5
 12
0.0
 22
0.0
 13
0.0
 23
0.0
 14
0.5
 24
0.5
 15
0.5
 25
0.5
 16
0.0
 26
-1.0
 36
0.0
 17
0.0
 27
0.0
 37
0.0
 40
1319.735116
 41
0.013455
 42
50.0
 43
679.920199
 44
-679.920199
 50
0.0
 51
0.0
 71
     0
 72
   100
 73
     1
 74
     3
 75
     0
 76
     0
 77
     0
 78
     0
281
     0
 65
     1
110
0.0
120
0.0
130
0.0
111
1.0
121
0.0
131
0.0
112
0.0
122
1.0
132
0.0
 79
     0
146
0.0
  0
VPORT
  5
2AB
330
8
100
AcDbSymbolTableRecord
100
AcDbViewportTableRecord
  2
L4
 70
     0
 10
0.0
 20
0.5
 11
0.5
 21
1.0
 12
299.731255
 22
231.854446
 13
0.0
 23
0.0
 14
0.5
 24
0.5
 15
0.5
 25
0.5
 16
0.0
 26
0.0
 36
1.0
 17
0.0
 27
0.0
 37
0.0
 40
207.433333
 41
0.085602
 42
50.0
 43
423.5281179999999
 44
-423.5281179999999
 50
0.0
 51
0.0
 71
     0
 72
   100
 73
     1
 74
     3
 75
     0
 76
     0
 77
     0
 78
     0
281
     0
 65
     1
110
0.0
120
0.0
130
0.0
111
1.0
121
0.0
131
0.0
112
0.0
122
1.0
132
0.0
 79
     0
146
0.0
  0
VPORT
  5
2AC
330
8
100
AcDbSymbolTableRecord
100
AcDbViewportTableRecord
  2
L4
 70
     0
 10
0.0
 20
0.0
 11
0.5
 21
0.5
 12
0.0
 22
0.0
 13
0.0
 23
0.0
 14
0.5
 24
0.5
 15
0.5
 25
0.5
 16
0.0
 26
-1.0
 36
0.0
 17
0.0
 27
0.0
 37
0.0
 40
1319.735116
 41
0.013455
 42
50.0
 43
679.920199
 44
-679.920199
 50
0.0
 51
0.0
 71
     0
 72
   100
 73
     1
 74
     3
 75
     0
 76
     0
 77
     0
 78
     0
281
     0
 65
     1
110
0.0
120
0.0
130
0.0
111
1.0
121
0.0
131
0.0
112
0.0
122
1.0
132
0.0
 79
     0
146
0.0
  0
VPORT
  5
2AD
330
8
100
AcDbSymbolTableRecord
100
AcDbViewportTableRecord
  2
L4
 70
     0
 10
0.5
 20
0.0
 11
1.0
 21
0.5
 12
0.0
 22
0.0
 13
0.0
 23
0.0
 14
0.5
 24
0.5
 15
0.5
 25
0.5
 16
1.0
 26
0.0
 36
0.0
 17
0.0
 27
0.0
 37
0.0
 40
1319.735116
 41
0.013455
 42
50.0
 43
667.9688169999999
 44
-667.9688169999999
 50
0.0
 51
0.0
 71
     0
 72
   100
 73
     1
 74
     3
 75
     0
 76
     0
 77
     0
 78
     0
281
     0
 65
     1
110
0.0
120
0.0
130
0.0
111
1.0
121
0.0
131
0.0
112
0.0
122
1.0
132
0.0
 79
     0
146
0.0
  0
VPORT
  5
2AE
330
8
100
AcDbSymbolTableRecord
100
AcDbViewportTableRecord
  2
L4
 70
     0
 10
0.5
 20
0.5
 11
1.0
 21
1.0
 12
0.0
 22
0.0
 13
0.0
 23
0.0
 14
0.5
 24
0.5
 15
0.5
 25
0.5
 16
0.5773502691896259
 26
-0.5773502691896259
 36
0.5773502691896259
 17
0.0
 27
0.0
 37
0.0
 40
1296.074958
 41
0.0137
 42
50.0
 43
675.1032679999999
 44
-675.1032679999999
 50
0.0
 51
0.0
 71
     0
 72
   100
 73
     1
 74
     3
 75
     0
 76
     0
 77
     0
 78
     0
281
     0
 65
     1
110
0.0
120
0.0
130
0.0
111
1.0
121
0.0
131
0.0
112
0.0
122
1.0
132
0.0
 79
     0
146
0.0
  0
VPORT
  5
2AF
330
8
100
AcDbSymbolTableRecord
100
AcDbViewportTableRecord
  2
L6
 70
     0
 10
0.0
 20
0.5
 11
0.333333
 21
1.0
 12
0.0
 22
0.0
 13
0.0
 23
0.0
 14
0.5
 24
0.5
 15
0.5
 25
0.5
 16
0.7188730927569434
 26
-0.5850486126764433
 36
0.3754192287502549
 17
0.0
 27
0.0
 37
0.0
 40
1367.812327
 41
0.012982
 42
50.0
 43
708.2012429999999
 44
-708.2012429999999
 50
0.0
 51
0.0
 71
     0
 72
   100
 73
     1
 74
     3
 75
     0
 76
     0
 77
     0
 78
     0
281
     0
 65
     1
110
0.0
120
0.0
130
0.0
111
1.0
121
0.0
131
0.0
112
0.0
122
1.0
132
0.0
 79
     0
146
0.0
  0
VPORT
  5
2B0
330
8
100
AcDbSymbolTableRecord
100
AcDbViewportTableRecord
  2
L6
 70
     0
 10
0.0
 20
0.0
 11
0.333333
 21
0.5
 12
0.0
 22
0.0
 13
0.0
 23
0.0
 14
0.5
 24
0.5
 15
0.5
 25
0.5
 16
-1.0
 26
0.0
 36
0.0
 17
0.0
 27
0.0
 37
0.0
 40
1319.735116
 41
0.013455
 42
50.0
 43
667.9688169999999
 44
-667.9688169999999
 50
0.0
 51
0.0
 71
     0
 72
   100
 73
     1
 74
     3
 75
     0
 76
     0
 77
     0
 78
     0
281
     0
 65
     1
110
0.0
120
0.0
130
0.0
111
1.0
121
0.0
131
0.0
112
0.0
122
1.0
132
0.0
 79
     0
146
0.0
  0
VPORT
  5
2B1
330
8
100
AcDbSymbolTableRecord
100
AcDbViewportTableRecord
  2
L6
 70
     0
 10
0.333333
 20
0.5
 11
0.666667
 21
1.0
 12
299.731255
 22
231.854446
 13
0.0
 23
0.0
 14
0.5
 24
0.5
 15
0.5
 25
0.5
 16
0.0
 26
0.0
 36
1.0
 17
0.0
 27
0.0
 37
0.0
 40
207.433333
 41
0.085602
 42
50.0
 43
423.5281179999999
 44
-423.5281179999999
 50
0.0
 51
0.0
 71
     0
 72
   100
 73
     1
 74
     3
 75
     0
 76
     0
 77
     0
 78
     0
281
     0
 65
     1
110
0.0
120
0.0
130
0.0
111
1.0
121
0.0
131
0.0
112
0.0
122
1.0
132
0.0
 79
     0
146
0.0
  0
VPORT
  5
2B2
330
8
100
AcDbSymbolTableRecord
100
AcDbViewportTableRecord
  2
L6
 70
     0
 10
0.333333
 20
0.0
 11
0.666667
 21
0.5
 12
0.0
 22
0.0
 13
0.0
 23
0.0
 14
0.5
 24
0.5
 15
0.5
 25
0.5
 16
0.0
 26
-1.0
 36
0.0
 17
0.0
 27
0.0
 37
0.0
 40
1319.735116
 41
0.013455
 42
50.0
 43
679.920199
 44
-679.920199
 50
0.0
 51
0.0
 71
     0
 72
   100
 73
     1
 74
     3
 75
     0
 76
     0
 77
     0
 78
     0
281
     0
 65
     1
110
0.0
120
0.0
130
0.0
111
1.0
121
0.0
131
0.0
112
0.0
122
1.0
132
0.0
 79
     0
146
0.0
  0
VPORT
  5
2B3
330
8
100
AcDbSymbolTableRecord
100
AcDbViewportTableRecord
  2
L6
 70
     0
 10
0.666667
 20
0.5
 11
1.0
 21
1.0
 12
0.0
 22
0.0
 13
0.0
 23
0.0
 14
0.5
 24
0.5
 15
0.5
 25
0.5
 16
0.5773502691896259
 26
-0.5773502691896259
 36
0.5773502691896259
 17
0.0
 27
0.0
 37
0.0
 40
1296.074958
 41
0.0137
 42
50.0
 43
675.1032679999999
 44
-675.1032679999999
 50
0.0
 51
0.0
 71
     0
 72
   100
 73
     1
 74
     3
 75
     0
 76
     0
 77
     0
 78
     0
281
     0
 65
     1
110
0.0
120
0.0
130
0.0
111
1.0
121
0.0
131
0.0
112
0.0
122
1.0
132
0.0
 79
     0
146
0.0
  0
VPORT
  5
2B4
330
8
100
AcDbSymbolTableRecord
100
AcDbViewportTableRecord
  2
L6
 70
     0
 10
0.666667
 20
0.0
 11
1.0
 21
0.5
 12
0.0
 22
0.0
 13
0.0
 23
0.0
 14
0.5
 24
0.5
 15
0.5
 25
0.5
 16
1.0
 26
0.0
 36
0.0
 17
0.0
 27
0.0
 37
0.0
 40
1319.735116
 41
0.013455
 42
50.0
 43
667.9688169999999
 44
-667.9688169999999
 50
0.0
 51
0.0
 71
     0
 72
   100
 73
     1
 74
     3
 75
     0
 76
     0
 77
     0
 78
     0
281
     0
 65
     1
110
0.0
120
0.0
130
0.0
111
1.0
121
0.0
131
0.0
112
0.0
122
1.0
132
0.0
 79
     0
146
0.0
  0
ENDTAB
  0
TABLE
  2
LTYPE
  5
5
330
0
100
AcDbSymbolTable
 70
     7
  0
LTYPE
  5
14
330
5
100
AcDbSymbolTableRecord
100
AcDbLinetypeTableRecord
  2
ByBlock
 70
     0
  3

 72
    65
 73
     0
 40
0.0
  0
LTYPE
  5
15
330
5
100
AcDbSymbolTableRecord
100
AcDbLinetypeTableRecord
  2
ByLayer
 70
     0
  3

 72
    65
 73
     0
 40
0.0
  0
LTYPE
  5
16
330
5
100
AcDbSymbolTableRecord
100
AcDbLinetypeTableRecord
  2
Continuous
 70
     0
  3
Solid line
 72
    65
 73
     0
 40
0.0
  0
LTYPE
  5
6E
330
5
100
AcDbSymbolTableRecord
100
AcDbLinetypeTableRecord
  2
CENTER
 70
     0
  3
____ _ ____ _ ____ _ ____
 72
    65
 73
     4
 40
47.4
 49
22.0
 74
     4
 75
     0
340
0
 46
0.0
 50
0.0
 44
0.0
 45
0.0
 49
-8.5
 74
     4
 75
     0
340
0
 46
0.0
 50
0.0
 44
0.0
 45
0.0
 49
8.5
 74
     4
 75
     0
340
0
 46
0.0
 50
0.0
 44
0.0
 45
0.0
 49
-8.5
 74
     4
 75
     0
340
0
 46
0.0
 50
0.0
 44
0.0
 45
0.0
  0
LTYPE
  5
6F
330
5
100
AcDbSymbolTableRecord
100
AcDbLinetypeTableRecord
  2
DASHDOT
 70
     0
  3
_._._._._._._._._._._._._._._._.
 72
    65
 73
     4
 40
70.0
 49
31.0
 74
     4
 75
     0
340
0
 46
0.0
 50
0.0
 44
0.0
 45
0.0
 49
-13.0
 74
     4
 75
     0
340
0
 46
0.0
 50
0.0
 44
0.0
 45
0.0
 49
13.0
 74
     4
 75
     0
340
0
 46
0.0
 50
0.0
 44
0.0
 45
0.0
 49
-13.0
 74
     4
 75
     0
340
0
 46
0.0
 50
0.0
 44
0.0
 45
0.0
  0
LTYPE
  5
70
330
5
100
AcDbSymbolTableRecord
100
AcDbLinetypeTableRecord
  2
DASHED
 70
     0
  3
__ __ __ __ __ __ __ __ __
 72
    65
 73
     2
 40
25.72
 49
12.86
 74
     4
 75
     0
340
0
 46
0.0
 50
0.0
 44
0.0
 45
0.0
 49
-12.86
 74
     4
 75
     0
340
0
 46
0.0
 50
0.0
 44
0.0
 45
0.0
  0
LTYPE
  5
71
330
5
100
AcDbSymbolTableRecord
100
AcDbLinetypeTableRecord
  2
DOT
 70
     0
  3
.........................
 72
    65
 73
     2
 40
10.0
 49
0.0
 74
     4
 75
     0
340
0
 46
0.0
 50
0.0
 44
0.0
 45
0.0
 49
-10.0
 74
     4
 75
     0
340
0
 46
0.0
 50
0.0
 44
0.0
 45
0.0
  0
LTYPE
  5
72
330
5
100
AcDbSymbolTableRecord
100
AcDbLinetypeTableRecord
  2
PHANTOM
 70
     0
  3
____ _ _ ____ _ _ _____ _ _ ____
 72
    65
 73
     6
 40
50.5
 49
18.0
 74
     4
 75
     0
340
0
 46
0.0
 50
0.0
 44
0.0
 45
0.0
 49
-6.5
 74
     4
 75
     0
340
0
 46
0.0
 50
0.0
 44
0.0
 45
0.0
 49
6.5
 74
     4
 75
     0
340
0
 46
0.0
 50
0.0
 44
0.0
 45
0.0
 49
-6.5
 74
     4
 75
     0
340
0
 46
0.0
 50
0.0
 44
0.0
 45
0.0
 49
6.5
 74
     4
 75
     0
340
0
 46
0.0
 50
0.0
 44
0.0
 45
0.0
 49
-6.5
 74
     4
 75
     0
340
0
 46
0.0
 50
0.0
 44
0.0
 45
0.0
  0
LTYPE
  5
347
330
5
100
AcDbSymbolTableRecord
100
AcDbLinetypeTableRecord
  2
CENTER2
 70
     0
  3
Center (.5x) ___ _ ___ _ ___ _ ___ _ ___ _ ___
 72
    65
 73
     4
 40
1.125
 49
0.75
 74
     0
 49
-0.125
 74
     0
 49
0.125
 74
     0
 49
-0.125
 74
     0
  0
ENDTAB
  0
TABLE
  2
LAYER
  5
2
330
0
100
AcDbSymbolTable
 70
    22
  0
LAYER
  5
10
102
{ACAD_XDICTIONARY
360
352
102
}
330
2
100
AcDbSymbolTableRecord
100
AcDbLayerTableRecord
  2
0
 70
     0
 62
     7
  6
Continuous
370
    -3
390
F
  0
LAYER
  5
200
330
2
100
AcDbSymbolTableRecord
100
AcDbLayerTableRecord
  2
Defpoints
 70
     0
 62
     7
  6
Continuous
290
     0
370
    -3
390
F
  0
LAYER
  5
344
102
{ACAD_XDICTIONARY
360
354
102
}
330
2
100
AcDbSymbolTableRecord
100
AcDbLayerTableRecord
  2
1
 70
     0
 62
     4
  6
Continuous
370
    -3
390
F
  0
LAYER
  5
345
102
{ACAD_XDICTIONARY
360
356
102
}
330
2
100
AcDbSymbolTableRecord
100
AcDbLayerTableRecord
  2
2
 70
     0
 62
     7
  6
Continuous
370
    -3
390
F
  0
LAYER
  5
346
102
{ACAD_XDICTIONARY
360
358
102
}
330
2
100
AcDbSymbolTableRecord
100
AcDbLayerTableRecord
  2
4
 70
     0
 62
     2
  6
CENTER2
370
    -3
390
F
  0
LAYER
  5
348
102
{ACAD_XDICTIONARY
360
35A
102
}
330
2
100
AcDbSymbolTableRecord
100
AcDbLayerTableRecord
  2
SK1
 70
     0
 62
     4
  6
Continuous
370
    -3
390
F
  0
LAYER
  5
349
102
{ACAD_XDICTIONARY
360
35C
102
}
330
2
100
AcDbSymbolTableRecord
100
AcDbLayerTableRecord
  2
SK2
 70
     0
 62
     7
  6
Continuous
370
    -3
390
F
  0
LAYER
  5
34B
102
{ACAD_XDICTIONARY
360
35E
102
}
330
2
100
AcDbSymbolTableRecord
100
AcDbLayerTableRecord
  2
SK4
 70
     0
 62
     2
  6
CENTER2
370
    -3
390
F
  0
LAYER
  5
34C
102
{ACAD_XDICTIONARY
360
360
102
}
330
2
100
AcDbSymbolTableRecord
100
AcDbLayerTableRecord
  2
SK6
 70
     0
 62
     5
  6
Continuous
370
    -3
390
F
  0
LAYER
  5
34D
102
{ACAD_XDICTIONARY
360
362
102
}
330
2
100
AcDbSymbolTableRecord
100
AcDbLayerTableRecord
  2
CUT
 70
     0
 62
     1
  6
Continuous
370
    -3
390
F
  0
LAYER
  5
34E
102
{ACAD_XDICTIONARY
360
364
102
}
330
2
100
AcDbSymbolTableRecord
100
AcDbLayerTableRecord
  2
NOCUT
 70
     0
 62
     7
  6
Continuous
370
    -3
390
F
  0
LAYER
  5
34F
102
{ACAD_XDICTIONARY
360
366
102
}
330
2
100
AcDbSymbolTableRecord
100
AcDbLayerTableRecord
  2
80
 70
     0
 62
     6
  6
Continuous
370
    -3
390
F
  0
LAYER
  5
350
102
{ACAD_XDICTIONARY
360
368
102
}
330
2
100
AcDbSymbolTableRecord
100
AcDbLayerTableRecord
  2
81
 70
     0
 62
     3
  6
Continuous
370
    -3
390
F
  0
ENDTAB
  0
TABLE
  2
STYLE
  5
3
330
0
100
AcDbSymbolTable
 70
     3
  0
STYLE
  5
11
330
3
100
AcDbSymbolTableRecord
100
AcDbTextStyleTableRecord
  2
Standard
 70
     0
 40
0.0
 41
1.0
 50
0.0
 71
     0
 42
0.2
  3
txt
  4

  0
STYLE
  5
1F4
330
3
100
AcDbSymbolTableRecord
100
AcDbTextStyleTableRecord
  2
cesky
 70
     0
 40
0.0
 41
1.0
 50
0.0
 71
     0
 42
0.2
  3
simplex.shx
  4

  0
STYLE
  5
1F5
330
3
100
AcDbSymbolTableRecord
100
AcDbTextStyleTableRecord
  2
DWGDirectTextStyle
 70
     0
 40
0.0
 41
1.0
 50
0.0
 71
     0
 42
0.2
  3
simplex
  4

  0
ENDTAB
  0
TABLE
  2
VIEW
  5
6
330
0
100
AcDbSymbolTable
 70
     0
  0
ENDTAB
  0
TABLE
  2
UCS
  5
7
330
0
100
AcDbSymbolTable
 70
     0
  0
ENDTAB
  0
TABLE
  2
APPID
  5
9
330
0
100
AcDbSymbolTable
 70
     7
  0
APPID
  5
12
330
9
100
AcDbSymbolTableRecord
100
AcDbRegAppTableRecord
  2
ACAD
 70
     0
  0
APPID
  5
1FC
330
9
100
AcDbSymbolTableRecord
100
AcDbRegAppTableRecord
  2
ACAD_DSTYLE_DIMBREAK
 70
     0
  0
APPID
  5
2B5
330
9
100
AcDbSymbolTableRecord
100
AcDbRegAppTableRecord
  2
ACAD_DSTYLE_DIM_LINETYPE
 70
     0
  0
APPID
  5
2B6
330
9
100
AcDbSymbolTableRecord
100
AcDbRegAppTableRecord
  2
ACAD_DSTYLE_DIM_EXT1_LINETYPE
 70
     0
  0
APPID
  5
2B7
330
9
100
AcDbSymbolTableRecord
100
AcDbRegAppTableRecord
  2
ACAD_DSTYLE_DIM_EXT2_LINETYPE
 70
     0
  0
APPID
  5
2F7
330
9
100
AcDbSymbolTableRecord
100
AcDbRegAppTableRecord
  2
ACAD_MLEADERVER
 70
     0
  0
APPID
  5
36D
330
9
100
AcDbSymbolTableRecord
100
AcDbRegAppTableRecord
  2
ACAD_NAV_VCDISPLAY
 70
     0
  0
ENDTAB
  0
TABLE
  2
DIMSTYLE
  5
A
330
0
100
AcDbSymbolTable
 70
     1
100
AcDbDimStyleTable
 71
     0
  0
DIMSTYLE
105
27
330
A
100
AcDbSymbolTableRecord
100
AcDbDimStyleTableRecord
  2
Standard
 70
     0
340
11
1001
ACAD_DSTYLE_DIMBREAK
1070
   391
1040
6.349999999999999
  0
ENDTAB
  0
TABLE
  2
BLOCK_RECORD
  5
1
330
0
100
AcDbSymbolTable
 70
    16
  0
BLOCK_RECORD
  5
1F
102
{ACAD_XDICTIONARY
360
307
102
}
330
1
100
AcDbSymbolTableRecord
100
AcDbBlockTableRecord
  2
*Model_Space
340
22
  0
BLOCK_RECORD
  5
1B
330
1
100
AcDbSymbolTableRecord
100
AcDbBlockTableRecord
  2
*Paper_Space
340
1E
  0
BLOCK_RECORD
  5
23
330
1
100
AcDbSymbolTableRecord
100
AcDbBlockTableRecord
  2
*Paper_Space0
340
26
  0
BLOCK_RECORD
  5
1F7
330
1
100
AcDbSymbolTableRecord
100
AcDbBlockTableRecord
  2
ASSORTED_DRAFT1
340
0
  0
BLOCK_RECORD
  5
201
330
1
100
AcDbSymbolTableRecord
100
AcDbBlockTableRecord
  2
*D2
340
0
  0
BLOCK_RECORD
  5
20D
330
1
100
AcDbSymbolTableRecord
100
AcDbBlockTableRecord
  2
_U0
340
0
  0
BLOCK_RECORD
  5
219
330
1
100
AcDbSymbolTableRecord
100
AcDbBlockTableRecord
  2
*D4
340
0
  0
BLOCK_RECORD
  5
225
330
1
100
AcDbSymbolTableRecord
100
AcDbBlockTableRecord
  2
_U1
340
0
  0
BLOCK_RECORD
  5
231
330
1
100
AcDbSymbolTableRecord
100
AcDbBlockTableRecord
  2
*D6
340
0
  0
BLOCK_RECORD
  5
23D
330
1
100
AcDbSymbolTableRecord
100
AcDbBlockTableRecord
  2
_U2
340
0
  0
BLOCK_RECORD
  5
249
330
1
100
AcDbSymbolTableRecord
100
AcDbBlockTableRecord
  2
*D8
340
0
  0
BLOCK_RECORD
  5
255
330
1
100
AcDbSymbolTableRecord
100
AcDbBlockTableRecord
  2
_U3
340
0
  0
BLOCK_RECORD
  5
261
330
1
100
AcDbSymbolTableRecord
100
AcDbBlockTableRecord
  2
*D10
340
0
  0
BLOCK_RECORD
  5
26C
330
1
100
AcDbSymbolTableRecord
100
AcDbBlockTableRecord
  2
_U4
340
0
  0
BLOCK_RECORD
  5
277
330
1
100
AcDbSymbolTableRecord
100
AcDbBlockTableRecord
  2
*D12
340
0
  0
BLOCK_RECORD
  5
283
330
1
100
AcDbSymbolTableRecord
100
AcDbBlockTableRecord
  2
_U5
340
0
  0
BLOCK_RECORD
  5
290
330
1
100
AcDbSymbolTableRecord
100
AcDbBlockTableRecord
  2
*D14
340
0
  0
BLOCK_RECORD
  5
29C
330
1
100
AcDbSymbolTableRecord
100
AcDbBlockTableRecord
  2
_U6
340
0
  0
ENDTAB
  0
ENDSEC
  0
SECTION
  2
BLOCKS
  0
BLOCK
  5
20
330
1F
100
AcDbEntity
  8
0
100
AcDbBlockBegin
  2
*Model_Space
 70
     0
 10
0.0
 20
0.0
 30
0.0
  3
*Model_Space
  1

  0
ENDBLK
  5
21
330
1F
100
AcDbEntity
  8
0
100
AcDbBlockEnd
  0
BLOCK
  5
1C
330
1B
100
AcDbEntity
 67
     1
  8
0
100
AcDbBlockBegin
  2
*Paper_Space
 70
     0
 10
0.0
 20
0.0
 30
0.0
  3
*Paper_Space
  1

  0
ENDBLK
  5
1D
330
1B
100
AcDbEntity
 67
     1
  8
0
100
AcDbBlockEnd
  0
BLOCK
  5
24
330
23
100
AcDbEntity
 67
     1
  8
0
100
AcDbBlockBegin
  2
*Paper_Space0
 70
     0
 10
0.0
 20
0.0
 30
0.0
  3
*Paper_Space0
  1

  0
ENDBLK
  5
25
330
23
100
AcDbEntity
 67
     1
  8
0
100
AcDbBlockEnd
  0
BLOCK
  5
1FA
330
1F7
100
AcDbEntity
  8
0
100
AcDbBlockBegin
  2
ASSORTED_DRAFT1
 70
     0
 10
0.0
 20
0.0
 30
0.0
  3
ASSORTED_DRAFT1
  1

  0
SOLID
  5
1F8
330
1F7
100
AcDbEntity
  8
0
 62
   254
370
    13
100
AcDbTrace
 10
270.185042
 20
164.534924
 30
0.0
 11
265.185046
 21
163.42645
 31
0.0
 12
265.1850379999999
 22
165.643397
 32
0.0
 13
270.185042
 23
164.534924
 33
0.0
  0
ENDBLK
  5
1FB
330
1F7
100
AcDbEntity
  8
0
100
AcDbBlockEnd
  0
BLOCK
  5
202
330
201
100
AcDbEntity
  8
0
100
AcDbBlockBegin
  2
*D2
 70
     1
 10
0.0
 20
0.0
 30
0.0
  3
*D2
  1

  0
LINE
  5
204
330
201
100
AcDbEntity
  8
0
 62
   254
370
    -2
100
AcDbLine
 10
395.404842
 20
304.907994
 30
0.0
 11
395.404842
 21
328.5109970000001
 31
0.0
  0
LINE
  5
205
330
201
100
AcDbEntity
  8
0
 62
   254
370
    -2
100
AcDbLine
 10
274.404842
 20
288.907994
 30
0.0
 11
274.404842
 21
328.5109970000001
 31
0.0
  0
LINE
  5
206
330
201
100
AcDbEntity
  8
0
 62
   254
370
    -2
100
AcDbLine
 10
391.904842
 20
327.510997
 30
0.0
 11
277.904842
 21
327.510997
 31
0.0
  0
SOLID
  5
207
330
201
100
AcDbEntity
  8
0
 62
   254
100
AcDbTrace
 10
391.904842
 20
326.927663
 30
0.0
 11
391.904842
 21
328.09433
 31
0.0
 12
395.404842
 22
327.510997
 32
0.0
 13
395.404842
 23
327.510997
 33
0.0
  0
SOLID
  5
208
330
201
100
AcDbEntity
  8
0
 62
   254
100
AcDbTrace
 10
277.904842
 20
328.09433
 30
0.0
 11
277.904842
 21
326.927663
 31
0.0
 12
274.404842
 22
327.510997
 32
0.0
 13
274.404842
 23
327.510997
 33
0.0
  0
MTEXT
  5
209
330
201
100
AcDbEntity
  8
0
 62
   254
370
    13
100
AcDbMText
 10
334.904842
 20
332.7609970000001
 30
0.0
 40
3.5
 41
0.0
 71
     5
 72
     1
  1
\A1;121
  7
cesky
 73
     1
 44
1.0
  0
POINT
  5
20A
330
201
100
AcDbEntity
  8
Defpoints
 62
     0
100
AcDbPoint
 10
395.404842
 20
304.907994
 30
0.0
  0
POINT
  5
20B
330
201
100
AcDbEntity
  8
Defpoints
 62
     0
100
AcDbPoint
 10
274.404842
 20
288.907994
 30
0.0
  0
POINT
  5
20C
330
201
100
AcDbEntity
  8
Defpoints
 62
     0
100
AcDbPoint
 10
274.404842
 20
327.510997
 30
0.0
  0
ENDBLK
  5
203
330
201
100
AcDbEntity
  8
0
100
AcDbBlockEnd
  0
BLOCK
  5
214
330
20D
100
AcDbEntity
  8
0
100
AcDbBlockBegin
  2
_U0
 70
     0
 10
0.0
 20
0.0
 30
0.0
  3
_U0
  1

  0
ENDBLK
  5
215
330
20D
100
AcDbEntity
  8
0
100
AcDbBlockEnd
  0
BLOCK
  5
21A
330
219
100
AcDbEntity
  8
0
100
AcDbBlockBegin
  2
*D4
 70
     1
 10
0.0
 20
0.0
 30
0.0
  3
*D4
  1

  0
LINE
  5
21C
330
219
100
AcDbEntity
  8
0
 62
   254
370
    -2
100
AcDbLine
 10
395.404842
 20
306.907994
 30
0.0
 11
395.404842
 21
341.687968
 31
0.0
  0
LINE
  5
21D
330
219
100
AcDbEntity
  8
0
 62
   254
370
    -2
100
AcDbLine
 10
214.404842
 20
302.907994
 30
0.0
 11
214.404842
 21
341.687968
 31
0.0
  0
LINE
  5
21E
330
219
100
AcDbEntity
  8
0
 62
   254
370
    -2
100
AcDbLine
 10
391.904842
 20
340.687968
 30
0.0
 11
217.904842
 21
340.687968
 31
0.0
  0
SOLID
  5
21F
330
219
100
AcDbEntity
  8
0
 62
   254
100
AcDbTrace
 10
391.904842
 20
340.104634
 30
0.0
 11
391.904842
 21
341.271301
 31
0.0
 12
395.404842
 22
340.687968
 32
0.0
 13
395.404842
 23
340.687968
 33
0.0
  0
SOLID
  5
220
330
219
100
AcDbEntity
  8
0
 62
   254
100
AcDbTrace
 10
217.904842
 20
341.271301
 30
0.0
 11
217.904842
 21
340.104634
 31
0.0
 12
214.404842
 22
340.687968
 32
0.0
 13
214.404842
 23
340.687968
 33
0.0
  0
MTEXT
  5
221
330
219
100
AcDbEntity
  8
0
 62
   254
370
    13
100
AcDbMText
 10
304.904842
 20
345.937968
 30
0.0
 40
3.5
 41
0.0
 71
     5
 72
     1
  1
\A1;181
  7
cesky
 73
     1
 44
1.0
  0
POINT
  5
222
330
219
100
AcDbEntity
  8
Defpoints
 62
     0
100
AcDbPoint
 10
395.404842
 20
306.907994
 30
0.0
  0
POINT
  5
223
330
219
100
AcDbEntity
  8
Defpoints
 62
     0
100
AcDbPoint
 10
214.404842
 20
302.907994
 30
0.0
  0
POINT
  5
224
330
219
100
AcDbEntity
  8
Defpoints
 62
     0
100
AcDbPoint
 10
214.404842
 20
340.687968
 30
0.0
  0
ENDBLK
  5
21B
330
219
100
AcDbEntity
  8
0
100
AcDbBlockEnd
  0
BLOCK
  5
22C
330
225
100
AcDbEntity
  8
0
100
AcDbBlockBegin
  2
_U1
 70
     0
 10
0.0
 20
0.0
 30
0.0
  3
_U1
  1

  0
ENDBLK
  5
22D
330
225
100
AcDbEntity
  8
0
100
AcDbBlockEnd
  0
BLOCK
  5
232
330
231
100
AcDbEntity
  8
0
100
AcDbBlockBegin
  2
*D6
 70
     1
 10
0.0
 20
0.0
 30
0.0
  3
*D6
  1

  0
LINE
  5
234
330
231
100
AcDbEntity
  8
0
 62
   254
370
    -2
100
AcDbLine
 10
274.404842
 20
288.907994
 30
0.0
 11
274.404842
 21
328.5109970000001
 31
0.0
  0
LINE
  5
235
330
231
100
AcDbEntity
  8
0
 62
   254
370
    -2
100
AcDbLine
 10
214.404842
 20
295.907994
 30
0.0
 11
214.404842
 21
328.5109970000001
 31
0.0
  0
LINE
  5
236
330
231
100
AcDbEntity
  8
0
 62
   254
370
    -2
100
AcDbLine
 10
270.904842
 20
327.510997
 30
0.0
 11
217.904842
 21
327.510997
 31
0.0
  0
SOLID
  5
237
330
231
100
AcDbEntity
  8
0
 62
   254
100
AcDbTrace
 10
270.904842
 20
326.927663
 30
0.0
 11
270.904842
 21
328.09433
 31
0.0
 12
274.404842
 22
327.510997
 32
0.0
 13
274.404842
 23
327.510997
 33
0.0
  0
SOLID
  5
238
330
231
100
AcDbEntity
  8
0
 62
   254
100
AcDbTrace
 10
217.904842
 20
328.09433
 30
0.0
 11
217.904842
 21
326.927663
 31
0.0
 12
214.404842
 22
327.510997
 32
0.0
 13
214.404842
 23
327.510997
 33
0.0
  0
MTEXT
  5
239
330
231
100
AcDbEntity
  8
0
 62
   254
370
    13
100
AcDbMText
 10
244.404842
 20
332.7609970000001
 30
0.0
 40
3.5
 41
0.0
 71
     5
 72
     1
  1
\A1;60
  7
cesky
 73
     1
 44
1.0
  0
POINT
  5
23A
330
231
100
AcDbEntity
  8
Defpoints
 62
     0
100
AcDbPoint
 10
274.404842
 20
288.907994
 30
0.0
  0
POINT
  5
23B
330
231
100
AcDbEntity
  8
Defpoints
 62
     0
100
AcDbPoint
 10
214.404842
 20
295.907994
 30
0.0
  0
POINT
  5
23C
330
231
100
AcDbEntity
  8
Defpoints
 62
     0
100
AcDbPoint
 10
214.404842
 20
327.510997
 30
0.0
  0
ENDBLK
  5
233
330
231
100
AcDbEntity
  8
0
100
AcDbBlockEnd
  0
BLOCK
  5
244
330
23D
100
AcDbEntity
  8
0
100
AcDbBlockBegin
  2
_U2
 70
     0
 10
0.0
 20
0.0
 30
0.0
  3
_U2
  1

  0
ENDBLK
  5
245
330
23D
100
AcDbEntity
  8
0
100
AcDbBlockEnd
  0
BLOCK
  5
24A
330
249
100
AcDbEntity
  8
0
100
AcDbBlockBegin
  2
*D8
 70
     1
 10
0.0
 20
0.0
 30
0.0
  3
*D8
  1

  0
LINE
  5
24C
330
249
100
AcDbEntity
  8
0
 62
   254
370
    -2
100
AcDbLine
 10
395.404842
 20
304.907994
 30
0.0
 11
395.404842
 21
317.275348
 31
0.0
  0
LINE
  5
24D
330
249
100
AcDbEntity
  8
0
 62
   254
370
    -2
100
AcDbLine
 10
293.408528
 20
305.125533
 30
0.0
 11
293.408528
 21
317.275348
 31
0.0
  0
LINE
  5
24E
330
249
100
AcDbEntity
  8
0
 62
   254
370
    -2
100
AcDbLine
 10
391.904842
 20
316.275348
 30
0.0
 11
296.908528
 21
316.275348
 31
0.0
  0
SOLID
  5
24F
330
249
100
AcDbEntity
  8
0
 62
   254
100
AcDbTrace
 10
391.904842
 20
315.692015
 30
0.0
 11
391.904842
 21
316.858681
 31
0.0
 12
395.404842
 22
316.275348
 32
0.0
 13
395.404842
 23
316.275348
 33
0.0
  0
SOLID
  5
250
330
249
100
AcDbEntity
  8
0
 62
   254
100
AcDbTrace
 10
296.908528
 20
316.858681
 30
0.0
 11
296.908528
 21
315.692015
 31
0.0
 12
293.408528
 22
316.275348
 32
0.0
 13
293.408528
 23
316.275348
 33
0.0
  0
MTEXT
  5
251
330
249
100
AcDbEntity
  8
0
 62
   254
370
    13
100
AcDbMText
 10
344.406685
 20
321.525348
 30
0.0
 40
3.5
 41
0.0
 71
     5
 72
     1
  1
\A1;102
  7
cesky
 73
     1
 44
1.0
  0
POINT
  5
252
330
249
100
AcDbEntity
  8
Defpoints
 62
     0
100
AcDbPoint
 10
395.404842
 20
304.907994
 30
0.0
  0
POINT
  5
253
330
249
100
AcDbEntity
  8
Defpoints
 62
     0
100
AcDbPoint
 10
293.408528
 20
305.125533
 30
0.0
  0
POINT
  5
254
330
249
100
AcDbEntity
  8
Defpoints
 62
     0
100
AcDbPoint
 10
293.408528
 20
316.275348
 30
0.0
  0
ENDBLK
  5
24B
330
249
100
AcDbEntity
  8
0
100
AcDbBlockEnd
  0
BLOCK
  5
25C
330
255
100
AcDbEntity
  8
0
100
AcDbBlockBegin
  2
_U3
 70
     0
 10
0.0
 20
0.0
 30
0.0
  3
_U3
  1

  0
ENDBLK
  5
25D
330
255
100
AcDbEntity
  8
0
100
AcDbBlockEnd
  0
BLOCK
  5
262
330
261
100
AcDbEntity
  8
0
100
AcDbBlockBegin
  2
*D10
 70
     1
 10
0.0
 20
0.0
 30
0.0
  3
*D10
  1

  0
LINE
  5
264
330
261
100
AcDbEntity
  8
0
 62
   254
370
    -2
100
AcDbLine
 10
290.703832
 20
288.907994
 30
0.0
 11
411.805085
 21
288.907994
 31
0.0
  0
LINE
  5
265
330
261
100
AcDbEntity
  8
0
 62
   254
370
    -2
100
AcDbLine
 10
330.83929
 20
304.907994
 30
0.0
 11
411.805085
 21
304.907994
 31
0.0
  0
LINE
  5
266
330
261
100
AcDbEntity
  8
0
 62
   254
370
    -2
100
AcDbLine
 10
410.805085
 20
288.907994
 30
0.0
 11
410.805085
 21
304.907994
 31
0.0
  0
SOLID
  5
267
330
261
100
AcDbEntity
  8
0
 62
   254
100
AcDbTrace
 10
411.388418
 20
301.407994
 30
0.0
 11
410.2217519999999
 21
301.407994
 31
0.0
 12
410.805085
 22
304.907994
 32
0.0
 13
410.805085
 23
304.907994
 33
0.0
  0
MTEXT
  5
268
330
261
100
AcDbEntity
  8
0
 62
   254
370
    13
100
AcDbMText
 10
405.555085
 20
279.07466
 30
0.0
 40
3.5
 41
0.0
 71
     5
 72
     1
  1
\A1;32
  7
cesky
 11
0.0
 21
1.0
 31
0.0
 73
     1
 44
1.0
  0
POINT
  5
269
330
261
100
AcDbEntity
  8
Defpoints
 62
     0
100
AcDbPoint
 10
290.703832
 20
288.907994
 30
0.0
  0
POINT
  5
26A
330
261
100
AcDbEntity
  8
Defpoints
 62
     0
100
AcDbPoint
 10
330.83929
 20
304.907994
 30
0.0
  0
POINT
  5
26B
330
261
100
AcDbEntity
  8
Defpoints
 62
     0
100
AcDbPoint
 10
410.805085
 20
304.907994
 30
0.0
  0
ENDBLK
  5
263
330
261
100
AcDbEntity
  8
0
100
AcDbBlockEnd
  0
BLOCK
  5
272
330
26C
100
AcDbEntity
  8
0
100
AcDbBlockBegin
  2
_U4
 70
     0
 10
0.0
 20
0.0
 30
0.0
  3
_U4
  1

  0
ENDBLK
  5
273
330
26C
100
AcDbEntity
  8
0
100
AcDbBlockEnd
  0
BLOCK
  5
278
330
277
100
AcDbEntity
  8
0
100
AcDbBlockBegin
  2
*D12
 70
     1
 10
0.0
 20
0.0
 30
0.0
  3
*D12
  1

  0
LINE
  5
27A
330
277
100
AcDbEntity
  8
0
 62
    95
370
    -2
100
AcDbLine
 10
216.404842
 20
304.907994
 30
0.0
 11
204.878544
 21
304.907994
 31
0.0
  0
LINE
  5
27B
330
277
100
AcDbEntity
  8
0
 62
    95
370
    -2
100
AcDbLine
 10
216.404842
 20
272.907994
 30
0.0
 11
204.878544
 21
272.907994
 31
0.0
  0
LINE
  5
27C
330
277
100
AcDbEntity
  8
0
 62
    95
370
    -2
100
AcDbLine
 10
205.878544
 20
301.407994
 30
0.0
 11
205.878544
 21
276.407994
 31
0.0
  0
SOLID
  5
27D
330
277
100
AcDbEntity
  8
0
 62
    95
100
AcDbTrace
 10
206.461878
 20
301.407994
 30
0.0
 11
205.295211
 21
301.407994
 31
0.0
 12
205.878544
 22
304.907994
 32
0.0
 13
205.878544
 23
304.907994
 33
0.0
  0
SOLID
  5
27E
330
277
100
AcDbEntity
  8
0
 62
    95
100
AcDbTrace
 10
205.295211
 20
276.407994
 30
0.0
 11
206.461878
 21
276.407994
 31
0.0
 12
205.878544
 22
272.907994
 32
0.0
 13
205.878544
 23
272.907994
 33
0.0
  0
MTEXT
  5
27F
330
277
100
AcDbEntity
  8
0
 62
    95
370
    13
100
AcDbMText
 10
200.628544
 20
288.907994
 30
0.0
 40
3.5
 41
0.0
 71
     5
 72
     1
  1
\A1;32
  7
cesky
 11
0.0
 21
1.0
 31
0.0
 73
     1
 44
1.0
  0
POINT
  5
280
330
277
100
AcDbEntity
  8
Defpoints
 62
     0
100
AcDbPoint
 10
216.404842
 20
304.907994
 30
0.0
  0
POINT
  5
281
330
277
100
AcDbEntity
  8
Defpoints
 62
     0
100
AcDbPoint
 10
216.404842
 20
272.907994
 30
0.0
  0
POINT
  5
282
330
277
100
AcDbEntity
  8
Defpoints
 62
     0
100
AcDbPoint
 10
205.878544
 20
272.907994
 30
0.0
  0
ENDBLK
  5
279
330
277
100
AcDbEntity
  8
0
100
AcDbBlockEnd
  0
BLOCK
  5
28B
330
283
100
AcDbEntity
  8
0
100
AcDbBlockBegin
  2
_U5
 70
     0
 10
0.0
 20
0.0
 30
0.0
  3
_U5
  1

  0
ENDBLK
  5
28C
330
283
100
AcDbEntity
  8
0
100
AcDbBlockEnd
  0
BLOCK
  5
291
330
290
100
AcDbEntity
  8
0
100
AcDbBlockBegin
  2
*D14
 70
     1
 10
0.0
 20
0.0
 30
0.0
  3
*D14
  1

  0
LINE
  5
293
330
290
100
AcDbEntity
  8
0
 62
    95
370
    -2
100
AcDbLine
 10
277.154842
 20
309.907994
 30
0.0
 11
192.519918
 21
309.907994
 31
0.0
  0
LINE
  5
294
330
290
100
AcDbEntity
  8
0
 62
    95
370
    -2
100
AcDbLine
 10
277.154842
 20
267.907994
 30
0.0
 11
192.519918
 21
267.907994
 31
0.0
  0
LINE
  5
295
330
290
100
AcDbEntity
  8
0
 62
    95
370
    -2
100
AcDbLine
 10
193.519918
 20
306.407994
 30
0.0
 11
193.519918
 21
271.407994
 31
0.0
  0
SOLID
  5
296
330
290
100
AcDbEntity
  8
0
 62
    95
100
AcDbTrace
 10
194.103251
 20
306.407994
 30
0.0
 11
192.936584
 21
306.407994
 31
0.0
 12
193.519918
 22
309.907994
 32
0.0
 13
193.519918
 23
309.907994
 33
0.0
  0
SOLID
  5
297
330
290
100
AcDbEntity
  8
0
 62
    95
100
AcDbTrace
 10
192.936584
 20
271.407994
 30
0.0
 11
194.103251
 21
271.407994
 31
0.0
 12
193.519918
 22
267.907994
 32
0.0
 13
193.519918
 23
267.907994
 33
0.0
  0
MTEXT
  5
298
330
290
100
AcDbEntity
  8
0
 62
    95
370
    13
100
AcDbMText
 10
188.269918
 20
288.907994
 30
0.0
 40
3.5
 41
0.0
 71
     5
 72
     1
  1
\A1;42
  7
cesky
 11
0.0
 21
1.0
 31
0.0
 73
     1
 44
1.0
  0
POINT
  5
299
330
290
100
AcDbEntity
  8
Defpoints
 62
     0
100
AcDbPoint
 10
277.154842
 20
309.907994
 30
0.0
  0
POINT
  5
29A
330
290
100
AcDbEntity
  8
Defpoints
 62
     0
100
AcDbPoint
 10
277.154842
 20
267.907994
 30
0.0
  0
POINT
  5
29B
330
290
100
AcDbEntity
  8
Defpoints
 62
     0
100
AcDbPoint
 10
193.519918
 20
267.907994
 30
0.0
  0
ENDBLK
  5
292
330
290
100
AcDbEntity
  8
0
100
AcDbBlockEnd
  0
BLOCK
  5
2A4
330
29C
100
AcDbEntity
  8
0
100
AcDbBlockBegin
  2
_U6
 70
     0
 10
0.0
 20
0.0
 30
0.0
  3
_U6
  1

  0
ENDBLK
  5
2A5
330
29C
100
AcDbEntity
  8
0
100
AcDbBlockEnd
  0
ENDSEC
  0
SECTION
  2
ENTITIES
  0
POINT
  5
73
102
{ACAD_REACTORS
330
351
102
}
330
1F
100
AcDbEntity
  8
80
100
AcDbPoint
 10
274.404842
 20
288.907994
 30
0.0
  0
POINT
  5
76
330
1F
100
AcDbEntity
  8
SK4
 60
     1
100
AcDbPoint
 10
216.404842
 20
288.907994
 30
0.0
  0
POINT
  5
78
330
1F
100
AcDbEntity
  8
SK4
 60
     1
100
AcDbPoint
 10
274.404842
 20
288.907994
 30
0.0
  0
POINT
  5
79
330
1F
100
AcDbEntity
  8
4
 60
     1
100
AcDbPoint
 10
290.703832
 20
288.907994
 30
0.0
  0
POINT
  5
7A
330
1F
100
AcDbEntity
  8
4
 60
     1
100
AcDbPoint
 10
394.722645
 20
288.907994
 30
0.0
  0
POINT
  5
7B
330
1F
100
AcDbEntity
  8
SK6
 60
     1
100
AcDbPoint
 10
274.404842
 20
288.907994
 30
0.0
  0
POINT
  5
7C
330
1F
100
AcDbEntity
  8
SK6
 60
     1
100
AcDbPoint
 10
293.408528
 20
305.125533
 30
0.0
  0
LINE
  5
7D
330
1F
100
AcDbEntity
  8
1
100
AcDbLine
 10
391.296494
 20
300.482434
 30
0.0
 11
391.327476
 21
300.588845
 31
0.0
  0
LINE
  5
7F
330
1F
100
AcDbEntity
  8
1
100
AcDbLine
 10
389.373779
 20
298.494325
 30
0.0
 11
389.343025
 21
298.3887
 31
0.0
  0
LINE
  5
80
330
1F
100
AcDbEntity
  8
1
100
AcDbLine
 10
394.682658
 20
290.047775
 30
0.0
 11
394.190758
 21
289.572752
 31
0.0
  0
LINE
  5
82
330
1F
100
AcDbEntity
  8
1
100
AcDbLine
 10
394.190758
 20
289.572752
 30
0.0
 11
394.122838
 21
289.507163
 31
0.0
  0
LINE
  5
83
330
1F
100
AcDbEntity
  8
1
100
AcDbLine
 10
395.388062
 20
288.77519
 30
0.0
 11
394.724553
 21
288.609759
 31
0.0
  0
LINE
  5
84
330
1F
100
AcDbEntity
  8
1
100
AcDbLine
 10
394.117037
 20
288.458288
 30
0.0
 11
394.724553
 21
288.609759
 31
0.0
  0
LINE
  5
85
330
1F
100
AcDbEntity
  8
1
100
AcDbLine
 10
394.59984
 20
281.464907
 30
0.0
 11
393.954856
 21
281.649853
 31
0.0
  0
LINE
  5
86
330
1F
100
AcDbEntity
  8
1
100
AcDbLine
 10
394.59984
 20
281.464907
 30
0.0
 11
395.264067
 21
281.274443
 31
0.0
  0
LINE
  5
87
330
1F
100
AcDbEntity
  8
1
100
AcDbLine
 10
393.862191
 20
280.69776
 30
0.0
 11
394.032761
 21
280.52113
 31
0.0
  0
LINE
  5
88
330
1F
100
AcDbEntity
  8
1
100
AcDbLine
 10
394.507783
 20
280.02923
 30
0.0
 11
394.032761
 21
280.52113
 31
0.0
  0
LINE
  5
8B
330
1F
100
AcDbEntity
  8
1
100
AcDbLine
 10
388.816155
 20
298.99361
 30
0.0
 11
388.847361
 21
299.100788
 31
0.0
  0
LINE
  5
8C
330
1F
100
AcDbEntity
  8
1
100
AcDbLine
 10
390.885727
 20
298.702127
 30
0.0
 11
390.854256
 21
298.594037
 31
0.0
  0
LINE
  5
8D
330
1F
100
AcDbEntity
  8
1
100
AcDbLine
 10
389.239588
 20
300.833024
 30
0.0
 11
389.271059
 21
300.941113
 31
0.0
  0
LINE
  5
8E
330
1F
100
AcDbEntity
  8
1
100
AcDbLine
 10
391.308894
 20
300.540629
 30
0.0
 11
391.277688
 21
300.433451
 31
0.0
  0
LINE
  5
8F
330
1F
100
AcDbEntity
  8
1
100
AcDbLine
 10
395.359382
 20
288.846592
 30
0.0
 11
394.728011
 21
289.985615
 31
0.0
  0
LINE
  5
90
330
1F
100
AcDbEntity
  8
1
100
AcDbLine
 10
394.623573
 20
290.096675
 30
0.0
 11
394.438136
 21
290.214481
 31
0.0
  0
LINE
  5
91
330
1F
100
AcDbEntity
  8
1
100
AcDbLine
 10
394.182754
 20
290.36793
 30
0.0
 11
394.438136
 21
290.214481
 31
0.0
  0
LINE
  5
92
330
1F
100
AcDbEntity
  8
1
100
AcDbLine
 10
394.556683
 20
280.088314
 30
0.0
 11
394.67449
 21
280.273751
 31
0.0
  0
LINE
  5
93
330
1F
100
AcDbEntity
  8
1
100
AcDbLine
 10
395.233406
 20
281.203944
 30
0.0
 11
394.67449
 21
280.273751
 31
0.0
  0
LINE
  5
94
330
1F
100
AcDbEntity
  8
1
100
AcDbLine
 10
395.399861
 20
288.479483
 30
0.0
 11
395.275424
 21
281.350477
 31
0.0
  0
LINE
  5
95
330
1F
100
AcDbEntity
  8
1
100
AcDbLine
 10
395.399861
 20
288.479483
 30
0.0
 11
395.398222
 21
288.699171
 31
0.0
  0
LINE
  5
96
330
1F
100
AcDbEntity
  8
1
100
AcDbLine
 10
393.790721
 20
279.620858
 30
0.0
 11
394.445624
 21
279.983876
 31
0.0
  0
LINE
  5
97
330
1F
100
AcDbEntity
  8
1
100
AcDbLine
 10
274.404842
 20
309.407994
 30
0.0
 11
274.404842
 21
288.907994
 31
0.0
  0
LINE
  5
99
330
1F
100
AcDbEntity
  8
1
100
AcDbLine
 10
274.404842
 20
288.907994
 30
0.0
 11
274.404842
 21
268.407994
 31
0.0
  0
LINE
  5
9A
330
1F
100
AcDbEntity
  8
1
100
AcDbLine
 10
386.587679
 20
303.258701
 30
0.0
 11
393.582091
 21
303.502559
 31
0.0
  0
LINE
  5
9B
330
1F
100
AcDbEntity
  8
1
100
AcDbLine
 10
394.122835
 20
289.62654
 30
0.0
 11
394.131403
 21
289.621391
 31
0.0
  0
LINE
  5
9C
330
1F
100
AcDbEntity
  8
1
100
AcDbLine
 10
394.734349
 20
288.533649
 30
0.0
 11
394.612285
 21
281.540629
 31
0.0
  0
LINE
  5
9D
330
1F
100
AcDbEntity
  8
1
100
AcDbLine
 10
290.703832
 20
273.407994
 30
0.0
 11
301.910713
 21
273.407994
 31
0.0
  0
LINE
  5
9E
330
1F
100
AcDbEntity
  8
1
100
AcDbLine
 10
385.534572
 20
304.407994
 30
0.0
 11
376.307214
 21
304.407994
 31
0.0
  0
LINE
  5
9F
330
1F
100
AcDbEntity
  8
1
100
AcDbLine
 10
301.895224
 20
304.407994
 30
0.0
 11
290.703832
 21
304.407994
 31
0.0
  0
LINE
  5
A0
330
1F
100
AcDbEntity
  8
1
100
AcDbLine
 10
394.828606
 20
304.043872
 30
0.0
 11
395.115375
 21
296.084008
 31
0.0
  0
LINE
  5
A1
330
1F
100
AcDbEntity
  8
1
100
AcDbLine
 10
386.055789
 20
304.510099
 30
0.0
 11
394.028465
 21
304.788063
 31
0.0
  0
LINE
  5
A2
330
1F
100
AcDbEntity
  8
1
100
AcDbLine
 10
385.597979
 20
295.752187
 30
0.0
 11
385.31121
 21
303.712052
 31
0.0
  0
LINE
  5
A3
330
1F
100
AcDbEntity
  8
1
100
AcDbLine
 10
394.370796
 20
295.285961
 30
0.0
 11
386.39812
 21
295.007996
 31
0.0
  0
LINE
  5
A4
330
1F
100
AcDbEntity
  8
1
100
AcDbLine
 10
386.839261
 20
296.275529
 30
0.0
 11
386.587679
 21
303.258701
 31
0.0
  0
LINE
  5
A5
330
1F
100
AcDbEntity
  8
1
100
AcDbLine
 10
393.833673
 20
296.519387
 30
0.0
 11
386.839261
 21
296.275529
 31
0.0
  0
LINE
  5
A6
330
1F
100
AcDbEntity
  8
1
100
AcDbLine
 10
393.582091
 20
303.502559
 30
0.0
 11
393.833673
 21
296.519387
 31
0.0
  0
LINE
  5
A7
330
1F
100
AcDbEntity
  8
1
100
AcDbLine
 10
385.326507
 20
297.59451
 30
0.0
 11
385.093648
 21
304.330595
 31
0.0
  0
LINE
  5
A8
330
1F
100
AcDbEntity
  8
1
100
AcDbLine
 10
385.088931
 20
304.297725
 30
0.0
 11
385.321275
 21
297.576539
 31
0.0
  0
LINE
  5
A9
330
1F
100
AcDbEntity
  8
1
100
AcDbLine
 10
393.660482
 20
273.407994
 30
0.0
 11
375.20392
 21
273.407994
 31
0.0
  0
LINE
  5
AA
330
1F
100
AcDbEntity
  8
1
100
AcDbLine
 10
274.904842
 20
267.907994
 30
0.0
 11
274.904842
 21
288.907994
 31
0.0
  0
LINE
  5
AB
330
1F
100
AcDbEntity
  8
1
100
AcDbLine
 10
274.904842
 20
288.907994
 30
0.0
 11
274.904842
 21
309.907994
 31
0.0
  0
LINE
  5
AC
330
1F
100
AcDbEntity
  8
1
100
AcDbLine
 10
279.404842
 20
267.907994
 30
0.0
 11
279.404842
 21
272.063786
 31
0.0
  0
LINE
  5
AD
330
1F
100
AcDbEntity
  8
1
100
AcDbLine
 10
279.404842
 20
309.907994
 30
0.0
 11
279.404842
 21
280.582916
 31
0.0
  0
LINE
  5
AE
330
1F
100
AcDbEntity
  8
1
100
AcDbLine
 10
387.432726
 20
300.572157
 30
0.0
 11
387.412274
 21
300.501914
 31
0.0
  0
LINE
  5
AF
330
1F
100
AcDbEntity
  8
1
100
AcDbLine
 10
392.692991
 20
298.964374
 30
0.0
 11
392.713443
 21
299.034617
 31
0.0
  0
LINE
  5
B0
330
1F
100
AcDbEntity
  8
SK1
100
AcDbLine
 10
214.404842
 20
274.907994
 30
0.0
 11
216.404842
 21
272.907994
 31
0.0
  0
LINE
  5
B1
330
1F
100
AcDbEntity
  8
SK1
100
AcDbLine
 10
216.404842
 20
304.907994
 30
0.0
 11
214.404842
 21
302.907994
 31
0.0
  0
LINE
  5
B2
330
1F
100
AcDbEntity
  8
1
100
AcDbLine
 10
279.404842
 20
267.907994
 30
0.0
 11
280.804337
 21
269.307488
 31
0.0
  0
LINE
  5
B3
330
1F
100
AcDbEntity
  8
1
100
AcDbLine
 10
280.804337
 20
308.508499
 30
0.0
 11
279.404842
 21
309.907994
 31
0.0
  0
LINE
  5
B4
330
1F
100
AcDbEntity
  8
SK1
100
AcDbLine
 10
274.404842
 20
304.907994
 30
0.0
 11
216.404842
 21
304.907994
 31
0.0
  0
LINE
  5
B5
330
1F
100
AcDbEntity
  8
1
100
AcDbLine
 10
274.904842
 20
267.907994
 30
0.0
 11
274.404842
 21
268.407994
 31
0.0
  0
LINE
  5
B6
330
1F
100
AcDbEntity
  8
1
100
AcDbLine
 10
274.404842
 20
309.407994
 30
0.0
 11
274.904842
 21
309.907994
 31
0.0
  0
LINE
  5
B7
330
1F
100
AcDbEntity
  8
1
100
AcDbLine
 10
279.404842
 20
309.907994
 30
0.0
 11
274.904842
 21
309.907994
 31
0.0
  0
LINE
  5
BA
330
1F
100
AcDbEntity
  8
80
100
AcDbLine
 10
275.404416
 20
288.907994
 30
0.0
 11
273.405268
 21
288.907994
 31
0.0
  0
LINE
  5
BB
330
1F
100
AcDbEntity
  8
1
100
AcDbLine
 10
385.561892
 20
304.29721
 30
0.0
 11
385.558093
 21
304.407097
 31
0.0
  0
LINE
  5
BC
330
1F
100
AcDbEntity
  8
1
100
AcDbLine
 10
388.254055
 20
294.867003
 30
0.0
 11
394.490091
 21
295.084421
 31
0.0
  0
LINE
  5
BD
330
1F
100
AcDbEntity
  8
1
100
AcDbLine
 10
394.491335
 20
294.936623
 30
0.0
 11
394.490091
 21
295.084421
 31
0.0
  0
LINE
  5
BE
330
1F
100
AcDbEntity
  8
1
100
AcDbLine
 10
394.411038
 20
294.398593
 30
0.0
 11
386.46784
 21
294.121656
 31
0.0
  0
LINE
  5
BF
330
1F
100
AcDbEntity
  8
1
100
AcDbLine
 10
394.411038
 20
294.398593
 30
0.0
 11
392.542619
 21
291.302922
 31
0.0
  0
LINE
  5
C0
330
1F
100
AcDbEntity
  8
1
100
AcDbLine
 10
394.53207
 20
295.103673
 30
0.0
 11
388.259287
 21
294.884975
 31
0.0
  0
LINE
  5
C1
330
1F
100
AcDbEntity
  8
1
100
AcDbLine
 10
388.254055
 20
294.867003
 30
0.0
 11
388.259287
 21
294.884975
 31
0.0
  0
LINE
  5
C2
330
1F
100
AcDbEntity
  8
1
100
AcDbLine
 10
394.193111
 20
290.373196
 30
0.0
 11
394.36918
 21
290.370122
 31
0.0
  0
LINE
  5
C3
330
1F
100
AcDbEntity
  8
1
100
AcDbLine
 10
394.36918
 20
290.370122
 30
0.0
 11
394.65268
 21
290.754295
 31
0.0
  0
LINE
  5
C4
330
1F
100
AcDbEntity
  8
1
100
AcDbLine
 10
394.65268
 20
290.992906
 30
0.0
 11
394.65268
 21
290.754295
 31
0.0
  0
LINE
  5
C5
330
1F
100
AcDbEntity
  8
1
100
AcDbLine
 10
394.65268
 20
290.992906
 30
0.0
 11
394.694842
 21
290.99217
 31
0.0
  0
LINE
  5
C6
330
1F
100
AcDbEntity
  8
1
100
AcDbLine
 10
394.694842
 20
295.382213
 30
0.0
 11
394.694842
 21
290.99217
 31
0.0
  0
LINE
  5
C7
330
1F
100
AcDbEntity
  8
1
100
AcDbLine
 10
394.53207
 20
295.103673
 30
0.0
 11
394.530186
 21
295.327611
 31
0.0
  0
LINE
  5
C8
330
1F
100
AcDbEntity
  8
1
100
AcDbLine
 10
394.53207
 20
295.103673
 30
0.0
 11
394.490091
 21
295.084421
 31
0.0
  0
LINE
  5
C9
330
1F
100
AcDbEntity
  8
1
100
AcDbLine
 10
394.411038
 20
294.398593
 30
0.0
 11
394.425571
 21
294.405258
 31
0.0
  0
LINE
  5
CA
330
1F
100
AcDbEntity
  8
1
100
AcDbLine
 10
393.660482
 20
273.407994
 30
0.0
 11
394.248277
 21
278.946057
 31
0.0
  0
LINE
  5
CB
330
1F
100
AcDbEntity
  8
1
100
AcDbLine
 10
394.248277
 20
278.946057
 30
0.0
 11
394.206186
 21
278.94673
 31
0.0
  0
LINE
  5
CC
330
1F
100
AcDbEntity
  8
1
100
AcDbLine
 10
394.231468
 20
279.184931
 30
0.0
 11
394.206186
 21
278.94673
 31
0.0
  0
LINE
  5
CD
330
1F
100
AcDbEntity
  8
1
100
AcDbLine
 10
394.231468
 20
279.184931
 30
0.0
 11
393.989678
 21
279.577912
 31
0.0
  0
LINE
  5
CE
330
1F
100
AcDbEntity
  8
1
100
AcDbLine
 10
393.989678
 20
279.577912
 30
0.0
 11
393.813908
 21
279.580724
 31
0.0
  0
LINE
  5
CF
330
1F
100
AcDbEntity
  8
1
100
AcDbLine
 10
393.796742
 20
280.081063
 30
0.0
 11
394.122841
 21
283.153494
 31
0.0
  0
LINE
  5
D0
330
1F
100
AcDbEntity
  8
1
100
AcDbLine
 10
392.6721490000001
 20
283.153494
 30
0.0
 11
394.122841
 21
283.153494
 31
0.0
  0
LINE
  5
D1
330
1F
100
AcDbEntity
  8
1
100
AcDbLine
 10
394.122841
 20
283.153494
 30
0.0
 11
394.122841
 21
289.874346
 31
0.0
  0
LINE
  5
D2
330
1F
100
AcDbEntity
  8
1
100
AcDbLine
 10
385.332735
 20
303.904398
 30
0.0
 11
385.318015
 21
304.330204
 31
0.0
  0
LINE
  5
D3
330
1F
100
AcDbEntity
  8
SK1
100
AcDbLine
 10
216.404842
 20
304.907994
 30
0.0
 11
216.404842
 21
272.907994
 31
0.0
  0
LINE
  5
D4
330
1F
100
AcDbEntity
  8
SK1
100
AcDbLine
 10
214.404842
 20
302.907994
 30
0.0
 11
214.404842
 21
274.907994
 31
0.0
  0
LINE
  5
D5
330
1F
100
AcDbEntity
  8
1
100
AcDbLine
 10
385.326507
 20
297.59451
 30
0.0
 11
385.321275
 21
297.576539
 31
0.0
  0
LINE
  5
D6
330
1F
100
AcDbEntity
  8
1
100
AcDbLine
 10
394.237296
 20
289.511736
 30
0.0
 11
394.69747
 21
288.681559
 31
0.0
  0
LINE
  5
D7
330
1F
100
AcDbEntity
  8
1
100
AcDbLine
 10
394.570267
 20
281.394096
 30
0.0
 11
394.0814
 21
280.580484
 31
0.0
  0
LINE
  5
D8
330
1F
100
AcDbEntity
  8
1
100
AcDbLine
 10
393.971745
 20
280.474592
 30
0.0
 11
393.830174
 21
280.396117
 31
0.0
  0
LINE
  5
D9
330
1F
100
AcDbEntity
  8
80
100
AcDbLine
 10
274.404842
 20
287.90842
 30
0.0
 11
274.404842
 21
289.907567
 31
0.0
  0
LINE
  5
DA
330
1F
100
AcDbEntity
  8
81
100
AcDbLine
 10
395.404842
 20
306.907994
 30
0.0
 11
395.404842
 21
302.907994
 31
0.0
  0
LINE
  5
DB
330
1F
100
AcDbEntity
  8
81
100
AcDbLine
 10
393.404842
 20
304.907994
 30
0.0
 11
397.404842
 21
304.907994
 31
0.0
  0
LINE
  5
DC
330
1F
100
AcDbEntity
  8
SK1
100
AcDbLine
 10
216.404842
 20
272.907994
 30
0.0
 11
274.404842
 21
272.907994
 31
0.0
  0
LINE
  5
DD
330
1F
100
AcDbEntity
  8
1
100
AcDbLine
 10
274.904842
 20
267.907994
 30
0.0
 11
279.404842
 21
267.907994
 31
0.0
  0
LINE
  5
DE
330
1F
100
AcDbEntity
  8
1
100
AcDbLine
 10
390.101446
 20
298.202742
 30
0.0
 11
390.1321240000001
 21
298.308107
 31
0.0
  0
LINE
  5
DF
330
1F
100
AcDbEntity
  8
1
100
AcDbLine
 10
389.258645
 20
300.9573
 30
0.0
 11
389.289592
 21
301.063589
 31
0.0
  0
LINE
  5
E0
330
1F
100
AcDbEntity
  8
1
100
AcDbLine
 10
388.524182
 20
299.774579
 30
0.0
 11
388.493754
 21
299.670072
 31
0.0
  0
LINE
  5
E1
330
1F
100
AcDbEntity
  8
1
100
AcDbLine
 10
388.593231
 20
299.764636
 30
0.0
 11
388.562366
 21
299.658631
 31
0.0
  0
LINE
  5
E2
330
1F
100
AcDbEntity
  8
1
100
AcDbLine
 10
391.427931
 20
298.99473
 30
0.0
 11
391.458341
 21
299.099172
 31
0.0
  0
LINE
  5
E3
330
1F
100
AcDbEntity
  8
1
100
AcDbLine
 10
391.357101
 20
299.014631
 30
0.0
 11
391.387971
 21
299.120654
 31
0.0
  0
LINE
  5
E4
330
1F
100
AcDbEntity
  8
1
100
AcDbLine
 10
390.09991
 20
298.219558
 30
0.0
 11
390.1307
 21
298.325308
 31
0.0
  0
LINE
  5
E5
330
1F
100
AcDbEntity
  8
1
100
AcDbLine
 10
382.95902
 20
291.873813
 30
0.0
 11
382.972517
 21
291.479325
 31
0.0
  0
LINE
  5
E6
330
1F
100
AcDbEntity
  8
1
100
AcDbLine
 10
392.946334
 20
294.383333
 30
0.0
 11
386.459826
 21
294.157183
 31
0.0
  0
LINE
  5
E7
330
1F
100
AcDbEntity
  8
1
100
AcDbLine
 10
284.904842
 20
304.16526
 30
0.0
 11
284.904842
 21
286.414901
 31
0.0
  0
LINE
  5
E8
330
1F
100
AcDbEntity
  8
1
100
AcDbLine
 10
391.362485
 20
300.621198
 30
0.0
 11
391.357264
 21
300.617806
 31
0.0
  0
LINE
  5
112
330
1F
100
AcDbEntity
  8
NOCUT
100
AcDbLine
 10
279.404842
 20
309.907994
 30
0.0
 11
280.804337
 21
308.508499
 31
0.0
  0
LINE
  5
113
330
1F
100
AcDbEntity
  8
NOCUT
100
AcDbLine
 10
394.385213
 20
304.407994
 30
0.0
 11
394.694842
 21
295.612658
 31
0.0
  0
LINE
  5
114
330
1F
100
AcDbEntity
  8
NOCUT
100
AcDbLine
 10
394.694842
 20
295.612658
 30
0.0
 11
394.694842
 21
288.907994
 31
0.0
  0
LINE
  5
115
330
1F
100
AcDbEntity
  8
NOCUT
100
AcDbLine
 10
394.694842
 20
288.907994
 30
0.0
 11
214.404842
 21
288.907994
 31
0.0
  0
LINE
  5
116
330
1F
100
AcDbEntity
  8
NOCUT
100
AcDbLine
 10
290.703832
 20
304.407994
 30
0.0
 11
394.385213
 21
304.407994
 31
0.0
  0
LINE
  5
117
330
1F
100
AcDbEntity
  8
NOCUT
100
AcDbLine
 10
279.404842
 20
309.907994
 30
0.0
 11
274.904842
 21
309.907994
 31
0.0
  0
LINE
  5
118
330
1F
100
AcDbEntity
  8
NOCUT
100
AcDbLine
 10
274.404842
 20
304.907994
 30
0.0
 11
216.404842
 21
304.907994
 31
0.0
  0
LINE
  5
119
330
1F
100
AcDbEntity
  8
NOCUT
100
AcDbLine
 10
214.404842
 20
302.907994
 30
0.0
 11
214.404842
 21
288.907994
 31
0.0
  0
LINE
  5
11A
330
1F
100
AcDbEntity
  8
NOCUT
100
AcDbLine
 10
274.404842
 20
304.907994
 30
0.0
 11
274.404842
 21
309.407994
 31
0.0
  0
LINE
  5
11B
330
1F
100
AcDbEntity
  8
NOCUT
100
AcDbLine
 10
274.404842
 20
309.407994
 30
0.0
 11
274.904842
 21
309.907994
 31
0.0
  0
LINE
  5
11C
330
1F
100
AcDbEntity
  8
NOCUT
100
AcDbLine
 10
214.404842
 20
302.907994
 30
0.0
 11
216.404842
 21
304.907994
 31
0.0
  0
CIRCLE
  5
125
330
1F
100
AcDbEntity
  8
1
100
AcDbCircle
 10
389.418941
 20
285.29888
 30
0.0
 40
1.35
  0
ARC
  5
126
330
1F
100
AcDbEntity
  8
1
100
AcDbCircle
 10
290.703832
 20
259.407994
 30
0.0
 40
14.0
100
AcDbArc
 50
90.0
 51
135.0
  0
ARC
  5
127
330
1F
100
AcDbEntity
  8
1
100
AcDbCircle
 10
290.703832
 20
318.407994
 30
0.0
 40
14.0
100
AcDbArc
 50
225.0
 51
270.0
  0
ARC
  5
128
330
1F
100
AcDbEntity
  8
1
100
AcDbCircle
 10
389.418941
 20
285.29888
 30
0.0
 40
1.75
100
AcDbArc
 50
75.0
 51
345.0
  0
ARC
  5
137
330
1F
100
AcDbEntity
  8
NOCUT
100
AcDbCircle
 10
290.703832
 20
318.407994
 30
0.0
 40
14.0
100
AcDbArc
 50
225.0
 51
270.0
  0
ELLIPSE
  5
138
330
1F
100
AcDbEntity
  8
1
100
AcDbEllipse
 10
386.01395
 20
306.727136
 30
0.0
 11
12.09764183579767
 21
-3.522365968033158
 31
0.0
210
0.0
220
0.0
230
1.0
 40
0.998052
 41
4.473060429555898
 42
5.030594068231791
  0
ELLIPSE
  5
139
330
1F
100
AcDbEntity
  8
1
100
AcDbEllipse
 10
394.473427
 20
289.845723
 30
0.0
 11
0.1593661332410609
 21
-0.2546671894756816
 31
0.0
210
0.0
220
0.0
230
1.0
 40
0.9668319999999999
 41
1.515965207757433
 42
2.029724466420624
  0
ELLIPSE
  5
13A
330
1F
100
AcDbEntity
  8
1
100
AcDbEllipse
 10
386.027559
 20
303.714948
 30
0.0
 11
1.034591726135649
 21
-0.9637587098760322
 31
0.0
210
0.0
220
0.0
230
0.9999999999999996
 40
0.039416
 41
1.035838489223805
 42
1.590649521963509
  0
ELLIPSE
  5
13B
330
1F
100
AcDbEntity
  8
1
100
AcDbEllipse
 10
394.074695
 20
303.995508
 30
0.0
 11
0.9632000778889773
 21
1.033992036557982
 31
0.0
210
0.0
220
0.0
230
1.0
 40
0.019879
 41
1.531354611087613
 42
2.086165643907164
  0
ELLIPSE
  5
13C
330
1F
100
AcDbEntity
  8
1
100
AcDbEllipse
 10
393.928017
 20
289.3190259999999
 30
0.0
 11
0.2346916599221287
 21
0.28005765546795
 31
0.0
210
0.0
220
0.0
230
0.9999999999999998
 40
0.81881
 41
6.26471980540412
 42
6.411625117059003
  0
ELLIPSE
  5
13D
330
1F
100
AcDbEntity
  8
1
100
AcDbEllipse
 10
394.248736
 20
281.565584
 30
0.0
 11
0.3598828598083305
 21
-0.0632201112181622
 31
0.0
210
0.0
220
0.0
230
1.0
 40
0.8188099999999998
 41
6.264719809276581
 42
6.411625123789976
  0
ELLIPSE
  5
13E
330
1F
100
AcDbEntity
  8
1
100
AcDbEllipse
 10
394.37015
 20
288.521396
 30
0.0
 11
0.3618699859871621
 21
0.0506218691721829
 31
0.0
210
0.0
220
0.0
230
0.9999999999999996
 40
0.81881
 41
6.154745492623147
 42
6.301650805720099
  0
ELLIPSE
  5
13F
330
1F
100
AcDbEntity
  8
1
100
AcDbEllipse
 10
296.536761
 20
274.03291
 30
0.0
 11
-19.14847302572849
 21
3.939012175381103
 31
0.0
210
0.0
220
0.0
230
0.9999999999999998
 40
0.5072130000000001
 41
4.94027633454508
 42
5.793258097733473
  0
ELLIPSE
  5
140
330
1F
100
AcDbEntity
  8
1
100
AcDbEllipse
 10
388.541416
 20
299.565834
 30
0.0
 11
-0.0915171458923713
 21
0.0266462575564881
 31
0.0
210
0.0
220
0.0
230
1.0
 40
0.998052
 41
4.354415882752153
 42
5.031147799632774
  0
ELLIPSE
  5
141
330
1F
100
AcDbEntity
  8
1
100
AcDbEllipse
 10
388.534565
 20
299.75601
 30
0.0
 11
-0.0915171458923711
 21
0.026646257556488
 31
0.0
210
0.0
220
0.0
230
1.0
 40
0.998052
 41
0.6892244535639469
 42
1.88955514604284
  0
ELLIPSE
  5
142
330
1F
100
AcDbEntity
  8
1
100
AcDbEllipse
 10
388.998888
 20
299.9550319999999
 30
0.0
 11
-0.5769369382086557
 21
0.1679817492061994
 31
0.0
210
0.0
220
0.0
230
0.9999999999999998
 40
0.998052
 41
5.70787971651328
 42
6.972409760743473
  0
ELLIPSE
  5
143
330
1F
100
AcDbEntity
  8
1
100
AcDbEllipse
 10
388.668358
 20
300.337214
 30
0.0
 11
-0.0915171458923733
 21
0.0266462575564887
 31
0.0
210
0.0
220
0.0
230
1.0
 40
0.9980519999999998
 41
4.5075490240345
 42
5.707879716513292
  0
ELLIPSE
  5
144
330
1F
100
AcDbEntity
  8
1
100
AcDbEllipse
 10
388.757665
 20
300.505233
 30
0.0
 11
-0.0915171458923733
 21
0.0266462575564887
 31
0.0
210
0.0
220
0.0
230
1.0
 40
0.9980519999999998
 41
1.365956370444547
 42
2.042688287325406
  0
ELLIPSE
  5
145
330
1F
100
AcDbEntity
  8
1
100
AcDbEllipse
 10
388.662651
 20
301.001006
 30
0.0
 11
-0.5769369382086554
 21
0.1679817492061993
 31
0.0
210
0.0
220
0.0
230
1.0
 40
0.998052
 41
2.042688287325244
 42
3.30721833155537
  0
ELLIPSE
  5
146
330
1F
100
AcDbEntity
  8
1
100
AcDbEllipse
 10
389.164684
 20
300.941479
 30
0.0
 11
-0.0915171458923713
 21
0.0266462575564881
 31
0.0
210
0.0
220
0.0
230
1.0
 40
0.998052
 41
3.307218331555423
 42
3.983950248436024
  0
ELLIPSE
  5
147
330
1F
100
AcDbEntity
  8
1
100
AcDbEllipse
 10
389.326221
 20
301.042319
 30
0.0
 11
-0.0915171458923711
 21
0.026646257556488
 31
0.0
210
0.0
220
0.0
230
1.0
 40
0.998052
 41
5.92521220954683
 42
7.125542902025928
  0
ELLIPSE
  5
148
330
1F
100
AcDbEntity
  8
1
100
AcDbEllipse
 10
389.731446
 20
300.740194
 30
0.0
 11
-0.5769369382086557
 21
0.1679817492061994
 31
0.0
210
0.0
220
0.0
230
0.9999999999999998
 40
0.998052
 41
4.660682165316706
 42
5.925212209546878
  0
ELLIPSE
  5
149
330
1F
100
AcDbEntity
  8
1
100
AcDbEllipse
 10
389.897406
 20
301.216716
 30
0.0
 11
-0.0915171458923733
 21
0.0266462575564887
 31
0.0
210
0.0
220
0.0
230
1.0
 40
0.9980519999999998
 41
3.460351472837828
 42
4.660682165316369
  0
ELLIPSE
  5
14A
330
1F
100
AcDbEntity
  8
1
100
AcDbEllipse
 10
390.087888
 20
301.223357
 30
0.0
 11
-0.0915171458923733
 21
0.0266462575564887
 31
0.0
210
0.0
220
0.0
230
1.0
 40
0.9980519999999998
 41
0.3187588192480346
 42
0.9954907361285707
  0
ELLIPSE
  5
14B
330
1F
100
AcDbEntity
  8
1
100
AcDbEllipse
 10
390.470354
 20
301.552944
 30
0.0
 11
-0.5769369382086554
 21
0.1679817492061993
 31
0.0
210
0.0
220
0.0
230
1.0
 40
0.998052
 41
0.9954907361286132
 42
2.260020780358797
  0
ELLIPSE
  5
14C
330
1F
100
AcDbEntity
  8
1
100
AcDbEllipse
 10
390.67019
 20
301.089176
 30
0.0
 11
-0.0915171458923713
 21
0.0266462575564881
 31
0.0
210
0.0
220
0.0
230
1.0
 40
0.998052
 41
2.260020780358861
 42
2.936752697239521
  0
ELLIPSE
  5
14D
330
1F
100
AcDbEntity
  8
1
100
AcDbEllipse
 10
390.838578
 20
300.999839
 30
0.0
 11
-0.0915171458923711
 21
0.026646257556488
 31
0.0
210
0.0
220
0.0
230
1.0
 40
0.998052
 41
4.878014658350308
 42
6.078345350828992
  0
ELLIPSE
  5
14E
330
1F
100
AcDbEntity
  8
1
100
AcDbEllipse
 10
390.779479
 20
300.498693
 30
0.0
 11
-0.5769369382086557
 21
0.1679817492061994
 31
0.0
210
0.0
220
0.0
230
0.9999999999999998
 40
0.998052
 41
3.613484614120098
 42
4.878014658350261
  0
ELLIPSE
  5
14F
330
1F
100
AcDbEntity
  8
1
100
AcDbEllipse
 10
391.27597
 20
300.593032
 30
0.0
 11
-0.0915171458923733
 21
0.0266462575564887
 31
0.0
210
0.0
220
0.0
230
1.0
 40
0.9980519999999998
 41
2.41315392164131
 42
3.613484614120193
  0
ELLIPSE
  5
150
330
1F
100
AcDbEntity
  8
1
100
AcDbEllipse
 10
391.377144
 20
300.431655
 30
0.0
 11
-0.0915171458923733
 21
0.0266462575564887
 31
0.0
210
0.0
220
0.0
230
1.0
 40
0.9980519999999998
 41
5.554746575230836
 42
6.231478492111596
  0
ELLIPSE
  5
151
330
1F
100
AcDbEntity
  8
1
100
AcDbEllipse
 10
391.854625
 20
300.265469
 30
0.0
 11
-0.5769369382086554
 21
0.1679817492061993
 31
0.0
210
0.0
220
0.0
230
1.0
 40
0.998052
 41
6.231478492111581
 42
7.496008536341746
  0
ELLIPSE
  5
152
330
1F
100
AcDbEntity
  8
1
100
AcDbEllipse
 10
391.552427
 20
299.861227
 30
0.0
 11
-0.0915171458923713
 21
0.0266462575564881
 31
0.0
210
0.0
220
0.0
230
1.0
 40
0.998052
 41
1.212823229162143
 42
1.889555146042579
  0
ELLIPSE
  5
153
330
1F
100
AcDbEntity
  8
1
100
AcDbEllipse
 10
391.559279
 20
299.671051
 30
0.0
 11
-0.0915171458923711
 21
0.026646257556488
 31
0.0
210
0.0
220
0.0
230
1.0
 40
0.998052
 41
3.830817107153718
 42
5.03114779963275
  0
ELLIPSE
  5
154
330
1F
100
AcDbEntity
  8
1
100
AcDbEllipse
 10
391.094955
 20
299.472029
 30
0.0
 11
-0.5769369382086557
 21
0.1679817492061994
 31
0.0
210
0.0
220
0.0
230
0.9999999999999998
 40
0.998052
 41
2.566287062923513
 42
3.83081710715369
  0
ELLIPSE
  5
155
330
1F
100
AcDbEntity
  8
1
100
AcDbEllipse
 10
391.425486
 20
299.089847
 30
0.0
 11
-0.0915171458923733
 21
0.0266462575564887
 31
0.0
210
0.0
220
0.0
230
1.0
 40
0.9980519999999998
 41
1.365956370444707
 42
2.566287062923374
  0
ELLIPSE
  5
156
330
1F
100
AcDbEntity
  8
1
100
AcDbEllipse
 10
391.336178
 20
298.921828
 30
0.0
 11
-0.0915171458923733
 21
0.0266462575564887
 31
0.0
210
0.0
220
0.0
230
1.0
 40
0.9980519999999998
 41
4.507549024034193
 42
5.184280940914898
  0
ELLIPSE
  5
157
330
1F
100
AcDbEntity
  8
1
100
AcDbEllipse
 10
391.431193
 20
298.426055
 30
0.0
 11
-0.5769369382086554
 21
0.1679817492061993
 31
0.0
210
0.0
220
0.0
230
1.0
 40
0.998052
 41
5.18428094091499
 42
6.448810985145159
  0
ELLIPSE
  5
158
330
1F
100
AcDbEntity
  8
1
100
AcDbEllipse
 10
390.929159
 20
298.4855819999999
 30
0.0
 11
-0.0915171458923713
 21
0.0266462575564881
 31
0.0
210
0.0
220
0.0
230
1.0
 40
0.998052
 41
0.1656256779657035
 42
0.8423575948461323
  0
ELLIPSE
  5
159
330
1F
100
AcDbEntity
  8
1
100
AcDbEllipse
 10
390.767622
 20
298.384742
 30
0.0
 11
-0.0915171458923711
 21
0.026646257556488
 31
0.0
210
0.0
220
0.0
230
1.0
 40
0.998052
 41
2.783619555957141
 42
3.983950248436073
  0
ELLIPSE
  5
15A
330
1F
100
AcDbEntity
  8
1
100
AcDbEllipse
 10
390.362398
 20
298.686866
 30
0.0
 11
-0.5769369382086557
 21
0.1679817492061994
 31
0.0
210
0.0
220
0.0
230
0.9999999999999998
 40
0.998052
 41
1.519089511726888
 42
2.783619555957078
  0
ELLIPSE
  5
15B
330
1F
100
AcDbEntity
  8
1
100
AcDbEllipse
 10
390.196438
 20
298.210345
 30
0.0
 11
-0.0915171458923733
 21
0.0266462575564887
 31
0.0
210
0.0
220
0.0
230
1.0
 40
0.9980519999999998
 41
0.3187588192479636
 42
1.519089511726725
  0
ELLIPSE
  5
15C
330
1F
100
AcDbEntity
  8
1
100
AcDbEllipse
 10
390.005955
 20
298.203703
 30
0.0
 11
-0.0915171458923733
 21
0.0266462575564887
 31
0.0
210
0.0
220
0.0
230
1.0
 40
0.9980519999999998
 41
3.460351472837756
 42
4.137083389718326
  0
ELLIPSE
  5
15D
330
1F
100
AcDbEntity
  8
1
100
AcDbEllipse
 10
389.623489
 20
297.874117
 30
0.0
 11
-0.5769369382086554
 21
0.1679817492061993
 31
0.0
210
0.0
220
0.0
230
1.0
 40
0.998052
 41
4.137083389718406
 42
5.401613433948571
  0
ELLIPSE
  5
15E
330
1F
100
AcDbEntity
  8
1
100
AcDbEllipse
 10
390.046922
 20
299.71353
 30
0.0
 11
1.728234547971094
 21
-0.5031951382904513
 31
0.0
210
0.0
220
0.0
230
0.9999999999999998
 40
0.9980519999999998
 41
0.0
 42
6.283185307179585
  0
ELLIPSE
  5
15F
330
1F
100
AcDbEntity
  8
1
100
AcDbEllipse
 10
390.0526319999999
 20
299.733144
 30
0.0
 11
2.640358337178061
 21
-0.768770350165967
 31
0.0
210
0.0
220
0.0
230
1.0
 40
0.9980519999999998
 41
0.0
 42
6.283185307179585
  0
ELLIPSE
  5
160
330
1F
100
AcDbEntity
  8
1
100
AcDbEllipse
 10
390.23335
 20
299.96692
 30
0.0
 11
2.971847526405752
 21
-0.8652871965691595
 31
0.0
210
0.0
220
0.0
230
1.0
 40
0.998052
 41
2.153645304639022
 42
6.283185307179585
  0
ELLIPSE
  5
161
330
1F
100
AcDbEntity
  8
1
100
AcDbEllipse
 10
390.23335
 20
299.96692
 30
0.0
 11
2.971847526405752
 21
-0.8652871965691595
 31
0.0
210
0.0
220
0.0
230
1.0
 40
0.998052
 41
0.0
 42
0.9879180006003204
  0
ELLIPSE
  5
162
330
1F
100
AcDbEntity
  8
1
100
AcDbEllipse
 10
386.317006
 20
295.680743
 30
0.0
 11
0.9632000775356067
 21
1.033992036184647
 31
0.0
210
0.0
220
0.0
230
1.0
 40
0.019879
 41
0.9765435779066848
 42
1.531354610920755
  0
ELLIPSE
  5
163
330
1F
100
AcDbEntity
  8
1
100
AcDbEllipse
 10
390.213554
 20
299.8989279999999
 30
0.0
 11
3.028958793588649
 21
-0.8819157913520719
 31
0.0
210
0.0
220
0.0
230
0.9999999999999998
 40
0.998052
 41
0.0
 42
6.283185307179585
  0
ELLIPSE
  5
164
330
1F
100
AcDbEntity
  8
1
100
AcDbEllipse
 10
390.210676
 20
299.889044
 30
0.0
 11
-3.120423489392263
 21
0.9085467774688595
 31
0.0
210
0.0
220
0.0
230
0.9999999999999998
 40
0.998052
 41
0.0
 42
6.283185307179585
  0
ELLIPSE
  5
165
330
1F
100
AcDbEntity
  8
1
100
AcDbEllipse
 10
394.364142
 20
295.961303
 30
0.0
 11
1.034591725737242
 21
-0.9637587095227264
 31
0.0
210
0.0
220
0.0
230
1.0
 40
0.039416
 41
1.590649522208626
 42
2.145460555154131
  0
ELLIPSE
  5
166
330
1F
100
AcDbEntity
  8
1
100
AcDbEllipse
 10
386.859503
 20
296.299285
 30
0.0
 11
1.920260608856771
 21
-0.5591057092116122
 31
0.0
210
0.0
220
0.0
230
1.0
 40
0.998052
 41
2.731238400405211
 42
4.395444007950854
  0
ELLIPSE
  5
167
330
1F
100
AcDbEntity
  8
1
100
AcDbEllipse
 10
385.639072
 20
288.9081499999999
 30
0.0
 11
0.5180671394919293
 21
-15.49983992549219
 31
0.0
210
0.0
220
0.0
230
1.0
 40
0.01946
 41
3.240918751910855
 42
3.260295568061058
  0
ELLIPSE
  5
168
330
1F
100
AcDbEntity
  8
1
100
AcDbEllipse
 10
332.344997
 20
288.910105
 30
0.0
 11
888.4728036665158
 21
-0.9289969822481896
 31
0.0
210
0.0
220
0.0
230
1.0
 40
0.017412
 41
1.511414895271819
 42
1.515663990057668
  0
ELLIPSE
  5
169
330
1F
100
AcDbEntity
  8
1
100
AcDbEllipse
 10
315.468249
 20
288.907994
 30
0.0
 11
87.89682815107308
 21
-13.39284744542465
 31
0.0
210
0.0
220
0.0
230
0.9999999999999998
 40
0.088771
 41
4.44032960199675
 42
4.524760192305328
  0
ELLIPSE
  5
16A
330
1F
100
AcDbEntity
  8
1
100
AcDbEllipse
 10
297.904842
 20
279.749074
 30
0.0
 11
-2.382605310748651
 21
-7.636962218918736
 31
0.0
210
0.0
220
0.0
230
1.0
 40
0.176153
 41
4.216963452191508
 42
5.726509239955159
  0
ELLIPSE
  5
16B
330
1F
100
AcDbEntity
  8
1
100
AcDbEllipse
 10
386.072692
 20
288.907994
 30
0.0
 11
0.518072710998276
 21
-15.49999669626533
 31
0.0
210
0.0
220
0.0
230
0.9999999999999998
 40
0.01946
 41
3.02963216105575
 42
3.130186059568448
  0
ELLIPSE
  5
16C
330
1F
100
AcDbEntity
  8
1
100
AcDbEllipse
 10
386.859503
 20
296.299285
 30
0.0
 11
1.920260608856771
 21
-0.5591057092116122
 31
0.0
210
0.0
220
0.0
230
1.0
 40
0.998052
 41
5.648680162846035
 42
5.766932522207542
  0
ELLIPSE
  5
16D
330
1F
100
AcDbEntity
  8
1
100
AcDbEllipse
 10
385.940587
 20
288.907994
 30
0.0
 11
0.4142345836961167
 21
-15.49989018570024
 31
0.0
210
0.0
220
0.0
230
1.0
 40
0.140844
 41
3.127072428870302
 42
3.238057336752123
  0
ELLIPSE
  5
16E
330
1F
100
AcDbEntity
  8
1
100
AcDbEllipse
 10
243.070813
 20
288.907995
 30
0.0
 11
404.3294900744229
 21
15.11546267800213
 31
0.0
210
0.0
220
0.0
230
0.9999999999999998
 40
0.008486
 41
5.074892691193327
 42
5.090734405098092
  0
ELLIPSE
  5
16F
330
1F
100
AcDbEntity
  8
1
100
AcDbEllipse
 10
386.864735
 20
296.317256
 30
0.0
 11
-1.920260608856774
 21
0.5591057092116049
 31
0.0
210
0.0
220
0.0
230
1.0
 40
0.998052
 41
2.62533986861775
 42
2.756391476033019
  0
ELLIPSE
  5
170
330
1F
100
AcDbEntity
  8
1
100
AcDbEllipse
 10
394.193111
 20
289.87312
 30
0.0
 11
0.0001758288819762
 21
-0.5000776676640129
 31
0.0
210
0.0
220
0.0
230
1.0
 40
0.140519
 41
3.13909047596933
 42
4.709886802767976
  0
ELLIPSE
  5
171
330
1F
100
AcDbEntity
  8
1
100
AcDbEllipse
 10
394.42137
 20
294.904536
 30
0.0
 11
0.0003004688423433
 21
0.5003080941060997
 31
0.0
210
0.0
220
0.0
230
0.9999999999999998
 40
0.140095
 41
3.205856114034095
 42
4.776652440828926
  0
ELLIPSE
  5
172
330
1F
100
AcDbEntity
  8
1
100
AcDbEllipse
 10
393.866893
 20
280.07994
 30
0.0
 11
0.0538770024358966
 21
0.4991611425114654
 31
0.0
210
0.0
220
0.0
230
1.0
 40
0.139171
 41
1.583568179252924
 42
3.154364506042259
  0
ELLIPSE
  5
173
330
1F
100
AcDbEntity
  8
1
100
AcDbEllipse
 10
395.305608
 20
288.907994
 30
0.0
 11
1.677700926014941
 21
15.4982470307732
 31
0.0
210
0.0
220
0.0
230
1.0
 40
0.138944
 41
1.966199622727185
 42
3.156632395651086
  0
ELLIPSE
  5
174
330
1F
100
AcDbEntity
  8
1
100
AcDbEllipse
 10
394.694842
 20
288.907994
 30
0.0
 11
0.0
 21
15.50000000005685
 31
0.0
210
0.0
220
0.0
230
1.0
 40
0.140541
 41
1.415663339480421
 42
1.951159880664446
  0
ELLIPSE
  5
175
330
1F
100
AcDbEntity
  8
1
100
AcDbEllipse
 10
386.932235
 20
296.549086
 30
0.0
 11
-1.920260608856774
 21
0.5591057092116049
 31
0.0
210
0.0
220
0.0
230
1.0
 40
0.998052
 41
0.0651734313057184
 42
1.889555020043258
  0
ELLIPSE
  5
176
330
1F
100
AcDbEntity
  8
1
100
AcDbEllipse
 10
386.932235
 20
296.549086
 30
0.0
 11
-1.920260608856774
 21
0.5591057092116049
 31
0.0
210
0.0
220
0.0
230
1.0
 40
0.998052
 41
1.88955502004326
 42
2.593860668040895
  0
ELLIPSE
  5
177
330
1F
100
AcDbEntity
  8
1
100
AcDbEllipse
 10
386.864735
 20
296.317256
 30
0.0
 11
-1.920260608856774
 21
0.5591057092116049
 31
0.0
210
0.0
220
0.0
230
1.0
 40
0.998052
 41
5.729902201158882
 42
5.872831053995018
  0
ELLIPSE
  5
178
330
1F
100
AcDbEntity
  8
1
100
AcDbEllipse
 10
394.969907
 20
281.358792
 30
0.0
 11
-0.2941597133632818
 21
0.0843489404830548
 31
0.0
210
0.0
220
0.0
230
0.9999999999999996
 40
0.9803469999999999
 41
2.884713024277104
 42
3.398472282902503
  0
ELLIPSE
  5
179
330
1F
100
AcDbEntity
  8
1
100
AcDbEllipse
 10
394.305732
 20
280.23846
 30
0.0
 11
0.2546671895978727
 21
0.1593661331023086
 31
0.0
210
0.0
220
0.0
230
0.9999999999999998
 40
0.9668319999999999
 41
4.657557861981246
 42
5.171317120594418
  0
ELLIPSE
  5
17A
330
1F
100
AcDbEntity
  8
1
100
AcDbEllipse
 10
395.105838
 20
288.704824
 30
0.0
 11
0.1315188412570371
 21
-0.2701031955220013
 31
0.0
210
0.0
220
0.0
230
1.0
 40
0.9668319999999999
 41
1.11186818672636
 42
1.625627445341069
  0
ELLIPSE
  5
17B
330
1F
100
AcDbEntity
  8
1
100
AcDbEllipse
 10
394.37015
 20
288.521396
 30
0.0
 11
0.3432777572750346
 21
0.1251912084189729
 31
0.0
210
0.0
220
0.0
230
1.0
 40
0.8188099999999998
 41
6.264719809597706
 42
6.411625123546022
  0
ELLIPSE
  5
17C
330
1F
100
AcDbEntity
  8
1
100
AcDbEllipse
 10
393.928017
 20
289.3190259999999
 30
0.0
 11
0.2880776567786217
 21
0.2247748115760872
 31
0.0
210
0.0
220
0.0
230
1.0
 40
0.81881
 41
6.154745488539652
 42
6.301650803877831
  0
ELLIPSE
  5
17D
330
1F
100
AcDbEntity
  8
1
100
AcDbEllipse
 10
393.779035
 20
280.78387
 30
0.0
 11
0.2800576472139678
 21
-0.2346916549464872
 31
0.0
210
0.0
220
0.0
230
1.0
 40
0.8188099999999998
 41
6.264719808496838
 42
6.411625122069257
  0
ELLIPSE
  5
17E
330
1F
100
AcDbEntity
  8
1
100
AcDbEllipse
 10
394.248736
 20
281.565584
 30
0.0
 11
0.3386995439194244
 21
-0.1370951738942824
 31
0.0
210
0.0
220
0.0
230
1.0
 40
0.81881
 41
6.154745498777036
 42
6.301650809843253
  0
ELLIPSE
  5
17F
330
1F
100
AcDbEntity
  8
1
100
AcDbEllipse
 10
393.779035
 20
280.78387
 30
0.0
 11
0.2247748202425079
 21
-0.2880776715486136
 31
0.0
210
0.0
220
0.0
230
1.0
 40
0.81881
 41
6.154745496576963
 42
6.301650808496249
  0
ELLIPSE
  5
180
330
1F
100
AcDbEntity
  8
1
100
AcDbEllipse
 10
390.073084
 20
299.803387
 30
0.0
 11
-2.640358337178065
 21
0.7687703501659571
 31
0.0
210
0.0
220
0.0
230
1.0
 40
0.9980519999999998
 41
3.141676065826236
 42
6.283170368985074
  0
ELLIPSE
  5
181
330
1F
100
AcDbEntity
  8
1
100
AcDbEllipse
 10
389.423654
 20
298.337885
 30
0.0
 11
-0.0915171458923713
 21
0.0266462575564881
 31
0.0
210
0.0
220
0.0
230
1.0
 40
0.998052
 41
5.401613433948445
 42
6.078345350829138
  0
ELLIPSE
  5
182
330
1F
100
AcDbEntity
  8
1
100
AcDbEllipse
 10
389.255265
 20
298.427222
 30
0.0
 11
-0.0915171458923711
 21
0.026646257556488
 31
0.0
210
0.0
220
0.0
230
1.0
 40
0.998052
 41
1.736422004760245
 42
2.936752697239315
  0
ELLIPSE
  5
183
330
1F
100
AcDbEntity
  8
1
100
AcDbEllipse
 10
389.314364
 20
298.928368
 30
0.0
 11
-0.5769369382086557
 21
0.1679817492061994
 31
0.0
210
0.0
220
0.0
230
0.9999999999999998
 40
0.998052
 41
0.4718919605303056
 42
1.736422004760471
  0
ELLIPSE
  5
184
330
1F
100
AcDbEntity
  8
1
100
AcDbEllipse
 10
388.817874
 20
298.834028
 30
0.0
 11
-0.0915171458923733
 21
0.0266462575564887
 31
0.0
210
0.0
220
0.0
230
1.0
 40
0.9980519999999998
 41
5.554746575230693
 42
6.755077267710057
  0
ELLIPSE
  5
185
330
1F
100
AcDbEntity
  8
1
100
AcDbEllipse
 10
388.716699
 20
298.995406
 30
0.0
 11
-0.0915171458923733
 21
0.0266462575564887
 31
0.0
210
0.0
220
0.0
230
1.0
 40
0.9980519999999998
 41
2.413153921641154
 42
3.089885838521794
  0
ELLIPSE
  5
186
330
1F
100
AcDbEntity
  8
1
100
AcDbEllipse
 10
388.239218
 20
299.161592
 30
0.0
 11
-0.5769369382086554
 21
0.1679817492061993
 31
0.0
210
0.0
220
0.0
230
1.0
 40
0.998052
 41
3.089885838521788
 42
4.354415882751995
  0
ELLIPSE
  5
187
330
1F
100
AcDbEntity
  8
1
100
AcDbEllipse
 10
384.158763
 20
292.443484
 30
0.0
 11
-4.106813516780299
 21
-0.1614516880274418
 31
0.0
210
0.0
220
0.0
230
0.9999999999999996
 40
0.22151
 41
2.182837118171065
 42
4.098092235663993
  0
ELLIPSE
  5
188
330
1F
100
AcDbEntity
  8
1
100
AcDbEllipse
 10
392.090729
 20
288.907993
 30
0.0
 11
26.59278274088786
 21
-15.29171022533543
 31
0.0
210
0.0
220
0.0
230
0.9999999999999998
 40
0.095233
 41
4.226834880131538
 42
4.290571708379464
  0
SPLINE
  5
18E
330
1F
100
AcDbEntity
  8
1
100
AcDbSpline
210
0.0
220
0.0
230
1.0
 70
     8
 71
     3
 72
     8
 73
     4
 74
     0
 42
0.000000001
 43
0.0000000001
 40
0.0
 40
0.0
 40
0.0
 40
0.0
 40
1.0
 40
1.0
 40
1.0
 40
1.0
 10
379.5133157310461
 20
296.5334889880868
 30
0.0
 10
379.5129725375554
 20
296.533239692166
 30
0.0
 10
379.5126293182954
 20
296.5329904243775
 30
0.0
 10
379.5122860732744
 20
296.5327411847124
 30
0.0
  0
SPLINE
  5
192
330
1F
100
AcDbEntity
  8
1
100
AcDbSpline
210
0.0
220
0.0
230
1.0
 70
     8
 71
     3
 72
     8
 73
     4
 74
     0
 42
0.000000001
 43
0.0000000001
 40
0.0
 40
0.0
 40
0.0
 40
0.0
 40
1.0
 40
1.0
 40
1.0
 40
1.0
 10
391.3091295402604
 20
300.5414439775003
 30
0.0
 10
391.3119106766939
 20
300.5509468331267
 30
0.0
 10
391.3149369246254
 20
300.5603808965056
 30
0.0
 10
391.3182086528215
 20
300.5697471583073
 30
0.0
  0
SPLINE
  5
193
330
1F
100
AcDbEntity
  8
1
100
AcDbSpline
210
0.0
220
0.0
230
1.0
 70
     8
 71
     3
 72
    37
 73
    33
 74
     0
 42
0.000000001
 43
0.0000000001
 40
0.0
 40
0.0
 40
0.0
 40
0.0
 40
0.2499999999999867
 40
0.2499999999999867
 40
0.3749999999999666
 40
0.3749999999999666
 40
0.4374999999999675
 40
0.4374999999999675
 40
0.4999999999999684
 40
0.4999999999999684
 40
0.5624999999999693
 40
0.5624999999999693
 40
0.6249999999999702
 40
0.6249999999999702
 40
0.6874999999999712
 40
0.6874999999999712
 40
0.7187499999999748
 40
0.7187499999999748
 40
0.7499999999999786
 40
0.7499999999999786
 40
0.8124999999999859
 40
0.8124999999999859
 40
0.8437499999999882
 40
0.8437499999999882
 40
0.8749999999999907
 40
0.9062499999999928
 40
0.9062499999999928
 40
0.9374999999999952
 40
0.9374999999999952
 40
0.9687499999999975
 40
0.9687499999999975
 40
1.0
 40
1.0
 40
1.0
 40
1.0
 10
379.7300814820881
 20
295.8306254865466
 30
0.0
 10
379.6784778097422
 20
295.874806691685
 30
0.0
 10
379.6300664434689
 20
295.9219523557353
 30
0.0
 10
379.5638927971063
 20
295.9986516278526
 30
0.0
 10
379.5429211105854
 20
296.0252258052591
 30
0.0
 10
379.5135777375399
 20
296.0670381604531
 30
0.0
 10
379.5041516637134
 20
296.0813031919571
 30
0.0
 10
379.4861447295127
 20
296.1106100029539
 30
0.0
 10
379.4775943821763
 20
296.1256060980634
 30
0.0
 10
379.4616838713489
 20
296.1562122585819
 30
0.0
 10
379.4543059619908
 20
296.1718471777784
 30
0.0
 10
379.4409733506798
 20
296.2039298793044
 30
0.0
 10
379.4350144949752
 20
296.2204068144356
 30
0.0
 10
379.4250727682468
 20
296.253874001852
 30
0.0
 10
379.4210610089697
 20
296.2709136876452
 30
0.0
 10
379.4169094136162
 20
296.2970624062494
 30
0.0
 10
379.4158385938688
 20
296.3058774621087
 30
0.0
 10
379.414431685418
 20
296.3237382217752
 30
0.0
 10
379.4141002958012
 20
296.3327851860524
 30
0.0
 10
379.4143954788504
 20
296.3598292575081
 30
0.0
 10
379.4162764647576
 20
296.3778796777053
 30
0.0
 10
379.4223977332969
 20
296.4049876629246
 30
0.0
 10
379.4249859512134
 20
296.4139601459965
 30
0.0
 10
379.4312163322709
 20
296.4314073120991
 30
0.0
 10
379.4385227272026
 20
296.4484620838035
 30
0.0
 10
379.4480732683867
 20
296.4646965248181
 30
0.0
 10
379.4588065248417
 20
296.4804976691444
 30
0.0
 10
379.4646774225991
 20
296.4880448418091
 30
0.0
 10
379.4772144602949
 20
296.5023011770536
 30
0.0
 10
379.4839022445401
 20
296.5090422726465
 30
0.0
 10
379.4980554274384
 20
296.521806395134
 30
0.0
 10
379.5055470655275
 20
296.5278464038273
 30
0.0
 10
379.5133141569751
 20
296.5334884865209
 30
0.0
  0
SPLINE
  5
194
330
1F
100
AcDbEntity
  8
1
100
AcDbSpline
210
0.0
220
0.0
230
1.0
 70
     8
 71
     3
 72
    21
 73
    17
 74
     0
 42
0.000000001
 43
0.0000000001
 40
0.0
 40
0.0
 40
0.0
 40
0.0
 40
0.125000000000001
 40
0.2500000000000019
 40
0.3750000000000029
 40
0.5000000000000038
 40
0.5000000000000038
 40
0.5312500000000034
 40
0.5312500000000034
 40
0.5625000000000029
 40
0.5625000000000029
 40
0.6250000000000023
 40
0.6250000000000023
 40
0.7500000000000015
 40
0.8750000000000007
 40
1.0
 40
1.0
 40
1.0
 40
1.0
 10
279.4048419452957
 20
280.5829157595255
 30
0.0
 10
279.2687994805689
 20
280.4541071764519
 30
0.0
 10
279.008461876067
 20
280.19019366662
 30
0.0
 10
278.6522894307811
 20
279.7766687895779
 30
0.0
 10
278.3301208918256
 20
279.346380056947
 30
0.0
 10
278.1381632502337
 20
279.0487314374977
 30
0.0
 10
278.0254927138949
 20
278.8593862948323
 30
0.0
 10
278.0033242678583
 20
278.8213512739134
 30
0.0
 10
277.9597251004768
 20
278.7449496336854
 30
0.0
 10
277.9382815329759
 20
278.7065594297285
 30
0.0
 10
277.8751546031498
 20
278.5910495954495
 30
0.0
 10
277.834806953137
 20
278.5138376240855
 30
0.0
 10
277.7189133024669
 20
278.2816358968475
 30
0.0
 10
277.5781055610775
 20
277.9705285992516
 30
0.0
 10
277.4075924307801
 20
277.5000167526309
 30
0.0
 10
277.3212059806889
 20
277.1841066464437
 30
0.0
 10
277.2849946963394
 20
277.0256498618477
 30
0.0
  0
SPLINE
  5
195
330
1F
100
AcDbEntity
  8
1
100
AcDbSpline
210
0.0
220
0.0
230
1.0
 70
     8
 71
     3
 72
    31
 73
    27
 74
     0
 42
0.000000001
 43
0.0000000001
 40
0.0
 40
0.0
 40
0.0
 40
0.0
 40
0.1249999999999991
 40
0.1249999999999991
 40
0.2499999999999982
 40
0.2499999999999982
 40
0.3749999999999973
 40
0.3749999999999973
 40
0.4374999999999968
 40
0.4374999999999968
 40
0.4531249999999967
 40
0.4531249999999967
 40
0.4687499999999964
 40
0.4999999999999963
 40
0.4999999999999963
 40
0.6249999999999972
 40
0.6249999999999972
 40
0.7499999999999979
 40
0.7499999999999979
 40
0.7812499999999984
 40
0.7812499999999984
 40
0.8124999999999989
 40
0.8124999999999989
 40
0.8749999999999994
 40
0.8749999999999994
 40
1.0
 40
1.0
 40
1.0
 40
1.0
 10
280.8043368819074
 20
282.3107246539267
 30
0.0
 10
281.0390034064357
 20
282.5592592727216
 30
0.0
 10
281.283630471044
 20
282.7938086008332
 30
0.0
 10
281.7936940413876
 20
283.2359567777976
 30
0.0
 10
282.0591250144698
 20
283.4435550793908
 30
0.0
 10
282.6122809425594
 20
283.831675625239
 30
0.0
 10
282.8999958838893
 20
284.0122060876383
 30
0.0
 10
283.3500221780731
 20
284.2616710163547
 30
0.0
 10
283.5031139377932
 20
284.341260442293
 30
0.0
 10
283.6985826127507
 20
284.4360898817943
 30
0.0
 10
283.7379007712866
 20
284.4548310971132
 30
0.0
 10
283.8167281450931
 20
284.4917365037731
 30
0.0
 10
283.9353285521806
 20
284.5462652299182
 30
0.0
 10
284.0550126706554
 20
284.5983042787262
 30
0.0
 10
284.4563971250579
 20
284.766213123827
 30
0.0
 10
284.7852856288285
 20
284.8828361978671
 30
0.0
 10
285.4596598563074
 20
285.0790088223084
 30
0.0
 10
285.8051413682154
 20
285.1585765739985
 30
0.0
 10
286.2483485748213
 20
285.2325459597437
 30
0.0
 10
286.3375593022334
 20
285.2460593733753
 30
0.0
 10
286.5171504552799
 20
285.2704410795462
 30
0.0
 10
286.6076260666531
 20
285.2813157722698
 30
0.0
 10
286.8792630774465
 20
285.3096826098603
 30
0.0
 10
287.0610744952772
 20
285.322992804925
 30
0.0
 10
287.608630103825
 20
285.3457011001185
 30
0.0
 10
287.9765029786711
 20
285.337942982631
 30
0.0
 10
288.3470406717693
 20
285.3053956594954
 30
0.0
  0
SPLINE
  5
196
330
1F
100
AcDbEntity
  8
1
100
AcDbSpline
210
0.0
220
0.0
230
1.0
 70
     8
 71
     3
 72
    12
 73
     8
 74
     0
 42
0.000000001
 43
0.0000000001
 40
0.0
 40
0.0
 40
0.0
 40
0.0
 40
0.5000000000000004
 40
0.5000000000000004
 40
0.7500000000000001
 40
0.7500000000000001
 40
1.0
 40
1.0
 40
1.0
 40
1.0
 10
280.8043368819074
 20
282.3107246539267
 30
0.0
 10
280.5572757386749
 20
282.0490629312938
 30
0.0
 10
280.3168300593108
 20
281.7752589264786
 30
0.0
 10
279.966696670352
 20
281.3441871122973
 30
0.0
 10
279.8517437423264
 20
281.1970948722075
 30
0.0
 10
279.625499501515
 20
280.8956225455399
 30
0.0
 10
279.5142076005563
 20
280.7412439818827
 30
0.0
 10
279.4048419452957
 20
280.5829157595255
 30
0.0
  0
SPLINE
  5
197
330
1F
100
AcDbEntity
  8
1
100
AcDbSpline
210
0.0
220
0.0
230
1.0
 70
     8
 71
     3
 72
    36
 73
    32
 74
     0
 42
0.000000001
 43
0.0000000001
 40
0.0
 40
0.0
 40
0.0
 40
0.0
 40
0.1249999999999378
 40
0.1249999999999378
 40
0.1874999999999046
 40
0.1874999999999046
 40
0.2187499999998916
 40
0.2187499999998916
 40
0.2499999999998787
 40
0.2499999999998787
 40
0.3749999999998451
 40
0.3749999999998451
 40
0.4062499999998487
 40
0.4062499999998487
 40
0.4374999999998522
 40
0.4374999999998522
 40
0.4999999999998592
 40
0.4999999999998592
 40
0.6249999999998789
 40
0.6249999999998789
 40
0.6562499999998766
 40
0.6562499999998766
 40
0.6874999999998743
 40
0.7499999999999041
 40
0.812499999999934
 40
0.812499999999934
 40
0.84374999999995
 40
0.84374999999995
 40
0.8749999999999662
 40
0.8749999999999662
 40
1.0
 40
1.0
 40
1.0
 40
1.0
 10
394.8286060818004
 20
304.0438722718281
 30
0.0
 10
394.826774484653
 20
304.0947120426399
 30
0.0
 10
394.8197948778957
 20
304.1444891104644
 30
0.0
 10
394.8020831099527
 20
304.2176596731745
 30
0.0
 10
394.7949620725879
 20
304.2417986119041
 30
0.0
 10
394.7824287100555
 20
304.2776247518145
 30
0.0
 10
394.7779284550049
 20
304.2895344909107
 30
0.0
 10
394.7683694331102
 20
304.3130520330122
 30
0.0
 10
394.7633171933566
 20
304.3246493666382
 30
0.0
 10
394.736723197136
 20
304.3818471067808
 30
0.0
 10
394.7112225848992
 20
304.4251041323807
 30
0.0
 10
394.6741440241732
 20
304.4760957034153
 30
0.0
 10
394.6664657251018
 20
304.4861385835202
 30
0.0
 10
394.6505759841402
 20
304.5059087584244
 30
0.0
 10
394.6423493039904
 20
304.5156510778642
 30
0.0
 10
394.6171208026265
 20
304.5441026716248
 30
0.0
 10
394.599501929078
 20
304.5621323549035
 30
0.0
 10
394.5443118828876
 20
304.613484893768
 30
0.0
 10
394.504430551644
 20
304.6440985245516
 30
0.0
 10
394.4505857954896
 20
304.6776826879474
 30
0.0
 10
394.4396014528252
 20
304.6841688698011
 30
0.0
 10
394.417465395104
 20
304.6965255064165
 30
0.0
 10
394.3839264417264
 20
304.7141908884185
 30
0.0
 10
394.326382318003
 20
304.7393592465823
 30
0.0
 10
394.2786024393266
 20
304.7549636563527
 30
0.0
 10
394.242097377566
 20
304.7649267293717
 30
0.0
 10
394.2298171222964
 20
304.767957171353
 30
0.0
 10
394.2050274369027
 20
304.7734229403325
 30
0.0
 10
394.1925017649605
 20
304.7758595274316
 30
0.0
 10
394.1298808677183
 20
304.7864205201124
 30
0.0
 10
394.0793810019662
 20
304.7898383025029
 30
0.0
 10
394.0284650116673
 20
304.7880631341545
 30
0.0
  0
SPLINE
  5
198
330
1F
100
AcDbEntity
  8
1
100
AcDbSpline
210
0.0
220
0.0
230
1.0
 70
     8
 71
     3
 72
    36
 73
    32
 74
     0
 42
0.000000001
 43
0.0000000001
 40
0.0
 40
0.0
 40
0.0
 40
0.0
 40
0.1250000000000869
 40
0.1250000000000869
 40
0.1875000000001136
 40
0.1875000000001136
 40
0.2187500000001108
 40
0.2187500000001108
 40
0.250000000000108
 40
0.250000000000108
 40
0.3750000000000692
 40
0.3750000000000692
 40
0.4062500000000659
 40
0.4062500000000659
 40
0.4375000000000626
 40
0.4375000000000626
 40
0.5000000000000587
 40
0.5000000000000587
 40
0.6250000000000508
 40
0.6250000000000508
 40
0.6562500000000462
 40
0.6562500000000462
 40
0.6875000000000414
 40
0.7500000000000359
 40
0.8125000000000303
 40
0.8125000000000303
 40
0.8437500000000277
 40
0.8437500000000277
 40
0.875000000000025
 40
0.875000000000025
 40
1.0
 40
1.0
 40
1.0
 40
1.0
 10
386.0557887655626
 20
304.5100985410879
 30
0.0
 10
386.0048671658821
 20
304.5083231771703
 30
0.0
 10
385.9550154090793
 20
304.5014071516541
 30
0.0
 10
385.8817428574909
 20
304.4838010929516
 30
0.0
 10
385.8575716105124
 20
304.4767170292491
 30
0.0
 10
385.8216995765407
 20
304.4642417703856
 30
0.0
 10
385.8097749302274
 20
304.4597613793641
 30
0.0
 10
385.7862286557532
 20
304.4502426873275
 30
0.0
 10
385.7746175073843
 20
304.4452108917154
 30
0.0
 10
385.7173533883742
 20
304.4187204806861
 30
0.0
 10
385.6740518032499
 20
304.3933070624726
 30
0.0
 10
385.6230150525914
 20
304.3563428207619
 30
0.0
 10
385.6129636674988
 20
304.3486876543233
 30
0.0
 10
385.5931775606063
 20
304.3328447244448
 30
0.0
 10
385.5834278053689
 20
304.3246417635179
 30
0.0
 10
385.5549557556149
 20
304.2994845094818
 30
0.0
 10
385.5369148175824
 20
304.2819134666877
 30
0.0
 10
385.4855354650164
 20
304.2268678828499
 30
0.0
 10
385.454913156539
 20
304.1870841436208
 30
0.0
 10
385.421330040223
 20
304.133363037557
 30
0.0
 10
385.4148446732158
 20
304.1224035374337
 30
0.0
 10
385.4024908557748
 20
304.1003167952727
 30
0.0
 10
385.3848314855126
 20
304.0668514552369
 30
0.0
 10
385.3596818067901
 20
304.0094282908259
 30
0.0
 10
385.3441018156882
 20
303.961743232453
 30
0.0
 10
385.3341605472717
 20
303.9253085953219
 30
0.0
 10
385.3311379693029
 20
303.9130516946292
 30
0.0
 10
385.3256891485763
 20
303.8883084720152
 30
0.0
 10
385.3232616606447
 20
303.8758059362879
 30
0.0
 10
385.3127488277517
 20
303.8132990098771
 30
0.0
 10
385.3093782826239
 20
303.7628857164871
 30
0.0
 10
385.3112096780077
 20
303.7120515460428
 30
0.0
  0
SPLINE
  5
199
330
1F
100
AcDbEntity
  8
1
100
AcDbSpline
210
0.0
220
0.0
230
1.0
 70
     8
 71
     3
 72
    36
 73
    32
 74
     0
 42
0.000000001
 43
0.0000000001
 40
0.0
 40
0.0
 40
0.0
 40
0.0
 40
0.1249999999999772
 40
0.1249999999999772
 40
0.1874999999999669
 40
0.1874999999999669
 40
0.218749999999956
 40
0.218749999999956
 40
0.2499999999999452
 40
0.2499999999999452
 40
0.3749999999999145
 40
0.3749999999999145
 40
0.4062499999999169
 40
0.4062499999999169
 40
0.4374999999999193
 40
0.4374999999999193
 40
0.4999999999999243
 40
0.4999999999999243
 40
0.6249999999999339
 40
0.6249999999999339
 40
0.656249999999929
 40
0.656249999999929
 40
0.6874999999999242
 40
0.7499999999999463
 40
0.8124999999999683
 40
0.8124999999999683
 40
0.8437499999999792
 40
0.8437499999999792
 40
0.8749999999999898
 40
0.8749999999999898
 40
1.0
 40
1.0
 40
1.0
 40
1.0
 10
385.5979785768802
 20
295.7521870553053
 30
0.0
 10
385.5998101740275
 20
295.7013472844936
 30
0.0
 10
385.6067897807849
 20
295.6515702166691
 30
0.0
 10
385.6245015487278
 20
295.578399653959
 30
0.0
 10
385.6316225860926
 20
295.5542607152295
 30
0.0
 10
385.6441559486251
 20
295.518434575319
 30
0.0
 10
385.6486562036758
 20
295.5065248362229
 30
0.0
 10
385.6582152255703
 20
295.4830072941213
 30
0.0
 10
385.663267465324
 20
295.4714099604954
 30
0.0
 10
385.6898614615446
 20
295.4142122203527
 30
0.0
 10
385.7153620737813
 20
295.3709551947528
 30
0.0
 10
385.7524406345074
 20
295.3199636237182
 30
0.0
 10
385.7601189335787
 20
295.3099207436133
 30
0.0
 10
385.7760086745404
 20
295.2901505687092
 30
0.0
 10
385.7842353546901
 20
295.2804082492694
 30
0.0
 10
385.809463856054
 20
295.2519566555087
 30
0.0
 10
385.8270827296025
 20
295.23392697223
 30
0.0
 10
385.882272775793
 20
295.1825744333655
 30
0.0
 10
385.9221541070366
 20
295.1519608025821
 30
0.0
 10
385.9759988631909
 20
295.1183766391862
 30
0.0
 10
385.9869832058554
 20
295.1118904573324
 30
0.0
 10
386.0091192635765
 20
295.099533820717
 30
0.0
 10
386.0426582169542
 20
295.081868438715
 30
0.0
 10
386.1002023406777
 20
295.0567000805511
 30
0.0
 10
386.147982219354
 20
295.0410956707807
 30
0.0
 10
386.1844872811147
 20
295.0311325977618
 30
0.0
 10
386.1967675363842
 20
295.0281021557805
 30
0.0
 10
386.221557221778
 20
295.0226363868011
 30
0.0
 10
386.23408289372
 20
295.0201997997019
 30
0.0
 10
386.2967037909623
 20
295.0096388070211
 30
0.0
 10
386.3472036567141
 20
295.0062210246307
 30
0.0
 10
386.3981196470133
 20
295.0079961929791
 30
0.0
  0
SPLINE
  5
19A
330
1F
100
AcDbEntity
  8
1
100
AcDbSpline
210
0.0
220
0.0
230
1.0
 70
     8
 71
     3
 72
    36
 73
    32
 74
     0
 42
0.000000001
 43
0.0000000001
 40
0.0
 40
0.0
 40
0.0
 40
0.0
 40
0.1249999999999044
 40
0.1249999999999044
 40
0.1874999999998733
 40
0.1874999999998733
 40
0.2187499999998742
 40
0.2187499999998742
 40
0.2499999999998752
 40
0.2499999999998752
 40
0.3749999999999735
 40
0.3749999999999735
 40
0.4062499999999772
 40
0.4062499999999772
 40
0.437499999999981
 40
0.437499999999981
 40
0.4999999999999886
 40
0.4999999999999886
 40
0.6250000000000049
 40
0.6250000000000049
 40
0.6562500000000046
 40
0.6562500000000046
 40
0.6875000000000043
 40
0.7500000000000054
 40
0.8125000000000063
 40
0.8125000000000063
 40
0.843750000000006
 40
0.843750000000006
 40
0.8750000000000055
 40
0.8750000000000055
 40
1.0
 40
1.0
 40
1.0
 40
1.0
 10
394.3707958931179
 20
295.2859607860457
 30
0.0
 10
394.4217174927985
 20
295.2877361499631
 30
0.0
 10
394.4715692496012
 20
295.2946521754795
 30
0.0
 10
394.5448418011896
 20
295.3122582341819
 30
0.0
 10
394.5690130481681
 20
295.3193422978845
 30
0.0
 10
394.6048850821398
 20
295.331817556748
 30
0.0
 10
394.6168097284531
 20
295.3362979477695
 30
0.0
 10
394.6403560029274
 20
295.345816639806
 30
0.0
 10
394.6519671512963
 20
295.3508484354182
 30
0.0
 10
394.7092312703064
 20
295.3773388464473
 30
0.0
 10
394.7525328554307
 20
295.4027522646608
 30
0.0
 10
394.8035696060892
 20
295.4397165063716
 30
0.0
 10
394.8136209911818
 20
295.4473716728102
 30
0.0
 10
394.8334070980743
 20
295.4632146026887
 30
0.0
 10
394.8431568533118
 20
295.4714175636156
 30
0.0
 10
394.8716289030659
 20
295.4965748176517
 30
0.0
 10
394.8896698410982
 20
295.5141458604458
 30
0.0
 10
394.9410491936642
 20
295.5691914442837
 30
0.0
 10
394.9716715021415
 20
295.6089751835128
 30
0.0
 10
395.0052546184577
 20
295.6626962895765
 30
0.0
 10
395.0117399854647
 20
295.6736557896999
 30
0.0
 10
395.0240938029057
 20
295.6957425318608
 30
0.0
 10
395.0417531731681
 20
295.7292078718966
 30
0.0
 10
395.0669027484419
 20
295.7866310761062
 30
0.0
 10
395.0824828429924
 20
295.8343160946805
 30
0.0
 10
395.0924241114092
 20
295.8707507318116
 30
0.0
 10
395.0954466893777
 20
295.8830076325042
 30
0.0
 10
395.1008955101043
 20
295.9077508551183
 30
0.0
 10
395.1033229980358
 20
295.9202533908456
 30
0.0
 10
395.1138358309288
 20
295.9827603172563
 30
0.0
 10
395.1172063760568
 20
296.0331736106464
 30
0.0
 10
395.115374980673
 20
296.0840077810907
 30
0.0
  0
SPLINE
  5
19B
330
1F
100
AcDbEntity
  8
1
100
AcDbSpline
210
0.0
220
0.0
230
1.0
 70
     8
 71
     3
 72
    18
 73
    14
 74
     0
 42
0.000000001
 43
0.0000000001
 40
0.0
 40
0.0
 40
0.0
 40
0.0
 40
0.2499999999999779
 40
0.2499999999999779
 40
0.4999999999999558
 40
0.4999999999999558
 40
0.7499999999999338
 40
0.7499999999999338
 40
0.8124999999999394
 40
0.8124999999999394
 40
0.8749999999999451
 40
0.8749999999999451
 40
1.0
 40
1.0
 40
1.0
 40
1.0
 10
386.4581663082418
 20
294.3369064686887
 30
0.0
 10
386.3932405890336
 20
294.3509847111363
 30
0.0
 10
386.3296023040543
 20
294.3681954014802
 30
0.0
 10
386.2044638346852
 20
294.4086297111403
 30
0.0
 10
386.1429665251288
 20
294.4318545508304
 30
0.0
 10
386.0218224994171
 20
294.4843662454628
 30
0.0
 10
385.9621785333787
 20
294.5136513110735
 30
0.0
 10
385.8886384019315
 20
294.5542644537328
 30
0.0
 10
385.8739811468959
 20
294.5625882719033
 30
0.0
 10
385.8447644420868
 20
294.5796475028598
 30
0.0
 10
385.8302025655582
 20
294.5883854824452
 30
0.0
 10
385.7869656963503
 20
294.6150370158333
 30
0.0
 10
385.7586376950097
 20
294.633446154326
 30
0.0
 10
385.7308017740527
 20
294.6524773230676
 30
0.0
  0
SPLINE
  5
19C
330
1F
100
AcDbEntity
  8
1
100
AcDbSpline
210
0.0
220
0.0
230
1.0
 70
    12
 71
     2
 72
     6
 73
     3
 74
     0
 42
0.000000001
 43
0.0000000001
 40
0.0
 40
0.0
 40
0.0
 40
1.0
 40
1.0
 40
1.0
 10
385.0936484211991
 20
304.3305951893104
 30
0.0
 41
0.5000009223864149
 10
385.2058323040773
 20
304.3303997066538
 30
0.0
 41
0.4999990776135851
 10
385.318015048369
 20
304.330203731514
 30
0.0
 41
0.5000009223864149
  0
SPLINE
  5
19D
330
1F
100
AcDbEntity
  8
1
100
AcDbSpline
210
0.0
220
0.0
230
1.0
 70
     8
 71
     3
 72
     8
 73
     4
 74
     0
 42
0.000000001
 43
0.0000000001
 40
0.0
 40
0.0
 40
0.0
 40
0.0
 40
1.0
 40
1.0
 40
1.0
 40
1.0
 10
381.3489492388614
 20
299.5101723297233
 30
0.0
 10
381.3368347851687
 20
301.1085776295364
 30
0.0
 10
381.3276482151515
 20
302.7070001013395
 30
0.0
 10
381.319919054216
 20
304.3054277456718
 30
0.0
  0
SPLINE
  5
19E
330
1F
100
AcDbEntity
  8
1
100
AcDbSpline
210
0.0
220
0.0
230
1.0
 70
    28
 71
     4
 72
    13
 73
     8
 74
     0
 42
0.000000001
 43
0.0000000001
 40
0.0
 40
0.0
 40
0.0
 40
0.0
 40
0.0
 40
0.3536340635638109
 40
0.3536340635638109
 40
0.3536340635638109
 40
1.0
 40
1.0
 40
1.0
 40
1.0
 40
1.0
 10
297.9048419452957
 20
283.743258642649
 30
0.0
 41
0.9970144534469563
 10
297.9048419452957
 20
282.8465138844575
 30
0.0
 41
0.9971624484827877
 10
297.9048419452959
 20
281.8645845691443
 30
0.0
 41
0.9987030411914465
 10
297.9048419452957
 20
280.8544110464534
 30
0.0
 41
1.001498006703475
 10
297.9048419452957
 20
278.1235719694372
 30
0.0
 41
1.001498006703475
 10
297.9048419452957
 20
276.1756059170575
 30
0.0
 41
0.9921606232871466
 10
297.9048419452957
 20
274.5457848466058
 30
0.0
 41
0.998212044706525
 10
297.9048419452957
 20
273.4295736426529
 30
0.0
 41
1.000727087930769
  0
SPLINE
  5
19F
330
1F
100
AcDbEntity
  8
1
100
AcDbSpline
210
0.0
220
0.0
230
1.0
 70
     8
 71
     3
 72
     8
 73
     4
 74
     0
 42
0.000000001
 43
0.0000000001
 40
0.0
 40
0.0
 40
0.0
 40
0.0
 40
1.0
 40
1.0
 40
1.0
 40
1.0
 10
380.7357041537262
 20
295.2471618285738
 30
0.0
 10
380.4718284078492
 20
295.379193253825
 30
0.0
 10
380.2109117326791
 20
295.5208796732468
 30
0.0
 10
379.9528592340156
 20
295.6726750761918
 30
0.0
  0
SPLINE
  5
1A0
330
1F
100
AcDbEntity
  8
1
100
AcDbSpline
210
0.0
220
0.0
230
1.0
 70
     8
 71
     3
 72
    30
 73
    26
 74
     0
 42
0.000000001
 43
0.0000000001
 40
0.0
 40
0.0
 40
0.0
 40
0.0
 40
0.0625000000000063
 40
0.0625000000000063
 40
0.1250000000000127
 40
0.1250000000000127
 40
0.2500000000000253
 40
0.2500000000000253
 40
0.375000000000038
 40
0.375000000000038
 40
0.5000000000000507
 40
0.5000000000000507
 40
0.5312500000000484
 40
0.5312500000000484
 40
0.5625000000000463
 40
0.6250000000000407
 40
0.6250000000000407
 40
0.7500000000000333
 40
0.7500000000000333
 40
0.7812500000000309
 40
0.7812500000000309
 40
0.8125000000000285
 40
0.8750000000000195
 40
0.8750000000000195
 40
1.0
 40
1.0
 40
1.0
 40
1.0
 10
379.5133141569751
 20
296.5334884865209
 30
0.0
 10
379.5746630681222
 20
296.5780528684642
 30
0.0
 10
379.6353998619878
 20
296.6236692239353
 30
0.0
 10
379.7553699662588
 20
296.7170271191952
 30
0.0
 10
379.8144075344111
 20
296.7646152171761
 30
0.0
 10
379.9885171145406
 20
296.9102611340106
 30
0.0
 10
380.1005970595221
 20
297.0111899657861
 30
0.0
 10
380.3156935075252
 20
297.2217443794495
 30
0.0
 10
380.418717311288
 20
297.3313629559725
 30
0.0
 10
380.6141958748786
 20
297.5607415469442
 30
0.0
 10
380.7066648068154
 20
297.6804879626641
 30
0.0
 10
380.8142413752709
 20
297.8378565237753
 30
0.0
 10
380.8353324922522
 20
297.869689578303
 30
0.0
 10
380.8764146508897
 20
297.9337660640069
 30
0.0
 10
380.9364801464543
 20
298.0306317366184
 30
0.0
 10
380.9917344712949
 20
298.1298167401252
 30
0.0
 10
381.095376865647
 20
298.3314967768663
 30
0.0
 10
381.1553649431203
 20
298.4703402934792
 30
0.0
 10
381.2168743719698
 20
298.6503909320319
 30
0.0
 10
381.2285028613076
 20
298.6867416833698
 30
0.0
 10
381.2503183739126
 20
298.7600724999924
 30
0.0
 10
381.2806968052608
 20
298.8703981452708
 30
0.0
 10
381.3039452037467
 20
298.9817254709736
 30
0.0
 10
381.3406015309787
 20
299.2057625852794
 30
0.0
 10
381.3519532667486
 20
299.3569590548955
 30
0.0
 10
381.3489492388614
 20
299.5101723297233
 30
0.0
  0
SPLINE
  5
1A1
330
1F
100
AcDbEntity
  8
1
100
AcDbSpline
210
0.0
220
0.0
230
1.0
 70
    12
 71
     3
 72
     9
 73
     5
 74
     0
 42
0.000000001
 43
0.0000000001
 40
0.0
 40
0.0
 40
0.0
 40
0.0
 40
0.3149514343067403
 40
1.0
 40
1.0
 40
1.0
 40
1.0
 10
354.2056600221747
 20
299.2410890244297
 30
0.0
 41
1.002014923270134
 10
357.0780907862896
 20
299.1919455878433
 30
0.0
 41
1.001168311452542
 10
366.216296585174
 20
298.8677698628073
 30
0.0
 41
0.9990879244334884
 10
375.2098862453553
 20
298.5717005321203
 30
0.0
 41
1.003696688207549
 10
381.3489492388614
 20
299.5101723297233
 30
0.0
 41
1.002337797616505
  0
SPLINE
  5
1A2
330
1F
100
AcDbEntity
  8
1
100
AcDbSpline
210
0.0
220
0.0
230
1.0
 70
     8
 71
     3
 72
     9
 73
     5
 74
     0
 42
0.000000001
 43
0.0000000001
 40
0.0
 40
0.0
 40
0.0
 40
0.0
 40
0.5
 40
1.0
 40
1.0
 40
1.0
 40
1.0
 10
288.3470406717693
 20
285.3053956594954
 30
0.0
 10
288.7364288983534
 20
285.2711925415081
 30
0.0
 10
289.5186499843393
 20
285.1844369290427
 30
0.0
 10
290.3076400416298
 20
285.0616233651215
 30
0.0
 10
290.703831818519
 20
284.991178095175
 30
0.0
  0
SPLINE
  5
1A3
330
1F
100
AcDbEntity
  8
1
100
AcDbSpline
210
0.0
220
0.0
230
1.0
 70
     8
 71
     3
 72
    12
 73
     8
 74
     0
 42
0.000000001
 43
0.0000000001
 40
0.0
 40
0.0
 40
0.0
 40
0.0
 40
0.25
 40
0.25
 40
0.5
 40
0.5
 40
1.0
 40
1.0
 40
1.0
 40
1.0
 10
279.4048419452957
 20
272.0637855857761
 30
0.0
 10
279.515040600501
 20
272.0585106460965
 30
0.0
 10
279.6270967706432
 20
272.0589322298045
 30
0.0
 10
279.8545262455364
 20
272.0699058056927
 30
0.0
 10
279.9699002038679
 20
272.0804600315323
 30
0.0
 10
280.3204641714684
 20
272.1257360688521
 30
0.0
 10
280.5600898194853
 20
272.1740186885791
 30
0.0
 10
280.8043368819074
 20
272.2369938803596
 30
0.0
  0
SPLINE
  5
1A4
330
1F
100
AcDbEntity
  8
1
100
AcDbSpline
210
0.0
220
0.0
230
1.0
 70
     8
 71
     3
 72
    31
 73
    27
 74
     0
 42
0.000000001
 43
0.0000000001
 40
0.0
 40
0.0
 40
0.0
 40
0.0
 40
0.1250000000000027
 40
0.1250000000000027
 40
0.2500000000000055
 40
0.2500000000000055
 40
0.3125000000000062
 40
0.3125000000000062
 40
0.3437500000000069
 40
0.3437500000000069
 40
0.3750000000000077
 40
0.3750000000000077
 40
0.5000000000000099
 40
0.5000000000000099
 40
0.6250000000000126
 40
0.6250000000000126
 40
0.6562500000000127
 40
0.6718750000000125
 40
0.6718750000000125
 40
0.6875000000000123
 40
0.6875000000000123
 40
0.75000000000001
 40
0.75000000000001
 40
0.8750000000000051
 40
0.8750000000000051
 40
1.0
 40
1.0
 40
1.0
 40
1.0
 10
277.2849946963394
 20
277.0256498618477
 30
0.0
 10
277.2345047623862
 20
276.7696747425958
 30
0.0
 10
277.2031802010985
 20
276.5179370568291
 30
0.0
 10
277.1769642601955
 20
276.0228933007725
 30
0.0
 10
277.1820805171917
 20
275.7795872490051
 30
0.0
 10
277.2169003611233
 20
275.4209568460445
 30
0.0
 10
277.2330432503401
 20
275.3024685446018
 30
0.0
 10
277.2641476004801
 20
275.1263229638811
 30
0.0
 10
277.2756747801271
 20
275.0678269971602
 30
0.0
 10
277.3010083910756
 20
274.9515594926659
 30
0.0
 10
277.3147679552975
 20
274.8939937157685
 30
0.0
 10
277.3889313173283
 20
274.6089375784581
 30
0.0
 10
277.4653718193192
 20
274.3897451833515
 30
0.0
 10
277.6509734947712
 20
273.9676992101865
 30
0.0
 10
277.7601411128135
 20
273.7648500212052
 30
0.0
 10
277.9169927959941
 20
273.5209234469573
 30
0.0
 10
277.9655825222851
 20
273.448469444552
 30
0.0
 10
278.0164862047591
 20
273.3770889156754
 30
0.0
 10
278.0509382203163
 20
273.3297392093939
 30
0.0
 10
278.068434723466
 20
273.3061669322664
 30
0.0
 10
278.156997159747
 20
273.1891780579259
 30
0.0
 10
278.2313657924521
 20
273.0982741926646
 30
0.0
 10
278.4647491296289
 20
272.8331682055606
 30
0.0
 10
278.6340078715992
 20
272.666551658738
 30
0.0
 10
278.999258360031
 20
272.35169596815
 30
0.0
 10
279.1952512411241
 20
272.2034613498582
 30
0.0
 10
279.4048419452957
 20
272.0637855857761
 30
0.0
  0
SPLINE
  5
1A5
330
1F
100
AcDbEntity
  8
1
100
AcDbSpline
210
0.0
220
0.0
230
1.0
 70
     8
 71
     3
 72
    60
 73
    56
 74
     0
 42
0.000000001
 43
0.0000000001
 40
0.0
 40
0.0
 40
0.0
 40
0.0
 40
0.0625000000000007
 40
0.0625000000000007
 40
0.1250000000000015
 40
0.1250000000000015
 40
0.1875000000000022
 40
0.1875000000000022
 40
0.2187500000000025
 40
0.2187500000000025
 40
0.2500000000000027
 40
0.2500000000000027
 40
0.3125000000000029
 40
0.3125000000000029
 40
0.3750000000000031
 40
0.3750000000000031
 40
0.4062500000000032
 40
0.4062500000000032
 40
0.4218750000000033
 40
0.4218750000000033
 40
0.4375000000000033
 40
0.4375000000000033
 40
0.4531250000000034
 40
0.4531250000000034
 40
0.4687500000000035
 40
0.4687500000000035
 40
0.5000000000000034
 40
0.5000000000000034
 40
0.5312500000000032
 40
0.5312500000000032
 40
0.5625000000000032
 40
0.5625000000000032
 40
0.5937500000000031
 40
0.5937500000000031
 40
0.6250000000000029
 40
0.6250000000000029
 40
0.6562500000000029
 40
0.6562500000000029
 40
0.6718750000000031
 40
0.6718750000000031
 40
0.6875000000000029
 40
0.6875000000000029
 40
0.7500000000000027
 40
0.7500000000000027
 40
0.8125000000000024
 40
0.8125000000000024
 40
0.8437500000000021
 40
0.8437500000000021
 40
0.8750000000000015
 40
0.9062500000000012
 40
0.9375000000000007
 40
0.9375000000000007
 40
0.9687500000000003
 40
0.9687500000000003
 40
1.0
 40
1.0
 40
1.0
 40
1.0
 10
297.9048419452957
 20
283.7404327069532
 30
0.0
 10
299.5310167643756
 20
283.4239962738667
 30
0.0
 10
301.1555434494146
 20
283.1054330760462
 30
0.0
 10
304.4011161246628
 20
282.4644579566755
 30
0.0
 10
306.0221598646737
 20
282.1420344222357
 30
0.0
 10
309.2605679544944
 20
281.4939637435361
 30
0.0
 10
310.8779286186655
 20
281.1683007024369
 30
0.0
 10
313.3011187474234
 20
280.6783465632419
 30
0.0
 10
314.1083746119555
 20
280.5147919340002
 30
0.0
 10
315.7219409682924
 20
280.187474740938
 30
0.0
 10
316.5279872759922
 20
280.0237653167601
 30
0.0
 10
318.9435443760125
 20
279.5330955231799
 30
0.0
 10
320.5506096599668
 20
279.2065084283442
 30
0.0
 10
323.7583115553793
 20
278.5584746198232
 30
0.0
 10
325.3589432148405
 20
278.2370253198705
 30
0.0
 10
327.7555940221781
 20
277.7630964954903
 30
0.0
 10
328.5537661061397
 20
277.6065085984135
 30
0.0
 10
329.7500683502627
 20
277.3743803028095
 30
0.0
 10
330.1486767815466
 20
277.2974639405548
 30
0.0
 10
330.9455983065355
 20
277.1446717377233
 30
0.0
 10
331.3439013639669
 20
277.068772168067
 30
0.0
 10
332.1403180636643
 20
276.9183322847064
 30
0.0
 10
332.5384176678184
 20
276.8438088795789
 30
0.0
 10
333.334311561042
 20
276.6965978215599
 30
0.0
 10
333.7321394380725
 20
276.623903754871
 30
0.0
 10
334.9254850586338
 20
276.4090628381796
 30
0.0
 10
335.7208697834574
 20
276.2701841760399
 30
0.0
 10
337.3123370214853
 20
276.0031541966255
 30
0.0
 10
338.1084196180664
 20
275.8749986879657
 30
0.0
 10
339.7021782250105
 20
275.6306283114627
 30
0.0
 10
340.4998532904625
 20
275.5144076992131
 30
0.0
 10
342.0975422860819
 20
275.2944587040994
 30
0.0
 10
342.8975806201015
 20
275.1907493908917
 30
0.0
 10
344.499715915767
 20
274.9944735241656
 30
0.0
 10
345.301810750908
 20
274.9019062698179
 30
0.0
 10
346.9078202607382
 20
274.7268838476089
 30
0.0
 10
347.7117356777503
 20
274.6444321212595
 30
0.0
 10
348.9188665100341
 20
274.5277768453409
 30
0.0
 10
349.3214654262524
 20
274.4900631563161
 30
0.0
 10
350.1267356670906
 20
274.4169333406126
 30
0.0
 10
350.5294492160519
 20
274.3815130944989
 30
0.0
 10
352.5434071134182
 20
274.2099554858934
 30
0.0
 10
354.1558036537054
 20
274.0903997604273
 30
0.0
 10
357.3833289073641
 20
273.8830613888626
 30
0.0
 10
358.998458415404
 20
273.7953089730935
 30
0.0
 10
361.4237235988982
 20
273.6853550046128
 30
0.0
 10
362.2325803331011
 20
273.6523211667978
 30
0.0
 10
363.8512762438808
 20
273.5931093018277
 30
0.0
 10
365.4709246160605
 20
273.5407156863657
 30
0.0
 10
367.9026755715508
 20
273.4809775914358
 30
0.0
 10
369.5248992507527
 20
273.4529146766586
 30
0.0
 10
371.1473820140444
 20
273.4304825630125
 30
0.0
 10
371.9587527749434
 20
273.4220814402728
 30
0.0
 10
373.5814511128301
 20
273.4108373545631
 30
0.0
 10
374.3927783833126
 20
273.4079935137005
 30
0.0
 10
375.2039201209898
 20
273.4079935137005
 30
0.0
  0
SPLINE
  5
1A6
330
1F
100
AcDbEntity
  8
1
100
AcDbSpline
210
0.0
220
0.0
230
1.0
 70
     8
 71
     3
 72
    74
 73
    70
 74
     0
 42
0.000000001
 43
0.0000000001
 40
0.0
 40
0.0
 40
0.0
 40
0.0
 40
0.0141955861381906
 40
0.0141955861381906
 40
0.0470557332669171
 40
0.0470557332669171
 40
0.0799158803956437
 40
0.0799158803956437
 40
0.1127760275243702
 40
0.1127760275243702
 40
0.1292061010887336
 40
0.1292061010887336
 40
0.1456361746530971
 40
0.1456361746530971
 40
0.1784963217818241
 40
0.1784963217818241
 40
0.2113564689105512
 40
0.2113564689105512
 40
0.2442166160392783
 40
0.2442166160392783
 40
0.2770767631680054
 40
0.2770767631680054
 40
0.3099369102967325
 40
0.3099369102967325
 40
0.3427970574254596
 40
0.3427970574254596
 40
0.3756572045541867
 40
0.3756572045541867
 40
0.4085173516829137
 40
0.4085173516829137
 40
0.4413774988116409
 40
0.4413774988116409
 40
0.4742376459403678
 40
0.4742376459403678
 40
0.5070977930690949
 40
0.5070977930690949
 40
0.539957940197822
 40
0.539957940197822
 40
0.572818087326549
 40
0.572818087326549
 40
0.6056782344552762
 40
0.6056782344552762
 40
0.6385383815840033
 40
0.6385383815840033
 40
0.6713985287127304
 40
0.6713985287127304
 40
0.7042586758414574
 40
0.7042586758414574
 40
0.7371188229701846
 40
0.7371188229701846
 40
0.7699789700989116
 40
0.7699789700989116
 40
0.8028391172276386
 40
0.8028391172276386
 40
0.8356992643563657
 40
0.8356992643563657
 40
0.8685594114850927
 40
0.8685594114850927
 40
0.90141955861382
 40
0.90141955861382
 40
0.9342797057425469
 40
0.9342797057425469
 40
0.9507097793069103
 40
0.9507097793069103
 40
0.9671398528712735
 40
0.9671398528712735
 40
0.9835699264356367
 40
0.9835699264356367
 40
1.0
 40
1.0
 40
1.0
 40
1.0
 10
301.8968084131667
 20
304.4079944440229
 30
0.0
 10
302.2628010625227
 20
304.4080084358738
 30
0.0
 10
302.6286261777678
 20
304.4074938670539
 30
0.0
 10
303.8407196181125
 20
304.403928446869
 30
0.0
 10
304.6862708700003
 20
304.3984284912664
 30
0.0
 10
306.3757185460931
 20
304.3805958890214
 30
0.0
 10
307.2196148766482
 20
304.3682619496122
 30
0.0
 10
308.9059098619825
 20
304.3359860424351
 30
0.0
 10
309.7483085066697
 20
304.3160426285019
 30
0.0
 10
311.0109375328137
 20
304.2799004438905
 30
0.0
 10
311.4316768488843
 20
304.2668151186864
 30
0.0
 10
312.2727157887222
 20
304.2385000953461
 30
0.0
 10
312.6930169823822
 20
304.2232704635064
 30
0.0
 10
313.9533183176724
 20
304.1742693175083
 30
0.0
 10
314.7927146085624
 20
304.1371795533404
 30
0.0
 10
316.4702192206464
 20
304.0537750502848
 30
0.0
 10
317.308327889024
 20
304.0074593018884
 30
0.0
 10
318.9836261848085
 20
303.9054243963669
 30
0.0
 10
319.8208162957509
 20
303.8497046868307
 30
0.0
 10
321.4946811806556
 20
303.7289119433978
 30
0.0
 10
322.3313565426917
 20
303.6638389358444
 30
0.0
 10
324.0046141912112
 20
303.5246265127487
 30
0.0
 10
324.841277316167
 20
303.4504799510121
 30
0.0
 10
326.5144402529807
 20
303.293681316773
 30
0.0
 10
327.3509461241538
 20
303.2110312353196
 30
0.0
 10
329.0242227374513
 20
303.0379494705143
 30
0.0
 10
329.8609940972761
 20
302.947519556474
 30
0.0
 10
331.5351903800394
 20
302.7597476955581
 30
0.0
 10
332.3726451227247
 20
302.6624778321644
 30
0.0
 10
334.0477657537023
 20
302.460472204223
 30
0.0
 10
334.8854269858524
 20
302.3557226852534
 30
0.0
 10
336.560661795461
 20
302.138151422412
 30
0.0
 10
337.3982442149549
 20
302.0253251185431
 30
0.0
 10
339.073228792064
 20
301.7913274200219
 30
0.0
 10
339.9104089735298
 20
301.6701867394373
 30
0.0
 10
341.5842600938362
 20
301.4197374854043
 30
0.0
 10
342.4209166175002
 20
301.2903898463346
 30
0.0
 10
344.0941209521912
 20
301.0243635469778
 30
0.0
 10
344.9306797434614
 20
300.8877127572889
 30
0.0
 10
346.6040590467769
 20
300.6080258972694
 30
0.0
 10
347.4408784716108
 20
300.4649898227987
 30
0.0
 10
349.1149951672204
 20
300.1732009835688
 30
0.0
 10
349.9522916066091
 20
300.0244481034047
 30
0.0
 10
351.6274777430539
 20
299.7216753337437
 30
0.0
 10
352.4653551059671
 20
299.5676571315923
 30
0.0
 10
354.1411133032864
 20
299.2547046820113
 30
0.0
 10
354.9790726615113
 20
299.0957568534067
 30
0.0
 10
356.6551264775933
 20
298.7729271092748
 30
0.0
 10
357.4932208947067
 20
298.609046116728
 30
0.0
 10
359.1694532013095
 20
298.2761102255105
 30
0.0
 10
360.0075911242184
 20
298.1070565247766
 30
0.0
 10
361.6837527576123
 20
297.7632529620812
 30
0.0
 10
362.521785761646
 20
297.5885352634073
 30
0.0
 10
364.1974698874353
 20
297.232418636144
 30
0.0
 10
365.0351551124252
 20
297.0508512626377
 30
0.0
 10
366.7090735931804
 20
296.6789872687743
 30
0.0
 10
367.5453135548441
 20
296.4886753083151
 30
0.0
 10
369.2162431472997
 20
296.098628903146
 30
0.0
 10
370.0509285384367
 20
295.8988744094416
 30
0.0
 10
371.7191409968756
 20
295.4909329415569
 30
0.0
 10
372.5526635309981
 20
295.282722532996
 30
0.0
 10
373.8028561683417
 20
294.9665820455838
 30
0.0
 10
374.219591868155
 20
294.8605811823114
 30
0.0
 10
375.0531757499866
 20
294.648064846016
 30
0.0
 10
375.4700055165495
 20
294.5415530944508
 30
0.0
 10
376.3039753811054
 20
294.3289496756746
 30
0.0
 10
376.7211152015012
 20
294.2228566861503
 30
0.0
 10
377.5559975044922
 20
294.0122697281807
 30
0.0
 10
377.9737395436901
 20
293.90777377125
 30
0.0
 10
378.3919633243099
 20
293.8048177269105
 30
0.0
  0
SPLINE
  5
1A7
330
1F
100
AcDbEntity
  8
1
100
AcDbSpline
210
0.0
220
0.0
230
1.0
 70
     8
 71
     3
 72
    44
 73
    40
 74
     0
 42
0.000000001
 43
0.0000000001
 40
0.0
 40
0.0
 40
0.0
 40
0.0
 40
0.0600006003067336
 40
0.0600006003067336
 40
0.1200012006134673
 40
0.1200012006134673
 40
0.1800018009202009
 40
0.1800018009202009
 40
0.2400024012269346
 40
0.2400024012269346
 40
0.3000030015336682
 40
0.3000030015336682
 40
0.3300033016870355
 40
0.3300033016870355
 40
0.3600036018404027
 40
0.3600036018404027
 40
0.4200042021471381
 40
0.4200042021471381
 40
0.450004502300506
 40
0.450004502300506
 40
0.4800048024538736
 40
0.4800048024538736
 40
0.6000060030673453
 40
0.6000060030673453
 40
0.6600066033740817
 40
0.6600066033740817
 40
0.720007203680818
 40
0.720007203680818
 40
0.7800078039875542
 40
0.7800078039875542
 40
0.8400084042942905
 40
0.8400084042942905
 40
0.9000090046010267
 40
0.9000090046010267
 40
0.9300093047543944
 40
0.9300093047543944
 40
0.9600096049077624
 40
0.9600096049077624
 40
1.0
 40
1.0
 40
1.0
 40
1.0
 10
381.319919054216
 20
304.3054277456718
 30
0.0
 10
380.4898004853021
 20
304.3435522032075
 30
0.0
 10
379.655257786784
 20
304.3693855928657
 30
0.0
 10
377.9765649728927
 20
304.4018212326882
 30
0.0
 10
377.1324172588879
 20
304.4084436504736
 30
0.0
 10
375.434552307236
 20
304.407496309518
 30
0.0
 10
374.5808382113939
 20
304.399939738919
 30
0.0
 10
372.8645889151397
 20
304.3748077640125
 30
0.0
 10
372.0020574958262
 20
304.3572393228807
 30
0.0
 10
370.2695281281112
 20
304.3150925385872
 30
0.0
 10
369.3995343906031
 20
304.2905162942165
 30
0.0
 10
368.0903238633535
 20
304.2496804375817
 30
0.0
 10
367.6532322505956
 20
304.235396402913
 30
0.0
 10
366.7785657171529
 20
304.205599066522
 30
0.0
 10
366.3408988086827
 20
304.1900828977495
 30
0.0
 10
365.0271718363485
 20
304.1416988440643
 30
0.0
 10
364.1503810085047
 20
304.1070338906192
 30
0.0
 10
362.8349343061954
 20
304.0507829011543
 30
0.0
 10
362.3964240391186
 20
304.0312980324538
 30
0.0
 10
361.5194209050262
 20
303.9907905177829
 30
0.0
 10
361.0809207288485
 20
303.9697750533007
 30
0.0
 10
358.8884837832073
 20
303.8608202425792
 30
0.0
 10
357.1347542898147
 20
303.7613122930376
 30
0.0
 10
354.505480920676
 20
303.591313022226
 30
0.0
 10
353.6292730407258
 20
303.531178043346
 30
0.0
 10
351.8774079805709
 20
303.4034856539417
 30
0.0
 10
351.0017639721525
 20
303.3359292671485
 30
0.0
 10
349.2516787586848
 20
303.1928878959703
 30
0.0
 10
348.3771703454712
 20
303.1174010243681
 30
0.0
 10
346.6293595998762
 20
302.9578294780775
 30
0.0
 10
345.7560553461561
 20
302.8737500655014
 30
0.0
 10
344.0108490636607
 20
302.6960974647005
 30
0.0
 10
343.1389447793348
 20
302.6025323359556
 30
0.0
 10
341.8323808008355
 20
302.4540659721102
 30
0.0
 10
341.3970816316323
 20
302.4032078911469
 30
0.0
 10
340.5269433699555
 20
302.2986125084086
 30
0.0
 10
340.0920977874947
 20
302.244888381034
 30
0.0
 10
339.0780772184465
 20
302.1162015974711
 30
0.0
 10
338.4990619494196
 20
302.0401172789695
 30
0.0
 10
337.9203523952746
 20
301.9614919725869
 30
0.0
  0
SPLINE
  5
1A8
330
1F
100
AcDbEntity
  8
1
100
AcDbSpline
210
0.0
220
0.0
230
1.0
 70
     8
 71
     3
 72
    37
 73
    33
 74
     0
 42
0.000000001
 43
0.0000000001
 40
0.0
 40
0.0
 40
0.0
 40
0.0
 40
0.0624999999999988
 40
0.0624999999999988
 40
0.1249999999999976
 40
0.1249999999999976
 40
0.1874999999999963
 40
0.1874999999999963
 40
0.2499999999999951
 40
0.2499999999999951
 40
0.2656249999999948
 40
0.2656249999999948
 40
0.2812499999999946
 40
0.2812499999999946
 40
0.3124999999999946
 40
0.3124999999999946
 40
0.3749999999999949
 40
0.3749999999999949
 40
0.4374999999999952
 40
0.4374999999999952
 40
0.4999999999999954
 40
0.4999999999999954
 40
0.6249999999999965
 40
0.6249999999999965
 40
0.7499999999999975
 40
0.7499999999999975
 40
0.7812499999999978
 40
0.7812499999999978
 40
0.8124999999999982
 40
0.8749999999999989
 40
0.8749999999999989
 40
1.0
 40
1.0
 40
1.0
 40
1.0
 10
290.7038318185191
 20
273.6621796719806
 30
0.0
 10
290.444697976211
 20
273.6751404072531
 30
0.0
 10
290.1891941351187
 20
273.6828416318085
 30
0.0
 10
289.6845970852201
 20
273.6890378585737
 30
0.0
 10
289.4355059231763
 20
273.6875310874734
 30
0.0
 10
288.9431103591426
 20
273.6764130678467
 30
0.0
 10
288.6998073298071
 20
273.6668004148053
 30
0.0
 10
288.2185335702107
 20
273.6404129364845
 30
0.0
 10
287.9805637962093
 20
273.6236369440913
 30
0.0
 10
287.6862348281785
 20
273.5987037169717
 30
0.0
 10
287.6275259923234
 20
273.5935186593668
 30
0.0
 10
287.5104183561151
 20
273.5827636462706
 30
0.0
 10
287.4519867091255
 20
273.5771904054926
 30
0.0
 10
287.2773980121328
 20
273.5599353232955
 30
0.0
 10
287.1620601158877
 20
273.5477307603612
 30
0.0
 10
286.819074428257
 20
273.5091876272386
 30
0.0
 10
286.5944488105617
 20
273.4809230632102
 30
0.0
 10
286.1526990784382
 20
273.4200838688696
 30
0.0
 10
285.9355765833866
 20
273.3875079230367
 30
0.0
 10
285.5084431084634
 20
273.3187760730273
 30
0.0
 10
285.2984332614314
 20
273.2826191748957
 30
0.0
 10
284.6786756243799
 20
273.1697829806021
 30
0.0
 10
284.2791632851854
 20
273.0887418006092
 30
0.0
 10
283.5064389687332
 20
272.920065417478
 30
0.0
 10
283.1332398626043
 20
272.8324086501127
 30
0.0
 10
282.6832054188245
 20
272.7219198243615
 30
0.0
 10
282.5940081087397
 20
272.6997730865345
 30
0.0
 10
282.4177917994487
 20
272.6556090299526
 30
0.0
 10
282.1565354212842
 20
272.5895091973562
 30
0.0
 10
281.9044193461179
 20
272.5242414111289
 30
0.0
 10
281.4122719281562
 20
272.3959275264629
 30
0.0
 10
281.100268152727
 20
272.313295017204
 30
0.0
 10
280.8043368819074
 20
272.2369938803596
 30
0.0
  0
SPLINE
  5
1AD
330
1F
100
AcDbEntity
  8
1
100
AcDbSpline
210
0.0
220
0.0
230
1.0
 70
     8
 71
     3
 72
    16
 73
    12
 74
     0
 42
0.000000001
 43
0.0000000001
 40
0.0
 40
0.0
 40
0.0
 40
0.0
 40
0.2499999999999996
 40
0.2499999999999996
 40
0.4999999999999992
 40
0.4999999999999992
 40
0.749999999999999
 40
0.749999999999999
 40
0.8749999999999994
 40
0.8749999999999994
 40
1.0
 40
1.0
 40
1.0
 40
1.0
 10
308.0656698292097
 20
273.4665938243569
 30
0.0
 10
308.9493930803068
 20
273.5813264776052
 30
0.0
 10
309.8301204712879
 20
273.7111939732969
 30
0.0
 10
311.5870073254741
 20
274.0026206154379
 30
0.0
 10
312.4631740923807
 20
274.1641618993006
 30
0.0
 10
314.2125682005408
 20
274.5194230872244
 30
0.0
 10
315.0858087170453
 20
274.7130883981805
 30
0.0
 10
316.3946129572297
 20
275.0281255752892
 30
0.0
 10
316.8307031286961
 20
275.137232081286
 30
0.0
 10
317.7026628785397
 20
275.3639320722778
 30
0.0
 10
318.138534019699
 20
275.4815160820391
 30
0.0
 10
318.5743254075017
 20
275.603677440159
 30
0.0
  0
SPLINE
  5
1AE
330
1F
100
AcDbEntity
  8
1
100
AcDbSpline
210
0.0
220
0.0
230
1.0
 70
     8
 71
     3
 72
    26
 73
    22
 74
     0
 42
0.000000001
 43
0.0000000001
 40
0.0
 40
0.0
 40
0.0
 40
0.0
 40
0.1249999999999974
 40
0.1249999999999974
 40
0.2499999999999949
 40
0.2499999999999949
 40
0.3125000000000047
 40
0.3125000000000047
 40
0.3750000000000144
 40
0.3750000000000144
 40
0.5000000000000116
 40
0.5000000000000116
 40
0.6250000000000087
 40
0.6250000000000087
 40
0.6875000000000072
 40
0.6875000000000072
 40
0.7500000000000058
 40
0.7500000000000058
 40
0.8750000000000028
 40
0.8750000000000028
 40
1.0
 40
1.0
 40
1.0
 40
1.0
 10
388.0752333373969
 20
294.7129281696797
 30
0.0
 10
388.0174689934435
 20
294.6688300066633
 30
0.0
 10
387.9580544661567
 20
294.6281945410893
 30
0.0
 10
387.8358267327595
 20
294.5534333777138
 30
0.0
 10
387.7730162662274
 20
294.5193108825969
 30
0.0
 10
387.6760855497659
 20
294.4729906819421
 30
0.0
 10
387.6433076982864
 20
294.458364537961
 30
0.0
 10
387.5774789677142
 20
294.4310253958894
 30
0.0
 10
387.5443444110107
 20
294.4182703571792
 30
0.0
 10
387.4442127559431
 20
294.3827021354772
 30
0.0
 10
387.3764934631079
 20
294.3625712694541
 30
0.0
 10
387.2386432440831
 20
294.3295718354928
 30
0.0
 10
387.1685092420888
 20
294.3167019698415
 30
0.0
 10
387.0610219541874
 20
294.3032842843622
 30
0.0
 10
387.0246495218988
 20
294.2997935108766
 30
0.0
 10
386.9524641964444
 20
294.2949665949871
 30
0.0
 10
386.9165351803744
 20
294.2936067831608
 30
0.0
 10
386.8092263497918
 20
294.2925953848695
 30
0.0
 10
386.7383300693431
 20
294.2960039769892
 30
0.0
 10
386.5975686094218
 20
294.310623376288
 30
0.0
 10
386.5276974093127
 20
294.321829613007
 30
0.0
 10
386.4581663082416
 20
294.3369064686888
 30
0.0
  0
SPLINE
  5
1AF
330
1F
100
AcDbEntity
  8
1
100
AcDbSpline
210
0.0
220
0.0
230
1.0
 70
     8
 71
     3
 72
    23
 73
    19
 74
     0
 42
0.000000001
 43
0.0000000001
 40
0.0
 40
0.0
 40
0.0
 40
0.0
 40
0.2500000000000004
 40
0.2500000000000004
 40
0.3750000000000041
 40
0.3750000000000041
 40
0.4375000000000061
 40
0.4687500000000068
 40
0.4687500000000068
 40
0.5000000000000077
 40
0.5000000000000077
 40
0.7499999999999939
 40
0.7499999999999939
 40
0.8124999999999953
 40
0.8124999999999953
 40
0.8749999999999969
 40
0.8749999999999969
 40
1.0
 40
1.0
 40
1.0
 40
1.0
 10
386.4562642864809
 20
294.1212501496665
 30
0.0
 10
385.963632858939
 20
294.1039063288139
 30
0.0
 10
385.4733727573766
 20
294.1150562900833
 30
0.0
 10
384.7414653936994
 20
294.1735648198691
 30
0.0
 10
384.4980782902189
 20
294.2000497868502
 30
0.0
 10
384.1338751473019
 20
294.2502909740351
 30
0.0
 10
383.951993095936
 20
294.2780416466395
 30
0.0
 10
383.7704424754053
 20
294.3097601434037
 30
0.0
 10
383.649482711829
 20
294.3317911384112
 30
0.0
 10
383.5890094352189
 20
294.3432553832348
 30
0.0
 10
383.0458890131498
 20
294.4502738563145
 30
0.0
 10
382.5712992983471
 20
294.5725609303027
 30
0.0
 10
381.9882018481442
 20
294.7588778561956
 30
0.0
 10
381.8720910195415
 20
294.7978193407808
 30
0.0
 10
381.6408911498609
 20
294.879066820794
 30
0.0
 10
381.5257738687563
 20
294.9213871557122
 30
0.0
 10
381.1830920057019
 20
295.0529661688946
 30
0.0
 10
380.9578192375265
 20
295.1469657316717
 30
0.0
 10
380.7357041537262
 20
295.2471618285738
 30
0.0
  0
SPLINE
  5
1B0
330
1F
100
AcDbEntity
  8
1
100
AcDbSpline
210
0.0
220
0.0
230
1.0
 70
     8
 71
     3
 72
     8
 73
     4
 74
     0
 42
0.000000001
 43
0.0000000001
 40
0.0
 40
0.0
 40
0.0
 40
0.0
 40
1.0
 40
1.0
 40
1.0
 40
1.0
 10
386.4562642864809
 20
294.1212501496665
 30
0.0
 10
386.4601218188883
 20
294.1213859598224
 30
0.0
 10
386.4639804958812
 20
294.121521151151
 30
0.0
 10
386.4678403194755
 20
294.1216557225624
 30
0.0
  0
SPLINE
  5
1B1
330
1F
100
AcDbEntity
  8
1
100
AcDbSpline
210
0.0
220
0.0
230
1.0
 70
     8
 71
     3
 72
    26
 73
    22
 74
     0
 42
0.000000001
 43
0.0000000001
 40
0.0
 40
0.0
 40
0.0
 40
0.0
 40
0.1250000000000021
 40
0.1250000000000021
 40
0.2500000000000042
 40
0.2500000000000042
 40
0.2812500000000047
 40
0.2812500000000047
 40
0.3125000000000052
 40
0.3750000000000064
 40
0.3750000000000064
 40
0.5000000000000086
 40
0.5000000000000086
 40
0.5625000000000097
 40
0.5625000000000097
 40
0.6250000000000109
 40
0.6250000000000109
 40
0.7500000000000072
 40
0.8750000000000037
 40
0.8750000000000037
 40
1.0
 40
1.0
 40
1.0
 40
1.0
 10
379.8745076728354
 20
292.8581852576424
 30
0.0
 10
380.1216310086241
 20
292.7016740234926
 30
0.0
 10
380.3743247039766
 20
292.5545648145355
 30
0.0
 10
380.8907487964538
 20
292.2793745164173
 30
0.0
 10
381.1544786291948
 20
292.1512920044269
 30
0.0
 10
381.4910691461215
 20
292.0033561129086
 30
0.0
 10
381.5587663657309
 20
291.9743649626432
 30
0.0
 10
381.6945818151
 20
291.917722528236
 30
0.0
 10
381.8990063827395
 20
291.8347361095078
 30
0.0
 10
382.105524169471
 20
291.757668295356
 30
0.0
 10
382.5213324644455
 20
291.6114160699598
 30
0.0
 10
382.80223088107
 20
291.5244155030531
 30
0.0
 10
383.2291169050807
 20
291.409812904174
 30
0.0
 10
383.3725092135499
 20
291.3742306278716
 30
0.0
 10
383.6595953244075
 20
291.3087593918276
 30
0.0
 10
383.8034305043954
 20
291.2788254814658
 30
0.0
 10
384.2357999140523
 20
291.1973305809871
 30
0.0
 10
384.8145933649949
 20
291.1107985596581
 30
0.0
 10
385.3979231745807
 20
291.068059127958
 30
0.0
 10
385.9835328179146
 20
291.0473701914558
 30
0.0
 10
386.2774774248563
 20
291.0480497486461
 30
0.0
 10
386.5725908659759
 20
291.0600335194803
 30
0.0
  0
SPLINE
  5
1B2
330
1F
100
AcDbEntity
  8
1
100
AcDbSpline
210
0.0
220
0.0
230
1.0
 70
     8
 71
     3
 72
    20
 73
    16
 74
     0
 42
0.000000001
 43
0.0000000001
 40
0.0
 40
0.0
 40
0.0
 40
0.0
 40
0.1250000000000002
 40
0.1250000000000002
 40
0.2500000000000004
 40
0.2500000000000004
 40
0.3750000000000007
 40
0.3750000000000007
 40
0.4375000000000007
 40
0.4375000000000007
 40
0.5000000000000007
 40
0.5000000000000007
 40
0.7500000000000004
 40
0.7500000000000004
 40
1.0
 40
1.0
 40
1.0
 40
1.0
 10
383.8958419452961
 20
291.706798587492
 30
0.0
 10
383.7185848975386
 20
291.7314995256486
 30
0.0
 10
383.5423977938325
 20
291.7598890829552
 30
0.0
 10
383.1920937261032
 20
291.824046615006
 30
0.0
 10
383.0179787934134
 20
291.8598118725076
 30
0.0
 10
382.671807578008
 20
291.938697567594
 30
0.0
 10
382.4997507498247
 20
291.9818188518714
 30
0.0
 10
382.2432019653082
 20
292.0520437032838
 30
0.0
 10
382.1579418485767
 20
292.0763761837159
 30
0.0
 10
381.9879334654014
 20
292.1268986071033
 30
0.0
 10
381.9031542032753
 20
292.1530985487219
 30
0.0
 10
381.4808814155938
 20
292.2886624009816
 30
0.0
 10
381.1496609526512
 20
292.4112176821138
 30
0.0
 10
380.5000532055299
 20
292.6846111568152
 30
0.0
 10
380.1816653364666
 20
292.8354476553936
 30
0.0
 10
379.8696240364621
 20
293.0009229334982
 30
0.0
  0
SPLINE
  5
1B3
330
1F
100
AcDbEntity
  8
1
100
AcDbSpline
210
0.0
220
0.0
230
1.0
 70
     9
 71
     3
 72
   130
 73
   126
 74
     0
 42
0.000000001
 43
0.0000000001
 40
0.0
 40
0.0
 40
0.0
 40
0.0
 40
0.0312499999999897
 40
0.0312499999999897
 40
0.046874999999985
 40
0.046874999999985
 40
0.0624999999999802
 40
0.0624999999999802
 40
0.0937499999999707
 40
0.0937499999999707
 40
0.1093749999999661
 40
0.1093749999999661
 40
0.1249999999999614
 40
0.1249999999999614
 40
0.156249999999952
 40
0.156249999999952
 40
0.1640624999999506
 40
0.1640624999999506
 40
0.1718749999999492
 40
0.1718749999999492
 40
0.1874999999999464
 40
0.2031249999999437
 40
0.2031249999999437
 40
0.2109374999999424
 40
0.2109374999999424
 40
0.218749999999941
 40
0.218749999999941
 40
0.2499999999999444
 40
0.2499999999999444
 40
0.265624999999946
 40
0.265624999999946
 40
0.2734374999999447
 40
0.2734374999999447
 40
0.2812499999999433
 40
0.2812499999999433
 40
0.3124999999999422
 40
0.3124999999999422
 40
0.3203124999999439
 40
0.3203124999999439
 40
0.3281249999999457
 40
0.3281249999999457
 40
0.3437499999999492
 40
0.3593749999999527
 40
0.3593749999999527
 40
0.3671874999999561
 40
0.3671874999999561
 40
0.3749999999999594
 40
0.3749999999999594
 40
0.4062499999999697
 40
0.4062499999999697
 40
0.4218749999999747
 40
0.4218749999999747
 40
0.4296874999999763
 40
0.4296874999999763
 40
0.4374999999999779
 40
0.4374999999999779
 40
0.4687499999999812
 40
0.4687499999999812
 40
0.4765624999999818
 40
0.4765624999999818
 40
0.4843749999999824
 40
0.4843749999999824
 40
0.4999999999999835
 40
0.4999999999999835
 40
0.5312499999999857
 40
0.5312499999999857
 40
0.5390624999999868
 40
0.5390624999999868
 40
0.546874999999988
 40
0.546874999999988
 40
0.5624999999999884
 40
0.5781249999999887
 40
0.5781249999999887
 40
0.5859374999999878
 40
0.5859374999999878
 40
0.5937499999999869
 40
0.5937499999999869
 40
0.6249999999999813
 40
0.6249999999999813
 40
0.6406249999999769
 40
0.6406249999999769
 40
0.6484374999999747
 40
0.6484374999999747
 40
0.6562499999999725
 40
0.6562499999999725
 40
0.6874999999999743
 40
0.6874999999999743
 40
0.6953124999999725
 40
0.6953124999999725
 40
0.7031249999999707
 40
0.7031249999999707
 40
0.7187499999999671
 40
0.7187499999999671
 40
0.7499999999999555
 40
0.7499999999999555
 40
0.7578124999999538
 40
0.7578124999999538
 40
0.765624999999952
 40
0.765624999999952
 40
0.7812499999999485
 40
0.796874999999945
 40
0.796874999999945
 40
0.8046874999999452
 40
0.8046874999999452
 40
0.8124999999999456
 40
0.8124999999999456
 40
0.8437499999999593
 40
0.8437499999999593
 40
0.8515624999999618
 40
0.8515624999999618
 40
0.8593749999999642
 40
0.8593749999999642
 40
0.8749999999999694
 40
0.8749999999999694
 40
0.9062499999999763
 40
0.9062499999999763
 40
0.9374999999999833
 40
0.9374999999999833
 40
0.953124999999987
 40
0.953124999999987
 40
0.9609374999999895
 40
0.9609374999999895
 40
0.968749999999992
 40
0.968749999999992
 40
1.0
 40
1.0
 40
1.0
 40
1.0
 10
387.9691615337858
 20
285.324186265565
 30
0.0
 10
387.9708116217317
 20
285.4187197406728
 30
0.0
 10
387.9815986056335
 20
285.5118035260142
 30
0.0
 10
388.0111367262104
 20
285.6492873827371
 30
0.0
 10
388.0232245860701
 20
285.6947555879894
 30
0.0
 10
388.0520160171503
 20
285.7849436919348
 30
0.0
 10
388.0688161428695
 20
285.8298377315664
 30
0.0
 10
388.1252268085823
 20
285.9605545586888
 30
0.0
 10
388.1709714655859
 20
286.043254768747
 30
0.0
 10
388.2517922573489
 20
286.1605760901318
 30
0.0
 10
388.2807911263411
 20
286.1985671075751
 30
0.0
 10
388.3430177144612
 20
286.272127713771
 30
0.0
 10
388.3757270452623
 20
286.3070867263223
 30
0.0
 10
388.4784944918938
 20
286.4066531672848
 30
0.0
 10
388.5531479883027
 20
286.4660005314429
 30
0.0
 10
388.654326544199
 20
286.5311320255962
 30
0.0
 10
388.6750021323692
 20
286.5437261938173
 30
0.0
 10
388.7169677815129
 20
286.5678641106275
 30
0.0
 10
388.7381723085724
 20
286.5793617972713
 30
0.0
 10
388.8024379050922
 20
286.6121732124004
 30
0.0
 10
388.8898608487581
 20
286.6514455443393
 30
0.0
 10
388.980695721419
 20
286.6819031043478
 30
0.0
 10
389.0501173774002
 20
286.7013948259108
 30
0.0
 10
389.0734742405868
 20
286.7073324835252
 30
0.0
 10
389.1206282516989
 20
286.7180682050209
 30
0.0
 10
389.1444930177419
 20
286.7228765241151
 30
0.0
 10
389.2637944207468
 20
286.7438090186977
 30
0.0
 10
389.3594930987354
 20
286.7508368862342
 30
0.0
 10
389.5034163287418
 20
286.7472127208614
 30
0.0
 10
389.5514537450682
 20
286.7436261354789
 30
0.0
 10
389.6236073351375
 20
286.7345679657607
 30
0.0
 10
389.6476719253454
 20
286.7309300266035
 30
0.0
 10
389.6952843682338
 20
286.7225089628037
 30
0.0
 10
389.7189019344919
 20
286.7177182004724
 30
0.0
 10
389.836062206603
 20
286.6909127759769
 30
0.0
 10
389.9268496102852
 20
286.660426365423
 30
0.0
 10
390.0366285994412
 20
286.6109555789915
 30
0.0
 10
390.0583974167365
 20
286.600488073789
 30
0.0
 10
390.1015532307634
 20
286.5783832591807
 30
0.0
 10
390.1227792994584
 20
286.5668276084788
 30
0.0
 10
390.185316410159
 20
286.5307427484264
 30
0.0
 10
390.2657588239886
 20
286.4788060168993
 30
0.0
 10
390.3404540503449
 20
286.4194151672414
 30
0.0
 10
390.3943072978234
 20
286.3720677304
 30
0.0
 10
390.4118963761143
 20
286.3558170408585
 30
0.0
 10
390.4463404099616
 20
286.3223675182385
 30
0.0
 10
390.4632386587542
 20
286.3051213147194
 30
0.0
 10
390.5452887179381
 20
286.2170896566823
 30
0.0
 10
390.6028344215287
 20
286.1414228026309
 30
0.0
 10
390.6775339223074
 20
286.0204678648645
 30
0.0
 10
390.7004830636682
 20
285.9788978202288
 30
0.0
 10
390.7319203651042
 20
285.9146343303592
 30
0.0
 10
390.7419173955907
 20
285.8928496473224
 30
0.0
 10
390.7607065518302
 20
285.8490905536921
 30
0.0
 10
390.7695232489987
 20
285.8270712458877
 30
0.0
 10
390.8107773569664
 20
285.7162935088862
 30
0.0
 10
390.834804264233
 20
285.6255115000297
 30
0.0
 10
390.8537690040464
 20
285.5094065573261
 30
0.0
 10
390.8570036895508
 20
285.4860529583008
 30
0.0
 10
390.8623407010587
 20
285.4390773221517
 30
0.0
 10
390.8644385035586
 20
285.4154595531266
 30
0.0
 10
390.8689737917326
 20
285.3449521312593
 30
0.0
 10
390.8696896208136
 20
285.2981573929958
 30
0.0
 10
390.8651264802147
 20
285.158386233328
 30
0.0
 10
390.8531994898306
 20
285.066018654065
 30
0.0
 10
390.826930642191
 20
284.9515825269227
 30
0.0
 10
390.8211028566782
 20
284.928759656282
 30
0.0
 10
390.8084243527658
 20
284.8836897587126
 30
0.0
 10
390.8015606822663
 20
284.8613827407238
 30
0.0
 10
390.7794213061063
 20
284.7951329713815
 30
0.0
 10
390.7457798354959
 20
284.7085871734132
 30
0.0
 10
390.7039760832534
 20
284.6255582050312
 30
0.0
 10
390.6695034033946
 20
284.564620413163
 30
0.0
 10
390.6574915973608
 20
284.5445305194781
 30
0.0
 10
390.6324043337505
 20
284.5048035224818
 30
0.0
 10
390.6193043779697
 20
284.4851363006078
 30
0.0
 10
390.5518051378912
 20
284.388960532991
 30
0.0
 10
390.491023255979
 20
284.3181119050858
 30
0.0
 10
390.3897380616536
 20
284.2208058946615
 30
0.0
 10
390.3542789064377
 20
284.1898757339192
 30
0.0
 10
390.2984357570082
 20
284.1458188759215
 30
0.0
 10
390.2793203373272
 20
284.1314839293584
 30
0.0
 10
390.2405123696258
 20
284.1038541914418
 30
0.0
 10
390.220826093005
 20
284.0905583610115
 30
0.0
 10
390.12100047538
 20
284.0266362663718
 30
0.0
 10
390.0367191836563
 20
283.9836053892829
 30
0.0
 10
389.9257049054112
 20
283.940109259799
 30
0.0
 10
389.9032163395832
 20
283.9319294405442
 30
0.0
 10
389.8576535377884
 20
283.916632639594
 30
0.0
 10
389.8345082944309
 20
283.9094965665439
 30
0.0
 10
389.7647423643523
 20
283.8898893948698
 30
0.0
 10
389.7179040869919
 20
283.8792275307533
 30
0.0
 10
389.5764300667092
 20
283.8542802573689
 30
0.0
 10
389.4808444056692
 20
283.8469629926748
 30
0.0
 10
389.3597143517532
 20
283.8498877012312
 30
0.0
 10
389.335373069029
 20
283.8510881498574
 30
0.0
 10
389.287108873664
 20
283.8546829349734
 30
0.0
 10
389.2631153330409
 20
283.8570770563667
 30
0.0
 10
389.1915422031861
 20
283.8660152595411
 30
0.0
 10
389.0971960431691
 20
283.8826064549881
 30
0.0
 10
389.0049810557846
 20
283.908396268843
 30
0.0
 10
388.9366278903115
 20
283.9312357864926
 30
0.0
 10
388.9139328733527
 20
283.9394509352644
 30
0.0
 10
388.8690265492481
 20
283.9569877821769
 30
0.0
 10
388.8469027976938
 20
283.9662723706788
 30
0.0
 10
388.7378868373511
 20
284.0152118757316
 30
0.0
 10
388.6557561233101
 20
284.0623416135447
 30
0.0
 10
388.5592348926902
 20
284.130990256406
 30
0.0
 10
388.540240634635
 20
284.1452114155016
 30
0.0
 10
388.5028783788265
 20
284.1746492192721
 30
0.0
 10
388.484522337839
 20
284.1898614460358
 30
0.0
 10
388.4309648903085
 20
284.2365029801409
 30
0.0
 10
388.3970696623271
 20
284.2690883194099
 30
0.0
 10
388.3006166618142
 20
284.3711848172749
 30
0.0
 10
388.2432412554911
 20
284.4449947357102
 30
0.0
 10
388.1425625376356
 20
284.6044391423492
 30
0.0
 10
388.1007705329537
 20
284.6876936550713
 30
0.0
 10
388.050377906208
 20
284.8175370355387
 30
0.0
 10
388.0356395463556
 20
284.8616601369706
 30
0.0
 10
388.0166792017026
 20
284.9291390278422
 30
0.0
 10
388.0108845563892
 20
284.9518480630049
 30
0.0
 10
388.0003678883849
 20
284.9977081678
 30
0.0
 10
387.9956716608229
 20
285.0207518128202
 30
0.0
 10
387.9750435977257
 20
285.1362026585741
 30
0.0
 10
387.9675114458398
 20
285.2296527904571
 30
0.0
 10
387.9691615337858
 20
285.324186265565
 30
0.0
  0
SPLINE
  5
1B4
330
1F
100
AcDbEntity
  8
1
100
AcDbSpline
210
0.0
220
0.0
230
1.0
 70
     8
 71
     3
 72
    10
 73
     6
 74
     0
 42
0.000000001
 43
0.0000000001
 40
0.0
 40
0.0
 40
0.0
 40
0.0
 40
0.5
 40
0.5
 40
1.0
 40
1.0
 40
1.0
 40
1.0
 10
379.9528592340158
 20
295.6726750761924
 30
0.0
 10
379.9133825033275
 20
295.6958966542543
 30
0.0
 10
379.8750239176024
 20
295.7205851738124
 30
0.0
 10
379.8006907985447
 20
295.7731261515972
 30
0.0
 10
379.7647134407642
 20
295.8009748512129
 30
0.0
 10
379.7300814820882
 20
295.8306254865466
 30
0.0
  0
SPLINE
  5
1B5
330
1F
100
AcDbEntity
  8
1
100
AcDbSpline
210
0.0
220
0.0
230
1.0
 70
     8
 71
     3
 72
    19
 73
    15
 74
     0
 42
0.000000001
 43
0.0000000001
 40
0.0
 40
0.0
 40
0.0
 40
0.0
 40
0.2500000000000017
 40
0.2500000000000017
 40
0.5000000000000035
 40
0.5000000000000035
 40
0.6250000000000044
 40
0.6250000000000044
 40
0.6562500000000037
 40
0.6562500000000037
 40
0.6875000000000031
 40
0.7500000000000016
 40
0.7500000000000016
 40
1.0
 40
1.0
 40
1.0
 40
1.0
 10
295.1711718344459
 20
273.4869283169477
 30
0.0
 10
295.3802418623943
 20
273.4748536869834
 30
0.0
 10
295.5944389137094
 20
273.4655135327293
 30
0.0
 10
296.0333352680109
 20
273.4506755565207
 30
0.0
 10
296.2580322200611
 20
273.4451783031245
 30
0.0
 10
296.6034203473504
 20
273.4389358167756
 30
0.0
 10
296.719943304001
 20
273.4371923469701
 30
0.0
 10
296.867415187504
 20
273.4353706447836
 30
0.0
 10
296.8970183719477
 20
273.4350240962461
 30
0.0
 10
296.9561868663948
 20
273.4343679676847
 30
0.0
 10
297.0449559991138
 20
273.4334382966554
 30
0.0
 10
297.1337740707658
 20
273.4326641052377
 30
0.0
 10
297.4299422514769
 20
273.4303996714129
 30
0.0
 10
297.6672212910104
 20
273.4295736426529
 30
0.0
 10
297.9048419453172
 20
273.4295736426529
 30
0.0
  0
SPLINE
  5
1B6
330
1F
100
AcDbEntity
  8
1
100
AcDbSpline
210
0.0
220
0.0
230
1.0
 70
     8
 71
     3
 72
    10
 73
     6
 74
     0
 42
0.000000001
 43
0.0000000001
 40
0.0
 40
0.0
 40
0.0
 40
0.0
 40
0.5
 40
0.5
 40
1.0
 40
1.0
 40
1.0
 40
1.0
 10
308.0656698292104
 20
273.4665938243538
 30
0.0
 10
306.377734791954
 20
273.4330531364441
 30
0.0
 10
304.6872889791369
 20
273.414937619593
 30
0.0
 10
301.3005629191787
 20
273.4043670163486
 30
0.0
 10
299.6042799235013
 20
273.4118974936414
 30
0.0
 10
297.9048419452957
 20
273.4295736426529
 30
0.0
  0
SPLINE
  5
1B7
330
1F
100
AcDbEntity
  8
1
100
AcDbSpline
210
0.0
220
0.0
230
1.0
 70
     8
 71
     3
 72
    14
 73
    10
 74
     0
 42
0.000000001
 43
0.0000000001
 40
0.0
 40
0.0
 40
0.0
 40
0.0
 40
0.25
 40
0.25
 40
0.5
 40
0.5
 40
0.75
 40
0.75
 40
1.0
 40
1.0
 40
1.0
 40
1.0
 10
290.7038318185191
 20
273.6621796719806
 30
0.0
 10
291.0762787380122
 20
273.6435515148718
 30
0.0
 10
291.4490502547302
 20
273.6261457276372
 30
0.0
 10
292.1943491631925
 20
273.5931856024911
 30
0.0
 10
292.5668668546568
 20
273.5776324557911
 30
0.0
 10
293.3113265504847
 20
273.5482989915176
 30
0.0
 10
293.6832667348966
 20
273.5345268829943
 30
0.0
 10
294.4270213246944
 20
273.5090624203015
 30
0.0
 10
294.7988437709618
 20
273.4973815958083
 30
0.0
 10
295.1711718344462
 20
273.4869283169477
 30
0.0
  0
SPLINE
  5
1B8
330
1F
100
AcDbEntity
  8
1
100
AcDbSpline
210
0.0
220
0.0
230
1.0
 70
     8
 71
     3
 72
     8
 73
     4
 74
     0
 42
0.000000001
 43
0.0000000001
 40
0.0
 40
0.0
 40
0.0
 40
0.0
 40
1.0
 40
1.0
 40
1.0
 40
1.0
 10
394.7311931720172
 20
288.5774807728481
 30
0.0
 10
394.7276505834055
 20
288.5992200467837
 30
0.0
 10
394.722340263689
 20
288.6205185758535
 30
0.0
 10
394.7152622128679
 20
288.6413763600573
 30
0.0
  0
SPLINE
  5
1B9
330
1F
100
AcDbEntity
  8
1
100
AcDbSpline
210
0.0
220
0.0
230
1.0
 70
     8
 71
     3
 72
     8
 73
     4
 74
     0
 42
0.000000001
 43
0.0000000001
 40
0.0
 40
0.0
 40
0.0
 40
0.0
 40
1.0
 40
1.0
 40
1.0
 40
1.0
 10
394.5894505876547
 20
281.4336331788933
 30
0.0
 10
394.5972522528897
 20
281.4542312366872
 30
0.0
 10
394.6033026456479
 20
281.475331463783
 30
0.0
 10
394.6076017659294
 20
281.4969338601808
 30
0.0
  0
SPLINE
  5
1BA
330
1F
100
AcDbEntity
  8
1
100
AcDbSpline
210
0.0
220
0.0
230
1.0
 70
     8
 71
     3
 72
     8
 73
     4
 74
     0
 42
0.000000001
 43
0.0000000001
 40
0.0
 40
0.0
 40
0.0
 40
0.0
 40
1.0
 40
1.0
 40
1.0
 40
1.0
 10
394.0081269389876
 20
280.4992402055162
 30
0.0
 10
394.0251824081699
 20
280.5131778142169
 30
0.0
 10
394.0409723155493
 20
280.5284259505285
 30
0.0
 10
394.0554966611259
 20
280.5449846144509
 30
0.0
  0
SPLINE
  5
1BB
330
1F
100
AcDbEntity
  8
1
100
AcDbSpline
210
0.0
220
0.0
230
1.0
 70
     8
 71
     3
 72
     8
 73
     4
 74
     0
 42
0.000000001
 43
0.0000000001
 40
0.0
 40
0.0
 40
0.0
 40
0.0
 40
1.0
 40
1.0
 40
1.0
 40
1.0
 10
394.2126469442886
 20
289.5481183071029
 30
0.0
 10
394.1987093355879
 20
289.5651737762852
 30
0.0
 10
394.1834611992763
 20
289.5809636836645
 30
0.0
 10
394.166902535354
 20
289.5954880292411
 30
0.0
  0
SPLINE
  5
1BC
330
1F
100
AcDbEntity
  8
1
100
AcDbSpline
210
0.0
220
0.0
230
1.0
 70
     8
 71
     3
 72
    10
 73
     6
 74
     0
 42
0.000000001
 43
0.0000000001
 40
0.0
 40
0.0
 40
0.0
 40
0.0
 40
0.9443990352341176
 40
0.9443990352341176
 40
1.0
 40
1.0
 40
1.0
 40
1.0
 10
389.2904181205656
 20
301.0370171672785
 30
0.0
 10
389.2869219398596
 20
301.0065999735216
 30
0.0
 10
389.2810387758833
 20
300.9766411221814
 30
0.0
 10
389.2722853387742
 20
300.94537011683
 30
0.0
 10
389.2717903853376
 20
300.9436328960674
 30
0.0
 10
389.2712871378632
 20
300.9418971529715
 30
0.0
  0
SPLINE
  5
1BD
330
1F
100
AcDbEntity
  8
1
100
AcDbSpline
210
0.0
220
0.0
230
1.0
 70
     8
 71
     3
 72
    20
 73
    16
 74
     0
 42
0.000000001
 43
0.0000000001
 40
0.0
 40
0.0
 40
0.0
 40
0.0
 40
0.1250000000000417
 40
0.1250000000000417
 40
0.2500000000000835
 40
0.2500000000000835
 40
0.3750000000001252
 40
0.3750000000001252
 40
0.5000000000001671
 40
0.5000000000001671
 40
0.6250000000002088
 40
0.6250000000002088
 40
0.7500000000002505
 40
0.7500000000002505
 40
1.0
 40
1.0
 40
1.0
 40
1.0
 10
389.3701658445768
 20
298.488015818082
 30
0.0
 10
389.3679326812288
 20
298.4837681058973
 30
0.0
 10
389.365408333197
 20
298.4797104382737
 30
0.0
 10
389.3597812098536
 20
298.4719727814336
 30
0.0
 10
389.3566699456723
 20
298.4682910021979
 30
0.0
 10
389.3500118257119
 20
298.4614814953962
 30
0.0
 10
389.3464493884067
 20
298.4583295247792
 30
0.0
 10
389.3388505548478
 20
298.4525398036567
 30
0.0
 10
389.3347795647855
 20
298.4498850559088
 30
0.0
 10
389.326338124542
 20
298.4452427846439
 30
0.0
 10
389.3219681130716
 20
298.4432468792376
 30
0.0
 10
389.3129272931616
 20
298.439912112273
 30
0.0
 10
389.3082248214899
 20
298.4385670161353
 30
0.0
 10
389.2938544935099
 20
298.4356394155491
 30
0.0
 10
389.284131261966
 20
298.4351579548552
 30
0.0
 10
389.2742581485803
 20
298.436239757952
 30
0.0
  0
SPLINE
  5
1BE
330
1F
100
AcDbEntity
  8
1
100
AcDbSpline
210
0.0
220
0.0
230
1.0
 70
     8
 71
     3
 72
    18
 73
    14
 74
     0
 42
0.000000001
 43
0.0000000001
 40
0.0
 40
0.0
 40
0.0
 40
0.0
 40
0.2500000000002143
 40
0.2500000000002143
 40
0.3750000000001851
 40
0.3750000000001851
 40
0.500000000000156
 40
0.500000000000156
 40
0.625000000000127
 40
0.625000000000127
 40
0.7500000000000977
 40
0.7500000000000977
 40
1.0
 40
1.0
 40
1.0
 40
1.0
 10
390.1952840584801
 20
298.2240049248488
 30
0.0
 10
390.1859290888565
 20
298.2273556345542
 30
0.0
 10
390.1772174916097
 20
298.2321752128186
 30
0.0
 10
390.1657361392967
 20
298.241013483989
 30
0.0
 10
390.1621445989013
 20
298.2442405085426
 30
0.0
 10
390.1554364659827
 20
298.2512598776088
 30
0.0
 10
390.1523561869551
 20
298.2550225206127
 30
0.0
 10
390.1468588246535
 20
298.2628519192178
 30
0.0
 10
390.1444171697968
 20
298.266943932932
 30
0.0
 10
390.140138966751
 20
298.2754766146912
 30
0.0
 10
390.1382929622063
 20
298.2799542420488
 30
0.0
 10
390.1338174918678
 20
298.2935576608482
 30
0.0
 10
390.1321814420475
 20
298.3028899410214
 30
0.0
 10
390.1319028679098
 20
298.3124864130154
 30
0.0
  0
SPLINE
  5
1BF
330
1F
100
AcDbEntity
  8
1
100
AcDbSpline
210
0.0
220
0.0
230
1.0
 70
     8
 71
     3
 72
    10
 73
     6
 74
     0
 42
0.000000001
 43
0.0000000001
 40
0.0
 40
0.0
 40
0.0
 40
0.0
 40
0.5
 40
0.5
 40
1.0
 40
1.0
 40
1.0
 40
1.0
 10
389.3701658445768
 20
298.488015818082
 30
0.0
 10
389.3752702851355
 20
298.4977250023099
 30
0.0
 10
389.3818360189463
 20
298.5063950727559
 30
0.0
 10
389.3978324292131
 20
298.5214803502128
 30
0.0
 10
389.4068859666538
 20
298.5275566419085
 30
0.0
 10
389.4170626989973
 20
298.5320807223974
 30
0.0
  0
SPLINE
  5
1C0
330
1F
100
AcDbEntity
  8
1
100
AcDbSpline
210
0.0
220
0.0
230
1.0
 70
     8
 71
     3
 72
    10
 73
     6
 74
     0
 42
0.000000001
 43
0.0000000001
 40
0.0
 40
0.0
 40
0.0
 40
0.0
 40
0.5
 40
0.5
 40
1.0
 40
1.0
 40
1.0
 40
1.0
 10
390.1091465375249
 20
298.3726017149293
 30
0.0
 10
390.1162987432199
 20
298.3640843314138
 30
0.0
 10
390.1217920305969
 20
298.35459745768
 30
0.0
 10
390.1295092463596
 20
298.3340585117072
 30
0.0
 10
390.1315847926995
 20
298.3234436392428
 30
0.0
 10
390.1319028679098
 20
298.3124864130154
 30
0.0
  0
SPLINE
  5
1C1
330
1F
100
AcDbEntity
  8
1
100
AcDbSpline
210
0.0
220
0.0
230
1.0
 70
     8
 71
     3
 72
    27
 73
    23
 74
     0
 42
0.000000001
 43
0.0000000001
 40
0.0
 40
0.0
 40
0.0
 40
0.0
 40
0.1272385257483965
 40
0.1272385257483965
 40
0.1908577886225948
 40
0.1908577886225948
 40
0.2544770514967929
 40
0.2544770514967929
 40
0.3817155772451923
 40
0.3817155772451923
 40
0.4453348401193921
 40
0.4453348401193921
 40
0.5089541029935918
 40
0.5089541029935918
 40
0.6361926287419865
 40
0.6361926287419865
 40
0.6998118916161812
 40
0.6998118916161812
 40
0.7634311544903757
 40
0.7634311544903757
 40
0.8906696802387587
 40
1.0
 40
1.0
 40
1.0
 40
1.0
 10
389.2742581485803
 20
298.436239757952
 30
0.0
 10
389.2426785193155
 20
298.4396999573238
 30
0.0
 10
389.2116757657734
 20
298.4456372881274
 30
0.0
 10
389.1660285183709
 20
298.4581983098558
 30
0.0
 10
389.1509562201105
 20
298.4629972944453
 30
0.0
 10
389.1211049980319
 20
298.4738435294128
 30
0.0
 10
389.1062860470839
 20
298.4799138905732
 30
0.0
 10
389.0629811679748
 20
298.499724754761
 30
0.0
 10
389.0354286890826
 20
298.5151165289406
 30
0.0
 10
388.99604562041
 20
298.5414277541373
 30
0.0
 10
388.9832437095249
 20
298.5507379348426
 30
0.0
 10
388.9583048047908
 20
298.5704597498614
 30
0.0
 10
388.9461150385646
 20
298.580923800646
 30
0.0
 10
388.9111038994589
 20
298.6135294490239
 30
0.0
 10
388.8897618850892
 20
298.6368953500987
 30
0.0
 10
388.8606564065478
 20
298.6743136275572
 30
0.0
 10
388.8514415122046
 20
298.68718319966
 30
0.0
 10
388.8339982205199
 20
298.7137262788032
 30
0.0
 10
388.825741884937
 20
298.7274518178152
 30
0.0
 10
388.8026997012841
 20
298.7695029215791
 30
0.0
 10
388.7786606344122
 20
298.8232242222993
 30
0.0
 10
388.762661938577
 20
298.8797834225989
 30
0.0
 10
388.757030041023
 20
298.906542845387
 30
0.0
  0
SPLINE
  5
1C2
330
1F
100
AcDbEntity
  8
1
100
AcDbSpline
210
0.0
220
0.0
230
1.0
 70
     8
 71
     3
 72
    24
 73
    20
 74
     0
 42
0.000000001
 43
0.0000000001
 40
0.0
 40
0.0
 40
0.0
 40
0.0
 40
0.1249999999999996
 40
0.1249999999999996
 40
0.249999999999999
 40
0.249999999999999
 40
0.3124999999999991
 40
0.3124999999999991
 40
0.3749999999999991
 40
0.3749999999999991
 40
0.4999999999999993
 40
0.4999999999999993
 40
0.6249999999999996
 40
0.6249999999999996
 40
0.7499999999999997
 40
0.7499999999999997
 40
0.8749999999999998
 40
0.8749999999999998
 40
1.0
 40
1.0
 40
1.0
 40
1.0
 10
389.4170626989973
 20
298.5320807223974
 30
0.0
 10
389.445883624092
 20
298.5448931046525
 30
0.0
 10
389.4754424844634
 20
298.5553553975023
 30
0.0
 10
389.5360716466664
 20
298.5716019486138
 30
0.0
 10
389.5671411666165
 20
298.5773884687692
 30
0.0
 10
389.6150017587373
 20
298.5822859347045
 30
0.0
 10
389.6310659638244
 20
298.5832687714171
 30
0.0
 10
389.6630271893524
 20
298.5839174503828
 30
0.0
 10
389.6789830204139
 20
298.5835897866493
 30
0.0
 10
389.7267781403209
 20
298.5806507886726
 30
0.0
 10
389.7585959313748
 20
298.5760853967338
 30
0.0
 10
389.8218290462443
 20
298.5615046853811
 30
0.0
 10
389.8523206381595
 20
298.5517112308833
 30
0.0
 10
389.9111868680682
 20
298.5274018296152
 30
0.0
 10
389.9395717500184
 20
298.512878384391
 30
0.0
 10
389.9941548467201
 20
298.4790416400062
 30
0.0
 10
390.0195609136568
 20
298.4602252014527
 30
0.0
 10
390.0669301636167
 20
298.4190667853485
 30
0.0
 10
390.0888914738437
 20
298.3967229654722
 30
0.0
 10
390.1091465375249
 20
298.3726017149293
 30
0.0
  0
SPLINE
  5
1C3
330
1F
100
AcDbEntity
  8
1
100
AcDbSpline
210
0.0
220
0.0
230
1.0
 70
     8
 71
     3
 72
    27
 73
    23
 74
     0
 42
0.000000001
 43
0.0000000001
 40
0.0
 40
0.0
 40
0.0
 40
0.0
 40
0.0954901796995737
 40
0.0954901796995737
 40
0.1600980240067363
 40
0.1600980240067363
 40
0.2247058683138987
 40
0.2247058683138987
 40
0.3539215569282196
 40
0.3539215569282196
 40
0.4185294012353817
 40
0.4185294012353817
 40
0.4831372455425438
 40
0.4831372455425438
 40
0.6123529341568658
 40
0.6123529341568658
 40
0.6769607784640549
 40
0.6769607784640549
 40
0.741568622771244
 40
0.741568622771244
 40
0.870784311385622
 40
1.0
 40
1.0
 40
1.0
 40
1.0
 10
390.8588728975956
 20
298.411563344595
 30
0.0
 10
390.8440987665997
 20
298.3932894718629
 30
0.0
 10
390.8283320253635
 20
298.3759667189992
 30
0.0
 10
390.8002535572452
 20
298.3485007485978
 30
0.0
 10
390.7884714733498
 20
298.337849416592
 30
0.0
 10
390.763987440631
 20
298.3174297250638
 30
0.0
 10
390.7512454417016
 20
298.3076383952471
 30
0.0
 10
390.7122351624604
 20
298.2800687373983
 30
0.0
 10
390.6850269200091
 20
298.2639309858949
 30
0.0
 10
390.6424411769667
 20
298.2430338905895
 30
0.0
 10
390.6279489884434
 20
298.2366223512163
 30
0.0
 10
390.5983586244382
 20
298.2249301878237
 30
0.0
 10
390.5831887033522
 20
298.2196302178826
 30
0.0
 10
390.5374318804572
 20
298.2056921783704
 30
0.0
 10
390.5065476056893
 20
298.1989527892043
 30
0.0
 10
390.4596692209566
 20
298.1925572052432
 30
0.0
 10
390.443950660953
 20
298.1910472531297
 30
0.0
 10
390.4123264545103
 20
298.1892873711321
 30
0.0
 10
390.3963618739181
 20
298.1890394219949
 30
0.0
 10
390.3485988555472
 20
298.1902330369005
 30
0.0
 10
390.2859166625826
 20
298.1969076230563
 30
0.0
 10
390.2251615194152
 20
298.2133035861643
 30
0.0
 10
390.1952840584802
 20
298.2240049248488
 30
0.0
  0
SPLINE
  5
1C4
330
1F
100
AcDbEntity
  8
1
100
AcDbSpline
210
0.0
220
0.0
230
1.0
 70
     8
 71
     3
 72
    24
 73
    20
 74
     0
 42
0.000000001
 43
0.0000000001
 40
0.0
 40
0.0
 40
0.0
 40
0.0
 40
0.1302783204814928
 40
0.1302783204814928
 40
0.2605566409629855
 40
0.2605566409629855
 40
0.3256958012037318
 40
0.3256958012037318
 40
0.3908349614444782
 40
0.3908349614444782
 40
0.5211132819259646
 40
0.5211132819259646
 40
0.6513916024074513
 40
0.6513916024074513
 40
0.7816699228889376
 40
0.7816699228889376
 40
0.911948243370424
 40
0.911948243370424
 40
1.0
 40
1.0
 40
1.0
 40
1.0
 10
388.6294746623798
 20
299.7488068990239
 30
0.0
 10
388.6546468296012
 20
299.7306774261868
 30
0.0
 10
388.6781832749859
 20
299.7107023313936
 30
0.0
 10
388.7220307504805
 20
299.6670319032482
 30
0.0
 10
388.7423433028118
 20
299.643338423764
 30
0.0
 10
388.7702289727337
 20
299.6047529121553
 30
0.0
 10
388.7790285064991
 20
299.5914581699988
 30
0.0
 10
388.7954292881976
 20
299.5643268903092
 30
0.0
 10
388.8030652465578
 20
299.5504431327508
 30
0.0
 10
388.8242820761547
 20
299.5078345071379
 30
0.0
 10
388.8361988678415
 20
299.478109679202
 30
0.0
 10
388.8552249850077
 20
299.4161605315217
 30
0.0
 10
388.862063640704
 20
299.3848463816761
 30
0.0
 10
388.8706951939703
 20
299.3215757120186
 30
0.0
 10
388.8724868045176
 20
299.2896068291467
 30
0.0
 10
388.8709249119627
 20
299.2250583711851
 30
0.0
 10
388.8675988028058
 20
299.1934193848105
 30
0.0
 10
388.8580801045574
 20
299.1413506721051
 30
0.0
 10
388.8531649128726
 20
299.1206119445026
 30
0.0
 10
388.8471711865254
 20
299.1001285619822
 30
0.0
  0
SPLINE
  5
1C5
330
1F
100
AcDbEntity
  8
1
100
AcDbSpline
210
0.0
220
0.0
230
1.0
 70
     8
 71
     3
 72
    10
 73
     6
 74
     0
 42
0.000000001
 43
0.0000000001
 40
0.0
 40
0.0
 40
0.0
 40
0.0
 40
0.5
 40
0.5
 40
1.0
 40
1.0
 40
1.0
 40
1.0
 10
388.5686969902958
 20
299.7663844485976
 30
0.0
 10
388.5795058119127
 20
299.7669932833311
 30
0.0
 10
388.5901501613982
 20
299.7658165842729
 30
0.0
 10
388.6109276173938
 20
299.7598496833835
 30
0.0
 10
388.6205858935753
 20
299.7552087591092
 30
0.0
 10
388.6294746623798
 20
299.7488068990239
 30
0.0
  0
SPLINE
  5
1C6
330
1F
100
AcDbEntity
  8
1
100
AcDbSpline
210
0.0
220
0.0
230
1.0
 70
     8
 71
     3
 72
    20
 73
    16
 74
     0
 42
0.000000001
 43
0.0000000001
 40
0.0
 40
0.0
 40
0.0
 40
0.0
 40
0.1250000000000318
 40
0.1250000000000318
 40
0.2500000000000636
 40
0.2500000000000636
 40
0.3750000000000954
 40
0.3750000000000954
 40
0.5000000000001271
 40
0.5000000000001271
 40
0.6250000000001589
 40
0.6250000000001589
 40
0.7500000000001908
 40
0.7500000000001908
 40
1.0
 40
1.0
 40
1.0
 40
1.0
 10
388.5686969902958
 20
299.7663844485976
 30
0.0
 10
388.563968064787
 20
299.7661180796812
 30
0.0
 10
388.559257473344
 20
299.7661987706576
 30
0.0
 10
388.54987287834
 20
299.7670497868528
 30
0.0
 10
388.5451934842532
 20
299.7678264286324
 30
0.0
 10
388.5360927118372
 20
299.7700373286407
 30
0.0
 10
388.5316428791656
 20
299.7714725222709
 30
0.0
 10
388.5229482738438
 20
299.775013001056
 30
0.0
 10
388.5186719481353
 20
299.7771392158816
 30
0.0
 10
388.5105420231483
 20
299.7819901354538
 30
0.0
 10
388.506681086729
 20
299.784710374861
 30
0.0
 10
388.4993719910852
 20
299.7907456234275
 30
0.0
 10
388.4959027295378
 20
299.7940847560265
 30
0.0
 10
388.4863130860047
 20
299.8048937846195
 30
0.0
 10
388.4811053986204
 20
299.8129762167445
 30
0.0
 10
388.4771601002411
 20
299.8219883277665
 30
0.0
  0
SPLINE
  5
1C7
330
1F
100
AcDbEntity
  8
1
100
AcDbSpline
210
0.0
220
0.0
230
1.0
 70
     8
 71
     3
 72
    22
 73
    18
 74
     0
 42
0.000000001
 43
0.0000000001
 40
0.0
 40
0.0
 40
0.0
 40
0.0
 40
0.1355865800348108
 40
0.1355865800348108
 40
0.2076210316985882
 40
0.2076210316985882
 40
0.2796554833623658
 40
0.2796554833623658
 40
0.4237243866898927
 40
0.4237243866898927
 40
0.5677932900174194
 40
0.5677932900174194
 40
0.7118621933449464
 40
0.7118621933449464
 40
0.855931096672473
 40
0.855931096672473
 40
1.0
 40
1.0
 40
1.0
 40
1.0
 10
390.8856006355459
 20
298.7016916121826
 30
0.0
 10
390.8938752299874
 20
298.7302279986564
 30
0.0
 10
390.9042419021128
 20
298.7582930858845
 30
0.0
 10
390.9235626524337
 20
298.8005164300612
 30
0.0
 10
390.9308677568093
 20
298.8149324358256
 30
0.0
 10
390.9464974851354
 20
298.842950143797
 30
0.0
 10
390.9548465004761
 20
298.8566062790807
 30
0.0
 10
390.9814951962153
 20
298.8965178263237
 30
0.0
 10
391.0014198484058
 20
298.921760796329
 30
0.0
 10
391.0456275017507
 20
298.9691294949345
 30
0.0
 10
391.0692562241092
 20
298.9905664207072
 30
0.0
 10
391.1193972943268
 20
299.0292060579691
 30
0.0
 10
391.145920393163
 20
299.0464134351644
 30
0.0
 10
391.2018852746178
 20
299.0765038394384
 30
0.0
 10
391.2305087407064
 20
299.0889522272624
 30
0.0
 10
391.2889895572607
 20
299.1090803725136
 30
0.0
 10
391.3188474994018
 20
299.1167575675089
 30
0.0
 10
391.349349033163
 20
299.1220578825847
 30
0.0
  0
SPLINE
  5
1C8
330
1F
100
AcDbEntity
  8
1
100
AcDbSpline
210
0.0
220
0.0
230
1.0
 70
     8
 71
     3
 72
    10
 73
     6
 74
     0
 42
0.000000001
 43
0.0000000001
 40
0.0
 40
0.0
 40
0.0
 40
0.0
 40
0.5
 40
0.5
 40
1.0
 40
1.0
 40
1.0
 40
1.0
 10
391.349349033163
 20
299.1220578825847
 30
0.0
 10
391.3601185142624
 20
299.123929317755
 30
0.0
 10
391.3708830416249
 20
299.1238757116444
 30
0.0
 10
391.3920986324828
 20
299.1201505262226
 30
0.0
 10
391.4021110537531
 20
299.1165718957225
 30
0.0
 10
391.4115382633807
 20
299.111299790667
 30
0.0
  0
SPLINE
  5
1C9
330
1F
100
AcDbEntity
  8
1
100
AcDbSpline
210
0.0
220
0.0
230
1.0
 70
     8
 71
     3
 72
    18
 73
    14
 74
     0
 42
0.000000001
 43
0.0000000001
 40
0.0
 40
0.0
 40
0.0
 40
0.0
 40
0.2499999999996849
 40
0.2499999999996849
 40
0.3749999999996839
 40
0.3749999999996839
 40
0.499999999999683
 40
0.499999999999683
 40
0.624999999999682
 40
0.624999999999682
 40
0.749999999999681
 40
0.749999999999681
 40
1.0
 40
1.0
 40
1.0
 40
1.0
 10
391.5179362914675
 20
299.1212929178847
 30
0.0
 10
391.510447788021
 20
299.1149041919224
 30
0.0
 10
391.5020360973993
 20
299.1098150967561
 30
0.0
 10
391.4888445556348
 20
299.1043654851705
 30
0.0
 10
391.4843265111576
 20
299.1028945883719
 30
0.0
 10
391.4750477786482
 20
299.1006493895114
 30
0.0
 10
391.4703321346769
 20
299.0998917574817
 30
0.0
 10
391.4609720718616
 20
299.0991031591022
 30
0.0
 10
391.4562946105234
 20
299.0990639107952
 30
0.0
 10
391.4469456069574
 20
299.0996850251631
 30
0.0
 10
391.4422383200791
 20
299.1003559433162
 30
0.0
 10
391.4285036265649
 20
299.1033729362446
 30
0.0
 10
391.4197947845423
 20
299.1066823854457
 30
0.0
 10
391.4115382633807
 20
299.111299790667
 30
0.0
  0
SPLINE
  5
1CA
330
1F
100
AcDbEntity
  8
1
100
AcDbSpline
210
0.0
220
0.0
230
1.0
 70
     8
 71
     3
 72
    18
 73
    14
 74
     0
 42
0.000000001
 43
0.0000000001
 40
0.0
 40
0.0
 40
0.0
 40
0.0
 40
0.2743762671672612
 40
0.2743762671672612
 40
0.4115644007508771
 40
0.4115644007508771
 40
0.5487525343344933
 40
0.5487525343344933
 40
0.823128801501725
 40
0.823128801501725
 40
0.9603169350853484
 40
0.9603169350853484
 40
1.0
 40
1.0
 40
1.0
 40
1.0
 10
388.4771601002411
 20
299.8219883277665
 30
0.0
 10
388.4645415392685
 20
299.8508124778028
 30
0.0
 10
388.454335404453
 20
299.8804006274626
 30
0.0
 10
388.4425907511003
 20
299.9259030114555
 30
0.0
 10
388.4392726768613
 20
299.9412580522705
 30
0.0
 10
388.4338545373862
 20
299.9723497768285
 30
0.0
 10
388.4317546097357
 20
299.9881322659236
 30
0.0
 10
388.427399374535
 20
300.0353029018355
 30
0.0
 10
388.4270249375709
 20
300.0667282641201
 30
0.0
 10
388.4301971168911
 20
300.1138318840887
 30
0.0
 10
388.4318797114311
 20
300.1295273448004
 30
0.0
 10
388.4348715314233
 20
300.1497551884733
 30
0.0
 10
388.4355977514675
 20
300.1542990407345
 30
0.0
 10
388.4363776717814
 20
300.1588409794276
 30
0.0
  0
SPLINE
  5
1CB
330
1F
100
AcDbEntity
  8
1
100
AcDbSpline
210
0.0
220
0.0
230
1.0
 70
     8
 71
     3
 72
    13
 73
     9
 74
     0
 42
0.000000001
 43
0.0000000001
 40
0.0
 40
0.0
 40
0.0
 40
0.0
 40
0.1171549338382764
 40
0.1171549338382764
 40
0.2937239470706212
 40
0.2937239470706212
 40
0.6468619735353106
 40
1.0
 40
1.0
 40
1.0
 40
1.0
 10
391.6753744504953
 20
299.3336937802281
 30
0.0
 10
391.6711922665728
 20
299.3241313437673
 30
0.0
 10
391.6667550466587
 20
299.31467227222
 30
0.0
 10
391.6549854958232
 20
299.2912185025364
 30
0.0
 10
391.6472952522165
 20
299.2773064430965
 30
0.0
 10
391.6226357835354
 20
299.2366607532901
 30
0.0
 10
391.585913474632
 20
299.1858948827658
 30
0.0
 10
391.5418525824601
 20
299.1416968117031
 30
0.0
 10
391.5179362914675
 20
299.1212929178847
 30
0.0
  0
SPLINE
  5
1CC
330
1F
100
AcDbEntity
  8
1
100
AcDbSpline
210
0.0
220
0.0
230
1.0
 70
     8
 71
     3
 72
    10
 73
     6
 74
     0
 42
0.000000001
 43
0.0000000001
 40
0.0
 40
0.0
 40
0.0
 40
0.0
 40
0.5
 40
0.5
 40
1.0
 40
1.0
 40
1.0
 40
1.0
 10
389.2761593232149
 20
301.0973614417845
 30
0.0
 10
389.2819330276857
 20
301.0884954444997
 30
0.0
 10
389.286077759562
 20
301.0788790263522
 30
0.0
 10
389.2909886584479
 20
301.0582698250089
 30
0.0
 10
389.2916525881051
 20
301.0477571837396
 30
0.0
 10
389.2904181205656
 20
301.0370171672785
 30
0.0
  0
SPLINE
  5
1CD
330
1F
100
AcDbEntity
  8
1
100
AcDbSpline
210
0.0
220
0.0
230
1.0
 70
     8
 71
     3
 72
    10
 73
     6
 74
     0
 42
0.000000001
 43
0.0000000001
 40
0.0
 40
0.0
 40
0.0
 40
0.0
 40
0.702293686196006
 40
0.702293686196006
 40
1.0
 40
1.0
 40
1.0
 40
1.0
 10
389.2761593232149
 20
301.0973614417845
 30
0.0
 10
389.2736333952274
 20
301.1012402116093
 30
0.0
 10
389.2714173131189
 20
301.10527679446
 30
0.0
 10
389.2687001810413
 20
301.1112476302628
 30
0.0
 10
389.2679471217444
 20
301.1130546947383
 30
0.0
 10
389.2672527165266
 20
301.1148829403164
 30
0.0
  0
SPLINE
  5
1CE
330
1F
100
AcDbEntity
  8
1
100
AcDbSpline
210
0.0
220
0.0
230
1.0
 70
     8
 71
     3
 72
    10
 73
     6
 74
     0
 42
0.000000001
 43
0.0000000001
 40
0.0
 40
0.0
 40
0.0
 40
0.0
 40
0.5
 40
0.5
 40
1.0
 40
1.0
 40
1.0
 40
1.0
 10
391.3182086528215
 20
300.5697471583073
 30
0.0
 10
391.3217727661879
 20
300.5799504566501
 30
0.0
 10
391.3269829379075
 20
300.5891796501353
 30
0.0
 10
391.3403529273671
 20
300.6055466617838
 30
0.0
 10
391.3482228192387
 20
300.6123542727447
 30
0.0
 10
391.3572635729668
 20
300.6178061889204
 30
0.0
  0
SPLINE
  5
1CF
330
1F
100
AcDbEntity
  8
1
100
AcDbSpline
210
0.0
220
0.0
230
1.0
 70
     8
 71
     3
 72
    20
 73
    16
 74
     0
 42
0.000000001
 43
0.0000000001
 40
0.0
 40
0.0
 40
0.0
 40
0.0
 40
0.117123444638152
 40
0.117123444638152
 40
0.234246889276304
 40
0.234246889276304
 40
0.3513703339144561
 40
0.3513703339144561
 40
0.4684937785526082
 40
0.4684937785526082
 40
0.7027406678289144
 40
0.7027406678289144
 40
0.9369875571052205
 40
0.9369875571052205
 40
1.0
 40
1.0
 40
1.0
 40
1.0
 10
318.5743254075017
 20
275.6036774401589
 30
0.0
 10
318.9089305816607
 20
275.6968480757259
 30
0.0
 10
319.2439889015263
 20
275.7902261407295
 30
0.0
 10
319.9152067096256
 20
275.9765481511449
 30
0.0
 10
320.2513662006966
 20
276.0694910785511
 30
0.0
 10
320.9249137483441
 20
276.254249990821
 30
0.0
 10
321.2623016609999
 20
276.3460654521019
 30
0.0
 10
321.9383678476847
 20
276.5280589155979
 30
0.0
 10
322.2770458669902
 20
276.6182368627959
 30
0.0
 10
323.2950189496322
 20
276.8858349932737
 30
0.0
 10
323.9762721702913
 20
277.0602349837054
 30
0.0
 10
325.3434415734899
 20
277.4006535497255
 30
0.0
 10
326.0293463971045
 20
277.566698487514
 30
0.0
 10
326.9020587256393
 20
277.7733751535162
 30
0.0
 10
327.0871849583553
 20
277.8169582077625
 30
0.0
 10
327.2724301999369
 20
277.8603470358701
 30
0.0
  0
SPLINE
  5
1D0
330
1F
100
AcDbEntity
  8
1
100
AcDbSpline
210
0.0
220
0.0
230
1.0
 70
    12
 71
     3
 72
     9
 73
     5
 74
     0
 42
0.000000001
 43
0.0000000001
 40
0.0
 40
0.0
 40
0.0
 40
0.0
 40
0.9515612110718091
 40
1.0
 40
1.0
 40
1.0
 40
1.0
 10
318.5743254075017
 20
275.6036774401589
 30
0.0
 41
1.004410963396314
 10
322.6445267482307
 20
276.0080616903155
 30
0.0
 41
1.00325292488902
 10
326.8287303510827
 20
276.4444130550988
 30
0.0
 41
1.001592266466692
 10
331.0547256249573
 20
277.0549869848089
 30
0.0
 41
1.000925496474747
 10
331.2596403773738
 20
277.0850080790008
 30
0.0
 41
1.000895534353966
  0
SPLINE
  5
1D1
330
1F
100
AcDbEntity
  8
1
100
AcDbSpline
210
0.0
220
0.0
230
1.0
 70
     8
 71
     3
 72
    18
 73
    14
 74
     0
 42
0.000000001
 43
0.0000000001
 40
0.0
 40
0.0
 40
0.0
 40
0.0
 40
0.2500000000000067
 40
0.2500000000000067
 40
0.5000000000000135
 40
0.5000000000000135
 40
0.7500000000000204
 40
0.7500000000000204
 40
0.8125000000000186
 40
0.8125000000000186
 40
0.875000000000017
 40
0.875000000000017
 40
1.0
 40
1.0
 40
1.0
 40
1.0
 10
386.4966391648815
 20
293.2799304288645
 30
0.0
 10
386.2983861336991
 20
293.3029697559019
 30
0.0
 10
386.0944723686939
 20
293.3277135910463
 30
0.0
 10
385.6771783273858
 20
293.3829664611932
 30
0.0
 10
385.4637862378682
 20
293.4134640225457
 30
0.0
 10
385.02862251861
 20
293.4820801990181
 30
0.0
 10
384.8068456775933
 20
293.5201917220526
 30
0.0
 10
384.5247634268453
 20
293.5736303879062
 30
0.0
 10
384.4681028828212
 20
293.5846078553406
 30
0.0
 10
384.3542991817098
 20
293.607167819248
 30
0.0
 10
384.2971868440854
 20
293.6187446719134
 30
0.0
 10
384.1256789931662
 20
293.6543033125487
 30
0.0
 10
384.0109446210033
 20
293.679146471409
 30
0.0
 10
383.8958419452957
 20
293.7051928301082
 30
0.0
  0
SPLINE
  5
1D2
330
1F
100
AcDbEntity
  8
1
100
AcDbSpline
210
0.0
220
0.0
230
1.0
 70
     9
 71
     3
 72
   178
 73
   174
 74
     0
 42
0.000000001
 43
0.0000000001
 40
0.0
 40
0.0
 40
0.0
 40
0.0
 40
0.0156249999999993
 40
0.0156249999999993
 40
0.0234374999999992
 40
0.0234374999999992
 40
0.031249999999999
 40
0.031249999999999
 40
0.0468749999999988
 40
0.0468749999999988
 40
0.0546874999999985
 40
0.0546874999999985
 40
0.0624999999999982
 40
0.0624999999999982
 40
0.0781249999999975
 40
0.0781249999999975
 40
0.0859374999999973
 40
0.0859374999999973
 40
0.0937499999999971
 40
0.1015624999999969
 40
0.1015624999999969
 40
0.1093749999999967
 40
0.1093749999999967
 40
0.1249999999999966
 40
0.1249999999999966
 40
0.1328124999999967
 40
0.1328124999999967
 40
0.1406249999999967
 40
0.1406249999999967
 40
0.1562499999999966
 40
0.1562499999999966
 40
0.1718749999999965
 40
0.1718749999999965
 40
0.1796874999999965
 40
0.1796874999999965
 40
0.1874999999999964
 40
0.1874999999999964
 40
0.2031249999999963
 40
0.2031249999999963
 40
0.2109374999999961
 40
0.2109374999999961
 40
0.2187499999999959
 40
0.2187499999999959
 40
0.2343749999999956
 40
0.2343749999999956
 40
0.2499999999999953
 40
0.2499999999999953
 40
0.2578124999999952
 40
0.2578124999999952
 40
0.2656249999999951
 40
0.2656249999999951
 40
0.2812499999999949
 40
0.2812499999999949
 40
0.2890624999999949
 40
0.2890624999999949
 40
0.2968749999999948
 40
0.2968749999999948
 40
0.3124999999999949
 40
0.3124999999999949
 40
0.3281249999999949
 40
0.3281249999999949
 40
0.335937499999995
 40
0.335937499999995
 40
0.343749999999995
 40
0.343749999999995
 40
0.3593749999999949
 40
0.3593749999999949
 40
0.3671874999999949
 40
0.3671874999999949
 40
0.3749999999999949
 40
0.3749999999999949
 40
0.3906249999999946
 40
0.3906249999999946
 40
0.4062499999999943
 40
0.4062499999999943
 40
0.4140624999999942
 40
0.4140624999999942
 40
0.4218749999999939
 40
0.4218749999999939
 40
0.4374999999999939
 40
0.4374999999999939
 40
0.445312499999994
 40
0.445312499999994
 40
0.4531249999999942
 40
0.4609374999999942
 40
0.4609374999999942
 40
0.4687499999999942
 40
0.4687499999999942
 40
0.4999999999999961
 40
0.4999999999999961
 40
0.5156249999999972
 40
0.5156249999999972
 40
0.5234374999999977
 40
0.5234374999999977
 40
0.5312499999999983
 40
0.5312499999999983
 40
0.5468749999999991
 40
0.5468749999999991
 40
0.5624999999999997
 40
0.5624999999999997
 40
0.5703124999999997
 40
0.5703124999999997
 40
0.5781249999999997
 40
0.5781249999999997
 40
0.5937499999999993
 40
0.5937499999999993
 40
0.6015624999999991
 40
0.6015624999999991
 40
0.6093749999999987
 40
0.6093749999999987
 40
0.6249999999999977
 40
0.6249999999999977
 40
0.6406249999999967
 40
0.6406249999999967
 40
0.6484374999999965
 40
0.6484374999999965
 40
0.6562499999999963
 40
0.6562499999999963
 40
0.671874999999996
 40
0.671874999999996
 40
0.679687499999996
 40
0.679687499999996
 40
0.687499999999996
 40
0.687499999999996
 40
0.703124999999996
 40
0.703124999999996
 40
0.7187499999999961
 40
0.7187499999999961
 40
0.7265624999999963
 40
0.7265624999999963
 40
0.7343749999999964
 40
0.7343749999999964
 40
0.7499999999999965
 40
0.7499999999999965
 40
0.7578124999999965
 40
0.7578124999999965
 40
0.7656249999999965
 40
0.7656249999999965
 40
0.7812499999999965
 40
0.7812499999999965
 40
0.7968749999999966
 40
0.7968749999999966
 40
0.8046874999999968
 40
0.8046874999999968
 40
0.8124999999999968
 40
0.8124999999999968
 40
0.8281249999999975
 40
0.8281249999999975
 40
0.8359374999999978
 40
0.8359374999999978
 40
0.8437499999999982
 40
0.8515624999999985
 40
0.8515624999999985
 40
0.8593749999999989
 40
0.8593749999999989
 40
0.8749999999999992
 40
0.8749999999999992
 40
0.8906249999999996
 40
0.8906249999999996
 40
0.90625
 40
0.90625
 40
0.9140625
 40
0.9140625
 40
0.921875
 40
0.9296875
 40
0.9296875
 40
0.9374999999999998
 40
0.9374999999999998
 40
0.9531249999999998
 40
0.9531249999999998
 40
0.9687499999999998
 40
0.9687499999999998
 40
1.0
 40
1.0
 40
1.0
 40
1.0
 10
393.0727106723823
 20
283.3328658422556
 30
0.0
 10
393.081873572891
 20
283.3319823230482
 30
0.0
 10
393.0910056701679
 20
283.3343017446239
 30
0.0
 10
393.1046578772218
 20
283.3425576307365
 30
0.0
 10
393.1092009426845
 20
283.3461071476209
 30
0.0
 10
393.1182716111232
 20
283.3548139811493
 30
0.0
 10
393.1228008777233
 20
283.3599760216732
 30
0.0
 10
393.1362923166576
 20
283.3777993312945
 30
0.0
 10
393.14518249205
 20
283.3928114682248
 30
0.0
 10
393.1583610582852
 20
283.4200402317226
 30
0.0
 10
393.1627331464765
 20
283.4299166143883
 30
0.0
 10
393.171396952947
 20
283.4511935104126
 30
0.0
 10
393.1756846378918
 20
283.4625816052591
 30
0.0
 10
393.1884156728497
 20
283.498984065032
 30
0.0
 10
393.1967273261135
 20
283.5262311271078
 30
0.0
 10
393.2089280074786
 20
283.5716248411235
 30
0.0
 10
393.2129411451019
 20
283.5874787467069
 30
0.0
 10
393.2208383711632
 20
283.6205382594906
 30
0.0
 10
393.2286134964592
 20
283.6549751263931
 30
0.0
 10
393.2361445303387
 20
283.6921654593941
 30
0.0
 10
393.2435526767142
 20
283.7307420212982
 30
0.0
 10
393.2471982966792
 20
283.7507431962895
 30
0.0
 10
393.2578918272212
 20
283.8125151895845
 30
0.0
 10
393.2647148902427
 20
283.8561360603764
 30
0.0
 10
393.2744903109096
 20
283.92522857599
 30
0.0
 10
393.2776758544521
 20
283.9489003964008
 30
0.0
 10
393.2838733676885
 20
283.9973341199033
 30
0.0
 10
393.2868818968973
 20
284.0220657149981
 30
0.0
 10
393.2956385352324
 20
284.0977948141825
 30
0.0
 10
393.3011183547061
 20
284.1503228690312
 30
0.0
 10
393.3113555043092
 20
284.2595006681253
 30
0.0
 10
393.316077569746
 20
284.3157836243761
 30
0.0
 10
393.322554599985
 20
284.4025274553938
 30
0.0
 10
393.324613403006
 20
284.4318398618941
 30
0.0
 10
393.3285295427408
 20
284.4912644441375
 30
0.0
 10
393.3303875727362
 20
284.5213949468765
 30
0.0
 10
393.3356285040434
 20
284.6124920054802
 30
0.0
 10
393.3386900008292
 20
284.6743177014989
 30
0.0
 10
393.3426354066863
 20
284.7686930576504
 30
0.0
 10
393.3438439484159
 20
284.8004681164024
 30
0.0
 10
393.3460351741497
 20
284.8643347268493
 30
0.0
 10
393.3470176955829
 20
284.896410023443
 30
0.0
 10
393.3496286773038
 20
284.9930585077562
 30
0.0
 10
393.3509213721197
 20
285.058053264094
 30
0.0
 10
393.3526054221701
 20
285.1891744490631
 30
0.0
 10
393.3529900644223
 20
285.2547959626922
 30
0.0
 10
393.3528895134559
 20
285.3532430944081
 30
0.0
 10
393.3527429226706
 20
285.3860654799945
 30
0.0
 10
393.3522227002675
 20
285.4517236539263
 30
0.0
 10
393.3518486373027
 20
285.484561589136
 30
0.0
 10
393.3503923392611
 20
285.5825644095374
 30
0.0
 10
393.3489758119194
 20
285.6473976628257
 30
0.0
 10
393.3461854264281
 20
285.7438978669335
 30
0.0
 10
393.3451425242026
 20
285.775981732143
 30
0.0
 10
393.3428424156781
 20
285.8396352255404
 30
0.0
 10
393.341585475949
 20
285.8712091563393
 30
0.0
 10
393.3374965586032
 20
285.9651785520405
 30
0.0
 10
393.3343462144392
 20
286.0268408453531
 30
0.0
 10
393.3271981681691
 20
286.1480805911075
 30
0.0
 10
393.3232267945542
 20
286.2072163454929
 30
0.0
 10
393.3166812638977
 20
286.2937220193476
 30
0.0
 10
393.3144011634553
 20
286.3221902509072
 30
0.0
 10
393.3096435809607
 20
286.378389486537
 30
0.0
 10
393.3071670446334
 20
286.4061045903946
 30
0.0
 10
393.2994799969791
 20
286.4877195566204
 30
0.0
 10
393.2940009189866
 20
286.5402348310632
 30
0.0
 10
393.2852517655994
 20
286.6161712107949
 30
0.0
 10
393.2822429700682
 20
286.6410383144016
 30
0.0
 10
393.2760743171815
 20
286.6896032081478
 30
0.0
 10
393.2729130001147
 20
286.7133169057264
 30
0.0
 10
393.2631994977667
 20
286.782762245814
 30
0.0
 10
393.2564128623834
 20
286.8268340790202
 30
0.0
 10
393.2422457237856
 20
286.9102893443876
 30
0.0
 10
393.234908581131
 20
286.94942378629
 30
0.0
 10
393.2235256407039
 20
287.0042677088986
 30
0.0
 10
393.2196683438083
 20
287.0219049108103
 30
0.0
 10
393.2118269535228
 20
287.0558826188606
 30
0.0
 10
393.2078475034722
 20
287.0722007392618
 30
0.0
 10
393.1957774673915
 20
287.1189726922434
 30
0.0
 10
393.1875387365894
 20
287.1473230608884
 30
0.0
 10
393.1748917224406
 20
287.1855895683587
 30
0.0
 10
393.1706234392548
 20
287.1976439058033
 30
0.0
 10
393.162030558554
 20
287.2202105345598
 30
0.0
 10
393.1533737330291
 20
287.2412616188046
 30
0.0
 10
393.1445894823675
 20
287.2592926233384
 30
0.0
 10
393.1357412959668
 20
287.2758082986931
 30
0.0
 10
393.1312782646203
 20
287.2833186308866
 30
0.0
 10
393.1088842132484
 20
287.3169204539317
 30
0.0
 10
393.0908766351397
 20
287.3310825950002
 30
0.0
 10
393.0637303969185
 20
287.3337474730589
 30
0.0
 10
393.0546590136284
 20
287.3315175151412
 30
0.0
 10
393.0410169718255
 20
287.323355932383
 30
0.0
 10
393.0364552756884
 20
287.3198212595174
 30
0.0
 10
393.0273842988934
 20
287.3111701404542
 30
0.0
 10
393.0228705307305
 20
287.3060542186485
 30
0.0
 10
393.0093941612215
 20
287.2883435801304
 30
0.0
 10
393.0004962520683
 20
287.2733916082067
 30
0.0
 10
392.9828761819513
 20
287.2371053599644
 30
0.0
 10
392.9742265107817
 20
287.2159203687675
 30
0.0
 10
392.9614912001184
 20
287.1796056839895
 30
0.0
 10
392.957286034755
 20
287.1667432203258
 30
0.0
 10
392.9489562295486
 20
287.1394908423379
 30
0.0
 10
392.9448307690091
 20
287.1250948077852
 30
0.0
 10
392.9326435112408
 20
287.0798451882301
 30
0.0
 10
392.9247473701088
 20
287.0468637011263
 30
0.0
 10
392.9132472889008
 20
286.9931555110583
 30
0.0
 10
392.9094663453789
 20
286.9745185772762
 30
0.0
 10
392.902049028281
 20
286.9359617677112
 30
0.0
 10
392.8984137117998
 20
286.9160508853962
 30
0.0
 10
392.8877266839903
 20
286.8544303312934
 30
0.0
 10
392.8808933550819
 20
286.810837402346
 30
0.0
 10
392.8678163978228
 20
286.7185661635071
 30
0.0
 10
392.8616242324517
 20
286.6702486202269
 30
0.0
 10
392.8528583060436
 20
286.5945800137263
 30
0.0
 10
392.8500231341766
 20
286.5688212266007
 30
0.0
 10
392.8445275532541
 20
286.5162246811408
 30
0.0
 10
392.8418672445019
 20
286.4893826743858
 30
0.0
 10
392.8341932156173
 20
286.4076844305253
 30
0.0
 10
392.829469928987
 20
286.351513816413
 30
0.0
 10
392.8229740291963
 20
286.264700516575
 30
0.0
 10
392.8209044409285
 20
286.2352938572588
 30
0.0
 10
392.8169805907397
 20
286.1758739401338
 30
0.0
 10
392.8151257391083
 20
286.1458590512138
 30
0.0
 10
392.8098802500254
 20
286.0549057293208
 30
0.0
 10
392.8068071438125
 20
285.9930428370148
 30
0.0
 10
392.8015205744817
 20
285.8669507003936
 30
0.0
 10
392.7993273156541
 20
285.8032100126454
 30
0.0
 10
392.7967044573944
 20
285.7065694134917
 30
0.0
 10
392.7959415486338
 20
285.6741839684099
 30
0.0
 10
392.7946396069672
 20
285.6090675235981
 30
0.0
 10
392.7941012876181
 20
285.5763532606003
 30
0.0
 10
392.7928303331009
 20
285.4782264586895
 30
0.0
 10
392.792437119973
 20
285.412656366805
 30
0.0
 10
392.7925265535782
 20
285.3140735238043
 30
0.0
 10
392.7926702668902
 20
285.2811325928872
 30
0.0
 10
392.7931836661602
 20
285.2154805052387
 30
0.0
 10
392.7935530545084
 20
285.1827499014721
 30
0.0
 10
392.7949967467939
 20
285.084842260062
 30
0.0
 10
392.7964072394388
 20
285.0198983556209
 30
0.0
 10
392.800121233961
 20
284.8909821246714
 30
0.0
 10
392.8024121487899
 20
284.8274209373991
 30
0.0
 10
392.8064914052033
 20
284.7334080285755
 30
0.0
 10
392.8079585006173
 20
284.7022922759464
 30
0.0
 10
392.8111083827072
 20
284.6405066147613
 30
0.0
 10
392.812789508017
 20
284.6098752840512
 30
0.0
 10
392.8181298944027
 20
284.5191125217695
 30
0.0
 10
392.8220923884237
 20
284.4599707380916
 30
0.0
 10
392.8286382927681
 20
284.3733041014116
 30
0.0
 10
392.8309234218578
 20
284.3447286820379
 30
0.0
 10
392.8356730220203
 20
284.2885370436882
 30
0.0
 10
392.8406056184636
 20
284.2332493343408
 30
0.0
 10
392.8459018804783
 20
284.1797579885932
 30
0.0
 10
392.8513801151948
 20
284.1271655157751
 30
0.0
 10
392.8542131872332
 20
284.1012932110816
 30
0.0
 10
392.8629664980594
 20
284.0252163581382
 30
0.0
 10
392.8691222084551
 20
283.9766935240001
 30
0.0
 10
392.882068275475
 20
283.8839989572998
 30
0.0
 10
392.8888759750888
 20
283.8397366599986
 30
0.0
 10
392.9030074363857
 20
283.7563758214738
 30
0.0
 10
392.9103384189787
 20
283.7172039627791
 30
0.0
 10
392.9217336720557
 20
283.6622175391505
 30
0.0
 10
392.9256014984745
 20
283.6445083565805
 30
0.0
 10
392.9334322294513
 20
283.6105276150658
 30
0.0
 10
392.9413666043672
 20
283.577940367917
 30
0.0
 10
392.9495074530349
 20
283.5481291635588
 30
0.0
 10
392.9577518680675
 20
283.5197104105786
 30
0.0
 10
392.9619309621243
 20
283.5061821975333
 30
0.0
 10
392.9745853180674
 20
283.4678263329611
 30
0.0
 10
392.9831650770446
 20
283.4452495398866
 30
0.0
 10
393.0006105413667
 20
283.4060606376058
 30
0.0
 10
393.0095005688964
 20
283.3894255733495
 30
0.0
 10
393.0362911185487
 20
283.3490887956701
 30
0.0
 10
393.054384871365
 20
283.3346328806703
 30
0.0
 10
393.0727106723823
 20
283.3328658422556
 30
0.0
  0
SPLINE
  5
1D3
330
1F
100
AcDbEntity
  8
1
100
AcDbSpline
210
0.0
220
0.0
230
1.0
 70
     8
 71
     3
 72
    18
 73
    14
 74
     0
 42
0.000000001
 43
0.0000000001
 40
0.0
 40
0.0
 40
0.0
 40
0.0
 40
0.2499999999999998
 40
0.2499999999999998
 40
0.4999999999999997
 40
0.4999999999999997
 40
0.7499999999999993
 40
0.7499999999999993
 40
0.8124999999999994
 40
0.8124999999999994
 40
0.8749999999999996
 40
0.8749999999999996
 40
1.0
 40
1.0
 40
1.0
 40
1.0
 10
383.8958419452957
 20
291.7067985874922
 30
0.0
 10
384.130979081122
 20
291.6789303378049
 30
0.0
 10
384.3630847744556
 20
291.6604818814805
 30
0.0
 10
384.8208443648268
 20
291.6412440763517
 30
0.0
 10
385.0465012692357
 20
291.6404576874522
 30
0.0
 10
385.4905923546753
 20
291.6557010794438
 30
0.0
 10
385.7090337171497
 20
291.6717320540787
 30
0.0
 10
385.9767597066842
 20
291.7019201826196
 30
0.0
 10
386.0300545143153
 20
291.7084682481295
 30
0.0
 10
386.1360066205303
 20
291.7225641694841
 30
0.0
 10
386.1885422818727
 20
291.7300954770647
 30
0.0
 10
386.3447894642785
 20
291.7541030254179
 30
0.0
 10
386.4471435152972
 20
291.7719925395868
 30
0.0
 10
386.547558464614
 20
291.791674149208
 30
0.0
  0
SPLINE
  5
1D4
330
1F
100
AcDbEntity
  8
1
100
AcDbSpline
210
0.0
220
0.0
230
1.0
 70
    24
 71
     3
 72
    12
 73
     8
 74
     0
 42
0.000000001
 43
0.0000000001
 40
0.0
 40
0.0
 40
0.0
 40
0.0
 40
0.3384954657621267
 40
0.3384954657621267
 40
0.6769909315242534
 40
0.6769909315242534
 40
1.0
 40
1.0
 40
1.0
 40
1.0
 10
383.8958419452957
 20
293.7051928301082
 30
0.0
 10
383.8958419452957
 20
293.4095531547244
 30
0.0
 10
383.8958419452957
 20
293.1345410673235
 30
0.0
 10
383.8958419452957
 20
292.6320109184687
 30
0.0
 10
383.8958419452957
 20
292.4044971921862
 30
0.0
 10
383.8958419452957
 20
292.0113379511495
 30
0.0
 10
383.8958419452957
 20
291.8433412990294
 30
0.0
 10
383.8958419452957
 20
291.7010488301115
 30
0.0
  0
SPLINE
  5
1D5
330
1F
100
AcDbEntity
  8
1
100
AcDbSpline
210
0.0
220
0.0
230
1.0
 70
     8
 71
     3
 72
    14
 73
    10
 74
     0
 42
0.000000001
 43
0.0000000001
 40
0.0
 40
0.0
 40
0.0
 40
0.0
 40
0.2500000000000001
 40
0.2500000000000001
 40
0.5000000000000001
 40
0.5000000000000001
 40
0.7500000000000002
 40
0.7500000000000002
 40
1.0
 40
1.0
 40
1.0
 40
1.0
 10
380.7357041537265
 20
295.2471618285736
 30
0.0
 10
380.99703599796
 20
295.0831785939744
 30
0.0
 10
381.259000875206
 20
294.9288427670887
 30
0.0
 10
381.7840325629836
 20
294.6381188908239
 30
0.0
 10
382.0470975309858
 20
294.5017352550965
 30
0.0
 10
382.5740823194069
 20
294.2459195788736
 30
0.0
 10
382.8379966267278
 20
294.1264894532911
 30
0.0
 10
383.3664497657279
 20
293.9038254577981
 30
0.0
 10
383.6309739871576
 20
293.8005890702327
 30
0.0
 10
383.8958419452957
 20
293.7051928301082
 30
0.0
  0
SPLINE
  5
1D6
330
1F
100
AcDbEntity
  8
1
100
AcDbSpline
210
0.0
220
0.0
230
1.0
 70
     8
 71
     3
 72
    10
 73
     6
 74
     0
 42
0.000000001
 43
0.0000000001
 40
0.0
 40
0.0
 40
0.0
 40
0.0
 40
0.5
 40
0.5
 40
1.0
 40
1.0
 40
1.0
 40
1.0
 10
379.8696240364621
 20
293.0009229334981
 30
0.0
 10
379.6233766042794
 20
293.1315077705771
 30
0.0
 10
379.377112464501
 20
293.2640265109396
 30
0.0
 10
378.8845571277774
 20
293.5321958571824
 30
0.0
 10
378.63826589991
 20
293.6678500423068
 30
0.0
 10
378.3919633243097
 20
293.8048177269106
 30
0.0
  0
SPLINE
  5
1D7
330
1F
100
AcDbEntity
  8
1
100
AcDbSpline
210
0.0
220
0.0
230
1.0
 70
     8
 71
     3
 72
    29
 73
    25
 74
     0
 42
0.000000001
 43
0.0000000001
 40
0.0
 40
0.0
 40
0.0
 40
0.0
 40
0.0171024357406071
 40
0.0826289400245672
 40
0.0826289400245672
 40
0.1481554443085271
 40
0.1481554443085271
 40
0.213681948592487
 40
0.213681948592487
 40
0.2792084528764471
 40
0.2792084528764471
 40
0.3119717050184272
 40
0.3119717050184272
 40
0.3447349571604073
 40
0.3447349571604073
 40
0.4757879657283259
 40
0.4757879657283259
 40
0.6068409742962446
 40
0.6068409742962446
 40
0.737893982864163
 40
0.737893982864163
 40
0.8689469914320817
 40
0.8689469914320817
 40
1.0
 40
1.0
 40
1.0
 40
1.0
 10
334.7566324135839
 20
276.4359277956689
 30
0.0
 10
334.604727145797
 20
276.4068105214108
 30
0.0
 10
333.870810029365
 20
276.2669652744525
 30
0.0
 10
333.1368406316672
 20
276.1312595211903
 30
0.0
 10
331.9723631670244
 20
275.9218202284434
 30
0.0
 10
331.3899389067242
 20
275.8199995299167
 30
0.0
 10
330.2243638401468
 20
275.6227391529199
 30
0.0
 10
329.6411928672421
 20
275.5273276726725
 30
0.0
 10
328.4741883681797
 20
275.3426887589904
 30
0.0
 10
327.8903570368923
 20
275.2534580409886
 30
0.0
 10
327.0141762902618
 20
275.1241251567857
 30
0.0
 10
326.7220479748557
 20
275.0817682267264
 30
0.0
 10
326.1379861253959
 20
274.9985970143606
 30
0.0
 10
325.8460108997609
 20
274.9577765293089
 30
0.0
 10
324.3864216897244
 20
274.7574810652167
 30
0.0
 10
323.219694969484
 20
274.6093806358365
 30
0.0
 10
320.8879361509728
 20
274.3378051384752
 30
0.0
 10
319.7229036073704
 20
274.2143576594957
 30
0.0
 10
317.3936494205435
 20
273.9932286600051
 30
0.0
 10
316.229422485913
 20
273.8955749989002
 30
0.0
 10
313.9002862407261
 20
273.7270603387821
 30
0.0
 10
312.735368537466
 20
273.65622035828
 30
0.0
 10
310.4029609538495
 20
273.5414864688229
 30
0.0
 10
309.2354619214486
 20
273.4976022514663
 30
0.0
 10
308.0656698292102
 20
273.466593824354
 30
0.0
  0
LINE
  5
1F1
330
1F
100
AcDbEntity
  8
SK4
100
AcDbLine
 10
210.904842
 20
288.907994
 30
0.0
 11
277.404842
 21
288.907994
 31
0.0
  0
LINE
  5
1F2
330
1F
100
AcDbEntity
  8
4
100
AcDbLine
 10
267.703832
 20
288.907994
 30
0.0
 11
399.522645
 21
288.907994
 31
0.0
  0
MTEXT
  5
1F3
330
1F
100
AcDbEntity
  8
SK6
100
AcDbMText
 10
258.520787
 20
241.27662
 30
0.0
 40
3.5
 41
0.0
 71
     7
 72
     5
  1
\W0.7022;803D-32-96-S32
  7
cesky
 73
     2
 44
0.8433729999999998
  0
MTEXT
  5
309
330
1F
100
AcDbEntity
  8
2
100
AcDbMText
 10
331.827842
 20
327.385163
 30
0.0
 40
3.5
 41
0.0
 71
     7
 72
     5
  1
\W0.9524;121
  7
cesky
 73
     2
 44
0.8433729999999998
  0
LINE
  5
30A
330
1F
100
AcDbEntity
  8
2
100
AcDbLine
 10
395.404842
 20
304.907994
 30
0.0
 11
395.404842
 21
328.5109970000001
 31
0.0
  0
LINE
  5
30B
330
1F
100
AcDbEntity
  8
2
100
AcDbLine
 10
274.404842
 20
289.907567
 30
0.0
 11
274.404842
 21
328.5109970000001
 31
0.0
  0
LINE
  5
30C
330
1F
100
AcDbEntity
  8
2
100
AcDbLine
 10
395.404842
 20
327.510997
 30
0.0
 11
274.404842
 21
327.510997
 31
0.0
  0
SOLID
  5
30D
330
1F
100
AcDbEntity
  8
2
100
AcDbTrace
 10
395.404842
 20
327.510997
 30
0.0
 11
391.904844
 21
326.893852
 31
0.0
 12
391.90484
 22
328.128141
 32
0.0
 13
391.90484
 23
328.128141
 33
0.0
  0
SOLID
  5
30E
330
1F
100
AcDbEntity
  8
2
100
AcDbTrace
 10
274.404842
 20
327.510997
 30
0.0
 11
277.90484
 21
328.128141
 31
0.0
 12
277.904844
 22
326.893852
 32
0.0
 13
277.904844
 23
326.893852
 33
0.0
  0
MTEXT
  5
30F
330
1F
100
AcDbEntity
  8
2
100
AcDbMText
 10
301.827842
 20
340.562135
 30
0.0
 40
3.5
 41
0.0
 71
     7
 72
     5
  1
\W0.9524;181
  7
cesky
 73
     2
 44
0.8433729999999998
  0
LINE
  5
310
330
1F
100
AcDbEntity
  8
2
100
AcDbLine
 10
395.404842
 20
306.907994
 30
0.0
 11
395.404842
 21
341.687968
 31
0.0
  0
LINE
  5
311
330
1F
100
AcDbEntity
  8
2
100
AcDbLine
 10
214.404842
 20
302.907994
 30
0.0
 11
214.404842
 21
341.687968
 31
0.0
  0
LINE
  5
312
330
1F
100
AcDbEntity
  8
2
100
AcDbLine
 10
395.404842
 20
340.687968
 30
0.0
 11
214.404842
 21
340.687968
 31
0.0
  0
SOLID
  5
313
330
1F
100
AcDbEntity
  8
2
100
AcDbTrace
 10
395.404842
 20
340.687968
 30
0.0
 11
391.904844
 21
340.070823
 31
0.0
 12
391.90484
 22
341.305112
 32
0.0
 13
391.90484
 23
341.305112
 33
0.0
  0
SOLID
  5
314
330
1F
100
AcDbEntity
  8
2
100
AcDbTrace
 10
214.404842
 20
340.687968
 30
0.0
 11
217.90484
 21
341.305112
 31
0.0
 12
217.904844
 22
340.070823
 32
0.0
 13
217.904844
 23
340.070823
 33
0.0
  0
MTEXT
  5
315
330
1F
100
AcDbEntity
  8
2
100
AcDbMText
 10
242.590342
 20
327.385163
 30
0.0
 40
3.5
 41
0.0
 71
     7
 72
     5
  1
\W0.7045;60
  7
cesky
 73
     2
 44
0.8433729999999998
  0
LINE
  5
316
330
1F
100
AcDbEntity
  8
2
100
AcDbLine
 10
274.404842
 20
288.907994
 30
0.0
 11
274.404842
 21
328.5109970000001
 31
0.0
  0
LINE
  5
317
330
1F
100
AcDbEntity
  8
2
100
AcDbLine
 10
214.404842
 20
302.907994
 30
0.0
 11
214.404842
 21
328.5109970000001
 31
0.0
  0
LINE
  5
318
330
1F
100
AcDbEntity
  8
2
100
AcDbLine
 10
274.404842
 20
327.510997
 30
0.0
 11
214.404842
 21
327.510997
 31
0.0
  0
SOLID
  5
319
330
1F
100
AcDbEntity
  8
2
100
AcDbTrace
 10
274.404842
 20
327.510997
 30
0.0
 11
270.904844
 21
326.893852
 31
0.0
 12
270.90484
 22
328.128141
 32
0.0
 13
270.90484
 23
328.128141
 33
0.0
  0
SOLID
  5
31A
330
1F
100
AcDbEntity
  8
2
100
AcDbTrace
 10
214.404842
 20
327.510997
 30
0.0
 11
217.90484
 21
328.128141
 31
0.0
 12
217.904844
 22
326.893852
 32
0.0
 13
217.904844
 23
326.893852
 33
0.0
  0
MTEXT
  5
31B
330
1F
100
AcDbEntity
  8
2
100
AcDbMText
 10
341.329685
 20
316.149515
 30
0.0
 40
3.5
 41
0.0
 71
     7
 72
     5
  1
\W0.7809;102
  7
cesky
 73
     2
 44
0.8433729999999998
  0
LINE
  5
31C
330
1F
100
AcDbEntity
  8
2
100
AcDbLine
 10
395.404842
 20
306.907994
 30
0.0
 11
395.404842
 21
317.275348
 31
0.0
  0
LINE
  5
31D
330
1F
100
AcDbEntity
  8
2
100
AcDbLine
 10
293.408528
 20
305.125533
 30
0.0
 11
293.408528
 21
317.275348
 31
0.0
  0
LINE
  5
31E
330
1F
100
AcDbEntity
  8
2
100
AcDbLine
 10
395.404842
 20
316.275348
 30
0.0
 11
293.408528
 21
316.275348
 31
0.0
  0
SOLID
  5
31F
330
1F
100
AcDbEntity
  8
2
100
AcDbTrace
 10
395.404842
 20
316.275348
 30
0.0
 11
391.904844
 21
315.658204
 31
0.0
 12
391.90484
 22
316.892492
 32
0.0
 13
391.90484
 23
316.892492
 33
0.0
  0
SOLID
  5
320
330
1F
100
AcDbEntity
  8
2
100
AcDbTrace
 10
293.408528
 20
316.275348
 30
0.0
 11
296.908526
 21
316.892492
 31
0.0
 12
296.90853
 22
315.658204
 32
0.0
 13
296.90853
 23
315.658204
 33
0.0
  0
MTEXT
  5
321
330
1F
100
AcDbEntity
  8
2
100
AcDbMText
 10
410.617668
 20
288.618784
 30
0.0
 40
3.5
 41
0.0
 71
     7
 72
     5
  1
\W0.7045;32
  7
cesky
 11
0.0000000000000001
 21
1.0
 31
0.0
 73
     2
 44
0.8433729999999998
  0
MTEXT
  5
322
330
1F
100
AcDbEntity
  8
2
100
AcDbMText
 10
410.617668
 20
281.881284
 30
0.0
 40
3.5
 41
0.0
 71
     7
 72
     5
  1
\W3.0115;\H2.63;%%c\H3.50;
  7
cesky
 11
0.0000000000000001
 21
1.0
 31
0.0
 73
     2
 44
0.8433729999999998
  0
LINE
  5
323
330
1F
100
AcDbEntity
  8
2
100
AcDbLine
 10
397.404842
 20
304.907994
 30
0.0
 11
411.805085
 21
304.907994
 31
0.0
  0
LINE
  5
324
330
1F
100
AcDbEntity
  8
2
100
AcDbLine
 10
410.805085
 20
304.907994
 30
0.0
 11
410.805085
 21
281.723784
 31
0.0
  0
SOLID
  5
325
330
1F
100
AcDbEntity
  8
2
100
AcDbTrace
 10
410.805085
 20
304.907994
 30
0.0
 11
411.4222289999999
 21
301.407996
 31
0.0
 12
410.187941
 22
301.407991
 32
0.0
 13
410.187941
 23
301.407991
 33
0.0
  0
MTEXT
  5
326
330
1F
100
AcDbEntity
  8
SK2
100
AcDbMText
 10
205.691127
 20
290.434244
 30
0.0
 40
3.5
 41
0.0
 71
     7
 72
     5
  1
\W0.7045;32
  7
cesky
 11
0.0000000000000001
 21
1.0
 31
0.0
 73
     2
 44
0.8433729999999998
  0
MTEXT
  5
327
330
1F
100
AcDbEntity
  8
SK2
100
AcDbMText
 10
205.691127
 20
283.696744
 30
0.0
 40
3.5
 41
0.0
 71
     7
 72
     5
  1
\W3.0115;\H2.63;%%c\H3.50;
  7
cesky
 11
0.0000000000000001
 21
1.0
 31
0.0
 73
     2
 44
0.8433729999999998
  0
LINE
  5
328
330
1F
100
AcDbEntity
  8
SK2
100
AcDbLine
 10
216.404842
 20
304.907994
 30
0.0
 11
204.878544
 21
304.907994
 31
0.0
  0
LINE
  5
329
330
1F
100
AcDbEntity
  8
SK2
100
AcDbLine
 10
216.404842
 20
272.907994
 30
0.0
 11
204.878544
 21
272.907994
 31
0.0
  0
LINE
  5
32A
330
1F
100
AcDbEntity
  8
SK2
100
AcDbLine
 10
205.878544
 20
304.907994
 30
0.0
 11
205.878544
 21
272.907994
 31
0.0
  0
SOLID
  5
32B
330
1F
100
AcDbEntity
  8
SK2
100
AcDbTrace
 10
205.878544
 20
304.907994
 30
0.0
 11
206.495689
 21
301.407996
 31
0.0
 12
205.2614
 22
301.407991
 32
0.0
 13
205.2614
 23
301.407991
 33
0.0
  0
SOLID
  5
32C
330
1F
100
AcDbEntity
  8
SK2
100
AcDbTrace
 10
205.878544
 20
272.907994
 30
0.0
 11
205.2614
 21
276.407991
 31
0.0
 12
206.495689
 22
276.407996
 32
0.0
 13
206.495689
 23
276.407996
 33
0.0
  0
MTEXT
  5
32D
330
1F
100
AcDbEntity
  8
SK2
100
AcDbMText
 10
193.332501
 20
290.434244
 30
0.0
 40
3.5
 41
0.0
 71
     7
 72
     5
  1
\W0.7045;42
  7
cesky
 11
0.0000000000000001
 21
1.0
 31
0.0
 73
     2
 44
0.8433729999999998
  0
MTEXT
  5
32E
330
1F
100
AcDbEntity
  8
SK2
100
AcDbMText
 10
193.332501
 20
283.696744
 30
0.0
 40
3.5
 41
0.0
 71
     7
 72
     5
  1
\W3.0115;\H2.63;%%c\H3.50;
  7
cesky
 11
0.0000000000000001
 21
1.0
 31
0.0
 73
     2
 44
0.8433729999999998
  0
LINE
  5
32F
330
1F
100
AcDbEntity
  8
SK2
100
AcDbLine
 10
274.904842
 20
309.907994
 30
0.0
 11
192.519918
 21
309.907994
 31
0.0
  0
LINE
  5
330
330
1F
100
AcDbEntity
  8
SK2
100
AcDbLine
 10
274.904842
 20
267.907994
 30
0.0
 11
192.519918
 21
267.907994
 31
0.0
  0
LINE
  5
331
330
1F
100
AcDbEntity
  8
SK2
100
AcDbLine
 10
193.519918
 20
309.907994
 30
0.0
 11
193.519918
 21
267.907994
 31
0.0
  0
SOLID
  5
332
330
1F
100
AcDbEntity
  8
SK2
100
AcDbTrace
 10
193.519918
 20
309.907994
 30
0.0
 11
194.137062
 21
306.407996
 31
0.0
 12
192.902773
 22
306.407991
 32
0.0
 13
192.902773
 23
306.407991
 33
0.0
  0
SOLID
  5
333
330
1F
100
AcDbEntity
  8
SK2
100
AcDbTrace
 10
193.519918
 20
267.907994
 30
0.0
 11
192.902773
 21
271.4079910000001
 31
0.0
 12
194.137062
 22
271.407996
 32
0.0
 13
194.137062
 23
271.407996
 33
0.0
  0
LINE
  5
334
330
1F
100
AcDbEntity
  8
CUT
100
AcDbLine
 10
386.0557887655626
 20
304.6107448953678
 30
0.0
 11
394.0284650116673
 21
304.905040926027
 31
0.0
  0
LINE
  5
337
330
1F
100
AcDbEntity
  8
CUT
100
AcDbLine
 10
394.8286060818004
 20
304.1627035294018
 30
0.0
 11
395.0928096814857
 21
296.8466642059476
 31
0.0
  0
LINE
  5
339
330
1F
100
AcDbEntity
  8
CUT
100
AcDbLine
 10
395.0928096814857
 20
296.8466642059476
 30
0.0
 11
395.2334058386329
 21
296.6126920349482
 31
0.0
  0
LINE
  5
33A
330
1F
100
AcDbEntity
  8
CUT
100
AcDbLine
 10
395.2754235247553
 20
296.4661715315234
 30
0.0
 11
395.3998607906599
 21
289.3480174300097
 31
0.0
  0
LINE
  5
33B
330
1F
100
AcDbEntity
  8
CUT
100
AcDbLine
 10
395.399861
 20
288.907994
 30
0.0
 11
385.31121
 21
288.907994
 31
0.0
  0
LINE
  5
33C
330
1F
100
AcDbEntity
  8
CUT
100
AcDbLine
 10
385.31121
 20
288.907994
 30
0.0
 11
385.31121
 21
303.810957
 31
0.0
  0
LINE
  5
33D
330
1F
100
AcDbEntity
  8
CUT
100
AcDbLine
 10
395.399861
 20
289.348017
 30
0.0
 11
395.399861
 21
288.907994
 31
0.0
  0
ARC
  5
33E
330
1F
100
AcDbEntity
  8
CUT
100
AcDbCircle
 10
394.0490732917884
 20
304.1242513126538
 30
0.0
 40
0.7810615350668737
100
AcDbArc
 50
6.975663356595753
 51
91.51192251267325
  0
ARC
  5
33F
330
1F
100
AcDbEntity
  8
CUT
100
AcDbCircle
 10
394.1067617864094
 20
304.1366423297433
 30
0.0
 40
0.722314594145916
100
AcDbArc
 50
2.067687568938642
 51
6.555793130771276
  0
ARC
  5
340
330
1F
100
AcDbEntity
  8
CUT
100
AcDbCircle
 10
386.0934745038798
 20
303.829525418249
 30
0.0
 40
0.7824851693705033
100
AcDbArc
 50
95.52665292583007
 51
181.3597525587088
  0
ARC
  5
341
330
1F
100
AcDbEntity
  8
CUT
100
AcDbCircle
 10
386.0824802340973
 20
303.8863314731765
 30
0.0
 40
0.7249049873904684
100
AcDbArc
 50
92.11014449638041
 51
95.09412825224067
  0
LINE
  5
342
330
1F
100
AcDbEntity
  8
CUT
100
AcDbLine
 10
395.2334058386329
 20
296.6126920349482
 30
0.0
 11
395.2334058386329
 21
296.6126920349482
 31
0.0
  0
ARC
  5
343
330
1F
100
AcDbEntity
  8
CUT
100
AcDbCircle
 10
394.9810600596439
 20
296.4610418757418
 30
0.0
 40
0.2944081570896074
100
AcDbArc
 50
0.9983503936927714
 51
31.0042568564549
  0
ENDSEC
  0
SECTION
  2
OBJECTS
  0
DICTIONARY
  5
C
330
0
100
AcDbDictionary
281
     1
  3
ACAD_CIP_PREVIOUS_PRODUCT_INFO
350
306
  3
ACAD_COLOR
350
301
  3
ACAD_DETAILVIEWSTYLE
350
2FD
  3
ACAD_GROUP
350
D
  3
ACAD_LAYOUT
350
1A
  3
ACAD_MATERIAL
350
43
  3
ACAD_MLEADERSTYLE
350
6B
  3
ACAD_MLINESTYLE
350
17
  3
ACAD_PLOTSETTINGS
350
19
  3
ACAD_PLOTSTYLENAME
350
E
  3
ACAD_SCALELIST
350
47
  3
ACAD_SECTIONVIEWSTYLE
350
2FE
  3
ACAD_TABLESTYLE
350
69
  3
ACAD_VISUALSTYLE
350
2A
  3
ACDB_RECOMPOSE_DATA
350
36F
  3
AcDbVariableDictionary
350
2BA
  0
DICTIONARY
  5
352
330
10
100
AcDbDictionary
280
     1
281
     1
  3
ADSK_XREC_LAYER_RECONCILED
360
353
  0
DICTIONARY
  5
354
330
344
100
AcDbDictionary
280
     1
281
     1
  3
ADSK_XREC_LAYER_RECONCILED
360
355
  0
DICTIONARY
  5
356
330
345
100
AcDbDictionary
280
     1
281
     1
  3
ADSK_XREC_LAYER_RECONCILED
360
357
  0
DICTIONARY
  5
358
330
346
100
AcDbDictionary
280
     1
281
     1
  3
ADSK_XREC_LAYER_RECONCILED
360
359
  0
DICTIONARY
  5
35A
330
348
100
AcDbDictionary
280
     1
281
     1
  3
ADSK_XREC_LAYER_RECONCILED
360
35B
  0
DICTIONARY
  5
35C
330
349
100
AcDbDictionary
280
     1
281
     1
  3
ADSK_XREC_LAYER_RECONCILED
360
35D
  0
DICTIONARY
  5
35E
330
34B
100
AcDbDictionary
280
     1
281
     1
  3
ADSK_XREC_LAYER_RECONCILED
360
35F
  0
DICTIONARY
  5
360
330
34C
100
AcDbDictionary
280
     1
281
     1
  3
ADSK_XREC_LAYER_RECONCILED
360
361
  0
DICTIONARY
  5
362
330
34D
100
AcDbDictionary
280
     1
281
     1
  3
ADSK_XREC_LAYER_RECONCILED
360
363
  0
DICTIONARY
  5
364
330
34E
100
AcDbDictionary
280
     1
281
     1
  3
ADSK_XREC_LAYER_RECONCILED
360
365
  0
DICTIONARY
  5
366
330
34F
100
AcDbDictionary
280
     1
281
     1
  3
ADSK_XREC_LAYER_RECONCILED
360
367
  0
DICTIONARY
  5
368
330
350
100
AcDbDictionary
280
     1
281
     1
  3
ADSK_XREC_LAYER_RECONCILED
360
369
  0
DICTIONARY
  5
307
330
1F
100
AcDbDictionary
280
     1
281
     1
  3
ACAD_SORTENTS
360
308
  0
XRECORD
  5
306
102
{ACAD_REACTORS
330
C
102
}
330
C
100
AcDbXrecord
280
     1
300
ACD
300
2019
300
87084ACD_2019_0F
  0
DICTIONARY
  5
301
102
{ACAD_REACTORS
330
C
102
}
330
C
100
AcDbDictionary
281
     1
  0
DICTIONARY
  5
2FD
102
{ACAD_REACTORS
330
C
102
}
330
C
100
AcDbDictionary
281
     1
  3
Metric50
350
303
  0
DICTIONARY
  5
D
102
{ACAD_REACTORS
330
C
102
}
330
C
100
AcDbDictionary
281
     1
  3
NULOVY_BOD
350
351
  0
DICTIONARY
  5
1A
102
{ACAD_REACTORS
330
C
102
}
330
C
100
AcDbDictionary
281
     1
  3
Layout1
350
1E
  3
Layout2
350
26
  3
Model
350
22
  0
DICTIONARY
  5
43
102
{ACAD_REACTORS
330
C
102
}
330
C
100
AcDbDictionary
281
     1
  3
ByBlock
350
45
  3
ByLayer
350
44
  3
Global
350
46
  0
DICTIONARY
  5
6B
102
{ACAD_REACTORS
330
C
102
}
330
C
100
AcDbDictionary
281
     1
  3
Standard
350
6C
  0
DICTIONARY
  5
17
102
{ACAD_REACTORS
330
C
102
}
330
C
100
AcDbDictionary
281
     1
  3
Standard
350
18
  0
DICTIONARY
  5
19
102
{ACAD_REACTORS
330
C
102
}
330
C
100
AcDbDictionary
281
     1
  0
ACDBDICTIONARYWDFLT
  5
E
102
{ACAD_REACTORS
330
C
102
}
330
C
100
AcDbDictionary
281
     1
  3
Normal
350
F
100
AcDbDictionaryWithDefault
340
F
  0
DICTIONARY
  5
47
102
{ACAD_REACTORS
330
C
102
}
330
C
100
AcDbDictionary
281
     1
  3
A0
350
48
  3
A1
350
49
  3
A2
350
4A
  3
A3
350
4B
  3
A4
350
4C
  3
A5
350
4D
  3
A6
350
4E
  3
A7
350
4F
  3
A8
350
50
  3
A9
350
51
  3
B0
350
52
  3
B1
350
53
  3
B2
350
54
  3
B3
350
55
  3
B4
350
56
  3
B5
350
57
  3
B6
350
58
  3
B7
350
59
  3
B8
350
5A
  3
B9
350
5B
  3
C0
350
5C
  3
C1
350
5D
  3
C2
350
5E
  3
C3
350
5F
  3
C4
350
60
  3
C5
350
61
  3
C6
350
62
  3
C7
350
63
  3
C8
350
64
  3
C9
350
65
  3
D0
350
66
  3
D1
350
67
  3
D2
350
68
  0
DICTIONARY
  5
2FE
102
{ACAD_REACTORS
330
C
102
}
330
C
100
AcDbDictionary
281
     1
  3
Metric50
350
302
  0
DICTIONARY
  5
69
102
{ACAD_REACTORS
330
C
102
}
330
C
100
AcDbDictionary
281
     1
  3
Standard
350
6A
  0
DICTIONARY
  5
2A
102
{ACAD_REACTORS
330
C
102
}
330
C
100
AcDbDictionary
281
     1
  3
2dWireframe
350
2F
  3
Basic
350
32
  3
Brighten
350
36
  3
ColorChange
350
3A
  3
Conceptual
350
34
  3
Dim
350
35
  3
EdgeColorOff
350
3D
  3
Facepattern
350
39
  3
Flat
350
2B
  3
FlatWithEdges
350
2C
  3
Gouraud
350
2D
  3
GouraudWithEdges
350
2E
  3
Hidden
350
31
  3
JitterOff
350
3B
  3
Linepattern
350
38
  3
OverhangOff
350
3C
  3
Realistic
350
33
  3
Shaded
350
42
  3
Shaded with edges
350
41
  3
Shades of Gray
350
3E
  3
Sketchy
350
3F
  3
Thicken
350
37
  3
Wireframe
350
30
  3
X-Ray
350
40
  0
XRECORD
  5
36F
102
{ACAD_REACTORS
330
C
102
}
330
C
100
AcDbXrecord
280
     1
 90
        1
330
6A
  0
DICTIONARY
  5
2BA
102
{ACAD_REACTORS
330
C
102
}
330
C
100
AcDbDictionary
281
     1
  3
CANNOSCALE
350
2BB
  3
CMLEADERSTYLE
350
2FC
  3
CTABLESTYLE
350
2FB
  3
CVIEWDETAILSTYLE
350
36A
  3
CVIEWSECTIONSTYLE
350
36B
  3
MSLTSCALE
350
2BC
  3
XCLIPFRAME
350
36C
  0
XRECORD
  5
353
102
{ACAD_REACTORS
330
352
102
}
330
352
100
AcDbXrecord
280
     1
290
     1
  0
XRECORD
  5
355
102
{ACAD_REACTORS
330
354
102
}
330
354
100
AcDbXrecord
280
     1
290
     1
  0
XRECORD
  5
357
102
{ACAD_REACTORS
330
356
102
}
330
356
100
AcDbXrecord
280
     1
290
     1
  0
XRECORD
  5
359
102
{ACAD_REACTORS
330
358
102
}
330
358
100
AcDbXrecord
280
     1
290
     1
  0
XRECORD
  5
35B
102
{ACAD_REACTORS
330
35A
102
}
330
35A
100
AcDbXrecord
280
     1
290
     1
  0
XRECORD
  5
35D
102
{ACAD_REACTORS
330
35C
102
}
330
35C
100
AcDbXrecord
280
     1
290
     1
  0
XRECORD
  5
35F
102
{ACAD_REACTORS
330
35E
102
}
330
35E
100
AcDbXrecord
280
     1
290
     1
  0
XRECORD
  5
361
102
{ACAD_REACTORS
330
360
102
}
330
360
100
AcDbXrecord
280
     1
290
     1
  0
XRECORD
  5
363
102
{ACAD_REACTORS
330
362
102
}
330
362
100
AcDbXrecord
280
     1
290
     1
  0
XRECORD
  5
365
102
{ACAD_REACTORS
330
364
102
}
330
364
100
AcDbXrecord
280
     1
290
     1
  0
XRECORD
  5
367
102
{ACAD_REACTORS
330
366
102
}
330
366
100
AcDbXrecord
280
     1
290
     1
  0
XRECORD
  5
369
102
{ACAD_REACTORS
330
368
102
}
330
368
100
AcDbXrecord
280
     1
290
     1
  0
SORTENTSTABLE
  5
308
102
{ACAD_REACTORS
330
307
102
}
330
307
100
AcDbSortentsTable
330
1F
331
309
  5
274
331
30A
  5
28D
331
30B
  5
309
331
30C
  5
30A
331
30D
  5
30B
331
30E
  5
30C
331
30F
  5
30D
331
310
  5
30E
331
311
  5
30F
331
312
  5
310
331
313
  5
311
331
314
  5
312
331
315
  5
313
331
316
  5
314
331
317
  5
315
331
318
  5
316
331
319
  5
317
331
31A
  5
318
331
31B
  5
319
331
31C
  5
31A
331
31D
  5
31B
331
31E
  5
31C
331
31F
  5
31D
331
320
  5
31E
331
321
  5
31F
331
322
  5
320
331
323
  5
321
331
324
  5
322
331
325
  5
323
331
337
  5
33C
331
339
  5
33F
331
33A
  5
340
331
33B
  5
341
331
33C
  5
342
331
33D
  5
343
331
33E
  5
337
331
33F
  5
339
331
340
  5
33A
331
341
  5
33B
331
342
  5
33D
331
343
  5
33E
  0
ACDBDETAILVIEWSTYLE
  5
303
102
{ACAD_XDICTIONARY
360
3A3
102
}
102
{ACAD_REACTORS
330
2FD
102
}
330
2FD
100
AcDbModelDocViewStyle
 70
     0
  3
Metric50
290
     0
100
AcDbDetailViewStyle
 70
     0
 71
     0
 90
        3
 71
     1
340
11
 62
   256
 40
5.0
340
0
 62
   256
 40
5.0
300

 40
0.0
280
     1
 71
     2
340
16
 90
       25
 62
   256
 71
     3
340
11
 62
   256
 40
5.0
 90
        0
 40
15.0
 90
        1
300
%<\AcVar ViewDetailId>% (%<\AcVar ViewScale \f "%sn">%)
 71
     4
340
16
 90
       25
 62
   256
340
16
 90
       25
 62
   256
280
     0
  0
GROUP
  5
351
102
{ACAD_REACTORS
330
D
102
}
330
D
100
AcDbGroup
300

 70
     0
 71
     1
340
73
  0
LAYOUT
  5
1E
102
{ACAD_REACTORS
330
1A
102
}
330
1A
100
AcDbPlotSettings
  1

  2
none_device
  4

  6

 40
0.0
 41
0.0
 42
0.0
 43
0.0
 44
0.0
 45
0.0
 46
0.0
 47
0.0
 48
0.0
 49
0.0
140
0.0
141
0.0
142
1.0
143
1.0
 70
   688
 72
     0
 73
     0
 74
     5
  7

 75
    16
147
1.0
 76
     0
 77
     2
 78
   300
148
0.0
149
0.0
100
AcDbLayout
  1
Layout1
 70
     1
 71
     1
 10
-0.5
 20
-0.5
 11
5.0
 21
5.0
 12
0.0
 22
0.0
 32
0.0
 14
-0.5
 24
-0.5
 34
-0.5
 15
5.0
 25
5.0
 35
5.0
146
0.0
 13
0.0
 23
0.0
 33
0.0
 16
1.0
 26
0.0
 36
0.0
 17
0.0
 27
1.0
 37
0.0
 76
     0
330
1B
  0
LAYOUT
  5
26
102
{ACAD_REACTORS
330
1A
102
}
330
1A
100
AcDbPlotSettings
  1

  2
none_device
  4

  6

 40
0.0
 41
0.0
 42
0.0
 43
0.0
 44
0.0
 45
0.0
 46
0.0
 47
0.0
 48
0.0
 49
0.0
140
0.0
141
0.0
142
1.0
143
1.0
 70
   688
 72
     0
 73
     0
 74
     5
  7

 75
    16
147
1.0
 76
     0
 77
     2
 78
   300
148
0.0
149
0.0
100
AcDbLayout
  1
Layout2
 70
     1
 71
     2
 10
0.0
 20
0.0
 11
0.0
 21
0.0
 12
0.0
 22
0.0
 32
0.0
 14
0.0
 24
0.0
 34
0.0
 15
0.0
 25
0.0
 35
0.0
146
0.0
 13
0.0
 23
0.0
 33
0.0
 16
1.0
 26
0.0
 36
0.0
 17
0.0
 27
1.0
 37
0.0
 76
     0
330
23
  0
LAYOUT
  5
22
102
{ACAD_REACTORS
330
1A
102
}
330
1A
100
AcDbPlotSettings
  1

  2
none_device
  4
Letter_(8.50_x_11.00_Inches)
  6

 40
6.349999999999999
 41
6.349999999999999
 42
6.350005
 43
6.350005
 44
215.9
 45
279.4
 46
0.0
 47
0.0
 48
0.0
 49
0.0
140
0.0
141
0.0
142
1.0
143
1.0
 70
  1712
 72
     0
 73
     0
 74
     0
  7

 75
     0
147
1.0
 76
     0
 77
     2
 78
   300
148
0.0
149
0.0
100
AcDbLayout
  1
Model
 70
     1
 71
     0
 10
-0.5
 20
-0.5
 11
5.0
 21
5.0
 12
0.0
 22
0.0
 32
0.0
 14
-0.5
 24
-0.5
 34
-0.5
 15
5.0
 25
5.0
 35
5.0
146
0.0
 13
0.0
 23
0.0
 33
0.0
 16
1.0
 26
0.0
 36
0.0
 17
0.0
 27
1.0
 37
0.0
 76
     0
330
1F
331
29
  0
MATERIAL
  5
45
102
{ACAD_XDICTIONARY
360
2F0
102
}
102
{ACAD_REACTORS
330
43
102
}
330
43
100
AcDbMaterial
  1
ByBlock
  0
MATERIAL
  5
44
102
{ACAD_XDICTIONARY
360
2EE
102
}
102
{ACAD_REACTORS
330
43
102
}
330
43
100
AcDbMaterial
  1
ByLayer
  0
MATERIAL
  5
46
102
{ACAD_XDICTIONARY
360
2F2
102
}
102
{ACAD_REACTORS
330
43
102
}
330
43
100
AcDbMaterial
  1
Global
  0
MLEADERSTYLE
  5
6C
102
{ACAD_REACTORS
330
6B
102
}
330
6B
100
AcDbMLeaderStyle
170
     2
171
     1
172
     0
 90
        2
 40
0.0
 41
0.0
173
     1
 91
-1056964608
340
14
 92
       -2
290
     1
 42
0.09
291
     1
 43
0.36
  3
Standard
 44
0.18
300

342
11
174
     1
178
     6
175
     1
176
     0
 93
-1056964608
 45
0.18
292
     0
297
     0
 46
0.18
 94
-1056964608
 47
1.0
 49
1.0
140
1.0
293
     1
141
0.0
294
     1
177
     0
142
1.0
295
     0
296
     0
143
0.125
1001
ACAD_MLEADERVER
1070
     2
  0
MLINESTYLE
  5
18
102
{ACAD_REACTORS
330
17
102
}
330
17
100
AcDbMlineStyle
  2
STANDARD
 70
     0
  3

 62
   256
 51
90.0
 52
90.0
 71
     2
 49
0.5
 62
   256
  6
BYLAYER
 49
-0.5
 62
   256
  6
BYLAYER
  0
ACDBPLACEHOLDER
  5
F
102
{ACAD_REACTORS
330
E
102
}
330
E
  0
SCALE
  5
48
102
{ACAD_REACTORS
330
47
102
}
330
47
100
AcDbScale
 70
     0
300
1:1
140
1.0
141
1.0
290
     1
  0
SCALE
  5
49
102
{ACAD_REACTORS
330
47
102
}
330
47
100
AcDbScale
 70
     0
300
1:2
140
1.0
141
2.0
290
     0
  0
SCALE
  5
4A
102
{ACAD_REACTORS
330
47
102
}
330
47
100
AcDbScale
 70
     0
300
1:4
140
1.0
141
4.0
290
     0
  0
SCALE
  5
4B
102
{ACAD_REACTORS
330
47
102
}
330
47
100
AcDbScale
 70
     0
300
1:5
140
1.0
141
5.0
290
     0
  0
SCALE
  5
4C
102
{ACAD_REACTORS
330
47
102
}
330
47
100
AcDbScale
 70
     0
300
1:8
140
1.0
141
8.0
290
     0
  0
SCALE
  5
4D
102
{ACAD_REACTORS
330
47
102
}
330
47
100
AcDbScale
 70
     0
300
1:10
140
1.0
141
10.0
290
     0
  0
SCALE
  5
4E
102
{ACAD_REACTORS
330
47
102
}
330
47
100
AcDbScale
 70
     0
300
1:16
140
1.0
141
16.0
290
     0
  0
SCALE
  5
4F
102
{ACAD_REACTORS
330
47
102
}
330
47
100
AcDbScale
 70
     0
300
1:20
140
1.0
141
20.0
290
     0
  0
SCALE
  5
50
102
{ACAD_REACTORS
330
47
102
}
330
47
100
AcDbScale
 70
     0
300
1:30
140
1.0
141
30.0
290
     0
  0
SCALE
  5
51
102
{ACAD_REACTORS
330
47
102
}
330
47
100
AcDbScale
 70
     0
300
1:40
140
1.0
141
40.0
290
     0
  0
SCALE
  5
52
102
{ACAD_REACTORS
330
47
102
}
330
47
100
AcDbScale
 70
     0
300
1:50
140
1.0
141
50.0
290
     0
  0
SCALE
  5
53
102
{ACAD_REACTORS
330
47
102
}
330
47
100
AcDbScale
 70
     0
300
1:100
140
1.0
141
100.0
290
     0
  0
SCALE
  5
54
102
{ACAD_REACTORS
330
47
102
}
330
47
100
AcDbScale
 70
     0
300
2:1
140
2.0
141
1.0
290
     0
  0
SCALE
  5
55
102
{ACAD_REACTORS
330
47
102
}
330
47
100
AcDbScale
 70
     0
300
4:1
140
4.0
141
1.0
290
     0
  0
SCALE
  5
56
102
{ACAD_REACTORS
330
47
102
}
330
47
100
AcDbScale
 70
     0
300
8:1
140
8.0
141
1.0
290
     0
  0
SCALE
  5
57
102
{ACAD_REACTORS
330
47
102
}
330
47
100
AcDbScale
 70
     0
300
10:1
140
10.0
141
1.0
290
     0
  0
SCALE
  5
58
102
{ACAD_REACTORS
330
47
102
}
330
47
100
AcDbScale
 70
     0
300
100:1
140
100.0
141
1.0
290
     0
  0
SCALE
  5
59
102
{ACAD_REACTORS
330
47
102
}
330
47
100
AcDbScale
 70
     0
300
1/128" = 1'-0"
140
0.007812
141
12.0
290
     0
  0
SCALE
  5
5A
102
{ACAD_REACTORS
330
47
102
}
330
47
100
AcDbScale
 70
     0
300
1/64" = 1'-0"
140
0.015625
141
12.0
290
     0
  0
SCALE
  5
5B
102
{ACAD_REACTORS
330
47
102
}
330
47
100
AcDbScale
 70
     0
300
1/32" = 1'-0"
140
0.03125
141
12.0
290
     0
  0
SCALE
  5
5C
102
{ACAD_REACTORS
330
47
102
}
330
47
100
AcDbScale
 70
     0
300
1/16" = 1'-0"
140
0.0625
141
12.0
290
     0
  0
SCALE
  5
5D
102
{ACAD_REACTORS
330
47
102
}
330
47
100
AcDbScale
 70
     0
300
3/32" = 1'-0"
140
0.09375
141
12.0
290
     0
  0
SCALE
  5
5E
102
{ACAD_REACTORS
330
47
102
}
330
47
100
AcDbScale
 70
     0
300
1/8" = 1'-0"
140
0.125
141
12.0
290
     0
  0
SCALE
  5
5F
102
{ACAD_REACTORS
330
47
102
}
330
47
100
AcDbScale
 70
     0
300
3/16" = 1'-0"
140
0.1875
141
12.0
290
     0
  0
SCALE
  5
60
102
{ACAD_REACTORS
330
47
102
}
330
47
100
AcDbScale
 70
     0
300
1/4" = 1'-0"
140
0.25
141
12.0
290
     0
  0
SCALE
  5
61
102
{ACAD_REACTORS
330
47
102
}
330
47
100
AcDbScale
 70
     0
300
3/8" = 1'-0"
140
0.375
141
12.0
290
     0
  0
SCALE
  5
62
102
{ACAD_REACTORS
330
47
102
}
330
47
100
AcDbScale
 70
     0
300
1/2" = 1'-0"
140
0.5
141
12.0
290
     0
  0
SCALE
  5
63
102
{ACAD_REACTORS
330
47
102
}
330
47
100
AcDbScale
 70
     0
300
3/4" = 1'-0"
140
0.75
141
12.0
290
     0
  0
SCALE
  5
64
102
{ACAD_REACTORS
330
47
102
}
330
47
100
AcDbScale
 70
     0
300
1" = 1'-0"
140
1.0
141
12.0
290
     0
  0
SCALE
  5
65
102
{ACAD_REACTORS
330
47
102
}
330
47
100
AcDbScale
 70
     0
300
1-1/2" = 1'-0"
140
1.5
141
12.0
290
     0
  0
SCALE
  5
66
102
{ACAD_REACTORS
330
47
102
}
330
47
100
AcDbScale
 70
     0
300
3" = 1'-0"
140
3.0
141
12.0
290
     0
  0
SCALE
  5
67
102
{ACAD_REACTORS
330
47
102
}
330
47
100
AcDbScale
 70
     0
300
6" = 1'-0"
140
6.0
141
12.0
290
     0
  0
SCALE
  5
68
102
{ACAD_REACTORS
330
47
102
}
330
47
100
AcDbScale
 70
     0
300
1'-0" = 1'-0"
140
12.0
141
12.0
290
     0
  0
ACDBSECTIONVIEWSTYLE
  5
302
102
{ACAD_XDICTIONARY
360
3A1
102
}
102
{ACAD_REACTORS
330
2FE
102
}
330
2FE
100
AcDbModelDocViewStyle
 70
     0
  3
Metric50
290
     0
100
AcDbSectionViewStyle
 70
     0
 71
     0
 90
      102
 71
     1
340
11
 62
   256
 40
5.0
340
0
340
0
 62
   256
 40
5.0
300
I, O, Q, S, X, Z
 40
10.0
 90
        0
 40
2.5
 90
        0
 71
     2
340
16
 90
       25
 62
   256
340
16
 90
       50
 62
   256
 40
5.0
 40
2.5
 40
5.0
 71
     3
340
11
 62
   256
 40
5.0
 90
        0
 40
15.0
 90
        1
300
%<\AcVar ViewSectionStartId>%-%<\AcVar ViewSectionEndId>% (%<\AcVar ViewScale \f "%sn">%)
 71
     4
 62
   256
 62
   257
300
ANSI31
 40
1.0
 90
        0
290
     0
290
     0
 90
        6
 40
0.0
 40
1.570796326794896
 40
0.2617993877991494
 40
1.308996938995747
 40
-0.2617993877991494
 40
1.832595714594046
  0
TABLESTYLE
  5
6A
102
{ACAD_XDICTIONARY
360
2F4
102
}
102
{ACAD_REACTORS
330
69
102
}
330
69
100
AcDbTableStyle
  3
Standard
 70
     0
 71
     0
 40
0.06
 41
0.06
280
     0
281
     0
  7
Standard
140
0.18
170
     2
 62
     0
 63
     7
283
     0
274
    -2
284
     1
 64
     0
275
    -2
285
     1
 65
     0
276
    -2
286
     1
 66
     0
277
    -2
287
     1
 67
     0
278
    -2
288
     1
 68
     0
279
    -2
289
     1
 69
     0
  7
Standard
140
0.25
170
     5
 62
     0
 63
     7
283
     0
274
    -2
284
     1
 64
     0
275
    -2
285
     1
 65
     0
276
    -2
286
     1
 66
     0
277
    -2
287
     1
 67
     0
278
    -2
288
     1
 68
     0
279
    -2
289
     1
 69
     0
  7
Standard
140
0.18
170
     5
 62
     0
 63
     7
283
     0
274
    -2
284
     1
 64
     0
275
    -2
285
     1
 65
     0
276
    -2
286
     1
 66
     0
277
    -2
287
     1
 67
     0
278
    -2
288
     1
 68
     0
279
    -2
289
     1
 69
     0
  0
VISUALSTYLE
  5
2F
102
{ACAD_XDICTIONARY
360
378
102
}
102
{ACAD_REACTORS
330
2A
102
}
330
2A
100
AcDbVisualStyle
  2

 70
     4
 71
     0
 72
     2
 73
     0
 90
        0
 40
-0.6
 41
-30.0
 62
     5
 63
     7
421
 16777215
 74
     1
 91
        4
 64
     7
 65
   257
 75
     1
175
     1
 42
1.0
 92
        0
 66
   257
 43
1.0
 76
     1
 77
     6
 78
     2
 67
     7
 79
     5
170
     0
171
     0
290
     0
174
     0
 93
        1
 44
0.0
173
     0
291
     0
 45
0.0
1001
ACAD
1000
AcDbSavedByObjectVersion
1070
     0
  0
VISUALSTYLE
  5
32
102
{ACAD_XDICTIONARY
360
37E
102
}
102
{ACAD_REACTORS
330
2A
102
}
330
2A
100
AcDbVisualStyle
  2

 70
     7
 71
     1
 72
     0
 73
     1
 90
        0
 40
-0.6
 41
-30.0
 62
     5
 63
     7
421
 16777215
 74
     0
 91
        4
 64
     7
 65
   257
 75
     1
175
     1
 42
1.0
 92
        8
 66
     7
 43
1.0
 76
     1
 77
     6
 78
     2
 67
     7
 79
     5
170
     0
171
     0
290
     0
174
     0
 93
        1
 44
0.0
173
     0
291
     1
 45
0.0
1001
ACAD
1000
AcDbSavedByObjectVersion
1070
     0
  0
VISUALSTYLE
  5
36
102
{ACAD_XDICTIONARY
360
386
102
}
102
{ACAD_REACTORS
330
2A
102
}
330
2A
100
AcDbVisualStyle
  2

 70
    12
 71
     2
 72
     2
 73
     0
 90
        0
 40
-0.6
 41
-30.0
 62
     5
 63
     7
421
 16777215
 74
     1
 91
        4
 64
     7
 65
   257
 75
     1
175
     1
 42
1.0
 92
        8
 66
     7
 43
1.0
 76
     1
 77
     6
 78
     2
 67
     7
 79
     5
170
     0
171
     0
290
     0
174
     0
 93
        1
 44
50.0
173
     0
291
     1
 45
0.0
1001
ACAD
1000
AcDbSavedByObjectVersion
1070
     0
  0
VISUALSTYLE
  5
3A
102
{ACAD_XDICTIONARY
360
38E
102
}
102
{ACAD_REACTORS
330
2A
102
}
330
2A
100
AcDbVisualStyle
  2

 70
    16
 71
     2
 72
     2
 73
     3
 90
        0
 40
-0.6
 41
-30.0
 62
     5
 63
     8
421
  8421504
 74
     1
 91
        4
 64
     7
 65
   257
 75
     1
175
     1
 42
1.0
 92
        8
 66
     8
424
  8421504
 43
1.0
 76
     1
 77
     6
 78
     2
 67
     7
 79
     5
170
     0
171
     0
290
     0
174
     0
 93
        1
 44
0.0
173
     0
291
     1
 45
0.0
1001
ACAD
1000
AcDbSavedByObjectVersion
1070
     0
  0
VISUALSTYLE
  5
34
102
{ACAD_XDICTIONARY
360
382
102
}
102
{ACAD_REACTORS
330
2A
102
}
330
2A
100
AcDbVisualStyle
  2

 70
     9
 71
     3
 72
     2
 73
     0
 90
        0
 40
-0.6
 41
-30.0
 62
     5
 63
     7
421
 16777215
 74
     2
 91
        2
 64
     7
 65
   257
 75
     1
175
     1
 42
179.0
 92
        8
 66
     7
 43
1.0
 76
     1
 77
     6
 78
     2
 67
     7
 79
     3
170
     0
171
     0
290
     0
174
     0
 93
        1
 44
0.0
173
     0
291
     0
 45
0.0
1001
ACAD
1000
AcDbSavedByObjectVersion
1070
     0
  0
VISUALSTYLE
  5
35
102
{ACAD_XDICTIONARY
360
384
102
}
102
{ACAD_REACTORS
330
2A
102
}
330
2A
100
AcDbVisualStyle
  2

 70
    11
 71
     2
 72
     2
 73
     0
 90
        0
 40
-0.6
 41
-30.0
 62
     5
 63
     7
421
 16777215
 74
     1
 91
        4
 64
     7
 65
   257
 75
     1
175
     1
 42
1.0
 92
        8
 66
     7
 43
1.0
 76
     1
 77
     6
 78
     2
 67
     7
 79
     5
170
     0
171
     0
290
     0
174
     0
 93
        1
 44
-50.0
173
     0
291
     1
 45
0.0
1001
ACAD
1000
AcDbSavedByObjectVersion
1070
     0
  0
VISUALSTYLE
  5
3D
102
{ACAD_XDICTIONARY
360
394
102
}
102
{ACAD_REACTORS
330
2A
102
}
330
2A
100
AcDbVisualStyle
  2

 70
    22
 71
     2
 72
     2
 73
     0
 90
        0
 40
-0.6
 41
-30.0
 62
     5
 63
     7
421
 16777215
 74
     1
 91
        4
 64
     7
 65
   257
 75
     1
175
     1
 42
1.0
 92
        8
 66
     7
 43
1.0
 76
     1
 77
     6
 78
     2
 67
     7
 79
     5
170
     0
171
     0
290
     0
174
     0
 93
        1
 44
0.0
173
     0
291
     1
 45
0.0
1001
ACAD
1000
AcDbSavedByObjectVersion
1070
     0
  0
VISUALSTYLE
  5
39
102
{ACAD_XDICTIONARY
360
38C
102
}
102
{ACAD_REACTORS
330
2A
102
}
330
2A
100
AcDbVisualStyle
  2

 70
    15
 71
     2
 72
     2
 73
     0
 90
        0
 40
-0.6
 41
-30.0
 62
     5
 63
     7
421
 16777215
 74
     1
 91
        4
 64
     7
 65
   257
 75
     1
175
     1
 42
1.0
 92
        8
 66
     7
 43
1.0
 76
     1
 77
     6
 78
     2
 67
     7
 79
     5
170
     0
171
     0
290
     0
174
     0
 93
        1
 44
0.0
173
     0
291
     1
 45
0.0
1001
ACAD
1000
AcDbSavedByObjectVersion
1070
     0
  0
VISUALSTYLE
  5
2B
102
{ACAD_XDICTIONARY
360
370
102
}
102
{ACAD_REACTORS
330
2A
102
}
330
2A
100
AcDbVisualStyle
  2

 70
     0
 71
     2
 72
     1
 73
     1
 90
        2
 40
-0.6
 41
30.0
 62
     5
 63
     7
421
 16777215
 74
     0
 91
        0
 64
     7
 65
   257
 75
     1
175
     1
 42
1.0
 92
        8
 66
     7
 43
1.0
 76
     1
 77
     6
 78
     2
 67
     7
 79
     5
170
     0
171
     0
290
     0
174
     0
 93
       13
 44
0.0
173
     0
291
     1
 45
0.0
1001
ACAD
1000
AcDbSavedByObjectVersion
1070
     0
  0
VISUALSTYLE
  5
2C
102
{ACAD_XDICTIONARY
360
372
102
}
102
{ACAD_REACTORS
330
2A
102
}
330
2A
100
AcDbVisualStyle
  2

 70
     1
 71
     2
 72
     1
 73
     1
 90
        2
 40
-0.6
 41
30.0
 62
     5
 63
     7
421
 16777215
 74
     1
 91
        0
 64
     7
 65
   257
 75
     1
175
     1
 42
1.0
 92
        0
 66
   257
 43
1.0
 76
     1
 77
     6
 78
     2
 67
     7
 79
     5
170
     0
171
     0
290
     0
174
     0
 93
       13
 44
0.0
173
     0
291
     1
 45
0.0
1001
ACAD
1000
AcDbSavedByObjectVersion
1070
     0
  0
VISUALSTYLE
  5
2D
102
{ACAD_XDICTIONARY
360
374
102
}
102
{ACAD_REACTORS
330
2A
102
}
330
2A
100
AcDbVisualStyle
  2

 70
     2
 71
     2
 72
     2
 73
     1
 90
        2
 40
-0.6
 41
30.0
 62
     5
 63
     7
421
 16777215
 74
     0
 91
        0
 64
     7
 65
   257
 75
     1
175
     1
 42
1.0
 92
        0
 66
     7
 43
1.0
 76
     1
 77
     6
 78
     2
 67
     7
 79
     5
170
     0
171
     0
290
     0
174
     0
 93
       13
 44
0.0
173
     0
291
     1
 45
0.0
1001
ACAD
1000
AcDbSavedByObjectVersion
1070
     0
  0
VISUALSTYLE
  5
2E
102
{ACAD_XDICTIONARY
360
376
102
}
102
{ACAD_REACTORS
330
2A
102
}
330
2A
100
AcDbVisualStyle
  2

 70
     3
 71
     2
 72
     2
 73
     1
 90
        2
 40
-0.6
 41
30.0
 62
     5
 63
     7
421
 16777215
 74
     1
 91
        0
 64
     7
 65
   257
 75
     1
175
     1
 42
1.0
 92
        0
 66
   257
 43
1.0
 76
     1
 77
     6
 78
     2
 67
     7
 79
     5
170
     0
171
     0
290
     0
174
     0
 93
       13
 44
0.0
173
     0
291
     1
 45
0.0
1001
ACAD
1000
AcDbSavedByObjectVersion
1070
     0
  0
VISUALSTYLE
  5
31
102
{ACAD_XDICTIONARY
360
37C
102
}
102
{ACAD_REACTORS
330
2A
102
}
330
2A
100
AcDbVisualStyle
  2

 70
     6
 71
     1
 72
     2
 73
     2
 90
        0
 40
-0.6
 41
-30.0
 62
     5
 63
     7
421
 16777215
 74
     2
 91
        2
 64
     7
 65
   257
 75
     2
175
     1
 42
40.0
 92
        0
 66
   257
 43
1.0
 76
     1
 77
     6
 78
     2
 67
     7
 79
     3
170
     0
171
     0
290
     0
174
     0
 93
        1
 44
0.0
173
     0
291
     0
 45
0.0
1001
ACAD
1000
AcDbSavedByObjectVersion
1070
     0
  0
VISUALSTYLE
  5
3B
102
{ACAD_XDICTIONARY
360
390
102
}
102
{ACAD_REACTORS
330
2A
102
}
330
2A
100
AcDbVisualStyle
  2

 70
    20
 71
     2
 72
     2
 73
     0
 90
        0
 40
-0.6
 41
-30.0
 62
     5
 63
     7
421
 16777215
 74
     1
 91
        4
 64
     7
 65
   257
 75
     1
175
     1
 42
1.0
 92
       10
 66
     7
 43
1.0
 76
     1
 77
     6
 78
     2
 67
     7
 79
     5
170
     0
171
     0
290
     0
174
     0
 93
        1
 44
0.0
173
     0
291
     1
 45
0.0
1001
ACAD
1000
AcDbSavedByObjectVersion
1070
     0
  0
VISUALSTYLE
  5
38
102
{ACAD_XDICTIONARY
360
38A
102
}
102
{ACAD_REACTORS
330
2A
102
}
330
2A
100
AcDbVisualStyle
  2

 70
    14
 71
     2
 72
     2
 73
     0
 90
        0
 40
-0.6
 41
-30.0
 62
     5
 63
     7
421
 16777215
 74
     1
 91
        4
 64
     7
 65
   257
 75
     7
175
     7
 42
1.0
 92
        8
 66
     7
 43
1.0
 76
     1
 77
     6
 78
     2
 67
     7
 79
     5
170
     0
171
     0
290
     0
174
     0
 93
        1
 44
0.0
173
     0
291
     1
 45
0.0
1001
ACAD
1000
AcDbSavedByObjectVersion
1070
     0
  0
VISUALSTYLE
  5
3C
102
{ACAD_XDICTIONARY
360
392
102
}
102
{ACAD_REACTORS
330
2A
102
}
330
2A
100
AcDbVisualStyle
  2

 70
    21
 71
     2
 72
     2
 73
     0
 90
        0
 40
-0.6
 41
-30.0
 62
     5
 63
     7
421
 16777215
 74
     1
 91
        4
 64
     7
 65
   257
 75
     1
175
     1
 42
1.0
 92
        9
 66
     7
 43
1.0
 76
     1
 77
     6
 78
     2
 67
     7
 79
     5
170
     0
171
     0
290
     0
174
     0
 93
        1
 44
0.0
173
     0
291
     1
 45
0.0
1001
ACAD
1000
AcDbSavedByObjectVersion
1070
     0
  0
VISUALSTYLE
  5
33
102
{ACAD_XDICTIONARY
360
380
102
}
102
{ACAD_REACTORS
330
2A
102
}
330
2A
100
AcDbVisualStyle
  2

 70
     8
 71
     2
 72
     3
 73
     0
 90
        2
 40
-0.6
 41
30.0
 62
     5
 63
     7
421
 16777215
 74
     0
 91
        0
 64
     7
 65
   257
 75
     1
175
     1
 42
1.0
 92
        8
 66
   257
 43
1.0
 76
     1
 77
     6
 78
     2
 67
     7
 79
     3
170
     0
171
     0
290
     0
174
     0
 93
       13
 44
0.0
173
     0
291
     0
 45
0.0
1001
ACAD
1000
AcDbSavedByObjectVersion
1070
     0
  0
VISUALSTYLE
  5
42
102
{ACAD_XDICTIONARY
360
39E
102
}
102
{ACAD_REACTORS
330
2A
102
}
330
2A
100
AcDbVisualStyle
  2

 70
    27
 71
     2
 72
     2
 73
     1
 90
        2
 40
-0.6
 41
30.0
 62
     5
 63
     7
421
 16777215
 74
     0
 91
        4
 64
     7
 65
   257
 75
     1
175
     1
 42
1.0
 92
        8
 66
   257
 43
1.0
 76
     1
 77
     6
 78
     2
 67
     8
425
  7895160
 79
     3
170
     0
171
     0
290
     0
174
     0
 93
        5
 44
0.0
173
     0
291
     0
 45
0.0
1001
ACAD
1000
AcDbSavedByObjectVersion
1070
     0
  0
VISUALSTYLE
  5
41
102
{ACAD_XDICTIONARY
360
39C
102
}
102
{ACAD_REACTORS
330
2A
102
}
330
2A
100
AcDbVisualStyle
  2

 70
    26
 71
     2
 72
     2
 73
     1
 90
        2
 40
-0.6
 41
30.0
 62
     5
 63
     7
421
 16777215
 74
     1
 91
       10
 64
     7
 65
   257
 75
     2
175
     1
 42
1.0
 92
        8
 66
   257
 43
1.0
 76
     1
 77
     6
 78
     2
 67
     7
 79
     3
170
     0
171
     0
290
     0
174
     0
 93
        5
 44
0.0
173
     0
291
     0
 45
0.0
1001
ACAD
1000
AcDbSavedByObjectVersion
1070
     0
  0
VISUALSTYLE
  5
3E
102
{ACAD_XDICTIONARY
360
396
102
}
102
{ACAD_REACTORS
330
2A
102
}
330
2A
100
AcDbVisualStyle
  2

 70
    23
 71
     2
 72
     2
 73
     3
 90
        0
 40
-0.6
 41
-30.0
 62
     5
 63
     7
421
 16777215
 74
     2
 91
        2
 64
     7
 65
     7
 75
     1
175
     1
 42
40.0
 92
        8
 66
     7
 43
1.0
 76
     1
 77
     6
 78
     2
 67
     7
 79
     3
170
     0
171
     0
290
     0
174
     0
 93
        1
 44
0.0
173
     0
291
     0
 45
0.0
1001
ACAD
1000
AcDbSavedByObjectVersion
1070
     0
  0
VISUALSTYLE
  5
3F
102
{ACAD_XDICTIONARY
360
398
102
}
102
{ACAD_REACTORS
330
2A
102
}
330
2A
100
AcDbVisualStyle
  2

 70
    24
 71
     1
 72
     2
 73
     2
 90
        0
 40
-0.6
 41
-30.0
 62
     5
 63
     7
421
 16777215
 74
     2
 91
        2
 64
     7
 65
     7
 75
     1
175
     1
 42
40.0
 92
       11
 66
     7
 43
1.0
 76
     1
 77
     6
 78
     2
 67
     7
 79
     6
170
     0
171
     0
290
     0
174
     0
 93
        1
 44
0.0
173
     0
291
     0
 45
0.0
1001
ACAD
1000
AcDbSavedByObjectVersion
1070
     0
  0
VISUALSTYLE
  5
37
102
{ACAD_XDICTIONARY
360
388
102
}
102
{ACAD_REACTORS
330
2A
102
}
330
2A
100
AcDbVisualStyle
  2

 70
    13
 71
     2
 72
     2
 73
     0
 90
        0
 40
-0.6
 41
-30.0
 62
     5
 63
     7
421
 16777215
 74
     1
 91
        4
 64
     7
 65
   257
 75
     1
175
     1
 42
1.0
 92
       12
 66
     7
 43
1.0
 76
     1
 77
     6
 78
     2
 67
     7
 79
     5
170
     0
171
     0
290
     0
174
     0
 93
        1
 44
0.0
173
     0
291
     1
 45
0.0
1001
ACAD
1000
AcDbSavedByObjectVersion
1070
     0
  0
VISUALSTYLE
  5
30
102
{ACAD_XDICTIONARY
360
37A
102
}
102
{ACAD_REACTORS
330
2A
102
}
330
2A
100
AcDbVisualStyle
  2

 70
     5
 71
     0
 72
     2
 73
     0
 90
        0
 40
-0.6
 41
-30.0
 62
     5
 63
     7
421
 16777215
 74
     1
 91
        4
 64
     7
 65
   257
 75
     1
175
     1
 42
1.0
 92
        0
 66
   257
 43
1.0
 76
     1
 77
     6
 78
     2
 67
     7
 79
     3
170
     0
171
     0
290
     0
174
     0
 93
        1
 44
0.0
173
     0
291
     0
 45
0.0
1001
ACAD
1000
AcDbSavedByObjectVersion
1070
     0
  0
VISUALSTYLE
  5
40
102
{ACAD_XDICTIONARY
360
39A
102
}
102
{ACAD_REACTORS
330
2A
102
}
330
2A
100
AcDbVisualStyle
  2

 70
    25
 71
     2
 72
     2
 73
     1
 90
        1
 40
0.5
 41
-30.0
 62
     5
 63
     7
421
 16777215
 74
     1
 91
        0
 64
     7
 65
   257
 75
     1
175
     1
 42
1.0
 92
        8
 66
     7
 43
1.0
 76
     1
 77
     6
 78
     2
 67
     7
 79
     3
170
     0
171
     0
290
     0
174
     0
 93
       13
 44
0.0
173
     0
291
     0
 45
0.0
1001
ACAD
1000
AcDbSavedByObjectVersion
1070
     0
  0
DICTIONARYVAR
  5
2BB
102
{ACAD_REACTORS
330
2BA
102
}
330
2BA
100
DictionaryVariables
280
     0
  1
1:1
  0
DICTIONARYVAR
  5
2FC
102
{ACAD_REACTORS
330
2BA
102
}
330
2BA
100
DictionaryVariables
280
     0
  1
STANDARD
  0
DICTIONARYVAR
  5
2FB
102
{ACAD_REACTORS
330
2BA
102
}
330
2BA
100
DictionaryVariables
280
     0
  1
STANDARD
  0
DICTIONARYVAR
  5
36A
102
{ACAD_REACTORS
330
2BA
102
}
330
2BA
100
DictionaryVariables
280
     0
  1
Metric50
  0
DICTIONARYVAR
  5
36B
102
{ACAD_REACTORS
330
2BA
102
}
330
2BA
100
DictionaryVariables
280
     0
  1
Metric50
  0
DICTIONARYVAR
  5
2BC
102
{ACAD_REACTORS
330
2BA
102
}
330
2BA
100
DictionaryVariables
280
     0
  1
1
  0
DICTIONARYVAR
  5
36C
102
{ACAD_REACTORS
330
2BA
102
}
330
2BA
100
DictionaryVariables
280
     0
  1
2
  0
DICTIONARY
  5
3A3
330
303
100
AcDbDictionary
280
     1
281
     1
  3
ACAD_XREC_ROUNDTRIP
360
3A4
  0
DICTIONARY
  5
2F0
330
45
100
AcDbDictionary
280
     1
281
     1
  3
ACAD_XREC_ROUNDTRIP
360
2F1
  0
DICTIONARY
  5
2EE
330
44
100
AcDbDictionary
280
     1
281
     1
  3
ACAD_XREC_ROUNDTRIP
360
2EF
  0
DICTIONARY
  5
2F2
330
46
100
AcDbDictionary
280
     1
281
     1
  3
ACAD_XREC_ROUNDTRIP
360
2F3
  0
DICTIONARY
  5
3A1
330
302
100
AcDbDictionary
280
     1
281
     1
  3
ACAD_XREC_ROUNDTRIP
360
3A2
  0
DICTIONARY
  5
2F4
330
6A
100
AcDbDictionary
280
     1
281
     1
  3
ACAD_ROUNDTRIP_2008_TABLESTYLE_CELLSTYLEMAP
360
36E
  3
ACAD_XREC_ROUNDTRIP
360
3A0
  0
DICTIONARY
  5
378
330
2F
100
AcDbDictionary
280
     1
281
     1
  3
ACAD_XREC_ROUNDTRIP
360
379
  0
DICTIONARY
  5
37E
330
32
100
AcDbDictionary
280
     1
281
     1
  3
ACAD_XREC_ROUNDTRIP
360
37F
  0
DICTIONARY
  5
386
330
36
100
AcDbDictionary
280
     1
281
     1
  3
ACAD_XREC_ROUNDTRIP
360
387
  0
DICTIONARY
  5
38E
330
3A
100
AcDbDictionary
280
     1
281
     1
  3
ACAD_XREC_ROUNDTRIP
360
38F
  0
DICTIONARY
  5
382
330
34
100
AcDbDictionary
280
     1
281
     1
  3
ACAD_XREC_ROUNDTRIP
360
383
  0
DICTIONARY
  5
384
330
35
100
AcDbDictionary
280
     1
281
     1
  3
ACAD_XREC_ROUNDTRIP
360
385
  0
DICTIONARY
  5
394
330
3D
100
AcDbDictionary
280
     1
281
     1
  3
ACAD_XREC_ROUNDTRIP
360
395
  0
DICTIONARY
  5
38C
330
39
100
AcDbDictionary
280
     1
281
     1
  3
ACAD_XREC_ROUNDTRIP
360
38D
  0
DICTIONARY
  5
370
330
2B
100
AcDbDictionary
280
     1
281
     1
  3
ACAD_XREC_ROUNDTRIP
360
371
  0
DICTIONARY
  5
372
330
2C
100
AcDbDictionary
280
     1
281
     1
  3
ACAD_XREC_ROUNDTRIP
360
373
  0
DICTIONARY
  5
374
330
2D
100
AcDbDictionary
280
     1
281
     1
  3
ACAD_XREC_ROUNDTRIP
360
375
  0
DICTIONARY
  5
376
330
2E
100
AcDbDictionary
280
     1
281
     1
  3
ACAD_XREC_ROUNDTRIP
360
377
  0
DICTIONARY
  5
37C
330
31
100
AcDbDictionary
280
     1
281
     1
  3
ACAD_XREC_ROUNDTRIP
360
37D
  0
DICTIONARY
  5
390
330
3B
100
AcDbDictionary
280
     1
281
     1
  3
ACAD_XREC_ROUNDTRIP
360
391
  0
DICTIONARY
  5
38A
330
38
100
AcDbDictionary
280
     1
281
     1
  3
ACAD_XREC_ROUNDTRIP
360
38B
  0
DICTIONARY
  5
392
330
3C
100
AcDbDictionary
280
     1
281
     1
  3
ACAD_XREC_ROUNDTRIP
360
393
  0
DICTIONARY
  5
380
330
33
100
AcDbDictionary
280
     1
281
     1
  3
ACAD_XREC_ROUNDTRIP
360
381
  0
DICTIONARY
  5
39E
330
42
100
AcDbDictionary
280
     1
281
     1
  3
ACAD_XREC_ROUNDTRIP
360
39F
  0
DICTIONARY
  5
39C
330
41
100
AcDbDictionary
280
     1
281
     1
  3
ACAD_XREC_ROUNDTRIP
360
39D
  0
DICTIONARY
  5
396
330
3E
100
AcDbDictionary
280
     1
281
     1
  3
ACAD_XREC_ROUNDTRIP
360
397
  0
DICTIONARY
  5
398
330
3F
100
AcDbDictionary
280
     1
281
     1
  3
ACAD_XREC_ROUNDTRIP
360
399
  0
DICTIONARY
  5
388
330
37
100
AcDbDictionary
280
     1
281
     1
  3
ACAD_XREC_ROUNDTRIP
360
389
  0
DICTIONARY
  5
37A
330
30
100
AcDbDictionary
280
     1
281
     1
  3
ACAD_XREC_ROUNDTRIP
360
37B
  0
DICTIONARY
  5
39A
330
40
100
AcDbDictionary
280
     1
281
     1
  3
ACAD_XREC_ROUNDTRIP
360
39B
  0
XRECORD
  5
3A4
102
{ACAD_REACTORS
330
3A3
102
}
330
3A3
100
AcDbXrecord
280
     1
102
DISPLAYNAME
  1
Metric50
102
FLAGS
 90
        0
  0
XRECORD
  5
2F1
102
{ACAD_REACTORS
330
2F0
102
}
330
2F0
100
AcDbXrecord
280
     1
102
MATERIAL
148
0.0
149
0.0
149
0.0
 93
        0
 94
      127
282
     0
 72
     1
 77
     1
171
     1
175
     1
179
     1
273
     0
  0
XRECORD
  5
2EF
102
{ACAD_REACTORS
330
2EE
102
}
330
2EE
100
AcDbXrecord
280
     1
102
MATERIAL
148
0.0
149
0.0
149
0.0
 93
        0
 94
      127
282
     0
 72
     1
 77
     1
171
     1
175
     1
179
     1
273
     0
  0
XRECORD
  5
2F3
102
{ACAD_REACTORS
330
2F2
102
}
330
2F2
100
AcDbXrecord
280
     1
102
MATERIAL
148
0.0
149
0.0
149
0.0
 93
        0
 94
      127
282
     0
 72
     1
 77
     1
171
     1
175
     1
179
     1
273
     0
  0
XRECORD
  5
3A2
102
{ACAD_REACTORS
330
3A1
102
}
330
3A1
100
AcDbXrecord
280
     1
102
DISPLAYNAME
  1
Metric50
102
FLAGS
 90
        0
  0
CELLSTYLEMAP
  5
36E
102
{ACAD_REACTORS
330
2F4
102
}
330
2F4
100
AcDbCellStyleMap
 90
        3
300
CELLSTYLE
  1
TABLEFORMAT_BEGIN
 90
        5
170
     1
 91
        0
 92
    32768
 62
   257
 93
        1
300
CONTENTFORMAT
  1
CONTENTFORMAT_BEGIN
 90
        0
 91
        0
 92
        4
 93
        0
300

 40
0.0
140
1.0
 94
        5
 62
     0
340
11
144
0.25
309
CONTENTFORMAT_END
171
     1
301
MARGIN
  1
CELLMARGIN_BEGIN
 40
0.06
 40
0.06
 40
0.06
 40
0.06
 40
0.18
 40
0.18
309
CELLMARGIN_END
 94
        6
 95
        1
302
GRIDFORMAT
  1
GRIDFORMAT_BEGIN
 90
        0
 91
        1
 62
     0
 92
       -2
340
14
 93
        0
 40
0.045
309
GRIDFORMAT_END
 95
        2
302
GRIDFORMAT
  1
GRIDFORMAT_BEGIN
 90
        0
 91
        1
 62
     0
 92
       -2
340
14
 93
        0
 40
0.045
309
GRIDFORMAT_END
 95
        4
302
GRIDFORMAT
  1
GRIDFORMAT_BEGIN
 90
        0
 91
        1
 62
     0
 92
       -2
340
14
 93
        0
 40
0.045
309
GRIDFORMAT_END
 95
        8
302
GRIDFORMAT
  1
GRIDFORMAT_BEGIN
 90
        0
 91
        1
 62
     0
 92
       -2
340
14
 93
        0
 40
0.045
309
GRIDFORMAT_END
 95
       16
302
GRIDFORMAT
  1
GRIDFORMAT_BEGIN
 90
        0
 91
        1
 62
     0
 92
       -2
340
14
 93
        0
 40
0.045
309
GRIDFORMAT_END
 95
       32
302
GRIDFORMAT
  1
GRIDFORMAT_BEGIN
 90
        0
 91
        1
 62
     0
 92
       -2
340
14
 93
        0
 40
0.045
309
GRIDFORMAT_END
309
TABLEFORMAT_END
  1
CELLSTYLE_BEGIN
 90
        1
 91
        1
300
_TITLE
309
CELLSTYLE_END
300
CELLSTYLE
  1
TABLEFORMAT_BEGIN
 90
        5
170
     1
 91
        0
 92
        0
 62
   257
 93
        1
300
CONTENTFORMAT
  1
CONTENTFORMAT_BEGIN
 90
        0
 91
        0
 92
        4
 93
        0
300

 40
0.0
140
1.0
 94
        5
 62
     0
340
11
144
0.18
309
CONTENTFORMAT_END
171
     1
301
MARGIN
  1
CELLMARGIN_BEGIN
 40
0.06
 40
0.06
 40
0.06
 40
0.06
 40
0.18
 40
0.18
309
CELLMARGIN_END
 94
        6
 95
        1
302
GRIDFORMAT
  1
GRIDFORMAT_BEGIN
 90
        0
 91
        1
 62
     0
 92
       -2
340
14
 93
        0
 40
0.045
309
GRIDFORMAT_END
 95
        2
302
GRIDFORMAT
  1
GRIDFORMAT_BEGIN
 90
        0
 91
        1
 62
     0
 92
       -2
340
14
 93
        0
 40
0.045
309
GRIDFORMAT_END
 95
        4
302
GRIDFORMAT
  1
GRIDFORMAT_BEGIN
 90
        0
 91
        1
 62
     0
 92
       -2
340
14
 93
        0
 40
0.045
309
GRIDFORMAT_END
 95
        8
302
GRIDFORMAT
  1
GRIDFORMAT_BEGIN
 90
        0
 91
        1
 62
     0
 92
       -2
340
14
 93
        0
 40
0.045
309
GRIDFORMAT_END
 95
       16
302
GRIDFORMAT
  1
GRIDFORMAT_BEGIN
 90
        0
 91
        1
 62
     0
 92
       -2
340
14
 93
        0
 40
0.045
309
GRIDFORMAT_END
 95
       32
302
GRIDFORMAT
  1
GRIDFORMAT_BEGIN
 90
        0
 91
        1
 62
     0
 92
       -2
340
14
 93
        0
 40
0.045
309
GRIDFORMAT_END
309
TABLEFORMAT_END
  1
CELLSTYLE_BEGIN
 90
        2
 91
        1
300
_HEADER
309
CELLSTYLE_END
300
CELLSTYLE
  1
TABLEFORMAT_BEGIN
 90
        5
170
     1
 91
        0
 92
        0
 62
   257
 93
        1
300
CONTENTFORMAT
  1
CONTENTFORMAT_BEGIN
 90
        0
 91
        0
 92
        4
 93
        0
300

 40
0.0
140
1.0
 94
        2
 62
     0
340
11
144
0.18
309
CONTENTFORMAT_END
171
     1
301
MARGIN
  1
CELLMARGIN_BEGIN
 40
0.06
 40
0.06
 40
0.06
 40
0.06
 40
0.18
 40
0.18
309
CELLMARGIN_END
 94
        6
 95
        1
302
GRIDFORMAT
  1
GRIDFORMAT_BEGIN
 90
        0
 91
        1
 62
     0
 92
       -2
340
14
 93
        0
 40
0.045
309
GRIDFORMAT_END
 95
        2
302
GRIDFORMAT
  1
GRIDFORMAT_BEGIN
 90
        0
 91
        1
 62
     0
 92
       -2
340
14
 93
        0
 40
0.045
309
GRIDFORMAT_END
 95
        4
302
GRIDFORMAT
  1
GRIDFORMAT_BEGIN
 90
        0
 91
        1
 62
     0
 92
       -2
340
14
 93
        0
 40
0.045
309
GRIDFORMAT_END
 95
        8
302
GRIDFORMAT
  1
GRIDFORMAT_BEGIN
 90
        0
 91
        1
 62
     0
 92
       -2
340
14
 93
        0
 40
0.045
309
GRIDFORMAT_END
 95
       16
302
GRIDFORMAT
  1
GRIDFORMAT_BEGIN
 90
        0
 91
        1
 62
     0
 92
       -2
340
14
 93
        0
 40
0.045
309
GRIDFORMAT_END
 95
       32
302
GRIDFORMAT
  1
GRIDFORMAT_BEGIN
 90
        0
 91
        1
 62
     0
 92
       -2
340
14
 93
        0
 40
0.045
309
GRIDFORMAT_END
309
TABLEFORMAT_END
  1
CELLSTYLE_BEGIN
 90
        3
 91
        2
300
_DATA
309
CELLSTYLE_END
  0
XRECORD
  5
3A0
102
{ACAD_REACTORS
330
2F4
102
}
330
2F4
100
AcDbXrecord
280
     1
102
ACAD_ROUNDTRIP_PRE2007_TABLESTYLE
 90
        4
 91
        0
  1

 92
        4
 93
        0
  2

 94
        4
 95
        0
  3

  0
XRECORD
  5
379
102
{ACAD_REACTORS
330
378
102
}
330
378
100
AcDbXrecord
280
     1
102
RTVSPost2010Prop28
280
     1
102
RTVSPost2010PropOp28
 70
     1
102
RTVSPost2010Prop29
280
     1
102
RTVSPost2010PropOp29
 70
     1
102
RTVSPost2010Prop30
280
     0
102
RTVSPost2010PropOp30
 70
     1
102
RTVSPost2010Prop31
280
     0
102
RTVSPost2010PropOp31
 70
     1
102
RTVSPost2010Prop32
280
     0
102
RTVSPost2010PropOp32
 70
     1
102
RTVSPost2010Prop33
280
     0
102
RTVSPost2010PropOp33
 70
     1
102
RTVSPost2010Prop34
280
     0
102
RTVSPost2010PropOp34
 70
     1
102
RTVSPost2010Prop35
280
     0
102
RTVSPost2010PropOp35
 70
     1
102
RTVSPost2010Prop36
280
     0
102
RTVSPost2010PropOp36
 70
     1
102
RTVSPost2010Prop37
 90
       50
102
RTVSPost2010PropOp37
 70
     1
102
RTVSPost2010Prop38
140
0.0
102
RTVSPost2010PropOp38
 70
     1
102
RTVSPost2010Prop39
140
1.0
102
RTVSPost2010PropOp39
 70
     1
102
RTVSPost2010Prop40
 90
        0
102
RTVSPost2010PropOp40
 70
     1
102
RTVSPost2010Prop41ColorIndex
 90
       18
102
RTVSPost2010Prop41ColorRGB
 90
        0
102
RTVSPost2010PropOp41
 70
     1
102
RTVSPost2010Prop42
 90
       50
102
RTVSPost2010PropOp42
 70
     1
102
RTVSPost2010Prop43
 90
        3
102
RTVSPost2010PropOp43
 70
     1
102
RTVSPost2010Prop44ColorIndex
 90
        5
102
RTVSPost2010Prop44ColorRGB
 90
      255
102
RTVSPost2010PropOp44
 70
     1
102
RTVSPost2010Prop45
280
     0
102
RTVSPost2010PropOp45
 70
     1
102
RTVSPost2010Prop46
 90
       50
102
RTVSPost2010PropOp46
 70
     1
102
RTVSPost2010Prop47
 90
       50
102
RTVSPost2010PropOp47
 70
     1
102
RTVSPost2010Prop48
 90
       50
102
RTVSPost2010PropOp48
 70
     1
102
RTVSPost2010Prop49
280
     0
102
RTVSPost2010PropOp49
 70
     1
102
RTVSPost2010Prop50
 90
       50
102
RTVSPost2010PropOp50
 70
     1
102
RTVSPost2010Prop51ColorIndex
 90
      256
102
RTVSPost2010Prop51ColorRGB
 90
-16777216
102
RTVSPost2010PropOp51
 70
     0
102
RTVSPost2010Prop52
140
1.0
102
RTVSPost2010PropOp52
 70
     0
102
RTVSPost2010Prop53
 90
        2
102
RTVSPost2010PropOp53
 70
     1
102
RTVSPost2010Prop54
  1
strokes_ogs.tif
102
RTVSPost2010PropOp54
 70
     1
102
RTVSPost2010Prop55
280
     0
102
RTVSPost2010PropOp55
 70
     1
102
RTVSPost2010Prop56
140
1.0
102
RTVSPost2010PropOp56
 70
     1
102
RTVSPost2010Prop57
140
1.0
102
RTVSPost2010PropOp57
 70
     1
102
RTVSPropertyOp0
 70
     1
102
RTVSPropertyOp1
 70
     1
102
RTVSPropertyOp2
 70
     1
102
RTVSPropertyOp3
 70
     1
102
RTVSPropertyOp4
 70
     1
102
RTVSPropertyOp5
 70
     1
102
RTVSPropertyOp6
 70
     1
102
RTVSPropertyOp7
 70
     1
102
RTVSPropertyOp8
 70
     1
102
RTVSPropertyOp9
 70
     1
102
RTVSPropertyOp10
 70
     1
102
RTVSPropertyOp11
 70
     1
102
RTVSPropertyOp12
 70
     1
102
RTVSPropertyOp13
 70
     1
102
RTVSPropertyOp14
 70
     1
102
RTVSPropertyOp15
 70
     1
102
RTVSPropertyOp16
 70
     1
102
RTVSPropertyOp17
 70
     1
102
RTVSPropertyOp18
 70
     1
102
RTVSPropertyOp19
 70
     1
102
RTVSPropertyOp20
 70
     1
102
RTVSPropertyOp21
 70
     1
102
RTVSPropertyOp22
 70
     1
102
RTVSPropertyOp23
 70
     1
102
RTVSPropertyOp24
 70
     1
102
RTVSPropertyOp25
 70
     1
102
RTVSPropertyOp26
 70
     1
102
RTVSPropertyOp27
 70
     1
102
RTVSPropertyOp28
 70
     1
102
RTVSPropertyOp29
 70
     1
102
RTVSPropertyOp30
 70
     1
102
RTVSPropertyOp31
 70
     1
102
RTVSPropertyOp32
 70
     1
102
RTVSPropertyOp33
 70
     1
102
RTVSPropertyOp34
 70
     1
102
RTVSPropertyOp35
 70
     1
102
RTVSPropertyOp36
 70
     1
102
RTVSPropertyOp37
 70
     1
102
RTVSPropertyOp38
 70
     1
102
RTVSPropertyOp39
 70
     1
102
RTVSPropertyOp40
 70
     1
102
RTVSPropertyOp41
 70
     1
102
RTVSPropertyOp42
 70
     1
102
RTVSPropertyOp43
 70
     1
102
RTVSPropertyOp44
 70
     1
102
RTVSPropertyOp45
 70
     1
102
RTVSPropertyOp46
 70
     1
102
RTVSPropertyOp47
 70
     1
102
RTVSPropertyOp48
 70
     1
102
RTVSPropertyOp49
 70
     1
102
RTVSPropertyOp50
 70
     1
102
RTVSPropertyOp51
 70
     0
102
RTVSPropertyOp52
 70
     0
102
RTVSPropertyOp53
 70
     1
102
RTVSPropertyOp54
 70
     1
102
RTVSPropertyOp55
 70
     1
102
RTVSPropertyOp56
 70
     1
102
RTVSPropertyOp57
 70
     1
102
RTVSPropertyOp58
 70
     1
102
RTVSPropertyOp59
 70
     1
102
RTVSPropertyOp60
 70
     1
102
RTVSPropertyOp61
 70
     1
102
RTVSPropertyOp62
 70
     1
  0
XRECORD
  5
37F
102
{ACAD_REACTORS
330
37E
102
}
330
37E
100
AcDbXrecord
280
     1
102
RTVSPost2010Prop28
280
     0
102
RTVSPost2010PropOp28
 70
     1
102
RTVSPost2010Prop29
280
     1
102
RTVSPost2010PropOp29
 70
     1
102
RTVSPost2010Prop30
280
     1
102
RTVSPost2010PropOp30
 70
     1
102
RTVSPost2010Prop31
280
     0
102
RTVSPost2010PropOp31
 70
     1
102
RTVSPost2010Prop32
280
     0
102
RTVSPost2010PropOp32
 70
     1
102
RTVSPost2010Prop33
280
     0
102
RTVSPost2010PropOp33
 70
     1
102
RTVSPost2010Prop34
280
     0
102
RTVSPost2010PropOp34
 70
     1
102
RTVSPost2010Prop35
280
     0
102
RTVSPost2010PropOp35
 70
     1
102
RTVSPost2010Prop36
280
     0
102
RTVSPost2010PropOp36
 70
     1
102
RTVSPost2010Prop37
 90
       50
102
RTVSPost2010PropOp37
 70
     1
102
RTVSPost2010Prop38
140
0.0
102
RTVSPost2010PropOp38
 70
     1
102
RTVSPost2010Prop39
140
1.0
102
RTVSPost2010PropOp39
 70
     1
102
RTVSPost2010Prop40
 90
        0
102
RTVSPost2010PropOp40
 70
     1
102
RTVSPost2010Prop41ColorIndex
 90
       18
102
RTVSPost2010Prop41ColorRGB
 90
        0
102
RTVSPost2010PropOp41
 70
     1
102
RTVSPost2010Prop42
 90
       50
102
RTVSPost2010PropOp42
 70
     1
102
RTVSPost2010Prop43
 90
        3
102
RTVSPost2010PropOp43
 70
     1
102
RTVSPost2010Prop44ColorIndex
 90
        5
102
RTVSPost2010Prop44ColorRGB
 90
      255
102
RTVSPost2010PropOp44
 70
     1
102
RTVSPost2010Prop45
280
     0
102
RTVSPost2010PropOp45
 70
     1
102
RTVSPost2010Prop46
 90
       50
102
RTVSPost2010PropOp46
 70
     1
102
RTVSPost2010Prop47
 90
       50
102
RTVSPost2010PropOp47
 70
     1
102
RTVSPost2010Prop48
 90
       50
102
RTVSPost2010PropOp48
 70
     1
102
RTVSPost2010Prop49
280
     0
102
RTVSPost2010PropOp49
 70
     1
102
RTVSPost2010Prop50
 90
       50
102
RTVSPost2010PropOp50
 70
     1
102
RTVSPost2010Prop51ColorIndex
 90
      256
102
RTVSPost2010Prop51ColorRGB
 90
-16777216
102
RTVSPost2010PropOp51
 70
     0
102
RTVSPost2010Prop52
140
1.0
102
RTVSPost2010PropOp52
 70
     0
102
RTVSPost2010Prop53
 90
        2
102
RTVSPost2010PropOp53
 70
     1
102
RTVSPost2010Prop54
  1
strokes_ogs.tif
102
RTVSPost2010PropOp54
 70
     1
102
RTVSPost2010Prop55
280
     0
102
RTVSPost2010PropOp55
 70
     1
102
RTVSPost2010Prop56
140
1.0
102
RTVSPost2010PropOp56
 70
     1
102
RTVSPost2010Prop57
140
1.0
102
RTVSPost2010PropOp57
 70
     1
102
RTVSPropertyOp0
 70
     1
102
RTVSPropertyOp1
 70
     1
102
RTVSPropertyOp2
 70
     1
102
RTVSPropertyOp3
 70
     1
102
RTVSPropertyOp4
 70
     1
102
RTVSPropertyOp5
 70
     1
102
RTVSPropertyOp6
 70
     1
102
RTVSPropertyOp7
 70
     1
102
RTVSPropertyOp8
 70
     1
102
RTVSPropertyOp9
 70
     1
102
RTVSPropertyOp10
 70
     1
102
RTVSPropertyOp11
 70
     1
102
RTVSPropertyOp12
 70
     1
102
RTVSPropertyOp13
 70
     1
102
RTVSPropertyOp14
 70
     1
102
RTVSPropertyOp15
 70
     1
102
RTVSPropertyOp16
 70
     1
102
RTVSPropertyOp17
 70
     1
102
RTVSPropertyOp18
 70
     1
102
RTVSPropertyOp19
 70
     1
102
RTVSPropertyOp20
 70
     1
102
RTVSPropertyOp21
 70
     1
102
RTVSPropertyOp22
 70
     1
102
RTVSPropertyOp23
 70
     1
102
RTVSPropertyOp24
 70
     1
102
RTVSPropertyOp25
 70
     1
102
RTVSPropertyOp26
 70
     1
102
RTVSPropertyOp27
 70
     1
102
RTVSPropertyOp28
 70
     1
102
RTVSPropertyOp29
 70
     1
102
RTVSPropertyOp30
 70
     1
102
RTVSPropertyOp31
 70
     1
102
RTVSPropertyOp32
 70
     1
102
RTVSPropertyOp33
 70
     1
102
RTVSPropertyOp34
 70
     1
102
RTVSPropertyOp35
 70
     1
102
RTVSPropertyOp36
 70
     1
102
RTVSPropertyOp37
 70
     1
102
RTVSPropertyOp38
 70
     1
102
RTVSPropertyOp39
 70
     1
102
RTVSPropertyOp40
 70
     1
102
RTVSPropertyOp41
 70
     1
102
RTVSPropertyOp42
 70
     1
102
RTVSPropertyOp43
 70
     1
102
RTVSPropertyOp44
 70
     1
102
RTVSPropertyOp45
 70
     1
102
RTVSPropertyOp46
 70
     1
102
RTVSPropertyOp47
 70
     1
102
RTVSPropertyOp48
 70
     1
102
RTVSPropertyOp49
 70
     1
102
RTVSPropertyOp50
 70
     1
102
RTVSPropertyOp51
 70
     0
102
RTVSPropertyOp52
 70
     0
102
RTVSPropertyOp53
 70
     1
102
RTVSPropertyOp54
 70
     1
102
RTVSPropertyOp55
 70
     1
102
RTVSPropertyOp56
 70
     1
102
RTVSPropertyOp57
 70
     1
102
RTVSPropertyOp58
 70
     1
102
RTVSPropertyOp59
 70
     1
102
RTVSPropertyOp60
 70
     1
102
RTVSPropertyOp61
 70
     1
102
RTVSPropertyOp62
 70
     1
  0
XRECORD
  5
387
102
{ACAD_REACTORS
330
386
102
}
330
386
100
AcDbXrecord
280
     1
102
RTVSPost2010Prop28
280
     0
102
RTVSPost2010PropOp28
 70
     1
102
RTVSPost2010Prop29
280
     1
102
RTVSPost2010PropOp29
 70
     1
102
RTVSPost2010Prop30
280
     1
102
RTVSPost2010PropOp30
 70
     1
102
RTVSPost2010Prop31
280
     0
102
RTVSPost2010PropOp31
 70
     1
102
RTVSPost2010Prop32
280
     0
102
RTVSPost2010PropOp32
 70
     1
102
RTVSPost2010Prop33
280
     0
102
RTVSPost2010PropOp33
 70
     1
102
RTVSPost2010Prop34
280
     0
102
RTVSPost2010PropOp34
 70
     1
102
RTVSPost2010Prop35
280
     0
102
RTVSPost2010PropOp35
 70
     1
102
RTVSPost2010Prop36
280
     0
102
RTVSPost2010PropOp36
 70
     1
102
RTVSPost2010Prop37
 90
       50
102
RTVSPost2010PropOp37
 70
     1
102
RTVSPost2010Prop38
140
0.0
102
RTVSPost2010PropOp38
 70
     1
102
RTVSPost2010Prop39
140
1.0
102
RTVSPost2010PropOp39
 70
     1
102
RTVSPost2010Prop40
 90
        0
102
RTVSPost2010PropOp40
 70
     1
102
RTVSPost2010Prop41ColorIndex
 90
       18
102
RTVSPost2010Prop41ColorRGB
 90
        0
102
RTVSPost2010PropOp41
 70
     1
102
RTVSPost2010Prop42
 90
       50
102
RTVSPost2010PropOp42
 70
     1
102
RTVSPost2010Prop43
 90
        3
102
RTVSPost2010PropOp43
 70
     1
102
RTVSPost2010Prop44ColorIndex
 90
        5
102
RTVSPost2010Prop44ColorRGB
 90
      255
102
RTVSPost2010PropOp44
 70
     1
102
RTVSPost2010Prop45
280
     0
102
RTVSPost2010PropOp45
 70
     1
102
RTVSPost2010Prop46
 90
       50
102
RTVSPost2010PropOp46
 70
     1
102
RTVSPost2010Prop47
 90
       50
102
RTVSPost2010PropOp47
 70
     1
102
RTVSPost2010Prop48
 90
       50
102
RTVSPost2010PropOp48
 70
     1
102
RTVSPost2010Prop49
280
     0
102
RTVSPost2010PropOp49
 70
     1
102
RTVSPost2010Prop50
 90
       50
102
RTVSPost2010PropOp50
 70
     1
102
RTVSPost2010Prop51ColorIndex
 90
      256
102
RTVSPost2010Prop51ColorRGB
 90
-16777216
102
RTVSPost2010PropOp51
 70
     0
102
RTVSPost2010Prop52
140
1.0
102
RTVSPost2010PropOp52
 70
     0
102
RTVSPost2010Prop53
 90
        2
102
RTVSPost2010PropOp53
 70
     1
102
RTVSPost2010Prop54
  1
strokes_ogs.tif
102
RTVSPost2010PropOp54
 70
     1
102
RTVSPost2010Prop55
280
     0
102
RTVSPost2010PropOp55
 70
     1
102
RTVSPost2010Prop56
140
1.0
102
RTVSPost2010PropOp56
 70
     1
102
RTVSPost2010Prop57
140
1.0
102
RTVSPost2010PropOp57
 70
     1
102
RTVSPropertyOp0
 70
     1
102
RTVSPropertyOp1
 70
     1
102
RTVSPropertyOp2
 70
     1
102
RTVSPropertyOp3
 70
     1
102
RTVSPropertyOp4
 70
     1
102
RTVSPropertyOp5
 70
     1
102
RTVSPropertyOp6
 70
     1
102
RTVSPropertyOp7
 70
     1
102
RTVSPropertyOp8
 70
     1
102
RTVSPropertyOp9
 70
     1
102
RTVSPropertyOp10
 70
     1
102
RTVSPropertyOp11
 70
     1
102
RTVSPropertyOp12
 70
     1
102
RTVSPropertyOp13
 70
     1
102
RTVSPropertyOp14
 70
     1
102
RTVSPropertyOp15
 70
     1
102
RTVSPropertyOp16
 70
     1
102
RTVSPropertyOp17
 70
     1
102
RTVSPropertyOp18
 70
     1
102
RTVSPropertyOp19
 70
     1
102
RTVSPropertyOp20
 70
     1
102
RTVSPropertyOp21
 70
     1
102
RTVSPropertyOp22
 70
     1
102
RTVSPropertyOp23
 70
     1
102
RTVSPropertyOp24
 70
     1
102
RTVSPropertyOp25
 70
     1
102
RTVSPropertyOp26
 70
     1
102
RTVSPropertyOp27
 70
     1
102
RTVSPropertyOp28
 70
     1
102
RTVSPropertyOp29
 70
     1
102
RTVSPropertyOp30
 70
     1
102
RTVSPropertyOp31
 70
     1
102
RTVSPropertyOp32
 70
     1
102
RTVSPropertyOp33
 70
     1
102
RTVSPropertyOp34
 70
     1
102
RTVSPropertyOp35
 70
     1
102
RTVSPropertyOp36
 70
     1
102
RTVSPropertyOp37
 70
     1
102
RTVSPropertyOp38
 70
     1
102
RTVSPropertyOp39
 70
     1
102
RTVSPropertyOp40
 70
     1
102
RTVSPropertyOp41
 70
     1
102
RTVSPropertyOp42
 70
     1
102
RTVSPropertyOp43
 70
     1
102
RTVSPropertyOp44
 70
     1
102
RTVSPropertyOp45
 70
     1
102
RTVSPropertyOp46
 70
     1
102
RTVSPropertyOp47
 70
     1
102
RTVSPropertyOp48
 70
     1
102
RTVSPropertyOp49
 70
     1
102
RTVSPropertyOp50
 70
     1
102
RTVSPropertyOp51
 70
     0
102
RTVSPropertyOp52
 70
     0
102
RTVSPropertyOp53
 70
     1
102
RTVSPropertyOp54
 70
     1
102
RTVSPropertyOp55
 70
     1
102
RTVSPropertyOp56
 70
     1
102
RTVSPropertyOp57
 70
     1
102
RTVSPropertyOp58
 70
     1
102
RTVSPropertyOp59
 70
     1
102
RTVSPropertyOp60
 70
     1
102
RTVSPropertyOp61
 70
     1
102
RTVSPropertyOp62
 70
     1
  0
XRECORD
  5
38F
102
{ACAD_REACTORS
330
38E
102
}
330
38E
100
AcDbXrecord
280
     1
102
RTVSPost2010Prop28
280
     0
102
RTVSPost2010PropOp28
 70
     1
102
RTVSPost2010Prop29
280
     1
102
RTVSPost2010PropOp29
 70
     1
102
RTVSPost2010Prop30
280
     1
102
RTVSPost2010PropOp30
 70
     1
102
RTVSPost2010Prop31
280
     0
102
RTVSPost2010PropOp31
 70
     1
102
RTVSPost2010Prop32
280
     0
102
RTVSPost2010PropOp32
 70
     1
102
RTVSPost2010Prop33
280
     0
102
RTVSPost2010PropOp33
 70
     1
102
RTVSPost2010Prop34
280
     0
102
RTVSPost2010PropOp34
 70
     1
102
RTVSPost2010Prop35
280
     0
102
RTVSPost2010PropOp35
 70
     1
102
RTVSPost2010Prop36
280
     0
102
RTVSPost2010PropOp36
 70
     1
102
RTVSPost2010Prop37
 90
       50
102
RTVSPost2010PropOp37
 70
     1
102
RTVSPost2010Prop38
140
0.0
102
RTVSPost2010PropOp38
 70
     1
102
RTVSPost2010Prop39
140
1.0
102
RTVSPost2010PropOp39
 70
     1
102
RTVSPost2010Prop40
 90
        0
102
RTVSPost2010PropOp40
 70
     1
102
RTVSPost2010Prop41ColorIndex
 90
       18
102
RTVSPost2010Prop41ColorRGB
 90
        0
102
RTVSPost2010PropOp41
 70
     1
102
RTVSPost2010Prop42
 90
       50
102
RTVSPost2010PropOp42
 70
     1
102
RTVSPost2010Prop43
 90
        3
102
RTVSPost2010PropOp43
 70
     1
102
RTVSPost2010Prop44ColorIndex
 90
        5
102
RTVSPost2010Prop44ColorRGB
 90
      255
102
RTVSPost2010PropOp44
 70
     1
102
RTVSPost2010Prop45
280
     0
102
RTVSPost2010PropOp45
 70
     1
102
RTVSPost2010Prop46
 90
       50
102
RTVSPost2010PropOp46
 70
     1
102
RTVSPost2010Prop47
 90
       50
102
RTVSPost2010PropOp47
 70
     1
102
RTVSPost2010Prop48
 90
       50
102
RTVSPost2010PropOp48
 70
     1
102
RTVSPost2010Prop49
280
     0
102
RTVSPost2010PropOp49
 70
     1
102
RTVSPost2010Prop50
 90
       50
102
RTVSPost2010PropOp50
 70
     1
102
RTVSPost2010Prop51ColorIndex
 90
      256
102
RTVSPost2010Prop51ColorRGB
 90
-16777216
102
RTVSPost2010PropOp51
 70
     0
102
RTVSPost2010Prop52
140
1.0
102
RTVSPost2010PropOp52
 70
     0
102
RTVSPost2010Prop53
 90
        2
102
RTVSPost2010PropOp53
 70
     1
102
RTVSPost2010Prop54
  1
strokes_ogs.tif
102
RTVSPost2010PropOp54
 70
     1
102
RTVSPost2010Prop55
280
     0
102
RTVSPost2010PropOp55
 70
     1
102
RTVSPost2010Prop56
140
1.0
102
RTVSPost2010PropOp56
 70
     1
102
RTVSPost2010Prop57
140
1.0
102
RTVSPost2010PropOp57
 70
     1
102
RTVSPropertyOp0
 70
     1
102
RTVSPropertyOp1
 70
     1
102
RTVSPropertyOp2
 70
     1
102
RTVSPropertyOp3
 70
     1
102
RTVSPropertyOp4
 70
     1
102
RTVSPropertyOp5
 70
     1
102
RTVSPropertyOp6
 70
     1
102
RTVSPropertyOp7
 70
     1
102
RTVSPropertyOp8
 70
     1
102
RTVSPropertyOp9
 70
     1
102
RTVSPropertyOp10
 70
     1
102
RTVSPropertyOp11
 70
     1
102
RTVSPropertyOp12
 70
     1
102
RTVSPropertyOp13
 70
     1
102
RTVSPropertyOp14
 70
     1
102
RTVSPropertyOp15
 70
     1
102
RTVSPropertyOp16
 70
     1
102
RTVSPropertyOp17
 70
     1
102
RTVSPropertyOp18
 70
     1
102
RTVSPropertyOp19
 70
     1
102
RTVSPropertyOp20
 70
     1
102
RTVSPropertyOp21
 70
     1
102
RTVSPropertyOp22
 70
     1
102
RTVSPropertyOp23
 70
     1
102
RTVSPropertyOp24
 70
     1
102
RTVSPropertyOp25
 70
     1
102
RTVSPropertyOp26
 70
     1
102
RTVSPropertyOp27
 70
     1
102
RTVSPropertyOp28
 70
     1
102
RTVSPropertyOp29
 70
     1
102
RTVSPropertyOp30
 70
     1
102
RTVSPropertyOp31
 70
     1
102
RTVSPropertyOp32
 70
     1
102
RTVSPropertyOp33
 70
     1
102
RTVSPropertyOp34
 70
     1
102
RTVSPropertyOp35
 70
     1
102
RTVSPropertyOp36
 70
     1
102
RTVSPropertyOp37
 70
     1
102
RTVSPropertyOp38
 70
     1
102
RTVSPropertyOp39
 70
     1
102
RTVSPropertyOp40
 70
     1
102
RTVSPropertyOp41
 70
     1
102
RTVSPropertyOp42
 70
     1
102
RTVSPropertyOp43
 70
     1
102
RTVSPropertyOp44
 70
     1
102
RTVSPropertyOp45
 70
     1
102
RTVSPropertyOp46
 70
     1
102
RTVSPropertyOp47
 70
     1
102
RTVSPropertyOp48
 70
     1
102
RTVSPropertyOp49
 70
     1
102
RTVSPropertyOp50
 70
     1
102
RTVSPropertyOp51
 70
     0
102
RTVSPropertyOp52
 70
     0
102
RTVSPropertyOp53
 70
     1
102
RTVSPropertyOp54
 70
     1
102
RTVSPropertyOp55
 70
     1
102
RTVSPropertyOp56
 70
     1
102
RTVSPropertyOp57
 70
     1
102
RTVSPropertyOp58
 70
     1
102
RTVSPropertyOp59
 70
     1
102
RTVSPropertyOp60
 70
     1
102
RTVSPropertyOp61
 70
     1
102
RTVSPropertyOp62
 70
     1
  0
XRECORD
  5
383
102
{ACAD_REACTORS
330
382
102
}
330
382
100
AcDbXrecord
280
     1
102
RTVSPost2010Prop28
280
     0
102
RTVSPost2010PropOp28
 70
     1
102
RTVSPost2010Prop29
280
     1
102
RTVSPost2010PropOp29
 70
     1
102
RTVSPost2010Prop30
280
     1
102
RTVSPost2010PropOp30
 70
     1
102
RTVSPost2010Prop31
280
     0
102
RTVSPost2010PropOp31
 70
     1
102
RTVSPost2010Prop32
280
     0
102
RTVSPost2010PropOp32
 70
     1
102
RTVSPost2010Prop33
280
     0
102
RTVSPost2010PropOp33
 70
     1
102
RTVSPost2010Prop34
280
     0
102
RTVSPost2010PropOp34
 70
     1
102
RTVSPost2010Prop35
280
     0
102
RTVSPost2010PropOp35
 70
     1
102
RTVSPost2010Prop36
280
     0
102
RTVSPost2010PropOp36
 70
     1
102
RTVSPost2010Prop37
 90
       50
102
RTVSPost2010PropOp37
 70
     1
102
RTVSPost2010Prop38
140
0.0
102
RTVSPost2010PropOp38
 70
     1
102
RTVSPost2010Prop39
140
1.0
102
RTVSPost2010PropOp39
 70
     1
102
RTVSPost2010Prop40
 90
        0
102
RTVSPost2010PropOp40
 70
     1
102
RTVSPost2010Prop41ColorIndex
 90
       18
102
RTVSPost2010Prop41ColorRGB
 90
        0
102
RTVSPost2010PropOp41
 70
     1
102
RTVSPost2010Prop42
 90
       50
102
RTVSPost2010PropOp42
 70
     1
102
RTVSPost2010Prop43
 90
        3
102
RTVSPost2010PropOp43
 70
     1
102
RTVSPost2010Prop44ColorIndex
 90
        5
102
RTVSPost2010Prop44ColorRGB
 90
      255
102
RTVSPost2010PropOp44
 70
     1
102
RTVSPost2010Prop45
280
     0
102
RTVSPost2010PropOp45
 70
     1
102
RTVSPost2010Prop46
 90
       50
102
RTVSPost2010PropOp46
 70
     1
102
RTVSPost2010Prop47
 90
       50
102
RTVSPost2010PropOp47
 70
     1
102
RTVSPost2010Prop48
 90
       50
102
RTVSPost2010PropOp48
 70
     1
102
RTVSPost2010Prop49
280
     0
102
RTVSPost2010PropOp49
 70
     1
102
RTVSPost2010Prop50
 90
       50
102
RTVSPost2010PropOp50
 70
     1
102
RTVSPost2010Prop51ColorIndex
 90
      256
102
RTVSPost2010Prop51ColorRGB
 90
-16777216
102
RTVSPost2010PropOp51
 70
     0
102
RTVSPost2010Prop52
140
1.0
102
RTVSPost2010PropOp52
 70
     0
102
RTVSPost2010Prop53
 90
        2
102
RTVSPost2010PropOp53
 70
     1
102
RTVSPost2010Prop54
  1
strokes_ogs.tif
102
RTVSPost2010PropOp54
 70
     1
102
RTVSPost2010Prop55
280
     0
102
RTVSPost2010PropOp55
 70
     1
102
RTVSPost2010Prop56
140
1.0
102
RTVSPost2010PropOp56
 70
     1
102
RTVSPost2010Prop57
140
1.0
102
RTVSPost2010PropOp57
 70
     1
102
RTVSPropertyOp0
 70
     1
102
RTVSPropertyOp1
 70
     1
102
RTVSPropertyOp2
 70
     1
102
RTVSPropertyOp3
 70
     1
102
RTVSPropertyOp4
 70
     1
102
RTVSPropertyOp5
 70
     1
102
RTVSPropertyOp6
 70
     1
102
RTVSPropertyOp7
 70
     1
102
RTVSPropertyOp8
 70
     1
102
RTVSPropertyOp9
 70
     1
102
RTVSPropertyOp10
 70
     1
102
RTVSPropertyOp11
 70
     1
102
RTVSPropertyOp12
 70
     1
102
RTVSPropertyOp13
 70
     1
102
RTVSPropertyOp14
 70
     1
102
RTVSPropertyOp15
 70
     1
102
RTVSPropertyOp16
 70
     1
102
RTVSPropertyOp17
 70
     1
102
RTVSPropertyOp18
 70
     1
102
RTVSPropertyOp19
 70
     1
102
RTVSPropertyOp20
 70
     1
102
RTVSPropertyOp21
 70
     1
102
RTVSPropertyOp22
 70
     1
102
RTVSPropertyOp23
 70
     1
102
RTVSPropertyOp24
 70
     1
102
RTVSPropertyOp25
 70
     1
102
RTVSPropertyOp26
 70
     1
102
RTVSPropertyOp27
 70
     1
102
RTVSPropertyOp28
 70
     1
102
RTVSPropertyOp29
 70
     1
102
RTVSPropertyOp30
 70
     1
102
RTVSPropertyOp31
 70
     1
102
RTVSPropertyOp32
 70
     1
102
RTVSPropertyOp33
 70
     1
102
RTVSPropertyOp34
 70
     1
102
RTVSPropertyOp35
 70
     1
102
RTVSPropertyOp36
 70
     1
102
RTVSPropertyOp37
 70
     1
102
RTVSPropertyOp38
 70
     1
102
RTVSPropertyOp39
 70
     1
102
RTVSPropertyOp40
 70
     1
102
RTVSPropertyOp41
 70
     1
102
RTVSPropertyOp42
 70
     1
102
RTVSPropertyOp43
 70
     1
102
RTVSPropertyOp44
 70
     1
102
RTVSPropertyOp45
 70
     1
102
RTVSPropertyOp46
 70
     1
102
RTVSPropertyOp47
 70
     1
102
RTVSPropertyOp48
 70
     1
102
RTVSPropertyOp49
 70
     1
102
RTVSPropertyOp50
 70
     1
102
RTVSPropertyOp51
 70
     0
102
RTVSPropertyOp52
 70
     0
102
RTVSPropertyOp53
 70
     1
102
RTVSPropertyOp54
 70
     1
102
RTVSPropertyOp55
 70
     1
102
RTVSPropertyOp56
 70
     1
102
RTVSPropertyOp57
 70
     1
102
RTVSPropertyOp58
 70
     1
102
RTVSPropertyOp59
 70
     1
102
RTVSPropertyOp60
 70
     1
102
RTVSPropertyOp61
 70
     1
102
RTVSPropertyOp62
 70
     1
  0
XRECORD
  5
385
102
{ACAD_REACTORS
330
384
102
}
330
384
100
AcDbXrecord
280
     1
102
RTVSPost2010Prop28
280
     0
102
RTVSPost2010PropOp28
 70
     1
102
RTVSPost2010Prop29
280
     1
102
RTVSPost2010PropOp29
 70
     1
102
RTVSPost2010Prop30
280
     1
102
RTVSPost2010PropOp30
 70
     1
102
RTVSPost2010Prop31
280
     0
102
RTVSPost2010PropOp31
 70
     1
102
RTVSPost2010Prop32
280
     0
102
RTVSPost2010PropOp32
 70
     1
102
RTVSPost2010Prop33
280
     0
102
RTVSPost2010PropOp33
 70
     1
102
RTVSPost2010Prop34
280
     0
102
RTVSPost2010PropOp34
 70
     1
102
RTVSPost2010Prop35
280
     0
102
RTVSPost2010PropOp35
 70
     1
102
RTVSPost2010Prop36
280
     0
102
RTVSPost2010PropOp36
 70
     1
102
RTVSPost2010Prop37
 90
       50
102
RTVSPost2010PropOp37
 70
     1
102
RTVSPost2010Prop38
140
0.0
102
RTVSPost2010PropOp38
 70
     1
102
RTVSPost2010Prop39
140
1.0
102
RTVSPost2010PropOp39
 70
     1
102
RTVSPost2010Prop40
 90
        0
102
RTVSPost2010PropOp40
 70
     1
102
RTVSPost2010Prop41ColorIndex
 90
       18
102
RTVSPost2010Prop41ColorRGB
 90
        0
102
RTVSPost2010PropOp41
 70
     1
102
RTVSPost2010Prop42
 90
       50
102
RTVSPost2010PropOp42
 70
     1
102
RTVSPost2010Prop43
 90
        3
102
RTVSPost2010PropOp43
 70
     1
102
RTVSPost2010Prop44ColorIndex
 90
        5
102
RTVSPost2010Prop44ColorRGB
 90
      255
102
RTVSPost2010PropOp44
 70
     1
102
RTVSPost2010Prop45
280
     0
102
RTVSPost2010PropOp45
 70
     1
102
RTVSPost2010Prop46
 90
       50
102
RTVSPost2010PropOp46
 70
     1
102
RTVSPost2010Prop47
 90
       50
102
RTVSPost2010PropOp47
 70
     1
102
RTVSPost2010Prop48
 90
       50
102
RTVSPost2010PropOp48
 70
     1
102
RTVSPost2010Prop49
280
     0
102
RTVSPost2010PropOp49
 70
     1
102
RTVSPost2010Prop50
 90
       50
102
RTVSPost2010PropOp50
 70
     1
102
RTVSPost2010Prop51ColorIndex
 90
      256
102
RTVSPost2010Prop51ColorRGB
 90
-16777216
102
RTVSPost2010PropOp51
 70
     0
102
RTVSPost2010Prop52
140
1.0
102
RTVSPost2010PropOp52
 70
     0
102
RTVSPost2010Prop53
 90
        2
102
RTVSPost2010PropOp53
 70
     1
102
RTVSPost2010Prop54
  1
strokes_ogs.tif
102
RTVSPost2010PropOp54
 70
     1
102
RTVSPost2010Prop55
280
     0
102
RTVSPost2010PropOp55
 70
     1
102
RTVSPost2010Prop56
140
1.0
102
RTVSPost2010PropOp56
 70
     1
102
RTVSPost2010Prop57
140
1.0
102
RTVSPost2010PropOp57
 70
     1
102
RTVSPropertyOp0
 70
     1
102
RTVSPropertyOp1
 70
     1
102
RTVSPropertyOp2
 70
     1
102
RTVSPropertyOp3
 70
     1
102
RTVSPropertyOp4
 70
     1
102
RTVSPropertyOp5
 70
     1
102
RTVSPropertyOp6
 70
     1
102
RTVSPropertyOp7
 70
     1
102
RTVSPropertyOp8
 70
     1
102
RTVSPropertyOp9
 70
     1
102
RTVSPropertyOp10
 70
     1
102
RTVSPropertyOp11
 70
     1
102
RTVSPropertyOp12
 70
     1
102
RTVSPropertyOp13
 70
     1
102
RTVSPropertyOp14
 70
     1
102
RTVSPropertyOp15
 70
     1
102
RTVSPropertyOp16
 70
     1
102
RTVSPropertyOp17
 70
     1
102
RTVSPropertyOp18
 70
     1
102
RTVSPropertyOp19
 70
     1
102
RTVSPropertyOp20
 70
     1
102
RTVSPropertyOp21
 70
     1
102
RTVSPropertyOp22
 70
     1
102
RTVSPropertyOp23
 70
     1
102
RTVSPropertyOp24
 70
     1
102
RTVSPropertyOp25
 70
     1
102
RTVSPropertyOp26
 70
     1
102
RTVSPropertyOp27
 70
     1
102
RTVSPropertyOp28
 70
     1
102
RTVSPropertyOp29
 70
     1
102
RTVSPropertyOp30
 70
     1
102
RTVSPropertyOp31
 70
     1
102
RTVSPropertyOp32
 70
     1
102
RTVSPropertyOp33
 70
     1
102
RTVSPropertyOp34
 70
     1
102
RTVSPropertyOp35
 70
     1
102
RTVSPropertyOp36
 70
     1
102
RTVSPropertyOp37
 70
     1
102
RTVSPropertyOp38
 70
     1
102
RTVSPropertyOp39
 70
     1
102
RTVSPropertyOp40
 70
     1
102
RTVSPropertyOp41
 70
     1
102
RTVSPropertyOp42
 70
     1
102
RTVSPropertyOp43
 70
     1
102
RTVSPropertyOp44
 70
     1
102
RTVSPropertyOp45
 70
     1
102
RTVSPropertyOp46
 70
     1
102
RTVSPropertyOp47
 70
     1
102
RTVSPropertyOp48
 70
     1
102
RTVSPropertyOp49
 70
     1
102
RTVSPropertyOp50
 70
     1
102
RTVSPropertyOp51
 70
     0
102
RTVSPropertyOp52
 70
     0
102
RTVSPropertyOp53
 70
     1
102
RTVSPropertyOp54
 70
     1
102
RTVSPropertyOp55
 70
     1
102
RTVSPropertyOp56
 70
     1
102
RTVSPropertyOp57
 70
     1
102
RTVSPropertyOp58
 70
     1
102
RTVSPropertyOp59
 70
     1
102
RTVSPropertyOp60
 70
     1
102
RTVSPropertyOp61
 70
     1
102
RTVSPropertyOp62
 70
     1
  0
XRECORD
  5
395
102
{ACAD_REACTORS
330
394
102
}
330
394
100
AcDbXrecord
280
     1
102
RTVSPost2010Prop28
280
     0
102
RTVSPost2010PropOp28
 70
     0
102
RTVSPost2010Prop29
280
     1
102
RTVSPost2010PropOp29
 70
     0
102
RTVSPost2010Prop30
280
     1
102
RTVSPost2010PropOp30
 70
     0
102
RTVSPost2010Prop31
280
     0
102
RTVSPost2010PropOp31
 70
     0
102
RTVSPost2010Prop32
280
     0
102
RTVSPost2010PropOp32
 70
     0
102
RTVSPost2010Prop33
280
     0
102
RTVSPost2010PropOp33
 70
     0
102
RTVSPost2010Prop34
280
     0
102
RTVSPost2010PropOp34
 70
     0
102
RTVSPost2010Prop35
280
     0
102
RTVSPost2010PropOp35
 70
     0
102
RTVSPost2010Prop36
280
     0
102
RTVSPost2010PropOp36
 70
     0
102
RTVSPost2010Prop37
 90
       50
102
RTVSPost2010PropOp37
 70
     0
102
RTVSPost2010Prop38
140
0.0
102
RTVSPost2010PropOp38
 70
     0
102
RTVSPost2010Prop39
140
1.0
102
RTVSPost2010PropOp39
 70
     0
102
RTVSPost2010Prop40
 90
        0
102
RTVSPost2010PropOp40
 70
     0
102
RTVSPost2010Prop41ColorIndex
 90
       18
102
RTVSPost2010Prop41ColorRGB
 90
        0
102
RTVSPost2010PropOp41
 70
     0
102
RTVSPost2010Prop42
 90
       50
102
RTVSPost2010PropOp42
 70
     0
102
RTVSPost2010Prop43
 90
        3
102
RTVSPost2010PropOp43
 70
     0
102
RTVSPost2010Prop44ColorIndex
 90
        5
102
RTVSPost2010Prop44ColorRGB
 90
      255
102
RTVSPost2010PropOp44
 70
     0
102
RTVSPost2010Prop45
280
     0
102
RTVSPost2010PropOp45
 70
     0
102
RTVSPost2010Prop46
 90
       50
102
RTVSPost2010PropOp46
 70
     0
102
RTVSPost2010Prop47
 90
       50
102
RTVSPost2010PropOp47
 70
     0
102
RTVSPost2010Prop48
 90
       50
102
RTVSPost2010PropOp48
 70
     0
102
RTVSPost2010Prop49
280
     0
102
RTVSPost2010PropOp49
 70
     0
102
RTVSPost2010Prop50
 90
       50
102
RTVSPost2010PropOp50
 70
     0
102
RTVSPost2010Prop51ColorIndex
 90
      256
102
RTVSPost2010Prop51ColorRGB
 90
-16777216
102
RTVSPost2010PropOp51
 70
     0
102
RTVSPost2010Prop52
140
1.0
102
RTVSPost2010PropOp52
 70
     0
102
RTVSPost2010Prop53
 90
        2
102
RTVSPost2010PropOp53
 70
     0
102
RTVSPost2010Prop54
  1
strokes_ogs.tif
102
RTVSPost2010PropOp54
 70
     0
102
RTVSPost2010Prop55
280
     0
102
RTVSPost2010PropOp55
 70
     0
102
RTVSPost2010Prop56
140
1.0
102
RTVSPost2010PropOp56
 70
     0
102
RTVSPost2010Prop57
140
1.0
102
RTVSPost2010PropOp57
 70
     0
102
RTVSPropertyOp0
 70
     0
102
RTVSPropertyOp1
 70
     0
102
RTVSPropertyOp2
 70
     0
102
RTVSPropertyOp3
 70
     0
102
RTVSPropertyOp4
 70
     0
102
RTVSPropertyOp5
 70
     0
102
RTVSPropertyOp6
 70
     0
102
RTVSPropertyOp7
 70
     0
102
RTVSPropertyOp8
 70
     0
102
RTVSPropertyOp9
 70
     0
102
RTVSPropertyOp10
 70
     0
102
RTVSPropertyOp11
 70
     0
102
RTVSPropertyOp12
 70
     0
102
RTVSPropertyOp13
 70
     0
102
RTVSPropertyOp14
 70
     2
102
RTVSPropertyOp15
 70
     0
102
RTVSPropertyOp16
 70
     0
102
RTVSPropertyOp17
 70
     0
102
RTVSPropertyOp18
 70
     0
102
RTVSPropertyOp19
 70
     0
102
RTVSPropertyOp20
 70
     0
102
RTVSPropertyOp21
 70
     0
102
RTVSPropertyOp22
 70
     0
102
RTVSPropertyOp23
 70
     0
102
RTVSPropertyOp24
 70
     0
102
RTVSPropertyOp25
 70
     0
102
RTVSPropertyOp26
 70
     0
102
RTVSPropertyOp27
 70
     0
102
RTVSPropertyOp28
 70
     0
102
RTVSPropertyOp29
 70
     0
102
RTVSPropertyOp30
 70
     0
102
RTVSPropertyOp31
 70
     0
102
RTVSPropertyOp32
 70
     0
102
RTVSPropertyOp33
 70
     0
102
RTVSPropertyOp34
 70
     0
102
RTVSPropertyOp35
 70
     0
102
RTVSPropertyOp36
 70
     0
102
RTVSPropertyOp37
 70
     0
102
RTVSPropertyOp38
 70
     0
102
RTVSPropertyOp39
 70
     0
102
RTVSPropertyOp40
 70
     0
102
RTVSPropertyOp41
 70
     0
102
RTVSPropertyOp42
 70
     0
102
RTVSPropertyOp43
 70
     0
102
RTVSPropertyOp44
 70
     0
102
RTVSPropertyOp45
 70
     0
102
RTVSPropertyOp46
 70
     0
102
RTVSPropertyOp47
 70
     0
102
RTVSPropertyOp48
 70
     0
102
RTVSPropertyOp49
 70
     0
102
RTVSPropertyOp50
 70
     0
102
RTVSPropertyOp51
 70
     0
102
RTVSPropertyOp52
 70
     0
102
RTVSPropertyOp53
 70
     0
102
RTVSPropertyOp54
 70
     0
102
RTVSPropertyOp55
 70
     0
102
RTVSPropertyOp56
 70
     0
102
RTVSPropertyOp57
 70
     0
102
RTVSPropertyOp58
 70
     1
102
RTVSPropertyOp59
 70
     1
102
RTVSPropertyOp60
 70
     1
102
RTVSPropertyOp61
 70
     1
102
RTVSPropertyOp62
 70
     1
  0
XRECORD
  5
38D
102
{ACAD_REACTORS
330
38C
102
}
330
38C
100
AcDbXrecord
280
     1
102
RTVSPost2010Prop28
280
     0
102
RTVSPost2010PropOp28
 70
     1
102
RTVSPost2010Prop29
280
     1
102
RTVSPost2010PropOp29
 70
     1
102
RTVSPost2010Prop30
280
     1
102
RTVSPost2010PropOp30
 70
     1
102
RTVSPost2010Prop31
280
     0
102
RTVSPost2010PropOp31
 70
     1
102
RTVSPost2010Prop32
280
     0
102
RTVSPost2010PropOp32
 70
     1
102
RTVSPost2010Prop33
280
     0
102
RTVSPost2010PropOp33
 70
     1
102
RTVSPost2010Prop34
280
     0
102
RTVSPost2010PropOp34
 70
     1
102
RTVSPost2010Prop35
280
     0
102
RTVSPost2010PropOp35
 70
     1
102
RTVSPost2010Prop36
280
     0
102
RTVSPost2010PropOp36
 70
     1
102
RTVSPost2010Prop37
 90
       50
102
RTVSPost2010PropOp37
 70
     1
102
RTVSPost2010Prop38
140
0.0
102
RTVSPost2010PropOp38
 70
     1
102
RTVSPost2010Prop39
140
1.0
102
RTVSPost2010PropOp39
 70
     1
102
RTVSPost2010Prop40
 90
        0
102
RTVSPost2010PropOp40
 70
     1
102
RTVSPost2010Prop41ColorIndex
 90
       18
102
RTVSPost2010Prop41ColorRGB
 90
        0
102
RTVSPost2010PropOp41
 70
     1
102
RTVSPost2010Prop42
 90
       50
102
RTVSPost2010PropOp42
 70
     1
102
RTVSPost2010Prop43
 90
        3
102
RTVSPost2010PropOp43
 70
     1
102
RTVSPost2010Prop44ColorIndex
 90
        5
102
RTVSPost2010Prop44ColorRGB
 90
      255
102
RTVSPost2010PropOp44
 70
     1
102
RTVSPost2010Prop45
280
     0
102
RTVSPost2010PropOp45
 70
     1
102
RTVSPost2010Prop46
 90
       50
102
RTVSPost2010PropOp46
 70
     1
102
RTVSPost2010Prop47
 90
       50
102
RTVSPost2010PropOp47
 70
     1
102
RTVSPost2010Prop48
 90
       50
102
RTVSPost2010PropOp48
 70
     1
102
RTVSPost2010Prop49
280
     0
102
RTVSPost2010PropOp49
 70
     1
102
RTVSPost2010Prop50
 90
       50
102
RTVSPost2010PropOp50
 70
     1
102
RTVSPost2010Prop51ColorIndex
 90
      256
102
RTVSPost2010Prop51ColorRGB
 90
-16777216
102
RTVSPost2010PropOp51
 70
     0
102
RTVSPost2010Prop52
140
1.0
102
RTVSPost2010PropOp52
 70
     0
102
RTVSPost2010Prop53
 90
        2
102
RTVSPost2010PropOp53
 70
     1
102
RTVSPost2010Prop54
  1
strokes_ogs.tif
102
RTVSPost2010PropOp54
 70
     1
102
RTVSPost2010Prop55
280
     0
102
RTVSPost2010PropOp55
 70
     1
102
RTVSPost2010Prop56
140
1.0
102
RTVSPost2010PropOp56
 70
     1
102
RTVSPost2010Prop57
140
1.0
102
RTVSPost2010PropOp57
 70
     1
102
RTVSPropertyOp0
 70
     1
102
RTVSPropertyOp1
 70
     1
102
RTVSPropertyOp2
 70
     1
102
RTVSPropertyOp3
 70
     1
102
RTVSPropertyOp4
 70
     1
102
RTVSPropertyOp5
 70
     1
102
RTVSPropertyOp6
 70
     1
102
RTVSPropertyOp7
 70
     1
102
RTVSPropertyOp8
 70
     1
102
RTVSPropertyOp9
 70
     1
102
RTVSPropertyOp10
 70
     1
102
RTVSPropertyOp11
 70
     1
102
RTVSPropertyOp12
 70
     1
102
RTVSPropertyOp13
 70
     1
102
RTVSPropertyOp14
 70
     1
102
RTVSPropertyOp15
 70
     1
102
RTVSPropertyOp16
 70
     1
102
RTVSPropertyOp17
 70
     1
102
RTVSPropertyOp18
 70
     1
102
RTVSPropertyOp19
 70
     1
102
RTVSPropertyOp20
 70
     1
102
RTVSPropertyOp21
 70
     1
102
RTVSPropertyOp22
 70
     1
102
RTVSPropertyOp23
 70
     1
102
RTVSPropertyOp24
 70
     1
102
RTVSPropertyOp25
 70
     1
102
RTVSPropertyOp26
 70
     1
102
RTVSPropertyOp27
 70
     1
102
RTVSPropertyOp28
 70
     1
102
RTVSPropertyOp29
 70
     1
102
RTVSPropertyOp30
 70
     1
102
RTVSPropertyOp31
 70
     1
102
RTVSPropertyOp32
 70
     1
102
RTVSPropertyOp33
 70
     1
102
RTVSPropertyOp34
 70
     1
102
RTVSPropertyOp35
 70
     1
102
RTVSPropertyOp36
 70
     1
102
RTVSPropertyOp37
 70
     1
102
RTVSPropertyOp38
 70
     1
102
RTVSPropertyOp39
 70
     1
102
RTVSPropertyOp40
 70
     1
102
RTVSPropertyOp41
 70
     1
102
RTVSPropertyOp42
 70
     1
102
RTVSPropertyOp43
 70
     1
102
RTVSPropertyOp44
 70
     1
102
RTVSPropertyOp45
 70
     1
102
RTVSPropertyOp46
 70
     1
102
RTVSPropertyOp47
 70
     1
102
RTVSPropertyOp48
 70
     1
102
RTVSPropertyOp49
 70
     1
102
RTVSPropertyOp50
 70
     1
102
RTVSPropertyOp51
 70
     0
102
RTVSPropertyOp52
 70
     0
102
RTVSPropertyOp53
 70
     1
102
RTVSPropertyOp54
 70
     1
102
RTVSPropertyOp55
 70
     1
102
RTVSPropertyOp56
 70
     1
102
RTVSPropertyOp57
 70
     1
102
RTVSPropertyOp58
 70
     1
102
RTVSPropertyOp59
 70
     1
102
RTVSPropertyOp60
 70
     1
102
RTVSPropertyOp61
 70
     1
102
RTVSPropertyOp62
 70
     1
  0
XRECORD
  5
371
102
{ACAD_REACTORS
330
370
102
}
330
370
100
AcDbXrecord
280
     1
102
RTVSPost2010Prop28
280
     0
102
RTVSPost2010PropOp28
 70
     1
102
RTVSPost2010Prop29
280
     1
102
RTVSPost2010PropOp29
 70
     1
102
RTVSPost2010Prop30
280
     1
102
RTVSPost2010PropOp30
 70
     1
102
RTVSPost2010Prop31
280
     0
102
RTVSPost2010PropOp31
 70
     1
102
RTVSPost2010Prop32
280
     0
102
RTVSPost2010PropOp32
 70
     1
102
RTVSPost2010Prop33
280
     0
102
RTVSPost2010PropOp33
 70
     1
102
RTVSPost2010Prop34
280
     0
102
RTVSPost2010PropOp34
 70
     1
102
RTVSPost2010Prop35
280
     0
102
RTVSPost2010PropOp35
 70
     1
102
RTVSPost2010Prop36
280
     0
102
RTVSPost2010PropOp36
 70
     1
102
RTVSPost2010Prop37
 90
       50
102
RTVSPost2010PropOp37
 70
     1
102
RTVSPost2010Prop38
140
0.0
102
RTVSPost2010PropOp38
 70
     1
102
RTVSPost2010Prop39
140
1.0
102
RTVSPost2010PropOp39
 70
     1
102
RTVSPost2010Prop40
 90
        0
102
RTVSPost2010PropOp40
 70
     1
102
RTVSPost2010Prop41ColorIndex
 90
       18
102
RTVSPost2010Prop41ColorRGB
 90
        0
102
RTVSPost2010PropOp41
 70
     1
102
RTVSPost2010Prop42
 90
       50
102
RTVSPost2010PropOp42
 70
     1
102
RTVSPost2010Prop43
 90
        3
102
RTVSPost2010PropOp43
 70
     1
102
RTVSPost2010Prop44ColorIndex
 90
        5
102
RTVSPost2010Prop44ColorRGB
 90
      255
102
RTVSPost2010PropOp44
 70
     1
102
RTVSPost2010Prop45
280
     0
102
RTVSPost2010PropOp45
 70
     1
102
RTVSPost2010Prop46
 90
       50
102
RTVSPost2010PropOp46
 70
     1
102
RTVSPost2010Prop47
 90
       50
102
RTVSPost2010PropOp47
 70
     1
102
RTVSPost2010Prop48
 90
       50
102
RTVSPost2010PropOp48
 70
     1
102
RTVSPost2010Prop49
280
     0
102
RTVSPost2010PropOp49
 70
     1
102
RTVSPost2010Prop50
 90
       50
102
RTVSPost2010PropOp50
 70
     1
102
RTVSPost2010Prop51ColorIndex
 90
      256
102
RTVSPost2010Prop51ColorRGB
 90
-16777216
102
RTVSPost2010PropOp51
 70
     0
102
RTVSPost2010Prop52
140
1.0
102
RTVSPost2010PropOp52
 70
     0
102
RTVSPost2010Prop53
 90
        2
102
RTVSPost2010PropOp53
 70
     1
102
RTVSPost2010Prop54
  1
strokes_ogs.tif
102
RTVSPost2010PropOp54
 70
     1
102
RTVSPost2010Prop55
280
     0
102
RTVSPost2010PropOp55
 70
     1
102
RTVSPost2010Prop56
140
1.0
102
RTVSPost2010PropOp56
 70
     1
102
RTVSPost2010Prop57
140
1.0
102
RTVSPost2010PropOp57
 70
     1
102
RTVSPropertyOp0
 70
     1
102
RTVSPropertyOp1
 70
     1
102
RTVSPropertyOp2
 70
     1
102
RTVSPropertyOp3
 70
     1
102
RTVSPropertyOp4
 70
     1
102
RTVSPropertyOp5
 70
     1
102
RTVSPropertyOp6
 70
     1
102
RTVSPropertyOp7
 70
     1
102
RTVSPropertyOp8
 70
     1
102
RTVSPropertyOp9
 70
     1
102
RTVSPropertyOp10
 70
     1
102
RTVSPropertyOp11
 70
     1
102
RTVSPropertyOp12
 70
     1
102
RTVSPropertyOp13
 70
     1
102
RTVSPropertyOp14
 70
     1
102
RTVSPropertyOp15
 70
     1
102
RTVSPropertyOp16
 70
     1
102
RTVSPropertyOp17
 70
     1
102
RTVSPropertyOp18
 70
     1
102
RTVSPropertyOp19
 70
     1
102
RTVSPropertyOp20
 70
     1
102
RTVSPropertyOp21
 70
     1
102
RTVSPropertyOp22
 70
     1
102
RTVSPropertyOp23
 70
     1
102
RTVSPropertyOp24
 70
     1
102
RTVSPropertyOp25
 70
     1
102
RTVSPropertyOp26
 70
     1
102
RTVSPropertyOp27
 70
     1
102
RTVSPropertyOp28
 70
     1
102
RTVSPropertyOp29
 70
     1
102
RTVSPropertyOp30
 70
     1
102
RTVSPropertyOp31
 70
     1
102
RTVSPropertyOp32
 70
     1
102
RTVSPropertyOp33
 70
     1
102
RTVSPropertyOp34
 70
     1
102
RTVSPropertyOp35
 70
     1
102
RTVSPropertyOp36
 70
     1
102
RTVSPropertyOp37
 70
     1
102
RTVSPropertyOp38
 70
     1
102
RTVSPropertyOp39
 70
     1
102
RTVSPropertyOp40
 70
     1
102
RTVSPropertyOp41
 70
     1
102
RTVSPropertyOp42
 70
     1
102
RTVSPropertyOp43
 70
     1
102
RTVSPropertyOp44
 70
     1
102
RTVSPropertyOp45
 70
     1
102
RTVSPropertyOp46
 70
     1
102
RTVSPropertyOp47
 70
     1
102
RTVSPropertyOp48
 70
     1
102
RTVSPropertyOp49
 70
     1
102
RTVSPropertyOp50
 70
     1
102
RTVSPropertyOp51
 70
     0
102
RTVSPropertyOp52
 70
     0
102
RTVSPropertyOp53
 70
     1
102
RTVSPropertyOp54
 70
     1
102
RTVSPropertyOp55
 70
     1
102
RTVSPropertyOp56
 70
     1
102
RTVSPropertyOp57
 70
     1
102
RTVSPropertyOp58
 70
     1
102
RTVSPropertyOp59
 70
     1
102
RTVSPropertyOp60
 70
     1
102
RTVSPropertyOp61
 70
     1
102
RTVSPropertyOp62
 70
     1
  0
XRECORD
  5
373
102
{ACAD_REACTORS
330
372
102
}
330
372
100
AcDbXrecord
280
     1
102
RTVSPost2010Prop28
280
     0
102
RTVSPost2010PropOp28
 70
     1
102
RTVSPost2010Prop29
280
     1
102
RTVSPost2010PropOp29
 70
     1
102
RTVSPost2010Prop30
280
     1
102
RTVSPost2010PropOp30
 70
     1
102
RTVSPost2010Prop31
280
     0
102
RTVSPost2010PropOp31
 70
     1
102
RTVSPost2010Prop32
280
     0
102
RTVSPost2010PropOp32
 70
     1
102
RTVSPost2010Prop33
280
     0
102
RTVSPost2010PropOp33
 70
     1
102
RTVSPost2010Prop34
280
     0
102
RTVSPost2010PropOp34
 70
     1
102
RTVSPost2010Prop35
280
     0
102
RTVSPost2010PropOp35
 70
     1
102
RTVSPost2010Prop36
280
     0
102
RTVSPost2010PropOp36
 70
     1
102
RTVSPost2010Prop37
 90
       50
102
RTVSPost2010PropOp37
 70
     1
102
RTVSPost2010Prop38
140
0.0
102
RTVSPost2010PropOp38
 70
     1
102
RTVSPost2010Prop39
140
1.0
102
RTVSPost2010PropOp39
 70
     1
102
RTVSPost2010Prop40
 90
        0
102
RTVSPost2010PropOp40
 70
     1
102
RTVSPost2010Prop41ColorIndex
 90
       18
102
RTVSPost2010Prop41ColorRGB
 90
        0
102
RTVSPost2010PropOp41
 70
     1
102
RTVSPost2010Prop42
 90
       50
102
RTVSPost2010PropOp42
 70
     1
102
RTVSPost2010Prop43
 90
        3
102
RTVSPost2010PropOp43
 70
     1
102
RTVSPost2010Prop44ColorIndex
 90
        5
102
RTVSPost2010Prop44ColorRGB
 90
      255
102
RTVSPost2010PropOp44
 70
     1
102
RTVSPost2010Prop45
280
     0
102
RTVSPost2010PropOp45
 70
     1
102
RTVSPost2010Prop46
 90
       50
102
RTVSPost2010PropOp46
 70
     1
102
RTVSPost2010Prop47
 90
       50
102
RTVSPost2010PropOp47
 70
     1
102
RTVSPost2010Prop48
 90
       50
102
RTVSPost2010PropOp48
 70
     1
102
RTVSPost2010Prop49
280
     0
102
RTVSPost2010PropOp49
 70
     1
102
RTVSPost2010Prop50
 90
       50
102
RTVSPost2010PropOp50
 70
     1
102
RTVSPost2010Prop51ColorIndex
 90
      256
102
RTVSPost2010Prop51ColorRGB
 90
-16777216
102
RTVSPost2010PropOp51
 70
     0
102
RTVSPost2010Prop52
140
1.0
102
RTVSPost2010PropOp52
 70
     0
102
RTVSPost2010Prop53
 90
        2
102
RTVSPost2010PropOp53
 70
     1
102
RTVSPost2010Prop54
  1
strokes_ogs.tif
102
RTVSPost2010PropOp54
 70
     1
102
RTVSPost2010Prop55
280
     0
102
RTVSPost2010PropOp55
 70
     1
102
RTVSPost2010Prop56
140
1.0
102
RTVSPost2010PropOp56
 70
     1
102
RTVSPost2010Prop57
140
1.0
102
RTVSPost2010PropOp57
 70
     1
102
RTVSPropertyOp0
 70
     1
102
RTVSPropertyOp1
 70
     1
102
RTVSPropertyOp2
 70
     1
102
RTVSPropertyOp3
 70
     1
102
RTVSPropertyOp4
 70
     1
102
RTVSPropertyOp5
 70
     1
102
RTVSPropertyOp6
 70
     1
102
RTVSPropertyOp7
 70
     1
102
RTVSPropertyOp8
 70
     1
102
RTVSPropertyOp9
 70
     1
102
RTVSPropertyOp10
 70
     1
102
RTVSPropertyOp11
 70
     1
102
RTVSPropertyOp12
 70
     1
102
RTVSPropertyOp13
 70
     1
102
RTVSPropertyOp14
 70
     1
102
RTVSPropertyOp15
 70
     1
102
RTVSPropertyOp16
 70
     1
102
RTVSPropertyOp17
 70
     1
102
RTVSPropertyOp18
 70
     1
102
RTVSPropertyOp19
 70
     1
102
RTVSPropertyOp20
 70
     1
102
RTVSPropertyOp21
 70
     1
102
RTVSPropertyOp22
 70
     1
102
RTVSPropertyOp23
 70
     1
102
RTVSPropertyOp24
 70
     1
102
RTVSPropertyOp25
 70
     1
102
RTVSPropertyOp26
 70
     1
102
RTVSPropertyOp27
 70
     1
102
RTVSPropertyOp28
 70
     1
102
RTVSPropertyOp29
 70
     1
102
RTVSPropertyOp30
 70
     1
102
RTVSPropertyOp31
 70
     1
102
RTVSPropertyOp32
 70
     1
102
RTVSPropertyOp33
 70
     1
102
RTVSPropertyOp34
 70
     1
102
RTVSPropertyOp35
 70
     1
102
RTVSPropertyOp36
 70
     1
102
RTVSPropertyOp37
 70
     1
102
RTVSPropertyOp38
 70
     1
102
RTVSPropertyOp39
 70
     1
102
RTVSPropertyOp40
 70
     1
102
RTVSPropertyOp41
 70
     1
102
RTVSPropertyOp42
 70
     1
102
RTVSPropertyOp43
 70
     1
102
RTVSPropertyOp44
 70
     1
102
RTVSPropertyOp45
 70
     1
102
RTVSPropertyOp46
 70
     1
102
RTVSPropertyOp47
 70
     1
102
RTVSPropertyOp48
 70
     1
102
RTVSPropertyOp49
 70
     1
102
RTVSPropertyOp50
 70
     1
102
RTVSPropertyOp51
 70
     0
102
RTVSPropertyOp52
 70
     0
102
RTVSPropertyOp53
 70
     1
102
RTVSPropertyOp54
 70
     1
102
RTVSPropertyOp55
 70
     1
102
RTVSPropertyOp56
 70
     1
102
RTVSPropertyOp57
 70
     1
102
RTVSPropertyOp58
 70
     1
102
RTVSPropertyOp59
 70
     1
102
RTVSPropertyOp60
 70
     1
102
RTVSPropertyOp61
 70
     1
102
RTVSPropertyOp62
 70
     1
  0
XRECORD
  5
375
102
{ACAD_REACTORS
330
374
102
}
330
374
100
AcDbXrecord
280
     1
102
RTVSPost2010Prop28
280
     0
102
RTVSPost2010PropOp28
 70
     1
102
RTVSPost2010Prop29
280
     1
102
RTVSPost2010PropOp29
 70
     1
102
RTVSPost2010Prop30
280
     1
102
RTVSPost2010PropOp30
 70
     1
102
RTVSPost2010Prop31
280
     0
102
RTVSPost2010PropOp31
 70
     1
102
RTVSPost2010Prop32
280
     0
102
RTVSPost2010PropOp32
 70
     1
102
RTVSPost2010Prop33
280
     0
102
RTVSPost2010PropOp33
 70
     1
102
RTVSPost2010Prop34
280
     0
102
RTVSPost2010PropOp34
 70
     1
102
RTVSPost2010Prop35
280
     0
102
RTVSPost2010PropOp35
 70
     1
102
RTVSPost2010Prop36
280
     0
102
RTVSPost2010PropOp36
 70
     1
102
RTVSPost2010Prop37
 90
       50
102
RTVSPost2010PropOp37
 70
     1
102
RTVSPost2010Prop38
140
0.0
102
RTVSPost2010PropOp38
 70
     1
102
RTVSPost2010Prop39
140
1.0
102
RTVSPost2010PropOp39
 70
     1
102
RTVSPost2010Prop40
 90
        0
102
RTVSPost2010PropOp40
 70
     1
102
RTVSPost2010Prop41ColorIndex
 90
       18
102
RTVSPost2010Prop41ColorRGB
 90
        0
102
RTVSPost2010PropOp41
 70
     1
102
RTVSPost2010Prop42
 90
       50
102
RTVSPost2010PropOp42
 70
     1
102
RTVSPost2010Prop43
 90
        3
102
RTVSPost2010PropOp43
 70
     1
102
RTVSPost2010Prop44ColorIndex
 90
        5
102
RTVSPost2010Prop44ColorRGB
 90
      255
102
RTVSPost2010PropOp44
 70
     1
102
RTVSPost2010Prop45
280
     0
102
RTVSPost2010PropOp45
 70
     1
102
RTVSPost2010Prop46
 90
       50
102
RTVSPost2010PropOp46
 70
     1
102
RTVSPost2010Prop47
 90
       50
102
RTVSPost2010PropOp47
 70
     1
102
RTVSPost2010Prop48
 90
       50
102
RTVSPost2010PropOp48
 70
     1
102
RTVSPost2010Prop49
280
     0
102
RTVSPost2010PropOp49
 70
     1
102
RTVSPost2010Prop50
 90
       50
102
RTVSPost2010PropOp50
 70
     1
102
RTVSPost2010Prop51ColorIndex
 90
      256
102
RTVSPost2010Prop51ColorRGB
 90
-16777216
102
RTVSPost2010PropOp51
 70
     0
102
RTVSPost2010Prop52
140
1.0
102
RTVSPost2010PropOp52
 70
     0
102
RTVSPost2010Prop53
 90
        2
102
RTVSPost2010PropOp53
 70
     1
102
RTVSPost2010Prop54
  1
strokes_ogs.tif
102
RTVSPost2010PropOp54
 70
     1
102
RTVSPost2010Prop55
280
     0
102
RTVSPost2010PropOp55
 70
     1
102
RTVSPost2010Prop56
140
1.0
102
RTVSPost2010PropOp56
 70
     1
102
RTVSPost2010Prop57
140
1.0
102
RTVSPost2010PropOp57
 70
     1
102
RTVSPropertyOp0
 70
     1
102
RTVSPropertyOp1
 70
     1
102
RTVSPropertyOp2
 70
     1
102
RTVSPropertyOp3
 70
     1
102
RTVSPropertyOp4
 70
     1
102
RTVSPropertyOp5
 70
     1
102
RTVSPropertyOp6
 70
     1
102
RTVSPropertyOp7
 70
     1
102
RTVSPropertyOp8
 70
     1
102
RTVSPropertyOp9
 70
     1
102
RTVSPropertyOp10
 70
     1
102
RTVSPropertyOp11
 70
     1
102
RTVSPropertyOp12
 70
     1
102
RTVSPropertyOp13
 70
     1
102
RTVSPropertyOp14
 70
     1
102
RTVSPropertyOp15
 70
     1
102
RTVSPropertyOp16
 70
     1
102
RTVSPropertyOp17
 70
     1
102
RTVSPropertyOp18
 70
     1
102
RTVSPropertyOp19
 70
     1
102
RTVSPropertyOp20
 70
     1
102
RTVSPropertyOp21
 70
     1
102
RTVSPropertyOp22
 70
     1
102
RTVSPropertyOp23
 70
     1
102
RTVSPropertyOp24
 70
     1
102
RTVSPropertyOp25
 70
     1
102
RTVSPropertyOp26
 70
     1
102
RTVSPropertyOp27
 70
     1
102
RTVSPropertyOp28
 70
     1
102
RTVSPropertyOp29
 70
     1
102
RTVSPropertyOp30
 70
     1
102
RTVSPropertyOp31
 70
     1
102
RTVSPropertyOp32
 70
     1
102
RTVSPropertyOp33
 70
     1
102
RTVSPropertyOp34
 70
     1
102
RTVSPropertyOp35
 70
     1
102
RTVSPropertyOp36
 70
     1
102
RTVSPropertyOp37
 70
     1
102
RTVSPropertyOp38
 70
     1
102
RTVSPropertyOp39
 70
     1
102
RTVSPropertyOp40
 70
     1
102
RTVSPropertyOp41
 70
     1
102
RTVSPropertyOp42
 70
     1
102
RTVSPropertyOp43
 70
     1
102
RTVSPropertyOp44
 70
     1
102
RTVSPropertyOp45
 70
     1
102
RTVSPropertyOp46
 70
     1
102
RTVSPropertyOp47
 70
     1
102
RTVSPropertyOp48
 70
     1
102
RTVSPropertyOp49
 70
     1
102
RTVSPropertyOp50
 70
     1
102
RTVSPropertyOp51
 70
     0
102
RTVSPropertyOp52
 70
     0
102
RTVSPropertyOp53
 70
     1
102
RTVSPropertyOp54
 70
     1
102
RTVSPropertyOp55
 70
     1
102
RTVSPropertyOp56
 70
     1
102
RTVSPropertyOp57
 70
     1
102
RTVSPropertyOp58
 70
     1
102
RTVSPropertyOp59
 70
     1
102
RTVSPropertyOp60
 70
     1
102
RTVSPropertyOp61
 70
     1
102
RTVSPropertyOp62
 70
     1
  0
XRECORD
  5
377
102
{ACAD_REACTORS
330
376
102
}
330
376
100
AcDbXrecord
280
     1
102
RTVSPost2010Prop28
280
     0
102
RTVSPost2010PropOp28
 70
     1
102
RTVSPost2010Prop29
280
     1
102
RTVSPost2010PropOp29
 70
     1
102
RTVSPost2010Prop30
280
     1
102
RTVSPost2010PropOp30
 70
     1
102
RTVSPost2010Prop31
280
     0
102
RTVSPost2010PropOp31
 70
     1
102
RTVSPost2010Prop32
280
     0
102
RTVSPost2010PropOp32
 70
     1
102
RTVSPost2010Prop33
280
     0
102
RTVSPost2010PropOp33
 70
     1
102
RTVSPost2010Prop34
280
     0
102
RTVSPost2010PropOp34
 70
     1
102
RTVSPost2010Prop35
280
     0
102
RTVSPost2010PropOp35
 70
     1
102
RTVSPost2010Prop36
280
     0
102
RTVSPost2010PropOp36
 70
     1
102
RTVSPost2010Prop37
 90
       50
102
RTVSPost2010PropOp37
 70
     1
102
RTVSPost2010Prop38
140
0.0
102
RTVSPost2010PropOp38
 70
     1
102
RTVSPost2010Prop39
140
1.0
102
RTVSPost2010PropOp39
 70
     1
102
RTVSPost2010Prop40
 90
        0
102
RTVSPost2010PropOp40
 70
     1
102
RTVSPost2010Prop41ColorIndex
 90
       18
102
RTVSPost2010Prop41ColorRGB
 90
        0
102
RTVSPost2010PropOp41
 70
     1
102
RTVSPost2010Prop42
 90
       50
102
RTVSPost2010PropOp42
 70
     1
102
RTVSPost2010Prop43
 90
        3
102
RTVSPost2010PropOp43
 70
     1
102
RTVSPost2010Prop44ColorIndex
 90
        5
102
RTVSPost2010Prop44ColorRGB
 90
      255
102
RTVSPost2010PropOp44
 70
     1
102
RTVSPost2010Prop45
280
     0
102
RTVSPost2010PropOp45
 70
     1
102
RTVSPost2010Prop46
 90
       50
102
RTVSPost2010PropOp46
 70
     1
102
RTVSPost2010Prop47
 90
       50
102
RTVSPost2010PropOp47
 70
     1
102
RTVSPost2010Prop48
 90
       50
102
RTVSPost2010PropOp48
 70
     1
102
RTVSPost2010Prop49
280
     0
102
RTVSPost2010PropOp49
 70
     1
102
RTVSPost2010Prop50
 90
       50
102
RTVSPost2010PropOp50
 70
     1
102
RTVSPost2010Prop51ColorIndex
 90
      256
102
RTVSPost2010Prop51ColorRGB
 90
-16777216
102
RTVSPost2010PropOp51
 70
     0
102
RTVSPost2010Prop52
140
1.0
102
RTVSPost2010PropOp52
 70
     0
102
RTVSPost2010Prop53
 90
        2
102
RTVSPost2010PropOp53
 70
     1
102
RTVSPost2010Prop54
  1
strokes_ogs.tif
102
RTVSPost2010PropOp54
 70
     1
102
RTVSPost2010Prop55
280
     0
102
RTVSPost2010PropOp55
 70
     1
102
RTVSPost2010Prop56
140
1.0
102
RTVSPost2010PropOp56
 70
     1
102
RTVSPost2010Prop57
140
1.0
102
RTVSPost2010PropOp57
 70
     1
102
RTVSPropertyOp0
 70
     1
102
RTVSPropertyOp1
 70
     1
102
RTVSPropertyOp2
 70
     1
102
RTVSPropertyOp3
 70
     1
102
RTVSPropertyOp4
 70
     1
102
RTVSPropertyOp5
 70
     1
102
RTVSPropertyOp6
 70
     1
102
RTVSPropertyOp7
 70
     1
102
RTVSPropertyOp8
 70
     1
102
RTVSPropertyOp9
 70
     1
102
RTVSPropertyOp10
 70
     1
102
RTVSPropertyOp11
 70
     1
102
RTVSPropertyOp12
 70
     1
102
RTVSPropertyOp13
 70
     1
102
RTVSPropertyOp14
 70
     1
102
RTVSPropertyOp15
 70
     1
102
RTVSPropertyOp16
 70
     1
102
RTVSPropertyOp17
 70
     1
102
RTVSPropertyOp18
 70
     1
102
RTVSPropertyOp19
 70
     1
102
RTVSPropertyOp20
 70
     1
102
RTVSPropertyOp21
 70
     1
102
RTVSPropertyOp22
 70
     1
102
RTVSPropertyOp23
 70
     1
102
RTVSPropertyOp24
 70
     1
102
RTVSPropertyOp25
 70
     1
102
RTVSPropertyOp26
 70
     1
102
RTVSPropertyOp27
 70
     1
102
RTVSPropertyOp28
 70
     1
102
RTVSPropertyOp29
 70
     1
102
RTVSPropertyOp30
 70
     1
102
RTVSPropertyOp31
 70
     1
102
RTVSPropertyOp32
 70
     1
102
RTVSPropertyOp33
 70
     1
102
RTVSPropertyOp34
 70
     1
102
RTVSPropertyOp35
 70
     1
102
RTVSPropertyOp36
 70
     1
102
RTVSPropertyOp37
 70
     1
102
RTVSPropertyOp38
 70
     1
102
RTVSPropertyOp39
 70
     1
102
RTVSPropertyOp40
 70
     1
102
RTVSPropertyOp41
 70
     1
102
RTVSPropertyOp42
 70
     1
102
RTVSPropertyOp43
 70
     1
102
RTVSPropertyOp44
 70
     1
102
RTVSPropertyOp45
 70
     1
102
RTVSPropertyOp46
 70
     1
102
RTVSPropertyOp47
 70
     1
102
RTVSPropertyOp48
 70
     1
102
RTVSPropertyOp49
 70
     1
102
RTVSPropertyOp50
 70
     1
102
RTVSPropertyOp51
 70
     0
102
RTVSPropertyOp52
 70
     0
102
RTVSPropertyOp53
 70
     1
102
RTVSPropertyOp54
 70
     1
102
RTVSPropertyOp55
 70
     1
102
RTVSPropertyOp56
 70
     1
102
RTVSPropertyOp57
 70
     1
102
RTVSPropertyOp58
 70
     1
102
RTVSPropertyOp59
 70
     1
102
RTVSPropertyOp60
 70
     1
102
RTVSPropertyOp61
 70
     1
102
RTVSPropertyOp62
 70
     1
  0
XRECORD
  5
37D
102
{ACAD_REACTORS
330
37C
102
}
330
37C
100
AcDbXrecord
280
     1
102
RTVSPost2010Prop28
280
     0
102
RTVSPost2010PropOp28
 70
     1
102
RTVSPost2010Prop29
280
     1
102
RTVSPost2010PropOp29
 70
     1
102
RTVSPost2010Prop30
280
     1
102
RTVSPost2010PropOp30
 70
     1
102
RTVSPost2010Prop31
280
     0
102
RTVSPost2010PropOp31
 70
     1
102
RTVSPost2010Prop32
280
     0
102
RTVSPost2010PropOp32
 70
     1
102
RTVSPost2010Prop33
280
     0
102
RTVSPost2010PropOp33
 70
     1
102
RTVSPost2010Prop34
280
     0
102
RTVSPost2010PropOp34
 70
     1
102
RTVSPost2010Prop35
280
     0
102
RTVSPost2010PropOp35
 70
     1
102
RTVSPost2010Prop36
280
     0
102
RTVSPost2010PropOp36
 70
     1
102
RTVSPost2010Prop37
 90
       50
102
RTVSPost2010PropOp37
 70
     1
102
RTVSPost2010Prop38
140
0.0
102
RTVSPost2010PropOp38
 70
     1
102
RTVSPost2010Prop39
140
1.0
102
RTVSPost2010PropOp39
 70
     1
102
RTVSPost2010Prop40
 90
        0
102
RTVSPost2010PropOp40
 70
     1
102
RTVSPost2010Prop41ColorIndex
 90
       18
102
RTVSPost2010Prop41ColorRGB
 90
        0
102
RTVSPost2010PropOp41
 70
     1
102
RTVSPost2010Prop42
 90
       50
102
RTVSPost2010PropOp42
 70
     1
102
RTVSPost2010Prop43
 90
        3
102
RTVSPost2010PropOp43
 70
     1
102
RTVSPost2010Prop44ColorIndex
 90
        5
102
RTVSPost2010Prop44ColorRGB
 90
      255
102
RTVSPost2010PropOp44
 70
     1
102
RTVSPost2010Prop45
280
     0
102
RTVSPost2010PropOp45
 70
     1
102
RTVSPost2010Prop46
 90
       50
102
RTVSPost2010PropOp46
 70
     1
102
RTVSPost2010Prop47
 90
       50
102
RTVSPost2010PropOp47
 70
     1
102
RTVSPost2010Prop48
 90
       50
102
RTVSPost2010PropOp48
 70
     1
102
RTVSPost2010Prop49
280
     0
102
RTVSPost2010PropOp49
 70
     1
102
RTVSPost2010Prop50
 90
       50
102
RTVSPost2010PropOp50
 70
     1
102
RTVSPost2010Prop51ColorIndex
 90
      256
102
RTVSPost2010Prop51ColorRGB
 90
-16777216
102
RTVSPost2010PropOp51
 70
     0
102
RTVSPost2010Prop52
140
1.0
102
RTVSPost2010PropOp52
 70
     0
102
RTVSPost2010Prop53
 90
        2
102
RTVSPost2010PropOp53
 70
     1
102
RTVSPost2010Prop54
  1
strokes_ogs.tif
102
RTVSPost2010PropOp54
 70
     1
102
RTVSPost2010Prop55
280
     0
102
RTVSPost2010PropOp55
 70
     1
102
RTVSPost2010Prop56
140
1.0
102
RTVSPost2010PropOp56
 70
     1
102
RTVSPost2010Prop57
140
1.0
102
RTVSPost2010PropOp57
 70
     1
102
RTVSPropertyOp0
 70
     1
102
RTVSPropertyOp1
 70
     1
102
RTVSPropertyOp2
 70
     1
102
RTVSPropertyOp3
 70
     1
102
RTVSPropertyOp4
 70
     1
102
RTVSPropertyOp5
 70
     1
102
RTVSPropertyOp6
 70
     1
102
RTVSPropertyOp7
 70
     1
102
RTVSPropertyOp8
 70
     1
102
RTVSPropertyOp9
 70
     1
102
RTVSPropertyOp10
 70
     1
102
RTVSPropertyOp11
 70
     1
102
RTVSPropertyOp12
 70
     1
102
RTVSPropertyOp13
 70
     1
102
RTVSPropertyOp14
 70
     1
102
RTVSPropertyOp15
 70
     1
102
RTVSPropertyOp16
 70
     1
102
RTVSPropertyOp17
 70
     1
102
RTVSPropertyOp18
 70
     1
102
RTVSPropertyOp19
 70
     1
102
RTVSPropertyOp20
 70
     1
102
RTVSPropertyOp21
 70
     1
102
RTVSPropertyOp22
 70
     1
102
RTVSPropertyOp23
 70
     1
102
RTVSPropertyOp24
 70
     1
102
RTVSPropertyOp25
 70
     1
102
RTVSPropertyOp26
 70
     1
102
RTVSPropertyOp27
 70
     1
102
RTVSPropertyOp28
 70
     1
102
RTVSPropertyOp29
 70
     1
102
RTVSPropertyOp30
 70
     1
102
RTVSPropertyOp31
 70
     1
102
RTVSPropertyOp32
 70
     1
102
RTVSPropertyOp33
 70
     1
102
RTVSPropertyOp34
 70
     1
102
RTVSPropertyOp35
 70
     1
102
RTVSPropertyOp36
 70
     1
102
RTVSPropertyOp37
 70
     1
102
RTVSPropertyOp38
 70
     1
102
RTVSPropertyOp39
 70
     1
102
RTVSPropertyOp40
 70
     1
102
RTVSPropertyOp41
 70
     1
102
RTVSPropertyOp42
 70
     1
102
RTVSPropertyOp43
 70
     1
102
RTVSPropertyOp44
 70
     1
102
RTVSPropertyOp45
 70
     1
102
RTVSPropertyOp46
 70
     1
102
RTVSPropertyOp47
 70
     1
102
RTVSPropertyOp48
 70
     1
102
RTVSPropertyOp49
 70
     1
102
RTVSPropertyOp50
 70
     1
102
RTVSPropertyOp51
 70
     0
102
RTVSPropertyOp52
 70
     0
102
RTVSPropertyOp53
 70
     1
102
RTVSPropertyOp54
 70
     1
102
RTVSPropertyOp55
 70
     1
102
RTVSPropertyOp56
 70
     1
102
RTVSPropertyOp57
 70
     1
102
RTVSPropertyOp58
 70
     1
102
RTVSPropertyOp59
 70
     1
102
RTVSPropertyOp60
 70
     1
102
RTVSPropertyOp61
 70
     1
102
RTVSPropertyOp62
 70
     1
  0
XRECORD
  5
391
102
{ACAD_REACTORS
330
390
102
}
330
390
100
AcDbXrecord
280
     1
102
RTVSPost2010Prop28
280
     0
102
RTVSPost2010PropOp28
 70
     0
102
RTVSPost2010Prop29
280
     1
102
RTVSPost2010PropOp29
 70
     0
102
RTVSPost2010Prop30
280
     1
102
RTVSPost2010PropOp30
 70
     0
102
RTVSPost2010Prop31
280
     0
102
RTVSPost2010PropOp31
 70
     0
102
RTVSPost2010Prop32
280
     0
102
RTVSPost2010PropOp32
 70
     0
102
RTVSPost2010Prop33
280
     0
102
RTVSPost2010PropOp33
 70
     0
102
RTVSPost2010Prop34
280
     0
102
RTVSPost2010PropOp34
 70
     0
102
RTVSPost2010Prop35
280
     0
102
RTVSPost2010PropOp35
 70
     0
102
RTVSPost2010Prop36
280
     0
102
RTVSPost2010PropOp36
 70
     0
102
RTVSPost2010Prop37
 90
       50
102
RTVSPost2010PropOp37
 70
     0
102
RTVSPost2010Prop38
140
0.0
102
RTVSPost2010PropOp38
 70
     0
102
RTVSPost2010Prop39
140
1.0
102
RTVSPost2010PropOp39
 70
     0
102
RTVSPost2010Prop40
 90
        0
102
RTVSPost2010PropOp40
 70
     0
102
RTVSPost2010Prop41ColorIndex
 90
       18
102
RTVSPost2010Prop41ColorRGB
 90
        0
102
RTVSPost2010PropOp41
 70
     0
102
RTVSPost2010Prop42
 90
       50
102
RTVSPost2010PropOp42
 70
     0
102
RTVSPost2010Prop43
 90
        3
102
RTVSPost2010PropOp43
 70
     0
102
RTVSPost2010Prop44ColorIndex
 90
        5
102
RTVSPost2010Prop44ColorRGB
 90
      255
102
RTVSPost2010PropOp44
 70
     0
102
RTVSPost2010Prop45
280
     0
102
RTVSPost2010PropOp45
 70
     0
102
RTVSPost2010Prop46
 90
       50
102
RTVSPost2010PropOp46
 70
     0
102
RTVSPost2010Prop47
 90
       50
102
RTVSPost2010PropOp47
 70
     0
102
RTVSPost2010Prop48
 90
       50
102
RTVSPost2010PropOp48
 70
     0
102
RTVSPost2010Prop49
280
     0
102
RTVSPost2010PropOp49
 70
     0
102
RTVSPost2010Prop50
 90
       50
102
RTVSPost2010PropOp50
 70
     0
102
RTVSPost2010Prop51ColorIndex
 90
      256
102
RTVSPost2010Prop51ColorRGB
 90
-16777216
102
RTVSPost2010PropOp51
 70
     0
102
RTVSPost2010Prop52
140
1.0
102
RTVSPost2010PropOp52
 70
     0
102
RTVSPost2010Prop53
 90
        2
102
RTVSPost2010PropOp53
 70
     0
102
RTVSPost2010Prop54
  1
strokes_ogs.tif
102
RTVSPost2010PropOp54
 70
     0
102
RTVSPost2010Prop55
280
     0
102
RTVSPost2010PropOp55
 70
     0
102
RTVSPost2010Prop56
140
1.0
102
RTVSPost2010PropOp56
 70
     0
102
RTVSPost2010Prop57
140
1.0
102
RTVSPost2010PropOp57
 70
     0
102
RTVSPropertyOp0
 70
     0
102
RTVSPropertyOp1
 70
     0
102
RTVSPropertyOp2
 70
     0
102
RTVSPropertyOp3
 70
     0
102
RTVSPropertyOp4
 70
     0
102
RTVSPropertyOp5
 70
     0
102
RTVSPropertyOp6
 70
     0
102
RTVSPropertyOp7
 70
     0
102
RTVSPropertyOp8
 70
     0
102
RTVSPropertyOp9
 70
     0
102
RTVSPropertyOp10
 70
     0
102
RTVSPropertyOp11
 70
     0
102
RTVSPropertyOp12
 70
     0
102
RTVSPropertyOp13
 70
     0
102
RTVSPropertyOp14
 70
     2
102
RTVSPropertyOp15
 70
     0
102
RTVSPropertyOp16
 70
     0
102
RTVSPropertyOp17
 70
     0
102
RTVSPropertyOp18
 70
     0
102
RTVSPropertyOp19
 70
     0
102
RTVSPropertyOp20
 70
     0
102
RTVSPropertyOp21
 70
     0
102
RTVSPropertyOp22
 70
     0
102
RTVSPropertyOp23
 70
     0
102
RTVSPropertyOp24
 70
     0
102
RTVSPropertyOp25
 70
     0
102
RTVSPropertyOp26
 70
     0
102
RTVSPropertyOp27
 70
     0
102
RTVSPropertyOp28
 70
     0
102
RTVSPropertyOp29
 70
     0
102
RTVSPropertyOp30
 70
     0
102
RTVSPropertyOp31
 70
     0
102
RTVSPropertyOp32
 70
     0
102
RTVSPropertyOp33
 70
     0
102
RTVSPropertyOp34
 70
     0
102
RTVSPropertyOp35
 70
     0
102
RTVSPropertyOp36
 70
     0
102
RTVSPropertyOp37
 70
     0
102
RTVSPropertyOp38
 70
     0
102
RTVSPropertyOp39
 70
     0
102
RTVSPropertyOp40
 70
     0
102
RTVSPropertyOp41
 70
     0
102
RTVSPropertyOp42
 70
     0
102
RTVSPropertyOp43
 70
     0
102
RTVSPropertyOp44
 70
     0
102
RTVSPropertyOp45
 70
     0
102
RTVSPropertyOp46
 70
     0
102
RTVSPropertyOp47
 70
     0
102
RTVSPropertyOp48
 70
     0
102
RTVSPropertyOp49
 70
     0
102
RTVSPropertyOp50
 70
     0
102
RTVSPropertyOp51
 70
     0
102
RTVSPropertyOp52
 70
     0
102
RTVSPropertyOp53
 70
     0
102
RTVSPropertyOp54
 70
     0
102
RTVSPropertyOp55
 70
     0
102
RTVSPropertyOp56
 70
     0
102
RTVSPropertyOp57
 70
     0
102
RTVSPropertyOp58
 70
     1
102
RTVSPropertyOp59
 70
     1
102
RTVSPropertyOp60
 70
     1
102
RTVSPropertyOp61
 70
     1
102
RTVSPropertyOp62
 70
     1
  0
XRECORD
  5
38B
102
{ACAD_REACTORS
330
38A
102
}
330
38A
100
AcDbXrecord
280
     1
102
RTVSPost2010Prop28
280
     0
102
RTVSPost2010PropOp28
 70
     1
102
RTVSPost2010Prop29
280
     1
102
RTVSPost2010PropOp29
 70
     1
102
RTVSPost2010Prop30
280
     1
102
RTVSPost2010PropOp30
 70
     1
102
RTVSPost2010Prop31
280
     0
102
RTVSPost2010PropOp31
 70
     1
102
RTVSPost2010Prop32
280
     0
102
RTVSPost2010PropOp32
 70
     1
102
RTVSPost2010Prop33
280
     0
102
RTVSPost2010PropOp33
 70
     1
102
RTVSPost2010Prop34
280
     0
102
RTVSPost2010PropOp34
 70
     1
102
RTVSPost2010Prop35
280
     0
102
RTVSPost2010PropOp35
 70
     1
102
RTVSPost2010Prop36
280
     0
102
RTVSPost2010PropOp36
 70
     1
102
RTVSPost2010Prop37
 90
       50
102
RTVSPost2010PropOp37
 70
     1
102
RTVSPost2010Prop38
140
0.0
102
RTVSPost2010PropOp38
 70
     1
102
RTVSPost2010Prop39
140
1.0
102
RTVSPost2010PropOp39
 70
     1
102
RTVSPost2010Prop40
 90
        0
102
RTVSPost2010PropOp40
 70
     1
102
RTVSPost2010Prop41ColorIndex
 90
       18
102
RTVSPost2010Prop41ColorRGB
 90
        0
102
RTVSPost2010PropOp41
 70
     1
102
RTVSPost2010Prop42
 90
       50
102
RTVSPost2010PropOp42
 70
     1
102
RTVSPost2010Prop43
 90
        3
102
RTVSPost2010PropOp43
 70
     1
102
RTVSPost2010Prop44ColorIndex
 90
        5
102
RTVSPost2010Prop44ColorRGB
 90
      255
102
RTVSPost2010PropOp44
 70
     1
102
RTVSPost2010Prop45
280
     0
102
RTVSPost2010PropOp45
 70
     1
102
RTVSPost2010Prop46
 90
       50
102
RTVSPost2010PropOp46
 70
     1
102
RTVSPost2010Prop47
 90
       50
102
RTVSPost2010PropOp47
 70
     1
102
RTVSPost2010Prop48
 90
       50
102
RTVSPost2010PropOp48
 70
     1
102
RTVSPost2010Prop49
280
     0
102
RTVSPost2010PropOp49
 70
     1
102
RTVSPost2010Prop50
 90
       50
102
RTVSPost2010PropOp50
 70
     1
102
RTVSPost2010Prop51ColorIndex
 90
      256
102
RTVSPost2010Prop51ColorRGB
 90
-16777216
102
RTVSPost2010PropOp51
 70
     0
102
RTVSPost2010Prop52
140
1.0
102
RTVSPost2010PropOp52
 70
     0
102
RTVSPost2010Prop53
 90
        2
102
RTVSPost2010PropOp53
 70
     1
102
RTVSPost2010Prop54
  1
strokes_ogs.tif
102
RTVSPost2010PropOp54
 70
     1
102
RTVSPost2010Prop55
280
     0
102
RTVSPost2010PropOp55
 70
     1
102
RTVSPost2010Prop56
140
1.0
102
RTVSPost2010PropOp56
 70
     1
102
RTVSPost2010Prop57
140
1.0
102
RTVSPost2010PropOp57
 70
     1
102
RTVSPropertyOp0
 70
     1
102
RTVSPropertyOp1
 70
     1
102
RTVSPropertyOp2
 70
     1
102
RTVSPropertyOp3
 70
     1
102
RTVSPropertyOp4
 70
     1
102
RTVSPropertyOp5
 70
     1
102
RTVSPropertyOp6
 70
     1
102
RTVSPropertyOp7
 70
     1
102
RTVSPropertyOp8
 70
     1
102
RTVSPropertyOp9
 70
     1
102
RTVSPropertyOp10
 70
     1
102
RTVSPropertyOp11
 70
     1
102
RTVSPropertyOp12
 70
     1
102
RTVSPropertyOp13
 70
     1
102
RTVSPropertyOp14
 70
     1
102
RTVSPropertyOp15
 70
     1
102
RTVSPropertyOp16
 70
     1
102
RTVSPropertyOp17
 70
     1
102
RTVSPropertyOp18
 70
     1
102
RTVSPropertyOp19
 70
     1
102
RTVSPropertyOp20
 70
     1
102
RTVSPropertyOp21
 70
     1
102
RTVSPropertyOp22
 70
     1
102
RTVSPropertyOp23
 70
     1
102
RTVSPropertyOp24
 70
     1
102
RTVSPropertyOp25
 70
     1
102
RTVSPropertyOp26
 70
     1
102
RTVSPropertyOp27
 70
     1
102
RTVSPropertyOp28
 70
     1
102
RTVSPropertyOp29
 70
     1
102
RTVSPropertyOp30
 70
     1
102
RTVSPropertyOp31
 70
     1
102
RTVSPropertyOp32
 70
     1
102
RTVSPropertyOp33
 70
     1
102
RTVSPropertyOp34
 70
     1
102
RTVSPropertyOp35
 70
     1
102
RTVSPropertyOp36
 70
     1
102
RTVSPropertyOp37
 70
     1
102
RTVSPropertyOp38
 70
     1
102
RTVSPropertyOp39
 70
     1
102
RTVSPropertyOp40
 70
     1
102
RTVSPropertyOp41
 70
     1
102
RTVSPropertyOp42
 70
     1
102
RTVSPropertyOp43
 70
     1
102
RTVSPropertyOp44
 70
     1
102
RTVSPropertyOp45
 70
     1
102
RTVSPropertyOp46
 70
     1
102
RTVSPropertyOp47
 70
     1
102
RTVSPropertyOp48
 70
     1
102
RTVSPropertyOp49
 70
     1
102
RTVSPropertyOp50
 70
     1
102
RTVSPropertyOp51
 70
     0
102
RTVSPropertyOp52
 70
     0
102
RTVSPropertyOp53
 70
     1
102
RTVSPropertyOp54
 70
     1
102
RTVSPropertyOp55
 70
     1
102
RTVSPropertyOp56
 70
     1
102
RTVSPropertyOp57
 70
     1
102
RTVSPropertyOp58
 70
     1
102
RTVSPropertyOp59
 70
     1
102
RTVSPropertyOp60
 70
     1
102
RTVSPropertyOp61
 70
     1
102
RTVSPropertyOp62
 70
     1
  0
XRECORD
  5
393
102
{ACAD_REACTORS
330
392
102
}
330
392
100
AcDbXrecord
280
     1
102
RTVSPost2010Prop28
280
     0
102
RTVSPost2010PropOp28
 70
     0
102
RTVSPost2010Prop29
280
     1
102
RTVSPost2010PropOp29
 70
     0
102
RTVSPost2010Prop30
280
     1
102
RTVSPost2010PropOp30
 70
     0
102
RTVSPost2010Prop31
280
     0
102
RTVSPost2010PropOp31
 70
     0
102
RTVSPost2010Prop32
280
     0
102
RTVSPost2010PropOp32
 70
     0
102
RTVSPost2010Prop33
280
     0
102
RTVSPost2010PropOp33
 70
     0
102
RTVSPost2010Prop34
280
     0
102
RTVSPost2010PropOp34
 70
     0
102
RTVSPost2010Prop35
280
     0
102
RTVSPost2010PropOp35
 70
     0
102
RTVSPost2010Prop36
280
     0
102
RTVSPost2010PropOp36
 70
     0
102
RTVSPost2010Prop37
 90
       50
102
RTVSPost2010PropOp37
 70
     0
102
RTVSPost2010Prop38
140
0.0
102
RTVSPost2010PropOp38
 70
     0
102
RTVSPost2010Prop39
140
1.0
102
RTVSPost2010PropOp39
 70
     0
102
RTVSPost2010Prop40
 90
        0
102
RTVSPost2010PropOp40
 70
     0
102
RTVSPost2010Prop41ColorIndex
 90
       18
102
RTVSPost2010Prop41ColorRGB
 90
        0
102
RTVSPost2010PropOp41
 70
     0
102
RTVSPost2010Prop42
 90
       50
102
RTVSPost2010PropOp42
 70
     0
102
RTVSPost2010Prop43
 90
        3
102
RTVSPost2010PropOp43
 70
     0
102
RTVSPost2010Prop44ColorIndex
 90
        5
102
RTVSPost2010Prop44ColorRGB
 90
      255
102
RTVSPost2010PropOp44
 70
     0
102
RTVSPost2010Prop45
280
     0
102
RTVSPost2010PropOp45
 70
     0
102
RTVSPost2010Prop46
 90
       50
102
RTVSPost2010PropOp46
 70
     0
102
RTVSPost2010Prop47
 90
       50
102
RTVSPost2010PropOp47
 70
     0
102
RTVSPost2010Prop48
 90
       50
102
RTVSPost2010PropOp48
 70
     0
102
RTVSPost2010Prop49
280
     0
102
RTVSPost2010PropOp49
 70
     0
102
RTVSPost2010Prop50
 90
       50
102
RTVSPost2010PropOp50
 70
     0
102
RTVSPost2010Prop51ColorIndex
 90
      256
102
RTVSPost2010Prop51ColorRGB
 90
-16777216
102
RTVSPost2010PropOp51
 70
     0
102
RTVSPost2010Prop52
140
1.0
102
RTVSPost2010PropOp52
 70
     0
102
RTVSPost2010Prop53
 90
        2
102
RTVSPost2010PropOp53
 70
     0
102
RTVSPost2010Prop54
  1
strokes_ogs.tif
102
RTVSPost2010PropOp54
 70
     0
102
RTVSPost2010Prop55
280
     0
102
RTVSPost2010PropOp55
 70
     0
102
RTVSPost2010Prop56
140
1.0
102
RTVSPost2010PropOp56
 70
     0
102
RTVSPost2010Prop57
140
1.0
102
RTVSPost2010PropOp57
 70
     0
102
RTVSPropertyOp0
 70
     0
102
RTVSPropertyOp1
 70
     0
102
RTVSPropertyOp2
 70
     0
102
RTVSPropertyOp3
 70
     0
102
RTVSPropertyOp4
 70
     0
102
RTVSPropertyOp5
 70
     0
102
RTVSPropertyOp6
 70
     0
102
RTVSPropertyOp7
 70
     0
102
RTVSPropertyOp8
 70
     0
102
RTVSPropertyOp9
 70
     0
102
RTVSPropertyOp10
 70
     0
102
RTVSPropertyOp11
 70
     0
102
RTVSPropertyOp12
 70
     0
102
RTVSPropertyOp13
 70
     0
102
RTVSPropertyOp14
 70
     2
102
RTVSPropertyOp15
 70
     0
102
RTVSPropertyOp16
 70
     0
102
RTVSPropertyOp17
 70
     0
102
RTVSPropertyOp18
 70
     0
102
RTVSPropertyOp19
 70
     0
102
RTVSPropertyOp20
 70
     0
102
RTVSPropertyOp21
 70
     0
102
RTVSPropertyOp22
 70
     0
102
RTVSPropertyOp23
 70
     0
102
RTVSPropertyOp24
 70
     0
102
RTVSPropertyOp25
 70
     0
102
RTVSPropertyOp26
 70
     0
102
RTVSPropertyOp27
 70
     0
102
RTVSPropertyOp28
 70
     0
102
RTVSPropertyOp29
 70
     0
102
RTVSPropertyOp30
 70
     0
102
RTVSPropertyOp31
 70
     0
102
RTVSPropertyOp32
 70
     0
102
RTVSPropertyOp33
 70
     0
102
RTVSPropertyOp34
 70
     0
102
RTVSPropertyOp35
 70
     0
102
RTVSPropertyOp36
 70
     0
102
RTVSPropertyOp37
 70
     0
102
RTVSPropertyOp38
 70
     0
102
RTVSPropertyOp39
 70
     0
102
RTVSPropertyOp40
 70
     0
102
RTVSPropertyOp41
 70
     0
102
RTVSPropertyOp42
 70
     0
102
RTVSPropertyOp43
 70
     0
102
RTVSPropertyOp44
 70
     0
102
RTVSPropertyOp45
 70
     0
102
RTVSPropertyOp46
 70
     0
102
RTVSPropertyOp47
 70
     0
102
RTVSPropertyOp48
 70
     0
102
RTVSPropertyOp49
 70
     0
102
RTVSPropertyOp50
 70
     0
102
RTVSPropertyOp51
 70
     0
102
RTVSPropertyOp52
 70
     0
102
RTVSPropertyOp53
 70
     0
102
RTVSPropertyOp54
 70
     0
102
RTVSPropertyOp55
 70
     0
102
RTVSPropertyOp56
 70
     0
102
RTVSPropertyOp57
 70
     0
102
RTVSPropertyOp58
 70
     1
102
RTVSPropertyOp59
 70
     1
102
RTVSPropertyOp60
 70
     1
102
RTVSPropertyOp61
 70
     1
102
RTVSPropertyOp62
 70
     1
  0
XRECORD
  5
381
102
{ACAD_REACTORS
330
380
102
}
330
380
100
AcDbXrecord
280
     1
102
RTVSPost2010Prop28
280
     0
102
RTVSPost2010PropOp28
 70
     1
102
RTVSPost2010Prop29
280
     1
102
RTVSPost2010PropOp29
 70
     1
102
RTVSPost2010Prop30
280
     1
102
RTVSPost2010PropOp30
 70
     1
102
RTVSPost2010Prop31
280
     0
102
RTVSPost2010PropOp31
 70
     1
102
RTVSPost2010Prop32
280
     0
102
RTVSPost2010PropOp32
 70
     1
102
RTVSPost2010Prop33
280
     0
102
RTVSPost2010PropOp33
 70
     1
102
RTVSPost2010Prop34
280
     0
102
RTVSPost2010PropOp34
 70
     1
102
RTVSPost2010Prop35
280
     0
102
RTVSPost2010PropOp35
 70
     1
102
RTVSPost2010Prop36
280
     0
102
RTVSPost2010PropOp36
 70
     1
102
RTVSPost2010Prop37
 90
       50
102
RTVSPost2010PropOp37
 70
     1
102
RTVSPost2010Prop38
140
0.0
102
RTVSPost2010PropOp38
 70
     1
102
RTVSPost2010Prop39
140
1.0
102
RTVSPost2010PropOp39
 70
     1
102
RTVSPost2010Prop40
 90
        0
102
RTVSPost2010PropOp40
 70
     1
102
RTVSPost2010Prop41ColorIndex
 90
       18
102
RTVSPost2010Prop41ColorRGB
 90
        0
102
RTVSPost2010PropOp41
 70
     1
102
RTVSPost2010Prop42
 90
       50
102
RTVSPost2010PropOp42
 70
     1
102
RTVSPost2010Prop43
 90
        3
102
RTVSPost2010PropOp43
 70
     1
102
RTVSPost2010Prop44ColorIndex
 90
        5
102
RTVSPost2010Prop44ColorRGB
 90
      255
102
RTVSPost2010PropOp44
 70
     1
102
RTVSPost2010Prop45
280
     0
102
RTVSPost2010PropOp45
 70
     1
102
RTVSPost2010Prop46
 90
       50
102
RTVSPost2010PropOp46
 70
     1
102
RTVSPost2010Prop47
 90
       50
102
RTVSPost2010PropOp47
 70
     1
102
RTVSPost2010Prop48
 90
       50
102
RTVSPost2010PropOp48
 70
     1
102
RTVSPost2010Prop49
280
     0
102
RTVSPost2010PropOp49
 70
     1
102
RTVSPost2010Prop50
 90
       50
102
RTVSPost2010PropOp50
 70
     1
102
RTVSPost2010Prop51ColorIndex
 90
      256
102
RTVSPost2010Prop51ColorRGB
 90
-16777216
102
RTVSPost2010PropOp51
 70
     0
102
RTVSPost2010Prop52
140
1.0
102
RTVSPost2010PropOp52
 70
     0
102
RTVSPost2010Prop53
 90
        2
102
RTVSPost2010PropOp53
 70
     1
102
RTVSPost2010Prop54
  1
strokes_ogs.tif
102
RTVSPost2010PropOp54
 70
     1
102
RTVSPost2010Prop55
280
     0
102
RTVSPost2010PropOp55
 70
     1
102
RTVSPost2010Prop56
140
1.0
102
RTVSPost2010PropOp56
 70
     1
102
RTVSPost2010Prop57
140
1.0
102
RTVSPost2010PropOp57
 70
     1
102
RTVSPropertyOp0
 70
     1
102
RTVSPropertyOp1
 70
     1
102
RTVSPropertyOp2
 70
     1
102
RTVSPropertyOp3
 70
     1
102
RTVSPropertyOp4
 70
     1
102
RTVSPropertyOp5
 70
     1
102
RTVSPropertyOp6
 70
     1
102
RTVSPropertyOp7
 70
     1
102
RTVSPropertyOp8
 70
     1
102
RTVSPropertyOp9
 70
     1
102
RTVSPropertyOp10
 70
     1
102
RTVSPropertyOp11
 70
     1
102
RTVSPropertyOp12
 70
     1
102
RTVSPropertyOp13
 70
     1
102
RTVSPropertyOp14
 70
     1
102
RTVSPropertyOp15
 70
     1
102
RTVSPropertyOp16
 70
     1
102
RTVSPropertyOp17
 70
     1
102
RTVSPropertyOp18
 70
     1
102
RTVSPropertyOp19
 70
     1
102
RTVSPropertyOp20
 70
     1
102
RTVSPropertyOp21
 70
     1
102
RTVSPropertyOp22
 70
     1
102
RTVSPropertyOp23
 70
     1
102
RTVSPropertyOp24
 70
     1
102
RTVSPropertyOp25
 70
     1
102
RTVSPropertyOp26
 70
     1
102
RTVSPropertyOp27
 70
     1
102
RTVSPropertyOp28
 70
     1
102
RTVSPropertyOp29
 70
     1
102
RTVSPropertyOp30
 70
     1
102
RTVSPropertyOp31
 70
     1
102
RTVSPropertyOp32
 70
     1
102
RTVSPropertyOp33
 70
     1
102
RTVSPropertyOp34
 70
     1
102
RTVSPropertyOp35
 70
     1
102
RTVSPropertyOp36
 70
     1
102
RTVSPropertyOp37
 70
     1
102
RTVSPropertyOp38
 70
     1
102
RTVSPropertyOp39
 70
     1
102
RTVSPropertyOp40
 70
     1
102
RTVSPropertyOp41
 70
     1
102
RTVSPropertyOp42
 70
     1
102
RTVSPropertyOp43
 70
     1
102
RTVSPropertyOp44
 70
     1
102
RTVSPropertyOp45
 70
     1
102
RTVSPropertyOp46
 70
     1
102
RTVSPropertyOp47
 70
     1
102
RTVSPropertyOp48
 70
     1
102
RTVSPropertyOp49
 70
     1
102
RTVSPropertyOp50
 70
     1
102
RTVSPropertyOp51
 70
     0
102
RTVSPropertyOp52
 70
     0
102
RTVSPropertyOp53
 70
     1
102
RTVSPropertyOp54
 70
     1
102
RTVSPropertyOp55
 70
     1
102
RTVSPropertyOp56
 70
     1
102
RTVSPropertyOp57
 70
     1
102
RTVSPropertyOp58
 70
     1
102
RTVSPropertyOp59
 70
     1
102
RTVSPropertyOp60
 70
     1
102
RTVSPropertyOp61
 70
     1
102
RTVSPropertyOp62
 70
     1
  0
XRECORD
  5
39F
102
{ACAD_REACTORS
330
39E
102
}
330
39E
100
AcDbXrecord
280
     1
102
RTVSPost2010Prop28
280
     0
102
RTVSPost2010PropOp28
 70
     1
102
RTVSPost2010Prop29
280
     1
102
RTVSPost2010PropOp29
 70
     1
102
RTVSPost2010Prop30
280
     1
102
RTVSPost2010PropOp30
 70
     1
102
RTVSPost2010Prop31
280
     0
102
RTVSPost2010PropOp31
 70
     1
102
RTVSPost2010Prop32
280
     0
102
RTVSPost2010PropOp32
 70
     1
102
RTVSPost2010Prop33
280
     0
102
RTVSPost2010PropOp33
 70
     1
102
RTVSPost2010Prop34
280
     0
102
RTVSPost2010PropOp34
 70
     1
102
RTVSPost2010Prop35
280
     0
102
RTVSPost2010PropOp35
 70
     1
102
RTVSPost2010Prop36
280
     0
102
RTVSPost2010PropOp36
 70
     1
102
RTVSPost2010Prop37
 90
       50
102
RTVSPost2010PropOp37
 70
     1
102
RTVSPost2010Prop38
140
0.0
102
RTVSPost2010PropOp38
 70
     1
102
RTVSPost2010Prop39
140
1.0
102
RTVSPost2010PropOp39
 70
     1
102
RTVSPost2010Prop40
 90
        0
102
RTVSPost2010PropOp40
 70
     1
102
RTVSPost2010Prop41ColorIndex
 90
       18
102
RTVSPost2010Prop41ColorRGB
 90
        0
102
RTVSPost2010PropOp41
 70
     1
102
RTVSPost2010Prop42
 90
       50
102
RTVSPost2010PropOp42
 70
     1
102
RTVSPost2010Prop43
 90
        3
102
RTVSPost2010PropOp43
 70
     1
102
RTVSPost2010Prop44ColorIndex
 90
        5
102
RTVSPost2010Prop44ColorRGB
 90
      255
102
RTVSPost2010PropOp44
 70
     1
102
RTVSPost2010Prop45
280
     0
102
RTVSPost2010PropOp45
 70
     1
102
RTVSPost2010Prop46
 90
       50
102
RTVSPost2010PropOp46
 70
     1
102
RTVSPost2010Prop47
 90
       50
102
RTVSPost2010PropOp47
 70
     1
102
RTVSPost2010Prop48
 90
       50
102
RTVSPost2010PropOp48
 70
     1
102
RTVSPost2010Prop49
280
     0
102
RTVSPost2010PropOp49
 70
     1
102
RTVSPost2010Prop50
 90
       50
102
RTVSPost2010PropOp50
 70
     1
102
RTVSPost2010Prop51ColorIndex
 90
      256
102
RTVSPost2010Prop51ColorRGB
 90
-16777216
102
RTVSPost2010PropOp51
 70
     0
102
RTVSPost2010Prop52
140
1.0
102
RTVSPost2010PropOp52
 70
     0
102
RTVSPost2010Prop53
 90
        2
102
RTVSPost2010PropOp53
 70
     1
102
RTVSPost2010Prop54
  1
strokes_ogs.tif
102
RTVSPost2010PropOp54
 70
     1
102
RTVSPost2010Prop55
280
     0
102
RTVSPost2010PropOp55
 70
     1
102
RTVSPost2010Prop56
140
1.0
102
RTVSPost2010PropOp56
 70
     1
102
RTVSPost2010Prop57
140
1.0
102
RTVSPost2010PropOp57
 70
     1
102
RTVSPropertyOp0
 70
     1
102
RTVSPropertyOp1
 70
     1
102
RTVSPropertyOp2
 70
     1
102
RTVSPropertyOp3
 70
     1
102
RTVSPropertyOp4
 70
     1
102
RTVSPropertyOp5
 70
     1
102
RTVSPropertyOp6
 70
     1
102
RTVSPropertyOp7
 70
     1
102
RTVSPropertyOp8
 70
     1
102
RTVSPropertyOp9
 70
     1
102
RTVSPropertyOp10
 70
     1
102
RTVSPropertyOp11
 70
     1
102
RTVSPropertyOp12
 70
     1
102
RTVSPropertyOp13
 70
     1
102
RTVSPropertyOp14
 70
     1
102
RTVSPropertyOp15
 70
     1
102
RTVSPropertyOp16
 70
     1
102
RTVSPropertyOp17
 70
     1
102
RTVSPropertyOp18
 70
     1
102
RTVSPropertyOp19
 70
     1
102
RTVSPropertyOp20
 70
     1
102
RTVSPropertyOp21
 70
     1
102
RTVSPropertyOp22
 70
     1
102
RTVSPropertyOp23
 70
     1
102
RTVSPropertyOp24
 70
     1
102
RTVSPropertyOp25
 70
     1
102
RTVSPropertyOp26
 70
     1
102
RTVSPropertyOp27
 70
     1
102
RTVSPropertyOp28
 70
     1
102
RTVSPropertyOp29
 70
     1
102
RTVSPropertyOp30
 70
     1
102
RTVSPropertyOp31
 70
     1
102
RTVSPropertyOp32
 70
     1
102
RTVSPropertyOp33
 70
     1
102
RTVSPropertyOp34
 70
     1
102
RTVSPropertyOp35
 70
     1
102
RTVSPropertyOp36
 70
     1
102
RTVSPropertyOp37
 70
     1
102
RTVSPropertyOp38
 70
     1
102
RTVSPropertyOp39
 70
     1
102
RTVSPropertyOp40
 70
     1
102
RTVSPropertyOp41
 70
     1
102
RTVSPropertyOp42
 70
     1
102
RTVSPropertyOp43
 70
     1
102
RTVSPropertyOp44
 70
     1
102
RTVSPropertyOp45
 70
     1
102
RTVSPropertyOp46
 70
     1
102
RTVSPropertyOp47
 70
     1
102
RTVSPropertyOp48
 70
     1
102
RTVSPropertyOp49
 70
     1
102
RTVSPropertyOp50
 70
     1
102
RTVSPropertyOp51
 70
     0
102
RTVSPropertyOp52
 70
     0
102
RTVSPropertyOp53
 70
     1
102
RTVSPropertyOp54
 70
     1
102
RTVSPropertyOp55
 70
     1
102
RTVSPropertyOp56
 70
     1
102
RTVSPropertyOp57
 70
     1
102
RTVSPropertyOp58
 70
     1
102
RTVSPropertyOp59
 70
     1
102
RTVSPropertyOp60
 70
     1
102
RTVSPropertyOp61
 70
     1
102
RTVSPropertyOp62
 70
     1
  0
XRECORD
  5
39D
102
{ACAD_REACTORS
330
39C
102
}
330
39C
100
AcDbXrecord
280
     1
102
RTVSPost2010Prop28
280
     0
102
RTVSPost2010PropOp28
 70
     1
102
RTVSPost2010Prop29
280
     1
102
RTVSPost2010PropOp29
 70
     1
102
RTVSPost2010Prop30
280
     1
102
RTVSPost2010PropOp30
 70
     1
102
RTVSPost2010Prop31
280
     0
102
RTVSPost2010PropOp31
 70
     1
102
RTVSPost2010Prop32
280
     0
102
RTVSPost2010PropOp32
 70
     1
102
RTVSPost2010Prop33
280
     0
102
RTVSPost2010PropOp33
 70
     1
102
RTVSPost2010Prop34
280
     0
102
RTVSPost2010PropOp34
 70
     1
102
RTVSPost2010Prop35
280
     0
102
RTVSPost2010PropOp35
 70
     1
102
RTVSPost2010Prop36
280
     0
102
RTVSPost2010PropOp36
 70
     1
102
RTVSPost2010Prop37
 90
       50
102
RTVSPost2010PropOp37
 70
     1
102
RTVSPost2010Prop38
140
0.0
102
RTVSPost2010PropOp38
 70
     1
102
RTVSPost2010Prop39
140
1.0
102
RTVSPost2010PropOp39
 70
     1
102
RTVSPost2010Prop40
 90
        0
102
RTVSPost2010PropOp40
 70
     1
102
RTVSPost2010Prop41ColorIndex
 90
       18
102
RTVSPost2010Prop41ColorRGB
 90
        0
102
RTVSPost2010PropOp41
 70
     1
102
RTVSPost2010Prop42
 90
       50
102
RTVSPost2010PropOp42
 70
     1
102
RTVSPost2010Prop43
 90
        3
102
RTVSPost2010PropOp43
 70
     1
102
RTVSPost2010Prop44ColorIndex
 90
        5
102
RTVSPost2010Prop44ColorRGB
 90
      255
102
RTVSPost2010PropOp44
 70
     1
102
RTVSPost2010Prop45
280
     0
102
RTVSPost2010PropOp45
 70
     1
102
RTVSPost2010Prop46
 90
       50
102
RTVSPost2010PropOp46
 70
     1
102
RTVSPost2010Prop47
 90
       50
102
RTVSPost2010PropOp47
 70
     1
102
RTVSPost2010Prop48
 90
       50
102
RTVSPost2010PropOp48
 70
     1
102
RTVSPost2010Prop49
280
     0
102
RTVSPost2010PropOp49
 70
     1
102
RTVSPost2010Prop50
 90
       50
102
RTVSPost2010PropOp50
 70
     1
102
RTVSPost2010Prop51ColorIndex
 90
      256
102
RTVSPost2010Prop51ColorRGB
 90
-16777216
102
RTVSPost2010PropOp51
 70
     0
102
RTVSPost2010Prop52
140
1.0
102
RTVSPost2010PropOp52
 70
     0
102
RTVSPost2010Prop53
 90
        2
102
RTVSPost2010PropOp53
 70
     1
102
RTVSPost2010Prop54
  1
strokes_ogs.tif
102
RTVSPost2010PropOp54
 70
     1
102
RTVSPost2010Prop55
280
     0
102
RTVSPost2010PropOp55
 70
     1
102
RTVSPost2010Prop56
140
1.0
102
RTVSPost2010PropOp56
 70
     1
102
RTVSPost2010Prop57
140
1.0
102
RTVSPost2010PropOp57
 70
     1
102
RTVSPropertyOp0
 70
     1
102
RTVSPropertyOp1
 70
     1
102
RTVSPropertyOp2
 70
     1
102
RTVSPropertyOp3
 70
     1
102
RTVSPropertyOp4
 70
     1
102
RTVSPropertyOp5
 70
     1
102
RTVSPropertyOp6
 70
     1
102
RTVSPropertyOp7
 70
     1
102
RTVSPropertyOp8
 70
     1
102
RTVSPropertyOp9
 70
     1
102
RTVSPropertyOp10
 70
     1
102
RTVSPropertyOp11
 70
     1
102
RTVSPropertyOp12
 70
     1
102
RTVSPropertyOp13
 70
     1
102
RTVSPropertyOp14
 70
     1
102
RTVSPropertyOp15
 70
     1
102
RTVSPropertyOp16
 70
     1
102
RTVSPropertyOp17
 70
     1
102
RTVSPropertyOp18
 70
     1
102
RTVSPropertyOp19
 70
     1
102
RTVSPropertyOp20
 70
     1
102
RTVSPropertyOp21
 70
     1
102
RTVSPropertyOp22
 70
     1
102
RTVSPropertyOp23
 70
     1
102
RTVSPropertyOp24
 70
     1
102
RTVSPropertyOp25
 70
     1
102
RTVSPropertyOp26
 70
     1
102
RTVSPropertyOp27
 70
     1
102
RTVSPropertyOp28
 70
     1
102
RTVSPropertyOp29
 70
     1
102
RTVSPropertyOp30
 70
     1
102
RTVSPropertyOp31
 70
     1
102
RTVSPropertyOp32
 70
     1
102
RTVSPropertyOp33
 70
     1
102
RTVSPropertyOp34
 70
     1
102
RTVSPropertyOp35
 70
     1
102
RTVSPropertyOp36
 70
     1
102
RTVSPropertyOp37
 70
     1
102
RTVSPropertyOp38
 70
     1
102
RTVSPropertyOp39
 70
     1
102
RTVSPropertyOp40
 70
     1
102
RTVSPropertyOp41
 70
     1
102
RTVSPropertyOp42
 70
     1
102
RTVSPropertyOp43
 70
     1
102
RTVSPropertyOp44
 70
     1
102
RTVSPropertyOp45
 70
     1
102
RTVSPropertyOp46
 70
     1
102
RTVSPropertyOp47
 70
     1
102
RTVSPropertyOp48
 70
     1
102
RTVSPropertyOp49
 70
     1
102
RTVSPropertyOp50
 70
     1
102
RTVSPropertyOp51
 70
     0
102
RTVSPropertyOp52
 70
     0
102
RTVSPropertyOp53
 70
     1
102
RTVSPropertyOp54
 70
     1
102
RTVSPropertyOp55
 70
     1
102
RTVSPropertyOp56
 70
     1
102
RTVSPropertyOp57
 70
     1
102
RTVSPropertyOp58
 70
     1
102
RTVSPropertyOp59
 70
     1
102
RTVSPropertyOp60
 70
     1
102
RTVSPropertyOp61
 70
     1
102
RTVSPropertyOp62
 70
     1
  0
XRECORD
  5
397
102
{ACAD_REACTORS
330
396
102
}
330
396
100
AcDbXrecord
280
     1
102
RTVSPost2010Prop28
280
     0
102
RTVSPost2010PropOp28
 70
     1
102
RTVSPost2010Prop29
280
     1
102
RTVSPost2010PropOp29
 70
     1
102
RTVSPost2010Prop30
280
     1
102
RTVSPost2010PropOp30
 70
     1
102
RTVSPost2010Prop31
280
     0
102
RTVSPost2010PropOp31
 70
     1
102
RTVSPost2010Prop32
280
     0
102
RTVSPost2010PropOp32
 70
     1
102
RTVSPost2010Prop33
280
     0
102
RTVSPost2010PropOp33
 70
     1
102
RTVSPost2010Prop34
280
     0
102
RTVSPost2010PropOp34
 70
     1
102
RTVSPost2010Prop35
280
     0
102
RTVSPost2010PropOp35
 70
     1
102
RTVSPost2010Prop36
280
     0
102
RTVSPost2010PropOp36
 70
     1
102
RTVSPost2010Prop37
 90
       50
102
RTVSPost2010PropOp37
 70
     1
102
RTVSPost2010Prop38
140
0.0
102
RTVSPost2010PropOp38
 70
     1
102
RTVSPost2010Prop39
140
1.0
102
RTVSPost2010PropOp39
 70
     1
102
RTVSPost2010Prop40
 90
        0
102
RTVSPost2010PropOp40
 70
     1
102
RTVSPost2010Prop41ColorIndex
 90
       18
102
RTVSPost2010Prop41ColorRGB
 90
        0
102
RTVSPost2010PropOp41
 70
     1
102
RTVSPost2010Prop42
 90
       50
102
RTVSPost2010PropOp42
 70
     1
102
RTVSPost2010Prop43
 90
        3
102
RTVSPost2010PropOp43
 70
     1
102
RTVSPost2010Prop44ColorIndex
 90
        5
102
RTVSPost2010Prop44ColorRGB
 90
      255
102
RTVSPost2010PropOp44
 70
     1
102
RTVSPost2010Prop45
280
     0
102
RTVSPost2010PropOp45
 70
     1
102
RTVSPost2010Prop46
 90
       50
102
RTVSPost2010PropOp46
 70
     1
102
RTVSPost2010Prop47
 90
       50
102
RTVSPost2010PropOp47
 70
     1
102
RTVSPost2010Prop48
 90
       50
102
RTVSPost2010PropOp48
 70
     1
102
RTVSPost2010Prop49
280
     0
102
RTVSPost2010PropOp49
 70
     1
102
RTVSPost2010Prop50
 90
       50
102
RTVSPost2010PropOp50
 70
     1
102
RTVSPost2010Prop51ColorIndex
 90
      256
102
RTVSPost2010Prop51ColorRGB
 90
-16777216
102
RTVSPost2010PropOp51
 70
     0
102
RTVSPost2010Prop52
140
1.0
102
RTVSPost2010PropOp52
 70
     0
102
RTVSPost2010Prop53
 90
        2
102
RTVSPost2010PropOp53
 70
     1
102
RTVSPost2010Prop54
  1
strokes_ogs.tif
102
RTVSPost2010PropOp54
 70
     1
102
RTVSPost2010Prop55
280
     0
102
RTVSPost2010PropOp55
 70
     1
102
RTVSPost2010Prop56
140
1.0
102
RTVSPost2010PropOp56
 70
     1
102
RTVSPost2010Prop57
140
1.0
102
RTVSPost2010PropOp57
 70
     1
102
RTVSPropertyOp0
 70
     1
102
RTVSPropertyOp1
 70
     1
102
RTVSPropertyOp2
 70
     1
102
RTVSPropertyOp3
 70
     1
102
RTVSPropertyOp4
 70
     1
102
RTVSPropertyOp5
 70
     1
102
RTVSPropertyOp6
 70
     1
102
RTVSPropertyOp7
 70
     1
102
RTVSPropertyOp8
 70
     1
102
RTVSPropertyOp9
 70
     1
102
RTVSPropertyOp10
 70
     1
102
RTVSPropertyOp11
 70
     1
102
RTVSPropertyOp12
 70
     1
102
RTVSPropertyOp13
 70
     1
102
RTVSPropertyOp14
 70
     1
102
RTVSPropertyOp15
 70
     1
102
RTVSPropertyOp16
 70
     1
102
RTVSPropertyOp17
 70
     1
102
RTVSPropertyOp18
 70
     1
102
RTVSPropertyOp19
 70
     1
102
RTVSPropertyOp20
 70
     1
102
RTVSPropertyOp21
 70
     1
102
RTVSPropertyOp22
 70
     1
102
RTVSPropertyOp23
 70
     1
102
RTVSPropertyOp24
 70
     1
102
RTVSPropertyOp25
 70
     1
102
RTVSPropertyOp26
 70
     1
102
RTVSPropertyOp27
 70
     1
102
RTVSPropertyOp28
 70
     1
102
RTVSPropertyOp29
 70
     1
102
RTVSPropertyOp30
 70
     1
102
RTVSPropertyOp31
 70
     1
102
RTVSPropertyOp32
 70
     1
102
RTVSPropertyOp33
 70
     1
102
RTVSPropertyOp34
 70
     1
102
RTVSPropertyOp35
 70
     1
102
RTVSPropertyOp36
 70
     1
102
RTVSPropertyOp37
 70
     1
102
RTVSPropertyOp38
 70
     1
102
RTVSPropertyOp39
 70
     1
102
RTVSPropertyOp40
 70
     1
102
RTVSPropertyOp41
 70
     1
102
RTVSPropertyOp42
 70
     1
102
RTVSPropertyOp43
 70
     1
102
RTVSPropertyOp44
 70
     1
102
RTVSPropertyOp45
 70
     1
102
RTVSPropertyOp46
 70
     1
102
RTVSPropertyOp47
 70
     1
102
RTVSPropertyOp48
 70
     1
102
RTVSPropertyOp49
 70
     1
102
RTVSPropertyOp50
 70
     1
102
RTVSPropertyOp51
 70
     0
102
RTVSPropertyOp52
 70
     0
102
RTVSPropertyOp53
 70
     1
102
RTVSPropertyOp54
 70
     1
102
RTVSPropertyOp55
 70
     1
102
RTVSPropertyOp56
 70
     1
102
RTVSPropertyOp57
 70
     1
102
RTVSPropertyOp58
 70
     1
102
RTVSPropertyOp59
 70
     1
102
RTVSPropertyOp60
 70
     1
102
RTVSPropertyOp61
 70
     1
102
RTVSPropertyOp62
 70
     1
  0
XRECORD
  5
399
102
{ACAD_REACTORS
330
398
102
}
330
398
100
AcDbXrecord
280
     1
102
RTVSPost2010Prop28
280
     0
102
RTVSPost2010PropOp28
 70
     1
102
RTVSPost2010Prop29
280
     1
102
RTVSPost2010PropOp29
 70
     1
102
RTVSPost2010Prop30
280
     1
102
RTVSPost2010PropOp30
 70
     1
102
RTVSPost2010Prop31
280
     0
102
RTVSPost2010PropOp31
 70
     1
102
RTVSPost2010Prop32
280
     0
102
RTVSPost2010PropOp32
 70
     1
102
RTVSPost2010Prop33
280
     0
102
RTVSPost2010PropOp33
 70
     1
102
RTVSPost2010Prop34
280
     0
102
RTVSPost2010PropOp34
 70
     1
102
RTVSPost2010Prop35
280
     0
102
RTVSPost2010PropOp35
 70
     1
102
RTVSPost2010Prop36
280
     0
102
RTVSPost2010PropOp36
 70
     1
102
RTVSPost2010Prop37
 90
       50
102
RTVSPost2010PropOp37
 70
     1
102
RTVSPost2010Prop38
140
0.0
102
RTVSPost2010PropOp38
 70
     1
102
RTVSPost2010Prop39
140
1.0
102
RTVSPost2010PropOp39
 70
     1
102
RTVSPost2010Prop40
 90
        0
102
RTVSPost2010PropOp40
 70
     1
102
RTVSPost2010Prop41ColorIndex
 90
       18
102
RTVSPost2010Prop41ColorRGB
 90
        0
102
RTVSPost2010PropOp41
 70
     1
102
RTVSPost2010Prop42
 90
       50
102
RTVSPost2010PropOp42
 70
     1
102
RTVSPost2010Prop43
 90
        3
102
RTVSPost2010PropOp43
 70
     1
102
RTVSPost2010Prop44ColorIndex
 90
        5
102
RTVSPost2010Prop44ColorRGB
 90
      255
102
RTVSPost2010PropOp44
 70
     1
102
RTVSPost2010Prop45
280
     0
102
RTVSPost2010PropOp45
 70
     1
102
RTVSPost2010Prop46
 90
       50
102
RTVSPost2010PropOp46
 70
     1
102
RTVSPost2010Prop47
 90
       50
102
RTVSPost2010PropOp47
 70
     1
102
RTVSPost2010Prop48
 90
       50
102
RTVSPost2010PropOp48
 70
     1
102
RTVSPost2010Prop49
280
     0
102
RTVSPost2010PropOp49
 70
     1
102
RTVSPost2010Prop50
 90
       50
102
RTVSPost2010PropOp50
 70
     1
102
RTVSPost2010Prop51ColorIndex
 90
      256
102
RTVSPost2010Prop51ColorRGB
 90
-16777216
102
RTVSPost2010PropOp51
 70
     0
102
RTVSPost2010Prop52
140
1.0
102
RTVSPost2010PropOp52
 70
     0
102
RTVSPost2010Prop53
 90
        2
102
RTVSPost2010PropOp53
 70
     1
102
RTVSPost2010Prop54
  1
strokes_ogs.tif
102
RTVSPost2010PropOp54
 70
     1
102
RTVSPost2010Prop55
280
     0
102
RTVSPost2010PropOp55
 70
     1
102
RTVSPost2010Prop56
140
1.0
102
RTVSPost2010PropOp56
 70
     1
102
RTVSPost2010Prop57
140
1.0
102
RTVSPost2010PropOp57
 70
     1
102
RTVSPropertyOp0
 70
     1
102
RTVSPropertyOp1
 70
     1
102
RTVSPropertyOp2
 70
     1
102
RTVSPropertyOp3
 70
     1
102
RTVSPropertyOp4
 70
     1
102
RTVSPropertyOp5
 70
     1
102
RTVSPropertyOp6
 70
     1
102
RTVSPropertyOp7
 70
     1
102
RTVSPropertyOp8
 70
     1
102
RTVSPropertyOp9
 70
     1
102
RTVSPropertyOp10
 70
     1
102
RTVSPropertyOp11
 70
     1
102
RTVSPropertyOp12
 70
     1
102
RTVSPropertyOp13
 70
     1
102
RTVSPropertyOp14
 70
     1
102
RTVSPropertyOp15
 70
     1
102
RTVSPropertyOp16
 70
     1
102
RTVSPropertyOp17
 70
     1
102
RTVSPropertyOp18
 70
     1
102
RTVSPropertyOp19
 70
     1
102
RTVSPropertyOp20
 70
     1
102
RTVSPropertyOp21
 70
     1
102
RTVSPropertyOp22
 70
     1
102
RTVSPropertyOp23
 70
     1
102
RTVSPropertyOp24
 70
     1
102
RTVSPropertyOp25
 70
     1
102
RTVSPropertyOp26
 70
     1
102
RTVSPropertyOp27
 70
     1
102
RTVSPropertyOp28
 70
     1
102
RTVSPropertyOp29
 70
     1
102
RTVSPropertyOp30
 70
     1
102
RTVSPropertyOp31
 70
     1
102
RTVSPropertyOp32
 70
     1
102
RTVSPropertyOp33
 70
     1
102
RTVSPropertyOp34
 70
     1
102
RTVSPropertyOp35
 70
     1
102
RTVSPropertyOp36
 70
     1
102
RTVSPropertyOp37
 70
     1
102
RTVSPropertyOp38
 70
     1
102
RTVSPropertyOp39
 70
     1
102
RTVSPropertyOp40
 70
     1
102
RTVSPropertyOp41
 70
     1
102
RTVSPropertyOp42
 70
     1
102
RTVSPropertyOp43
 70
     1
102
RTVSPropertyOp44
 70
     1
102
RTVSPropertyOp45
 70
     1
102
RTVSPropertyOp46
 70
     1
102
RTVSPropertyOp47
 70
     1
102
RTVSPropertyOp48
 70
     1
102
RTVSPropertyOp49
 70
     1
102
RTVSPropertyOp50
 70
     1
102
RTVSPropertyOp51
 70
     0
102
RTVSPropertyOp52
 70
     0
102
RTVSPropertyOp53
 70
     1
102
RTVSPropertyOp54
 70
     1
102
RTVSPropertyOp55
 70
     1
102
RTVSPropertyOp56
 70
     1
102
RTVSPropertyOp57
 70
     1
102
RTVSPropertyOp58
 70
     1
102
RTVSPropertyOp59
 70
     1
102
RTVSPropertyOp60
 70
     1
102
RTVSPropertyOp61
 70
     1
102
RTVSPropertyOp62
 70
     1
  0
XRECORD
  5
389
102
{ACAD_REACTORS
330
388
102
}
330
388
100
AcDbXrecord
280
     1
102
RTVSPost2010Prop28
280
     0
102
RTVSPost2010PropOp28
 70
     1
102
RTVSPost2010Prop29
280
     1
102
RTVSPost2010PropOp29
 70
     1
102
RTVSPost2010Prop30
280
     1
102
RTVSPost2010PropOp30
 70
     1
102
RTVSPost2010Prop31
280
     0
102
RTVSPost2010PropOp31
 70
     1
102
RTVSPost2010Prop32
280
     0
102
RTVSPost2010PropOp32
 70
     1
102
RTVSPost2010Prop33
280
     0
102
RTVSPost2010PropOp33
 70
     1
102
RTVSPost2010Prop34
280
     0
102
RTVSPost2010PropOp34
 70
     1
102
RTVSPost2010Prop35
280
     0
102
RTVSPost2010PropOp35
 70
     1
102
RTVSPost2010Prop36
280
     0
102
RTVSPost2010PropOp36
 70
     1
102
RTVSPost2010Prop37
 90
       50
102
RTVSPost2010PropOp37
 70
     1
102
RTVSPost2010Prop38
140
0.0
102
RTVSPost2010PropOp38
 70
     1
102
RTVSPost2010Prop39
140
1.0
102
RTVSPost2010PropOp39
 70
     1
102
RTVSPost2010Prop40
 90
        0
102
RTVSPost2010PropOp40
 70
     1
102
RTVSPost2010Prop41ColorIndex
 90
       18
102
RTVSPost2010Prop41ColorRGB
 90
        0
102
RTVSPost2010PropOp41
 70
     1
102
RTVSPost2010Prop42
 90
       50
102
RTVSPost2010PropOp42
 70
     1
102
RTVSPost2010Prop43
 90
        3
102
RTVSPost2010PropOp43
 70
     1
102
RTVSPost2010Prop44ColorIndex
 90
        5
102
RTVSPost2010Prop44ColorRGB
 90
      255
102
RTVSPost2010PropOp44
 70
     1
102
RTVSPost2010Prop45
280
     0
102
RTVSPost2010PropOp45
 70
     1
102
RTVSPost2010Prop46
 90
       50
102
RTVSPost2010PropOp46
 70
     1
102
RTVSPost2010Prop47
 90
       50
102
RTVSPost2010PropOp47
 70
     1
102
RTVSPost2010Prop48
 90
       50
102
RTVSPost2010PropOp48
 70
     1
102
RTVSPost2010Prop49
280
     0
102
RTVSPost2010PropOp49
 70
     1
102
RTVSPost2010Prop50
 90
       50
102
RTVSPost2010PropOp50
 70
     1
102
RTVSPost2010Prop51ColorIndex
 90
      256
102
RTVSPost2010Prop51ColorRGB
 90
-16777216
102
RTVSPost2010PropOp51
 70
     0
102
RTVSPost2010Prop52
140
1.0
102
RTVSPost2010PropOp52
 70
     0
102
RTVSPost2010Prop53
 90
        2
102
RTVSPost2010PropOp53
 70
     1
102
RTVSPost2010Prop54
  1
strokes_ogs.tif
102
RTVSPost2010PropOp54
 70
     1
102
RTVSPost2010Prop55
280
     0
102
RTVSPost2010PropOp55
 70
     1
102
RTVSPost2010Prop56
140
1.0
102
RTVSPost2010PropOp56
 70
     1
102
RTVSPost2010Prop57
140
1.0
102
RTVSPost2010PropOp57
 70
     1
102
RTVSPropertyOp0
 70
     1
102
RTVSPropertyOp1
 70
     1
102
RTVSPropertyOp2
 70
     1
102
RTVSPropertyOp3
 70
     1
102
RTVSPropertyOp4
 70
     1
102
RTVSPropertyOp5
 70
     1
102
RTVSPropertyOp6
 70
     1
102
RTVSPropertyOp7
 70
     1
102
RTVSPropertyOp8
 70
     1
102
RTVSPropertyOp9
 70
     1
102
RTVSPropertyOp10
 70
     1
102
RTVSPropertyOp11
 70
     1
102
RTVSPropertyOp12
 70
     1
102
RTVSPropertyOp13
 70
     1
102
RTVSPropertyOp14
 70
     1
102
RTVSPropertyOp15
 70
     1
102
RTVSPropertyOp16
 70
     1
102
RTVSPropertyOp17
 70
     1
102
RTVSPropertyOp18
 70
     1
102
RTVSPropertyOp19
 70
     1
102
RTVSPropertyOp20
 70
     1
102
RTVSPropertyOp21
 70
     1
102
RTVSPropertyOp22
 70
     1
102
RTVSPropertyOp23
 70
     1
102
RTVSPropertyOp24
 70
     1
102
RTVSPropertyOp25
 70
     1
102
RTVSPropertyOp26
 70
     1
102
RTVSPropertyOp27
 70
     1
102
RTVSPropertyOp28
 70
     1
102
RTVSPropertyOp29
 70
     1
102
RTVSPropertyOp30
 70
     1
102
RTVSPropertyOp31
 70
     1
102
RTVSPropertyOp32
 70
     1
102
RTVSPropertyOp33
 70
     1
102
RTVSPropertyOp34
 70
     1
102
RTVSPropertyOp35
 70
     1
102
RTVSPropertyOp36
 70
     1
102
RTVSPropertyOp37
 70
     1
102
RTVSPropertyOp38
 70
     1
102
RTVSPropertyOp39
 70
     1
102
RTVSPropertyOp40
 70
     1
102
RTVSPropertyOp41
 70
     1
102
RTVSPropertyOp42
 70
     1
102
RTVSPropertyOp43
 70
     1
102
RTVSPropertyOp44
 70
     1
102
RTVSPropertyOp45
 70
     1
102
RTVSPropertyOp46
 70
     1
102
RTVSPropertyOp47
 70
     1
102
RTVSPropertyOp48
 70
     1
102
RTVSPropertyOp49
 70
     1
102
RTVSPropertyOp50
 70
     1
102
RTVSPropertyOp51
 70
     0
102
RTVSPropertyOp52
 70
     0
102
RTVSPropertyOp53
 70
     1
102
RTVSPropertyOp54
 70
     1
102
RTVSPropertyOp55
 70
     1
102
RTVSPropertyOp56
 70
     1
102
RTVSPropertyOp57
 70
     1
102
RTVSPropertyOp58
 70
     1
102
RTVSPropertyOp59
 70
     1
102
RTVSPropertyOp60
 70
     1
102
RTVSPropertyOp61
 70
     1
102
RTVSPropertyOp62
 70
     1
  0
XRECORD
  5
37B
102
{ACAD_REACTORS
330
37A
102
}
330
37A
100
AcDbXrecord
280
     1
102
RTVSPost2010Prop28
280
     0
102
RTVSPost2010PropOp28
 70
     1
102
RTVSPost2010Prop29
280
     1
102
RTVSPost2010PropOp29
 70
     1
102
RTVSPost2010Prop30
280
     1
102
RTVSPost2010PropOp30
 70
     1
102
RTVSPost2010Prop31
280
     0
102
RTVSPost2010PropOp31
 70
     1
102
RTVSPost2010Prop32
280
     0
102
RTVSPost2010PropOp32
 70
     1
102
RTVSPost2010Prop33
280
     0
102
RTVSPost2010PropOp33
 70
     1
102
RTVSPost2010Prop34
280
     0
102
RTVSPost2010PropOp34
 70
     1
102
RTVSPost2010Prop35
280
     0
102
RTVSPost2010PropOp35
 70
     1
102
RTVSPost2010Prop36
280
     0
102
RTVSPost2010PropOp36
 70
     1
102
RTVSPost2010Prop37
 90
       50
102
RTVSPost2010PropOp37
 70
     1
102
RTVSPost2010Prop38
140
0.0
102
RTVSPost2010PropOp38
 70
     1
102
RTVSPost2010Prop39
140
1.0
102
RTVSPost2010PropOp39
 70
     1
102
RTVSPost2010Prop40
 90
        0
102
RTVSPost2010PropOp40
 70
     1
102
RTVSPost2010Prop41ColorIndex
 90
       18
102
RTVSPost2010Prop41ColorRGB
 90
        0
102
RTVSPost2010PropOp41
 70
     1
102
RTVSPost2010Prop42
 90
       50
102
RTVSPost2010PropOp42
 70
     1
102
RTVSPost2010Prop43
 90
        3
102
RTVSPost2010PropOp43
 70
     1
102
RTVSPost2010Prop44ColorIndex
 90
        5
102
RTVSPost2010Prop44ColorRGB
 90
      255
102
RTVSPost2010PropOp44
 70
     1
102
RTVSPost2010Prop45
280
     0
102
RTVSPost2010PropOp45
 70
     1
102
RTVSPost2010Prop46
 90
       50
102
RTVSPost2010PropOp46
 70
     1
102
RTVSPost2010Prop47
 90
       50
102
RTVSPost2010PropOp47
 70
     1
102
RTVSPost2010Prop48
 90
       50
102
RTVSPost2010PropOp48
 70
     1
102
RTVSPost2010Prop49
280
     0
102
RTVSPost2010PropOp49
 70
     1
102
RTVSPost2010Prop50
 90
       50
102
RTVSPost2010PropOp50
 70
     1
102
RTVSPost2010Prop51ColorIndex
 90
      256
102
RTVSPost2010Prop51ColorRGB
 90
-16777216
102
RTVSPost2010PropOp51
 70
     0
102
RTVSPost2010Prop52
140
1.0
102
RTVSPost2010PropOp52
 70
     0
102
RTVSPost2010Prop53
 90
        2
102
RTVSPost2010PropOp53
 70
     1
102
RTVSPost2010Prop54
  1
strokes_ogs.tif
102
RTVSPost2010PropOp54
 70
     1
102
RTVSPost2010Prop55
280
     0
102
RTVSPost2010PropOp55
 70
     1
102
RTVSPost2010Prop56
140
1.0
102
RTVSPost2010PropOp56
 70
     1
102
RTVSPost2010Prop57
140
1.0
102
RTVSPost2010PropOp57
 70
     1
102
RTVSPropertyOp0
 70
     1
102
RTVSPropertyOp1
 70
     1
102
RTVSPropertyOp2
 70
     1
102
RTVSPropertyOp3
 70
     1
102
RTVSPropertyOp4
 70
     1
102
RTVSPropertyOp5
 70
     1
102
RTVSPropertyOp6
 70
     1
102
RTVSPropertyOp7
 70
     1
102
RTVSPropertyOp8
 70
     1
102
RTVSPropertyOp9
 70
     1
102
RTVSPropertyOp10
 70
     1
102
RTVSPropertyOp11
 70
     1
102
RTVSPropertyOp12
 70
     1
102
RTVSPropertyOp13
 70
     1
102
RTVSPropertyOp14
 70
     1
102
RTVSPropertyOp15
 70
     1
102
RTVSPropertyOp16
 70
     1
102
RTVSPropertyOp17
 70
     1
102
RTVSPropertyOp18
 70
     1
102
RTVSPropertyOp19
 70
     1
102
RTVSPropertyOp20
 70
     1
102
RTVSPropertyOp21
 70
     1
102
RTVSPropertyOp22
 70
     1
102
RTVSPropertyOp23
 70
     1
102
RTVSPropertyOp24
 70
     1
102
RTVSPropertyOp25
 70
     1
102
RTVSPropertyOp26
 70
     1
102
RTVSPropertyOp27
 70
     1
102
RTVSPropertyOp28
 70
     1
102
RTVSPropertyOp29
 70
     1
102
RTVSPropertyOp30
 70
     1
102
RTVSPropertyOp31
 70
     1
102
RTVSPropertyOp32
 70
     1
102
RTVSPropertyOp33
 70
     1
102
RTVSPropertyOp34
 70
     1
102
RTVSPropertyOp35
 70
     1
102
RTVSPropertyOp36
 70
     1
102
RTVSPropertyOp37
 70
     1
102
RTVSPropertyOp38
 70
     1
102
RTVSPropertyOp39
 70
     1
102
RTVSPropertyOp40
 70
     1
102
RTVSPropertyOp41
 70
     1
102
RTVSPropertyOp42
 70
     1
102
RTVSPropertyOp43
 70
     1
102
RTVSPropertyOp44
 70
     1
102
RTVSPropertyOp45
 70
     1
102
RTVSPropertyOp46
 70
     1
102
RTVSPropertyOp47
 70
     1
102
RTVSPropertyOp48
 70
     1
102
RTVSPropertyOp49
 70
     1
102
RTVSPropertyOp50
 70
     1
102
RTVSPropertyOp51
 70
     0
102
RTVSPropertyOp52
 70
     0
102
RTVSPropertyOp53
 70
     1
102
RTVSPropertyOp54
 70
     1
102
RTVSPropertyOp55
 70
     1
102
RTVSPropertyOp56
 70
     1
102
RTVSPropertyOp57
 70
     1
102
RTVSPropertyOp58
 70
     1
102
RTVSPropertyOp59
 70
     1
102
RTVSPropertyOp60
 70
     1
102
RTVSPropertyOp61
 70
     1
102
RTVSPropertyOp62
 70
     1
  0
XRECORD
  5
39B
102
{ACAD_REACTORS
330
39A
102
}
330
39A
100
AcDbXrecord
280
     1
102
RTVSPost2010Prop28
280
     0
102
RTVSPost2010PropOp28
 70
     1
102
RTVSPost2010Prop29
280
     1
102
RTVSPost2010PropOp29
 70
     1
102
RTVSPost2010Prop30
280
     1
102
RTVSPost2010PropOp30
 70
     1
102
RTVSPost2010Prop31
280
     0
102
RTVSPost2010PropOp31
 70
     1
102
RTVSPost2010Prop32
280
     0
102
RTVSPost2010PropOp32
 70
     1
102
RTVSPost2010Prop33
280
     0
102
RTVSPost2010PropOp33
 70
     1
102
RTVSPost2010Prop34
280
     0
102
RTVSPost2010PropOp34
 70
     1
102
RTVSPost2010Prop35
280
     0
102
RTVSPost2010PropOp35
 70
     1
102
RTVSPost2010Prop36
280
     0
102
RTVSPost2010PropOp36
 70
     1
102
RTVSPost2010Prop37
 90
       50
102
RTVSPost2010PropOp37
 70
     1
102
RTVSPost2010Prop38
140
0.0
102
RTVSPost2010PropOp38
 70
     1
102
RTVSPost2010Prop39
140
1.0
102
RTVSPost2010PropOp39
 70
     1
102
RTVSPost2010Prop40
 90
        0
102
RTVSPost2010PropOp40
 70
     1
102
RTVSPost2010Prop41ColorIndex
 90
       18
102
RTVSPost2010Prop41ColorRGB
 90
        0
102
RTVSPost2010PropOp41
 70
     1
102
RTVSPost2010Prop42
 90
       50
102
RTVSPost2010PropOp42
 70
     1
102
RTVSPost2010Prop43
 90
        3
102
RTVSPost2010PropOp43
 70
     1
102
RTVSPost2010Prop44ColorIndex
 90
        5
102
RTVSPost2010Prop44ColorRGB
 90
      255
102
RTVSPost2010PropOp44
 70
     1
102
RTVSPost2010Prop45
280
     0
102
RTVSPost2010PropOp45
 70
     1
102
RTVSPost2010Prop46
 90
       50
102
RTVSPost2010PropOp46
 70
     1
102
RTVSPost2010Prop47
 90
       50
102
RTVSPost2010PropOp47
 70
     1
102
RTVSPost2010Prop48
 90
       50
102
RTVSPost2010PropOp48
 70
     1
102
RTVSPost2010Prop49
280
     0
102
RTVSPost2010PropOp49
 70
     1
102
RTVSPost2010Prop50
 90
       50
102
RTVSPost2010PropOp50
 70
     1
102
RTVSPost2010Prop51ColorIndex
 90
      256
102
RTVSPost2010Prop51ColorRGB
 90
-16777216
102
RTVSPost2010PropOp51
 70
     0
102
RTVSPost2010Prop52
140
1.0
102
RTVSPost2010PropOp52
 70
     0
102
RTVSPost2010Prop53
 90
        2
102
RTVSPost2010PropOp53
 70
     1
102
RTVSPost2010Prop54
  1
strokes_ogs.tif
102
RTVSPost2010PropOp54
 70
     1
102
RTVSPost2010Prop55
280
     0
102
RTVSPost2010PropOp55
 70
     1
102
RTVSPost2010Prop56
140
1.0
102
RTVSPost2010PropOp56
 70
     1
102
RTVSPost2010Prop57
140
1.0
102
RTVSPost2010PropOp57
 70
     1
102
RTVSPropertyOp0
 70
     1
102
RTVSPropertyOp1
 70
     1
102
RTVSPropertyOp2
 70
     1
102
RTVSPropertyOp3
 70
     1
102
RTVSPropertyOp4
 70
     1
102
RTVSPropertyOp5
 70
     1
102
RTVSPropertyOp6
 70
     1
102
RTVSPropertyOp7
 70
     1
102
RTVSPropertyOp8
 70
     1
102
RTVSPropertyOp9
 70
     1
102
RTVSPropertyOp10
 70
     1
102
RTVSPropertyOp11
 70
     1
102
RTVSPropertyOp12
 70
     1
102
RTVSPropertyOp13
 70
     1
102
RTVSPropertyOp14
 70
     1
102
RTVSPropertyOp15
 70
     1
102
RTVSPropertyOp16
 70
     1
102
RTVSPropertyOp17
 70
     1
102
RTVSPropertyOp18
 70
     1
102
RTVSPropertyOp19
 70
     1
102
RTVSPropertyOp20
 70
     1
102
RTVSPropertyOp21
 70
     1
102
RTVSPropertyOp22
 70
     1
102
RTVSPropertyOp23
 70
     1
102
RTVSPropertyOp24
 70
     1
102
RTVSPropertyOp25
 70
     1
102
RTVSPropertyOp26
 70
     1
102
RTVSPropertyOp27
 70
     1
102
RTVSPropertyOp28
 70
     1
102
RTVSPropertyOp29
 70
     1
102
RTVSPropertyOp30
 70
     1
102
RTVSPropertyOp31
 70
     1
102
RTVSPropertyOp32
 70
     1
102
RTVSPropertyOp33
 70
     1
102
RTVSPropertyOp34
 70
     1
102
RTVSPropertyOp35
 70
     1
102
RTVSPropertyOp36
 70
     1
102
RTVSPropertyOp37
 70
     1
102
RTVSPropertyOp38
 70
     1
102
RTVSPropertyOp39
 70
     1
102
RTVSPropertyOp40
 70
     1
102
RTVSPropertyOp41
 70
     1
102
RTVSPropertyOp42
 70
     1
102
RTVSPropertyOp43
 70
     1
102
RTVSPropertyOp44
 70
     1
102
RTVSPropertyOp45
 70
     1
102
RTVSPropertyOp46
 70
     1
102
RTVSPropertyOp47
 70
     1
102
RTVSPropertyOp48
 70
     1
102
RTVSPropertyOp49
 70
     1
102
RTVSPropertyOp50
 70
     1
102
RTVSPropertyOp51
 70
     0
102
RTVSPropertyOp52
 70
     0
102
RTVSPropertyOp53
 70
     1
102
RTVSPropertyOp54
 70
     1
102
RTVSPropertyOp55
 70
     1
102
RTVSPropertyOp56
 70
     1
102
RTVSPropertyOp57
 70
     1
102
RTVSPropertyOp58
 70
     1
102
RTVSPropertyOp59
 70
     1
102
RTVSPropertyOp60
 70
     1
102
RTVSPropertyOp61
 70
     1
102
RTVSPropertyOp62
 70
     1
  0
ENDSEC
  0
EOF
