  0
SECTION
  2
HEADER
  9
$ACADVER
  1
AC1018
  9
$ACADMAINTVER
 70
   104
  9
$DWGCODEPAGE
  3
ANSI_1250
  9
$LASTSAVEDBY
  1
wq7085
  9
$INSBASE
 10
0.0
 20
0.0
 30
0.0
  9
$EXTMIN
 10
188.6658343333333
 20
118.534924
 30
0.0
  9
$EXTMAX
 10
407.4508149999999
 20
345.2288016666667
 30
0.0
  9
$LIMMIN
 10
-0.5
 20
-0.5
  9
$LIMMAX
 10
5.0
 20
5.0
  9
$ORTHOMODE
 70
     0
  9
$REGENMODE
 70
     1
  9
$FILLMODE
 70
     1
  9
$QTEXTMODE
 70
     0
  9
$MIRRTEXT
 70
     1
  9
$LTSCALE
 40
1.0
  9
$ATTMODE
 70
     1
  9
$TEXTSIZE
 40
0.2
  9
$TRACEWID
 40
0.05
  9
$TEXTSTYLE
  7
Standard
  9
$CLAYER
  8
0
  9
$CELTYPE
  6
ByLayer
  9
$CECOLOR
 62
   256
  9
$CELTSCALE
 40
1.0
  9
$DISPSILH
 70
     0
  9
$DIMSCALE
 40
1.0
  9
$DIMASZ
 40
0.18
  9
$DIMEXO
 40
0.0625
  9
$DIMDLI
 40
0.38
  9
$DIMRND
 40
0.0
  9
$DIMDLE
 40
0.0
  9
$DIMEXE
 40
0.18
  9
$DIMTP
 40
0.0
  9
$DIMTM
 40
0.0
  9
$DIMTXT
 40
0.18
  9
$DIMCEN
 40
0.09
  9
$DIMTSZ
 40
0.0
  9
$DIMTOL
 70
     0
  9
$DIMLIM
 70
     0
  9
$DIMTIH
 70
     1
  9
$DIMTOH
 70
     1
  9
$DIMSE1
 70
     0
  9
$DIMSE2
 70
     0
  9
$DIMTAD
 70
     0
  9
$DIMZIN
 70
     0
  9
$DIMBLK
  1

  9
$DIMASO
 70
     1
  9
$DIMSHO
 70
     1
  9
$DIMPOST
  1

  9
$DIMAPOST
  1

  9
$DIMALT
 70
     0
  9
$DIMALTD
 70
     2
  9
$DIMALTF
 40
25.4
  9
$DIMLFAC
 40
1.0
  9
$DIMTOFL
 70
     0
  9
$DIMTVP
 40
0.0
  9
$DIMTIX
 70
     0
  9
$DIMSOXD
 70
     0
  9
$DIMSAH
 70
     0
  9
$DIMBLK1
  1

  9
$DIMBLK2
  1

  9
$DIMSTYLE
  2
Standard
  9
$DIMCLRD
 70
     0
  9
$DIMCLRE
 70
     0
  9
$DIMCLRT
 70
     0
  9
$DIMTFAC
 40
1.0
  9
$DIMGAP
 40
0.09
  9
$DIMJUST
 70
     0
  9
$DIMSD1
 70
     0
  9
$DIMSD2
 70
     0
  9
$DIMTOLJ
 70
     1
  9
$DIMTZIN
 70
     0
  9
$DIMALTZ
 70
     0
  9
$DIMALTTZ
 70
     0
  9
$DIMUPT
 70
     0
  9
$DIMDEC
 70
     4
  9
$DIMTDEC
 70
     4
  9
$DIMALTU
 70
     2
  9
$DIMALTTD
 70
     2
  9
$DIMTXSTY
  7
Standard
  9
$DIMAUNIT
 70
     0
  9
$DIMADEC
 70
     0
  9
$DIMALTRND
 40
0.0
  9
$DIMAZIN
 70
     0
  9
$DIMDSEP
 70
    46
  9
$DIMATFIT
 70
     3
  9
$DIMFRAC
 70
     0
  9
$DIMLDRBLK
  1

  9
$DIMLUNIT
 70
     2
  9
$DIMLWD
 70
    -2
  9
$DIMLWE
 70
    -2
  9
$DIMTMOVE
 70
     0
  9
$LUNITS
 70
     2
  9
$LUPREC
 70
     4
  9
$SKETCHINC
 40
0.1
  9
$FILLETRAD
 40
0.5
  9
$AUNITS
 70
     0
  9
$AUPREC
 70
     0
  9
$MENU
  1
.
  9
$ELEVATION
 40
0.0
  9
$PELEVATION
 40
0.0
  9
$THICKNESS
 40
0.0
  9
$LIMCHECK
 70
     0
  9
$CHAMFERA
 40
0.0
  9
$CHAMFERB
 40
0.0
  9
$CHAMFERC
 40
0.0
  9
$CHAMFERD
 40
0.0
  9
$SKPOLY
 70
     0
  9
$TDCREATE
 40
2459005.391516204
  9
$TDUCREATE
 40
2459005.308191378
  9
$TDUPDATE
 40
2459005.392164352
  9
$TDUUPDATE
 40
2459005.308831018
  9
$TDINDWG
 40
0.0003703819
  9
$TDUSRTIMER
 40
0.0003703819
  9
$USRTIMER
 70
     1
  9
$ANGBASE
 50
0.0
  9
$ANGDIR
 70
     0
  9
$PDMODE
 70
     0
  9
$PDSIZE
 40
0.0
  9
$PLINEWID
 40
0.0
  9
$SPLFRAME
 70
     0
  9
$SPLINETYPE
 70
     6
  9
$SPLINESEGS
 70
     8
  9
$HANDSEED
  5
39C
  9
$SURFTAB1
 70
     6
  9
$SURFTAB2
 70
     6
  9
$SURFTYPE
 70
     6
  9
$SURFU
 70
     6
  9
$SURFV
 70
     6
  9
$UCSBASE
  2

  9
$UCSNAME
  2

  9
$UCSORG
 10
274.404842
 20
288.907994
 30
0.0
  9
$UCSXDIR
 10
1.0
 20
0.0
 30
0.0
  9
$UCSYDIR
 10
0.0
 20
1.0
 30
0.0
  9
$UCSORTHOREF
  2

  9
$UCSORTHOVIEW
 70
     0
  9
$UCSORGTOP
 10
0.0
 20
0.0
 30
0.0
  9
$UCSORGBOTTOM
 10
0.0
 20
0.0
 30
0.0
  9
$UCSORGLEFT
 10
0.0
 20
0.0
 30
0.0
  9
$UCSORGRIGHT
 10
0.0
 20
0.0
 30
0.0
  9
$UCSORGFRONT
 10
0.0
 20
0.0
 30
0.0
  9
$UCSORGBACK
 10
0.0
 20
0.0
 30
0.0
  9
$PUCSBASE
  2

  9
$PUCSNAME
  2

  9
$PUCSORG
 10
0.0
 20
0.0
 30
0.0
  9
$PUCSXDIR
 10
1.0
 20
0.0
 30
0.0
  9
$PUCSYDIR
 10
0.0
 20
1.0
 30
0.0
  9
$PUCSORTHOREF
  2

  9
$PUCSORTHOVIEW
 70
     0
  9
$PUCSORGTOP
 10
0.0
 20
0.0
 30
0.0
  9
$PUCSORGBOTTOM
 10
0.0
 20
0.0
 30
0.0
  9
$PUCSORGLEFT
 10
0.0
 20
0.0
 30
0.0
  9
$PUCSORGRIGHT
 10
0.0
 20
0.0
 30
0.0
  9
$PUCSORGFRONT
 10
0.0
 20
0.0
 30
0.0
  9
$PUCSORGBACK
 10
0.0
 20
0.0
 30
0.0
  9
$USERI1
 70
     0
  9
$USERI2
 70
     0
  9
$USERI3
 70
     0
  9
$USERI4
 70
     0
  9
$USERI5
 70
     0
  9
$USERR1
 40
0.0
  9
$USERR2
 40
0.0
  9
$USERR3
 40
0.0
  9
$USERR4
 40
0.0
  9
$USERR5
 40
0.0
  9
$WORLDVIEW
 70
     1
  9
$SHADEDGE
 70
     3
  9
$SHADEDIF
 70
    70
  9
$TILEMODE
 70
     1
  9
$MAXACTVP
 70
    64
  9
$PINSBASE
 10
0.0
 20
0.0
 30
0.0
  9
$PLIMCHECK
 70
     0
  9
$PEXTMIN
 10
-0.5
 20
-0.5
 30
-0.5
  9
$PEXTMAX
 10
5.0
 20
5.0
 30
5.0
  9
$PLIMMIN
 10
-0.5
 20
-0.5
  9
$PLIMMAX
 10
5.0
 20
5.0
  9
$UNITMODE
 70
     0
  9
$VISRETAIN
 70
     1
  9
$PLINEGEN
 70
     0
  9
$PSLTSCALE
 70
     1
  9
$TREEDEPTH
 70
  3020
  9
$CMLSTYLE
  2
Standard
  9
$CMLJUST
 70
     0
  9
$CMLSCALE
 40
1.0
  9
$PROXYGRAPHICS
 70
     1
  9
$MEASUREMENT
 70
     1
  9
$CELWEIGHT
370
    13
  9
$ENDCAPS
280
     0
  9
$JOINSTYLE
280
     0
  9
$LWDISPLAY
290
     0
  9
$INSUNITS
 70
     4
  9
$HYPERLINKBASE
  1

  9
$STYLESHEET
  1

  9
$XEDIT
290
     1
  9
$CEPSNTYPE
380
     0
  9
$PSTYLEMODE
290
     1
  9
$FINGERPRINTGUID
  2
{3D63DEB5-EF26-4083-AEA1-30AF1756AB78}
  9
$VERSIONGUID
  2
{B639C1EA-634D-E643-B17A-7932435E349E}
  9
$EXTNAMES
290
     1
  9
$PSVPSCALE
 40
0.0
  9
$OLESTARTUP
290
     0
  9
$SORTENTS
280
   127
  9
$INDEXCTL
280
     0
  9
$HIDETEXT
280
     1
  9
$XCLIPFRAME
290
     0
  9
$HALOGAP
280
     0
  9
$OBSCOLOR
 70
   257
  9
$OBSLTYPE
280
     0
  9
$INTERSECTIONDISPLAY
280
     0
  9
$INTERSECTIONCOLOR
 70
   257
  9
$DIMASSOC
280
     2
  9
$PROJECTNAME
  1

  0
ENDSEC
  0
SECTION
  2
CLASSES
  0
CLASS
  1
ACDBDICTIONARYWDFLT
  2
AcDbDictionaryWithDefault
  3
ObjectDBX Classes
 90
        0
 91
        1
280
     0
281
     0
  0
CLASS
  1
VISUALSTYLE
  2
AcDbVisualStyle
  3
ObjectDBX Classes
 90
     4095
 91
       24
280
     0
281
     0
  0
CLASS
  1
MATERIAL
  2
AcDbMaterial
  3
ObjectDBX Classes
 90
     1153
 91
        3
280
     0
281
     0
  0
CLASS
  1
SCALE
  2
AcDbScale
  3
ObjectDBX Classes
 90
     1153
 91
       33
280
     0
281
     0
  0
CLASS
  1
TABLESTYLE
  2
AcDbTableStyle
  3
ObjectDBX Classes
 90
     4095
 91
        1
280
     0
281
     0
  0
CLASS
  1
MLEADERSTYLE
  2
AcDbMLeaderStyle
  3
ACDB_MLEADERSTYLE_CLASS
 90
     4095
 91
        1
280
     0
281
     0
  0
CLASS
  1
SUN
  2
AcDbSun
  3
SCENEOE
 90
     1153
 91
        0
280
     0
281
     0
  0
CLASS
  1
DIMASSOC
  2
AcDbDimAssoc
  3
"AcDbDimAssoc|Product Desc:     AcDim ARX App For Dimension|Company:          Autodesk, Inc.|WEB Address:      www.autodesk.com"
 90
        0
 91
        7
280
     0
281
     0
  0
CLASS
  1
DICTIONARYVAR
  2
AcDbDictionaryVar
  3
ObjectDBX Classes
 90
        0
 91
        8
280
     0
281
     0
  0
CLASS
  1
CELLSTYLEMAP
  2
AcDbCellStyleMap
  3
ObjectDBX Classes
 90
     1152
 91
        2
280
     0
281
     0
  0
CLASS
  1
ACDBSECTIONVIEWSTYLE
  2
AcDbSectionViewStyle
  3
ObjectDBX Classes
 90
     1025
 91
        1
280
     0
281
     0
  0
CLASS
  1
ACDBDETAILVIEWSTYLE
  2
AcDbDetailViewStyle
  3
ObjectDBX Classes
 90
     1025
 91
        1
280
     0
281
     0
  0
CLASS
  1
SORTENTSTABLE
  2
AcDbSortentsTable
  3
ObjectDBX Classes
 90
        0
 91
        1
280
     0
281
     0
  0
ENDSEC
  0
SECTION
  2
TABLES
  0
TABLE
  2
VPORT
  5
8
330
0
100
AcDbSymbolTable
 70
    16
  0
VPORT
  5
29
330
8
100
AcDbSymbolTableRecord
100
AcDbViewportTableRecord
  2
*Active
 70
     0
 10
0.0
 20
0.0
 11
1.0
 21
1.0
 12
324.7447654747797
 22
292.0211449470214
 13
0.0
 23
0.0
 14
0.5
 24
0.5
 15
0.5
 25
0.5
 16
0.0
 26
0.0
 36
1.0
 17
0.0
 27
0.0
 37
0.0
 40
203.2539324422933
 41
2.283154121863799
 42
50.0
 43
419.762919
 44
-419.762919
 50
0.0
 51
0.0
 71
     0
 72
   100
 73
     1
 74
     3
 75
     0
 76
     0
 77
     0
 78
     0
281
     0
 65
     1
110
274.404842
120
288.907994
130
0.0
111
1.0
121
0.0
131
0.0
112
0.0
122
1.0
132
0.0
 79
     0
146
0.0
1001
ACAD_NAV_VCDISPLAY
1070
     3
  0
VPORT
  5
2A0
330
8
100
AcDbSymbolTableRecord
100
AcDbViewportTableRecord
  2
L1
 70
     0
 10
0.0
 20
0.0
 11
1.0
 21
1.0
 12
297.554115
 22
231.864139
 13
0.0
 23
0.0
 14
0.5
 24
0.5
 15
0.5
 25
0.5
 16
0.0
 26
0.0
 36
1.0
 17
0.0
 27
0.0
 37
0.0
 40
207.433333
 41
0.085602
 42
50.0
 43
419.762919
 44
-419.762919
 50
0.0
 51
0.0
 71
     0
 72
   100
 73
     1
 74
     3
 75
     0
 76
     0
 77
     0
 78
     0
281
     0
 65
     1
110
0.0
120
0.0
130
0.0
111
1.0
121
0.0
131
0.0
112
0.0
122
1.0
132
0.0
 79
     0
146
0.0
  0
VPORT
  5
2A1
330
8
100
AcDbSymbolTableRecord
100
AcDbViewportTableRecord
  2
L2
 70
     0
 10
0.0
 20
0.0
 11
0.5
 21
1.0
 12
0.0
 22
0.0
 13
0.0
 23
0.0
 14
0.5
 24
0.5
 15
0.5
 25
0.5
 16
0.0
 26
-1.0
 36
0.0
 17
0.0
 27
0.0
 37
0.0
 40
1319.735116
 41
0.013455
 42
50.0
 43
679.920199
 44
-679.920199
 50
0.0
 51
0.0
 71
     0
 72
   100
 73
     1
 74
     3
 75
     0
 76
     0
 77
     0
 78
     0
281
     0
 65
     1
110
0.0
120
0.0
130
0.0
111
1.0
121
0.0
131
0.0
112
0.0
122
1.0
132
0.0
 79
     0
146
0.0
  0
VPORT
  5
2A2
330
8
100
AcDbSymbolTableRecord
100
AcDbViewportTableRecord
  2
L2
 70
     0
 10
0.5
 20
0.0
 11
1.0
 21
1.0
 12
0.0
 22
0.0
 13
0.0
 23
0.0
 14
0.5
 24
0.5
 15
0.5
 25
0.5
 16
1.0
 26
0.0
 36
0.0
 17
0.0
 27
0.0
 37
0.0
 40
1319.735116
 41
0.013455
 42
50.0
 43
667.9688169999999
 44
-667.9688169999999
 50
0.0
 51
0.0
 71
     0
 72
   100
 73
     1
 74
     3
 75
     0
 76
     0
 77
     0
 78
     0
281
     0
 65
     1
110
0.0
120
0.0
130
0.0
111
1.0
121
0.0
131
0.0
112
0.0
122
1.0
132
0.0
 79
     0
146
0.0
  0
VPORT
  5
2A3
330
8
100
AcDbSymbolTableRecord
100
AcDbViewportTableRecord
  2
L3
 70
     0
 10
0.0
 20
0.5
 11
1.0
 21
1.0
 12
297.554115
 22
231.864139
 13
0.0
 23
0.0
 14
0.5
 24
0.5
 15
0.5
 25
0.5
 16
0.0
 26
0.0
 36
1.0
 17
0.0
 27
0.0
 37
0.0
 40
207.433333
 41
0.085602
 42
50.0
 43
419.762919
 44
-419.762919
 50
0.0
 51
0.0
 71
     0
 72
   100
 73
     1
 74
     3
 75
     0
 76
     0
 77
     0
 78
     0
281
     0
 65
     1
110
0.0
120
0.0
130
0.0
111
1.0
121
0.0
131
0.0
112
0.0
122
1.0
132
0.0
 79
     0
146
0.0
  0
VPORT
  5
2A4
330
8
100
AcDbSymbolTableRecord
100
AcDbViewportTableRecord
  2
L3
 70
     0
 10
0.0
 20
0.0
 11
1.0
 21
0.5
 12
0.0
 22
0.0
 13
0.0
 23
0.0
 14
0.5
 24
0.5
 15
0.5
 25
0.5
 16
0.0
 26
-1.0
 36
0.0
 17
0.0
 27
0.0
 37
0.0
 40
1319.735116
 41
0.013455
 42
50.0
 43
679.920199
 44
-679.920199
 50
0.0
 51
0.0
 71
     0
 72
   100
 73
     1
 74
     3
 75
     0
 76
     0
 77
     0
 78
     0
281
     0
 65
     1
110
0.0
120
0.0
130
0.0
111
1.0
121
0.0
131
0.0
112
0.0
122
1.0
132
0.0
 79
     0
146
0.0
  0
VPORT
  5
2A5
330
8
100
AcDbSymbolTableRecord
100
AcDbViewportTableRecord
  2
L4
 70
     0
 10
0.0
 20
0.5
 11
0.5
 21
1.0
 12
297.554115
 22
231.864139
 13
0.0
 23
0.0
 14
0.5
 24
0.5
 15
0.5
 25
0.5
 16
0.0
 26
0.0
 36
1.0
 17
0.0
 27
0.0
 37
0.0
 40
207.433333
 41
0.085602
 42
50.0
 43
419.762919
 44
-419.762919
 50
0.0
 51
0.0
 71
     0
 72
   100
 73
     1
 74
     3
 75
     0
 76
     0
 77
     0
 78
     0
281
     0
 65
     1
110
0.0
120
0.0
130
0.0
111
1.0
121
0.0
131
0.0
112
0.0
122
1.0
132
0.0
 79
     0
146
0.0
  0
VPORT
  5
2A6
330
8
100
AcDbSymbolTableRecord
100
AcDbViewportTableRecord
  2
L4
 70
     0
 10
0.0
 20
0.0
 11
0.5
 21
0.5
 12
0.0
 22
0.0
 13
0.0
 23
0.0
 14
0.5
 24
0.5
 15
0.5
 25
0.5
 16
0.0
 26
-1.0
 36
0.0
 17
0.0
 27
0.0
 37
0.0
 40
1319.735116
 41
0.013455
 42
50.0
 43
679.920199
 44
-679.920199
 50
0.0
 51
0.0
 71
     0
 72
   100
 73
     1
 74
     3
 75
     0
 76
     0
 77
     0
 78
     0
281
     0
 65
     1
110
0.0
120
0.0
130
0.0
111
1.0
121
0.0
131
0.0
112
0.0
122
1.0
132
0.0
 79
     0
146
0.0
  0
VPORT
  5
2A7
330
8
100
AcDbSymbolTableRecord
100
AcDbViewportTableRecord
  2
L4
 70
     0
 10
0.5
 20
0.0
 11
1.0
 21
0.5
 12
0.0
 22
0.0
 13
0.0
 23
0.0
 14
0.5
 24
0.5
 15
0.5
 25
0.5
 16
1.0
 26
0.0
 36
0.0
 17
0.0
 27
0.0
 37
0.0
 40
1319.735116
 41
0.013455
 42
50.0
 43
667.9688169999999
 44
-667.9688169999999
 50
0.0
 51
0.0
 71
     0
 72
   100
 73
     1
 74
     3
 75
     0
 76
     0
 77
     0
 78
     0
281
     0
 65
     1
110
0.0
120
0.0
130
0.0
111
1.0
121
0.0
131
0.0
112
0.0
122
1.0
132
0.0
 79
     0
146
0.0
  0
VPORT
  5
2A8
330
8
100
AcDbSymbolTableRecord
100
AcDbViewportTableRecord
  2
L4
 70
     0
 10
0.5
 20
0.5
 11
1.0
 21
1.0
 12
0.0
 22
0.0
 13
0.0
 23
0.0
 14
0.5
 24
0.5
 15
0.5
 25
0.5
 16
0.5773502691896259
 26
-0.5773502691896259
 36
0.5773502691896259
 17
0.0
 27
0.0
 37
0.0
 40
1296.074958
 41
0.0137
 42
50.0
 43
675.1032679999999
 44
-675.1032679999999
 50
0.0
 51
0.0
 71
     0
 72
   100
 73
     1
 74
     3
 75
     0
 76
     0
 77
     0
 78
     0
281
     0
 65
     1
110
0.0
120
0.0
130
0.0
111
1.0
121
0.0
131
0.0
112
0.0
122
1.0
132
0.0
 79
     0
146
0.0
  0
VPORT
  5
2A9
330
8
100
AcDbSymbolTableRecord
100
AcDbViewportTableRecord
  2
L6
 70
     0
 10
0.0
 20
0.5
 11
0.333333
 21
1.0
 12
0.0
 22
0.0
 13
0.0
 23
0.0
 14
0.5
 24
0.5
 15
0.5
 25
0.5
 16
0.7188730927569434
 26
-0.5850486126764433
 36
0.3754192287502549
 17
0.0
 27
0.0
 37
0.0
 40
1367.812327
 41
0.012982
 42
50.0
 43
708.2012429999999
 44
-708.2012429999999
 50
0.0
 51
0.0
 71
     0
 72
   100
 73
     1
 74
     3
 75
     0
 76
     0
 77
     0
 78
     0
281
     0
 65
     1
110
0.0
120
0.0
130
0.0
111
1.0
121
0.0
131
0.0
112
0.0
122
1.0
132
0.0
 79
     0
146
0.0
  0
VPORT
  5
2AA
330
8
100
AcDbSymbolTableRecord
100
AcDbViewportTableRecord
  2
L6
 70
     0
 10
0.0
 20
0.0
 11
0.333333
 21
0.5
 12
0.0
 22
0.0
 13
0.0
 23
0.0
 14
0.5
 24
0.5
 15
0.5
 25
0.5
 16
-1.0
 26
0.0
 36
0.0
 17
0.0
 27
0.0
 37
0.0
 40
1319.735116
 41
0.013455
 42
50.0
 43
667.9688169999999
 44
-667.9688169999999
 50
0.0
 51
0.0
 71
     0
 72
   100
 73
     1
 74
     3
 75
     0
 76
     0
 77
     0
 78
     0
281
     0
 65
     1
110
0.0
120
0.0
130
0.0
111
1.0
121
0.0
131
0.0
112
0.0
122
1.0
132
0.0
 79
     0
146
0.0
  0
VPORT
  5
2AB
330
8
100
AcDbSymbolTableRecord
100
AcDbViewportTableRecord
  2
L6
 70
     0
 10
0.333333
 20
0.5
 11
0.666667
 21
1.0
 12
297.554115
 22
231.864139
 13
0.0
 23
0.0
 14
0.5
 24
0.5
 15
0.5
 25
0.5
 16
0.0
 26
0.0
 36
1.0
 17
0.0
 27
0.0
 37
0.0
 40
207.433333
 41
0.085602
 42
50.0
 43
419.762919
 44
-419.762919
 50
0.0
 51
0.0
 71
     0
 72
   100
 73
     1
 74
     3
 75
     0
 76
     0
 77
     0
 78
     0
281
     0
 65
     1
110
0.0
120
0.0
130
0.0
111
1.0
121
0.0
131
0.0
112
0.0
122
1.0
132
0.0
 79
     0
146
0.0
  0
VPORT
  5
2AC
330
8
100
AcDbSymbolTableRecord
100
AcDbViewportTableRecord
  2
L6
 70
     0
 10
0.333333
 20
0.0
 11
0.666667
 21
0.5
 12
0.0
 22
0.0
 13
0.0
 23
0.0
 14
0.5
 24
0.5
 15
0.5
 25
0.5
 16
0.0
 26
-1.0
 36
0.0
 17
0.0
 27
0.0
 37
0.0
 40
1319.735116
 41
0.013455
 42
50.0
 43
679.920199
 44
-679.920199
 50
0.0
 51
0.0
 71
     0
 72
   100
 73
     1
 74
     3
 75
     0
 76
     0
 77
     0
 78
     0
281
     0
 65
     1
110
0.0
120
0.0
130
0.0
111
1.0
121
0.0
131
0.0
112
0.0
122
1.0
132
0.0
 79
     0
146
0.0
  0
VPORT
  5
2AD
330
8
100
AcDbSymbolTableRecord
100
AcDbViewportTableRecord
  2
L6
 70
     0
 10
0.666667
 20
0.5
 11
1.0
 21
1.0
 12
0.0
 22
0.0
 13
0.0
 23
0.0
 14
0.5
 24
0.5
 15
0.5
 25
0.5
 16
0.5773502691896259
 26
-0.5773502691896259
 36
0.5773502691896259
 17
0.0
 27
0.0
 37
0.0
 40
1296.074958
 41
0.0137
 42
50.0
 43
675.1032679999999
 44
-675.1032679999999
 50
0.0
 51
0.0
 71
     0
 72
   100
 73
     1
 74
     3
 75
     0
 76
     0
 77
     0
 78
     0
281
     0
 65
     1
110
0.0
120
0.0
130
0.0
111
1.0
121
0.0
131
0.0
112
0.0
122
1.0
132
0.0
 79
     0
146
0.0
  0
VPORT
  5
2AE
330
8
100
AcDbSymbolTableRecord
100
AcDbViewportTableRecord
  2
L6
 70
     0
 10
0.666667
 20
0.0
 11
1.0
 21
0.5
 12
0.0
 22
0.0
 13
0.0
 23
0.0
 14
0.5
 24
0.5
 15
0.5
 25
0.5
 16
1.0
 26
0.0
 36
0.0
 17
0.0
 27
0.0
 37
0.0
 40
1319.735116
 41
0.013455
 42
50.0
 43
667.9688169999999
 44
-667.9688169999999
 50
0.0
 51
0.0
 71
     0
 72
   100
 73
     1
 74
     3
 75
     0
 76
     0
 77
     0
 78
     0
281
     0
 65
     1
110
0.0
120
0.0
130
0.0
111
1.0
121
0.0
131
0.0
112
0.0
122
1.0
132
0.0
 79
     0
146
0.0
  0
ENDTAB
  0
TABLE
  2
LTYPE
  5
5
330
0
100
AcDbSymbolTable
 70
     7
  0
LTYPE
  5
14
330
5
100
AcDbSymbolTableRecord
100
AcDbLinetypeTableRecord
  2
ByBlock
 70
     0
  3

 72
    65
 73
     0
 40
0.0
  0
LTYPE
  5
15
330
5
100
AcDbSymbolTableRecord
100
AcDbLinetypeTableRecord
  2
ByLayer
 70
     0
  3

 72
    65
 73
     0
 40
0.0
  0
LTYPE
  5
16
330
5
100
AcDbSymbolTableRecord
100
AcDbLinetypeTableRecord
  2
Continuous
 70
     0
  3
Solid line
 72
    65
 73
     0
 40
0.0
  0
LTYPE
  5
6E
330
5
100
AcDbSymbolTableRecord
100
AcDbLinetypeTableRecord
  2
CENTER
 70
     0
  3
____ _ ____ _ ____ _ ____
 72
    65
 73
     4
 40
47.4
 49
22.0
 74
     4
 75
     0
340
0
 46
0.0
 50
0.0
 44
0.0
 45
0.0
 49
-8.5
 74
     4
 75
     0
340
0
 46
0.0
 50
0.0
 44
0.0
 45
0.0
 49
8.5
 74
     4
 75
     0
340
0
 46
0.0
 50
0.0
 44
0.0
 45
0.0
 49
-8.5
 74
     4
 75
     0
340
0
 46
0.0
 50
0.0
 44
0.0
 45
0.0
  0
LTYPE
  5
6F
330
5
100
AcDbSymbolTableRecord
100
AcDbLinetypeTableRecord
  2
DASHDOT
 70
     0
  3
_._._._._._._._._._._._._._._._.
 72
    65
 73
     4
 40
70.0
 49
31.0
 74
     4
 75
     0
340
0
 46
0.0
 50
0.0
 44
0.0
 45
0.0
 49
-13.0
 74
     4
 75
     0
340
0
 46
0.0
 50
0.0
 44
0.0
 45
0.0
 49
13.0
 74
     4
 75
     0
340
0
 46
0.0
 50
0.0
 44
0.0
 45
0.0
 49
-13.0
 74
     4
 75
     0
340
0
 46
0.0
 50
0.0
 44
0.0
 45
0.0
  0
LTYPE
  5
70
330
5
100
AcDbSymbolTableRecord
100
AcDbLinetypeTableRecord
  2
DASHED
 70
     0
  3
__ __ __ __ __ __ __ __ __
 72
    65
 73
     2
 40
25.72
 49
12.86
 74
     4
 75
     0
340
0
 46
0.0
 50
0.0
 44
0.0
 45
0.0
 49
-12.86
 74
     4
 75
     0
340
0
 46
0.0
 50
0.0
 44
0.0
 45
0.0
  0
LTYPE
  5
71
330
5
100
AcDbSymbolTableRecord
100
AcDbLinetypeTableRecord
  2
DOT
 70
     0
  3
.........................
 72
    65
 73
     2
 40
10.0
 49
0.0
 74
     4
 75
     0
340
0
 46
0.0
 50
0.0
 44
0.0
 45
0.0
 49
-10.0
 74
     4
 75
     0
340
0
 46
0.0
 50
0.0
 44
0.0
 45
0.0
  0
LTYPE
  5
72
330
5
100
AcDbSymbolTableRecord
100
AcDbLinetypeTableRecord
  2
PHANTOM
 70
     0
  3
____ _ _ ____ _ _ _____ _ _ ____
 72
    65
 73
     6
 40
50.5
 49
18.0
 74
     4
 75
     0
340
0
 46
0.0
 50
0.0
 44
0.0
 45
0.0
 49
-6.5
 74
     4
 75
     0
340
0
 46
0.0
 50
0.0
 44
0.0
 45
0.0
 49
6.5
 74
     4
 75
     0
340
0
 46
0.0
 50
0.0
 44
0.0
 45
0.0
 49
-6.5
 74
     4
 75
     0
340
0
 46
0.0
 50
0.0
 44
0.0
 45
0.0
 49
6.5
 74
     4
 75
     0
340
0
 46
0.0
 50
0.0
 44
0.0
 45
0.0
 49
-6.5
 74
     4
 75
     0
340
0
 46
0.0
 50
0.0
 44
0.0
 45
0.0
  0
LTYPE
  5
33E
330
5
100
AcDbSymbolTableRecord
100
AcDbLinetypeTableRecord
  2
CENTER2
 70
     0
  3
Center (.5x) ___ _ ___ _ ___ _ ___ _ ___ _ ___
 72
    65
 73
     4
 40
1.125
 49
0.75
 74
     0
 49
-0.125
 74
     0
 49
0.125
 74
     0
 49
-0.125
 74
     0
  0
ENDTAB
  0
TABLE
  2
LAYER
  5
2
330
0
100
AcDbSymbolTable
 70
    22
  0
LAYER
  5
10
102
{ACAD_XDICTIONARY
360
349
102
}
330
2
100
AcDbSymbolTableRecord
100
AcDbLayerTableRecord
  2
0
 70
     0
 62
     7
  6
Continuous
370
    -3
390
F
  0
LAYER
  5
1FA
330
2
100
AcDbSymbolTableRecord
100
AcDbLayerTableRecord
  2
Defpoints
 70
     0
 62
     7
  6
Continuous
290
     0
370
    -3
390
F
  0
LAYER
  5
33B
102
{ACAD_XDICTIONARY
360
34B
102
}
330
2
100
AcDbSymbolTableRecord
100
AcDbLayerTableRecord
  2
1
 70
     0
 62
     4
  6
Continuous
370
    -3
390
F
  0
LAYER
  5
33C
102
{ACAD_XDICTIONARY
360
34D
102
}
330
2
100
AcDbSymbolTableRecord
100
AcDbLayerTableRecord
  2
2
 70
     0
 62
     7
  6
Continuous
370
    -3
390
F
  0
LAYER
  5
33D
102
{ACAD_XDICTIONARY
360
34F
102
}
330
2
100
AcDbSymbolTableRecord
100
AcDbLayerTableRecord
  2
4
 70
     0
 62
     2
  6
CENTER2
370
    -3
390
F
  0
LAYER
  5
33F
102
{ACAD_XDICTIONARY
360
351
102
}
330
2
100
AcDbSymbolTableRecord
100
AcDbLayerTableRecord
  2
SK1
 70
     0
 62
     4
  6
Continuous
370
    -3
390
F
  0
LAYER
  5
340
102
{ACAD_XDICTIONARY
360
353
102
}
330
2
100
AcDbSymbolTableRecord
100
AcDbLayerTableRecord
  2
SK2
 70
     0
 62
     7
  6
Continuous
370
    -3
390
F
  0
LAYER
  5
342
102
{ACAD_XDICTIONARY
360
355
102
}
330
2
100
AcDbSymbolTableRecord
100
AcDbLayerTableRecord
  2
SK4
 70
     0
 62
     2
  6
CENTER2
370
    -3
390
F
  0
LAYER
  5
343
102
{ACAD_XDICTIONARY
360
357
102
}
330
2
100
AcDbSymbolTableRecord
100
AcDbLayerTableRecord
  2
SK6
 70
     0
 62
     5
  6
Continuous
370
    -3
390
F
  0
LAYER
  5
344
102
{ACAD_XDICTIONARY
360
359
102
}
330
2
100
AcDbSymbolTableRecord
100
AcDbLayerTableRecord
  2
CUT
 70
     0
 62
     1
  6
Continuous
370
    -3
390
F
  0
LAYER
  5
345
102
{ACAD_XDICTIONARY
360
35B
102
}
330
2
100
AcDbSymbolTableRecord
100
AcDbLayerTableRecord
  2
NOCUT
 70
     0
 62
     7
  6
Continuous
370
    -3
390
F
  0
LAYER
  5
346
102
{ACAD_XDICTIONARY
360
35D
102
}
330
2
100
AcDbSymbolTableRecord
100
AcDbLayerTableRecord
  2
80
 70
     0
 62
     6
  6
Continuous
370
    -3
390
F
  0
LAYER
  5
347
102
{ACAD_XDICTIONARY
360
35F
102
}
330
2
100
AcDbSymbolTableRecord
100
AcDbLayerTableRecord
  2
81
 70
     0
 62
     3
  6
Continuous
370
    -3
390
F
  0
ENDTAB
  0
TABLE
  2
STYLE
  5
3
330
0
100
AcDbSymbolTable
 70
     3
  0
STYLE
  5
11
330
3
100
AcDbSymbolTableRecord
100
AcDbTextStyleTableRecord
  2
Standard
 70
     0
 40
0.0
 41
1.0
 50
0.0
 71
     0
 42
0.2
  3
txt
  4

  0
STYLE
  5
1F3
330
3
100
AcDbSymbolTableRecord
100
AcDbTextStyleTableRecord
  2
cesky
 70
     0
 40
0.0
 41
1.0
 50
0.0
 71
     0
 42
0.2
  3
simplex.shx
  4

  0
STYLE
  5
1F4
330
3
100
AcDbSymbolTableRecord
100
AcDbTextStyleTableRecord
  2
DWGDirectTextStyle
 70
     0
 40
0.0
 41
1.0
 50
0.0
 71
     0
 42
0.2
  3
simplex
  4

  0
ENDTAB
  0
TABLE
  2
VIEW
  5
6
330
0
100
AcDbSymbolTable
 70
     0
  0
ENDTAB
  0
TABLE
  2
UCS
  5
7
330
0
100
AcDbSymbolTable
 70
     0
  0
ENDTAB
  0
TABLE
  2
APPID
  5
9
330
0
100
AcDbSymbolTable
 70
     7
  0
APPID
  5
12
330
9
100
AcDbSymbolTableRecord
100
AcDbRegAppTableRecord
  2
ACAD
 70
     0
  0
APPID
  5
1F6
330
9
100
AcDbSymbolTableRecord
100
AcDbRegAppTableRecord
  2
ACAD_DSTYLE_DIMBREAK
 70
     0
  0
APPID
  5
2AF
330
9
100
AcDbSymbolTableRecord
100
AcDbRegAppTableRecord
  2
ACAD_DSTYLE_DIM_LINETYPE
 70
     0
  0
APPID
  5
2B0
330
9
100
AcDbSymbolTableRecord
100
AcDbRegAppTableRecord
  2
ACAD_DSTYLE_DIM_EXT1_LINETYPE
 70
     0
  0
APPID
  5
2B1
330
9
100
AcDbSymbolTableRecord
100
AcDbRegAppTableRecord
  2
ACAD_DSTYLE_DIM_EXT2_LINETYPE
 70
     0
  0
APPID
  5
2F1
330
9
100
AcDbSymbolTableRecord
100
AcDbRegAppTableRecord
  2
ACAD_MLEADERVER
 70
     0
  0
APPID
  5
364
330
9
100
AcDbSymbolTableRecord
100
AcDbRegAppTableRecord
  2
ACAD_NAV_VCDISPLAY
 70
     0
  0
ENDTAB
  0
TABLE
  2
DIMSTYLE
  5
A
330
0
100
AcDbSymbolTable
 70
     1
100
AcDbDimStyleTable
 71
     0
  0
DIMSTYLE
105
27
330
A
100
AcDbSymbolTableRecord
100
AcDbDimStyleTableRecord
  2
Standard
 70
     0
340
11
1001
ACAD_DSTYLE_DIMBREAK
1070
   391
1040
6.349999999999999
  0
ENDTAB
  0
TABLE
  2
BLOCK_RECORD
  5
1
330
0
100
AcDbSymbolTable
 70
    16
  0
BLOCK_RECORD
  5
1F
102
{ACAD_XDICTIONARY
360
301
102
}
330
1
100
AcDbSymbolTableRecord
100
AcDbBlockTableRecord
  2
*Model_Space
340
22
  0
BLOCK_RECORD
  5
1B
330
1
100
AcDbSymbolTableRecord
100
AcDbBlockTableRecord
  2
*Paper_Space
340
1E
  0
BLOCK_RECORD
  5
23
330
1
100
AcDbSymbolTableRecord
100
AcDbBlockTableRecord
  2
*Paper_Space0
340
26
  0
BLOCK_RECORD
  5
1ED
330
1
100
AcDbSymbolTableRecord
100
AcDbBlockTableRecord
  2
ASSORTED_DRAFT1
340
0
  0
BLOCK_RECORD
  5
1FB
330
1
100
AcDbSymbolTableRecord
100
AcDbBlockTableRecord
  2
*D2
340
0
  0
BLOCK_RECORD
  5
207
330
1
100
AcDbSymbolTableRecord
100
AcDbBlockTableRecord
  2
_U0
340
0
  0
BLOCK_RECORD
  5
213
330
1
100
AcDbSymbolTableRecord
100
AcDbBlockTableRecord
  2
*D4
340
0
  0
BLOCK_RECORD
  5
21E
330
1
100
AcDbSymbolTableRecord
100
AcDbBlockTableRecord
  2
_U1
340
0
  0
BLOCK_RECORD
  5
229
330
1
100
AcDbSymbolTableRecord
100
AcDbBlockTableRecord
  2
*D6
340
0
  0
BLOCK_RECORD
  5
235
330
1
100
AcDbSymbolTableRecord
100
AcDbBlockTableRecord
  2
_U2
340
0
  0
BLOCK_RECORD
  5
242
330
1
100
AcDbSymbolTableRecord
100
AcDbBlockTableRecord
  2
*D8
340
0
  0
BLOCK_RECORD
  5
24E
330
1
100
AcDbSymbolTableRecord
100
AcDbBlockTableRecord
  2
_U3
340
0
  0
BLOCK_RECORD
  5
25B
330
1
100
AcDbSymbolTableRecord
100
AcDbBlockTableRecord
  2
*D10
340
0
  0
BLOCK_RECORD
  5
267
330
1
100
AcDbSymbolTableRecord
100
AcDbBlockTableRecord
  2
_U4
340
0
  0
BLOCK_RECORD
  5
273
330
1
100
AcDbSymbolTableRecord
100
AcDbBlockTableRecord
  2
*D12
340
0
  0
BLOCK_RECORD
  5
27F
330
1
100
AcDbSymbolTableRecord
100
AcDbBlockTableRecord
  2
_U5
340
0
  0
BLOCK_RECORD
  5
28B
330
1
100
AcDbSymbolTableRecord
100
AcDbBlockTableRecord
  2
*D14
340
0
  0
BLOCK_RECORD
  5
297
330
1
100
AcDbSymbolTableRecord
100
AcDbBlockTableRecord
  2
_U6
340
0
  0
ENDTAB
  0
ENDSEC
  0
SECTION
  2
BLOCKS
  0
BLOCK
  5
20
330
1F
100
AcDbEntity
  8
0
100
AcDbBlockBegin
  2
*Model_Space
 70
     0
 10
0.0
 20
0.0
 30
0.0
  3
*Model_Space
  1

  0
ENDBLK
  5
21
330
1F
100
AcDbEntity
  8
0
100
AcDbBlockEnd
  0
BLOCK
  5
1C
330
1B
100
AcDbEntity
 67
     1
  8
0
100
AcDbBlockBegin
  2
*Paper_Space
 70
     0
 10
0.0
 20
0.0
 30
0.0
  3
*Paper_Space
  1

  0
ENDBLK
  5
1D
330
1B
100
AcDbEntity
 67
     1
  8
0
100
AcDbBlockEnd
  0
BLOCK
  5
24
330
23
100
AcDbEntity
 67
     1
  8
0
100
AcDbBlockBegin
  2
*Paper_Space0
 70
     0
 10
0.0
 20
0.0
 30
0.0
  3
*Paper_Space0
  1

  0
ENDBLK
  5
25
330
23
100
AcDbEntity
 67
     1
  8
0
100
AcDbBlockEnd
  0
BLOCK
  5
1F0
330
1ED
100
AcDbEntity
  8
0
100
AcDbBlockBegin
  2
ASSORTED_DRAFT1
 70
     0
 10
0.0
 20
0.0
 30
0.0
  3
ASSORTED_DRAFT1
  1

  0
SOLID
  5
1EE
330
1ED
100
AcDbEntity
  8
0
 62
   254
370
    13
100
AcDbTrace
 10
270.185042
 20
164.534924
 30
0.0
 11
265.185046
 21
163.42645
 31
0.0
 12
265.1850379999999
 22
165.643397
 32
0.0
 13
270.185042
 23
164.534924
 33
0.0
  0
ENDBLK
  5
1F1
330
1ED
100
AcDbEntity
  8
0
100
AcDbBlockEnd
  0
BLOCK
  5
1FC
330
1FB
100
AcDbEntity
  8
0
100
AcDbBlockBegin
  2
*D2
 70
     1
 10
0.0
 20
0.0
 30
0.0
  3
*D2
  1

  0
LINE
  5
1FE
330
1FB
100
AcDbEntity
  8
0
 62
   254
370
    -2
100
AcDbLine
 10
392.404842
 20
304.407994
 30
0.0
 11
392.404842
 21
328.5109970000001
 31
0.0
  0
LINE
  5
1FF
330
1FB
100
AcDbEntity
  8
0
 62
   254
370
    -2
100
AcDbLine
 10
274.404842
 20
288.907994
 30
0.0
 11
274.404842
 21
328.5109970000001
 31
0.0
  0
LINE
  5
200
330
1FB
100
AcDbEntity
  8
0
 62
   254
370
    -2
100
AcDbLine
 10
388.904842
 20
327.510997
 30
0.0
 11
277.904842
 21
327.510997
 31
0.0
  0
SOLID
  5
201
330
1FB
100
AcDbEntity
  8
0
 62
   254
100
AcDbTrace
 10
388.904842
 20
326.927663
 30
0.0
 11
388.904842
 21
328.09433
 31
0.0
 12
392.404842
 22
327.510997
 32
0.0
 13
392.404842
 23
327.510997
 33
0.0
  0
SOLID
  5
202
330
1FB
100
AcDbEntity
  8
0
 62
   254
100
AcDbTrace
 10
277.904842
 20
328.09433
 30
0.0
 11
277.904842
 21
326.927663
 31
0.0
 12
274.404842
 22
327.510997
 32
0.0
 13
274.404842
 23
327.510997
 33
0.0
  0
MTEXT
  5
203
330
1FB
100
AcDbEntity
  8
0
 62
   254
370
    13
100
AcDbMText
 10
333.404842
 20
332.7609970000001
 30
0.0
 40
3.5
 41
0.0
 71
     5
 72
     1
  1
\A1;118
  7
cesky
 73
     1
 44
1.0
  0
POINT
  5
204
330
1FB
100
AcDbEntity
  8
Defpoints
 62
     0
100
AcDbPoint
 10
392.404842
 20
304.407994
 30
0.0
  0
POINT
  5
205
330
1FB
100
AcDbEntity
  8
Defpoints
 62
     0
100
AcDbPoint
 10
274.404842
 20
288.907994
 30
0.0
  0
POINT
  5
206
330
1FB
100
AcDbEntity
  8
Defpoints
 62
     0
100
AcDbPoint
 10
274.404842
 20
327.510997
 30
0.0
  0
ENDBLK
  5
1FD
330
1FB
100
AcDbEntity
  8
0
100
AcDbBlockEnd
  0
BLOCK
  5
20E
330
207
100
AcDbEntity
  8
0
100
AcDbBlockBegin
  2
_U0
 70
     0
 10
0.0
 20
0.0
 30
0.0
  3
_U0
  1

  0
ENDBLK
  5
20F
330
207
100
AcDbEntity
  8
0
100
AcDbBlockEnd
  0
BLOCK
  5
214
330
213
100
AcDbEntity
  8
0
100
AcDbBlockBegin
  2
*D4
 70
     1
 10
0.0
 20
0.0
 30
0.0
  3
*D4
  1

  0
LINE
  5
216
330
213
100
AcDbEntity
  8
0
 62
   254
370
    -2
100
AcDbLine
 10
291.203832
 20
288.907994
 30
0.0
 11
407.4508149999999
 21
288.907994
 31
0.0
  0
LINE
  5
217
330
213
100
AcDbEntity
  8
0
 62
   254
370
    -2
100
AcDbLine
 10
330.83929
 20
304.407994
 30
0.0
 11
407.4508149999999
 21
304.407994
 31
0.0
  0
LINE
  5
218
330
213
100
AcDbEntity
  8
0
 62
   254
370
    -2
100
AcDbLine
 10
406.4508149999999
 20
288.907994
 30
0.0
 11
406.4508149999999
 21
304.407994
 31
0.0
  0
SOLID
  5
219
330
213
100
AcDbEntity
  8
0
 62
   254
100
AcDbTrace
 10
407.034148
 20
300.907994
 30
0.0
 11
405.867481
 21
300.907994
 31
0.0
 12
406.4508149999999
 22
304.407994
 32
0.0
 13
406.4508149999999
 23
304.407994
 33
0.0
  0
MTEXT
  5
21A
330
213
100
AcDbEntity
  8
0
 62
   254
370
    13
100
AcDbMText
 10
401.2008149999999
 20
279.82466
 30
0.0
 40
3.5
 41
0.0
 71
     5
 72
     1
  1
\A1;31
  7
cesky
 11
0.0
 21
1.0
 31
0.0
 73
     1
 44
1.0
  0
POINT
  5
21B
330
213
100
AcDbEntity
  8
Defpoints
 62
     0
100
AcDbPoint
 10
291.203832
 20
288.907994
 30
0.0
  0
POINT
  5
21C
330
213
100
AcDbEntity
  8
Defpoints
 62
     0
100
AcDbPoint
 10
330.83929
 20
304.407994
 30
0.0
  0
POINT
  5
21D
330
213
100
AcDbEntity
  8
Defpoints
 62
     0
100
AcDbPoint
 10
406.4508149999999
 20
304.407994
 30
0.0
  0
ENDBLK
  5
215
330
213
100
AcDbEntity
  8
0
100
AcDbBlockEnd
  0
BLOCK
  5
224
330
21E
100
AcDbEntity
  8
0
100
AcDbBlockBegin
  2
_U1
 70
     0
 10
0.0
 20
0.0
 30
0.0
  3
_U1
  1

  0
ENDBLK
  5
225
330
21E
100
AcDbEntity
  8
0
100
AcDbBlockEnd
  0
BLOCK
  5
22A
330
229
100
AcDbEntity
  8
0
100
AcDbBlockBegin
  2
*D6
 70
     1
 10
0.0
 20
0.0
 30
0.0
  3
*D6
  1

  0
LINE
  5
22C
330
229
100
AcDbEntity
  8
0
 62
    95
370
    -2
100
AcDbLine
 10
216.404842
 20
304.907994
 30
0.0
 11
204.878544
 21
304.907994
 31
0.0
  0
LINE
  5
22D
330
229
100
AcDbEntity
  8
0
 62
    95
370
    -2
100
AcDbLine
 10
216.404842
 20
272.907994
 30
0.0
 11
204.878544
 21
272.907994
 31
0.0
  0
LINE
  5
22E
330
229
100
AcDbEntity
  8
0
 62
    95
370
    -2
100
AcDbLine
 10
205.878544
 20
301.407994
 30
0.0
 11
205.878544
 21
276.407994
 31
0.0
  0
SOLID
  5
22F
330
229
100
AcDbEntity
  8
0
 62
    95
100
AcDbTrace
 10
206.461878
 20
301.407994
 30
0.0
 11
205.295211
 21
301.407994
 31
0.0
 12
205.878544
 22
304.907994
 32
0.0
 13
205.878544
 23
304.907994
 33
0.0
  0
SOLID
  5
230
330
229
100
AcDbEntity
  8
0
 62
    95
100
AcDbTrace
 10
205.295211
 20
276.407994
 30
0.0
 11
206.461878
 21
276.407994
 31
0.0
 12
205.878544
 22
272.907994
 32
0.0
 13
205.878544
 23
272.907994
 33
0.0
  0
MTEXT
  5
231
330
229
100
AcDbEntity
  8
0
 62
    95
370
    13
100
AcDbMText
 10
200.628544
 20
288.907994
 30
0.0
 40
3.5
 41
0.0
 71
     5
 72
     1
  1
\A1;32
  7
cesky
 11
0.0
 21
1.0
 31
0.0
 73
     1
 44
1.0
  0
POINT
  5
232
330
229
100
AcDbEntity
  8
Defpoints
 62
     0
100
AcDbPoint
 10
216.404842
 20
304.907994
 30
0.0
  0
POINT
  5
233
330
229
100
AcDbEntity
  8
Defpoints
 62
     0
100
AcDbPoint
 10
216.404842
 20
272.907994
 30
0.0
  0
POINT
  5
234
330
229
100
AcDbEntity
  8
Defpoints
 62
     0
100
AcDbPoint
 10
205.878544
 20
272.907994
 30
0.0
  0
ENDBLK
  5
22B
330
229
100
AcDbEntity
  8
0
100
AcDbBlockEnd
  0
BLOCK
  5
23D
330
235
100
AcDbEntity
  8
0
100
AcDbBlockBegin
  2
_U2
 70
     0
 10
0.0
 20
0.0
 30
0.0
  3
_U2
  1

  0
ENDBLK
  5
23E
330
235
100
AcDbEntity
  8
0
100
AcDbBlockEnd
  0
BLOCK
  5
243
330
242
100
AcDbEntity
  8
0
100
AcDbBlockBegin
  2
*D8
 70
     1
 10
0.0
 20
0.0
 30
0.0
  3
*D8
  1

  0
LINE
  5
245
330
242
100
AcDbEntity
  8
0
 62
    95
370
    -2
100
AcDbLine
 10
277.154842
 20
309.907994
 30
0.0
 11
192.519918
 21
309.907994
 31
0.0
  0
LINE
  5
246
330
242
100
AcDbEntity
  8
0
 62
    95
370
    -2
100
AcDbLine
 10
277.154842
 20
267.907994
 30
0.0
 11
192.519918
 21
267.907994
 31
0.0
  0
LINE
  5
247
330
242
100
AcDbEntity
  8
0
 62
    95
370
    -2
100
AcDbLine
 10
193.519918
 20
306.407994
 30
0.0
 11
193.519918
 21
271.407994
 31
0.0
  0
SOLID
  5
248
330
242
100
AcDbEntity
  8
0
 62
    95
100
AcDbTrace
 10
194.103251
 20
306.407994
 30
0.0
 11
192.936584
 21
306.407994
 31
0.0
 12
193.519918
 22
309.907994
 32
0.0
 13
193.519918
 23
309.907994
 33
0.0
  0
SOLID
  5
249
330
242
100
AcDbEntity
  8
0
 62
    95
100
AcDbTrace
 10
192.936584
 20
271.407994
 30
0.0
 11
194.103251
 21
271.407994
 31
0.0
 12
193.519918
 22
267.907994
 32
0.0
 13
193.519918
 23
267.907994
 33
0.0
  0
MTEXT
  5
24A
330
242
100
AcDbEntity
  8
0
 62
    95
370
    13
100
AcDbMText
 10
188.269918
 20
288.907994
 30
0.0
 40
3.5
 41
0.0
 71
     5
 72
     1
  1
\A1;42
  7
cesky
 11
0.0
 21
1.0
 31
0.0
 73
     1
 44
1.0
  0
POINT
  5
24B
330
242
100
AcDbEntity
  8
Defpoints
 62
     0
100
AcDbPoint
 10
277.154842
 20
309.907994
 30
0.0
  0
POINT
  5
24C
330
242
100
AcDbEntity
  8
Defpoints
 62
     0
100
AcDbPoint
 10
277.154842
 20
267.907994
 30
0.0
  0
POINT
  5
24D
330
242
100
AcDbEntity
  8
Defpoints
 62
     0
100
AcDbPoint
 10
193.519918
 20
267.907994
 30
0.0
  0
ENDBLK
  5
244
330
242
100
AcDbEntity
  8
0
100
AcDbBlockEnd
  0
BLOCK
  5
256
330
24E
100
AcDbEntity
  8
0
100
AcDbBlockBegin
  2
_U3
 70
     0
 10
0.0
 20
0.0
 30
0.0
  3
_U3
  1

  0
ENDBLK
  5
257
330
24E
100
AcDbEntity
  8
0
100
AcDbBlockEnd
  0
BLOCK
  5
25C
330
25B
100
AcDbEntity
  8
0
100
AcDbBlockBegin
  2
*D10
 70
     1
 10
0.0
 20
0.0
 30
0.0
  3
*D10
  1

  0
LINE
  5
25E
330
25B
100
AcDbEntity
  8
0
 62
   254
370
    -2
100
AcDbLine
 10
392.404842
 20
306.407994
 30
0.0
 11
392.404842
 21
341.687968
 31
0.0
  0
LINE
  5
25F
330
25B
100
AcDbEntity
  8
0
 62
   254
370
    -2
100
AcDbLine
 10
214.404842
 20
302.907994
 30
0.0
 11
214.404842
 21
341.687968
 31
0.0
  0
LINE
  5
260
330
25B
100
AcDbEntity
  8
0
 62
   254
370
    -2
100
AcDbLine
 10
388.904842
 20
340.687968
 30
0.0
 11
217.904842
 21
340.687968
 31
0.0
  0
SOLID
  5
261
330
25B
100
AcDbEntity
  8
0
 62
   254
100
AcDbTrace
 10
388.904842
 20
340.104634
 30
0.0
 11
388.904842
 21
341.271301
 31
0.0
 12
392.404842
 22
340.687968
 32
0.0
 13
392.404842
 23
340.687968
 33
0.0
  0
SOLID
  5
262
330
25B
100
AcDbEntity
  8
0
 62
   254
100
AcDbTrace
 10
217.904842
 20
341.271301
 30
0.0
 11
217.904842
 21
340.104634
 31
0.0
 12
214.404842
 22
340.687968
 32
0.0
 13
214.404842
 23
340.687968
 33
0.0
  0
MTEXT
  5
263
330
25B
100
AcDbEntity
  8
0
 62
   254
370
    13
100
AcDbMText
 10
303.404842
 20
345.937968
 30
0.0
 40
3.5
 41
0.0
 71
     5
 72
     1
  1
\A1;178
  7
cesky
 73
     1
 44
1.0
  0
POINT
  5
264
330
25B
100
AcDbEntity
  8
Defpoints
 62
     0
100
AcDbPoint
 10
392.404842
 20
306.407994
 30
0.0
  0
POINT
  5
265
330
25B
100
AcDbEntity
  8
Defpoints
 62
     0
100
AcDbPoint
 10
214.404842
 20
302.907994
 30
0.0
  0
POINT
  5
266
330
25B
100
AcDbEntity
  8
Defpoints
 62
     0
100
AcDbPoint
 10
214.404842
 20
340.687968
 30
0.0
  0
ENDBLK
  5
25D
330
25B
100
AcDbEntity
  8
0
100
AcDbBlockEnd
  0
BLOCK
  5
26E
330
267
100
AcDbEntity
  8
0
100
AcDbBlockBegin
  2
_U4
 70
     0
 10
0.0
 20
0.0
 30
0.0
  3
_U4
  1

  0
ENDBLK
  5
26F
330
267
100
AcDbEntity
  8
0
100
AcDbBlockEnd
  0
BLOCK
  5
274
330
273
100
AcDbEntity
  8
0
100
AcDbBlockBegin
  2
*D12
 70
     1
 10
0.0
 20
0.0
 30
0.0
  3
*D12
  1

  0
LINE
  5
276
330
273
100
AcDbEntity
  8
0
 62
   254
370
    -2
100
AcDbLine
 10
274.404842
 20
288.907994
 30
0.0
 11
274.404842
 21
328.5109970000001
 31
0.0
  0
LINE
  5
277
330
273
100
AcDbEntity
  8
0
 62
   254
370
    -2
100
AcDbLine
 10
214.404842
 20
295.907994
 30
0.0
 11
214.404842
 21
328.5109970000001
 31
0.0
  0
LINE
  5
278
330
273
100
AcDbEntity
  8
0
 62
   254
370
    -2
100
AcDbLine
 10
270.904842
 20
327.510997
 30
0.0
 11
217.904842
 21
327.510997
 31
0.0
  0
SOLID
  5
279
330
273
100
AcDbEntity
  8
0
 62
   254
100
AcDbTrace
 10
270.904842
 20
326.927663
 30
0.0
 11
270.904842
 21
328.09433
 31
0.0
 12
274.404842
 22
327.510997
 32
0.0
 13
274.404842
 23
327.510997
 33
0.0
  0
SOLID
  5
27A
330
273
100
AcDbEntity
  8
0
 62
   254
100
AcDbTrace
 10
217.904842
 20
328.09433
 30
0.0
 11
217.904842
 21
326.927663
 31
0.0
 12
214.404842
 22
327.510997
 32
0.0
 13
214.404842
 23
327.510997
 33
0.0
  0
MTEXT
  5
27B
330
273
100
AcDbEntity
  8
0
 62
   254
370
    13
100
AcDbMText
 10
244.404842
 20
332.7609970000001
 30
0.0
 40
3.5
 41
0.0
 71
     5
 72
     1
  1
\A1;60
  7
cesky
 73
     1
 44
1.0
  0
POINT
  5
27C
330
273
100
AcDbEntity
  8
Defpoints
 62
     0
100
AcDbPoint
 10
274.404842
 20
288.907994
 30
0.0
  0
POINT
  5
27D
330
273
100
AcDbEntity
  8
Defpoints
 62
     0
100
AcDbPoint
 10
214.404842
 20
295.907994
 30
0.0
  0
POINT
  5
27E
330
273
100
AcDbEntity
  8
Defpoints
 62
     0
100
AcDbPoint
 10
214.404842
 20
327.510997
 30
0.0
  0
ENDBLK
  5
275
330
273
100
AcDbEntity
  8
0
100
AcDbBlockEnd
  0
BLOCK
  5
286
330
27F
100
AcDbEntity
  8
0
100
AcDbBlockBegin
  2
_U5
 70
     0
 10
0.0
 20
0.0
 30
0.0
  3
_U5
  1

  0
ENDBLK
  5
287
330
27F
100
AcDbEntity
  8
0
100
AcDbBlockEnd
  0
BLOCK
  5
28C
330
28B
100
AcDbEntity
  8
0
100
AcDbBlockBegin
  2
*D14
 70
     1
 10
0.0
 20
0.0
 30
0.0
  3
*D14
  1

  0
LINE
  5
28E
330
28B
100
AcDbEntity
  8
0
 62
   254
370
    -2
100
AcDbLine
 10
392.404842
 20
304.407994
 30
0.0
 11
392.404842
 21
317.275348
 31
0.0
  0
LINE
  5
28F
330
28B
100
AcDbEntity
  8
0
 62
   254
370
    -2
100
AcDbLine
 10
289.403402
 20
304.591229
 30
0.0
 11
289.403402
 21
317.275348
 31
0.0
  0
LINE
  5
290
330
28B
100
AcDbEntity
  8
0
 62
   254
370
    -2
100
AcDbLine
 10
388.904842
 20
316.275348
 30
0.0
 11
292.903402
 21
316.275348
 31
0.0
  0
SOLID
  5
291
330
28B
100
AcDbEntity
  8
0
 62
   254
100
AcDbTrace
 10
388.904842
 20
315.692015
 30
0.0
 11
388.904842
 21
316.858681
 31
0.0
 12
392.404842
 22
316.275348
 32
0.0
 13
392.404842
 23
316.275348
 33
0.0
  0
SOLID
  5
292
330
28B
100
AcDbEntity
  8
0
 62
   254
100
AcDbTrace
 10
292.903402
 20
316.858681
 30
0.0
 11
292.903402
 21
315.692015
 31
0.0
 12
289.403402
 22
316.275348
 32
0.0
 13
289.403402
 23
316.275348
 33
0.0
  0
MTEXT
  5
293
330
28B
100
AcDbEntity
  8
0
 62
   254
370
    13
100
AcDbMText
 10
340.904122
 20
321.525348
 30
0.0
 40
3.5
 41
0.0
 71
     5
 72
     1
  1
\A1;103
  7
cesky
 73
     1
 44
1.0
  0
POINT
  5
294
330
28B
100
AcDbEntity
  8
Defpoints
 62
     0
100
AcDbPoint
 10
392.404842
 20
304.407994
 30
0.0
  0
POINT
  5
295
330
28B
100
AcDbEntity
  8
Defpoints
 62
     0
100
AcDbPoint
 10
289.403402
 20
304.591229
 30
0.0
  0
POINT
  5
296
330
28B
100
AcDbEntity
  8
Defpoints
 62
     0
100
AcDbPoint
 10
289.403402
 20
316.275348
 30
0.0
  0
ENDBLK
  5
28D
330
28B
100
AcDbEntity
  8
0
100
AcDbBlockEnd
  0
BLOCK
  5
29E
330
297
100
AcDbEntity
  8
0
100
AcDbBlockBegin
  2
_U6
 70
     0
 10
0.0
 20
0.0
 30
0.0
  3
_U6
  1

  0
ENDBLK
  5
29F
330
297
100
AcDbEntity
  8
0
100
AcDbBlockEnd
  0
ENDSEC
  0
SECTION
  2
ENTITIES
  0
POINT
  5
73
102
{ACAD_REACTORS
330
348
102
}
330
1F
100
AcDbEntity
  8
80
100
AcDbPoint
 10
274.404842
 20
288.907994
 30
0.0
  0
POINT
  5
76
330
1F
100
AcDbEntity
  8
SK4
 60
     1
100
AcDbPoint
 10
216.404842
 20
288.907994
 30
0.0
  0
POINT
  5
78
330
1F
100
AcDbEntity
  8
SK4
 60
     1
100
AcDbPoint
 10
274.404842
 20
288.907994
 30
0.0
  0
POINT
  5
79
330
1F
100
AcDbEntity
  8
4
 60
     1
100
AcDbPoint
 10
291.203832
 20
288.907994
 30
0.0
  0
POINT
  5
7A
330
1F
100
AcDbEntity
  8
4
 60
     1
100
AcDbPoint
 10
391.322647
 20
288.907994
 30
0.0
  0
POINT
  5
7B
330
1F
100
AcDbEntity
  8
SK6
 60
     1
100
AcDbPoint
 10
274.404842
 20
288.907994
 30
0.0
  0
POINT
  5
7C
330
1F
100
AcDbEntity
  8
SK6
 60
     1
100
AcDbPoint
 10
289.403402
 20
304.591229
 30
0.0
  0
LINE
  5
7D
330
1F
100
AcDbEntity
  8
1
100
AcDbLine
 10
391.479835
 20
303.562649
 30
0.0
 11
391.765143
 21
295.59822
 31
0.0
  0
LINE
  5
7F
330
1F
100
AcDbEntity
  8
1
100
AcDbLine
 10
382.707102
 20
304.029143
 30
0.0
 11
390.67983
 21
304.307267
 31
0.0
  0
LINE
  5
80
330
1F
100
AcDbEntity
  8
1
100
AcDbLine
 10
301.2509
 20
303.907994
 30
0.0
 11
291.203832
 21
303.907994
 31
0.0
  0
LINE
  5
82
330
1F
100
AcDbEntity
  8
1
100
AcDbLine
 10
390.890448
 20
279.864299
 30
0.0
 11
390.8483569999999
 21
279.864972
 31
0.0
  0
LINE
  5
83
330
1F
100
AcDbEntity
  8
1
100
AcDbLine
 10
390.8736390000001
 20
280.103173
 30
0.0
 11
390.8483569999999
 21
279.864972
 31
0.0
  0
LINE
  5
84
330
1F
100
AcDbEntity
  8
1
100
AcDbLine
 10
390.8736390000001
 20
280.103173
 30
0.0
 11
390.66809
 21
280.437252
 31
0.0
  0
LINE
  5
85
330
1F
100
AcDbEntity
  8
1
100
AcDbLine
 10
390.66809
 20
280.437252
 30
0.0
 11
390.560739
 21
280.4389700000001
 31
0.0
  0
LINE
  5
86
330
1F
100
AcDbEntity
  8
1
100
AcDbLine
 10
390.543573
 20
280.939309
 30
0.0
 11
390.883868
 21
284.145494
 31
0.0
  0
LINE
  5
87
330
1F
100
AcDbEntity
  8
1
100
AcDbLine
 10
390.039209
 20
284.145494
 30
0.0
 11
390.883868
 21
284.145494
 31
0.0
  0
LINE
  5
88
330
1F
100
AcDbEntity
  8
1
100
AcDbLine
 10
390.883868
 20
284.145494
 30
0.0
 11
390.883868
 21
288.866538
 31
0.0
  0
LINE
  5
89
330
1F
100
AcDbEntity
  8
1
100
AcDbLine
 10
381.983869
 20
303.422886
 30
0.0
 11
381.969317
 21
303.846344
 31
0.0
  0
LINE
  5
8A
330
1F
100
AcDbEntity
  8
SK1
100
AcDbLine
 10
216.404842
 20
304.907994
 30
0.0
 11
216.404842
 21
272.907994
 31
0.0
  0
LINE
  5
8B
330
1F
100
AcDbEntity
  8
SK1
100
AcDbLine
 10
214.404842
 20
302.907994
 30
0.0
 11
214.404842
 21
274.907994
 31
0.0
  0
LINE
  5
8C
330
1F
100
AcDbEntity
  8
1
100
AcDbLine
 10
381.976549
 20
297.10749
 30
0.0
 11
381.971317
 21
297.092655
 31
0.0
  0
LINE
  5
8D
330
1F
100
AcDbEntity
  8
1
100
AcDbLine
 10
381.976549
 20
297.10749
 30
0.0
 11
381.744952
 21
303.846699
 31
0.0
  0
LINE
  5
8E
330
1F
100
AcDbEntity
  8
1
100
AcDbLine
 10
381.740244
 20
303.81658
 30
0.0
 11
381.971317
 21
297.092655
 31
0.0
  0
LINE
  5
8F
330
1F
100
AcDbEntity
  8
1
100
AcDbLine
 10
390.258263
 20
273.907994
 30
0.0
 11
374.756944
 21
273.907994
 31
0.0
  0
LINE
  5
90
330
1F
100
AcDbEntity
  8
1
100
AcDbLine
 10
274.904842
 20
267.907994
 30
0.0
 11
274.904842
 21
288.907994
 31
0.0
  0
LINE
  5
91
330
1F
100
AcDbEntity
  8
1
100
AcDbLine
 10
274.904842
 20
288.907994
 30
0.0
 11
274.904842
 21
309.907994
 31
0.0
  0
LINE
  5
92
330
1F
100
AcDbEntity
  8
1
100
AcDbLine
 10
279.404842
 20
267.907994
 30
0.0
 11
279.404842
 21
272.08421
 31
0.0
  0
LINE
  5
93
330
1F
100
AcDbEntity
  8
1
100
AcDbLine
 10
279.404842
 20
309.907994
 30
0.0
 11
279.404842
 21
280.620927
 31
0.0
  0
LINE
  5
94
330
1F
100
AcDbEntity
  8
1
100
AcDbLine
 10
387.332339
 20
298.430258
 30
0.0
 11
387.306504
 21
298.357012
 31
0.0
  0
LINE
  5
96
330
1F
100
AcDbEntity
  8
1
100
AcDbLine
 10
386.085908
 20
300.099258
 30
0.0
 11
386.111744
 21
300.172504
 31
0.0
  0
LINE
  5
97
330
1F
100
AcDbEntity
  8
1
100
AcDbLine
 10
385.758402
 20
298.668094
 30
0.0
 11
385.784063
 21
298.740846
 31
0.0
  0
LINE
  5
98
330
1F
100
AcDbEntity
  8
1
100
AcDbLine
 10
387.659671
 20
299.860927
 30
0.0
 11
387.63401
 21
299.788176
 31
0.0
  0
LINE
  5
99
330
1F
100
AcDbEntity
  8
1
100
AcDbLine
 10
384.128962
 20
300.217046
 30
0.0
 11
384.10851
 21
300.159062
 31
0.0
  0
LINE
  5
9A
330
1F
100
AcDbEntity
  8
1
100
AcDbLine
 10
389.295323
 20
298.329589
 30
0.0
 11
389.315775
 21
298.387573
 31
0.0
  0
LINE
  5
9B
330
1F
100
AcDbEntity
  8
1
100
AcDbLine
 10
390.934939
 20
288.279736
 30
0.0
 11
390.883862
 21
288.310427
 31
0.0
  0
LINE
  5
9C
330
1F
100
AcDbEntity
  8
1
100
AcDbLine
 10
291.203832
 20
273.907994
 30
0.0
 11
299.382976
 21
273.907994
 31
0.0
  0
LINE
  5
9D
330
1F
100
AcDbEntity
  8
1
100
AcDbLine
 10
382.158705
 20
303.907994
 30
0.0
 11
375.731877
 21
303.907994
 31
0.0
  0
LINE
  5
9E
330
1F
100
AcDbEntity
  8
1
100
AcDbLine
 10
389.345807
 20
284.145494
 30
0.0
 11
389.596069
 21
284.145494
 31
0.0
  0
LINE
  5
9F
330
1F
100
AcDbEntity
  8
1
100
AcDbLine
 10
382.212479
 20
303.815331
 30
0.0
 11
382.209443
 21
303.903675
 31
0.0
  0
LINE
  5
A0
330
1F
100
AcDbEntity
  8
1
100
AcDbLine
 10
384.9036
 20
294.381566
 30
0.0
 11
391.153496
 21
294.59959
 31
0.0
  0
LINE
  5
A1
330
1F
100
AcDbEntity
  8
1
100
AcDbLine
 10
391.154607
 20
294.439542
 30
0.0
 11
391.153496
 21
294.59959
 31
0.0
  0
LINE
  5
A2
330
1F
100
AcDbEntity
  8
1
100
AcDbLine
 10
391.078687
 20
293.909493
 30
0.0
 11
383.467589
 21
293.643985
 31
0.0
  0
LINE
  5
A3
330
1F
100
AcDbEntity
  8
1
100
AcDbLine
 10
391.078687
 20
293.909493
 30
0.0
 11
389.255183
 21
290.8883649999999
 31
0.0
  0
LINE
  5
A4
330
1F
100
AcDbEntity
  8
1
100
AcDbLine
 10
391.195501
 20
294.615708
 30
0.0
 11
384.908832
 21
294.396401
 31
0.0
  0
LINE
  5
A5
330
1F
100
AcDbEntity
  8
1
100
AcDbLine
 10
384.9036
 20
294.381566
 30
0.0
 11
384.908832
 21
294.396401
 31
0.0
  0
LINE
  5
A6
330
1F
100
AcDbEntity
  8
1
100
AcDbLine
 10
390.954138
 20
289.365388
 30
0.0
 11
391.0616720000001
 21
289.3635109999999
 31
0.0
  0
LINE
  5
A7
330
1F
100
AcDbEntity
  8
1
100
AcDbLine
 10
391.0616720000001
 20
289.3635109999999
 30
0.0
 11
391.30268
 21
289.6901020000001
 31
0.0
  0
LINE
  5
A8
330
1F
100
AcDbEntity
  8
1
100
AcDbLine
 10
391.30268
 20
289.928713
 30
0.0
 11
391.30268
 21
289.6901020000001
 31
0.0
  0
LINE
  5
A9
330
1F
100
AcDbEntity
  8
1
100
AcDbLine
 10
391.30268
 20
289.928713
 30
0.0
 11
391.344842
 21
289.927977
 31
0.0
  0
LINE
  5
AA
330
1F
100
AcDbEntity
  8
1
100
AcDbLine
 10
391.344842
 20
294.8961759999999
 30
0.0
 11
391.344842
 21
289.927977
 31
0.0
  0
LINE
  5
AB
330
1F
100
AcDbEntity
  8
1
100
AcDbLine
 10
391.195501
 20
294.615708
 30
0.0
 11
391.193946
 21
294.839784
 31
0.0
  0
LINE
  5
AC
330
1F
100
AcDbEntity
  8
1
100
AcDbLine
 10
391.195501
 20
294.615708
 30
0.0
 11
391.153496
 21
294.59959
 31
0.0
  0
LINE
  5
AD
330
1F
100
AcDbEntity
  8
1
100
AcDbLine
 10
391.078687
 20
293.909493
 30
0.0
 11
391.088067
 21
293.913093
 31
0.0
  0
LINE
  5
AE
330
1F
100
AcDbEntity
  8
1
100
AcDbLine
 10
390.258263
 20
273.907994
 30
0.0
 11
390.890448
 21
279.864299
 31
0.0
  0
LINE
  5
AF
330
1F
100
AcDbEntity
  8
1
100
AcDbLine
 10
274.904842
 20
267.907994
 30
0.0
 11
279.404842
 21
267.907994
 31
0.0
  0
LINE
  5
B0
330
1F
100
AcDbEntity
  8
81
100
AcDbLine
 10
392.404842
 20
306.407994
 30
0.0
 11
392.404842
 21
302.407994
 31
0.0
  0
LINE
  5
B1
330
1F
100
AcDbEntity
  8
SK1
100
AcDbLine
 10
216.404842
 20
272.907994
 30
0.0
 11
274.404842
 21
272.907994
 31
0.0
  0
LINE
  5
B2
330
1F
100
AcDbEntity
  8
81
100
AcDbLine
 10
390.404842
 20
304.407994
 30
0.0
 11
394.404842
 21
304.407994
 31
0.0
  0
LINE
  5
B3
330
1F
100
AcDbEntity
  8
80
100
AcDbLine
 10
274.404842
 20
287.90842
 30
0.0
 11
274.404842
 21
289.907567
 31
0.0
  0
LINE
  5
B4
330
1F
100
AcDbEntity
  8
1
100
AcDbLine
 10
274.404842
 20
309.407994
 30
0.0
 11
274.404842
 21
288.907994
 31
0.0
  0
LINE
  5
B5
330
1F
100
AcDbEntity
  8
1
100
AcDbLine
 10
274.404842
 20
288.907994
 30
0.0
 11
274.404842
 21
268.407994
 31
0.0
  0
LINE
  5
B6
330
1F
100
AcDbEntity
  8
1
100
AcDbLine
 10
382.247684
 20
295.266209
 30
0.0
 11
381.9623759999999
 21
303.230638
 31
0.0
  0
LINE
  5
B7
330
1F
100
AcDbEntity
  8
1
100
AcDbLine
 10
391.020418
 20
294.799715
 30
0.0
 11
383.047689
 21
294.521591
 31
0.0
  0
LINE
  5
B8
330
1F
100
AcDbEntity
  8
1
100
AcDbLine
 10
383.489065
 20
295.791424
 30
0.0
 11
383.238764
 21
302.778601
 31
0.0
  0
LINE
  5
B9
330
1F
100
AcDbEntity
  8
1
100
AcDbLine
 10
390.483523
 20
296.0354220000001
 30
0.0
 11
383.489065
 21
295.791424
 31
0.0
  0
LINE
  5
BA
330
1F
100
AcDbEntity
  8
1
100
AcDbLine
 10
390.233222
 20
303.022599
 30
0.0
 11
390.483523
 21
296.0354220000001
 31
0.0
  0
LINE
  5
BB
330
1F
100
AcDbEntity
  8
1
100
AcDbLine
 10
383.238764
 20
302.778601
 30
0.0
 11
390.233222
 21
303.022599
 31
0.0
  0
LINE
  5
BC
330
1F
100
AcDbEntity
  8
1
100
AcDbLine
 10
390.609179
 20
281.557454
 30
0.0
 11
390.838952
 21
281.684819
 31
0.0
  0
LINE
  5
BD
330
1F
100
AcDbEntity
  8
1
100
AcDbLine
 10
392.297436
 20
281.863516
 30
0.0
 11
391.671836
 21
280.822342
 31
0.0
  0
LINE
  5
BE
330
1F
100
AcDbEntity
  8
1
100
AcDbLine
 10
391.3014
 20
281.205939
 30
0.0
 11
391.671836
 21
280.822342
 31
0.0
  0
LINE
  5
BF
330
1F
100
AcDbEntity
  8
1
100
AcDbLine
 10
391.671836
 20
280.822342
 30
0.0
 11
390.746685
 21
280.309523
 31
0.0
  0
LINE
  5
C0
330
1F
100
AcDbEntity
  8
1
100
AcDbLine
 10
391.15942
 20
289.495967
 30
0.0
 11
391.797416
 21
289.11262
 31
0.0
  0
LINE
  5
C1
330
1F
100
AcDbEntity
  8
1
100
AcDbLine
 10
391.413818
 20
288.742185
 30
0.0
 11
391.797416
 21
289.11262
 31
0.0
  0
LINE
  5
C2
330
1F
100
AcDbEntity
  8
1
100
AcDbLine
 10
391.797416
 20
289.11262
 30
0.0
 11
392.404842
 21
288.016795
 31
0.0
  0
LINE
  5
C3
330
1F
100
AcDbEntity
  8
1
100
AcDbLine
 10
391.887419
 20
287.887787
 30
0.0
 11
392.404842
 21
288.016795
 31
0.0
  0
LINE
  5
C4
330
1F
100
AcDbEntity
  8
1
100
AcDbLine
 10
391.784831
 20
282.010503
 30
0.0
 11
392.297436
 21
281.863516
 31
0.0
  0
LINE
  5
C5
330
1F
100
AcDbEntity
  8
1
100
AcDbLine
 10
392.404842
 20
288.016795
 30
0.0
 11
392.297436
 21
281.863516
 31
0.0
  0
LINE
  5
C6
330
1F
100
AcDbEntity
  8
1
100
AcDbLine
 10
390.838952
 20
281.684819
 30
0.0
 11
391.144899
 21
282.194001
 31
0.0
  0
LINE
  5
C7
330
1F
100
AcDbEntity
  8
1
100
AcDbLine
 10
391.784831
 20
282.010503
 30
0.0
 11
391.3014
 21
281.205939
 31
0.0
  0
LINE
  5
C8
330
1F
100
AcDbEntity
  8
1
100
AcDbLine
 10
391.144899
 20
282.194001
 30
0.0
 11
391.241473
 21
287.7267339999999
 31
0.0
  0
LINE
  5
C9
330
1F
100
AcDbEntity
  8
1
100
AcDbLine
 10
391.784831
 20
282.010503
 30
0.0
 11
391.144899
 21
282.194001
 31
0.0
  0
LINE
  5
CA
330
1F
100
AcDbEntity
  8
1
100
AcDbLine
 10
391.887419
 20
287.887787
 30
0.0
 11
391.784831
 21
282.010503
 31
0.0
  0
LINE
  5
CB
330
1F
100
AcDbEntity
  8
1
100
AcDbLine
 10
390.889205
 20
289.057404
 30
0.0
 11
391.413818
 21
288.742185
 31
0.0
  0
LINE
  5
CC
330
1F
100
AcDbEntity
  8
1
100
AcDbLine
 10
391.413818
 20
288.742185
 30
0.0
 11
390.934939
 21
288.279736
 31
0.0
  0
LINE
  5
CD
330
1F
100
AcDbEntity
  8
1
100
AcDbLine
 10
391.241473
 20
287.7267339999999
 30
0.0
 11
390.934939
 21
288.279736
 31
0.0
  0
LINE
  5
CE
330
1F
100
AcDbEntity
  8
1
100
AcDbLine
 10
391.887419
 20
287.887787
 30
0.0
 11
391.241473
 21
287.7267339999999
 31
0.0
  0
LINE
  5
CF
330
1F
100
AcDbEntity
  8
1
100
AcDbLine
 10
391.413818
 20
288.742185
 30
0.0
 11
391.887419
 21
287.887787
 31
0.0
  0
LINE
  5
D0
330
1F
100
AcDbEntity
  8
1
100
AcDbLine
 10
391.3014
 20
281.205939
 30
0.0
 11
390.838952
 21
281.684819
 31
0.0
  0
LINE
  5
D1
330
1F
100
AcDbEntity
  8
1
100
AcDbLine
 10
391.3014
 20
281.205939
 30
0.0
 11
390.530252
 21
280.778485
 31
0.0
  0
LINE
  5
D2
330
1F
100
AcDbEntity
  8
1
100
AcDbLine
 10
386.737649
 20
298.072257
 30
0.0
 11
386.7629
 21
298.143846
 31
0.0
  0
LINE
  5
D3
330
1F
100
AcDbEntity
  8
1
100
AcDbLine
 10
386.0985
 20
300.153902
 30
0.0
 11
386.124091
 21
300.226457
 31
0.0
  0
LINE
  5
D4
330
1F
100
AcDbEntity
  8
1
100
AcDbLine
 10
385.515718
 20
299.270602
 30
0.0
 11
385.490772
 21
299.199875
 31
0.0
  0
LINE
  5
D5
330
1F
100
AcDbEntity
  8
1
100
AcDbLine
 10
385.598552
 20
299.256191
 30
0.0
 11
385.573093
 21
299.184011
 31
0.0
  0
LINE
  5
D6
330
1F
100
AcDbEntity
  8
1
100
AcDbLine
 10
387.777886
 20
298.675821
 30
0.0
 11
387.802778
 21
298.746391
 31
0.0
  0
LINE
  5
D7
330
1F
100
AcDbEntity
  8
1
100
AcDbLine
 10
387.684014
 20
298.697089
 30
0.0
 11
387.709497
 21
298.769335
 31
0.0
  0
LINE
  5
D8
330
1F
100
AcDbEntity
  8
1
100
AcDbLine
 10
386.735706
 20
298.090687
 30
0.0
 11
386.761076
 21
298.162615
 31
0.0
  0
LINE
  5
D9
330
1F
100
AcDbEntity
  8
1
100
AcDbLine
 10
379.951969
 20
291.594116
 30
0.0
 11
379.969693
 21
291.076087
 31
0.0
  0
LINE
  5
DA
330
1F
100
AcDbEntity
  8
1
100
AcDbLine
 10
389.607405
 20
293.885861
 30
0.0
 11
383.459756
 21
293.671404
 31
0.0
  0
LINE
  5
DB
330
1F
100
AcDbEntity
  8
1
100
AcDbLine
 10
285.404842
 20
303.665393
 30
0.0
 11
285.404842
 21
286.726739
 31
0.0
  0
LINE
  5
DC
330
1F
100
AcDbEntity
  8
1
100
AcDbLine
 10
387.323368
 20
298.199823
 30
0.0
 11
387.317747
 21
298.194046
 31
0.0
  0
LINE
  5
DD
330
1F
100
AcDbEntity
  8
SK1
100
AcDbLine
 10
214.404842
 20
274.907994
 30
0.0
 11
216.404842
 21
272.907994
 31
0.0
  0
LINE
  5
DE
330
1F
100
AcDbEntity
  8
SK1
100
AcDbLine
 10
216.404842
 20
304.907994
 30
0.0
 11
214.404842
 21
302.907994
 31
0.0
  0
LINE
  5
DF
330
1F
100
AcDbEntity
  8
1
100
AcDbLine
 10
279.404842
 20
267.907994
 30
0.0
 11
281.304337
 21
269.807488
 31
0.0
  0
LINE
  5
E0
330
1F
100
AcDbEntity
  8
1
100
AcDbLine
 10
281.304337
 20
308.008499
 30
0.0
 11
279.404842
 21
309.907994
 31
0.0
  0
LINE
  5
E1
330
1F
100
AcDbEntity
  8
SK1
100
AcDbLine
 10
274.404842
 20
304.907994
 30
0.0
 11
216.404842
 21
304.907994
 31
0.0
  0
LINE
  5
E2
330
1F
100
AcDbEntity
  8
1
100
AcDbLine
 10
274.904842
 20
267.907994
 30
0.0
 11
274.404842
 21
268.407994
 31
0.0
  0
LINE
  5
E3
330
1F
100
AcDbEntity
  8
1
100
AcDbLine
 10
274.404842
 20
309.407994
 30
0.0
 11
274.904842
 21
309.907994
 31
0.0
  0
LINE
  5
E4
330
1F
100
AcDbEntity
  8
1
100
AcDbLine
 10
279.404842
 20
309.907994
 30
0.0
 11
274.904842
 21
309.907994
 31
0.0
  0
LINE
  5
E9
330
1F
100
AcDbEntity
  8
80
100
AcDbLine
 10
275.404416
 20
288.907994
 30
0.0
 11
273.405268
 21
288.907994
 31
0.0
  0
LINE
  5
119
330
1F
100
AcDbEntity
  8
NOCUT
100
AcDbLine
 10
274.404842
 20
304.907994
 30
0.0
 11
216.404842
 21
304.907994
 31
0.0
  0
LINE
  5
11A
330
1F
100
AcDbEntity
  8
NOCUT
100
AcDbLine
 10
279.404842
 20
309.907994
 30
0.0
 11
274.904842
 21
309.907994
 31
0.0
  0
LINE
  5
11B
330
1F
100
AcDbEntity
  8
NOCUT
100
AcDbLine
 10
214.404842
 20
302.907994
 30
0.0
 11
214.404842
 21
288.907994
 31
0.0
  0
LINE
  5
11C
330
1F
100
AcDbEntity
  8
NOCUT
100
AcDbLine
 10
274.404842
 20
304.907994
 30
0.0
 11
274.404842
 21
309.407994
 31
0.0
  0
LINE
  5
11D
330
1F
100
AcDbEntity
  8
NOCUT
100
AcDbLine
 10
274.404842
 20
309.407994
 30
0.0
 11
274.904842
 21
309.907994
 31
0.0
  0
LINE
  5
11E
330
1F
100
AcDbEntity
  8
NOCUT
100
AcDbLine
 10
214.404842
 20
302.907994
 30
0.0
 11
216.404842
 21
304.907994
 31
0.0
  0
LINE
  5
11F
330
1F
100
AcDbEntity
  8
NOCUT
100
AcDbLine
 10
279.404842
 20
309.907994
 30
0.0
 11
281.304337
 21
308.008499
 31
0.0
  0
LINE
  5
120
330
1F
100
AcDbEntity
  8
NOCUT
100
AcDbLine
 10
291.203832
 20
303.907994
 30
0.0
 11
391.034846
 21
303.907994
 31
0.0
  0
LINE
  5
121
330
1F
100
AcDbEntity
  8
NOCUT
100
AcDbLine
 10
391.034846
 20
303.907994
 30
0.0
 11
391.344842
 21
295.107097
 31
0.0
  0
LINE
  5
122
330
1F
100
AcDbEntity
  8
NOCUT
100
AcDbLine
 10
391.344842
 20
295.107097
 30
0.0
 11
391.344842
 21
288.907994
 31
0.0
  0
LINE
  5
123
330
1F
100
AcDbEntity
  8
NOCUT
100
AcDbLine
 10
391.344842
 20
288.907994
 30
0.0
 11
214.404842
 21
288.907994
 31
0.0
  0
CIRCLE
  5
12C
330
1F
100
AcDbEntity
  8
1
100
AcDbCircle
 10
387.422479
 20
285.203212
 30
0.0
 40
1.099999999999998
  0
ARC
  5
12D
330
1F
100
AcDbEntity
  8
1
100
AcDbCircle
 10
291.203832
 20
317.907994
 30
0.0
 40
14.0
100
AcDbArc
 50
225.0
 51
270.0
  0
ARC
  5
12E
330
1F
100
AcDbEntity
  8
1
100
AcDbCircle
 10
387.402831
 20
285.223558
 30
0.0
 40
1.5
100
AcDbArc
 50
75.0
 51
345.0
  0
ARC
  5
12F
330
1F
100
AcDbEntity
  8
1
100
AcDbCircle
 10
291.203832
 20
259.907994
 30
0.0
 40
14.0
100
AcDbArc
 50
90.0
 51
135.0
  0
ARC
  5
13E
330
1F
100
AcDbEntity
  8
NOCUT
100
AcDbCircle
 10
291.203832
 20
317.907994
 30
0.0
 40
14.0
100
AcDbArc
 50
225.0
 51
270.0
  0
ELLIPSE
  5
13F
330
1F
100
AcDbEntity
  8
1
100
AcDbEllipse
 10
386.24306
 20
298.162529
 30
0.0
 11
-0.0942167666043795
 21
0.0332317783578879
 31
0.0
210
0.0
220
0.0
230
1.0
 40
0.9986239999999998
 41
5.285082567639834
 42
6.134017720050384
  0
ELLIPSE
  5
140
330
1F
100
AcDbEntity
  8
1
100
AcDbEllipse
 10
386.066583
 20
298.25622
 30
0.0
 11
-0.0942167666043796
 21
0.0332317783578879
 31
0.0
210
0.0
220
0.0
230
1.0
 40
0.9986239999999998
 41
1.619891138451454
 42
2.992425066460683
  0
ELLIPSE
  5
141
330
1F
100
AcDbEntity
  8
1
100
AcDbEllipse
 10
386.196786
 20
298.69265
 30
0.0
 11
-0.5243116980215658
 21
0.1849332211989812
 31
0.0
210
0.0
220
0.0
230
1.0
 40
0.9986239999999998
 41
0.6997675652817116
 42
1.619891138451541
  0
ELLIPSE
  5
142
330
1F
100
AcDbEntity
  8
1
100
AcDbEllipse
 10
385.7702
 20
298.532083
 30
0.0
 11
-0.0942167666043795
 21
0.0332317783578879
 31
0.0
210
0.0
220
0.0
230
1.0
 40
0.9986239999999998
 41
5.610418944452297
 42
6.982952872461343
  0
ELLIPSE
  5
143
330
1F
100
AcDbEntity
  8
1
100
AcDbEllipse
 10
385.664186
 20
298.701326
 30
0.0
 11
-0.0942167666043795
 21
0.0332317783578879
 31
0.0
210
0.0
220
0.0
230
1.0
 40
0.9986239999999998
 41
2.468826290862272
 42
3.317761443273236
  0
ELLIPSE
  5
144
330
1F
100
AcDbEntity
  8
1
100
AcDbEllipse
 10
385.214197
 20
298.775405
 30
0.0
 11
-0.5243116980215657
 21
0.1849332211989811
 31
0.0
210
0.0
220
0.0
230
1.0
 40
0.9986239999999998
 41
3.317761443273179
 42
4.237885016443048
  0
ELLIPSE
  5
145
330
1F
100
AcDbEntity
  8
1
100
AcDbEllipse
 10
385.545462
 20
299.088144
 30
0.0
 11
-0.0942167666043795
 21
0.0332317783578879
 31
0.0
210
0.0
220
0.0
230
1.0
 40
0.9986239999999998
 41
4.237885016443255
 42
5.086820168853789
  0
ELLIPSE
  5
146
330
1F
100
AcDbEntity
  8
1
100
AcDbEllipse
 10
385.538317
 20
299.2875899999999
 30
0.0
 11
-0.0942167666043796
 21
0.0332317783578879
 31
0.0
210
0.0
220
0.0
230
1.0
 40
0.9986239999999998
 41
0.5726935872549065
 42
1.94522751526389
  0
ELLIPSE
  5
147
330
1F
100
AcDbEntity
  8
1
100
AcDbEllipse
 10
385.981882
 20
299.39284
 30
0.0
 11
-0.5243116980215658
 21
0.1849332211989812
 31
0.0
210
0.0
220
0.0
230
1.0
 40
0.9986239999999998
 41
5.935755321264684
 42
6.855878894434575
  0
ELLIPSE
  5
148
330
1F
100
AcDbEntity
  8
1
100
AcDbEllipse
 10
385.629065
 20
299.681716
 30
0.0
 11
-0.0942167666043795
 21
0.0332317783578879
 31
0.0
210
0.0
220
0.0
230
1.0
 40
0.9986239999999998
 41
4.563221393255542
 42
5.935755321264839
  0
ELLIPSE
  5
149
330
1F
100
AcDbEntity
  8
1
100
AcDbEllipse
 10
385.722704
 20
299.857923
 30
0.0
 11
-0.0942167666043795
 21
0.0332317783578879
 31
0.0
210
0.0
220
0.0
230
1.0
 40
0.9986239999999998
 41
1.421628739665749
 42
2.270563892076483
  0
ELLIPSE
  5
14A
330
1F
100
AcDbEntity
  8
1
100
AcDbEllipse
 10
385.561597
 20
300.284191
 30
0.0
 11
-0.5243116980215657
 21
0.1849332211989811
 31
0.0
210
0.0
220
0.0
230
1.0
 40
0.9986239999999998
 41
2.270563892076581
 42
3.190687465246418
  0
ELLIPSE
  5
14B
330
1F
100
AcDbEntity
  8
1
100
AcDbEllipse
 10
385.998608
 20
300.153751
 30
0.0
 11
-0.0942167666043795
 21
0.0332317783578879
 31
0.0
210
0.0
220
0.0
230
1.0
 40
0.9986239999999998
 41
3.19068746524644
 42
4.039622617657316
  0
ELLIPSE
  5
14C
330
1F
100
AcDbEntity
  8
1
100
AcDbEllipse
 10
386.16794
 20
300.259505
 30
0.0
 11
-0.0942167666043796
 21
0.0332317783578879
 31
0.0
210
0.0
220
0.0
230
1.0
 40
0.9986239999999998
 41
5.808681343237772
 42
7.181215271246999
  0
ELLIPSE
  5
14D
330
1F
100
AcDbEntity
  8
1
100
AcDbEllipse
 10
386.481302
 20
299.928325
 30
0.0
 11
-0.5243116980215658
 21
0.1849332211989812
 31
0.0
210
0.0
220
0.0
230
1.0
 40
0.9986239999999998
 41
4.888557770068088
 42
5.808681343237937
  0
ELLIPSE
  5
14E
330
1F
100
AcDbEntity
  8
1
100
AcDbEllipse
 10
386.555072
 20
300.377767
 30
0.0
 11
-0.0942167666043795
 21
0.0332317783578879
 31
0.0
210
0.0
220
0.0
230
1.0
 40
0.9986239999999998
 41
3.516023842058936
 42
4.888557770067968
  0
ELLIPSE
  5
14F
330
1F
100
AcDbEntity
  8
1
100
AcDbEllipse
 10
386.754725
 20
300.384732
 30
0.0
 11
-0.0942167666043795
 21
0.0332317783578879
 31
0.0
210
0.0
220
0.0
230
1.0
 40
0.9986239999999998
 41
0.3744311884691295
 42
1.223366340879859
  0
ELLIPSE
  5
150
330
1F
100
AcDbEntity
  8
1
100
AcDbEllipse
 10
387.043606
 20
300.736921
 30
0.0
 11
-0.5243116980215657
 21
0.1849332211989811
 31
0.0
210
0.0
220
0.0
230
1.0
 40
0.9986239999999998
 41
1.223366340879994
 42
2.143489914049865
  0
ELLIPSE
  5
151
330
1F
100
AcDbEntity
  8
1
100
AcDbEllipse
 10
387.149352
 20
300.293741
 30
0.0
 11
-0.0942167666043795
 21
0.0332317783578879
 31
0.0
210
0.0
220
0.0
230
1.0
 40
0.9986239999999998
 41
2.143489914049923
 42
2.992425066460661
  0
ELLIPSE
  5
152
330
1F
100
AcDbEntity
  8
1
100
AcDbEllipse
 10
387.325829
 20
300.20005
 30
0.0
 11
-0.0942167666043796
 21
0.0332317783578879
 31
0.0
210
0.0
220
0.0
230
1.0
 40
0.9986239999999998
 41
4.761483792041528
 42
6.134017720050548
  0
ELLIPSE
  5
153
330
1F
100
AcDbEntity
  8
1
100
AcDbEllipse
 10
387.195626
 20
299.763619
 30
0.0
 11
-0.5243116980215658
 21
0.1849332211989812
 31
0.0
210
0.0
220
0.0
230
1.0
 40
0.9986239999999998
 41
3.841360218871513
 42
4.761483792041361
  0
ELLIPSE
  5
154
330
1F
100
AcDbEntity
  8
1
100
AcDbEllipse
 10
387.622212
 20
299.924186
 30
0.0
 11
-0.0942167666043795
 21
0.0332317783578879
 31
0.0
210
0.0
220
0.0
230
1.0
 40
0.9986239999999998
 41
2.468826290862415
 42
3.841360218871495
  0
ELLIPSE
  5
155
330
1F
100
AcDbEntity
  8
1
100
AcDbEllipse
 10
387.728227
 20
299.754944
 30
0.0
 11
-0.0942167666043795
 21
0.0332317783578879
 31
0.0
210
0.0
220
0.0
230
1.0
 40
0.9986239999999998
 41
5.610418944452297
 42
6.459354096863098
  0
ELLIPSE
  5
156
330
1F
100
AcDbEntity
  8
1
100
AcDbEllipse
 10
388.178215
 20
299.680865
 30
0.0
 11
-0.5243116980215657
 21
0.1849332211989811
 31
0.0
210
0.0
220
0.0
230
1.0
 40
0.9986239999999998
 41
0.1761687896833865
 42
1.096292362853255
  0
ELLIPSE
  5
157
330
1F
100
AcDbEntity
  8
1
100
AcDbEllipse
 10
387.84695
 20
299.368125
 30
0.0
 11
-0.0942167666043795
 21
0.0332317783578879
 31
0.0
210
0.0
220
0.0
230
1.0
 40
0.9986239999999998
 41
1.096292362853367
 42
1.945227515263813
  0
ELLIPSE
  5
158
330
1F
100
AcDbEntity
  8
1
100
AcDbEllipse
 10
387.8540950000001
 20
299.16868
 30
0.0
 11
-0.0942167666043796
 21
0.0332317783578879
 31
0.0
210
0.0
220
0.0
230
1.0
 40
0.9986239999999998
 41
3.714286240844562
 42
5.086820168853472
  0
ELLIPSE
  5
159
330
1F
100
AcDbEntity
  8
1
100
AcDbEllipse
 10
387.41053
 20
299.063429
 30
0.0
 11
-0.5243116980215658
 21
0.1849332211989812
 31
0.0
210
0.0
220
0.0
230
1.0
 40
0.9986239999999998
 41
2.79416266767493
 42
3.714286240844755
  0
ELLIPSE
  5
15A
330
1F
100
AcDbEntity
  8
1
100
AcDbEllipse
 10
387.763347
 20
298.774554
 30
0.0
 11
-0.0942167666043795
 21
0.0332317783578879
 31
0.0
210
0.0
220
0.0
230
1.0
 40
0.9986239999999998
 41
1.421628739665771
 42
2.794162667674779
  0
ELLIPSE
  5
15B
330
1F
100
AcDbEntity
  8
1
100
AcDbEllipse
 10
387.669708
 20
298.598347
 30
0.0
 11
-0.0942167666043795
 21
0.0332317783578879
 31
0.0
210
0.0
220
0.0
230
1.0
 40
0.9986239999999998
 41
4.563221393255402
 42
5.412156545666322
  0
ELLIPSE
  5
15C
330
1F
100
AcDbEntity
  8
1
100
AcDbEllipse
 10
387.830815
 20
298.172078
 30
0.0
 11
-0.5243116980215657
 21
0.1849332211989811
 31
0.0
210
0.0
220
0.0
230
1.0
 40
0.9986239999999998
 41
5.412156545666382
 42
6.332280118836236
  0
ELLIPSE
  5
15D
330
1F
100
AcDbEntity
  8
1
100
AcDbEllipse
 10
387.393804
 20
298.302519
 30
0.0
 11
-0.0942167666043795
 21
0.0332317783578879
 31
0.0
210
0.0
220
0.0
230
1.0
 40
0.9986239999999998
 41
0.0490948116565686
 42
0.8980299640675243
  0
ELLIPSE
  5
15E
330
1F
100
AcDbEntity
  8
1
100
AcDbEllipse
 10
387.2244720000001
 20
298.1967649999999
 30
0.0
 11
-0.0942167666043796
 21
0.0332317783578879
 31
0.0
210
0.0
220
0.0
230
1.0
 40
0.9986239999999998
 41
2.667088689647981
 42
4.039622617657296
  0
ELLIPSE
  5
15F
330
1F
100
AcDbEntity
  8
1
100
AcDbEllipse
 10
386.911111
 20
298.5279450000001
 30
0.0
 11
-0.5243116980215658
 21
0.1849332211989812
 31
0.0
210
0.0
220
0.0
230
1.0
 40
0.9986239999999998
 41
1.746965116478295
 42
2.66708868964812
  0
ELLIPSE
  5
160
330
1F
100
AcDbEntity
  8
1
100
AcDbEllipse
 10
386.8373410000001
 20
298.078502
 30
0.0
 11
-0.0942167666043795
 21
0.0332317783578879
 31
0.0
210
0.0
220
0.0
230
1.0
 40
0.9986239999999998
 41
0.3744311884692101
 42
1.746965116478328
  0
ELLIPSE
  5
161
330
1F
100
AcDbEntity
  8
1
100
AcDbEllipse
 10
386.637687
 20
298.071538
 30
0.0
 11
-0.0942167666043795
 21
0.0332317783578879
 31
0.0
210
0.0
220
0.0
230
1.0
 40
0.9986239999999998
 41
3.516023842058988
 42
4.3649589944697
  0
ELLIPSE
  5
162
330
1F
100
AcDbEntity
  8
1
100
AcDbEllipse
 10
386.348806
 20
297.719348
 30
0.0
 11
-0.5243116980215657
 21
0.1849332211989811
 31
0.0
210
0.0
220
0.0
230
1.0
 40
0.9986239999999998
 41
4.364958994469792
 42
5.285082567639608
  0
ELLIPSE
  5
163
330
1F
100
AcDbEntity
  8
1
100
AcDbEllipse
 10
386.696206
 20
299.228135
 30
0.0
 11
1.697502432404862
 21
-0.5987365797907929
 31
0.0
210
0.0
220
0.0
230
1.0
 40
0.9986239999999998
 41
0.0
 42
6.283185307179585
  0
ELLIPSE
  5
164
330
1F
100
AcDbEntity
  8
1
100
AcDbEllipse
 10
386.701917
 20
299.244326
 30
0.0
 11
2.593406493951873
 21
-0.9147364413470443
 31
0.0
210
0.0
220
0.0
230
1.0
 40
0.9986239999999998
 41
0.0
 42
6.283185307179585
  0
ELLIPSE
  5
165
330
1F
100
AcDbEntity
  8
1
100
AcDbEllipse
 10
386.883818
 20
299.471296
 30
0.0
 11
2.919001017965133
 21
-1.029578899292822
 31
0.0
210
0.0
220
0.0
230
1.0
 40
0.9986239999999998
 41
1.945227493391409
 42
6.283185307179585
  0
ELLIPSE
  5
166
330
1F
100
AcDbEntity
  8
1
100
AcDbEllipse
 10
386.883818
 20
299.471296
 30
0.0
 11
2.919001017965133
 21
-1.029578899292822
 31
0.0
210
0.0
220
0.0
230
1.0
 40
0.9986239999999998
 41
0.0
 42
1.508938803341971
  0
ELLIPSE
  5
167
330
1F
100
AcDbEntity
  8
1
100
AcDbEllipse
 10
386.883818
 20
299.471296
 30
0.0
 11
2.919001017965133
 21
-1.029578899292822
 31
0.0
210
0.0
220
0.0
230
1.0
 40
0.9986239999999998
 41
1.632540731130991
 42
1.945227493391406
  0
ELLIPSE
  5
168
330
1F
100
AcDbEntity
  8
1
100
AcDbEllipse
 10
382.96671
 20
295.205212
 30
0.0
 11
0.9634869191385803
 21
1.034109157968115
 31
0.0
210
0.0
220
0.0
230
1.0
 40
0.01483
 41
0.9819686316438913
 42
1.536779664368254
  0
ELLIPSE
  5
169
330
1F
100
AcDbEntity
  8
1
100
AcDbEllipse
 10
386.864021
 20
299.415171
 30
0.0
 11
2.975096711153597
 21
-1.049364758116642
 31
0.0
210
0.0
220
0.0
230
0.9999999999999996
 40
0.9986239999999998
 41
0.0
 42
6.283185307179585
  0
ELLIPSE
  5
16A
330
1F
100
AcDbEntity
  8
1
100
AcDbEllipse
 10
296.536761
 20
274.107114
 30
0.0
 11
-19.14847302572854
 21
3.939012175381114
 31
0.0
210
0.0
220
0.0
230
1.0
 40
0.5072130000000001
 41
4.745231035118047
 42
5.786297924014056
  0
ELLIPSE
  5
16B
330
1F
100
AcDbEntity
  8
1
100
AcDbEllipse
 10
390.6137240000001
 20
280.938186
 30
0.0
 11
0.0538770024358948
 21
0.4991611425114618
 31
0.0
210
0.0
220
0.0
230
1.0
 40
0.139171
 41
1.583568179252909
 42
3.154364506042263
  0
ELLIPSE
  5
16C
330
1F
100
AcDbEntity
  8
1
100
AcDbEllipse
 10
391.85032
 20
288.907994
 30
0.0
 11
1.623581541305861
 21
14.99830357817278
 31
0.0
210
0.0
220
0.0
230
1.0
 40
0.138944
 41
1.908927975894239
 42
3.156632395651064
  0
ELLIPSE
  5
16D
330
1F
100
AcDbEntity
  8
1
100
AcDbEllipse
 10
391.344842
 20
288.907994
 30
0.0
 11
0.0
 21
15.00000000015862
 31
0.0
210
0.0
220
0.0
230
1.0
 40
0.140541
 41
1.438384985198166
 42
1.893888233829149
  0
ELLIPSE
  5
16E
330
1F
100
AcDbEntity
  8
1
100
AcDbEllipse
 10
383.582043
 20
296.020875
 30
0.0
 11
-1.886113813783179
 21
0.6652628664342175
 31
0.0
210
0.0
220
0.0
230
1.0
 40
0.9986239999999998
 41
0.0546757932376148
 42
1.945227331219201
  0
ELLIPSE
  5
16F
330
1F
100
AcDbEntity
  8
1
100
AcDbEllipse
 10
383.582043
 20
296.020875
 30
0.0
 11
-1.886113813783179
 21
0.6652628664342175
 31
0.0
210
0.0
220
0.0
230
1.0
 40
0.9986239999999998
 41
1.945227331219204
 42
2.681832479841105
  0
ELLIPSE
  5
170
330
1F
100
AcDbEntity
  8
1
100
AcDbEllipse
 10
383.514543
 20
295.829504
 30
0.0
 11
-1.886113813783179
 21
0.6652628664342175
 31
0.0
210
0.0
220
0.0
230
1.0
 40
0.9986239999999998
 41
5.785523578469419
 42
5.928503423216225
  0
ELLIPSE
  5
171
330
1F
100
AcDbEntity
  8
1
100
AcDbEllipse
 10
383.50931
 20
295.814669
 30
0.0
 11
1.886113813783179
 21
-0.6652628664342141
 31
0.0
210
0.0
220
0.0
230
1.0
 40
0.9986239999999998
 41
2.786910769626418
 42
4.438060949560711
  0
ELLIPSE
  5
172
330
1F
100
AcDbEntity
  8
1
100
AcDbEllipse
 10
382.270256
 20
288.9081069999999
 30
0.0
 11
0.5016340800983088
 21
-14.99988332063348
 31
0.0
210
0.0
220
0.0
230
0.9999999999999998
 40
0.0191
 41
3.231387742109899
 42
3.251411723418728
  0
ELLIPSE
  5
173
330
1F
100
AcDbEntity
  8
1
100
AcDbEllipse
 10
329.560953
 20
288.972192
 30
0.0
 11
858.0122339824569
 21
-0.7443524437531929
 31
0.0
210
0.0
220
0.0
230
0.9999999999999998
 40
0.017386
 41
1.509959704001045
 42
1.511659871535051
  0
ELLIPSE
  5
174
330
1F
100
AcDbEntity
  8
1
100
AcDbEllipse
 10
315.693536
 20
288.907994
 30
0.0
 11
85.06144653403106
 21
-12.96082010128604
 31
0.0
210
0.0
220
0.0
230
1.0
 40
0.088771
 41
4.433902082677641
 42
4.515250998140733
  0
ELLIPSE
  5
175
330
1F
100
AcDbEntity
  8
1
100
AcDbEllipse
 10
383.007541
 20
306.223844
 30
0.0
 11
-11.88251702683402
 21
4.191156058535567
 31
0.0
210
0.0
220
0.0
230
1.0
 40
0.9986239999999998
 41
1.46921088041002
 42
1.945227515264146
  0
ELLIPSE
  5
176
330
1F
100
AcDbEntity
  8
1
100
AcDbEllipse
 10
297.904842
 20
279.823278
 30
0.0
 11
-2.382605310748675
 21
-7.636962218918816
 31
0.0
210
0.0
220
0.0
230
1.0
 40
0.176153
 41
4.198387281074714
 42
5.644825970474201
  0
ELLIPSE
  5
177
330
1F
100
AcDbEntity
  8
1
100
AcDbEllipse
 10
383.153614
 20
292.055779
 30
0.0
 11
-3.568362621840361
 21
-0.1400496030681092
 31
0.0
210
0.0
220
0.0
230
1.0
 40
0.22151
 41
1.672944251870212
 42
4.60801409592028
  0
ELLIPSE
  5
178
330
1F
100
AcDbEntity
  8
1
100
AcDbEllipse
 10
388.24357
 20
288.907994
 30
0.0
 11
25.7265044450683
 21
-14.79849817731726
 31
0.0
210
0.0
220
0.0
230
0.9999999999999998
 40
0.095248
 41
4.189269333618709
 42
4.310031336836024
  0
ELLIPSE
  5
179
330
1F
100
AcDbEntity
  8
1
100
AcDbEllipse
 10
382.703872
 20
288.907993
 30
0.0
 11
0.5016380994949142
 21
-14.99999704424711
 31
0.0
210
0.0
220
0.0
230
0.9999999999999998
 40
0.0191
 41
3.05239876912874
 42
3.116958561433933
  0
ELLIPSE
  5
17A
330
1F
100
AcDbEntity
  8
1
100
AcDbEllipse
 10
383.50931
 20
295.814669
 30
0.0
 11
1.886113813783179
 21
-0.6652628664342141
 31
0.0
210
0.0
220
0.0
230
1.0
 40
0.9986239999999998
 41
5.693765219816846
 42
5.822604891428749
  0
ELLIPSE
  5
17B
330
1F
100
AcDbEntity
  8
1
100
AcDbEllipse
 10
382.570985
 20
288.907994
 30
0.0
 11
0.4205911741630314
 21
-14.99988352328589
 31
0.0
210
0.0
220
0.0
230
0.9999999999999998
 40
0.140543
 41
3.113656564969328
 42
3.228346555260308
  0
ELLIPSE
  5
17C
330
1F
100
AcDbEntity
  8
1
100
AcDbEllipse
 10
252.674703
 20
288.90799
 30
0.0
 11
391.9405368977868
 21
14.62788115572479
 31
0.0
210
0.0
220
0.0
230
1.0
 40
0.008472
 41
5.052581384922188
 42
5.068013687716383
  0
ELLIPSE
  5
17D
330
1F
100
AcDbEntity
  8
1
100
AcDbEllipse
 10
383.514543
 20
295.829504
 30
0.0
 11
-1.886113813783179
 21
0.6652628664342175
 31
0.0
210
0.0
220
0.0
230
1.0
 40
0.9986239999999998
 41
2.68101223783897
 42
2.813440321327921
  0
ELLIPSE
  5
17E
330
1F
100
AcDbEntity
  8
1
100
AcDbEllipse
 10
390.954138
 20
288.865312
 30
0.0
 11
0.0001758288823797
 21
-0.5000776676676927
 31
0.0
210
0.0
220
0.0
230
1.0
 40
0.140519
 41
3.139090475969819
 42
4.709886802760523
  0
ELLIPSE
  5
17F
330
1F
100
AcDbEntity
  8
1
100
AcDbEllipse
 10
391.084599
 20
294.41268
 30
0.0
 11
0.0003016037633763
 21
0.5003084758557847
 31
0.0
210
0.0
220
0.0
230
0.9999999999999998
 40
0.140101
 41
3.195395734394249
 42
4.766192061193198
  0
ELLIPSE
  5
180
330
1F
100
AcDbEntity
  8
1
100
AcDbEllipse
 10
386.8611430000001
 20
299.407011
 30
0.0
 11
-3.064934947397671
 21
1.081052157955606
 31
0.0
210
0.0
220
0.0
230
0.9999999999999998
 40
0.9986239999999998
 41
0.0
 42
6.283185307179585
  0
ELLIPSE
  5
181
330
1F
100
AcDbEntity
  8
1
100
AcDbEllipse
 10
391.013899
 20
295.485933
 30
0.0
 11
1.034593537118752
 21
-0.9639382186613493
 31
0.0
210
0.0
220
0.0
230
1.0
 40
0.033998
 41
1.585610887563316
 42
2.14042192073861
  0
ELLIPSE
  5
182
330
1F
100
AcDbEntity
  8
1
100
AcDbEllipse
 10
382.678737
 20
303.244024
 30
0.0
 11
1.034593537657689
 21
-0.963938219170348
 31
0.0
210
0.0
220
0.0
230
0.9999999999999998
 40
0.033998
 41
1.030799854760469
 42
1.585610887662355
  0
ELLIPSE
  5
183
330
1F
100
AcDbEntity
  8
1
100
AcDbEllipse
 10
390.725926
 20
303.524746
 30
0.0
 11
0.9634869183594499
 21
1.03410915712917
 31
0.0
210
0.0
220
0.0
230
1.0
 40
0.01483
 41
1.536779664428629
 42
2.091590697585235
  0
ELLIPSE
  5
184
330
1F
100
AcDbEntity
  8
1
100
AcDbEllipse
 10
386.722369
 20
299.30231
 30
0.0
 11
-2.593406493951871
 21
0.9147364413470493
 31
0.0
210
0.0
220
0.0
230
1.0
 40
0.9986239999999998
 41
3.141683399138616
 42
6.283178024433414
  0
SPLINE
  5
18A
330
1F
100
AcDbEntity
  8
1
100
AcDbSpline
210
0.0
220
0.0
230
1.0
 70
     8
 71
     3
 72
    14
 73
    10
 74
     0
 42
0.000000001
 43
0.0000000001
 40
0.0
 40
0.0
 40
0.0
 40
0.0
 40
0.2927174621489625
 40
0.2927174621489625
 40
0.5854349242979247
 40
0.5854349242979247
 40
0.8781523864468871
 40
0.8781523864468871
 40
1.0
 40
1.0
 40
1.0
 40
1.0
 10
386.108542275141
 20
300.278266165955
 30
0.0
 10
386.1055257219641
 20
300.2829237758335
 30
0.0
 10
386.1029233371659
 20
300.2878167518076
 30
0.0
 10
386.0986115075809
 20
300.2978903388011
 30
0.0
 10
386.0968867111282
 20
300.3030930123064
 30
0.0
 10
386.0943249099267
 20
300.3138386659843
 30
0.0
 10
386.0934990294061
 20
300.3193816367084
 30
0.0
 10
386.0930189266492
 20
300.3272080698343
 30
0.0
 10
386.0929597759389
 20
300.3295135882837
 30
0.0
 10
386.0929841084186
 20
300.3318243245221
 30
0.0
  0
SPLINE
  5
18B
330
1F
100
AcDbEntity
  8
1
100
AcDbSpline
210
0.0
220
0.0
230
1.0
 70
     8
 71
     3
 72
    14
 73
    10
 74
     0
 42
0.000000001
 43
0.0000000001
 40
0.0
 40
0.0
 40
0.0
 40
0.0
 40
0.0594675014706641
 40
0.0594675014706641
 40
0.3729783343137761
 40
0.3729783343137761
 40
0.6864891671568879
 40
0.6864891671568879
 40
1.0
 40
1.0
 40
1.0
 40
1.0
 10
387.6596735862212
 20
299.8609339765319
 30
0.0
 10
387.6601181565903
 20
299.862195290394
 30
0.0
 10
387.660587386639
 20
299.8634430520165
 30
0.0
 10
387.6636796978824
 20
299.8711740759656
 30
0.0
 10
387.6669308226506
 20
299.8772770428244
 30
0.0
 10
387.6746986872021
 20
299.8887206821977
 30
0.0
 10
387.6792286506948
 20
299.8940413295746
 30
0.0
 10
387.6891443277352
 20
299.9034497975111
 30
0.0
 10
387.6945728179912
 20
299.9076081828503
 30
0.0
 10
387.7004875646755
 20
299.9112034770534
 30
0.0
  0
SPLINE
  5
18C
330
1F
100
AcDbEntity
  8
1
100
AcDbSpline
210
0.0
220
0.0
230
1.0
 70
     8
 71
     3
 72
     8
 73
     4
 74
     0
 42
0.000000001
 43
0.0000000001
 40
0.0
 40
0.0
 40
0.0
 40
0.0
 40
1.0
 40
1.0
 40
1.0
 40
1.0
 10
387.7213537405478
 20
299.9282910862717
 30
0.0
 10
387.7152330985197
 20
299.9216300049507
 30
0.0
 10
387.7082745609678
 20
299.9159368230651
 30
0.0
 10
387.7004875646755
 20
299.9112034770534
 30
0.0
  0
SPLINE
  5
18D
330
1F
100
AcDbEntity
  8
1
100
AcDbSpline
210
0.0
220
0.0
230
1.0
 70
     8
 71
     3
 72
    36
 73
    32
 74
     0
 42
0.000000001
 43
0.0000000001
 40
0.0
 40
0.0
 40
0.0
 40
0.0
 40
0.1250000000000484
 40
0.1250000000000484
 40
0.1875000000000685
 40
0.1875000000000685
 40
0.2187500000000709
 40
0.2187500000000709
 40
0.2500000000000734
 40
0.2500000000000734
 40
0.3750000000001303
 40
0.3750000000001303
 40
0.4062500000001345
 40
0.4062500000001345
 40
0.4375000000001388
 40
0.4375000000001388
 40
0.5000000000001275
 40
0.5000000000001275
 40
0.6250000000000771
 40
0.6250000000000771
 40
0.6562500000000561
 40
0.6562500000000561
 40
0.6875000000000351
 40
0.7499999999999949
 40
0.8124999999999548
 40
0.8124999999999548
 40
0.8437499999999513
 40
0.8437499999999513
 40
0.8749999999999479
 40
0.8749999999999479
 40
1.0
 40
1.0
 40
1.0
 40
1.0
 10
391.4798350269057
 20
303.5626491464836
 30
0.0
 10
391.4780127583297
 20
303.6135180742305
 30
0.0
 10
391.47104228424
 20
303.6633236895231
 30
0.0
 10
391.4533439396961
 20
303.736536216021
 30
0.0
 10
391.4462273304814
 20
303.760688998587
 30
0.0
 10
391.4337005397045
 20
303.7965356850188
 30
0.0
 10
391.4292024692543
 20
303.8084522544269
 30
0.0
 10
391.4196477610589
 20
303.8319832839899
 30
0.0
 10
391.4145976484837
 20
303.8435872687612
 30
0.0
 10
391.3880141431575
 20
303.9008178121752
 30
0.0
 10
391.362521463942
 20
303.9440996459572
 30
0.0
 10
391.3254522534663
 20
303.9951204609853
 30
0.0
 10
391.3177757958777
 20
304.0051691007465
 30
0.0
 10
391.3018896798789
 20
304.0249506139729
 30
0.0
 10
391.293664785964
 20
304.0346985206955
 30
0.0
 10
391.2684415009321
 20
304.0631664316279
 30
0.0
 10
391.2508259326706
 20
304.0812064550458
 30
0.0
 10
391.1956452997933
 20
304.1325884449212
 30
0.0
 10
391.1557695790396
 20
304.1632196328186
 30
0.0
 10
391.1019309760092
 20
304.1968230569478
 30
0.0
 10
391.0909478216082
 20
304.2033129586687
 30
0.0
 10
391.0688140274013
 20
304.2156766818945
 30
0.0
 10
391.0352783096736
 20
304.2333521951066
 30
0.0
 10
390.9777387941596
 20
304.2585349874855
 30
0.0
 10
390.9299617704576
 20
304.2741483464852
 30
0.0
 10
390.8934585304846
 20
304.2841171333905
 30
0.0
 10
390.8811788291372
 20
304.2871493133497
 30
0.0
 10
390.8563901423465
 20
304.2926182169828
 30
0.0
 10
390.8438649153136
 20
304.2950562014803
 30
0.0
 10
390.7812459449989
 20
304.3056232509583
 30
0.0
 10
390.730746697548
 20
304.3090429934689
 30
0.0
 10
390.6798303725917
 20
304.3072668070501
 30
0.0
  0
SPLINE
  5
18E
330
1F
100
AcDbEntity
  8
1
100
AcDbSpline
210
0.0
220
0.0
230
1.0
 70
     8
 71
     3
 72
    36
 73
    32
 74
     0
 42
0.000000001
 43
0.0000000001
 40
0.0
 40
0.0
 40
0.0
 40
0.0
 40
0.1250000000001105
 40
0.1250000000001105
 40
0.1875000000001825
 40
0.1875000000001825
 40
0.2187500000002192
 40
0.2187500000002192
 40
0.2500000000002559
 40
0.2500000000002559
 40
0.3750000000003093
 40
0.3750000000003093
 40
0.4062500000003011
 40
0.4062500000003011
 40
0.437500000000293
 40
0.437500000000293
 40
0.5000000000002512
 40
0.5000000000002512
 40
0.6250000000001644
 40
0.6250000000001644
 40
0.6562500000001517
 40
0.6562500000001517
 40
0.6875000000001389
 40
0.7500000000001175
 40
0.8125000000000959
 40
0.8125000000000959
 40
0.8437500000000806
 40
0.8437500000000806
 40
0.8750000000000655
 40
0.8750000000000655
 40
1.0
 40
1.0
 40
1.0
 40
1.0
 10
382.7071017242026
 20
304.0291427995037
 30
0.0
 10
382.6561797898282
 20
304.0273664174037
 30
0.0
 10
382.6063267552279
 20
304.0204464255022
 30
0.0
 10
382.5330509601609
 20
304.002830269612
 30
0.0
 10
382.5088784090502
 20
303.9957421431534
 30
0.0
 10
382.4730040796337
 20
303.9832597296488
 30
0.0
 10
382.4610786090975
 20
303.9787767690943
 30
0.0
 10
382.4375305838562
 20
303.9692526180267
 30
0.0
 10
382.4259185101388
 20
303.9642179366475
 30
0.0
 10
382.3686495202121
 20
303.9377123331973
 30
0.0
 10
382.3253432642414
 20
303.9122843402252
 30
0.0
 10
382.2742997218518
 20
303.8752988992844
 30
0.0
 10
382.2642469303059
 20
303.8676393425587
 30
0.0
 10
382.2444579128331
 20
303.8517873266581
 30
0.0
 10
382.2347066506773
 20
303.8435796612805
 30
0.0
 10
382.2062299796802
 20
303.8184079793976
 30
0.0
 10
382.1881858142716
 20
303.8008268594976
 30
0.0
 10
382.1367963520613
 20
303.7457497066638
 30
0.0
 10
382.1061667380633
 20
303.7059431512047
 30
0.0
 10
382.0725737582576
 20
303.6521912357415
 30
0.0
 10
382.0660863790902
 20
303.6412254502744
 30
0.0
 10
382.0537285066568
 20
303.6191260412249
 30
0.0
 10
382.0360629925458
 20
303.5856415086017
 30
0.0
 10
382.0109028759397
 20
303.5281853718156
 30
0.0
 10
381.9953140286514
 20
303.4804730055768
 30
0.0
 10
381.9853660728843
 20
303.4440174729472
 30
0.0
 10
381.9823412452943
 20
303.4317535428433
 30
0.0
 10
381.9768878833318
 20
303.4069961298322
 30
0.0
 10
381.9744581008102
 20
303.3944864238203
 30
0.0
 10
381.9639337963071
 20
303.3319436492857
 30
0.0
 10
381.9605539999532
 20
303.2815014435481
 30
0.0
 10
381.9623760677931
 20
303.2306381193805
 30
0.0
  0
SPLINE
  5
18F
330
1F
100
AcDbEntity
  8
1
100
AcDbSpline
210
0.0
220
0.0
230
1.0
 70
     8
 71
     3
 72
    19
 73
    15
 74
     0
 42
0.000000001
 43
0.0000000001
 40
0.0
 40
0.0
 40
0.0
 40
0.0
 40
0.1249999999999997
 40
0.2499999999999993
 40
0.3749999999999989
 40
0.4999999999999988
 40
0.4999999999999988
 40
0.5624999999999984
 40
0.5624999999999984
 40
0.6249999999999984
 40
0.6249999999999984
 40
0.749999999999999
 40
0.8749999999999994
 40
1.0
 40
1.0
 40
1.0
 40
1.0
 10
279.4048419452957
 20
280.6209270329172
 30
0.0
 10
279.2687950298521
 20
280.4919354232343
 30
0.0
 10
279.0084532451153
 20
280.2276480696859
 30
0.0
 10
278.6522789465839
 20
279.8135429389058
 30
0.0
 10
278.3301041474971
 20
279.382657315112
 30
0.0
 10
278.1381337146352
 20
279.0846010942178
 30
0.0
 10
278.0029140296476
 20
278.8570780077494
 30
0.0
 10
277.9592763039763
 20
278.7805253383655
 30
0.0
 10
277.8750857773773
 20
278.6262910282499
 30
0.0
 10
277.8347262342275
 20
278.5489676473001
 30
0.0
 10
277.7187929359839
 20
278.3164292215873
 30
0.0
 10
277.5779217355574
 20
278.0048662038605
 30
0.0
 10
277.4072777174878
 20
277.5336506150065
 30
0.0
 10
277.3207795422838
 20
277.2172567122172
 30
0.0
 10
277.2845051256393
 20
277.0585540696031
 30
0.0
  0
SPLINE
  5
190
330
1F
100
AcDbEntity
  8
1
100
AcDbSpline
210
0.0
220
0.0
230
1.0
 70
    28
 71
     3
 72
     8
 73
     4
 74
     0
 42
0.000000001
 43
0.0000000001
 40
0.0
 40
0.0
 40
0.0
 40
0.0
 40
1.0
 40
1.0
 40
1.0
 40
1.0
 10
297.9048419452957
 20
283.9435828829052
 30
0.0
 41
1.0
 10
297.9048419452957
 20
283.9773410240395
 30
0.0
 41
0.9979650086336691
 10
297.9048419452957
 20
284.0109826445996
 30
0.0
 41
0.99595122562722
 10
297.9048419452957
 20
284.0445048829052
 30
0.0
 41
0.9939586509806531
  0
SPLINE
  5
191
330
1F
100
AcDbEntity
  8
1
100
AcDbSpline
210
0.0
220
0.0
230
1.0
 70
     8
 71
     3
 72
    32
 73
    28
 74
     0
 42
0.000000001
 43
0.0000000001
 40
0.0
 40
0.0
 40
0.0
 40
0.0
 40
0.1250000000000032
 40
0.1250000000000032
 40
0.2500000000000065
 40
0.2500000000000065
 40
0.3750000000000098
 40
0.3750000000000098
 40
0.4375000000000114
 40
0.4375000000000114
 40
0.4531250000000114
 40
0.4531250000000114
 40
0.4687500000000112
 40
0.4687500000000112
 40
0.5000000000000109
 40
0.5000000000000109
 40
0.6250000000000086
 40
0.6250000000000086
 40
0.7500000000000062
 40
0.7500000000000062
 40
0.8125000000000046
 40
0.8125000000000046
 40
0.8437500000000037
 40
0.8437500000000037
 40
0.8750000000000028
 40
0.8750000000000028
 40
1.0
 40
1.0
 40
1.0
 40
1.0
 10
281.304336881908
 20
282.8610737651455
 30
0.0
 10
281.5361701232257
 20
283.0847534023321
 30
0.0
 10
281.7771233639661
 20
283.2958122521245
 30
0.0
 10
282.2779912482996
 20
283.6933676357553
 30
0.0
 10
282.537901778254
 20
283.8798651575875
 30
0.0
 10
283.0778968250623
 20
284.228074924877
 30
0.0
 10
283.357974188745
 20
284.3897941294003
 30
0.0
 10
283.7946246222718
 20
284.6128601475822
 30
0.0
 10
283.9429362921783
 20
284.6839548439123
 30
0.0
 10
284.1319775492312
 20
284.7685753086527
 30
0.0
 10
284.1699685450674
 20
284.785286780917
 30
0.0
 10
284.246321692773
 20
284.8182792413149
 30
0.0
 10
284.2847077005193
 20
284.8345699030486
 30
0.0
 10
284.4001317025277
 20
284.8826644064261
 30
0.0
 10
284.4775012601952
 20
284.9137207733489
 30
0.0
 10
284.8664687805915
 20
285.0639551341388
 30
0.0
 10
285.1844130497776
 20
285.1680462545249
 30
0.0
 10
285.8345209943027
 20
285.3428017107344
 30
0.0
 10
286.1666831583493
 20
285.413476766254
 30
0.0
 10
286.6763630739304
 20
285.4923247903204
 30
0.0
 10
286.8481653918834
 20
285.5140667995704
 30
0.0
 10
287.1088571627869
 20
285.5394687149427
 30
0.0
 10
287.1963608750808
 20
285.5467387244688
 30
0.0
 10
287.3715796102731
 20
285.5587447028043
 30
0.0
 10
287.4593470839394
 20
285.5634890697321
 30
0.0
 10
287.8989646325758
 20
285.5808467498263
 30
0.0
 10
288.2531621986445
 20
285.5744261884733
 30
0.0
 10
288.6096813862616
 20
285.5463189039062
 30
0.0
  0
SPLINE
  5
192
330
1F
100
AcDbEntity
  8
1
100
AcDbSpline
210
0.0
220
0.0
230
1.0
 70
     8
 71
     3
 72
    14
 73
    10
 74
     0
 42
0.000000001
 43
0.0000000001
 40
0.0
 40
0.0
 40
0.0
 40
0.0
 40
0.2500000000000002
 40
0.2500000000000002
 40
0.5000000000000004
 40
0.5000000000000004
 40
0.7500000000000005
 40
0.7500000000000005
 40
1.0
 40
1.0
 40
1.0
 40
1.0
 10
281.304336881908
 20
282.8610737651455
 30
0.0
 10
281.1348449205056
 20
282.6975428572525
 30
0.0
 10
280.9680084387948
 20
282.5287914808882
 30
0.0
 10
280.6398348629546
 20
282.1801060065013
 30
0.0
 10
280.4784967869299
 20
282.0001745684043
 30
0.0
 10
280.1615497728114
 20
281.6282218830167
 30
0.0
 10
280.0059394117488
 20
281.4362046994888
 30
0.0
 10
279.7007555294417
 20
281.0389063740002
 30
0.0
 10
279.5511797335911
 20
280.8336319491389
 30
0.0
 10
279.4048419452959
 20
280.6209270329173
 30
0.0
  0
SPLINE
  5
193
330
1F
100
AcDbEntity
  8
1
100
AcDbSpline
210
0.0
220
0.0
230
1.0
 70
     9
 71
     3
 72
   123
 73
   119
 74
     0
 42
0.000000001
 43
0.0000000001
 40
0.0
 40
0.0
 40
0.0
 40
0.0
 40
0.0312499999999923
 40
0.0312499999999923
 40
0.0468749999999884
 40
0.0468749999999884
 40
0.0546874999999865
 40
0.0546874999999865
 40
0.0624999999999845
 40
0.0624999999999845
 40
0.0937499999999768
 40
0.0937499999999768
 40
0.101562499999976
 40
0.101562499999976
 40
0.1093749999999751
 40
0.1093749999999751
 40
0.1249999999999774
 40
0.1249999999999774
 40
0.1562499999999815
 40
0.1562499999999815
 40
0.1718749999999836
 40
0.1718749999999836
 40
0.1874999999999857
 40
0.2031249999999877
 40
0.2031249999999877
 40
0.2109374999999886
 40
0.2109374999999886
 40
0.2187499999999896
 40
0.2187499999999896
 40
0.2499999999999926
 40
0.2499999999999926
 40
0.2578124999999931
 40
0.2578124999999931
 40
0.2656249999999937
 40
0.2656249999999937
 40
0.2812499999999942
 40
0.2812499999999942
 40
0.312499999999994
 40
0.312499999999994
 40
0.3281249999999931
 40
0.3281249999999931
 40
0.3437499999999921
 40
0.3437499999999921
 40
0.3749999999999876
 40
0.3749999999999876
 40
0.3828124999999875
 40
0.3828124999999875
 40
0.3906249999999873
 40
0.4062499999999912
 40
0.4218749999999948
 40
0.4218749999999948
 40
0.4296874999999967
 40
0.4296874999999967
 40
0.4374999999999984
 40
0.4374999999999984
 40
0.4687500000000008
 40
0.4687500000000008
 40
0.4843749999999995
 40
0.4843749999999995
 40
0.4921875000000015
 40
0.4921875000000015
 40
0.5000000000000032
 40
0.5000000000000032
 40
0.5312499999999952
 40
0.5312499999999952
 40
0.5390624999999945
 40
0.5390624999999945
 40
0.5468749999999938
 40
0.5468749999999938
 40
0.5624999999999924
 40
0.578124999999991
 40
0.578124999999991
 40
0.5937499999999895
 40
0.5937499999999895
 40
0.6249999999999867
 40
0.6249999999999867
 40
0.6328124999999869
 40
0.6328124999999869
 40
0.6406249999999872
 40
0.6406249999999872
 40
0.6562499999999908
 40
0.6562499999999908
 40
0.6874999999999955
 40
0.6874999999999955
 40
0.6953124999999968
 40
0.6953124999999968
 40
0.7031249999999979
 40
0.7187499999999997
 40
0.7343750000000013
 40
0.7343750000000013
 40
0.7421875000000022
 40
0.7421875000000022
 40
0.7500000000000029
 40
0.7500000000000029
 40
0.7812500000000063
 40
0.7812500000000063
 40
0.7968750000000079
 40
0.7968750000000079
 40
0.8125000000000094
 40
0.8125000000000094
 40
0.8437500000000124
 40
0.8437500000000124
 40
0.8593750000000124
 40
0.8593750000000124
 40
0.8750000000000124
 40
0.8750000000000124
 40
0.9062500000000124
 40
0.9062500000000124
 40
0.9218750000000104
 40
0.9218750000000104
 40
0.9375000000000085
 40
0.9531250000000062
 40
0.9531250000000062
 40
0.9609375000000051
 40
0.9609375000000051
 40
0.9687500000000042
 40
0.9687500000000042
 40
1.0
 40
1.0
 40
1.0
 40
1.0
 10
387.4246469271757
 20
286.4733679557893
 30
0.0
 10
387.5085897443826
 20
286.4719027284647
 30
0.0
 10
387.5909353744193
 20
286.4620916851398
 30
0.0
 10
387.7121573609014
 20
286.4353873057813
 30
0.0
 10
387.7521789711137
 20
286.4244725292128
 30
0.0
 10
387.8116186474937
 20
286.4050098399973
 30
0.0
 10
387.8313888532323
 20
286.3979837939362
 30
0.0
 10
387.8704030682625
 20
286.3830036272817
 30
0.0
 10
387.8896414965399
 20
286.3750558382633
 30
0.0
 10
387.9845172497046
 20
286.3330764080845
 30
0.0
 10
388.0562436479693
 20
286.2923877363341
 30
0.0
 10
388.1407176745304
 20
286.2327419738572
 30
0.0
 10
388.1573509059278
 20
286.2203695772186
 30
0.0
 10
388.1900853636492
 20
286.1947244048951
 30
0.0
 10
388.206194147741
 20
286.1814404700097
 30
0.0
 10
388.2531814974402
 20
286.1406865521774
 30
0.0
 10
388.2829113276331
 20
286.1121763701681
 30
0.0
 10
388.3674600407275
 20
286.0227593380933
 30
0.0
 10
388.417681399747
 20
285.9580021322578
 30
0.0
 10
388.4835680208673
 20
285.8530148012708
 30
0.0
 10
388.5036355987558
 20
285.8171842959488
 30
0.0
 10
388.5399724273677
 20
285.7442040155741
 30
0.0
 10
388.5725670238305
 20
285.669813533072
 30
0.0
 10
388.5977880068659
 20
285.5926606354283
 30
0.0
 10
388.6139030333069
 20
285.5337517985443
 30
0.0
 10
388.6188139464089
 20
285.5139098705576
 30
0.0
 10
388.6276542766507
 20
285.4740109021573
 30
0.0
 10
388.631565298435
 20
285.4540447613891
 30
0.0
 10
388.648634342984
 20
285.3541343061942
 30
0.0
 10
388.6544027650704
 20
285.2739543370135
 30
0.0
 10
388.6519878940191
 20
285.1734333613687
 30
0.0
 10
388.6510194177946
 20
285.1533141440633
 30
0.0
 10
388.6481002180644
 20
285.1130452379356
 30
0.0
 10
388.6461444368254
 20
285.0928556237528
 30
0.0
 10
388.6388113074881
 20
285.0325202456118
 30
0.0
 10
388.6320117983306
 20
284.9928638071698
 30
0.0
 10
388.6060751703815
 20
284.8755325366334
 30
0.0
 10
388.5814516098252
 20
284.799481716632
 30
0.0
 10
388.5333263843406
 20
284.6886725854323
 30
0.0
 10
388.5153178871205
 20
284.652158521075
 30
0.0
 10
388.4762045427308
 20
284.5816907270877
 30
0.0
 10
388.4550436579123
 20
284.5475721654566
 30
0.0
 10
388.3868108478518
 20
284.4484995769714
 30
0.0
 10
388.3350386439985
 20
284.3867952272642
 30
0.0
 10
388.2619632746682
 20
284.3153677563343
 30
0.0
 10
388.24695921352
 20
284.3014065016337
 30
0.0
 10
388.2164348044246
 20
284.2743652479465
 30
0.0
 10
388.1697623634758
 20
284.2350216386339
 30
0.0
 10
388.0876023113905
 20
284.1754468355333
 30
0.0
 10
388.017191572205
 20
284.1341785464526
 30
0.0
 10
387.962567049765
 20
284.1056953286237
 30
0.0
 10
387.9440555675119
 20
284.0966130283342
 30
0.0
 10
387.9064084995073
 20
284.0792946297893
 30
0.0
 10
387.8872626620358
 20
284.071058672307
 30
0.0
 10
387.7911283464726
 20
284.0325120782962
 30
0.0
 10
387.7120279493941
 20
284.0095844538063
 30
0.0
 10
387.5900947824065
 20
283.9869738457837
 30
0.0
 10
387.548899478004
 20
283.9814145770515
 30
0.0
 10
387.486243888478
 20
283.9761684180891
 30
0.0
 10
387.465294148149
 20
283.9749456797767
 30
0.0
 10
387.423596300731
 20
283.9735567450061
 30
0.0
 10
387.4027983688971
 20
283.9733861140636
 30
0.0
 10
387.2990596709245
 20
283.9751109701002
 30
0.0
 10
387.2168645944378
 20
283.9846642581587
 30
0.0
 10
387.115124965248
 20
284.0069405317071
 30
0.0
 10
387.0947682763364
 20
284.0119346608585
 30
0.0
 10
387.0545260755132
 20
284.0228842679292
 30
0.0
 10
387.0346342904718
 20
284.028837063639
 30
0.0
 10
386.9756301304333
 20
284.04809637726
 30
0.0
 10
386.8987440203538
 20
284.0775034073505
 30
0.0
 10
386.825336068998
 20
284.1141935619473
 30
0.0
 10
386.7536714044417
 20
284.15454834693
 30
0.0
 10
386.7185682950205
 20
284.1766760035597
 30
0.0
 10
386.6179408090401
 20
284.2472585359515
 30
0.0
 10
386.5564774135349
 20
284.300114156671
 30
0.0
 10
386.4863988300649
 20
284.3732280623364
 30
0.0
 10
386.4727238510281
 20
284.3882063826834
 30
0.0
 10
386.446061192399
 20
284.4188821853385
 30
0.0
 10
386.4330417671719
 20
284.4346216119949
 30
0.0
 10
386.3953357442122
 20
284.4825421666706
 30
0.0
 10
386.3719663308041
 20
284.5154407401271
 30
0.0
 10
386.3069641752813
 20
284.6169048704479
 30
0.0
 10
386.2703895737981
 20
284.6882133925241
 30
0.0
 10
386.2332272216205
 20
284.7820456614035
 30
0.0
 10
386.2262122808924
 20
284.8010949812338
 30
0.0
 10
386.213177758547
 20
284.8393264546344
 30
0.0
 10
386.1950874275334
 20
284.8969462157572
 30
0.0
 10
386.1720848284506
 20
284.9943194499257
 30
0.0
 10
386.1612041375904
 20
285.0736387213962
 30
0.0
 10
386.1559056756121
 20
285.1336709656856
 30
0.0
 10
386.1546173594584
 20
285.1537723176639
 30
0.0
 10
386.1530137744103
 20
285.1941596603037
 30
0.0
 10
386.1526994158603
 20
285.2144967849371
 30
0.0
 10
386.1536120582459
 20
285.3159985094522
 30
0.0
 10
386.162171714936
 20
285.3960732070162
 30
0.0
 10
386.1864973400779
 20
285.5145151698077
 30
0.0
 10
386.1965334628438
 20
285.5537153162468
 30
0.0
 10
386.2205807479946
 20
285.6315310577313
 30
0.0
 10
386.2346753966861
 20
285.6703017812131
 30
0.0
 10
386.2821580771095
 20
285.7832583028212
 30
0.0
 10
386.3208430145919
 20
285.854814209628
 30
0.0
 10
386.3894166696064
 20
285.9564712010843
 30
0.0
 10
386.414043999303
 20
285.9894043200065
 30
0.0
 10
386.4669916805344
 20
286.0532719110367
 30
0.0
 10
386.4949268935376
 20
286.083732805637
 30
0.0
 10
386.5826653554537
 20
286.1704430211678
 30
0.0
 10
386.6465022971393
 20
286.222231538457
 30
0.0
 10
386.7504578309237
 20
286.2906240225022
 30
0.0
 10
386.7866517133046
 20
286.3119276530588
 30
0.0
 10
386.8602606922287
 20
286.3504310505419
 30
0.0
 10
386.935394232424
 20
286.3850709346913
 30
0.0
 10
387.013521390032
 20
286.4121111695445
 30
0.0
 10
387.0732520862945
 20
286.4295050591692
 30
0.0
 10
387.0933518857112
 20
286.4348211055672
 30
0.0
 10
387.1339371081732
 20
286.4444723084386
 30
0.0
 10
387.154469857444
 20
286.4488157281472
 30
0.0
 10
387.2574942893347
 20
286.4679069065644
 30
0.0
 10
387.3407041099688
 20
286.4748331831139
 30
0.0
 10
387.4246469271758
 20
286.4733679557893
 30
0.0
  0
SPLINE
  5
194
330
1F
100
AcDbEntity
  8
1
100
AcDbSpline
210
0.0
220
0.0
230
1.0
 70
     8
 71
     3
 72
    45
 73
    41
 74
     0
 42
0.000000001
 43
0.0000000001
 40
0.0
 40
0.0
 40
0.0
 40
0.0
 40
0.1250000000000337
 40
0.1250000000000337
 40
0.2500000000000673
 40
0.2500000000000673
 40
0.375000000000101
 40
0.375000000000101
 40
0.4375000000001302
 40
0.4375000000001302
 40
0.4687500000001348
 40
0.4687500000001348
 40
0.5000000000001394
 40
0.5000000000001394
 40
0.5625000000001302
 40
0.5625000000001302
 40
0.625000000000121
 40
0.625000000000121
 40
0.6562500000001224
 40
0.6562500000001224
 40
0.6875000000001237
 40
0.6875000000001237
 40
0.7187500000001251
 40
0.7187500000001251
 40
0.7500000000001262
 40
0.7500000000001262
 40
0.8125000000001293
 40
0.8125000000001293
 40
0.8281250000001247
 40
0.8281250000001247
 40
0.84375000000012
 40
0.8750000000000961
 40
0.8750000000000961
 40
0.9062500000000721
 40
0.9062500000000721
 40
0.9375000000000479
 40
0.9375000000000479
 40
0.9687500000000239
 40
0.9687500000000239
 40
1.0
 40
1.0
 40
1.0
 40
1.0
 10
377.638712104266
 20
294.8438769317013
 30
0.0
 10
377.6009706100738
 20
294.8629160689929
 30
0.0
 10
377.5643577089813
 20
294.8832150248041
 30
0.0
 10
377.4936211435417
 20
294.9266142505643
 30
0.0
 10
377.4594934153987
 20
294.9497099401578
 30
0.0
 10
377.3941522345672
 20
294.9992023675005
 30
0.0
 10
377.3629276160364
 20
295.0255865695602
 30
0.0
 10
377.3188946084773
 20
295.0683509745085
 30
0.0
 10
377.3046880279234
 20
295.0831413734633
 30
0.0
 10
377.2842268092435
 20
295.1062921653769
 30
0.0
 10
377.2775418055132
 20
295.1141805438733
 30
0.0
 10
377.2646063739576
 20
295.1301665086635
 30
0.0
 10
377.2583413922204
 20
295.1382796707153
 30
0.0
 10
377.2402056706026
 20
295.1630096585901
 30
0.0
 10
377.2289877228037
 20
295.1800132851953
 30
0.0
 10
377.2086893050547
 20
295.2152835242189
 30
0.0
 10
377.1996015893541
 20
295.2335459760221
 30
0.0
 10
377.1880761593676
 20
295.2621787245645
 30
0.0
 10
377.1845880898982
 20
295.2719310479912
 30
0.0
 10
377.1784595893378
 20
295.2919328371982
 30
0.0
 10
377.1758289930994
 20
295.3021713306432
 30
0.0
 10
377.1716750251354
 20
295.3228176390558
 30
0.0
 10
377.1701359968113
 20
295.33327027038
 30
0.0
 10
377.1683164111728
 20
295.3544763295753
 30
0.0
 10
377.1680390040552
 20
295.3652959926669
 30
0.0
 10
377.1694577935796
 20
295.3977897150293
 30
0.0
 10
377.1733315352495
 20
295.4192909195958
 30
0.0
 10
377.1827732420074
 20
295.4458990410074
 30
0.0
 10
377.1849072766658
 20
295.451233081322
 30
0.0
 10
377.1895823484924
 20
295.4616750167641
 30
0.0
 10
377.1972131352185
 20
295.4770406876695
 30
0.0
 10
377.2066629619432
 20
295.4915304544195
 30
0.0
 10
377.2208418966163
 20
295.5100876394847
 30
0.0
 10
377.2287983144067
 20
295.5190523537584
 30
0.0
 10
377.2457723535995
 20
295.5357624391241
 30
0.0
 10
377.2547956488186
 20
295.5435433150161
 30
0.0
 10
377.273773380564
 20
295.5581073932735
 30
0.0
 10
377.2837698271666
 20
295.5649135211958
 30
0.0
 10
377.3043384254456
 20
295.5774931461153
 30
0.0
 10
377.314910906806
 20
295.5832750195493
 30
0.0
 10
377.3257276382739
 20
295.5886264016005
 30
0.0
  0
SPLINE
  5
195
330
1F
100
AcDbEntity
  8
1
100
AcDbSpline
210
0.0
220
0.0
230
1.0
 70
     8
 71
     3
 72
    20
 73
    16
 74
     0
 42
0.000000001
 43
0.0000000001
 40
0.0
 40
0.0
 40
0.0
 40
0.0
 40
0.2500000000000107
 40
0.2500000000000107
 40
0.5000000000000214
 40
0.5000000000000214
 40
0.625000000000025
 40
0.625000000000025
 40
0.6562500000000232
 40
0.6562500000000232
 40
0.6875000000000214
 40
0.6875000000000214
 40
0.7500000000000179
 40
0.7500000000000179
 40
1.0
 40
1.0
 40
1.0
 40
1.0
 10
295.1898106693325
 20
273.9403215337258
 30
0.0
 10
295.3995164481177
 20
273.9329503207557
 30
0.0
 10
295.6137149779883
 20
273.9276707030221
 30
0.0
 10
296.0512716828811
 20
273.9197709229327
 30
0.0
 10
296.2746283470102
 20
273.917151486067
 30
0.0
 10
296.6168782477357
 20
273.9143734792091
 30
0.0
 10
296.7321664066158
 20
273.9136423482673
 30
0.0
 10
296.8778391505466
 20
273.912907593913
 30
0.0
 10
296.9070518863384
 20
273.9127696654552
 30
0.0
 10
296.9656353913907
 20
273.9125105055329
 30
0.0
 10
296.9950221307777
 20
273.9123892256211
 30
0.0
 10
297.0831081735002
 20
273.9120497054195
 30
0.0
 10
297.1418267652512
 20
273.9118552566492
 30
0.0
 10
297.4353927885044
 20
273.9110170021376
 30
0.0
 10
297.6701596200343
 20
273.9107526822423
 30
0.0
 10
297.9048419452555
 20
273.9107526822423
 30
0.0
  0
SPLINE
  5
196
330
1F
100
AcDbEntity
  8
1
100
AcDbSpline
210
0.0
220
0.0
230
1.0
 70
     8
 71
     3
 72
    16
 73
    12
 74
     0
 42
0.000000001
 43
0.0000000001
 40
0.0
 40
0.0
 40
0.0
 40
0.0
 40
0.1249999999999993
 40
0.1249999999999993
 40
0.2499999999999986
 40
0.2499999999999986
 40
0.4999999999999986
 40
0.4999999999999986
 40
0.7499999999999992
 40
0.7499999999999992
 40
1.0
 40
1.0
 40
1.0
 40
1.0
 10
311.4871495384665
 20
274.1344787711565
 30
0.0
 10
310.9237413571299
 20
274.1115121149606
 30
0.0
 10
310.3599697868532
 20
274.0904934404214
 30
0.0
 10
309.2319848607713
 20
274.0522055022963
 30
0.0
 10
308.6677338880767
 20
274.0349345509158
 30
0.0
 10
306.9741187096424
 20
273.9884729592463
 30
0.0
 10
305.8438906539531
 20
273.9646408739949
 30
0.0
 10
303.5807005992848
 20
273.9296433699501
 30
0.0
 10
302.4477382189813
 20
273.9184758169449
 30
0.0
 10
300.1787022781747
 20
273.9069791685079
 30
0.0
 10
299.0426286249423
 20
273.9066476342953
 30
0.0
 10
297.9048419452959
 20
273.9107526822423
 30
0.0
  0
SPLINE
  5
197
330
1F
100
AcDbEntity
  8
1
100
AcDbSpline
210
0.0
220
0.0
230
1.0
 70
     8
 71
     3
 72
    14
 73
    10
 74
     0
 42
0.000000001
 43
0.0000000001
 40
0.0
 40
0.0
 40
0.0
 40
0.0
 40
0.25
 40
0.25
 40
0.5
 40
0.5
 40
0.75
 40
0.75
 40
1.0
 40
1.0
 40
1.0
 40
1.0
 10
291.2038318185191
 20
274.0567758321312
 30
0.0
 10
291.5347760450974
 20
274.0429399921832
 30
0.0
 10
291.866065884743
 20
274.0302379279383
 30
0.0
 10
292.5290882280962
 20
274.0068670232949
 30
0.0
 10
292.8608188494291
 20
273.9962012070104
 30
0.0
 10
293.5248050073239
 20
273.9768448123851
 30
0.0
 10
293.8570616870147
 20
273.9681583700093
 30
0.0
 10
294.5225347967217
 20
273.9527653206141
 30
0.0
 10
294.855754888624
 20
273.9460622687748
 30
0.0
 10
295.1898106693326
 20
273.9403215337258
 30
0.0
  0
SPLINE
  5
198
330
1F
100
AcDbEntity
  8
1
100
AcDbSpline
210
0.0
220
0.0
230
1.0
 70
     8
 71
     3
 72
    19
 73
    15
 74
     0
 42
0.000000001
 43
0.0000000001
 40
0.0
 40
0.0
 40
0.0
 40
0.0
 40
0.2500000000000084
 40
0.2500000000000084
 40
0.5000000000000168
 40
0.5000000000000168
 40
0.562500000000027
 40
0.562500000000027
 40
0.6250000000000373
 40
0.7500000000000248
 40
0.7500000000000248
 40
0.8750000000000124
 40
0.8750000000000124
 40
1.0
 40
1.0
 40
1.0
 40
1.0
 10
383.4590135899509
 20
293.8104804324381
 30
0.0
 10
383.3591129840871
 20
293.8132474340973
 30
0.0
 10
383.2614883672007
 20
293.8236894405102
 30
0.0
 10
383.069599646334
 20
293.8586491216509
 30
0.0
 10
382.975326506049
 20
293.8831680588477
 30
0.0
 10
382.8589805713816
 20
293.9227357210437
 30
0.0
 10
382.8357844660585
 20
293.9311021453087
 30
0.0
 10
382.7898897974559
 20
293.9486053285122
 30
0.0
 10
382.721658580281
 20
293.9760610049944
 30
0.0
 10
382.6551925076844
 20
294.0070696832295
 30
0.0
 10
382.5680526643651
 20
294.0515505071807
 30
0.0
 10
382.5252239334212
 20
294.0753587667371
 30
0.0
 10
382.4409866223224
 20
294.1261595843844
 30
0.0
 10
382.3995785583263
 20
294.1531516008027
 30
0.0
 10
382.3588558492036
 20
294.1817994595601
 30
0.0
  0
SPLINE
  5
199
330
1F
100
AcDbEntity
  8
1
100
AcDbSpline
210
0.0
220
0.0
230
1.0
 70
    12
 71
     2
 72
     6
 73
     3
 74
     0
 42
0.000000001
 43
0.0000000001
 40
0.0
 40
0.0
 40
0.0
 40
1.0
 40
1.0
 40
1.0
 10
381.7449515054661
 20
303.846698673305
 30
0.0
 41
0.5000029896640664
 10
381.8571347627802
 20
303.8465217899483
 30
0.0
 41
0.4999970103359337
 10
381.9693168146275
 20
303.8463443971981
 30
0.0
 41
0.5000029896640664
  0
SPLINE
  5
19A
330
1F
100
AcDbEntity
  8
1
100
AcDbSpline
210
0.0
220
0.0
230
1.0
 70
     8
 71
     3
 72
    10
 73
     6
 74
     0
 42
0.000000001
 43
0.0000000001
 40
0.0
 40
0.0
 40
0.0
 40
0.0
 40
0.5
 40
0.5
 40
1.0
 40
1.0
 40
1.0
 40
1.0
 10
380.437185576174
 20
299.4133048461148
 30
0.0
 10
380.4058027799516
 20
300.1474372183921
 30
0.0
 10
380.3779868413757
 20
300.8817027155034
 30
0.0
 10
380.3274998525787
 20
302.3504257309596
 30
0.0
 10
380.3048406599555
 20
303.0848662329698
 30
0.0
 10
380.2841049537682
 20
303.8193639324311
 30
0.0
  0
SPLINE
  5
19B
330
1F
100
AcDbEntity
  8
1
100
AcDbSpline
210
0.0
220
0.0
230
1.0
 70
    28
 71
     4
 72
    13
 73
     8
 74
     0
 42
0.000000001
 43
0.0000000001
 40
0.0
 40
0.0
 40
0.0
 40
0.0
 40
0.0
 40
0.3853370676994384
 40
0.3853370676994384
 40
0.3853370676994384
 40
1.0
 40
1.0
 40
1.0
 40
1.0
 40
1.0
 10
297.9048419452959
 20
283.9435828829053
 30
0.0
 41
1.005405995360787
 10
297.9048419452959
 20
283.1354378016548
 30
0.0
 41
1.005405995360785
 10
297.9048419452959
 20
282.1872299013174
 30
0.0
 41
0.9990170917525841
 10
297.9048419452959
 20
281.1425003671891
 30
0.0
 41
0.9926281881443815
 10
297.9048419452959
 20
278.3235798675141
 30
0.0
 41
0.9815748288152004
 10
297.9048419452959
 20
276.5260546499856
 30
0.0
 41
0.9801994690538247
 10
297.9048419452959
 20
275.0067610973879
 30
0.0
 41
0.9928864223941252
 10
297.9048419452959
 20
273.9107526889032
 30
0.0
 41
1.000703985929563
  0
SPLINE
  5
19C
330
1F
100
AcDbEntity
  8
1
100
AcDbSpline
210
0.0
220
0.0
230
1.0
 70
     8
 71
     3
 72
     8
 73
     4
 74
     0
 42
0.000000001
 43
0.0000000001
 40
0.0
 40
0.0
 40
0.0
 40
0.0
 40
1.0
 40
1.0
 40
1.0
 40
1.0
 10
378.2531361056712
 20
294.5540576920635
 30
0.0
 10
378.0462474151544
 20
294.6450169081862
 30
0.0
 10
377.841481361789
 20
294.7415876128717
 30
0.0
 10
377.6387121042632
 20
294.8438769317023
 30
0.0
  0
SPLINE
  5
19D
330
1F
100
AcDbEntity
  8
1
100
AcDbSpline
210
0.0
220
0.0
230
1.0
 70
     8
 71
     3
 72
    40
 73
    36
 74
     0
 42
0.000000001
 43
0.0000000001
 40
0.0
 40
0.0
 40
0.0
 40
0.0
 40
0.1250000000000097
 40
0.1250000000000097
 40
0.1562500000000121
 40
0.1562500000000121
 40
0.1875000000000144
 40
0.2500000000000187
 40
0.2500000000000187
 40
0.3750000000000208
 40
0.3750000000000208
 40
0.5000000000000232
 40
0.5000000000000232
 40
0.5312500000000222
 40
0.5312500000000222
 40
0.5625000000000212
 40
0.5625000000000212
 40
0.6250000000000197
 40
0.6250000000000197
 40
0.6875000000000182
 40
0.6875000000000182
 40
0.7187500000000159
 40
0.7187500000000159
 40
0.7500000000000135
 40
0.7500000000000135
 40
0.8125000000000131
 40
0.8125000000000131
 40
0.8750000000000127
 40
0.8750000000000127
 40
0.9062500000000111
 40
0.9218750000000092
 40
0.9218750000000092
 40
0.9375000000000074
 40
0.9375000000000074
 40
1.0
 40
1.0
 40
1.0
 40
1.0
 10
377.325727638275
 20
295.5886264015989
 30
0.0
 10
377.5200129793356
 20
295.6847455564536
 30
0.0
 10
377.7114634039343
 20
295.7868785781816
 30
0.0
 10
377.9465729853463
 20
295.9234618675564
 30
0.0
 10
377.9933785098967
 20
295.9512242563208
 30
0.0
 10
378.086288688071
 20
296.0075268036809
 30
0.0
 10
378.2246979416163
 20
296.0932030932407
 30
0.0
 10
378.3601365819255
 20
296.182677948767
 30
0.0
 10
378.6267282707237
 20
296.3671077078575
 30
0.0
 10
378.7987737086331
 20
296.4973269893518
 30
0.0
 10
379.1291654184475
 20
296.7752828733846
 30
0.0
 10
379.2875437694336
 20
296.9229784559398
 30
0.0
 10
379.4746583351064
 20
297.1214826922892
 30
0.0
 10
379.5114604692998
 20
297.1618107575742
 30
0.0
 10
379.5834688414238
 20
297.2434625635167
 30
0.0
 10
379.6187185756236
 20
297.2848320285793
 30
0.0
 10
379.722094355356
 20
297.4106504105283
 30
0.0
 10
379.7878533618088
 20
297.4968047148316
 30
0.0
 10
379.91233614628
 20
297.6741820145915
 30
0.0
 10
379.9710630703843
 20
297.7654027433787
 30
0.0
 10
380.0531605216339
 20
297.906551583514
 30
0.0
 10
380.0795430759097
 20
297.9543565019463
 30
0.0
 10
380.1300803431157
 20
298.0513765975925
 30
0.0
 10
380.1540735299571
 20
298.100279242661
 30
0.0
 10
380.2221052023589
 20
298.248202383431
 30
0.0
 10
380.2622037976292
 20
298.3484356228718
 30
0.0
 10
380.3310698293003
 20
298.552389963335
 30
0.0
 10
380.3598401288117
 20
298.6561101830587
 30
0.0
 10
380.3936686714683
 20
298.8145614422304
 30
0.0
 10
380.4082474338503
 20
298.8945059684466
 30
0.0
 10
380.4191267524463
 20
298.9755892261907
 30
0.0
 10
380.4255324466335
 20
299.0299055046439
 30
0.0
 10
380.4283149352944
 20
299.0572346018892
 30
0.0
 10
380.4399982350217
 20
299.1939718850757
 30
0.0
 10
380.4422363446877
 20
299.3035446009313
 30
0.0
 10
380.437185576174
 20
299.4133048461148
 30
0.0
  0
SPLINE
  5
19E
330
1F
100
AcDbEntity
  8
1
100
AcDbSpline
210
0.0
220
0.0
230
1.0
 70
    12
 71
     3
 72
     9
 73
     5
 74
     0
 42
0.000000001
 43
0.0000000001
 40
0.0
 40
0.0
 40
0.0
 40
0.0
 40
0.3618533139270563
 40
1.0
 40
1.0
 40
1.0
 40
1.0
 10
351.5385420561393
 20
299.1010618887647
 30
0.0
 41
1.001587277983388
 10
355.0406349279829
 20
299.0847666739987
 30
0.0
 41
1.00151776821041
 10
364.7310771479904
 20
298.7615075494288
 30
0.0
 41
1.001179138166438
 10
374.3831678689478
 20
298.4530918020927
 30
0.0
 41
1.001750679527894
 10
380.4371855761739
 20
299.4133048461148
 30
0.0
 41
1.001592594733015
  0
SPLINE
  5
19F
330
1F
100
AcDbEntity
  8
1
100
AcDbSpline
210
0.0
220
0.0
230
1.0
 70
     8
 71
     3
 72
    10
 73
     6
 74
     0
 42
0.000000001
 43
0.0000000001
 40
0.0
 40
0.0
 40
0.0
 40
0.0
 40
0.5
 40
0.5
 40
1.0
 40
1.0
 40
1.0
 40
1.0
 10
288.6096813862616
 20
285.5463189039062
 30
0.0
 10
289.037121560565
 20
285.5126203456467
 30
0.0
 10
289.4670452656716
 20
285.4677082839581
 30
0.0
 10
290.3317718184472
 20
285.3558541210162
 30
0.0
 10
290.766574421739
 20
285.2889131231622
 30
0.0
 10
291.2038318185191
 20
285.2108883750429
 30
0.0
  0
SPLINE
  5
1A0
330
1F
100
AcDbEntity
  8
1
100
AcDbSpline
210
0.0
220
0.0
230
1.0
 70
     8
 71
     3
 72
    14
 73
    10
 74
     0
 42
0.000000001
 43
0.0000000001
 40
0.0
 40
0.0
 40
0.0
 40
0.0
 40
0.25
 40
0.25
 40
0.5
 40
0.5
 40
0.75
 40
0.75
 40
1.0
 40
1.0
 40
1.0
 40
1.0
 10
279.4048419452957
 20
272.0842102515007
 30
0.0
 10
279.5526059432466
 20
272.0764965386629
 30
0.0
 10
279.7035817199504
 20
272.07908538916
 30
0.0
 10
280.0110259789547
 20
272.1017952896249
 30
0.0
 10
280.1674969951077
 20
272.121925530915
 30
0.0
 10
280.4851242336811
 20
272.1773019150983
 30
0.0
 10
280.6462817411788
 20
272.2125530530761
 30
0.0
 10
280.9725340700381
 20
272.296176511126
 30
0.0
 10
281.1376293134364
 20
272.344551299425
 30
0.0
 10
281.3043368819074
 20
272.3986468909698
 30
0.0
  0
SPLINE
  5
1A1
330
1F
100
AcDbEntity
  8
1
100
AcDbSpline
210
0.0
220
0.0
230
1.0
 70
     8
 71
     3
 72
    31
 73
    27
 74
     0
 42
0.000000001
 43
0.0000000001
 40
0.0
 40
0.0
 40
0.0
 40
0.0
 40
0.1249999999999971
 40
0.1249999999999971
 40
0.2499999999999941
 40
0.2499999999999941
 40
0.312499999999992
 40
0.312499999999992
 40
0.3437499999999911
 40
0.3437499999999911
 40
0.3749999999999902
 40
0.3749999999999902
 40
0.4999999999999896
 40
0.4999999999999896
 40
0.6249999999999888
 40
0.6249999999999888
 40
0.6562499999999886
 40
0.6718749999999887
 40
0.6718749999999887
 40
0.6874999999999887
 40
0.6874999999999887
 40
0.7499999999999912
 40
0.7499999999999912
 40
0.8749999999999955
 40
0.8749999999999955
 40
1.0
 40
1.0
 40
1.0
 40
1.0
 10
277.2845051256393
 20
277.0585540696031
 30
0.0
 10
277.2338888685529
 20
276.8020429501831
 30
0.0
 10
277.2024403282227
 20
276.5497599980745
 30
0.0
 10
277.1759886058558
 20
276.0536088483899
 30
0.0
 10
277.1809929985615
 20
275.8097406636221
 30
0.0
 10
277.2156625603612
 20
275.4502552941864
 30
0.0
 10
277.2317583092988
 20
275.331480039496
 30
0.0
 10
277.2627978538284
 20
275.1549011667214
 30
0.0
 10
277.2743045318381
 20
275.0962596029611
 30
0.0
 10
277.2995988761919
 20
274.9797031466259
 30
0.0
 10
277.3133399848778
 20
274.9219932955315
 30
0.0
 10
277.3874174619433
 20
274.6362189410581
 30
0.0
 10
277.4638095234113
 20
274.4164588391406
 30
0.0
 10
277.6493704690639
 20
273.9932952408819
 30
0.0
 10
277.7585456825473
 20
273.7898961123614
 30
0.0
 10
277.915455708864
 20
273.5452963553579
 30
0.0
 10
277.9640666339452
 20
273.4726414712877
 30
0.0
 10
278.0149975588768
 20
273.4010617763138
 30
0.0
 10
278.0494691402961
 20
273.3535796865324
 30
0.0
 10
278.0669761217866
 20
273.3299413960408
 30
0.0
 10
278.1555925385057
 20
273.21262675922
 30
0.0
 10
278.2300133705163
 20
273.1214704697129
 30
0.0
 10
278.4635827297097
 20
272.8556317138305
 30
0.0
 10
278.6330044434308
 20
272.688559197952
 30
0.0
 10
278.9986772754975
 20
272.3728594062824
 30
0.0
 10
279.1949293728553
 20
272.2242366154718
 30
0.0
 10
279.4048419452957
 20
272.0842102515007
 30
0.0
  0
SPLINE
  5
1A2
330
1F
100
AcDbEntity
  8
1
100
AcDbSpline
210
0.0
220
0.0
230
1.0
 70
     8
 71
     3
 72
    60
 73
    56
 74
     0
 42
0.000000001
 43
0.0000000001
 40
0.0
 40
0.0
 40
0.0
 40
0.0
 40
0.0625000000000004
 40
0.0625000000000004
 40
0.1250000000000009
 40
0.1250000000000009
 40
0.1875000000000013
 40
0.1875000000000013
 40
0.2187500000000014
 40
0.2187500000000014
 40
0.2500000000000014
 40
0.2500000000000014
 40
0.3125000000000014
 40
0.3125000000000014
 40
0.3750000000000012
 40
0.3750000000000012
 40
0.4062500000000011
 40
0.4062500000000011
 40
0.4218750000000009
 40
0.4218750000000009
 40
0.4375000000000008
 40
0.4375000000000008
 40
0.4531250000000007
 40
0.4531250000000007
 40
0.4687500000000007
 40
0.4687500000000007
 40
0.5000000000000005
 40
0.5000000000000005
 40
0.53125
 40
0.53125
 40
0.5624999999999996
 40
0.5624999999999996
 40
0.5937499999999992
 40
0.5937499999999992
 40
0.6249999999999987
 40
0.6249999999999987
 40
0.6562499999999983
 40
0.6562499999999983
 40
0.6718749999999983
 40
0.6718749999999983
 40
0.6874999999999983
 40
0.6874999999999983
 40
0.7499999999999988
 40
0.7499999999999988
 40
0.8124999999999994
 40
0.8124999999999994
 40
0.8437499999999996
 40
0.8437499999999996
 40
0.8749999999999996
 40
0.9062499999999998
 40
0.9375
 40
0.9375
 40
0.96875
 40
0.96875
 40
1.0
 40
1.0
 40
1.0
 40
1.0
 10
297.9048419452959
 20
284.0418296965184
 30
0.0
 10
299.5214181722198
 20
283.7339940999198
 30
0.0
 10
301.1363316806789
 20
283.4235769606112
 30
0.0
 10
304.3627150655498
 20
282.7982642676539
 30
0.0
 10
305.9741834304962
 20
282.4833597894468
 30
0.0
 10
309.1935336905442
 20
281.8498957852894
 30
0.0
 10
310.8014124114061
 20
281.5313214303824
 30
0.0
 10
313.210467067837
 20
281.0517122052127
 30
0.0
 10
314.0130253731578
 20
280.8915565579383
 30
0.0
 10
315.6172244458094
 20
280.5709310411977
 30
0.0
 10
316.4186623394434
 20
280.4105010921677
 30
0.0
 10
318.820376562019
 20
279.9294988099786
 30
0.0
 10
320.4182842856215
 20
279.6091065261125
 30
0.0
 10
323.6077881112187
 20
278.9728879195243
 30
0.0
 10
325.199376636626
 20
278.6570534338612
 30
0.0
 10
327.5825710468885
 20
278.1911955272688
 30
0.0
 10
328.3762764322958
 20
278.0372415030087
 30
0.0
 10
329.5659184020914
 20
277.8090104014657
 30
0.0
 10
329.9623134417349
 20
277.7333843114055
 30
0.0
 10
330.7548244188512
 20
277.5831618027492
 30
0.0
 10
331.1509331484678
 20
277.5085483963116
 30
0.0
 10
331.9430040243187
 20
277.3607378232912
 30
0.0
 10
332.3389869745081
 20
277.2875412335647
 30
0.0
 10
333.1306884181574
 20
277.1430053170262
 30
0.0
 10
333.5264374095357
 20
277.0716601512328
 30
0.0
 10
334.7135847384162
 20
276.8608751306853
 30
0.0
 10
335.504888758711
 20
276.7247127055904
 30
0.0
 10
337.0882142753938
 20
276.4629964055151
 30
0.0
 10
337.8802355245034
 20
276.3374373836571
 30
0.0
 10
339.4658005614894
 20
276.0980059316991
 30
0.0
 10
340.2593435981357
 20
275.9841280590313
 30
0.0
 10
341.8486090668448
 20
275.7685076499718
 30
0.0
 10
342.6443053497898
 20
275.6666959766178
 30
0.0
 10
344.237522378149
 20
275.4737784828712
 30
0.0
 10
345.0350438446379
 20
275.3826769476766
 30
0.0
 10
346.6317196531575
 20
275.2102674845056
 30
0.0
 10
347.4308747589188
 20
275.1289630091782
 30
0.0
 10
348.630753701886
 20
275.0138566474157
 30
0.0
 10
349.0309448471546
 20
274.9766277156634
 30
0.0
 10
349.8314681956271
 20
274.9044106049029
 30
0.0
 10
350.2317988879282
 20
274.8694223234841
 30
0.0
 10
352.2338029950956
 20
274.6999238541494
 30
0.0
 10
353.8365108766927
 20
274.581704455604
 30
0.0
 10
357.0445881911705
 20
274.3767743070188
 30
0.0
 10
358.6499581717782
 20
274.2900919005966
 30
0.0
 10
361.0606532737957
 20
274.1816194158977
 30
0.0
 10
361.8646737362728
 20
274.1490637015983
 30
0.0
 10
363.4736930368533
 20
274.0907216461589
 30
0.0
 10
365.0836440281573
 20
274.0390999170792
 30
0.0
 10
367.5007401642176
 20
273.9801940689122
 30
0.0
 10
369.1130937736472
 20
273.952473816323
 30
0.0
 10
370.7256448492576
 20
273.9302936525394
 30
0.0
 10
371.5320189289081
 20
273.9219727607171
 30
0.0
 10
373.1446522420037
 20
273.9108231555292
 30
0.0
 10
373.9509111991632
 20
273.9079935137005
 30
0.0
 10
374.7569443365949
 20
273.9079935137005
 30
0.0
  0
SPLINE
  5
1A3
330
1F
100
AcDbEntity
  8
1
100
AcDbSpline
210
0.0
220
0.0
230
1.0
 70
     8
 71
     3
 72
    70
 73
    66
 74
     0
 42
0.000000001
 43
0.0000000001
 40
0.0
 40
0.0
 40
0.0
 40
0.0
 40
0.0199761532019287
 40
0.0199761532019287
 40
0.0853110763218003
 40
0.0853110763218003
 40
0.117978537881736
 40
0.117978537881736
 40
0.1506459994416716
 40
0.1506459994416716
 40
0.1833134610016073
 40
0.1833134610016073
 40
0.2159809225615429
 40
0.2159809225615429
 40
0.2486483841214786
 40
0.2486483841214786
 40
0.2813158456814143
 40
0.2813158456814143
 40
0.31398330724135
 40
0.31398330724135
 40
0.3466507688012857
 40
0.3466507688012857
 40
0.3793182303612214
 40
0.3793182303612214
 40
0.3956519611411892
 40
0.3956519611411892
 40
0.4119856919211572
 40
0.4119856919211572
 40
0.4446531534810927
 40
0.4446531534810927
 40
0.4773206150410285
 40
0.4773206150410285
 40
0.5099880766009642
 40
0.5099880766009642
 40
0.5426555381608998
 40
0.5426555381608998
 40
0.5753229997208355
 40
0.5753229997208355
 40
0.6079904612807712
 40
0.6079904612807712
 40
0.6406579228407069
 40
0.6406579228407069
 40
0.6733253844006426
 40
0.6733253844006426
 40
0.7059928459605782
 40
0.7059928459605782
 40
0.7386603075205139
 40
0.7386603075205139
 40
0.7713277690804496
 40
0.7713277690804496
 40
0.8039952306403852
 40
0.8039952306403852
 40
0.8366626922003209
 40
0.8366626922003209
 40
0.8693301537602566
 40
0.8693301537602566
 40
0.9019976153201923
 40
0.9019976153201923
 40
0.9346650768801278
 40
0.9346650768801278
 40
0.9673325384400635
 40
0.9673325384400635
 40
0.983666269220032
 40
0.983666269220032
 40
1.0
 40
1.0
 40
1.0
 40
1.0
 10
301.252681170912
 20
303.9079949491667
 30
0.0
 10
301.7435405425701
 20
303.908040711405
 30
0.0
 10
302.2341325623796
 20
303.90713768059
 30
0.0
 10
304.3281357795263
 20
303.8989299740336
 30
0.0
 10
305.9289489113918
 20
303.8817242032016
 30
0.0
 10
308.3262415641527
 20
303.8356356431808
 30
0.0
 10
309.1246890418066
 20
303.8168923080401
 30
0.0
 10
310.7204052356061
 20
303.7720312376683
 30
0.0
 10
311.5177584675455
 20
303.7459085863261
 30
0.0
 10
313.1108742980292
 20
303.6857667010404
 30
0.0
 10
313.9066640728797
 20
303.6517462223605
 30
0.0
 10
315.4969302502118
 20
303.5753915075588
 30
0.0
 10
316.2914067516168
 20
303.5330559393259
 30
0.0
 10
317.8793251620529
 20
303.4398079781113
 30
0.0
 10
318.6727673239473
 20
303.3888944738312
 30
0.0
 10
320.2589465598578
 20
303.2784192940872
 30
0.0
 10
321.0516840404884
 20
303.2188569055537
 30
0.0
 10
322.6368242290708
 20
303.0912323822948
 30
0.0
 10
323.4292274748491
 20
303.0231700843443
 30
0.0
 10
325.0140960421962
 20
302.8789276318823
 30
0.0
 10
325.8065013801326
 20
302.8027527887326
 30
0.0
 10
327.3912063256044
 20
302.6429591162895
 30
0.0
 10
328.1835727114038
 20
302.5593355387083
 30
0.0
 10
329.3724534242343
 20
302.4289259880329
 30
0.0
 10
329.7688021212558
 20
302.3846285593419
 30
0.0
 10
330.5616599034796
 20
302.2944966165273
 30
0.0
 10
330.9581775668889
 20
302.248678131465
 30
0.0
 10
332.1479417989619
 20
302.1089188351595
 30
0.0
 10
332.9413743573596
 20
302.0126369502834
 30
0.0
 10
334.5283490266807
 20
301.8132062906153
 30
0.0
 10
335.321891709988
 20
301.7100540342317
 30
0.0
 10
336.9088830318759
 20
301.4964121142622
 30
0.0
 10
337.7023890805514
 20
301.3859128640665
 30
0.0
 10
339.2890131594534
 20
301.1574082444614
 30
0.0
 10
340.0820434800264
 20
301.0394173223261
 30
0.0
 10
341.6676280598288
 20
300.7960350877694
 30
0.0
 10
342.4601821329178
 20
300.670636325909
 30
0.0
 10
344.0452494820287
 20
300.4134170687554
 30
0.0
 10
344.8377623753127
 20
300.2815984554293
 30
0.0
 10
346.423043573289
 20
300.0123396829224
 30
0.0
 10
347.2158109345187
 20
299.8748993175245
 30
0.0
 10
348.8017843793823
 20
299.5949875954361
 30
0.0
 10
349.5949897719337
 20
299.4525160762486
 30
0.0
 10
351.1819358618186
 20
299.1629332835878
 30
0.0
 10
351.9757140193607
 20
299.0158146148294
 30
0.0
 10
353.5632706365768
 20
298.7172382291802
 30
0.0
 10
354.357114598767
 20
298.5657692458141
 30
0.0
 10
355.9449071867179
 20
298.2584614300103
 30
0.0
 10
356.7388558387877
 20
298.1026235711038
 30
0.0
 10
358.3267714294794
 20
297.7863425493554
 30
0.0
 10
359.1207385334329
 20
297.6259008875384
 30
0.0
 10
360.7085421871158
 20
297.2999116082231
 30
0.0
 10
361.5023805278013
 20
297.1343711767552
 30
0.0
 10
363.0897023035222
 20
296.7973437865122
 30
0.0
 10
363.8831585245987
 20
296.6257674418832
 30
0.0
 10
365.4692963863537
 20
296.2750157012449
 30
0.0
 10
366.261798440801
 20
296.0958677696882
 30
0.0
 10
367.8454812529321
 20
295.7295986096815
 30
0.0
 10
368.6366774353394
 20
295.5424562394495
 30
0.0
 10
370.21813191988
 20
295.1611273794238
 30
0.0
 10
371.0083860560266
 20
294.9669203805262
 30
0.0
 10
372.1937284009877
 20
294.6725196481255
 30
0.0
 10
372.5888406704956
 20
294.5738885390958
 30
0.0
 10
373.379233940445
 20
294.3762390743879
 30
0.0
 10
373.7745349443007
 20
294.2772150333354
 30
0.0
 10
374.1699702436148
 20
294.1784073749188
 30
0.0
  0
SPLINE
  5
1A4
330
1F
100
AcDbEntity
  8
1
100
AcDbSpline
210
0.0
220
0.0
230
1.0
 70
     8
 71
     3
 72
    44
 73
    40
 74
     0
 42
0.000000001
 43
0.0000000001
 40
0.0
 40
0.0
 40
0.0
 40
0.0
 40
0.060253668224806
 40
0.060253668224806
 40
0.1205073364496121
 40
0.1205073364496121
 40
0.1807610046744181
 40
0.1807610046744181
 40
0.2410146728992241
 40
0.2410146728992241
 40
0.3012683411240302
 40
0.3012683411240302
 40
0.3313951752364332
 40
0.3313951752364332
 40
0.3615220093488362
 40
0.3615220093488362
 40
0.4217756775736414
 40
0.4217756775736414
 40
0.4519025116860438
 40
0.4519025116860438
 40
0.4820293457984464
 40
0.4820293457984464
 40
0.6025366822480576
 40
0.6025366822480576
 40
0.6627903504728626
 40
0.6627903504728626
 40
0.7230440186976677
 40
0.7230440186976677
 40
0.7832976869224728
 40
0.7832976869224728
 40
0.8435513551472777
 40
0.8435513551472777
 40
0.9038050233720827
 40
0.9038050233720827
 40
0.9339318574844856
 40
0.9339318574844856
 40
0.964058691596888
 40
0.964058691596888
 40
1.0
 40
1.0
 40
1.0
 40
1.0
 10
380.2841049537686
 20
303.8193639324136
 30
0.0
 10
379.4643268044875
 20
303.8548811147102
 30
0.0
 10
378.6400654397278
 20
303.8781263835253
 30
0.0
 10
376.981995313854
 20
303.9056337145474
 30
0.0
 10
376.1481893413095
 20
303.9099133621473
 30
0.0
 10
374.4711863828143
 20
303.9045736155103
 30
0.0
 10
373.6279922976178
 20
303.8949652968554
 30
0.0
 10
371.9330165025596
 20
303.8659816956856
 30
0.0
 10
371.0812379338262
 20
303.8466121853041
 30
0.0
 10
369.3704533495047
 20
303.8010382118984
 30
0.0
 10
368.5114507651443
 20
303.7748355594334
 30
0.0
 10
367.218890199269
 20
303.7316232022701
 30
0.0
 10
366.787320316129
 20
303.7165555690384
 30
0.0
 10
365.9236993399152
 20
303.6851983724225
 30
0.0
 10
365.4915710030909
 20
303.6689063193663
 30
0.0
 10
364.194506616789
 20
303.61818526472
 30
0.0
 10
363.3288861561061
 20
303.5819511531669
 30
0.0
 10
362.0302938503169
 20
303.523225001583
 30
0.0
 10
361.5974188870023
 20
303.5028930190689
 30
0.0
 10
360.7317108811721
 20
303.4606473448314
 30
0.0
 10
360.2988710772484
 20
303.4387406557619
 30
0.0
 10
358.1347870843647
 20
303.325217874627
 30
0.0
 10
356.4039030859607
 20
303.2216827155389
 30
0.0
 10
353.808897267185
 20
303.0452392006102
 30
0.0
 10
352.9441118541162
 20
302.9828919047465
 30
0.0
 10
351.2150519727721
 20
302.8507085962392
 30
0.0
 10
350.3507360356195
 20
302.7808693678223
 30
0.0
 10
348.6232309966861
 20
302.63328269559
 30
0.0
 10
347.7599790605809
 20
302.5555338127018
 30
0.0
 10
346.0345726678788
 20
302.391565607005
 30
0.0
 10
345.1724162082545
 20
302.3053518264126
 30
0.0
 10
343.4493584798308
 20
302.1236787690303
 30
0.0
 10
342.5884547730394
 20
302.0282281186918
 30
0.0
 10
341.2982576133327
 20
301.877212254112
 30
0.0
 10
340.8683913693719
 20
301.8255513247973
 30
0.0
 10
340.009073457929
 20
301.7194549351962
 30
0.0
 10
339.5796162803102
 20
301.6650310156703
 30
0.0
 10
338.6382240784966
 20
301.5426361848365
 30
0.0
 10
338.1263692418798
 20
301.4740726934917
 30
0.0
 10
337.6147458978169
 20
301.4035340781396
 30
0.0
  0
SPLINE
  5
1A5
330
1F
100
AcDbEntity
  8
1
100
AcDbSpline
210
0.0
220
0.0
230
1.0
 70
     8
 71
     3
 72
    37
 73
    33
 74
     0
 42
0.000000001
 43
0.0000000001
 40
0.0
 40
0.0
 40
0.0
 40
0.0
 40
0.0624999999999999
 40
0.0624999999999999
 40
0.1249999999999998
 40
0.1249999999999998
 40
0.1874999999999997
 40
0.1874999999999997
 40
0.2499999999999996
 40
0.2499999999999996
 40
0.2812499999999995
 40
0.2812499999999995
 40
0.2968749999999993
 40
0.2968749999999993
 40
0.3124999999999991
 40
0.3749999999999991
 40
0.3749999999999991
 40
0.437499999999999
 40
0.437499999999999
 40
0.499999999999999
 40
0.499999999999999
 40
0.6249999999999991
 40
0.6249999999999991
 40
0.7499999999999992
 40
0.7499999999999992
 40
0.7812499999999992
 40
0.7812499999999992
 40
0.8124999999999994
 40
0.8124999999999994
 40
0.8749999999999998
 40
0.8749999999999998
 40
1.0
 40
1.0
 40
1.0
 40
1.0
 10
291.2038318185191
 20
274.0567758321312
 30
0.0
 10
290.9460774132138
 20
274.0675518131314
 30
0.0
 10
290.6920093299736
 20
274.0728636803373
 30
0.0
 10
290.1903835219633
 20
274.074005859871
 30
0.0
 10
289.9428275763615
 20
274.0698342394397
 30
0.0
 10
289.4535738688325
 20
274.0532003552147
 30
0.0
 10
289.2118772838775
 20
274.0407365571622
 30
0.0
 10
288.7338517277711
 20
274.0085097214329
 30
0.0
 10
288.4975235725731
 20
273.9887453921406
 30
0.0
 10
288.1467885291316
 20
273.9542497948177
 30
0.0
 10
288.0305040095433
 20
273.9419419654506
 30
0.0
 10
287.8569923329316
 20
273.9223357568237
 30
0.0
 10
287.7992748017923
 20
273.9156054888868
 30
0.0
 10
287.6843707886772
 20
273.901802340813
 30
0.0
 10
287.3983766691503
 20
273.8664307237566
 30
0.0
 10
287.1185487623125
 20
273.8269267665025
 30
0.0
 10
286.678129639548
 20
273.7592136684224
 30
0.0
 10
286.4615744629577
 20
273.7231022573745
 30
0.0
 10
286.0353625605622
 20
273.6470383224396
 30
0.0
 10
285.825707003809
 20
273.6070847056363
 30
0.0
 10
285.2066781707634
 20
273.4823488774751
 30
0.0
 10
284.8072042744984
 20
273.3927011144746
 30
0.0
 10
284.0336502441814
 20
273.2046934983542
 30
0.0
 10
283.6595847937606
 20
273.1063149291046
 30
0.0
 10
283.2079216536437
 20
272.9804812674691
 30
0.0
 10
283.1183870520096
 20
272.9551720292118
 30
0.0
 10
282.9409224883148
 20
272.90433689007
 30
0.0
 10
282.8529447219115
 20
272.8787968747541
 30
0.0
 10
282.5917823632126
 20
272.802059956195
 30
0.0
 10
282.4215912644232
 20
272.7508128168853
 30
0.0
 10
281.9227115093511
 20
272.5977020690144
 30
0.0
 10
281.605700116234
 20
272.4964374266979
 30
0.0
 10
281.3043368819074
 20
272.3986468909698
 30
0.0
  0
SPLINE
  5
1A6
330
1F
100
AcDbEntity
  8
1
100
AcDbSpline
210
0.0
220
0.0
230
1.0
 70
     8
 71
     3
 72
    18
 73
    14
 74
     0
 42
0.000000001
 43
0.0000000001
 40
0.0
 40
0.0
 40
0.0
 40
0.0
 40
0.1766472291065611
 40
0.1766472291065611
 40
0.3532944582131221
 40
0.3532944582131221
 40
0.529941687319683
 40
0.529941687319683
 40
0.7065889164262443
 40
0.7065889164262443
 40
0.8832361455328053
 40
0.8832361455328053
 40
1.0
 40
1.0
 40
1.0
 40
1.0
 10
319.0000271137155
 20
275.7628185163804
 30
0.0
 10
319.5677448281971
 20
275.9068898704345
 30
0.0
 10
320.1369481522519
 20
276.0501809006181
 30
0.0
 10
321.2787783252259
 20
276.3321061846133
 30
0.0
 10
321.8514032739213
 20
276.4707354881813
 30
0.0
 10
323.0001320246517
 20
276.7414258147181
 30
0.0
 10
323.5762326378797
 20
276.8734893088765
 30
0.0
 10
324.7316504411463
 20
277.1303804063527
 30
0.0
 10
325.3109640786977
 20
277.2552157786643
 30
0.0
 10
326.4723327057561
 20
277.4980637799389
 30
0.0
 10
327.0543845189106
 20
277.6160865562334
 30
0.0
 10
328.0229638530755
 20
277.8074640552826
 30
0.0
 10
328.4088831247865
 20
277.8824023021892
 30
0.0
 10
328.795185231769
 20
277.9563626520533
 30
0.0
  0
SPLINE
  5
1A7
330
1F
100
AcDbEntity
  8
1
100
AcDbSpline
210
0.0
220
0.0
230
1.0
 70
    12
 71
     3
 72
     9
 73
     5
 74
     0
 42
0.000000001
 43
0.0000000001
 40
0.0
 40
0.0
 40
0.0
 40
0.0
 40
0.8465577813789783
 40
1.0
 40
1.0
 40
1.0
 40
1.0
 10
319.0000271137154
 20
275.7628185163804
 30
0.0
 41
1.004132339439572
 10
322.7867799767879
 20
276.137489727961
 30
0.0
 41
1.002951431593969
 10
327.1837467047122
 20
276.5855074209946
 30
0.0
 41
1.001268305643097
 10
331.6437016967051
 20
277.1909866589644
 30
0.0
 41
1.000997262689787
 10
332.3292051069402
 20
277.2886804061804
 30
0.0
 41
1.00098050418612
  0
SPLINE
  5
1A8
330
1F
100
AcDbEntity
  8
1
100
AcDbSpline
210
0.0
220
0.0
230
1.0
 70
     8
 71
     3
 72
     8
 73
     4
 74
     0
 42
0.000000001
 43
0.0000000001
 40
0.0
 40
0.0
 40
0.0
 40
0.0
 40
1.0
 40
1.0
 40
1.0
 40
1.0
 10
383.4945316525058
 20
292.8564974673085
 30
0.0
 10
383.2901458144872
 20
292.853221459257
 30
0.0
 10
383.0852466527643
 20
292.8532289320829
 30
0.0
 10
382.8798419462208
 20
292.8566248193053
 30
0.0
  0
SPLINE
  5
1A9
330
1F
100
AcDbEntity
  8
1
100
AcDbSpline
210
0.0
220
0.0
230
1.0
 70
     8
 71
     3
 72
    53
 73
    49
 74
     0
 42
0.000000001
 43
0.0000000001
 40
0.0
 40
0.0
 40
0.0
 40
0.0
 40
0.0312499999999999
 40
0.0312499999999999
 40
0.0624999999999998
 40
0.0624999999999998
 40
0.1249999999999997
 40
0.1249999999999997
 40
0.1874999999999996
 40
0.1874999999999996
 40
0.2187499999999995
 40
0.2187499999999995
 40
0.2499999999999994
 40
0.2812499999999993
 40
0.2812499999999993
 40
0.3124999999999992
 40
0.3124999999999992
 40
0.374999999999998
 40
0.374999999999998
 40
0.4062499999999975
 40
0.4062499999999975
 40
0.4374999999999969
 40
0.4374999999999969
 40
0.4999999999999958
 40
0.4999999999999958
 40
0.5624999999999946
 40
0.5624999999999946
 40
0.5937499999999947
 40
0.5937499999999947
 40
0.6249999999999948
 40
0.6562499999999951
 40
0.6562499999999951
 40
0.6874999999999952
 40
0.6874999999999952
 40
0.7499999999999943
 40
0.7499999999999943
 40
0.7812499999999947
 40
0.7812499999999947
 40
0.812499999999995
 40
0.8437499999999955
 40
0.8437499999999955
 40
0.874999999999996
 40
0.874999999999996
 40
0.9374999999999975
 40
0.9374999999999975
 40
0.9687499999999987
 40
0.9687499999999987
 40
1.0
 40
1.0
 40
1.0
 40
1.0
 10
389.5960691418963
 20
284.1454935137132
 30
0.0
 10
389.5962316160272
 20
284.1156255641932
 30
0.0
 10
389.5965831103006
 20
284.0864119318911
 30
0.0
 10
389.5976663362611
 20
284.0293009073637
 30
0.0
 10
389.5983973414524
 20
284.0014673380334
 30
0.0
 10
389.6011460822785
 20
283.9204134585655
 30
0.0
 10
389.6037199522908
 20
283.869506646132
 30
0.0
 10
389.6103574243557
 20
283.7739806950842
 30
0.0
 10
389.6143909933825
 20
283.7297959057495
 30
0.0
 10
389.6215000515014
 20
283.66884137199
 30
0.0
 10
389.624049392895
 20
283.6493934685556
 30
0.0
 10
389.629492973928
 20
283.6123714875831
 30
0.0
 10
389.6352677487147
 20
283.5773075408428
 30
0.0
 10
389.6416990883153
 20
283.5461252385113
 30
0.0
 10
389.6484590104234
 20
283.5168855325911
 30
0.0
 10
389.6520089655226
 20
283.5032185797161
 30
0.0
 10
389.6631108798207
 20
283.4653136781739
 30
0.0
 10
389.6711025966467
 20
283.4441757359714
 30
0.0
 10
389.6839712022618
 20
283.4186344055198
 30
0.0
 10
389.6884134411212
 20
283.4111437592922
 30
0.0
 10
389.6975650962908
 20
283.3982875629732
 30
0.0
 10
389.7022728451484
 20
283.3929206294582
 30
0.0
 10
389.7167919559931
 20
283.3800041308814
 30
0.0
 10
389.7269862516544
 20
283.3756620644369
 30
0.0
 10
389.7482533909098
 20
283.3755699879712
 30
0.0
 10
389.759290608916
 20
283.3797990816039
 30
0.0
 10
389.7764499777355
 20
283.3925349707579
 30
0.0
 10
389.782279838235
 20
283.3978589838171
 30
0.0
 10
389.7940922537937
 20
283.4106120206321
 30
0.0
 10
389.806052355607
 20
283.4254570930287
 30
0.0
 10
389.8183062532666
 20
283.4444639025236
 30
0.0
 10
389.8307076949091
 20
283.4655607322702
 30
0.0
 10
389.8369922059826
 20
283.4771751917303
 30
0.0
 10
389.855975630654
 20
283.5150033143761
 30
0.0
 10
389.8688085520508
 20
283.544185418124
 30
0.0
 10
389.8883241867049
 20
283.5939102039731
 30
0.0
 10
389.8948835106316
 20
283.6115081275488
 30
0.0
 10
389.9080194024379
 20
283.6485112483873
 30
0.0
 10
389.9211825345606
 20
283.6873416696849
 30
0.0
 10
389.9343999644987
 20
283.7298144283828
 30
0.0
 10
389.9476447189622
 20
283.774120136348
 30
0.0
 10
389.9542881783176
 20
283.7972184419048
 30
0.0
 10
389.9741398220993
 20
283.8688601841629
 30
0.0
 10
389.9873030691269
 20
283.9198471832767
 30
0.0
 10
390.0069406321077
 20
284.0011906527132
 30
0.0
 10
390.0134712912529
 20
284.0291329767298
 30
0.0
 10
390.0264137789761
 20
284.0862941214034
 30
0.0
 10
390.0328359281013
 20
284.1155544587266
 30
0.0
 10
390.0392090581321
 20
284.1454935137006
 30
0.0
  0
SPLINE
  5
1AA
330
1F
100
AcDbEntity
  8
1
100
AcDbSpline
210
0.0
220
0.0
230
1.0
 70
     8
 71
     3
 72
   122
 73
   118
 74
     0
 42
0.000000001
 43
0.0000000001
 40
0.0
 40
0.0
 40
0.0
 40
0.0
 40
0.0156249999999988
 40
0.0156249999999988
 40
0.0312499999999976
 40
0.0468749999999964
 40
0.0468749999999964
 40
0.054687499999996
 40
0.054687499999996
 40
0.0624999999999955
 40
0.0781249999999947
 40
0.0781249999999947
 40
0.0937499999999938
 40
0.0937499999999938
 40
0.1093749999999929
 40
0.1093749999999929
 40
0.1249999999999919
 40
0.1249999999999919
 40
0.1562499999999898
 40
0.1562499999999898
 40
0.1718749999999888
 40
0.1718749999999888
 40
0.1874999999999877
 40
0.1874999999999877
 40
0.2031249999999867
 40
0.2031249999999867
 40
0.2187499999999856
 40
0.2187499999999856
 40
0.2343749999999846
 40
0.2343749999999846
 40
0.2499999999999835
 40
0.2656249999999825
 40
0.2656249999999825
 40
0.2812499999999813
 40
0.2812499999999813
 40
0.2968749999999803
 40
0.2968749999999803
 40
0.3124999999999792
 40
0.3124999999999792
 40
0.3281249999999781
 40
0.3281249999999781
 40
0.3437499999999771
 40
0.3437499999999771
 40
0.3749999999999744
 40
0.3749999999999744
 40
0.3906249999999733
 40
0.3906249999999733
 40
0.4062499999999722
 40
0.4062499999999722
 40
0.4218749999999713
 40
0.4218749999999713
 40
0.4374999999999701
 40
0.4374999999999701
 40
0.4453124999999696
 40
0.4453124999999696
 40
0.453124999999969
 40
0.453124999999969
 40
0.4687499999999677
 40
0.4687499999999677
 40
0.4999999999999661
 40
0.4999999999999661
 40
0.5156249999999652
 40
0.5156249999999652
 40
0.5234374999999649
 40
0.5234374999999649
 40
0.5312499999999645
 40
0.5312499999999645
 40
0.5624999999999658
 40
0.5624999999999658
 40
0.5781249999999665
 40
0.5781249999999665
 40
0.5937499999999672
 40
0.5937499999999672
 40
0.6093749999999679
 40
0.6093749999999679
 40
0.6249999999999686
 40
0.6249999999999686
 40
0.632812499999969
 40
0.632812499999969
 40
0.6406249999999694
 40
0.6406249999999694
 40
0.6562499999999706
 40
0.671874999999972
 40
0.671874999999972
 40
0.6874999999999732
 40
0.6874999999999732
 40
0.7031249999999744
 40
0.7031249999999744
 40
0.7187499999999757
 40
0.7187499999999757
 40
0.7343749999999769
 40
0.7343749999999769
 40
0.7499999999999782
 40
0.7499999999999782
 40
0.7812499999999809
 40
0.7812499999999809
 40
0.7968749999999825
 40
0.7968749999999825
 40
0.8124999999999838
 40
0.8124999999999838
 40
0.828124999999985
 40
0.828124999999985
 40
0.8437499999999864
 40
0.8437499999999864
 40
0.8593749999999879
 40
0.8593749999999879
 40
0.8749999999999891
 40
0.8906249999999907
 40
0.8906249999999907
 40
0.9062499999999921
 40
0.9062499999999921
 40
0.9218749999999932
 40
0.9218749999999932
 40
0.9374999999999948
 40
0.9374999999999948
 40
0.9687499999999971
 40
1.0
 40
1.0
 40
1.0
 40
1.0
 10
390.0392090581321
 20
284.1454935137006
 30
0.0
 10
390.0431334098761
 20
284.1824995182665
 30
0.0
 10
390.0468817046309
 20
284.2205806162348
 30
0.0
 10
390.0539950834627
 20
284.2986220780502
 30
0.0
 10
390.0607024455795
 20
284.3782773456075
 30
0.0
 10
390.0666047726982
 20
284.4611324077903
 30
0.0
 10
390.0707277780993
 20
284.5244809878656
 30
0.0
 10
390.0720519548154
 20
284.5458092906863
 30
0.0
 10
390.0745886481606
 20
284.5887042648224
 30
0.0
 10
390.0782300246024
 20
284.6534616649207
 30
0.0
 10
390.0813837668363
 20
284.7194553718622
 30
0.0
 10
390.085155265951
 20
284.8085460166262
 30
0.0
 10
390.0868262239958
 20
284.8537200453322
 30
0.0
 10
390.0897099127508
 20
284.9445386139503
 30
0.0
 10
390.0909256011538
 20
284.9902331067411
 30
0.0
 10
390.0929071626831
 20
285.0821893606972
 30
0.0
 10
390.0936736081363
 20
285.1285035737525
 30
0.0
 10
390.0952881991359
 20
285.2679566045471
 30
0.0
 10
390.095449990034
 20
285.3609856670999
 30
0.0
 10
390.0943307495547
 20
285.5006191653014
 30
0.0
 10
390.0937295550351
 20
285.5471049268142
 30
0.0
 10
390.0920818165015
 20
285.6394208204665
 30
0.0
 10
390.0910347574419
 20
285.6853294054967
 30
0.0
 10
390.0884949033425
 20
285.7766485710418
 30
0.0
 10
390.0869987679887
 20
285.8221330041071
 30
0.0
 10
390.0835800233372
 20
285.911992595596
 30
0.0
 10
390.0816567682105
 20
285.9564190520513
 30
0.0
 10
390.0773851314688
 20
286.0442714971188
 30
0.0
 10
390.0750339818018
 20
286.0877432537868
 30
0.0
 10
390.0699152364008
 20
286.1734755937943
 30
0.0
 10
390.0643974543338
 20
286.257723902347
 30
0.0
 10
390.0580900063924
 20
286.3390354156197
 30
0.0
 10
390.0513861913327
 20
286.4188728255797
 30
0.0
 10
390.0478404117088
 20
286.4579915770625
 30
0.0
 10
390.0404036377947
 20
286.5342039315878
 30
0.0
 10
390.0365073059832
 20
286.5713626154139
 30
0.0
 10
390.0283588533052
 20
286.6437855321402
 30
0.0
 10
390.0240992790626
 20
286.6791023514338
 30
0.0
 10
390.0152783628152
 20
286.7473780357796
 30
0.0
 10
390.0107132824303
 20
286.7803784508831
 30
0.0
 10
390.0012751739224
 20
286.8441139663097
 30
0.0
 10
389.9963968965114
 20
286.8748796853094
 30
0.0
 10
389.9813302374594
 20
286.9635411799262
 30
0.0
 10
389.9707760830711
 20
287.0174602068443
 30
0.0
 10
389.9541815640928
 20
287.0905688749865
 30
0.0
 10
389.9485301341352
 20
287.1135977987778
 30
0.0
 10
389.9370508680087
 20
287.1567331644229
 30
0.0
 10
389.9312142644768
 20
287.1768791516863
 30
0.0
 10
389.9193466244993
 20
287.2143205221489
 30
0.0
 10
389.9133056189962
 20
287.2316380102394
 30
0.0
 10
389.9011062071377
 20
287.2631809486759
 30
0.0
 10
389.8949418318865
 20
287.2774309376243
 30
0.0
 10
389.8855983962765
 20
287.2965267885626
 30
0.0
 10
389.882467757844
 20
287.3025118770581
 30
0.0
 10
389.8761740084308
 20
287.3137180698297
 30
0.0
 10
389.87300686499
 20
287.3189451257861
 30
0.0
 10
389.8634869698201
 20
287.3334252090624
 30
0.0
 10
389.8571282642561
 20
287.3414645681588
 30
0.0
 10
389.8380166303473
 20
287.3608484092609
 30
0.0
 10
389.825228348371
 20
287.3674804599638
 30
0.0
 10
389.8059752829396
 20
287.3680123104346
 30
0.0
 10
389.7995457797256
 20
287.3666147589475
 30
0.0
 10
389.789883437682
 20
287.3621075112694
 30
0.0
 10
389.786659639714
 20
287.3602029087829
 30
0.0
 10
389.7802059134455
 20
287.3555765665016
 30
0.0
 10
389.7769772212646
 20
287.3528542456549
 30
0.0
 10
389.7609109914183
 20
287.3372674470097
 30
0.0
 10
389.7482308971907
 20
287.318458521341
 30
0.0
 10
389.7294728641835
 20
287.2806341912991
 30
0.0
 10
389.7232926794546
 20
287.2664740083931
 30
0.0
 10
389.7111000401813
 20
287.2351216469404
 30
0.0
 10
389.7050837066123
 20
287.2179217085317
 30
0.0
 10
389.693212094263
 20
287.1804536914861
 30
0.0
 10
389.6873517591147
 20
287.1601593701218
 30
0.0
 10
389.6758828325839
 20
287.1167946016336
 30
0.0
 10
389.6702632663934
 20
287.0936933063926
 30
0.0
 10
389.6620064275842
 20
287.0569109610654
 30
0.0
 10
389.6592829259374
 20
287.0442947885308
 30
0.0
 10
389.6538938247459
 20
287.0183473867086
 30
0.0
 10
389.6512259397133
 20
287.0050037013935
 30
0.0
 10
389.6433373900486
 20
286.9640354598611
 30
0.0
 10
389.633113906198
 20
286.9068634213676
 30
0.0
 10
389.6234766789524
 20
286.8446211011758
 30
0.0
 10
389.6141354647292
 20
286.7798186914318
 30
0.0
 10
389.6096288224746
 20
286.7462423258689
 30
0.0
 10
389.600975152154
 20
286.6770070310553
 30
0.0
 10
389.596822611258
 20
286.6413102179638
 30
0.0
 10
389.5888674612261
 20
286.5677499436202
 30
0.0
 10
389.5850612022403
 20
286.5298368071427
 30
0.0
 10
389.577858041631
 20
286.4524132705239
 30
0.0
 10
389.5744538281069
 20
286.4128418558713
 30
0.0
 10
389.5680392916709
 20
286.3319834054063
 30
0.0
 10
389.5650242666503
 20
286.2906239200141
 30
0.0
 10
389.5566123847677
 20
286.1644739490603
 30
0.0
 10
389.5518616229645
 20
286.077922470235
 30
0.0
 10
389.5460194289476
 20
285.9444231255604
 30
0.0
 10
389.5442937189489
 20
285.899452880791
 30
0.0
 10
389.5412945850372
 20
285.8089216849273
 30
0.0
 10
389.540018816141
 20
285.7633079679913
 30
0.0
 10
389.5379152733753
 20
285.6713836756082
 30
0.0
 10
389.5370875713309
 20
285.6250175784225
 30
0.0
 10
389.5358930901565
 20
285.5322806563348
 30
0.0
 10
389.5355239903209
 20
285.4858327618118
 30
0.0
 10
389.5352399683069
 20
285.3927788383194
 30
0.0
 10
389.5353256789087
 20
285.3460955775245
 30
0.0
 10
389.535952837905
 20
285.2529490627184
 30
0.0
 10
389.5370329350715
 20
285.1601794048098
 30
0.0
 10
389.5390100887154
 20
285.06815612233
 30
0.0
 10
389.5414379302772
 20
284.9765078244766
 30
0.0
 10
389.5428739424392
 20
284.9310152211778
 30
0.0
 10
389.5461750230531
 20
284.8410200511932
 30
0.0
 10
389.5480414539284
 20
284.796464839165
 30
0.0
 10
389.5522060749936
 20
284.7082391163229
 30
0.0
 10
389.5545095604944
 20
284.6644984093087
 30
0.0
 10
389.561988900687
 20
284.5360122730143
 30
0.0
 10
389.5735081585873
 20
284.3710827760174
 30
0.0
 10
389.5880334542295
 20
284.2185624811179
 30
0.0
 10
389.5960691418949
 20
284.1454935137131
 30
0.0
  0
SPLINE
  5
1AB
330
1F
100
AcDbEntity
  8
1
100
AcDbSpline
210
0.0
220
0.0
230
1.0
 70
     8
 71
     3
 72
     8
 73
     4
 74
     0
 42
0.000000001
 43
0.0000000001
 40
0.0
 40
0.0
 40
0.0
 40
0.0
 40
1.0
 40
1.0
 40
1.0
 40
1.0
 10
382.8798419463396
 20
291.2659551628689
 30
0.0
 10
383.1033682377833
 20
291.2640283929331
 30
0.0
 10
383.3262054582641
 20
291.2699765059108
 30
0.0
 10
383.5483417091716
 20
291.2837508827727
 30
0.0
  0
SPLINE
  5
1AC
330
1F
100
AcDbEntity
  8
1
100
AcDbSpline
210
0.0
220
0.0
230
1.0
 70
    24
 71
     3
 72
    22
 73
    18
 74
     0
 42
0.000000001
 43
0.0000000001
 40
0.0
 40
0.0
 40
0.0
 40
0.0
 40
0.1256108576316547
 40
0.1256108576316547
 40
0.2512217152633095
 40
0.2512217152633095
 40
0.3768325728949642
 40
0.3768325728949642
 40
0.5024434305266191
 40
0.5024434305266191
 40
0.6280542881582738
 40
0.6280542881582738
 40
0.7536651457899285
 40
0.7536651457899285
 40
0.8792760034215833
 40
0.8792760034215833
 40
1.0
 40
1.0
 40
1.0
 40
1.0
 10
382.8798419462217
 20
292.8566248193054
 30
0.0
 10
382.8798419462457
 20
292.659118691154
 30
0.0
 10
382.8798419462673
 20
292.4755929141881
 30
0.0
 10
382.8798419463062
 20
292.1389872626408
 30
0.0
 10
382.8798419463233
 20
291.9859084203076
 30
0.0
 10
382.879841946353
 20
291.7122716077419
 30
0.0
 10
382.8798419463653
 20
291.5917144766549
 30
0.0
 10
382.8798419463856
 20
291.3847552798726
 30
0.0
 10
382.8798419463931
 20
291.2983538488465
 30
0.0
 10
382.8798419464032
 20
291.160877319773
 30
0.0
 10
382.8798419464058
 20
291.1098026433165
 30
0.0
 10
382.879841946406
 20
291.0436720903168
 30
0.0
 10
382.8798419464036
 20
291.0286164165721
 30
0.0
 10
382.8798419463938
 20
291.0347281498266
 30
0.0
 10
382.8798419463863
 20
291.0558955380832
 30
0.0
 10
382.879841946367
 20
291.1326441602727
 30
0.0
 10
382.8798419463553
 20
291.1868542713144
 30
0.0
 10
382.8798419463414
 20
291.2573182237708
 30
0.0
  0
SPLINE
  5
1AD
330
1F
100
AcDbEntity
  8
1
100
AcDbSpline
210
0.0
220
0.0
230
1.0
 70
     8
 71
     3
 72
    18
 73
    14
 74
     0
 42
0.000000001
 43
0.0000000001
 40
0.0
 40
0.0
 40
0.0
 40
0.0
 40
0.2500000000000001
 40
0.2500000000000001
 40
0.5000000000000002
 40
0.5000000000000002
 40
0.6250000000000002
 40
0.6250000000000002
 40
0.7500000000000002
 40
0.7500000000000002
 40
0.8750000000000001
 40
0.8750000000000001
 40
1.0
 40
1.0
 40
1.0
 40
1.0
 10
378.2531361056713
 20
294.5540576920634
 30
0.0
 10
378.626565943037
 20
294.340167613577
 30
0.0
 10
379.0018486473769
 20
294.1453636187776
 30
0.0
 10
379.7574000892355
 20
293.7914084039886
 30
0.0
 10
380.1376494724989
 20
293.6322604526111
 30
0.0
 10
380.7132064078187
 20
293.419742703436
 30
0.0
 10
380.9059293990894
 20
293.3532842766193
 30
0.0
 10
381.2934866405494
 20
293.2292203541478
 30
0.0
 10
381.4883192466388
 20
293.1716136773923
 30
0.0
 10
381.8805960274466
 20
293.0654938293762
 30
0.0
 10
382.0780378977647
 20
293.0169786806217
 30
0.0
 10
382.476224779843
 20
292.9294793212101
 30
0.0
 10
382.6769666813158
 20
292.8904919763604
 30
0.0
 10
382.8798419452958
 20
292.8566248193206
 30
0.0
  0
SPLINE
  5
1AE
330
1F
100
AcDbEntity
  8
1
100
AcDbSpline
210
0.0
220
0.0
230
1.0
 70
     8
 71
     3
 72
    14
 73
    10
 74
     0
 42
0.000000001
 43
0.0000000001
 40
0.0
 40
0.0
 40
0.0
 40
0.0
 40
0.25
 40
0.25
 40
0.5
 40
0.5
 40
0.75
 40
0.75
 40
1.0
 40
1.0
 40
1.0
 40
1.0
 10
376.86346350579
 20
292.7092968138138
 30
0.0
 10
376.6397783300174
 20
292.8261602022761
 30
0.0
 10
376.4158537361839
 20
292.9447473387622
 30
0.0
 10
375.9676065481082
 20
293.1847871115856
 30
0.0
 10
375.7432836547497
 20
293.3062419014813
 30
0.0
 10
375.2942984962373
 20
293.5515948702981
 30
0.0
 10
375.0696360531027
 20
293.6754943306332
 30
0.0
 10
374.6200160662386
 20
293.9254178991467
 30
0.0
 10
374.3950584108316
 20
294.0514428113756
 30
0.0
 10
374.1699702436018
 20
294.178407374922
 30
0.0
  0
SPLINE
  5
1AF
330
1F
100
AcDbEntity
  8
1
100
AcDbSpline
210
0.0
220
0.0
230
1.0
 70
     8
 71
     3
 72
    25
 73
    21
 74
     0
 42
0.000000001
 43
0.0000000001
 40
0.0
 40
0.0
 40
0.0
 40
0.0
 40
0.1137043591536758
 40
0.1137043591536758
 40
0.1875623292242021
 40
0.1875623292242021
 40
0.261420299294728
 40
0.261420299294728
 40
0.2983492843299916
 40
0.2983492843299916
 40
0.3352782693652551
 40
0.409136239435782
 40
0.409136239435782
 40
0.5568521795768364
 40
0.5568521795768364
 40
0.7045681197178909
 40
0.7045681197178909
 40
0.8522840598589455
 40
0.8522840598589455
 40
1.0
 40
1.0
 40
1.0
 40
1.0
 10
334.6675689637937
 20
276.881319388793
 30
0.0
 10
333.7872913150769
 20
276.7265660530196
 30
0.0
 10
332.9069548284959
 20
276.5768130567149
 30
0.0
 10
331.4544876871525
 20
276.3385529703552
 30
0.0
 10
330.8824545340975
 20
276.2469873218711
 30
0.0
 10
329.7380703539114
 20
276.0686737650952
 30
0.0
 10
329.1657155860227
 20
275.9819293472345
 30
0.0
 10
328.3070002964288
 20
275.8553400131446
 30
0.0
 10
328.0207122023349
 20
275.8137296300265
 30
0.0
 10
327.4483386239936
 20
275.7317165171219
 30
0.0
 10
326.5899943681515
 20
275.6104965544797
 30
0.0
 10
325.7323300544807
 20
275.494656369262
 30
0.0
 10
324.0179435969729
 20
275.2702214682179
 30
0.0
 10
322.8762960220028
 20
275.1302309802417
 30
0.0
 10
320.5952799823325
 20
274.8707653808359
 30
0.0
 10
319.4559106748067
 20
274.7513147153551
 30
0.0
 10
317.1785344377959
 20
274.5348109112799
 30
0.0
 10
316.0405223928202
 20
274.4377833244492
 30
0.0
 10
313.7643859211731
 20
274.2678299413014
 30
0.0
 10
312.6262536353328
 20
274.1949240290633
 30
0.0
 10
311.4871495384664
 20
274.1344787711565
 30
0.0
  0
SPLINE
  5
1B0
330
1F
100
AcDbEntity
  8
1
100
AcDbSpline
210
0.0
220
0.0
230
1.0
 70
     8
 71
     3
 72
    14
 73
    10
 74
     0
 42
0.000000001
 43
0.0000000001
 40
0.0
 40
0.0
 40
0.0
 40
0.0
 40
0.25
 40
0.25
 40
0.5
 40
0.5
 40
0.75
 40
0.75
 40
1.0
 40
1.0
 40
1.0
 40
1.0
 10
311.487149538467
 20
274.1344787711552
 30
0.0
 10
312.1146781208478
 20
274.2440769659692
 30
0.0
 10
312.7414230858869
 20
274.360528395339
 30
0.0
 10
313.9939837281186
 20
274.6067273313926
 30
0.0
 10
314.6198004402744
 20
274.7364724716716
 30
0.0
 10
315.8711376247339
 20
275.0086717964509
 30
0.0
 10
316.4966595439805
 20
275.1511210651867
 30
0.0
 10
317.7479972625342
 20
275.4480705739338
 30
0.0
 10
318.3738153258057
 20
275.6025604941726
 30
0.0
 10
319.0000271137154
 20
275.7628185163804
 30
0.0
  0
SPLINE
  5
1B1
330
1F
100
AcDbEntity
  8
1
100
AcDbSpline
210
0.0
220
0.0
230
1.0
 70
     8
 71
     3
 72
    24
 73
    20
 74
     0
 42
0.000000001
 43
0.0000000001
 40
0.0
 40
0.0
 40
0.0
 40
0.0
 40
0.1249999999999851
 40
0.1249999999999851
 40
0.2499999999999701
 40
0.2499999999999701
 40
0.3124999999999627
 40
0.3124999999999627
 40
0.3749999999999552
 40
0.3749999999999552
 40
0.4999999999999403
 40
0.4999999999999403
 40
0.7499999999999398
 40
0.7499999999999398
 40
0.8124999999999548
 40
0.8124999999999548
 40
0.8749999999999699
 40
0.8749999999999699
 40
1.0
 40
1.0
 40
1.0
 40
1.0
 10
384.7078704001802
 20
294.2146518121638
 30
0.0
 10
384.6626509820735
 20
294.1808680401081
 30
0.0
 10
384.6164498256989
 20
294.1492161839128
 30
0.0
 10
384.5220423652843
 20
294.0899462283861
 30
0.0
 10
384.4738368294905
 20
294.0623295141415
 30
0.0
 10
384.3999643201997
 20
294.0238727414186
 30
0.0
 10
384.3750790663193
 20
294.0115495799968
 30
0.0
 10
384.3247706173738
 20
293.9878970904418
 30
0.0
 10
384.2993024444565
 20
293.9765493127566
 30
0.0
 10
384.2224274567855
 20
293.9441637614746
 30
0.0
 10
384.1706177425091
 20
293.9247952340357
 30
0.0
 10
384.0132440880717
 20
293.8732017224875
 30
0.0
 10
383.9057649200807
 20
293.8474000177862
 30
0.0
 10
383.7668936081822
 20
293.8266653303984
 30
0.0
 10
383.7389859524732
 20
293.8231178345198
 30
0.0
 10
383.6831852653509
 20
293.8172637948384
 30
0.0
 10
383.6552491811857
 20
293.8149506843986
 30
0.0
 10
383.5713333384821
 20
293.8098577702366
 30
0.0
 10
383.5152460435578
 20
293.8089229314493
 30
0.0
 10
383.4590135899505
 20
293.8104804324384
 30
0.0
  0
SPLINE
  5
1B2
330
1F
100
AcDbEntity
  8
1
100
AcDbSpline
210
0.0
220
0.0
230
1.0
 70
     8
 71
     3
 72
    21
 73
    17
 74
     0
 42
0.000000001
 43
0.0000000001
 40
0.0
 40
0.0
 40
0.0
 40
0.0
 40
0.2500000000000075
 40
0.2500000000000075
 40
0.5000000000000151
 40
0.5000000000000151
 40
0.5625000000000132
 40
0.5625000000000132
 40
0.6250000000000114
 40
0.6250000000000114
 40
0.7500000000000075
 40
0.8750000000000037
 40
0.8750000000000037
 40
0.9375000000000017
 40
0.9375000000000017
 40
1.0
 40
1.0
 40
1.0
 40
1.0
 10
383.4569126926937
 20
293.64361098227
 30
0.0
 10
383.0115467327969
 20
293.6279658651363
 30
0.0
 10
382.5681133891242
 20
293.6356964242469
 30
0.0
 10
381.6850320200612
 20
293.696892678071
 30
0.0
 10
381.2453840760248
 20
293.7503598826347
 30
0.0
 10
380.6982214638293
 20
293.8461027320127
 30
0.0
 10
380.5888101209823
 20
293.866721432797
 30
0.0
 10
380.3708344388578
 20
293.9107546326061
 30
0.0
 10
380.2622645451961
 20
293.9341666219751
 30
0.0
 10
379.9378019758635
 20
294.0085624573975
 30
0.0
 10
379.5085090730713
 20
294.1188442845032
 30
0.0
 10
379.0858353650307
 20
294.2511579480866
 30
0.0
 10
378.771322929911
 20
294.3586684268286
 30
0.0
 10
378.6668365896626
 20
294.3959093658946
 30
0.0
 10
378.4590115357402
 20
294.4730447718632
 30
0.0
 10
378.3557501517735
 20
294.5129083567301
 30
0.0
 10
378.2531361056712
 20
294.5540576920634
 30
0.0
  0
SPLINE
  5
1B3
330
1F
100
AcDbEntity
  8
1
100
AcDbSpline
210
0.0
220
0.0
230
1.0
 70
     8
 71
     3
 72
     8
 73
     4
 74
     0
 42
0.000000001
 43
0.0000000001
 40
0.0
 40
0.0
 40
0.0
 40
0.0
 40
1.0
 40
1.0
 40
1.0
 40
1.0
 10
383.4569126926937
 20
293.64361098227
 30
0.0
 10
383.4604704653298
 20
293.6437359621172
 30
0.0
 10
383.4640290712252
 20
293.643860536827
 30
0.0
 10
383.4675885115413
 20
293.6439847058347
 30
0.0
  0
SPLINE
  5
1B4
330
1F
100
AcDbEntity
  8
1
100
AcDbSpline
210
0.0
220
0.0
230
1.0
 70
     8
 71
     3
 72
    28
 73
    24
 74
     0
 42
0.000000001
 43
0.0000000001
 40
0.0
 40
0.0
 40
0.0
 40
0.0
 40
0.1250000000000015
 40
0.1250000000000015
 40
0.250000000000003
 40
0.250000000000003
 40
0.2812500000000034
 40
0.2812500000000034
 40
0.3125000000000038
 40
0.3750000000000046
 40
0.3750000000000046
 40
0.5000000000000118
 40
0.5000000000000118
 40
0.5312500000000121
 40
0.5312500000000121
 40
0.5625000000000126
 40
0.5625000000000126
 40
0.6250000000000133
 40
0.6250000000000133
 40
0.7500000000000088
 40
0.8750000000000042
 40
0.8750000000000042
 40
1.0
 40
1.0
 40
1.0
 40
1.0
 10
376.8723963719893
 20
292.4482092834227
 30
0.0
 10
377.1199511063033
 20
292.2921361010266
 30
0.0
 10
377.3729994990546
 20
292.1455257149712
 30
0.0
 10
377.8899659805576
 20
291.8713989349214
 30
0.0
 10
378.1538835648098
 20
291.7438812265408
 30
0.0
 10
378.4905948177432
 20
291.5966603675807
 30
0.0
 10
378.5583145519022
 20
291.5678109146952
 30
0.0
 10
378.6941862175859
 20
291.5114424947404
 30
0.0
 10
378.8986799089017
 20
291.4288666233001
 30
0.0
 10
379.1052209503564
 20
291.3522046104906
 30
0.0
 10
379.5210136335157
 20
291.2067491457419
 30
0.0
 10
379.8018189373661
 20
291.1202599525944
 30
0.0
 10
380.1573326921867
 20
291.0253448130888
 30
0.0
 10
380.2286611089166
 20
291.0070224084388
 30
0.0
 10
380.37177039454
 20
290.9717045187941
 30
0.0
 10
380.4434925891812
 20
290.9547244233418
 30
0.0
 10
380.6587502044357
 20
290.905906432459
 30
0.0
 10
380.8025387870969
 20
290.8761496207644
 30
0.0
 10
381.2347428365237
 20
290.7951432885617
 30
0.0
 10
381.8132477291623
 20
290.7091487477578
 30
0.0
 10
382.3961533189714
 20
290.666685404983
 30
0.0
 10
382.981269350407
 20
290.6461235261539
 30
0.0
 10
383.2749324662201
 20
290.6467921638187
 30
0.0
 10
383.5697279348248
 20
290.6586797448398
 30
0.0
  0
SPLINE
  5
1B5
330
1F
100
AcDbEntity
  8
1
100
AcDbSpline
210
0.0
220
0.0
230
1.0
 70
     8
 71
     3
 72
    26
 73
    22
 74
     0
 42
0.000000001
 43
0.0000000001
 40
0.0
 40
0.0
 40
0.0
 40
0.0
 40
0.1250000000000042
 40
0.1250000000000042
 40
0.2500000000000083
 40
0.2500000000000083
 40
0.3750000000000125
 40
0.3750000000000125
 40
0.5000000000000167
 40
0.5000000000000167
 40
0.5312500000000146
 40
0.5312500000000146
 40
0.5625000000000126
 40
0.5625000000000126
 40
0.6250000000000081
 40
0.6250000000000081
 40
0.7500000000000055
 40
0.7500000000000055
 40
0.8750000000000026
 40
0.8750000000000026
 40
1.0
 40
1.0
 40
1.0
 40
1.0
 10
382.8798419452958
 20
291.265955162878
 30
0.0
 10
382.6114538488903
 20
291.2694455329499
 30
0.0
 10
382.3453742922885
 20
291.2795870063052
 30
0.0
 10
381.8172520016791
 20
291.3135155742117
 30
0.0
 10
381.5552107245812
 20
291.337302529032
 30
0.0
 10
381.0347581254358
 20
291.3989245969527
 30
0.0
 10
380.7763480490718
 20
291.436758618008
 30
0.0
 10
380.2628799851245
 20
291.5269550508975
 30
0.0
 10
380.0078229070772
 20
291.5793159630178
 30
0.0
 10
379.6909831933572
 20
291.6542213355914
 30
0.0
 10
379.6277145341136
 20
291.6696754767907
 30
0.0
 10
379.5013736850053
 20
291.7015408151544
 30
0.0
 10
379.438258634608
 20
291.7179638640363
 30
0.0
 10
379.2496595869568
 20
291.7685620735367
 30
0.0
 10
379.1248518141796
 20
291.8040808928662
 30
0.0
 10
378.753126886391
 20
291.9159948785706
 30
0.0
 10
378.5089011160658
 20
291.9977460571681
 30
0.0
 10
378.0272869823556
 20
292.1757332089257
 30
0.0
 10
377.7898994742013
 20
292.2719684441925
 30
0.0
 10
377.3217442661927
 20
292.4793190862427
 30
0.0
 10
377.0909769765596
 20
292.5904333485746
 30
0.0
 10
376.86346350579
 20
292.7092968138138
 30
0.0
  0
SPLINE
  5
1B6
330
1F
100
AcDbEntity
  8
1
100
AcDbSpline
210
0.0
220
0.0
230
1.0
 70
     8
 71
     3
 72
    36
 73
    32
 74
     0
 42
0.000000001
 43
0.0000000001
 40
0.0
 40
0.0
 40
0.0
 40
0.0
 40
0.1250000000000761
 40
0.1250000000000761
 40
0.1875000000001101
 40
0.1875000000001101
 40
0.2187500000001205
 40
0.2187500000001205
 40
0.2500000000001309
 40
0.2500000000001309
 40
0.3750000000001434
 40
0.3750000000001434
 40
0.4062500000001575
 40
0.4062500000001575
 40
0.4375000000001716
 40
0.4375000000001716
 40
0.5000000000001755
 40
0.5000000000001755
 40
0.6250000000001597
 40
0.6250000000001597
 40
0.6562500000001487
 40
0.6562500000001487
 40
0.6875000000001378
 40
0.7500000000001167
 40
0.8125000000000957
 40
0.8125000000000957
 40
0.8437500000000687
 40
0.8437500000000687
 40
0.8750000000000415
 40
0.8750000000000415
 40
1.0
 40
1.0
 40
1.0
 40
1.0
 10
382.2476844139728
 20
295.266208595225
 30
0.0
 10
382.2495066825488
 20
295.2153396674781
 30
0.0
 10
382.2564771566384
 20
295.1655340521853
 30
0.0
 10
382.2741755011824
 20
295.0923215256875
 30
0.0
 10
382.2812921103972
 20
295.0681687431217
 30
0.0
 10
382.2938189011738
 20
295.0323220566897
 30
0.0
 10
382.2983169716242
 20
295.0204054872817
 30
0.0
 10
382.3078716798197
 20
294.9968744577187
 30
0.0
 10
382.3129217923948
 20
294.9852704729474
 30
0.0
 10
382.339505297721
 20
294.9280399295334
 30
0.0
 10
382.3649979769365
 20
294.8847580957514
 30
0.0
 10
382.4020671874122
 20
294.8337372807233
 30
0.0
 10
382.4097436450009
 20
294.8236886409621
 30
0.0
 10
382.4256297609995
 20
294.8039071277356
 30
0.0
 10
382.4338546549144
 20
294.7941592210131
 30
0.0
 10
382.4590779399463
 20
294.7656913100806
 30
0.0
 10
382.4766935082081
 20
294.7476512866627
 30
0.0
 10
382.5318741410852
 20
294.6962692967873
 30
0.0
 10
382.5717498618389
 20
294.6656381088899
 30
0.0
 10
382.6255884648693
 20
294.6320346847606
 30
0.0
 10
382.6365716192703
 20
294.6255447830399
 30
0.0
 10
382.6587054134771
 20
294.613181059814
 30
0.0
 10
382.692241131205
 20
294.5955055466019
 30
0.0
 10
382.7497806467189
 20
294.5703227542231
 30
0.0
 10
382.7975576704208
 20
294.5547093952234
 30
0.0
 10
382.8340609103939
 20
294.5447406083181
 30
0.0
 10
382.8463406117414
 20
294.5417084283588
 30
0.0
 10
382.8711292985321
 20
294.5362395247258
 30
0.0
 10
382.8836545255649
 20
294.5338015402282
 30
0.0
 10
382.9462734958796
 20
294.5232344907503
 30
0.0
 10
382.9967727433306
 20
294.5198147482397
 30
0.0
 10
383.0476890682868
 20
294.5215909346585
 30
0.0
  0
SPLINE
  5
1B7
330
1F
100
AcDbEntity
  8
1
100
AcDbSpline
210
0.0
220
0.0
230
1.0
 70
     8
 71
     3
 72
    36
 73
    32
 74
     0
 42
0.000000001
 43
0.0000000001
 40
0.0
 40
0.0
 40
0.0
 40
0.0
 40
0.1250000000000079
 40
0.1250000000000079
 40
0.1875000000000284
 40
0.1875000000000284
 40
0.2187500000000383
 40
0.2187500000000383
 40
0.250000000000048
 40
0.250000000000048
 40
0.3749999999999942
 40
0.3749999999999942
 40
0.4062499999999877
 40
0.4062499999999877
 40
0.437499999999981
 40
0.437499999999981
 40
0.4999999999999695
 40
0.4999999999999695
 40
0.624999999999946
 40
0.624999999999946
 40
0.6562499999999493
 40
0.6562499999999493
 40
0.6874999999999525
 40
0.7499999999999571
 40
0.8124999999999616
 40
0.8124999999999616
 40
0.8437499999999683
 40
0.8437499999999683
 40
0.8749999999999749
 40
0.8749999999999749
 40
1.0
 40
1.0
 40
1.0
 40
1.0
 10
391.0204177166758
 20
294.7997149422048
 30
0.0
 10
391.0713396510503
 20
294.801491324305
 30
0.0
 10
391.1211926856504
 20
294.8084113162063
 30
0.0
 10
391.1944684807177
 20
294.8260274720965
 30
0.0
 10
391.2186410318284
 20
294.8331155985551
 30
0.0
 10
391.2545153612448
 20
294.8455980120598
 30
0.0
 10
391.266440831781
 20
294.8500809726143
 30
0.0
 10
391.2899888570223
 20
294.8596051236819
 30
0.0
 10
391.3016009307396
 20
294.8646398050611
 30
0.0
 10
391.3588699206665
 20
294.8911454085112
 30
0.0
 10
391.4021761766372
 20
294.9165734014834
 30
0.0
 10
391.4532197190267
 20
294.9535588424242
 30
0.0
 10
391.4632725105727
 20
294.9612183991499
 30
0.0
 10
391.4830615280454
 20
294.9770704150504
 30
0.0
 10
391.4928127902012
 20
294.985278080428
 30
0.0
 10
391.5212894611983
 20
295.0104497623109
 30
0.0
 10
391.5393336266069
 20
295.028030882211
 30
0.0
 10
391.5907230888172
 20
295.0831080350448
 30
0.0
 10
391.6213527028152
 20
295.1229145905039
 30
0.0
 10
391.654945682621
 20
295.1766665059671
 30
0.0
 10
391.6614330617884
 20
295.1876322914341
 30
0.0
 10
391.6737909342216
 20
295.2097317004836
 30
0.0
 10
391.6914564483328
 20
295.243216233107
 30
0.0
 10
391.7166166683801
 20
295.3006723300716
 30
0.0
 10
391.7322054122271
 20
295.3483847361317
 30
0.0
 10
391.7421533679942
 20
295.3848402687614
 30
0.0
 10
391.7451781955841
 20
295.3971041988652
 30
0.0
 10
391.7506315575467
 20
295.4218616118764
 30
0.0
 10
391.7530613400683
 20
295.4343713178883
 30
0.0
 10
391.7635856445714
 20
295.4969140924228
 30
0.0
 10
391.7669654409253
 20
295.5473562981605
 30
0.0
 10
391.7651433730854
 20
295.5982196223281
 30
0.0
  0
SPLINE
  5
1B8
330
1F
100
AcDbEntity
  8
1
100
AcDbSpline
210
0.0
220
0.0
230
1.0
 70
     8
 71
     3
 72
     8
 73
     4
 74
     0
 42
0.000000001
 43
0.0000000001
 40
0.0
 40
0.0
 40
0.0
 40
0.0
 40
1.0
 40
1.0
 40
1.0
 40
1.0
 10
386.1200805874612
 20
300.1981546479649
 30
0.0
 10
386.117531541484
 20
300.1895915336507
 30
0.0
 10
386.1147774121213
 20
300.1811050754288
 30
0.0
 10
386.1118169306949
 20
300.172694863128
 30
0.0
  0
SPLINE
  5
1B9
330
1F
100
AcDbEntity
  8
1
100
AcDbSpline
210
0.0
220
0.0
230
1.0
 70
     8
 71
     3
 72
    22
 73
    18
 74
     0
 42
0.000000001
 43
0.0000000001
 40
0.0
 40
0.0
 40
0.0
 40
0.0
 40
0.125
 40
0.125
 40
0.25
 40
0.25
 40
0.375
 40
0.375
 40
0.5
 40
0.5
 40
0.625
 40
0.625
 40
0.75
 40
0.75
 40
0.875
 40
0.875
 40
1.0
 40
1.0
 40
1.0
 40
1.0
 10
386.1800895340373
 20
298.2810126374253
 30
0.0
 10
386.1774209398408
 20
298.2759569569613
 30
0.0
 10
386.1743412799356
 20
298.2711423028178
 30
0.0
 10
386.1674913653471
 20
298.2621471046808
 30
0.0
 10
386.1637089676277
 20
298.2579416186242
 30
0.0
 10
386.1554090902057
 20
298.2501325811617
 30
0.0
 10
386.1508858487987
 20
298.2465384921818
 30
0.0
 10
386.1413943343234
 20
298.2402210365155
 30
0.0
 10
386.1363911946782
 20
298.2374612097574
 30
0.0
 10
386.1258486777978
 20
298.2327756138248
 30
0.0
 10
386.1203266693019
 20
298.2308691059031
 30
0.0
 10
386.1091271825882
 20
298.2280596092825
 30
0.0
 10
386.1034038094975
 20
298.2271339187827
 30
0.0
 10
386.0916967194868
 20
298.2262970747599
 30
0.0
 10
386.0858020540264
 20
298.2263997033883
 30
0.0
 10
386.0741781488522
 20
298.2276368710957
 30
0.0
 10
386.0684105508582
 20
298.2287678113645
 30
0.0
 10
386.0626905080143
 20
298.2304444235784
 30
0.0
  0
SPLINE
  5
1BA
330
1F
100
AcDbEntity
  8
1
100
AcDbSpline
210
0.0
220
0.0
230
1.0
 70
     8
 71
     3
 72
    20
 73
    16
 74
     0
 42
0.000000001
 43
0.0000000001
 40
0.0
 40
0.0
 40
0.0
 40
0.0
 40
0.1250000000000123
 40
0.1250000000000123
 40
0.2500000000000245
 40
0.2500000000000245
 40
0.3750000000000369
 40
0.3750000000000369
 40
0.5000000000000491
 40
0.5000000000000491
 40
0.6250000000000613
 40
0.6250000000000613
 40
0.7500000000000737
 40
0.7500000000000737
 40
1.0
 40
1.0
 40
1.0
 40
1.0
 10
386.8458103813587
 20
298.049876606122
 30
0.0
 10
386.8399337502955
 20
298.0508734922194
 30
0.0
 10
386.8342478967667
 20
298.0523838793636
 30
0.0
 10
386.8232376543701
 20
298.0563757526048
 30
0.0
 10
386.8178636432145
 20
298.0588892737429
 30
0.0
 10
386.807766771166
 20
298.0647533834753
 30
0.0
 10
386.8030523437761
 20
298.0680841523426
 30
0.0
 10
386.7942590366919
 20
298.0755021759297
 30
0.0
 10
386.7901477422249
 20
298.0796307315033
 30
0.0
 10
386.7827505402275
 20
298.088466541075
 30
0.0
 10
386.7794840104586
 20
298.0931342966642
 30
0.0
 10
386.7737706627624
 20
298.1029419739606
 30
0.0
 10
386.7713144890423
 20
298.1081079879297
 30
0.0
 10
386.7652786835213
 20
298.1241653823368
 30
0.0
 10
386.7631125935725
 20
298.1352336844497
 30
0.0
 10
386.7627819514422
 20
298.1466583685073
 30
0.0
  0
SPLINE
  5
1BB
330
1F
100
AcDbEntity
  8
1
100
AcDbSpline
210
0.0
220
0.0
230
1.0
 70
     8
 71
     3
 72
    14
 73
    10
 74
     0
 42
0.000000001
 43
0.0000000001
 40
0.0
 40
0.0
 40
0.0
 40
0.0
 40
0.25
 40
0.25
 40
0.5
 40
0.5
 40
0.75
 40
0.75
 40
1.0
 40
1.0
 40
1.0
 40
1.0
 10
386.1800895340378
 20
298.2810126374263
 30
0.0
 10
386.1834279712741
 20
298.2873373427481
 30
0.0
 10
386.1874208818086
 20
298.2933062631025
 30
0.0
 10
386.1965208363447
 20
298.3042644099131
 30
0.0
 10
386.2015859281153
 20
298.3092210569687
 30
0.0
 10
386.212759497942
 20
298.3180796347077
 30
0.0
 10
386.2189080819748
 20
298.3219822379685
 30
0.0
 10
386.2317567925172
 20
298.3283258889965
 30
0.0
 10
386.2385143029337
 20
298.3308240127597
 30
0.0
 10
386.2456359320361
 20
298.3325904494103
 30
0.0
  0
SPLINE
  5
1BC
330
1F
100
AcDbEntity
  8
1
100
AcDbSpline
210
0.0
220
0.0
230
1.0
 70
     8
 71
     3
 72
    14
 73
    10
 74
     0
 42
0.000000001
 43
0.0000000001
 40
0.0
 40
0.0
 40
0.0
 40
0.0
 40
0.25
 40
0.25
 40
0.5
 40
0.5
 40
0.75
 40
0.75
 40
1.0
 40
1.0
 40
1.0
 40
1.0
 10
386.7267103874295
 20
298.2216667359391
 30
0.0
 10
386.7323267033415
 20
298.2169604404607
 30
0.0
 10
386.7373898932423
 20
298.2116478198864
 30
0.0
 10
386.7461316560923
 20
298.2002731966493
 30
0.0
 10
386.7498362090407
 20
298.1942078391059
 30
0.0
 10
386.7559566603087
 20
298.1813418999729
 30
0.0
 10
386.7583492471638
 20
298.1745382175363
 30
0.0
 10
386.7616382975254
 20
298.1608063075813
 30
0.0
 10
386.7625751705674
 20
298.1538032721558
 30
0.0
 10
386.7627819514422
 20
298.1466583685073
 30
0.0
  0
SPLINE
  5
1BD
330
1F
100
AcDbEntity
  8
1
100
AcDbSpline
210
0.0
220
0.0
230
1.0
 70
     8
 71
     3
 72
    21
 73
    17
 74
     0
 42
0.000000001
 43
0.0000000001
 40
0.0
 40
0.0
 40
0.0
 40
0.0
 40
0.2499999999999721
 40
0.2499999999999721
 40
0.3124999999999789
 40
0.3124999999999789
 40
0.3749999999999858
 40
0.3749999999999858
 40
0.4999999999999993
 40
0.6250000000000129
 40
0.6250000000000129
 40
0.6875000000000198
 40
0.6875000000000198
 40
0.7500000000000266
 40
0.7500000000000266
 40
1.0
 40
1.0
 40
1.0
 40
1.0
 10
386.0626905080143
 20
298.2304444235784
 30
0.0
 10
386.0215460636429
 20
298.242504346878
 30
0.0
 10
385.9823562623932
 20
298.2591357640193
 30
0.0
 10
385.9358157561406
 20
298.2856339784461
 30
0.0
 10
385.9266131754425
 20
298.2912362985448
 30
0.0
 10
385.9086634593582
 20
298.3028956482125
 30
0.0
 10
385.8998935028234
 20
298.3089641542477
 30
0.0
 10
385.8741871675293
 20
298.327873099596
 30
0.0
 10
385.8415175929518
 20
298.3549562919374
 30
0.0
 10
385.8120373944328
 20
298.385756524352
 30
0.0
 10
385.7911632115536
 20
298.4102972247435
 30
0.0
 10
385.7844271335082
 20
298.4187036679249
 30
0.0
 10
385.7715426680085
 20
298.4357761599802
 30
0.0
 10
385.7653720510309
 20
298.4444677784878
 30
0.0
 10
385.735852651542
 20
298.4886886973736
 30
0.0
 10
385.716452415678
 20
298.5264765470782
 30
0.0
 10
385.7013814255405
 20
298.5667388717197
 30
0.0
  0
SPLINE
  5
1BE
330
1F
100
AcDbEntity
  8
1
100
AcDbSpline
210
0.0
220
0.0
230
1.0
 70
     8
 71
     3
 72
    21
 73
    17
 74
     0
 42
0.000000001
 43
0.0000000001
 40
0.0
 40
0.0
 40
0.0
 40
0.0
 40
0.2499999999998992
 40
0.2499999999998992
 40
0.3124999999998739
 40
0.3124999999998739
 40
0.3749999999998486
 40
0.3749999999998486
 40
0.4999999999998777
 40
0.6249999999999068
 40
0.6249999999999068
 40
0.6874999999999573
 40
0.6874999999999573
 40
0.7500000000000079
 40
0.7500000000000079
 40
1.0
 40
1.0
 40
1.0
 40
1.0
 10
386.2456359320361
 20
298.3325904494103
 30
0.0
 10
386.286957162862
 20
298.3428396965318
 30
0.0
 10
386.3289335053786
 20
298.3482656507133
 30
0.0
 10
386.3823114128912
 20
298.3488727787682
 30
0.0
 10
386.3930328840772
 20
298.3486814048891
 30
0.0
 10
386.4145719661267
 20
298.3476523025666
 30
0.0
 10
386.4254154283305
 20
298.3468095657959
 30
0.0
 10
386.4576087589656
 20
298.343334727153
 30
0.0
 10
386.4999252305432
 20
298.336182300465
 30
0.0
 10
386.5410521888742
 20
298.3241025198071
 30
0.0
 10
386.5714438280881
 20
298.3131631387725
 30
0.0
 10
386.5815342952615
 20
298.3091868182691
 30
0.0
 10
386.6013720627643
 20
298.3006740031044
 30
0.0
 10
386.6111016764709
 20
298.2961482173056
 30
0.0
 10
386.6588381927116
 20
298.2722159045374
 30
0.0
 10
386.6941470368823
 20
298.2489537959705
 30
0.0
 10
386.7267103874295
 20
298.2216667359391
 30
0.0
  0
SPLINE
  5
1BF
330
1F
100
AcDbEntity
  8
1
100
AcDbSpline
210
0.0
220
0.0
230
1.0
 70
     8
 71
     3
 72
    10
 73
     6
 74
     0
 42
0.000000001
 43
0.0000000001
 40
0.0
 40
0.0
 40
0.0
 40
0.0
 40
0.6016747911511628
 40
0.6016747911511628
 40
1.0
 40
1.0
 40
1.0
 40
1.0
 10
385.7013814255405
 20
298.5667388717197
 30
0.0
 10
385.6992837150423
 20
298.5723429296025
 30
0.0
 10
385.6977211370501
 20
298.5780449259694
 30
0.0
 10
385.6959653659601
 20
298.5876754011449
 30
0.0
 10
385.6954889675868
 20
298.5915780708598
 30
0.0
 10
385.6952392139577
 20
298.5954832850475
 30
0.0
  0
SPLINE
  5
1C0
330
1F
100
AcDbEntity
  8
1
100
AcDbSpline
210
0.0
220
0.0
230
1.0
 70
     8
 71
     3
 72
    21
 73
    17
 74
     0
 42
0.000000001
 43
0.0000000001
 40
0.0
 40
0.0
 40
0.0
 40
0.0
 40
0.2499999999999056
 40
0.2499999999999056
 40
0.3124999999999305
 40
0.3124999999999305
 40
0.3749999999999555
 40
0.3749999999999555
 40
0.4999999999999308
 40
0.6249999999999062
 40
0.6249999999999062
 40
0.6874999999998948
 40
0.6874999999998948
 40
0.7499999999998832
 40
0.7499999999998832
 40
1.0
 40
1.0
 40
1.0
 40
1.0
 10
387.3177466978498
 20
298.1940455467671
 30
0.0
 10
387.2865409929535
 20
298.1644515837789
 30
0.0
 10
387.2524013548694
 20
298.1388478433453
 30
0.0
 10
387.2060620971304
 20
298.1118303708847
 30
0.0
 10
387.1965876536594
 20
298.1066702938426
 30
0.0
 10
387.1774787505301
 20
298.0969730913572
 30
0.0
 10
387.1678229129634
 20
298.0924219769081
 30
0.0
 10
387.1385567523664
 20
298.0796448373736
 30
0.0
 10
387.0987407284727
 20
298.064939544861
 30
0.0
 10
387.0573464290539
 20
298.0548643384243
 30
0.0
 10
387.0256891190432
 20
298.0491022490554
 30
0.0
 10
387.0150546344946
 20
298.0474874670504
 30
0.0
 10
386.9938604032438
 20
298.0448975064947
 30
0.0
 10
386.9832674000265
 20
298.0439159013528
 30
0.0
 10
386.9303227840452
 20
298.040546583181
 30
0.0
 10
386.8880313058026
 20
298.0427144323962
 30
0.0
 10
386.8458103813587
 20
298.049876606122
 30
0.0
  0
SPLINE
  5
1C1
330
1F
100
AcDbEntity
  8
1
100
AcDbSpline
210
0.0
220
0.0
230
1.0
 70
     8
 71
     3
 72
     8
 73
     4
 74
     0
 42
0.000000001
 43
0.0000000001
 40
0.0
 40
0.0
 40
0.0
 40
0.0
 40
1.0
 40
1.0
 40
1.0
 40
1.0
 10
385.7885009645124
 20
298.7580764365793
 30
0.0
 10
385.7875205053785
 20
298.752180891277
 30
0.0
 10
385.7860181836187
 20
298.7463945486461
 30
0.0
 10
385.784062236134
 20
298.740845378979
 30
0.0
  0
SPLINE
  5
1C2
330
1F
100
AcDbEntity
  8
1
100
AcDbSpline
210
0.0
220
0.0
230
1.0
 70
     8
 71
     3
 72
    21
 73
    17
 74
     0
 42
0.000000001
 43
0.0000000001
 40
0.0
 40
0.0
 40
0.0
 40
0.0
 40
0.2499999999999881
 40
0.2499999999999881
 40
0.3124999999999931
 40
0.3124999999999931
 40
0.3749999999999981
 40
0.3749999999999981
 40
0.5000000000000081
 40
0.6250000000000182
 40
0.6250000000000182
 40
0.687500000000016
 40
0.687500000000016
 40
0.7500000000000138
 40
0.7500000000000138
 40
1.0
 40
1.0
 40
1.0
 40
1.0
 10
385.6437697318254
 20
299.2296317935922
 30
0.0
 10
385.6730121828649
 20
299.1993923223357
 30
0.0
 10
385.698467990751
 20
299.1660998232106
 30
0.0
 10
385.7254909705297
 20
299.1204967385893
 30
0.0
 10
385.7306525370144
 20
299.1111742324764
 30
0.0
 10
385.7404744690354
 20
299.0921105428899
 30
0.0
 10
385.7451434958315
 20
299.0823443657917
 30
0.0
 10
385.7581796988847
 20
299.0528430020751
 30
0.0
 10
385.7731207820304
 20
299.0127200151725
 30
0.0
 10
385.7832901414963
 20
298.9710546937479
 30
0.0
 10
385.7890965042297
 20
298.939217966931
 30
0.0
 10
385.7907320436362
 20
298.9284686568893
 30
0.0
 10
385.7933570245713
 20
298.906973405678
 30
0.0
 10
385.7943467217543
 20
298.8962486037028
 30
0.0
 10
385.7977347137167
 20
298.8427323019448
 30
0.0
 10
385.7955163760178
 20
298.8002604245809
 30
0.0
 10
385.7885009645124
 20
298.7580764365793
 30
0.0
  0
SPLINE
  5
1C3
330
1F
100
AcDbEntity
  8
1
100
AcDbSpline
210
0.0
220
0.0
230
1.0
 70
     8
 71
     3
 72
    14
 73
    10
 74
     0
 42
0.000000001
 43
0.0000000001
 40
0.0
 40
0.0
 40
0.0
 40
0.0
 40
0.25
 40
0.25
 40
0.5
 40
0.5
 40
0.75
 40
0.75
 40
1.0
 40
1.0
 40
1.0
 40
1.0
 10
385.5671576869207
 20
299.2595055725375
 30
0.0
 10
385.5742248685141
 20
299.2598770451023
 30
0.0
 10
385.5813120944037
 20
299.2595046344801
 30
0.0
 10
385.5951981095234
 20
299.2573020261257
 30
0.0
 10
385.6019491686767
 20
299.2554911120732
 30
0.0
 10
385.6150656830927
 20
299.2504330117969
 30
0.0
 10
385.6214508946097
 20
299.2471520358384
 30
0.0
 10
385.6332441269024
 20
299.239367524266
 30
0.0
 10
385.6387295556219
 20
299.2348438144048
 30
0.0
 10
385.6437697318254
 20
299.2296317935922
 30
0.0
  0
SPLINE
  5
1C4
330
1F
100
AcDbEntity
  8
1
100
AcDbSpline
210
0.0
220
0.0
230
1.0
 70
     8
 71
     3
 72
    22
 73
    18
 74
     0
 42
0.000000001
 43
0.0000000001
 40
0.0
 40
0.0
 40
0.0
 40
0.0
 40
0.125
 40
0.125
 40
0.25
 40
0.25
 40
0.375
 40
0.375
 40
0.5
 40
0.5
 40
0.625
 40
0.625
 40
0.75
 40
0.75
 40
0.875
 40
0.875
 40
1.0
 40
1.0
 40
1.0
 40
1.0
 10
385.5671576869207
 20
299.2595055725375
 30
0.0
 10
385.5615082968152
 20
299.2592086234067
 30
0.0
 10
385.5558614569496
 20
299.2593879060716
 30
0.0
 10
385.5447692149338
 20
299.2606638438561
 30
0.0
 10
385.5392963478665
 20
299.2617581403859
 30
0.0
 10
385.5285023904182
 20
299.2648855774738
 30
0.0
 10
385.5231862328409
 20
299.2669286163235
 30
0.0
 10
385.5130796023102
 20
299.2718419895224
 30
0.0
 10
385.5082406379023
 20
299.2747235791096
 30
0.0
 10
385.4990120226367
 20
299.2813731994756
 30
0.0
 10
385.4946471542878
 20
299.2851364308604
 30
0.0
 10
385.4867006333167
 20
299.2933089599073
 30
0.0
 10
385.4830767631602
 20
299.297746060141
 30
0.0
 10
385.4765698539137
 20
299.3073616332496
 30
0.0
 10
385.473742389736
 20
299.3124712429684
 30
0.0
 10
385.4690542249054
 20
299.3230748848471
 30
0.0
 10
385.4671713433536
 20
299.3286001587069
 30
0.0
 10
385.4657798396731
 20
299.3343630249431
 30
0.0
  0
SPLINE
  5
1C5
330
1F
100
AcDbEntity
  8
1
100
AcDbSpline
210
0.0
220
0.0
230
1.0
 70
     8
 71
     3
 72
    21
 73
    17
 74
     0
 42
0.000000001
 43
0.0000000001
 40
0.0
 40
0.0
 40
0.0
 40
0.0
 40
0.2075944301845628
 40
0.2075944301845628
 40
0.2736282276692144
 40
0.2736282276692144
 40
0.3396620251538659
 40
0.3396620251538659
 40
0.4717296201231606
 40
0.6037972150924552
 40
0.6037972150924552
 40
0.6698310125770704
 40
0.6698310125770704
 40
0.7358648100616854
 40
0.7358648100616854
 40
1.0
 40
1.0
 40
1.0
 40
1.0
 10
387.332286820179
 20
298.4301276218707
 30
0.0
 10
387.3434018061873
 20
298.4617019446089
 30
0.0
 10
387.3572541304255
 20
298.4921224522127
 30
0.0
 10
387.3791938168965
 20
298.5306976958049
 30
0.0
 10
387.3847747029154
 20
298.539888530516
 30
0.0
 10
387.3965281484308
 20
298.558026590468
 30
0.0
 10
387.4027180364567
 20
298.5669937584376
 30
0.0
 10
387.4219122214467
 20
298.5931245434604
 30
0.0
 10
387.4493122331943
 20
298.6261644382493
 30
0.0
 10
387.480245237527
 20
298.6556808163049
 30
0.0
 10
387.5047936370495
 20
298.6764743845111
 30
0.0
 10
387.5132330939853
 20
298.6832039738487
 30
0.0
 10
387.5304095437602
 20
298.6960828197992
 30
0.0
 10
387.539128445727
 20
298.7022220469261
 30
0.0
 10
387.5833585550939
 20
298.7314695852192
 30
0.0
 10
387.6207487183984
 20
298.7502913164987
 30
0.0
 10
387.6601562105892
 20
298.7647036031428
 30
0.0
  0
SPLINE
  5
1C6
330
1F
100
AcDbEntity
  8
1
100
AcDbSpline
210
0.0
220
0.0
230
1.0
 70
     8
 71
     3
 72
    14
 73
    10
 74
     0
 42
0.000000001
 43
0.0000000001
 40
0.0
 40
0.0
 40
0.0
 40
0.0
 40
0.25
 40
0.25
 40
0.5
 40
0.5
 40
0.75
 40
0.75
 40
1.0
 40
1.0
 40
1.0
 40
1.0
 10
387.6601562105892
 20
298.7647036031428
 30
0.0
 10
387.6669528922756
 20
298.7671893163727
 30
0.0
 10
387.6739872536278
 20
298.7688907071125
 30
0.0
 10
387.6879989572303
 20
298.7707177191818
 30
0.0
 10
387.6949931932482
 20
298.770864311478
 30
0.0
 10
387.7089633845301
 20
298.7696717308211
 30
0.0
 10
387.7159286088796
 20
298.7683111075125
 30
0.0
 10
387.7292197563511
 20
298.764232915167
 30
0.0
 10
387.73562920541
 20
298.7615124852262
 30
0.0
 10
387.741795393859
 20
298.7580886147181
 30
0.0
  0
SPLINE
  5
1C7
330
1F
100
AcDbEntity
  8
1
100
AcDbSpline
210
0.0
220
0.0
230
1.0
 70
     8
 71
     3
 72
    20
 73
    16
 74
     0
 42
0.000000001
 43
0.0000000001
 40
0.0
 40
0.0
 40
0.0
 40
0.0
 40
0.1250000000000008
 40
0.1250000000000008
 40
0.2500000000000016
 40
0.2500000000000016
 40
0.3750000000000022
 40
0.3750000000000022
 40
0.5000000000000031
 40
0.5000000000000031
 40
0.6250000000000038
 40
0.6250000000000038
 40
0.7500000000000045
 40
0.7500000000000045
 40
1.0
 40
1.0
 40
1.0
 40
1.0
 10
387.8652649853269
 20
298.781101882534
 30
0.0
 10
387.8614956832398
 20
298.7765224041264
 30
0.0
 10
387.857384724038
 20
298.7723666266244
 30
0.0
 10
387.8485171998234
 20
298.76485704855
 30
0.0
 10
387.8437086102108
 20
298.7614764902746
 30
0.0
 10
387.8337066056332
 20
298.7557016105077
 30
0.0
 10
387.8285327829294
 20
298.7533036627977
 30
0.0
 10
387.817858366847
 20
298.7494384938216
 30
0.0
 10
387.8123060911648
 20
298.747964030945
 30
0.0
 10
387.8011243591217
 20
298.7460212487696
 30
0.0
 10
387.7955361735383
 20
298.7455493056931
 30
0.0
 10
387.7843667703795
 20
298.7455524274324
 30
0.0
 10
387.7787578162616
 20
298.7460327363054
 30
0.0
 10
387.7621263890111
 20
298.7489075590437
 30
0.0
 10
387.7516549506486
 20
298.752613944913
 30
0.0
 10
387.741795393859
 20
298.7580886147181
 30
0.0
  0
SPLINE
  5
1C8
330
1F
100
AcDbEntity
  8
1
100
AcDbSpline
210
0.0
220
0.0
230
1.0
 70
     8
 71
     3
 72
    15
 73
    11
 74
     0
 42
0.000000001
 43
0.0000000001
 40
0.0
 40
0.0
 40
0.0
 40
0.0
 40
0.4019193208404566
 40
0.4019193208404566
 40
0.5023991510505668
 40
0.5023991510505668
 40
0.6028789812606769
 40
0.6028789812606769
 40
0.8038386416808972
 40
1.0
 40
1.0
 40
1.0
 40
1.0
 10
385.4657798396731
 20
299.3343630249431
 30
0.0
 10
385.4557704439932
 20
299.3758166044207
 30
0.0
 10
385.450667684817
 20
299.4179029492872
 30
0.0
 10
385.450422229928
 20
299.4712932310705
 30
0.0
 10
385.4506862900646
 20
299.4820334997033
 30
0.0
 10
385.4518321177268
 20
299.5033522660573
 30
0.0
 10
385.4527124612642
 20
299.5139562383245
 30
0.0
 10
385.4562590269334
 20
299.5456048732216
 30
0.0
 10
385.4633117065335
 20
299.5868700351928
 30
0.0
 10
385.4750357575961
 20
299.6272925576154
 30
0.0
 10
385.4820041266166
 20
299.647047339803
 30
0.0
  0
SPLINE
  5
1C9
330
1F
100
AcDbEntity
  8
1
100
AcDbSpline
210
0.0
220
0.0
230
1.0
 70
     8
 71
     3
 72
    14
 73
    10
 74
     0
 42
0.000000001
 43
0.0000000001
 40
0.0
 40
0.0
 40
0.0
 40
0.0
 40
0.0078973668673636
 40
0.0078973668673636
 40
0.1732478057227872
 40
0.1732478057227872
 40
0.3385982445782109
 40
0.3385982445782109
 40
1.0
 40
1.0
 40
1.0
 40
1.0
 10
387.9592706164483
 20
298.9477545092877
 30
0.0
 10
387.9591005532245
 20
298.9472723931019
 30
0.0
 10
387.9589297906639
 20
298.9467904186342
 30
0.0
 10
387.9551683482056
 20
298.9362202565961
 30
0.0
 10
387.9512756670207
 20
298.9262150530617
 30
0.0
 10
387.9429793846043
 20
298.9065905763776
 30
0.0
 10
387.9385648089823
 20
298.8969393884074
 30
0.0
 10
387.9151839307162
 20
298.8494744394483
 30
0.0
 10
387.8923448063085
 20
298.8140022584137
 30
0.0
 10
387.8652649853269
 20
298.781101882534
 30
0.0
  0
SPLINE
  5
1CA
330
1F
100
AcDbEntity
  8
1
100
AcDbSpline
210
0.0
220
0.0
230
1.0
 70
     8
 71
     3
 72
    14
 73
    10
 74
     0
 42
0.000000001
 43
0.0000000001
 40
0.0
 40
0.0
 40
0.0
 40
0.0
 40
0.25
 40
0.25
 40
0.5
 40
0.5
 40
0.75
 40
0.75
 40
1.0
 40
1.0
 40
1.0
 40
1.0
 10
386.1085422751415
 20
300.2782661659538
 30
0.0
 10
386.112316007092
 20
300.2724394590534
 30
0.0
 10
386.1154546396493
 20
300.2662243682504
 30
0.0
 10
386.1203281976186
 20
300.2533103276418
 30
0.0
 10
386.1220562959978
 20
300.2466620460978
 30
0.0
 10
386.1240800295727
 20
300.2329755790712
 30
0.0
 10
386.1243560838266
 20
300.2259032734922
 30
0.0
 10
386.1233723852117
 20
300.2119780640012
 30
0.0
 10
386.1221329804147
 20
300.2050493354812
 30
0.0
 10
386.1200805874612
 20
300.1981546479649
 30
0.0
  0
LINE
  5
1EB
330
1F
100
AcDbEntity
  8
SK4
100
AcDbLine
 10
210.904842
 20
288.907994
 30
0.0
 11
277.404842
 21
288.907994
 31
0.0
  0
LINE
  5
1EC
330
1F
100
AcDbEntity
  8
4
100
AcDbLine
 10
268.203832
 20
288.907994
 30
0.0
 11
396.122647
 21
288.907994
 31
0.0
  0
MTEXT
  5
1F2
330
1F
100
AcDbEntity
  8
SK6
100
AcDbMText
 10
258.520787
 20
241.27662
 30
0.0
 40
3.5
 41
0.0
 71
     7
 72
     5
  1
\W0.7119;803D-31-93-S32
  7
cesky
 73
     2
 44
0.8433729999999998
  0
MTEXT
  5
303
330
1F
100
AcDbEntity
  8
2
100
AcDbMText
 10
330.327842
 20
327.385163
 30
0.0
 40
3.5
 41
0.0
 71
     7
 72
     5
  1
\W0.8488;118
  7
cesky
 73
     2
 44
0.8433729999999998
  0
LINE
  5
304
330
1F
100
AcDbEntity
  8
2
100
AcDbLine
 10
392.404842
 20
304.407994
 30
0.0
 11
392.404842
 21
328.5109970000001
 31
0.0
  0
LINE
  5
305
330
1F
100
AcDbEntity
  8
2
100
AcDbLine
 10
274.404842
 20
289.907567
 30
0.0
 11
274.404842
 21
328.5109970000001
 31
0.0
  0
LINE
  5
306
330
1F
100
AcDbEntity
  8
2
100
AcDbLine
 10
392.404842
 20
327.510997
 30
0.0
 11
274.404842
 21
327.510997
 31
0.0
  0
SOLID
  5
307
330
1F
100
AcDbEntity
  8
2
100
AcDbTrace
 10
392.404842
 20
327.510997
 30
0.0
 11
388.904844
 21
326.893852
 31
0.0
 12
388.90484
 22
328.128141
 32
0.0
 13
388.90484
 23
328.128141
 33
0.0
  0
SOLID
  5
308
330
1F
100
AcDbEntity
  8
2
100
AcDbTrace
 10
274.404842
 20
327.510997
 30
0.0
 11
277.90484
 21
328.128141
 31
0.0
 12
277.904844
 22
326.893852
 32
0.0
 13
277.904844
 23
326.893852
 33
0.0
  0
MTEXT
  5
309
330
1F
100
AcDbEntity
  8
2
100
AcDbMText
 10
406.263398
 20
287.041151
 30
0.0
 40
3.5
 41
0.0
 71
     7
 72
     5
  1
\W0.9581;31
  7
cesky
 11
0.0000000000000001
 21
1.0
 31
0.0
 73
     2
 44
0.8433729999999998
  0
MTEXT
  5
30A
330
1F
100
AcDbEntity
  8
2
100
AcDbMText
 10
406.263398
 20
280.303651
 30
0.0
 40
3.5
 41
0.0
 71
     7
 72
     5
  1
\W3.0115;\H2.63;%%c\H3.50;
  7
cesky
 11
0.0000000000000001
 21
1.0
 31
0.0
 73
     2
 44
0.8433729999999998
  0
LINE
  5
30B
330
1F
100
AcDbEntity
  8
2
100
AcDbLine
 10
394.404842
 20
304.407994
 30
0.0
 11
407.4508149999999
 21
304.407994
 31
0.0
  0
LINE
  5
30C
330
1F
100
AcDbEntity
  8
2
100
AcDbLine
 10
406.4508149999999
 20
304.407994
 30
0.0
 11
406.4508149999999
 21
280.146151
 31
0.0
  0
SOLID
  5
30D
330
1F
100
AcDbEntity
  8
2
100
AcDbTrace
 10
406.4508149999999
 20
304.407994
 30
0.0
 11
407.067959
 21
300.907996
 31
0.0
 12
405.83367
 22
300.907991
 32
0.0
 13
405.83367
 23
300.907991
 33
0.0
  0
MTEXT
  5
30E
330
1F
100
AcDbEntity
  8
2
100
AcDbMText
 10
300.327842
 20
340.562135
 30
0.0
 40
3.5
 41
0.0
 71
     7
 72
     5
  1
\W0.7809;178
  7
cesky
 73
     2
 44
0.8433729999999998
  0
LINE
  5
30F
330
1F
100
AcDbEntity
  8
2
100
AcDbLine
 10
392.404842
 20
306.407994
 30
0.0
 11
392.404842
 21
341.687968
 31
0.0
  0
LINE
  5
310
330
1F
100
AcDbEntity
  8
2
100
AcDbLine
 10
214.404842
 20
302.907994
 30
0.0
 11
214.404842
 21
341.687968
 31
0.0
  0
LINE
  5
311
330
1F
100
AcDbEntity
  8
2
100
AcDbLine
 10
392.404842
 20
340.687968
 30
0.0
 11
214.404842
 21
340.687968
 31
0.0
  0
SOLID
  5
312
330
1F
100
AcDbEntity
  8
2
100
AcDbTrace
 10
392.404842
 20
340.687968
 30
0.0
 11
388.904844
 21
340.070823
 31
0.0
 12
388.90484
 22
341.305112
 32
0.0
 13
388.90484
 23
341.305112
 33
0.0
  0
SOLID
  5
313
330
1F
100
AcDbEntity
  8
2
100
AcDbTrace
 10
214.404842
 20
340.687968
 30
0.0
 11
217.90484
 21
341.305112
 31
0.0
 12
217.904844
 22
340.070823
 32
0.0
 13
217.904844
 23
340.070823
 33
0.0
  0
MTEXT
  5
314
330
1F
100
AcDbEntity
  8
2
100
AcDbMText
 10
242.590342
 20
327.385163
 30
0.0
 40
3.5
 41
0.0
 71
     7
 72
     5
  1
\W0.7045;60
  7
cesky
 73
     2
 44
0.8433729999999998
  0
LINE
  5
315
330
1F
100
AcDbEntity
  8
2
100
AcDbLine
 10
274.404842
 20
288.907994
 30
0.0
 11
274.404842
 21
328.5109970000001
 31
0.0
  0
LINE
  5
316
330
1F
100
AcDbEntity
  8
2
100
AcDbLine
 10
214.404842
 20
302.907994
 30
0.0
 11
214.404842
 21
328.5109970000001
 31
0.0
  0
LINE
  5
317
330
1F
100
AcDbEntity
  8
2
100
AcDbLine
 10
274.404842
 20
327.510997
 30
0.0
 11
214.404842
 21
327.510997
 31
0.0
  0
SOLID
  5
318
330
1F
100
AcDbEntity
  8
2
100
AcDbTrace
 10
274.404842
 20
327.510997
 30
0.0
 11
270.904844
 21
326.893852
 31
0.0
 12
270.90484
 22
328.128141
 32
0.0
 13
270.90484
 23
328.128141
 33
0.0
  0
SOLID
  5
319
330
1F
100
AcDbEntity
  8
2
100
AcDbTrace
 10
214.404842
 20
327.510997
 30
0.0
 11
217.90484
 21
328.128141
 31
0.0
 12
217.904844
 22
326.893852
 32
0.0
 13
217.904844
 23
326.893852
 33
0.0
  0
MTEXT
  5
31A
330
1F
100
AcDbEntity
  8
2
100
AcDbMText
 10
337.827122
 20
316.149515
 30
0.0
 40
3.5
 41
0.0
 71
     7
 72
     5
  1
\W0.7809;103
  7
cesky
 73
     2
 44
0.8433729999999998
  0
LINE
  5
31B
330
1F
100
AcDbEntity
  8
2
100
AcDbLine
 10
392.404842
 20
306.407994
 30
0.0
 11
392.404842
 21
317.275348
 31
0.0
  0
LINE
  5
31C
330
1F
100
AcDbEntity
  8
2
100
AcDbLine
 10
289.403402
 20
304.591229
 30
0.0
 11
289.403402
 21
317.275348
 31
0.0
  0
LINE
  5
31D
330
1F
100
AcDbEntity
  8
2
100
AcDbLine
 10
392.404842
 20
316.275348
 30
0.0
 11
289.403402
 21
316.275348
 31
0.0
  0
SOLID
  5
31E
330
1F
100
AcDbEntity
  8
2
100
AcDbTrace
 10
392.404842
 20
316.275348
 30
0.0
 11
388.904844
 21
315.658204
 31
0.0
 12
388.90484
 22
316.892492
 32
0.0
 13
388.90484
 23
316.892492
 33
0.0
  0
SOLID
  5
31F
330
1F
100
AcDbEntity
  8
2
100
AcDbTrace
 10
289.403402
 20
316.275348
 30
0.0
 11
292.9034
 21
316.892492
 31
0.0
 12
292.903404
 22
315.658204
 32
0.0
 13
292.903404
 23
315.658204
 33
0.0
  0
MTEXT
  5
320
330
1F
100
AcDbEntity
  8
SK2
100
AcDbMText
 10
205.691127
 20
290.434244
 30
0.0
 40
3.5
 41
0.0
 71
     7
 72
     5
  1
\W0.7045;32
  7
cesky
 11
0.0000000000000001
 21
1.0
 31
0.0
 73
     2
 44
0.8433729999999998
  0
MTEXT
  5
321
330
1F
100
AcDbEntity
  8
SK2
100
AcDbMText
 10
205.691127
 20
283.696744
 30
0.0
 40
3.5
 41
0.0
 71
     7
 72
     5
  1
\W3.0115;\H2.63;%%c\H3.50;
  7
cesky
 11
0.0000000000000001
 21
1.0
 31
0.0
 73
     2
 44
0.8433729999999998
  0
LINE
  5
322
330
1F
100
AcDbEntity
  8
SK2
100
AcDbLine
 10
216.404842
 20
304.907994
 30
0.0
 11
204.878544
 21
304.907994
 31
0.0
  0
LINE
  5
323
330
1F
100
AcDbEntity
  8
SK2
100
AcDbLine
 10
216.404842
 20
272.907994
 30
0.0
 11
204.878544
 21
272.907994
 31
0.0
  0
LINE
  5
324
330
1F
100
AcDbEntity
  8
SK2
100
AcDbLine
 10
205.878544
 20
304.907994
 30
0.0
 11
205.878544
 21
272.907994
 31
0.0
  0
SOLID
  5
325
330
1F
100
AcDbEntity
  8
SK2
100
AcDbTrace
 10
205.878544
 20
304.907994
 30
0.0
 11
206.495689
 21
301.407996
 31
0.0
 12
205.2614
 22
301.407991
 32
0.0
 13
205.2614
 23
301.407991
 33
0.0
  0
SOLID
  5
326
330
1F
100
AcDbEntity
  8
SK2
100
AcDbTrace
 10
205.878544
 20
272.907994
 30
0.0
 11
205.2614
 21
276.407991
 31
0.0
 12
206.495689
 22
276.407996
 32
0.0
 13
206.495689
 23
276.407996
 33
0.0
  0
MTEXT
  5
327
330
1F
100
AcDbEntity
  8
SK2
100
AcDbMText
 10
193.332501
 20
290.434244
 30
0.0
 40
3.5
 41
0.0
 71
     7
 72
     5
  1
\W0.7045;42
  7
cesky
 11
0.0000000000000001
 21
1.0
 31
0.0
 73
     2
 44
0.8433729999999998
  0
MTEXT
  5
328
330
1F
100
AcDbEntity
  8
SK2
100
AcDbMText
 10
193.332501
 20
283.696744
 30
0.0
 40
3.5
 41
0.0
 71
     7
 72
     5
  1
\W3.0115;\H2.63;%%c\H3.50;
  7
cesky
 11
0.0000000000000001
 21
1.0
 31
0.0
 73
     2
 44
0.8433729999999998
  0
LINE
  5
329
330
1F
100
AcDbEntity
  8
SK2
100
AcDbLine
 10
274.904842
 20
309.907994
 30
0.0
 11
192.519918
 21
309.907994
 31
0.0
  0
LINE
  5
32A
330
1F
100
AcDbEntity
  8
SK2
100
AcDbLine
 10
274.904842
 20
267.907994
 30
0.0
 11
192.519918
 21
267.907994
 31
0.0
  0
LINE
  5
32B
330
1F
100
AcDbEntity
  8
SK2
100
AcDbLine
 10
193.519918
 20
309.907994
 30
0.0
 11
193.519918
 21
267.907994
 31
0.0
  0
SOLID
  5
32C
330
1F
100
AcDbEntity
  8
SK2
100
AcDbTrace
 10
193.519918
 20
309.907994
 30
0.0
 11
194.137062
 21
306.407996
 31
0.0
 12
192.902773
 22
306.407991
 32
0.0
 13
192.902773
 23
306.407991
 33
0.0
  0
SOLID
  5
32D
330
1F
100
AcDbEntity
  8
SK2
100
AcDbTrace
 10
193.519918
 20
267.907994
 30
0.0
 11
192.902773
 21
271.4079910000001
 31
0.0
 12
194.137062
 22
271.407996
 32
0.0
 13
194.137062
 23
271.407996
 33
0.0
  0
LINE
  5
32E
330
1F
100
AcDbEntity
  8
CUT
100
AcDbLine
 10
382.7071017242026
 20
304.1115452616213
 30
0.0
 11
390.6798303725917
 21
304.4045624945571
 31
0.0
  0
LINE
  5
32F
330
1F
100
AcDbEntity
  8
CUT
100
AcDbLine
 10
391.7224435672882
 20
296.9100441811396
 30
0.0
 11
392.2974360653503
 21
295.9531808399667
 31
0.0
  0
LINE
  5
330
330
1F
100
AcDbEntity
  8
CUT
100
AcDbLine
 10
392.2974360653503
 20
295.9531808399667
 30
0.0
 11
392.4048419452958
 21
289.8047852295759
 31
0.0
  0
LINE
  5
333
330
1F
100
AcDbEntity
  8
CUT
100
AcDbLine
 10
391.4798350269057
 20
303.66218217725
 30
0.0
 11
391.7224435672882
 21
296.9100441811396
 31
0.0
  0
LINE
  5
334
330
1F
100
AcDbEntity
  8
CUT
100
AcDbLine
 10
392.404842
 20
288.907994
 30
0.0
 11
381.9623759999999
 21
288.907994
 31
0.0
  0
LINE
  5
335
330
1F
100
AcDbEntity
  8
CUT
100
AcDbLine
 10
381.9623759999999
 20
288.907994
 30
0.0
 11
381.9623759999999
 21
303.311938
 31
0.0
  0
LINE
  5
336
330
1F
100
AcDbEntity
  8
CUT
100
AcDbLine
 10
392.404842
 20
289.804785
 30
0.0
 11
392.404842
 21
288.907994
 31
0.0
  0
ARC
  5
337
330
1F
100
AcDbEntity
  8
CUT
100
AcDbCircle
 10
390.7003515617489
 20
303.623821077558
 30
0.0
 40
0.7810110622918062
100
AcDbArc
 50
6.969160511071237
 51
91.50562894403449
  0
ARC
  5
338
330
1F
100
AcDbEntity
  8
CUT
100
AcDbCircle
 10
390.7581714399749
 20
303.6362572354723
 30
0.0
 40
0.7221290987821939
100
AcDbArc
 50
2.05740083368215
 51
6.546362859741691
  0
ARC
  5
339
330
1F
100
AcDbEntity
  8
CUT
100
AcDbCircle
 10
382.7446305561204
 20
303.3303313598802
 30
0.0
 40
0.7824707093137299
100
AcDbArc
 50
95.51515483686882
 51
181.346984223454
  0
ARC
  5
33A
330
1F
100
AcDbEntity
  8
CUT
100
AcDbCircle
 10
382.7336781355194
 20
303.3870656913295
 30
0.0
 40
0.7249668636625183
100
AcDbArc
 50
92.10086493677511
 51
95.0845009166359
  0
ENDSEC
  0
SECTION
  2
OBJECTS
  0
DICTIONARY
  5
C
330
0
100
AcDbDictionary
281
     1
  3
ACAD_CIP_PREVIOUS_PRODUCT_INFO
350
300
  3
ACAD_COLOR
350
2FB
  3
ACAD_DETAILVIEWSTYLE
350
2F7
  3
ACAD_GROUP
350
D
  3
ACAD_LAYOUT
350
1A
  3
ACAD_MATERIAL
350
43
  3
ACAD_MLEADERSTYLE
350
6B
  3
ACAD_MLINESTYLE
350
17
  3
ACAD_PLOTSETTINGS
350
19
  3
ACAD_PLOTSTYLENAME
350
E
  3
ACAD_SCALELIST
350
47
  3
ACAD_SECTIONVIEWSTYLE
350
2F8
  3
ACAD_TABLESTYLE
350
69
  3
ACAD_VISUALSTYLE
350
2A
  3
ACDB_RECOMPOSE_DATA
350
366
  3
AcDbVariableDictionary
350
2B4
  0
DICTIONARY
  5
349
330
10
100
AcDbDictionary
280
     1
281
     1
  3
ADSK_XREC_LAYER_RECONCILED
360
34A
  0
DICTIONARY
  5
34B
330
33B
100
AcDbDictionary
280
     1
281
     1
  3
ADSK_XREC_LAYER_RECONCILED
360
34C
  0
DICTIONARY
  5
34D
330
33C
100
AcDbDictionary
280
     1
281
     1
  3
ADSK_XREC_LAYER_RECONCILED
360
34E
  0
DICTIONARY
  5
34F
330
33D
100
AcDbDictionary
280
     1
281
     1
  3
ADSK_XREC_LAYER_RECONCILED
360
350
  0
DICTIONARY
  5
351
330
33F
100
AcDbDictionary
280
     1
281
     1
  3
ADSK_XREC_LAYER_RECONCILED
360
352
  0
DICTIONARY
  5
353
330
340
100
AcDbDictionary
280
     1
281
     1
  3
ADSK_XREC_LAYER_RECONCILED
360
354
  0
DICTIONARY
  5
355
330
342
100
AcDbDictionary
280
     1
281
     1
  3
ADSK_XREC_LAYER_RECONCILED
360
356
  0
DICTIONARY
  5
357
330
343
100
AcDbDictionary
280
     1
281
     1
  3
ADSK_XREC_LAYER_RECONCILED
360
358
  0
DICTIONARY
  5
359
330
344
100
AcDbDictionary
280
     1
281
     1
  3
ADSK_XREC_LAYER_RECONCILED
360
35A
  0
DICTIONARY
  5
35B
330
345
100
AcDbDictionary
280
     1
281
     1
  3
ADSK_XREC_LAYER_RECONCILED
360
35C
  0
DICTIONARY
  5
35D
330
346
100
AcDbDictionary
280
     1
281
     1
  3
ADSK_XREC_LAYER_RECONCILED
360
35E
  0
DICTIONARY
  5
35F
330
347
100
AcDbDictionary
280
     1
281
     1
  3
ADSK_XREC_LAYER_RECONCILED
360
360
  0
DICTIONARY
  5
301
330
1F
100
AcDbDictionary
280
     1
281
     1
  3
ACAD_SORTENTS
360
302
  0
XRECORD
  5
300
102
{ACAD_REACTORS
330
C
102
}
330
C
100
AcDbXrecord
280
     1
300
ACD
300
2019
300
87084ACD_2019_0F
  0
DICTIONARY
  5
2FB
102
{ACAD_REACTORS
330
C
102
}
330
C
100
AcDbDictionary
281
     1
  0
DICTIONARY
  5
2F7
102
{ACAD_REACTORS
330
C
102
}
330
C
100
AcDbDictionary
281
     1
  3
Metric50
350
2FD
  0
DICTIONARY
  5
D
102
{ACAD_REACTORS
330
C
102
}
330
C
100
AcDbDictionary
281
     1
  3
NULOVY_BOD
350
348
  0
DICTIONARY
  5
1A
102
{ACAD_REACTORS
330
C
102
}
330
C
100
AcDbDictionary
281
     1
  3
Layout1
350
1E
  3
Layout2
350
26
  3
Model
350
22
  0
DICTIONARY
  5
43
102
{ACAD_REACTORS
330
C
102
}
330
C
100
AcDbDictionary
281
     1
  3
ByBlock
350
45
  3
ByLayer
350
44
  3
Global
350
46
  0
DICTIONARY
  5
6B
102
{ACAD_REACTORS
330
C
102
}
330
C
100
AcDbDictionary
281
     1
  3
Standard
350
6C
  0
DICTIONARY
  5
17
102
{ACAD_REACTORS
330
C
102
}
330
C
100
AcDbDictionary
281
     1
  3
Standard
350
18
  0
DICTIONARY
  5
19
102
{ACAD_REACTORS
330
C
102
}
330
C
100
AcDbDictionary
281
     1
  0
ACDBDICTIONARYWDFLT
  5
E
102
{ACAD_REACTORS
330
C
102
}
330
C
100
AcDbDictionary
281
     1
  3
Normal
350
F
100
AcDbDictionaryWithDefault
340
F
  0
DICTIONARY
  5
47
102
{ACAD_REACTORS
330
C
102
}
330
C
100
AcDbDictionary
281
     1
  3
A0
350
48
  3
A1
350
49
  3
A2
350
4A
  3
A3
350
4B
  3
A4
350
4C
  3
A5
350
4D
  3
A6
350
4E
  3
A7
350
4F
  3
A8
350
50
  3
A9
350
51
  3
B0
350
52
  3
B1
350
53
  3
B2
350
54
  3
B3
350
55
  3
B4
350
56
  3
B5
350
57
  3
B6
350
58
  3
B7
350
59
  3
B8
350
5A
  3
B9
350
5B
  3
C0
350
5C
  3
C1
350
5D
  3
C2
350
5E
  3
C3
350
5F
  3
C4
350
60
  3
C5
350
61
  3
C6
350
62
  3
C7
350
63
  3
C8
350
64
  3
C9
350
65
  3
D0
350
66
  3
D1
350
67
  3
D2
350
68
  0
DICTIONARY
  5
2F8
102
{ACAD_REACTORS
330
C
102
}
330
C
100
AcDbDictionary
281
     1
  3
Metric50
350
2FC
  0
DICTIONARY
  5
69
102
{ACAD_REACTORS
330
C
102
}
330
C
100
AcDbDictionary
281
     1
  3
Standard
350
6A
  0
DICTIONARY
  5
2A
102
{ACAD_REACTORS
330
C
102
}
330
C
100
AcDbDictionary
281
     1
  3
2dWireframe
350
2F
  3
Basic
350
32
  3
Brighten
350
36
  3
ColorChange
350
3A
  3
Conceptual
350
34
  3
Dim
350
35
  3
EdgeColorOff
350
3D
  3
Facepattern
350
39
  3
Flat
350
2B
  3
FlatWithEdges
350
2C
  3
Gouraud
350
2D
  3
GouraudWithEdges
350
2E
  3
Hidden
350
31
  3
JitterOff
350
3B
  3
Linepattern
350
38
  3
OverhangOff
350
3C
  3
Realistic
350
33
  3
Shaded
350
42
  3
Shaded with edges
350
41
  3
Shades of Gray
350
3E
  3
Sketchy
350
3F
  3
Thicken
350
37
  3
Wireframe
350
30
  3
X-Ray
350
40
  0
XRECORD
  5
366
102
{ACAD_REACTORS
330
C
102
}
330
C
100
AcDbXrecord
280
     1
 90
        1
330
6A
  0
DICTIONARY
  5
2B4
102
{ACAD_REACTORS
330
C
102
}
330
C
100
AcDbDictionary
281
     1
  3
CANNOSCALE
350
2B5
  3
CMLEADERSTYLE
350
2F6
  3
CTABLESTYLE
350
2F5
  3
CVIEWDETAILSTYLE
350
361
  3
CVIEWSECTIONSTYLE
350
362
  3
MSLTSCALE
350
2B6
  3
XCLIPFRAME
350
363
  0
XRECORD
  5
34A
102
{ACAD_REACTORS
330
349
102
}
330
349
100
AcDbXrecord
280
     1
290
     1
  0
XRECORD
  5
34C
102
{ACAD_REACTORS
330
34B
102
}
330
34B
100
AcDbXrecord
280
     1
290
     1
  0
XRECORD
  5
34E
102
{ACAD_REACTORS
330
34D
102
}
330
34D
100
AcDbXrecord
280
     1
290
     1
  0
XRECORD
  5
350
102
{ACAD_REACTORS
330
34F
102
}
330
34F
100
AcDbXrecord
280
     1
290
     1
  0
XRECORD
  5
352
102
{ACAD_REACTORS
330
351
102
}
330
351
100
AcDbXrecord
280
     1
290
     1
  0
XRECORD
  5
354
102
{ACAD_REACTORS
330
353
102
}
330
353
100
AcDbXrecord
280
     1
290
     1
  0
XRECORD
  5
356
102
{ACAD_REACTORS
330
355
102
}
330
355
100
AcDbXrecord
280
     1
290
     1
  0
XRECORD
  5
358
102
{ACAD_REACTORS
330
357
102
}
330
357
100
AcDbXrecord
280
     1
290
     1
  0
XRECORD
  5
35A
102
{ACAD_REACTORS
330
359
102
}
330
359
100
AcDbXrecord
280
     1
290
     1
  0
XRECORD
  5
35C
102
{ACAD_REACTORS
330
35B
102
}
330
35B
100
AcDbXrecord
280
     1
290
     1
  0
XRECORD
  5
35E
102
{ACAD_REACTORS
330
35D
102
}
330
35D
100
AcDbXrecord
280
     1
290
     1
  0
XRECORD
  5
360
102
{ACAD_REACTORS
330
35F
102
}
330
35F
100
AcDbXrecord
280
     1
290
     1
  0
SORTENTSTABLE
  5
302
102
{ACAD_REACTORS
330
301
102
}
330
301
100
AcDbSortentsTable
330
1F
331
303
  5
226
331
304
  5
23F
331
305
  5
303
331
306
  5
304
331
307
  5
305
331
308
  5
306
331
309
  5
307
331
30A
  5
308
331
30B
  5
309
331
30C
  5
30A
331
30D
  5
30B
331
30E
  5
31C
331
30F
  5
31D
331
310
  5
31E
331
311
  5
31F
331
312
  5
320
331
313
  5
321
331
314
  5
322
331
315
  5
323
331
316
  5
324
331
317
  5
325
331
318
  5
326
331
319
  5
327
331
31A
  5
328
331
31B
  5
329
331
31C
  5
32A
331
31D
  5
32B
331
31E
  5
32C
331
31F
  5
32D
331
320
  5
30E
331
321
  5
30F
331
322
  5
310
331
323
  5
311
331
324
  5
312
331
325
  5
313
331
326
  5
314
331
327
  5
315
331
328
  5
316
331
329
  5
317
331
32A
  5
318
331
32B
  5
319
331
32C
  5
31A
331
32D
  5
31B
331
333
  5
337
331
334
  5
338
331
335
  5
339
331
336
  5
33A
331
337
  5
333
331
338
  5
334
331
339
  5
335
331
33A
  5
336
  0
ACDBDETAILVIEWSTYLE
  5
2FD
102
{ACAD_XDICTIONARY
360
39A
102
}
102
{ACAD_REACTORS
330
2F7
102
}
330
2F7
100
AcDbModelDocViewStyle
 70
     0
  3
Metric50
290
     0
100
AcDbDetailViewStyle
 70
     0
 71
     0
 90
        3
 71
     1
340
11
 62
   256
 40
5.0
340
0
 62
   256
 40
5.0
300

 40
0.0
280
     1
 71
     2
340
16
 90
       25
 62
   256
 71
     3
340
11
 62
   256
 40
5.0
 90
        0
 40
15.0
 90
        1
300
%<\AcVar ViewDetailId>% (%<\AcVar ViewScale \f "%sn">%)
 71
     4
340
16
 90
       25
 62
   256
340
16
 90
       25
 62
   256
280
     0
  0
GROUP
  5
348
102
{ACAD_REACTORS
330
D
102
}
330
D
100
AcDbGroup
300

 70
     0
 71
     1
340
73
  0
LAYOUT
  5
1E
102
{ACAD_REACTORS
330
1A
102
}
330
1A
100
AcDbPlotSettings
  1

  2
none_device
  4

  6

 40
0.0
 41
0.0
 42
0.0
 43
0.0
 44
0.0
 45
0.0
 46
0.0
 47
0.0
 48
0.0
 49
0.0
140
0.0
141
0.0
142
1.0
143
1.0
 70
   688
 72
     0
 73
     0
 74
     5
  7

 75
    16
147
1.0
 76
     0
 77
     2
 78
   300
148
0.0
149
0.0
100
AcDbLayout
  1
Layout1
 70
     1
 71
     1
 10
-0.5
 20
-0.5
 11
5.0
 21
5.0
 12
0.0
 22
0.0
 32
0.0
 14
-0.5
 24
-0.5
 34
-0.5
 15
5.0
 25
5.0
 35
5.0
146
0.0
 13
0.0
 23
0.0
 33
0.0
 16
1.0
 26
0.0
 36
0.0
 17
0.0
 27
1.0
 37
0.0
 76
     0
330
1B
  0
LAYOUT
  5
26
102
{ACAD_REACTORS
330
1A
102
}
330
1A
100
AcDbPlotSettings
  1

  2
none_device
  4

  6

 40
0.0
 41
0.0
 42
0.0
 43
0.0
 44
0.0
 45
0.0
 46
0.0
 47
0.0
 48
0.0
 49
0.0
140
0.0
141
0.0
142
1.0
143
1.0
 70
   688
 72
     0
 73
     0
 74
     5
  7

 75
    16
147
1.0
 76
     0
 77
     2
 78
   300
148
0.0
149
0.0
100
AcDbLayout
  1
Layout2
 70
     1
 71
     2
 10
0.0
 20
0.0
 11
0.0
 21
0.0
 12
0.0
 22
0.0
 32
0.0
 14
0.0
 24
0.0
 34
0.0
 15
0.0
 25
0.0
 35
0.0
146
0.0
 13
0.0
 23
0.0
 33
0.0
 16
1.0
 26
0.0
 36
0.0
 17
0.0
 27
1.0
 37
0.0
 76
     0
330
23
  0
LAYOUT
  5
22
102
{ACAD_REACTORS
330
1A
102
}
330
1A
100
AcDbPlotSettings
  1

  2
none_device
  4
Letter_(8.50_x_11.00_Inches)
  6

 40
6.349999999999999
 41
6.349999999999999
 42
6.350005
 43
6.350005
 44
215.9
 45
279.4
 46
0.0
 47
0.0
 48
0.0
 49
0.0
140
0.0
141
0.0
142
1.0
143
1.0
 70
  1712
 72
     0
 73
     0
 74
     0
  7

 75
     0
147
1.0
 76
     0
 77
     2
 78
   300
148
0.0
149
0.0
100
AcDbLayout
  1
Model
 70
     1
 71
     0
 10
-0.5
 20
-0.5
 11
5.0
 21
5.0
 12
0.0
 22
0.0
 32
0.0
 14
-0.5
 24
-0.5
 34
-0.5
 15
5.0
 25
5.0
 35
5.0
146
0.0
 13
0.0
 23
0.0
 33
0.0
 16
1.0
 26
0.0
 36
0.0
 17
0.0
 27
1.0
 37
0.0
 76
     0
330
1F
331
29
  0
MATERIAL
  5
45
102
{ACAD_XDICTIONARY
360
2EA
102
}
102
{ACAD_REACTORS
330
43
102
}
330
43
100
AcDbMaterial
  1
ByBlock
  0
MATERIAL
  5
44
102
{ACAD_XDICTIONARY
360
2E8
102
}
102
{ACAD_REACTORS
330
43
102
}
330
43
100
AcDbMaterial
  1
ByLayer
  0
MATERIAL
  5
46
102
{ACAD_XDICTIONARY
360
2EC
102
}
102
{ACAD_REACTORS
330
43
102
}
330
43
100
AcDbMaterial
  1
Global
  0
MLEADERSTYLE
  5
6C
102
{ACAD_REACTORS
330
6B
102
}
330
6B
100
AcDbMLeaderStyle
170
     2
171
     1
172
     0
 90
        2
 40
0.0
 41
0.0
173
     1
 91
-1056964608
340
14
 92
       -2
290
     1
 42
0.09
291
     1
 43
0.36
  3
Standard
 44
0.18
300

342
11
174
     1
178
     6
175
     1
176
     0
 93
-1056964608
 45
0.18
292
     0
297
     0
 46
0.18
 94
-1056964608
 47
1.0
 49
1.0
140
1.0
293
     1
141
0.0
294
     1
177
     0
142
1.0
295
     0
296
     0
143
0.125
1001
ACAD_MLEADERVER
1070
     2
  0
MLINESTYLE
  5
18
102
{ACAD_REACTORS
330
17
102
}
330
17
100
AcDbMlineStyle
  2
STANDARD
 70
     0
  3

 62
   256
 51
90.0
 52
90.0
 71
     2
 49
0.5
 62
   256
  6
BYLAYER
 49
-0.5
 62
   256
  6
BYLAYER
  0
ACDBPLACEHOLDER
  5
F
102
{ACAD_REACTORS
330
E
102
}
330
E
  0
SCALE
  5
48
102
{ACAD_REACTORS
330
47
102
}
330
47
100
AcDbScale
 70
     0
300
1:1
140
1.0
141
1.0
290
     1
  0
SCALE
  5
49
102
{ACAD_REACTORS
330
47
102
}
330
47
100
AcDbScale
 70
     0
300
1:2
140
1.0
141
2.0
290
     0
  0
SCALE
  5
4A
102
{ACAD_REACTORS
330
47
102
}
330
47
100
AcDbScale
 70
     0
300
1:4
140
1.0
141
4.0
290
     0
  0
SCALE
  5
4B
102
{ACAD_REACTORS
330
47
102
}
330
47
100
AcDbScale
 70
     0
300
1:5
140
1.0
141
5.0
290
     0
  0
SCALE
  5
4C
102
{ACAD_REACTORS
330
47
102
}
330
47
100
AcDbScale
 70
     0
300
1:8
140
1.0
141
8.0
290
     0
  0
SCALE
  5
4D
102
{ACAD_REACTORS
330
47
102
}
330
47
100
AcDbScale
 70
     0
300
1:10
140
1.0
141
10.0
290
     0
  0
SCALE
  5
4E
102
{ACAD_REACTORS
330
47
102
}
330
47
100
AcDbScale
 70
     0
300
1:16
140
1.0
141
16.0
290
     0
  0
SCALE
  5
4F
102
{ACAD_REACTORS
330
47
102
}
330
47
100
AcDbScale
 70
     0
300
1:20
140
1.0
141
20.0
290
     0
  0
SCALE
  5
50
102
{ACAD_REACTORS
330
47
102
}
330
47
100
AcDbScale
 70
     0
300
1:30
140
1.0
141
30.0
290
     0
  0
SCALE
  5
51
102
{ACAD_REACTORS
330
47
102
}
330
47
100
AcDbScale
 70
     0
300
1:40
140
1.0
141
40.0
290
     0
  0
SCALE
  5
52
102
{ACAD_REACTORS
330
47
102
}
330
47
100
AcDbScale
 70
     0
300
1:50
140
1.0
141
50.0
290
     0
  0
SCALE
  5
53
102
{ACAD_REACTORS
330
47
102
}
330
47
100
AcDbScale
 70
     0
300
1:100
140
1.0
141
100.0
290
     0
  0
SCALE
  5
54
102
{ACAD_REACTORS
330
47
102
}
330
47
100
AcDbScale
 70
     0
300
2:1
140
2.0
141
1.0
290
     0
  0
SCALE
  5
55
102
{ACAD_REACTORS
330
47
102
}
330
47
100
AcDbScale
 70
     0
300
4:1
140
4.0
141
1.0
290
     0
  0
SCALE
  5
56
102
{ACAD_REACTORS
330
47
102
}
330
47
100
AcDbScale
 70
     0
300
8:1
140
8.0
141
1.0
290
     0
  0
SCALE
  5
57
102
{ACAD_REACTORS
330
47
102
}
330
47
100
AcDbScale
 70
     0
300
10:1
140
10.0
141
1.0
290
     0
  0
SCALE
  5
58
102
{ACAD_REACTORS
330
47
102
}
330
47
100
AcDbScale
 70
     0
300
100:1
140
100.0
141
1.0
290
     0
  0
SCALE
  5
59
102
{ACAD_REACTORS
330
47
102
}
330
47
100
AcDbScale
 70
     0
300
1/128" = 1'-0"
140
0.007812
141
12.0
290
     0
  0
SCALE
  5
5A
102
{ACAD_REACTORS
330
47
102
}
330
47
100
AcDbScale
 70
     0
300
1/64" = 1'-0"
140
0.015625
141
12.0
290
     0
  0
SCALE
  5
5B
102
{ACAD_REACTORS
330
47
102
}
330
47
100
AcDbScale
 70
     0
300
1/32" = 1'-0"
140
0.03125
141
12.0
290
     0
  0
SCALE
  5
5C
102
{ACAD_REACTORS
330
47
102
}
330
47
100
AcDbScale
 70
     0
300
1/16" = 1'-0"
140
0.0625
141
12.0
290
     0
  0
SCALE
  5
5D
102
{ACAD_REACTORS
330
47
102
}
330
47
100
AcDbScale
 70
     0
300
3/32" = 1'-0"
140
0.09375
141
12.0
290
     0
  0
SCALE
  5
5E
102
{ACAD_REACTORS
330
47
102
}
330
47
100
AcDbScale
 70
     0
300
1/8" = 1'-0"
140
0.125
141
12.0
290
     0
  0
SCALE
  5
5F
102
{ACAD_REACTORS
330
47
102
}
330
47
100
AcDbScale
 70
     0
300
3/16" = 1'-0"
140
0.1875
141
12.0
290
     0
  0
SCALE
  5
60
102
{ACAD_REACTORS
330
47
102
}
330
47
100
AcDbScale
 70
     0
300
1/4" = 1'-0"
140
0.25
141
12.0
290
     0
  0
SCALE
  5
61
102
{ACAD_REACTORS
330
47
102
}
330
47
100
AcDbScale
 70
     0
300
3/8" = 1'-0"
140
0.375
141
12.0
290
     0
  0
SCALE
  5
62
102
{ACAD_REACTORS
330
47
102
}
330
47
100
AcDbScale
 70
     0
300
1/2" = 1'-0"
140
0.5
141
12.0
290
     0
  0
SCALE
  5
63
102
{ACAD_REACTORS
330
47
102
}
330
47
100
AcDbScale
 70
     0
300
3/4" = 1'-0"
140
0.75
141
12.0
290
     0
  0
SCALE
  5
64
102
{ACAD_REACTORS
330
47
102
}
330
47
100
AcDbScale
 70
     0
300
1" = 1'-0"
140
1.0
141
12.0
290
     0
  0
SCALE
  5
65
102
{ACAD_REACTORS
330
47
102
}
330
47
100
AcDbScale
 70
     0
300
1-1/2" = 1'-0"
140
1.5
141
12.0
290
     0
  0
SCALE
  5
66
102
{ACAD_REACTORS
330
47
102
}
330
47
100
AcDbScale
 70
     0
300
3" = 1'-0"
140
3.0
141
12.0
290
     0
  0
SCALE
  5
67
102
{ACAD_REACTORS
330
47
102
}
330
47
100
AcDbScale
 70
     0
300
6" = 1'-0"
140
6.0
141
12.0
290
     0
  0
SCALE
  5
68
102
{ACAD_REACTORS
330
47
102
}
330
47
100
AcDbScale
 70
     0
300
1'-0" = 1'-0"
140
12.0
141
12.0
290
     0
  0
ACDBSECTIONVIEWSTYLE
  5
2FC
102
{ACAD_XDICTIONARY
360
398
102
}
102
{ACAD_REACTORS
330
2F8
102
}
330
2F8
100
AcDbModelDocViewStyle
 70
     0
  3
Metric50
290
     0
100
AcDbSectionViewStyle
 70
     0
 71
     0
 90
      102
 71
     1
340
11
 62
   256
 40
5.0
340
0
340
0
 62
   256
 40
5.0
300
I, O, Q, S, X, Z
 40
10.0
 90
        0
 40
2.5
 90
        0
 71
     2
340
16
 90
       25
 62
   256
340
16
 90
       50
 62
   256
 40
5.0
 40
2.5
 40
5.0
 71
     3
340
11
 62
   256
 40
5.0
 90
        0
 40
15.0
 90
        1
300
%<\AcVar ViewSectionStartId>%-%<\AcVar ViewSectionEndId>% (%<\AcVar ViewScale \f "%sn">%)
 71
     4
 62
   256
 62
   257
300
ANSI31
 40
1.0
 90
        0
290
     0
290
     0
 90
        6
 40
0.0
 40
1.570796326794896
 40
0.2617993877991494
 40
1.308996938995747
 40
-0.2617993877991494
 40
1.832595714594046
  0
TABLESTYLE
  5
6A
102
{ACAD_XDICTIONARY
360
2EE
102
}
102
{ACAD_REACTORS
330
69
102
}
330
69
100
AcDbTableStyle
  3
Standard
 70
     0
 71
     0
 40
0.06
 41
0.06
280
     0
281
     0
  7
Standard
140
0.18
170
     2
 62
     0
 63
     7
283
     0
274
    -2
284
     1
 64
     0
275
    -2
285
     1
 65
     0
276
    -2
286
     1
 66
     0
277
    -2
287
     1
 67
     0
278
    -2
288
     1
 68
     0
279
    -2
289
     1
 69
     0
  7
Standard
140
0.25
170
     5
 62
     0
 63
     7
283
     0
274
    -2
284
     1
 64
     0
275
    -2
285
     1
 65
     0
276
    -2
286
     1
 66
     0
277
    -2
287
     1
 67
     0
278
    -2
288
     1
 68
     0
279
    -2
289
     1
 69
     0
  7
Standard
140
0.18
170
     5
 62
     0
 63
     7
283
     0
274
    -2
284
     1
 64
     0
275
    -2
285
     1
 65
     0
276
    -2
286
     1
 66
     0
277
    -2
287
     1
 67
     0
278
    -2
288
     1
 68
     0
279
    -2
289
     1
 69
     0
  0
VISUALSTYLE
  5
2F
102
{ACAD_XDICTIONARY
360
36F
102
}
102
{ACAD_REACTORS
330
2A
102
}
330
2A
100
AcDbVisualStyle
  2

 70
     4
 71
     0
 72
     2
 73
     0
 90
        0
 40
-0.6
 41
-30.0
 62
     5
 63
     7
421
 16777215
 74
     1
 91
        4
 64
     7
 65
   257
 75
     1
175
     1
 42
1.0
 92
        0
 66
   257
 43
1.0
 76
     1
 77
     6
 78
     2
 67
     7
 79
     5
170
     0
171
     0
290
     0
174
     0
 93
        1
 44
0.0
173
     0
291
     0
 45
0.0
1001
ACAD
1000
AcDbSavedByObjectVersion
1070
     0
  0
VISUALSTYLE
  5
32
102
{ACAD_XDICTIONARY
360
375
102
}
102
{ACAD_REACTORS
330
2A
102
}
330
2A
100
AcDbVisualStyle
  2

 70
     7
 71
     1
 72
     0
 73
     1
 90
        0
 40
-0.6
 41
-30.0
 62
     5
 63
     7
421
 16777215
 74
     0
 91
        4
 64
     7
 65
   257
 75
     1
175
     1
 42
1.0
 92
        8
 66
     7
 43
1.0
 76
     1
 77
     6
 78
     2
 67
     7
 79
     5
170
     0
171
     0
290
     0
174
     0
 93
        1
 44
0.0
173
     0
291
     1
 45
0.0
1001
ACAD
1000
AcDbSavedByObjectVersion
1070
     0
  0
VISUALSTYLE
  5
36
102
{ACAD_XDICTIONARY
360
37D
102
}
102
{ACAD_REACTORS
330
2A
102
}
330
2A
100
AcDbVisualStyle
  2

 70
    12
 71
     2
 72
     2
 73
     0
 90
        0
 40
-0.6
 41
-30.0
 62
     5
 63
     7
421
 16777215
 74
     1
 91
        4
 64
     7
 65
   257
 75
     1
175
     1
 42
1.0
 92
        8
 66
     7
 43
1.0
 76
     1
 77
     6
 78
     2
 67
     7
 79
     5
170
     0
171
     0
290
     0
174
     0
 93
        1
 44
50.0
173
     0
291
     1
 45
0.0
1001
ACAD
1000
AcDbSavedByObjectVersion
1070
     0
  0
VISUALSTYLE
  5
3A
102
{ACAD_XDICTIONARY
360
385
102
}
102
{ACAD_REACTORS
330
2A
102
}
330
2A
100
AcDbVisualStyle
  2

 70
    16
 71
     2
 72
     2
 73
     3
 90
        0
 40
-0.6
 41
-30.0
 62
     5
 63
     8
421
  8421504
 74
     1
 91
        4
 64
     7
 65
   257
 75
     1
175
     1
 42
1.0
 92
        8
 66
     8
424
  8421504
 43
1.0
 76
     1
 77
     6
 78
     2
 67
     7
 79
     5
170
     0
171
     0
290
     0
174
     0
 93
        1
 44
0.0
173
     0
291
     1
 45
0.0
1001
ACAD
1000
AcDbSavedByObjectVersion
1070
     0
  0
VISUALSTYLE
  5
34
102
{ACAD_XDICTIONARY
360
379
102
}
102
{ACAD_REACTORS
330
2A
102
}
330
2A
100
AcDbVisualStyle
  2

 70
     9
 71
     3
 72
     2
 73
     0
 90
        0
 40
-0.6
 41
-30.0
 62
     5
 63
     7
421
 16777215
 74
     2
 91
        2
 64
     7
 65
   257
 75
     1
175
     1
 42
179.0
 92
        8
 66
     7
 43
1.0
 76
     1
 77
     6
 78
     2
 67
     7
 79
     3
170
     0
171
     0
290
     0
174
     0
 93
        1
 44
0.0
173
     0
291
     0
 45
0.0
1001
ACAD
1000
AcDbSavedByObjectVersion
1070
     0
  0
VISUALSTYLE
  5
35
102
{ACAD_XDICTIONARY
360
37B
102
}
102
{ACAD_REACTORS
330
2A
102
}
330
2A
100
AcDbVisualStyle
  2

 70
    11
 71
     2
 72
     2
 73
     0
 90
        0
 40
-0.6
 41
-30.0
 62
     5
 63
     7
421
 16777215
 74
     1
 91
        4
 64
     7
 65
   257
 75
     1
175
     1
 42
1.0
 92
        8
 66
     7
 43
1.0
 76
     1
 77
     6
 78
     2
 67
     7
 79
     5
170
     0
171
     0
290
     0
174
     0
 93
        1
 44
-50.0
173
     0
291
     1
 45
0.0
1001
ACAD
1000
AcDbSavedByObjectVersion
1070
     0
  0
VISUALSTYLE
  5
3D
102
{ACAD_XDICTIONARY
360
38B
102
}
102
{ACAD_REACTORS
330
2A
102
}
330
2A
100
AcDbVisualStyle
  2

 70
    22
 71
     2
 72
     2
 73
     0
 90
        0
 40
-0.6
 41
-30.0
 62
     5
 63
     7
421
 16777215
 74
     1
 91
        4
 64
     7
 65
   257
 75
     1
175
     1
 42
1.0
 92
        8
 66
     7
 43
1.0
 76
     1
 77
     6
 78
     2
 67
     7
 79
     5
170
     0
171
     0
290
     0
174
     0
 93
        1
 44
0.0
173
     0
291
     1
 45
0.0
1001
ACAD
1000
AcDbSavedByObjectVersion
1070
     0
  0
VISUALSTYLE
  5
39
102
{ACAD_XDICTIONARY
360
383
102
}
102
{ACAD_REACTORS
330
2A
102
}
330
2A
100
AcDbVisualStyle
  2

 70
    15
 71
     2
 72
     2
 73
     0
 90
        0
 40
-0.6
 41
-30.0
 62
     5
 63
     7
421
 16777215
 74
     1
 91
        4
 64
     7
 65
   257
 75
     1
175
     1
 42
1.0
 92
        8
 66
     7
 43
1.0
 76
     1
 77
     6
 78
     2
 67
     7
 79
     5
170
     0
171
     0
290
     0
174
     0
 93
        1
 44
0.0
173
     0
291
     1
 45
0.0
1001
ACAD
1000
AcDbSavedByObjectVersion
1070
     0
  0
VISUALSTYLE
  5
2B
102
{ACAD_XDICTIONARY
360
367
102
}
102
{ACAD_REACTORS
330
2A
102
}
330
2A
100
AcDbVisualStyle
  2

 70
     0
 71
     2
 72
     1
 73
     1
 90
        2
 40
-0.6
 41
30.0
 62
     5
 63
     7
421
 16777215
 74
     0
 91
        0
 64
     7
 65
   257
 75
     1
175
     1
 42
1.0
 92
        8
 66
     7
 43
1.0
 76
     1
 77
     6
 78
     2
 67
     7
 79
     5
170
     0
171
     0
290
     0
174
     0
 93
       13
 44
0.0
173
     0
291
     1
 45
0.0
1001
ACAD
1000
AcDbSavedByObjectVersion
1070
     0
  0
VISUALSTYLE
  5
2C
102
{ACAD_XDICTIONARY
360
369
102
}
102
{ACAD_REACTORS
330
2A
102
}
330
2A
100
AcDbVisualStyle
  2

 70
     1
 71
     2
 72
     1
 73
     1
 90
        2
 40
-0.6
 41
30.0
 62
     5
 63
     7
421
 16777215
 74
     1
 91
        0
 64
     7
 65
   257
 75
     1
175
     1
 42
1.0
 92
        0
 66
   257
 43
1.0
 76
     1
 77
     6
 78
     2
 67
     7
 79
     5
170
     0
171
     0
290
     0
174
     0
 93
       13
 44
0.0
173
     0
291
     1
 45
0.0
1001
ACAD
1000
AcDbSavedByObjectVersion
1070
     0
  0
VISUALSTYLE
  5
2D
102
{ACAD_XDICTIONARY
360
36B
102
}
102
{ACAD_REACTORS
330
2A
102
}
330
2A
100
AcDbVisualStyle
  2

 70
     2
 71
     2
 72
     2
 73
     1
 90
        2
 40
-0.6
 41
30.0
 62
     5
 63
     7
421
 16777215
 74
     0
 91
        0
 64
     7
 65
   257
 75
     1
175
     1
 42
1.0
 92
        0
 66
     7
 43
1.0
 76
     1
 77
     6
 78
     2
 67
     7
 79
     5
170
     0
171
     0
290
     0
174
     0
 93
       13
 44
0.0
173
     0
291
     1
 45
0.0
1001
ACAD
1000
AcDbSavedByObjectVersion
1070
     0
  0
VISUALSTYLE
  5
2E
102
{ACAD_XDICTIONARY
360
36D
102
}
102
{ACAD_REACTORS
330
2A
102
}
330
2A
100
AcDbVisualStyle
  2

 70
     3
 71
     2
 72
     2
 73
     1
 90
        2
 40
-0.6
 41
30.0
 62
     5
 63
     7
421
 16777215
 74
     1
 91
        0
 64
     7
 65
   257
 75
     1
175
     1
 42
1.0
 92
        0
 66
   257
 43
1.0
 76
     1
 77
     6
 78
     2
 67
     7
 79
     5
170
     0
171
     0
290
     0
174
     0
 93
       13
 44
0.0
173
     0
291
     1
 45
0.0
1001
ACAD
1000
AcDbSavedByObjectVersion
1070
     0
  0
VISUALSTYLE
  5
31
102
{ACAD_XDICTIONARY
360
373
102
}
102
{ACAD_REACTORS
330
2A
102
}
330
2A
100
AcDbVisualStyle
  2

 70
     6
 71
     1
 72
     2
 73
     2
 90
        0
 40
-0.6
 41
-30.0
 62
     5
 63
     7
421
 16777215
 74
     2
 91
        2
 64
     7
 65
   257
 75
     2
175
     1
 42
40.0
 92
        0
 66
   257
 43
1.0
 76
     1
 77
     6
 78
     2
 67
     7
 79
     3
170
     0
171
     0
290
     0
174
     0
 93
        1
 44
0.0
173
     0
291
     0
 45
0.0
1001
ACAD
1000
AcDbSavedByObjectVersion
1070
     0
  0
VISUALSTYLE
  5
3B
102
{ACAD_XDICTIONARY
360
387
102
}
102
{ACAD_REACTORS
330
2A
102
}
330
2A
100
AcDbVisualStyle
  2

 70
    20
 71
     2
 72
     2
 73
     0
 90
        0
 40
-0.6
 41
-30.0
 62
     5
 63
     7
421
 16777215
 74
     1
 91
        4
 64
     7
 65
   257
 75
     1
175
     1
 42
1.0
 92
       10
 66
     7
 43
1.0
 76
     1
 77
     6
 78
     2
 67
     7
 79
     5
170
     0
171
     0
290
     0
174
     0
 93
        1
 44
0.0
173
     0
291
     1
 45
0.0
1001
ACAD
1000
AcDbSavedByObjectVersion
1070
     0
  0
VISUALSTYLE
  5
38
102
{ACAD_XDICTIONARY
360
381
102
}
102
{ACAD_REACTORS
330
2A
102
}
330
2A
100
AcDbVisualStyle
  2

 70
    14
 71
     2
 72
     2
 73
     0
 90
        0
 40
-0.6
 41
-30.0
 62
     5
 63
     7
421
 16777215
 74
     1
 91
        4
 64
     7
 65
   257
 75
     7
175
     7
 42
1.0
 92
        8
 66
     7
 43
1.0
 76
     1
 77
     6
 78
     2
 67
     7
 79
     5
170
     0
171
     0
290
     0
174
     0
 93
        1
 44
0.0
173
     0
291
     1
 45
0.0
1001
ACAD
1000
AcDbSavedByObjectVersion
1070
     0
  0
VISUALSTYLE
  5
3C
102
{ACAD_XDICTIONARY
360
389
102
}
102
{ACAD_REACTORS
330
2A
102
}
330
2A
100
AcDbVisualStyle
  2

 70
    21
 71
     2
 72
     2
 73
     0
 90
        0
 40
-0.6
 41
-30.0
 62
     5
 63
     7
421
 16777215
 74
     1
 91
        4
 64
     7
 65
   257
 75
     1
175
     1
 42
1.0
 92
        9
 66
     7
 43
1.0
 76
     1
 77
     6
 78
     2
 67
     7
 79
     5
170
     0
171
     0
290
     0
174
     0
 93
        1
 44
0.0
173
     0
291
     1
 45
0.0
1001
ACAD
1000
AcDbSavedByObjectVersion
1070
     0
  0
VISUALSTYLE
  5
33
102
{ACAD_XDICTIONARY
360
377
102
}
102
{ACAD_REACTORS
330
2A
102
}
330
2A
100
AcDbVisualStyle
  2

 70
     8
 71
     2
 72
     3
 73
     0
 90
        2
 40
-0.6
 41
30.0
 62
     5
 63
     7
421
 16777215
 74
     0
 91
        0
 64
     7
 65
   257
 75
     1
175
     1
 42
1.0
 92
        8
 66
   257
 43
1.0
 76
     1
 77
     6
 78
     2
 67
     7
 79
     3
170
     0
171
     0
290
     0
174
     0
 93
       13
 44
0.0
173
     0
291
     0
 45
0.0
1001
ACAD
1000
AcDbSavedByObjectVersion
1070
     0
  0
VISUALSTYLE
  5
42
102
{ACAD_XDICTIONARY
360
395
102
}
102
{ACAD_REACTORS
330
2A
102
}
330
2A
100
AcDbVisualStyle
  2

 70
    27
 71
     2
 72
     2
 73
     1
 90
        2
 40
-0.6
 41
30.0
 62
     5
 63
     7
421
 16777215
 74
     0
 91
        4
 64
     7
 65
   257
 75
     1
175
     1
 42
1.0
 92
        8
 66
   257
 43
1.0
 76
     1
 77
     6
 78
     2
 67
     8
425
  7895160
 79
     3
170
     0
171
     0
290
     0
174
     0
 93
        5
 44
0.0
173
     0
291
     0
 45
0.0
1001
ACAD
1000
AcDbSavedByObjectVersion
1070
     0
  0
VISUALSTYLE
  5
41
102
{ACAD_XDICTIONARY
360
393
102
}
102
{ACAD_REACTORS
330
2A
102
}
330
2A
100
AcDbVisualStyle
  2

 70
    26
 71
     2
 72
     2
 73
     1
 90
        2
 40
-0.6
 41
30.0
 62
     5
 63
     7
421
 16777215
 74
     1
 91
       10
 64
     7
 65
   257
 75
     2
175
     1
 42
1.0
 92
        8
 66
   257
 43
1.0
 76
     1
 77
     6
 78
     2
 67
     7
 79
     3
170
     0
171
     0
290
     0
174
     0
 93
        5
 44
0.0
173
     0
291
     0
 45
0.0
1001
ACAD
1000
AcDbSavedByObjectVersion
1070
     0
  0
VISUALSTYLE
  5
3E
102
{ACAD_XDICTIONARY
360
38D
102
}
102
{ACAD_REACTORS
330
2A
102
}
330
2A
100
AcDbVisualStyle
  2

 70
    23
 71
     2
 72
     2
 73
     3
 90
        0
 40
-0.6
 41
-30.0
 62
     5
 63
     7
421
 16777215
 74
     2
 91
        2
 64
     7
 65
     7
 75
     1
175
     1
 42
40.0
 92
        8
 66
     7
 43
1.0
 76
     1
 77
     6
 78
     2
 67
     7
 79
     3
170
     0
171
     0
290
     0
174
     0
 93
        1
 44
0.0
173
     0
291
     0
 45
0.0
1001
ACAD
1000
AcDbSavedByObjectVersion
1070
     0
  0
VISUALSTYLE
  5
3F
102
{ACAD_XDICTIONARY
360
38F
102
}
102
{ACAD_REACTORS
330
2A
102
}
330
2A
100
AcDbVisualStyle
  2

 70
    24
 71
     1
 72
     2
 73
     2
 90
        0
 40
-0.6
 41
-30.0
 62
     5
 63
     7
421
 16777215
 74
     2
 91
        2
 64
     7
 65
     7
 75
     1
175
     1
 42
40.0
 92
       11
 66
     7
 43
1.0
 76
     1
 77
     6
 78
     2
 67
     7
 79
     6
170
     0
171
     0
290
     0
174
     0
 93
        1
 44
0.0
173
     0
291
     0
 45
0.0
1001
ACAD
1000
AcDbSavedByObjectVersion
1070
     0
  0
VISUALSTYLE
  5
37
102
{ACAD_XDICTIONARY
360
37F
102
}
102
{ACAD_REACTORS
330
2A
102
}
330
2A
100
AcDbVisualStyle
  2

 70
    13
 71
     2
 72
     2
 73
     0
 90
        0
 40
-0.6
 41
-30.0
 62
     5
 63
     7
421
 16777215
 74
     1
 91
        4
 64
     7
 65
   257
 75
     1
175
     1
 42
1.0
 92
       12
 66
     7
 43
1.0
 76
     1
 77
     6
 78
     2
 67
     7
 79
     5
170
     0
171
     0
290
     0
174
     0
 93
        1
 44
0.0
173
     0
291
     1
 45
0.0
1001
ACAD
1000
AcDbSavedByObjectVersion
1070
     0
  0
VISUALSTYLE
  5
30
102
{ACAD_XDICTIONARY
360
371
102
}
102
{ACAD_REACTORS
330
2A
102
}
330
2A
100
AcDbVisualStyle
  2

 70
     5
 71
     0
 72
     2
 73
     0
 90
        0
 40
-0.6
 41
-30.0
 62
     5
 63
     7
421
 16777215
 74
     1
 91
        4
 64
     7
 65
   257
 75
     1
175
     1
 42
1.0
 92
        0
 66
   257
 43
1.0
 76
     1
 77
     6
 78
     2
 67
     7
 79
     3
170
     0
171
     0
290
     0
174
     0
 93
        1
 44
0.0
173
     0
291
     0
 45
0.0
1001
ACAD
1000
AcDbSavedByObjectVersion
1070
     0
  0
VISUALSTYLE
  5
40
102
{ACAD_XDICTIONARY
360
391
102
}
102
{ACAD_REACTORS
330
2A
102
}
330
2A
100
AcDbVisualStyle
  2

 70
    25
 71
     2
 72
     2
 73
     1
 90
        1
 40
0.5
 41
-30.0
 62
     5
 63
     7
421
 16777215
 74
     1
 91
        0
 64
     7
 65
   257
 75
     1
175
     1
 42
1.0
 92
        8
 66
     7
 43
1.0
 76
     1
 77
     6
 78
     2
 67
     7
 79
     3
170
     0
171
     0
290
     0
174
     0
 93
       13
 44
0.0
173
     0
291
     0
 45
0.0
1001
ACAD
1000
AcDbSavedByObjectVersion
1070
     0
  0
DICTIONARYVAR
  5
2B5
102
{ACAD_REACTORS
330
2B4
102
}
330
2B4
100
DictionaryVariables
280
     0
  1
1:1
  0
DICTIONARYVAR
  5
2F6
102
{ACAD_REACTORS
330
2B4
102
}
330
2B4
100
DictionaryVariables
280
     0
  1
STANDARD
  0
DICTIONARYVAR
  5
2F5
102
{ACAD_REACTORS
330
2B4
102
}
330
2B4
100
DictionaryVariables
280
     0
  1
STANDARD
  0
DICTIONARYVAR
  5
361
102
{ACAD_REACTORS
330
2B4
102
}
330
2B4
100
DictionaryVariables
280
     0
  1
Metric50
  0
DICTIONARYVAR
  5
362
102
{ACAD_REACTORS
330
2B4
102
}
330
2B4
100
DictionaryVariables
280
     0
  1
Metric50
  0
DICTIONARYVAR
  5
2B6
102
{ACAD_REACTORS
330
2B4
102
}
330
2B4
100
DictionaryVariables
280
     0
  1
1
  0
DICTIONARYVAR
  5
363
102
{ACAD_REACTORS
330
2B4
102
}
330
2B4
100
DictionaryVariables
280
     0
  1
2
  0
DICTIONARY
  5
39A
330
2FD
100
AcDbDictionary
280
     1
281
     1
  3
ACAD_XREC_ROUNDTRIP
360
39B
  0
DICTIONARY
  5
2EA
330
45
100
AcDbDictionary
280
     1
281
     1
  3
ACAD_XREC_ROUNDTRIP
360
2EB
  0
DICTIONARY
  5
2E8
330
44
100
AcDbDictionary
280
     1
281
     1
  3
ACAD_XREC_ROUNDTRIP
360
2E9
  0
DICTIONARY
  5
2EC
330
46
100
AcDbDictionary
280
     1
281
     1
  3
ACAD_XREC_ROUNDTRIP
360
2ED
  0
DICTIONARY
  5
398
330
2FC
100
AcDbDictionary
280
     1
281
     1
  3
ACAD_XREC_ROUNDTRIP
360
399
  0
DICTIONARY
  5
2EE
330
6A
100
AcDbDictionary
280
     1
281
     1
  3
ACAD_ROUNDTRIP_2008_TABLESTYLE_CELLSTYLEMAP
360
365
  3
ACAD_XREC_ROUNDTRIP
360
397
  0
DICTIONARY
  5
36F
330
2F
100
AcDbDictionary
280
     1
281
     1
  3
ACAD_XREC_ROUNDTRIP
360
370
  0
DICTIONARY
  5
375
330
32
100
AcDbDictionary
280
     1
281
     1
  3
ACAD_XREC_ROUNDTRIP
360
376
  0
DICTIONARY
  5
37D
330
36
100
AcDbDictionary
280
     1
281
     1
  3
ACAD_XREC_ROUNDTRIP
360
37E
  0
DICTIONARY
  5
385
330
3A
100
AcDbDictionary
280
     1
281
     1
  3
ACAD_XREC_ROUNDTRIP
360
386
  0
DICTIONARY
  5
379
330
34
100
AcDbDictionary
280
     1
281
     1
  3
ACAD_XREC_ROUNDTRIP
360
37A
  0
DICTIONARY
  5
37B
330
35
100
AcDbDictionary
280
     1
281
     1
  3
ACAD_XREC_ROUNDTRIP
360
37C
  0
DICTIONARY
  5
38B
330
3D
100
AcDbDictionary
280
     1
281
     1
  3
ACAD_XREC_ROUNDTRIP
360
38C
  0
DICTIONARY
  5
383
330
39
100
AcDbDictionary
280
     1
281
     1
  3
ACAD_XREC_ROUNDTRIP
360
384
  0
DICTIONARY
  5
367
330
2B
100
AcDbDictionary
280
     1
281
     1
  3
ACAD_XREC_ROUNDTRIP
360
368
  0
DICTIONARY
  5
369
330
2C
100
AcDbDictionary
280
     1
281
     1
  3
ACAD_XREC_ROUNDTRIP
360
36A
  0
DICTIONARY
  5
36B
330
2D
100
AcDbDictionary
280
     1
281
     1
  3
ACAD_XREC_ROUNDTRIP
360
36C
  0
DICTIONARY
  5
36D
330
2E
100
AcDbDictionary
280
     1
281
     1
  3
ACAD_XREC_ROUNDTRIP
360
36E
  0
DICTIONARY
  5
373
330
31
100
AcDbDictionary
280
     1
281
     1
  3
ACAD_XREC_ROUNDTRIP
360
374
  0
DICTIONARY
  5
387
330
3B
100
AcDbDictionary
280
     1
281
     1
  3
ACAD_XREC_ROUNDTRIP
360
388
  0
DICTIONARY
  5
381
330
38
100
AcDbDictionary
280
     1
281
     1
  3
ACAD_XREC_ROUNDTRIP
360
382
  0
DICTIONARY
  5
389
330
3C
100
AcDbDictionary
280
     1
281
     1
  3
ACAD_XREC_ROUNDTRIP
360
38A
  0
DICTIONARY
  5
377
330
33
100
AcDbDictionary
280
     1
281
     1
  3
ACAD_XREC_ROUNDTRIP
360
378
  0
DICTIONARY
  5
395
330
42
100
AcDbDictionary
280
     1
281
     1
  3
ACAD_XREC_ROUNDTRIP
360
396
  0
DICTIONARY
  5
393
330
41
100
AcDbDictionary
280
     1
281
     1
  3
ACAD_XREC_ROUNDTRIP
360
394
  0
DICTIONARY
  5
38D
330
3E
100
AcDbDictionary
280
     1
281
     1
  3
ACAD_XREC_ROUNDTRIP
360
38E
  0
DICTIONARY
  5
38F
330
3F
100
AcDbDictionary
280
     1
281
     1
  3
ACAD_XREC_ROUNDTRIP
360
390
  0
DICTIONARY
  5
37F
330
37
100
AcDbDictionary
280
     1
281
     1
  3
ACAD_XREC_ROUNDTRIP
360
380
  0
DICTIONARY
  5
371
330
30
100
AcDbDictionary
280
     1
281
     1
  3
ACAD_XREC_ROUNDTRIP
360
372
  0
DICTIONARY
  5
391
330
40
100
AcDbDictionary
280
     1
281
     1
  3
ACAD_XREC_ROUNDTRIP
360
392
  0
XRECORD
  5
39B
102
{ACAD_REACTORS
330
39A
102
}
330
39A
100
AcDbXrecord
280
     1
102
DISPLAYNAME
  1
Metric50
102
FLAGS
 90
        0
  0
XRECORD
  5
2EB
102
{ACAD_REACTORS
330
2EA
102
}
330
2EA
100
AcDbXrecord
280
     1
102
MATERIAL
148
0.0
149
0.0
149
0.0
 93
        0
 94
      127
282
     0
 72
     1
 77
     1
171
     1
175
     1
179
     1
273
     0
  0
XRECORD
  5
2E9
102
{ACAD_REACTORS
330
2E8
102
}
330
2E8
100
AcDbXrecord
280
     1
102
MATERIAL
148
0.0
149
0.0
149
0.0
 93
        0
 94
      127
282
     0
 72
     1
 77
     1
171
     1
175
     1
179
     1
273
     0
  0
XRECORD
  5
2ED
102
{ACAD_REACTORS
330
2EC
102
}
330
2EC
100
AcDbXrecord
280
     1
102
MATERIAL
148
0.0
149
0.0
149
0.0
 93
        0
 94
      127
282
     0
 72
     1
 77
     1
171
     1
175
     1
179
     1
273
     0
  0
XRECORD
  5
399
102
{ACAD_REACTORS
330
398
102
}
330
398
100
AcDbXrecord
280
     1
102
DISPLAYNAME
  1
Metric50
102
FLAGS
 90
        0
  0
CELLSTYLEMAP
  5
365
102
{ACAD_REACTORS
330
2EE
102
}
330
2EE
100
AcDbCellStyleMap
 90
        3
300
CELLSTYLE
  1
TABLEFORMAT_BEGIN
 90
        5
170
     1
 91
        0
 92
    32768
 62
   257
 93
        1
300
CONTENTFORMAT
  1
CONTENTFORMAT_BEGIN
 90
        0
 91
        0
 92
        4
 93
        0
300

 40
0.0
140
1.0
 94
        5
 62
     0
340
11
144
0.25
309
CONTENTFORMAT_END
171
     1
301
MARGIN
  1
CELLMARGIN_BEGIN
 40
0.06
 40
0.06
 40
0.06
 40
0.06
 40
0.18
 40
0.18
309
CELLMARGIN_END
 94
        6
 95
        1
302
GRIDFORMAT
  1
GRIDFORMAT_BEGIN
 90
        0
 91
        1
 62
     0
 92
       -2
340
14
 93
        0
 40
0.045
309
GRIDFORMAT_END
 95
        2
302
GRIDFORMAT
  1
GRIDFORMAT_BEGIN
 90
        0
 91
        1
 62
     0
 92
       -2
340
14
 93
        0
 40
0.045
309
GRIDFORMAT_END
 95
        4
302
GRIDFORMAT
  1
GRIDFORMAT_BEGIN
 90
        0
 91
        1
 62
     0
 92
       -2
340
14
 93
        0
 40
0.045
309
GRIDFORMAT_END
 95
        8
302
GRIDFORMAT
  1
GRIDFORMAT_BEGIN
 90
        0
 91
        1
 62
     0
 92
       -2
340
14
 93
        0
 40
0.045
309
GRIDFORMAT_END
 95
       16
302
GRIDFORMAT
  1
GRIDFORMAT_BEGIN
 90
        0
 91
        1
 62
     0
 92
       -2
340
14
 93
        0
 40
0.045
309
GRIDFORMAT_END
 95
       32
302
GRIDFORMAT
  1
GRIDFORMAT_BEGIN
 90
        0
 91
        1
 62
     0
 92
       -2
340
14
 93
        0
 40
0.045
309
GRIDFORMAT_END
309
TABLEFORMAT_END
  1
CELLSTYLE_BEGIN
 90
        1
 91
        1
300
_TITLE
309
CELLSTYLE_END
300
CELLSTYLE
  1
TABLEFORMAT_BEGIN
 90
        5
170
     1
 91
        0
 92
        0
 62
   257
 93
        1
300
CONTENTFORMAT
  1
CONTENTFORMAT_BEGIN
 90
        0
 91
        0
 92
        4
 93
        0
300

 40
0.0
140
1.0
 94
        5
 62
     0
340
11
144
0.18
309
CONTENTFORMAT_END
171
     1
301
MARGIN
  1
CELLMARGIN_BEGIN
 40
0.06
 40
0.06
 40
0.06
 40
0.06
 40
0.18
 40
0.18
309
CELLMARGIN_END
 94
        6
 95
        1
302
GRIDFORMAT
  1
GRIDFORMAT_BEGIN
 90
        0
 91
        1
 62
     0
 92
       -2
340
14
 93
        0
 40
0.045
309
GRIDFORMAT_END
 95
        2
302
GRIDFORMAT
  1
GRIDFORMAT_BEGIN
 90
        0
 91
        1
 62
     0
 92
       -2
340
14
 93
        0
 40
0.045
309
GRIDFORMAT_END
 95
        4
302
GRIDFORMAT
  1
GRIDFORMAT_BEGIN
 90
        0
 91
        1
 62
     0
 92
       -2
340
14
 93
        0
 40
0.045
309
GRIDFORMAT_END
 95
        8
302
GRIDFORMAT
  1
GRIDFORMAT_BEGIN
 90
        0
 91
        1
 62
     0
 92
       -2
340
14
 93
        0
 40
0.045
309
GRIDFORMAT_END
 95
       16
302
GRIDFORMAT
  1
GRIDFORMAT_BEGIN
 90
        0
 91
        1
 62
     0
 92
       -2
340
14
 93
        0
 40
0.045
309
GRIDFORMAT_END
 95
       32
302
GRIDFORMAT
  1
GRIDFORMAT_BEGIN
 90
        0
 91
        1
 62
     0
 92
       -2
340
14
 93
        0
 40
0.045
309
GRIDFORMAT_END
309
TABLEFORMAT_END
  1
CELLSTYLE_BEGIN
 90
        2
 91
        1
300
_HEADER
309
CELLSTYLE_END
300
CELLSTYLE
  1
TABLEFORMAT_BEGIN
 90
        5
170
     1
 91
        0
 92
        0
 62
   257
 93
        1
300
CONTENTFORMAT
  1
CONTENTFORMAT_BEGIN
 90
        0
 91
        0
 92
        4
 93
        0
300

 40
0.0
140
1.0
 94
        2
 62
     0
340
11
144
0.18
309
CONTENTFORMAT_END
171
     1
301
MARGIN
  1
CELLMARGIN_BEGIN
 40
0.06
 40
0.06
 40
0.06
 40
0.06
 40
0.18
 40
0.18
309
CELLMARGIN_END
 94
        6
 95
        1
302
GRIDFORMAT
  1
GRIDFORMAT_BEGIN
 90
        0
 91
        1
 62
     0
 92
       -2
340
14
 93
        0
 40
0.045
309
GRIDFORMAT_END
 95
        2
302
GRIDFORMAT
  1
GRIDFORMAT_BEGIN
 90
        0
 91
        1
 62
     0
 92
       -2
340
14
 93
        0
 40
0.045
309
GRIDFORMAT_END
 95
        4
302
GRIDFORMAT
  1
GRIDFORMAT_BEGIN
 90
        0
 91
        1
 62
     0
 92
       -2
340
14
 93
        0
 40
0.045
309
GRIDFORMAT_END
 95
        8
302
GRIDFORMAT
  1
GRIDFORMAT_BEGIN
 90
        0
 91
        1
 62
     0
 92
       -2
340
14
 93
        0
 40
0.045
309
GRIDFORMAT_END
 95
       16
302
GRIDFORMAT
  1
GRIDFORMAT_BEGIN
 90
        0
 91
        1
 62
     0
 92
       -2
340
14
 93
        0
 40
0.045
309
GRIDFORMAT_END
 95
       32
302
GRIDFORMAT
  1
GRIDFORMAT_BEGIN
 90
        0
 91
        1
 62
     0
 92
       -2
340
14
 93
        0
 40
0.045
309
GRIDFORMAT_END
309
TABLEFORMAT_END
  1
CELLSTYLE_BEGIN
 90
        3
 91
        2
300
_DATA
309
CELLSTYLE_END
  0
XRECORD
  5
397
102
{ACAD_REACTORS
330
2EE
102
}
330
2EE
100
AcDbXrecord
280
     1
102
ACAD_ROUNDTRIP_PRE2007_TABLESTYLE
 90
        4
 91
        0
  1

 92
        4
 93
        0
  2

 94
        4
 95
        0
  3

  0
XRECORD
  5
370
102
{ACAD_REACTORS
330
36F
102
}
330
36F
100
AcDbXrecord
280
     1
102
RTVSPost2010Prop28
280
     1
102
RTVSPost2010PropOp28
 70
     1
102
RTVSPost2010Prop29
280
     1
102
RTVSPost2010PropOp29
 70
     1
102
RTVSPost2010Prop30
280
     0
102
RTVSPost2010PropOp30
 70
     1
102
RTVSPost2010Prop31
280
     0
102
RTVSPost2010PropOp31
 70
     1
102
RTVSPost2010Prop32
280
     0
102
RTVSPost2010PropOp32
 70
     1
102
RTVSPost2010Prop33
280
     0
102
RTVSPost2010PropOp33
 70
     1
102
RTVSPost2010Prop34
280
     0
102
RTVSPost2010PropOp34
 70
     1
102
RTVSPost2010Prop35
280
     0
102
RTVSPost2010PropOp35
 70
     1
102
RTVSPost2010Prop36
280
     0
102
RTVSPost2010PropOp36
 70
     1
102
RTVSPost2010Prop37
 90
       50
102
RTVSPost2010PropOp37
 70
     1
102
RTVSPost2010Prop38
140
0.0
102
RTVSPost2010PropOp38
 70
     1
102
RTVSPost2010Prop39
140
1.0
102
RTVSPost2010PropOp39
 70
     1
102
RTVSPost2010Prop40
 90
        0
102
RTVSPost2010PropOp40
 70
     1
102
RTVSPost2010Prop41ColorIndex
 90
       18
102
RTVSPost2010Prop41ColorRGB
 90
        0
102
RTVSPost2010PropOp41
 70
     1
102
RTVSPost2010Prop42
 90
       50
102
RTVSPost2010PropOp42
 70
     1
102
RTVSPost2010Prop43
 90
        3
102
RTVSPost2010PropOp43
 70
     1
102
RTVSPost2010Prop44ColorIndex
 90
        5
102
RTVSPost2010Prop44ColorRGB
 90
      255
102
RTVSPost2010PropOp44
 70
     1
102
RTVSPost2010Prop45
280
     0
102
RTVSPost2010PropOp45
 70
     1
102
RTVSPost2010Prop46
 90
       50
102
RTVSPost2010PropOp46
 70
     1
102
RTVSPost2010Prop47
 90
       50
102
RTVSPost2010PropOp47
 70
     1
102
RTVSPost2010Prop48
 90
       50
102
RTVSPost2010PropOp48
 70
     1
102
RTVSPost2010Prop49
280
     0
102
RTVSPost2010PropOp49
 70
     1
102
RTVSPost2010Prop50
 90
       50
102
RTVSPost2010PropOp50
 70
     1
102
RTVSPost2010Prop51ColorIndex
 90
      256
102
RTVSPost2010Prop51ColorRGB
 90
-16777216
102
RTVSPost2010PropOp51
 70
     0
102
RTVSPost2010Prop52
140
1.0
102
RTVSPost2010PropOp52
 70
     0
102
RTVSPost2010Prop53
 90
        2
102
RTVSPost2010PropOp53
 70
     1
102
RTVSPost2010Prop54
  1
strokes_ogs.tif
102
RTVSPost2010PropOp54
 70
     1
102
RTVSPost2010Prop55
280
     0
102
RTVSPost2010PropOp55
 70
     1
102
RTVSPost2010Prop56
140
1.0
102
RTVSPost2010PropOp56
 70
     1
102
RTVSPost2010Prop57
140
1.0
102
RTVSPost2010PropOp57
 70
     1
102
RTVSPropertyOp0
 70
     1
102
RTVSPropertyOp1
 70
     1
102
RTVSPropertyOp2
 70
     1
102
RTVSPropertyOp3
 70
     1
102
RTVSPropertyOp4
 70
     1
102
RTVSPropertyOp5
 70
     1
102
RTVSPropertyOp6
 70
     1
102
RTVSPropertyOp7
 70
     1
102
RTVSPropertyOp8
 70
     1
102
RTVSPropertyOp9
 70
     1
102
RTVSPropertyOp10
 70
     1
102
RTVSPropertyOp11
 70
     1
102
RTVSPropertyOp12
 70
     1
102
RTVSPropertyOp13
 70
     1
102
RTVSPropertyOp14
 70
     1
102
RTVSPropertyOp15
 70
     1
102
RTVSPropertyOp16
 70
     1
102
RTVSPropertyOp17
 70
     1
102
RTVSPropertyOp18
 70
     1
102
RTVSPropertyOp19
 70
     1
102
RTVSPropertyOp20
 70
     1
102
RTVSPropertyOp21
 70
     1
102
RTVSPropertyOp22
 70
     1
102
RTVSPropertyOp23
 70
     1
102
RTVSPropertyOp24
 70
     1
102
RTVSPropertyOp25
 70
     1
102
RTVSPropertyOp26
 70
     1
102
RTVSPropertyOp27
 70
     1
102
RTVSPropertyOp28
 70
     1
102
RTVSPropertyOp29
 70
     1
102
RTVSPropertyOp30
 70
     1
102
RTVSPropertyOp31
 70
     1
102
RTVSPropertyOp32
 70
     1
102
RTVSPropertyOp33
 70
     1
102
RTVSPropertyOp34
 70
     1
102
RTVSPropertyOp35
 70
     1
102
RTVSPropertyOp36
 70
     1
102
RTVSPropertyOp37
 70
     1
102
RTVSPropertyOp38
 70
     1
102
RTVSPropertyOp39
 70
     1
102
RTVSPropertyOp40
 70
     1
102
RTVSPropertyOp41
 70
     1
102
RTVSPropertyOp42
 70
     1
102
RTVSPropertyOp43
 70
     1
102
RTVSPropertyOp44
 70
     1
102
RTVSPropertyOp45
 70
     1
102
RTVSPropertyOp46
 70
     1
102
RTVSPropertyOp47
 70
     1
102
RTVSPropertyOp48
 70
     1
102
RTVSPropertyOp49
 70
     1
102
RTVSPropertyOp50
 70
     1
102
RTVSPropertyOp51
 70
     0
102
RTVSPropertyOp52
 70
     0
102
RTVSPropertyOp53
 70
     1
102
RTVSPropertyOp54
 70
     1
102
RTVSPropertyOp55
 70
     1
102
RTVSPropertyOp56
 70
     1
102
RTVSPropertyOp57
 70
     1
102
RTVSPropertyOp58
 70
     1
102
RTVSPropertyOp59
 70
     1
102
RTVSPropertyOp60
 70
     1
102
RTVSPropertyOp61
 70
     1
102
RTVSPropertyOp62
 70
     1
  0
XRECORD
  5
376
102
{ACAD_REACTORS
330
375
102
}
330
375
100
AcDbXrecord
280
     1
102
RTVSPost2010Prop28
280
     0
102
RTVSPost2010PropOp28
 70
     1
102
RTVSPost2010Prop29
280
     1
102
RTVSPost2010PropOp29
 70
     1
102
RTVSPost2010Prop30
280
     1
102
RTVSPost2010PropOp30
 70
     1
102
RTVSPost2010Prop31
280
     0
102
RTVSPost2010PropOp31
 70
     1
102
RTVSPost2010Prop32
280
     0
102
RTVSPost2010PropOp32
 70
     1
102
RTVSPost2010Prop33
280
     0
102
RTVSPost2010PropOp33
 70
     1
102
RTVSPost2010Prop34
280
     0
102
RTVSPost2010PropOp34
 70
     1
102
RTVSPost2010Prop35
280
     0
102
RTVSPost2010PropOp35
 70
     1
102
RTVSPost2010Prop36
280
     0
102
RTVSPost2010PropOp36
 70
     1
102
RTVSPost2010Prop37
 90
       50
102
RTVSPost2010PropOp37
 70
     1
102
RTVSPost2010Prop38
140
0.0
102
RTVSPost2010PropOp38
 70
     1
102
RTVSPost2010Prop39
140
1.0
102
RTVSPost2010PropOp39
 70
     1
102
RTVSPost2010Prop40
 90
        0
102
RTVSPost2010PropOp40
 70
     1
102
RTVSPost2010Prop41ColorIndex
 90
       18
102
RTVSPost2010Prop41ColorRGB
 90
        0
102
RTVSPost2010PropOp41
 70
     1
102
RTVSPost2010Prop42
 90
       50
102
RTVSPost2010PropOp42
 70
     1
102
RTVSPost2010Prop43
 90
        3
102
RTVSPost2010PropOp43
 70
     1
102
RTVSPost2010Prop44ColorIndex
 90
        5
102
RTVSPost2010Prop44ColorRGB
 90
      255
102
RTVSPost2010PropOp44
 70
     1
102
RTVSPost2010Prop45
280
     0
102
RTVSPost2010PropOp45
 70
     1
102
RTVSPost2010Prop46
 90
       50
102
RTVSPost2010PropOp46
 70
     1
102
RTVSPost2010Prop47
 90
       50
102
RTVSPost2010PropOp47
 70
     1
102
RTVSPost2010Prop48
 90
       50
102
RTVSPost2010PropOp48
 70
     1
102
RTVSPost2010Prop49
280
     0
102
RTVSPost2010PropOp49
 70
     1
102
RTVSPost2010Prop50
 90
       50
102
RTVSPost2010PropOp50
 70
     1
102
RTVSPost2010Prop51ColorIndex
 90
      256
102
RTVSPost2010Prop51ColorRGB
 90
-16777216
102
RTVSPost2010PropOp51
 70
     0
102
RTVSPost2010Prop52
140
1.0
102
RTVSPost2010PropOp52
 70
     0
102
RTVSPost2010Prop53
 90
        2
102
RTVSPost2010PropOp53
 70
     1
102
RTVSPost2010Prop54
  1
strokes_ogs.tif
102
RTVSPost2010PropOp54
 70
     1
102
RTVSPost2010Prop55
280
     0
102
RTVSPost2010PropOp55
 70
     1
102
RTVSPost2010Prop56
140
1.0
102
RTVSPost2010PropOp56
 70
     1
102
RTVSPost2010Prop57
140
1.0
102
RTVSPost2010PropOp57
 70
     1
102
RTVSPropertyOp0
 70
     1
102
RTVSPropertyOp1
 70
     1
102
RTVSPropertyOp2
 70
     1
102
RTVSPropertyOp3
 70
     1
102
RTVSPropertyOp4
 70
     1
102
RTVSPropertyOp5
 70
     1
102
RTVSPropertyOp6
 70
     1
102
RTVSPropertyOp7
 70
     1
102
RTVSPropertyOp8
 70
     1
102
RTVSPropertyOp9
 70
     1
102
RTVSPropertyOp10
 70
     1
102
RTVSPropertyOp11
 70
     1
102
RTVSPropertyOp12
 70
     1
102
RTVSPropertyOp13
 70
     1
102
RTVSPropertyOp14
 70
     1
102
RTVSPropertyOp15
 70
     1
102
RTVSPropertyOp16
 70
     1
102
RTVSPropertyOp17
 70
     1
102
RTVSPropertyOp18
 70
     1
102
RTVSPropertyOp19
 70
     1
102
RTVSPropertyOp20
 70
     1
102
RTVSPropertyOp21
 70
     1
102
RTVSPropertyOp22
 70
     1
102
RTVSPropertyOp23
 70
     1
102
RTVSPropertyOp24
 70
     1
102
RTVSPropertyOp25
 70
     1
102
RTVSPropertyOp26
 70
     1
102
RTVSPropertyOp27
 70
     1
102
RTVSPropertyOp28
 70
     1
102
RTVSPropertyOp29
 70
     1
102
RTVSPropertyOp30
 70
     1
102
RTVSPropertyOp31
 70
     1
102
RTVSPropertyOp32
 70
     1
102
RTVSPropertyOp33
 70
     1
102
RTVSPropertyOp34
 70
     1
102
RTVSPropertyOp35
 70
     1
102
RTVSPropertyOp36
 70
     1
102
RTVSPropertyOp37
 70
     1
102
RTVSPropertyOp38
 70
     1
102
RTVSPropertyOp39
 70
     1
102
RTVSPropertyOp40
 70
     1
102
RTVSPropertyOp41
 70
     1
102
RTVSPropertyOp42
 70
     1
102
RTVSPropertyOp43
 70
     1
102
RTVSPropertyOp44
 70
     1
102
RTVSPropertyOp45
 70
     1
102
RTVSPropertyOp46
 70
     1
102
RTVSPropertyOp47
 70
     1
102
RTVSPropertyOp48
 70
     1
102
RTVSPropertyOp49
 70
     1
102
RTVSPropertyOp50
 70
     1
102
RTVSPropertyOp51
 70
     0
102
RTVSPropertyOp52
 70
     0
102
RTVSPropertyOp53
 70
     1
102
RTVSPropertyOp54
 70
     1
102
RTVSPropertyOp55
 70
     1
102
RTVSPropertyOp56
 70
     1
102
RTVSPropertyOp57
 70
     1
102
RTVSPropertyOp58
 70
     1
102
RTVSPropertyOp59
 70
     1
102
RTVSPropertyOp60
 70
     1
102
RTVSPropertyOp61
 70
     1
102
RTVSPropertyOp62
 70
     1
  0
XRECORD
  5
37E
102
{ACAD_REACTORS
330
37D
102
}
330
37D
100
AcDbXrecord
280
     1
102
RTVSPost2010Prop28
280
     0
102
RTVSPost2010PropOp28
 70
     1
102
RTVSPost2010Prop29
280
     1
102
RTVSPost2010PropOp29
 70
     1
102
RTVSPost2010Prop30
280
     1
102
RTVSPost2010PropOp30
 70
     1
102
RTVSPost2010Prop31
280
     0
102
RTVSPost2010PropOp31
 70
     1
102
RTVSPost2010Prop32
280
     0
102
RTVSPost2010PropOp32
 70
     1
102
RTVSPost2010Prop33
280
     0
102
RTVSPost2010PropOp33
 70
     1
102
RTVSPost2010Prop34
280
     0
102
RTVSPost2010PropOp34
 70
     1
102
RTVSPost2010Prop35
280
     0
102
RTVSPost2010PropOp35
 70
     1
102
RTVSPost2010Prop36
280
     0
102
RTVSPost2010PropOp36
 70
     1
102
RTVSPost2010Prop37
 90
       50
102
RTVSPost2010PropOp37
 70
     1
102
RTVSPost2010Prop38
140
0.0
102
RTVSPost2010PropOp38
 70
     1
102
RTVSPost2010Prop39
140
1.0
102
RTVSPost2010PropOp39
 70
     1
102
RTVSPost2010Prop40
 90
        0
102
RTVSPost2010PropOp40
 70
     1
102
RTVSPost2010Prop41ColorIndex
 90
       18
102
RTVSPost2010Prop41ColorRGB
 90
        0
102
RTVSPost2010PropOp41
 70
     1
102
RTVSPost2010Prop42
 90
       50
102
RTVSPost2010PropOp42
 70
     1
102
RTVSPost2010Prop43
 90
        3
102
RTVSPost2010PropOp43
 70
     1
102
RTVSPost2010Prop44ColorIndex
 90
        5
102
RTVSPost2010Prop44ColorRGB
 90
      255
102
RTVSPost2010PropOp44
 70
     1
102
RTVSPost2010Prop45
280
     0
102
RTVSPost2010PropOp45
 70
     1
102
RTVSPost2010Prop46
 90
       50
102
RTVSPost2010PropOp46
 70
     1
102
RTVSPost2010Prop47
 90
       50
102
RTVSPost2010PropOp47
 70
     1
102
RTVSPost2010Prop48
 90
       50
102
RTVSPost2010PropOp48
 70
     1
102
RTVSPost2010Prop49
280
     0
102
RTVSPost2010PropOp49
 70
     1
102
RTVSPost2010Prop50
 90
       50
102
RTVSPost2010PropOp50
 70
     1
102
RTVSPost2010Prop51ColorIndex
 90
      256
102
RTVSPost2010Prop51ColorRGB
 90
-16777216
102
RTVSPost2010PropOp51
 70
     0
102
RTVSPost2010Prop52
140
1.0
102
RTVSPost2010PropOp52
 70
     0
102
RTVSPost2010Prop53
 90
        2
102
RTVSPost2010PropOp53
 70
     1
102
RTVSPost2010Prop54
  1
strokes_ogs.tif
102
RTVSPost2010PropOp54
 70
     1
102
RTVSPost2010Prop55
280
     0
102
RTVSPost2010PropOp55
 70
     1
102
RTVSPost2010Prop56
140
1.0
102
RTVSPost2010PropOp56
 70
     1
102
RTVSPost2010Prop57
140
1.0
102
RTVSPost2010PropOp57
 70
     1
102
RTVSPropertyOp0
 70
     1
102
RTVSPropertyOp1
 70
     1
102
RTVSPropertyOp2
 70
     1
102
RTVSPropertyOp3
 70
     1
102
RTVSPropertyOp4
 70
     1
102
RTVSPropertyOp5
 70
     1
102
RTVSPropertyOp6
 70
     1
102
RTVSPropertyOp7
 70
     1
102
RTVSPropertyOp8
 70
     1
102
RTVSPropertyOp9
 70
     1
102
RTVSPropertyOp10
 70
     1
102
RTVSPropertyOp11
 70
     1
102
RTVSPropertyOp12
 70
     1
102
RTVSPropertyOp13
 70
     1
102
RTVSPropertyOp14
 70
     1
102
RTVSPropertyOp15
 70
     1
102
RTVSPropertyOp16
 70
     1
102
RTVSPropertyOp17
 70
     1
102
RTVSPropertyOp18
 70
     1
102
RTVSPropertyOp19
 70
     1
102
RTVSPropertyOp20
 70
     1
102
RTVSPropertyOp21
 70
     1
102
RTVSPropertyOp22
 70
     1
102
RTVSPropertyOp23
 70
     1
102
RTVSPropertyOp24
 70
     1
102
RTVSPropertyOp25
 70
     1
102
RTVSPropertyOp26
 70
     1
102
RTVSPropertyOp27
 70
     1
102
RTVSPropertyOp28
 70
     1
102
RTVSPropertyOp29
 70
     1
102
RTVSPropertyOp30
 70
     1
102
RTVSPropertyOp31
 70
     1
102
RTVSPropertyOp32
 70
     1
102
RTVSPropertyOp33
 70
     1
102
RTVSPropertyOp34
 70
     1
102
RTVSPropertyOp35
 70
     1
102
RTVSPropertyOp36
 70
     1
102
RTVSPropertyOp37
 70
     1
102
RTVSPropertyOp38
 70
     1
102
RTVSPropertyOp39
 70
     1
102
RTVSPropertyOp40
 70
     1
102
RTVSPropertyOp41
 70
     1
102
RTVSPropertyOp42
 70
     1
102
RTVSPropertyOp43
 70
     1
102
RTVSPropertyOp44
 70
     1
102
RTVSPropertyOp45
 70
     1
102
RTVSPropertyOp46
 70
     1
102
RTVSPropertyOp47
 70
     1
102
RTVSPropertyOp48
 70
     1
102
RTVSPropertyOp49
 70
     1
102
RTVSPropertyOp50
 70
     1
102
RTVSPropertyOp51
 70
     0
102
RTVSPropertyOp52
 70
     0
102
RTVSPropertyOp53
 70
     1
102
RTVSPropertyOp54
 70
     1
102
RTVSPropertyOp55
 70
     1
102
RTVSPropertyOp56
 70
     1
102
RTVSPropertyOp57
 70
     1
102
RTVSPropertyOp58
 70
     1
102
RTVSPropertyOp59
 70
     1
102
RTVSPropertyOp60
 70
     1
102
RTVSPropertyOp61
 70
     1
102
RTVSPropertyOp62
 70
     1
  0
XRECORD
  5
386
102
{ACAD_REACTORS
330
385
102
}
330
385
100
AcDbXrecord
280
     1
102
RTVSPost2010Prop28
280
     0
102
RTVSPost2010PropOp28
 70
     1
102
RTVSPost2010Prop29
280
     1
102
RTVSPost2010PropOp29
 70
     1
102
RTVSPost2010Prop30
280
     1
102
RTVSPost2010PropOp30
 70
     1
102
RTVSPost2010Prop31
280
     0
102
RTVSPost2010PropOp31
 70
     1
102
RTVSPost2010Prop32
280
     0
102
RTVSPost2010PropOp32
 70
     1
102
RTVSPost2010Prop33
280
     0
102
RTVSPost2010PropOp33
 70
     1
102
RTVSPost2010Prop34
280
     0
102
RTVSPost2010PropOp34
 70
     1
102
RTVSPost2010Prop35
280
     0
102
RTVSPost2010PropOp35
 70
     1
102
RTVSPost2010Prop36
280
     0
102
RTVSPost2010PropOp36
 70
     1
102
RTVSPost2010Prop37
 90
       50
102
RTVSPost2010PropOp37
 70
     1
102
RTVSPost2010Prop38
140
0.0
102
RTVSPost2010PropOp38
 70
     1
102
RTVSPost2010Prop39
140
1.0
102
RTVSPost2010PropOp39
 70
     1
102
RTVSPost2010Prop40
 90
        0
102
RTVSPost2010PropOp40
 70
     1
102
RTVSPost2010Prop41ColorIndex
 90
       18
102
RTVSPost2010Prop41ColorRGB
 90
        0
102
RTVSPost2010PropOp41
 70
     1
102
RTVSPost2010Prop42
 90
       50
102
RTVSPost2010PropOp42
 70
     1
102
RTVSPost2010Prop43
 90
        3
102
RTVSPost2010PropOp43
 70
     1
102
RTVSPost2010Prop44ColorIndex
 90
        5
102
RTVSPost2010Prop44ColorRGB
 90
      255
102
RTVSPost2010PropOp44
 70
     1
102
RTVSPost2010Prop45
280
     0
102
RTVSPost2010PropOp45
 70
     1
102
RTVSPost2010Prop46
 90
       50
102
RTVSPost2010PropOp46
 70
     1
102
RTVSPost2010Prop47
 90
       50
102
RTVSPost2010PropOp47
 70
     1
102
RTVSPost2010Prop48
 90
       50
102
RTVSPost2010PropOp48
 70
     1
102
RTVSPost2010Prop49
280
     0
102
RTVSPost2010PropOp49
 70
     1
102
RTVSPost2010Prop50
 90
       50
102
RTVSPost2010PropOp50
 70
     1
102
RTVSPost2010Prop51ColorIndex
 90
      256
102
RTVSPost2010Prop51ColorRGB
 90
-16777216
102
RTVSPost2010PropOp51
 70
     0
102
RTVSPost2010Prop52
140
1.0
102
RTVSPost2010PropOp52
 70
     0
102
RTVSPost2010Prop53
 90
        2
102
RTVSPost2010PropOp53
 70
     1
102
RTVSPost2010Prop54
  1
strokes_ogs.tif
102
RTVSPost2010PropOp54
 70
     1
102
RTVSPost2010Prop55
280
     0
102
RTVSPost2010PropOp55
 70
     1
102
RTVSPost2010Prop56
140
1.0
102
RTVSPost2010PropOp56
 70
     1
102
RTVSPost2010Prop57
140
1.0
102
RTVSPost2010PropOp57
 70
     1
102
RTVSPropertyOp0
 70
     1
102
RTVSPropertyOp1
 70
     1
102
RTVSPropertyOp2
 70
     1
102
RTVSPropertyOp3
 70
     1
102
RTVSPropertyOp4
 70
     1
102
RTVSPropertyOp5
 70
     1
102
RTVSPropertyOp6
 70
     1
102
RTVSPropertyOp7
 70
     1
102
RTVSPropertyOp8
 70
     1
102
RTVSPropertyOp9
 70
     1
102
RTVSPropertyOp10
 70
     1
102
RTVSPropertyOp11
 70
     1
102
RTVSPropertyOp12
 70
     1
102
RTVSPropertyOp13
 70
     1
102
RTVSPropertyOp14
 70
     1
102
RTVSPropertyOp15
 70
     1
102
RTVSPropertyOp16
 70
     1
102
RTVSPropertyOp17
 70
     1
102
RTVSPropertyOp18
 70
     1
102
RTVSPropertyOp19
 70
     1
102
RTVSPropertyOp20
 70
     1
102
RTVSPropertyOp21
 70
     1
102
RTVSPropertyOp22
 70
     1
102
RTVSPropertyOp23
 70
     1
102
RTVSPropertyOp24
 70
     1
102
RTVSPropertyOp25
 70
     1
102
RTVSPropertyOp26
 70
     1
102
RTVSPropertyOp27
 70
     1
102
RTVSPropertyOp28
 70
     1
102
RTVSPropertyOp29
 70
     1
102
RTVSPropertyOp30
 70
     1
102
RTVSPropertyOp31
 70
     1
102
RTVSPropertyOp32
 70
     1
102
RTVSPropertyOp33
 70
     1
102
RTVSPropertyOp34
 70
     1
102
RTVSPropertyOp35
 70
     1
102
RTVSPropertyOp36
 70
     1
102
RTVSPropertyOp37
 70
     1
102
RTVSPropertyOp38
 70
     1
102
RTVSPropertyOp39
 70
     1
102
RTVSPropertyOp40
 70
     1
102
RTVSPropertyOp41
 70
     1
102
RTVSPropertyOp42
 70
     1
102
RTVSPropertyOp43
 70
     1
102
RTVSPropertyOp44
 70
     1
102
RTVSPropertyOp45
 70
     1
102
RTVSPropertyOp46
 70
     1
102
RTVSPropertyOp47
 70
     1
102
RTVSPropertyOp48
 70
     1
102
RTVSPropertyOp49
 70
     1
102
RTVSPropertyOp50
 70
     1
102
RTVSPropertyOp51
 70
     0
102
RTVSPropertyOp52
 70
     0
102
RTVSPropertyOp53
 70
     1
102
RTVSPropertyOp54
 70
     1
102
RTVSPropertyOp55
 70
     1
102
RTVSPropertyOp56
 70
     1
102
RTVSPropertyOp57
 70
     1
102
RTVSPropertyOp58
 70
     1
102
RTVSPropertyOp59
 70
     1
102
RTVSPropertyOp60
 70
     1
102
RTVSPropertyOp61
 70
     1
102
RTVSPropertyOp62
 70
     1
  0
XRECORD
  5
37A
102
{ACAD_REACTORS
330
379
102
}
330
379
100
AcDbXrecord
280
     1
102
RTVSPost2010Prop28
280
     0
102
RTVSPost2010PropOp28
 70
     1
102
RTVSPost2010Prop29
280
     1
102
RTVSPost2010PropOp29
 70
     1
102
RTVSPost2010Prop30
280
     1
102
RTVSPost2010PropOp30
 70
     1
102
RTVSPost2010Prop31
280
     0
102
RTVSPost2010PropOp31
 70
     1
102
RTVSPost2010Prop32
280
     0
102
RTVSPost2010PropOp32
 70
     1
102
RTVSPost2010Prop33
280
     0
102
RTVSPost2010PropOp33
 70
     1
102
RTVSPost2010Prop34
280
     0
102
RTVSPost2010PropOp34
 70
     1
102
RTVSPost2010Prop35
280
     0
102
RTVSPost2010PropOp35
 70
     1
102
RTVSPost2010Prop36
280
     0
102
RTVSPost2010PropOp36
 70
     1
102
RTVSPost2010Prop37
 90
       50
102
RTVSPost2010PropOp37
 70
     1
102
RTVSPost2010Prop38
140
0.0
102
RTVSPost2010PropOp38
 70
     1
102
RTVSPost2010Prop39
140
1.0
102
RTVSPost2010PropOp39
 70
     1
102
RTVSPost2010Prop40
 90
        0
102
RTVSPost2010PropOp40
 70
     1
102
RTVSPost2010Prop41ColorIndex
 90
       18
102
RTVSPost2010Prop41ColorRGB
 90
        0
102
RTVSPost2010PropOp41
 70
     1
102
RTVSPost2010Prop42
 90
       50
102
RTVSPost2010PropOp42
 70
     1
102
RTVSPost2010Prop43
 90
        3
102
RTVSPost2010PropOp43
 70
     1
102
RTVSPost2010Prop44ColorIndex
 90
        5
102
RTVSPost2010Prop44ColorRGB
 90
      255
102
RTVSPost2010PropOp44
 70
     1
102
RTVSPost2010Prop45
280
     0
102
RTVSPost2010PropOp45
 70
     1
102
RTVSPost2010Prop46
 90
       50
102
RTVSPost2010PropOp46
 70
     1
102
RTVSPost2010Prop47
 90
       50
102
RTVSPost2010PropOp47
 70
     1
102
RTVSPost2010Prop48
 90
       50
102
RTVSPost2010PropOp48
 70
     1
102
RTVSPost2010Prop49
280
     0
102
RTVSPost2010PropOp49
 70
     1
102
RTVSPost2010Prop50
 90
       50
102
RTVSPost2010PropOp50
 70
     1
102
RTVSPost2010Prop51ColorIndex
 90
      256
102
RTVSPost2010Prop51ColorRGB
 90
-16777216
102
RTVSPost2010PropOp51
 70
     0
102
RTVSPost2010Prop52
140
1.0
102
RTVSPost2010PropOp52
 70
     0
102
RTVSPost2010Prop53
 90
        2
102
RTVSPost2010PropOp53
 70
     1
102
RTVSPost2010Prop54
  1
strokes_ogs.tif
102
RTVSPost2010PropOp54
 70
     1
102
RTVSPost2010Prop55
280
     0
102
RTVSPost2010PropOp55
 70
     1
102
RTVSPost2010Prop56
140
1.0
102
RTVSPost2010PropOp56
 70
     1
102
RTVSPost2010Prop57
140
1.0
102
RTVSPost2010PropOp57
 70
     1
102
RTVSPropertyOp0
 70
     1
102
RTVSPropertyOp1
 70
     1
102
RTVSPropertyOp2
 70
     1
102
RTVSPropertyOp3
 70
     1
102
RTVSPropertyOp4
 70
     1
102
RTVSPropertyOp5
 70
     1
102
RTVSPropertyOp6
 70
     1
102
RTVSPropertyOp7
 70
     1
102
RTVSPropertyOp8
 70
     1
102
RTVSPropertyOp9
 70
     1
102
RTVSPropertyOp10
 70
     1
102
RTVSPropertyOp11
 70
     1
102
RTVSPropertyOp12
 70
     1
102
RTVSPropertyOp13
 70
     1
102
RTVSPropertyOp14
 70
     1
102
RTVSPropertyOp15
 70
     1
102
RTVSPropertyOp16
 70
     1
102
RTVSPropertyOp17
 70
     1
102
RTVSPropertyOp18
 70
     1
102
RTVSPropertyOp19
 70
     1
102
RTVSPropertyOp20
 70
     1
102
RTVSPropertyOp21
 70
     1
102
RTVSPropertyOp22
 70
     1
102
RTVSPropertyOp23
 70
     1
102
RTVSPropertyOp24
 70
     1
102
RTVSPropertyOp25
 70
     1
102
RTVSPropertyOp26
 70
     1
102
RTVSPropertyOp27
 70
     1
102
RTVSPropertyOp28
 70
     1
102
RTVSPropertyOp29
 70
     1
102
RTVSPropertyOp30
 70
     1
102
RTVSPropertyOp31
 70
     1
102
RTVSPropertyOp32
 70
     1
102
RTVSPropertyOp33
 70
     1
102
RTVSPropertyOp34
 70
     1
102
RTVSPropertyOp35
 70
     1
102
RTVSPropertyOp36
 70
     1
102
RTVSPropertyOp37
 70
     1
102
RTVSPropertyOp38
 70
     1
102
RTVSPropertyOp39
 70
     1
102
RTVSPropertyOp40
 70
     1
102
RTVSPropertyOp41
 70
     1
102
RTVSPropertyOp42
 70
     1
102
RTVSPropertyOp43
 70
     1
102
RTVSPropertyOp44
 70
     1
102
RTVSPropertyOp45
 70
     1
102
RTVSPropertyOp46
 70
     1
102
RTVSPropertyOp47
 70
     1
102
RTVSPropertyOp48
 70
     1
102
RTVSPropertyOp49
 70
     1
102
RTVSPropertyOp50
 70
     1
102
RTVSPropertyOp51
 70
     0
102
RTVSPropertyOp52
 70
     0
102
RTVSPropertyOp53
 70
     1
102
RTVSPropertyOp54
 70
     1
102
RTVSPropertyOp55
 70
     1
102
RTVSPropertyOp56
 70
     1
102
RTVSPropertyOp57
 70
     1
102
RTVSPropertyOp58
 70
     1
102
RTVSPropertyOp59
 70
     1
102
RTVSPropertyOp60
 70
     1
102
RTVSPropertyOp61
 70
     1
102
RTVSPropertyOp62
 70
     1
  0
XRECORD
  5
37C
102
{ACAD_REACTORS
330
37B
102
}
330
37B
100
AcDbXrecord
280
     1
102
RTVSPost2010Prop28
280
     0
102
RTVSPost2010PropOp28
 70
     1
102
RTVSPost2010Prop29
280
     1
102
RTVSPost2010PropOp29
 70
     1
102
RTVSPost2010Prop30
280
     1
102
RTVSPost2010PropOp30
 70
     1
102
RTVSPost2010Prop31
280
     0
102
RTVSPost2010PropOp31
 70
     1
102
RTVSPost2010Prop32
280
     0
102
RTVSPost2010PropOp32
 70
     1
102
RTVSPost2010Prop33
280
     0
102
RTVSPost2010PropOp33
 70
     1
102
RTVSPost2010Prop34
280
     0
102
RTVSPost2010PropOp34
 70
     1
102
RTVSPost2010Prop35
280
     0
102
RTVSPost2010PropOp35
 70
     1
102
RTVSPost2010Prop36
280
     0
102
RTVSPost2010PropOp36
 70
     1
102
RTVSPost2010Prop37
 90
       50
102
RTVSPost2010PropOp37
 70
     1
102
RTVSPost2010Prop38
140
0.0
102
RTVSPost2010PropOp38
 70
     1
102
RTVSPost2010Prop39
140
1.0
102
RTVSPost2010PropOp39
 70
     1
102
RTVSPost2010Prop40
 90
        0
102
RTVSPost2010PropOp40
 70
     1
102
RTVSPost2010Prop41ColorIndex
 90
       18
102
RTVSPost2010Prop41ColorRGB
 90
        0
102
RTVSPost2010PropOp41
 70
     1
102
RTVSPost2010Prop42
 90
       50
102
RTVSPost2010PropOp42
 70
     1
102
RTVSPost2010Prop43
 90
        3
102
RTVSPost2010PropOp43
 70
     1
102
RTVSPost2010Prop44ColorIndex
 90
        5
102
RTVSPost2010Prop44ColorRGB
 90
      255
102
RTVSPost2010PropOp44
 70
     1
102
RTVSPost2010Prop45
280
     0
102
RTVSPost2010PropOp45
 70
     1
102
RTVSPost2010Prop46
 90
       50
102
RTVSPost2010PropOp46
 70
     1
102
RTVSPost2010Prop47
 90
       50
102
RTVSPost2010PropOp47
 70
     1
102
RTVSPost2010Prop48
 90
       50
102
RTVSPost2010PropOp48
 70
     1
102
RTVSPost2010Prop49
280
     0
102
RTVSPost2010PropOp49
 70
     1
102
RTVSPost2010Prop50
 90
       50
102
RTVSPost2010PropOp50
 70
     1
102
RTVSPost2010Prop51ColorIndex
 90
      256
102
RTVSPost2010Prop51ColorRGB
 90
-16777216
102
RTVSPost2010PropOp51
 70
     0
102
RTVSPost2010Prop52
140
1.0
102
RTVSPost2010PropOp52
 70
     0
102
RTVSPost2010Prop53
 90
        2
102
RTVSPost2010PropOp53
 70
     1
102
RTVSPost2010Prop54
  1
strokes_ogs.tif
102
RTVSPost2010PropOp54
 70
     1
102
RTVSPost2010Prop55
280
     0
102
RTVSPost2010PropOp55
 70
     1
102
RTVSPost2010Prop56
140
1.0
102
RTVSPost2010PropOp56
 70
     1
102
RTVSPost2010Prop57
140
1.0
102
RTVSPost2010PropOp57
 70
     1
102
RTVSPropertyOp0
 70
     1
102
RTVSPropertyOp1
 70
     1
102
RTVSPropertyOp2
 70
     1
102
RTVSPropertyOp3
 70
     1
102
RTVSPropertyOp4
 70
     1
102
RTVSPropertyOp5
 70
     1
102
RTVSPropertyOp6
 70
     1
102
RTVSPropertyOp7
 70
     1
102
RTVSPropertyOp8
 70
     1
102
RTVSPropertyOp9
 70
     1
102
RTVSPropertyOp10
 70
     1
102
RTVSPropertyOp11
 70
     1
102
RTVSPropertyOp12
 70
     1
102
RTVSPropertyOp13
 70
     1
102
RTVSPropertyOp14
 70
     1
102
RTVSPropertyOp15
 70
     1
102
RTVSPropertyOp16
 70
     1
102
RTVSPropertyOp17
 70
     1
102
RTVSPropertyOp18
 70
     1
102
RTVSPropertyOp19
 70
     1
102
RTVSPropertyOp20
 70
     1
102
RTVSPropertyOp21
 70
     1
102
RTVSPropertyOp22
 70
     1
102
RTVSPropertyOp23
 70
     1
102
RTVSPropertyOp24
 70
     1
102
RTVSPropertyOp25
 70
     1
102
RTVSPropertyOp26
 70
     1
102
RTVSPropertyOp27
 70
     1
102
RTVSPropertyOp28
 70
     1
102
RTVSPropertyOp29
 70
     1
102
RTVSPropertyOp30
 70
     1
102
RTVSPropertyOp31
 70
     1
102
RTVSPropertyOp32
 70
     1
102
RTVSPropertyOp33
 70
     1
102
RTVSPropertyOp34
 70
     1
102
RTVSPropertyOp35
 70
     1
102
RTVSPropertyOp36
 70
     1
102
RTVSPropertyOp37
 70
     1
102
RTVSPropertyOp38
 70
     1
102
RTVSPropertyOp39
 70
     1
102
RTVSPropertyOp40
 70
     1
102
RTVSPropertyOp41
 70
     1
102
RTVSPropertyOp42
 70
     1
102
RTVSPropertyOp43
 70
     1
102
RTVSPropertyOp44
 70
     1
102
RTVSPropertyOp45
 70
     1
102
RTVSPropertyOp46
 70
     1
102
RTVSPropertyOp47
 70
     1
102
RTVSPropertyOp48
 70
     1
102
RTVSPropertyOp49
 70
     1
102
RTVSPropertyOp50
 70
     1
102
RTVSPropertyOp51
 70
     0
102
RTVSPropertyOp52
 70
     0
102
RTVSPropertyOp53
 70
     1
102
RTVSPropertyOp54
 70
     1
102
RTVSPropertyOp55
 70
     1
102
RTVSPropertyOp56
 70
     1
102
RTVSPropertyOp57
 70
     1
102
RTVSPropertyOp58
 70
     1
102
RTVSPropertyOp59
 70
     1
102
RTVSPropertyOp60
 70
     1
102
RTVSPropertyOp61
 70
     1
102
RTVSPropertyOp62
 70
     1
  0
XRECORD
  5
38C
102
{ACAD_REACTORS
330
38B
102
}
330
38B
100
AcDbXrecord
280
     1
102
RTVSPost2010Prop28
280
     0
102
RTVSPost2010PropOp28
 70
     0
102
RTVSPost2010Prop29
280
     1
102
RTVSPost2010PropOp29
 70
     0
102
RTVSPost2010Prop30
280
     1
102
RTVSPost2010PropOp30
 70
     0
102
RTVSPost2010Prop31
280
     0
102
RTVSPost2010PropOp31
 70
     0
102
RTVSPost2010Prop32
280
     0
102
RTVSPost2010PropOp32
 70
     0
102
RTVSPost2010Prop33
280
     0
102
RTVSPost2010PropOp33
 70
     0
102
RTVSPost2010Prop34
280
     0
102
RTVSPost2010PropOp34
 70
     0
102
RTVSPost2010Prop35
280
     0
102
RTVSPost2010PropOp35
 70
     0
102
RTVSPost2010Prop36
280
     0
102
RTVSPost2010PropOp36
 70
     0
102
RTVSPost2010Prop37
 90
       50
102
RTVSPost2010PropOp37
 70
     0
102
RTVSPost2010Prop38
140
0.0
102
RTVSPost2010PropOp38
 70
     0
102
RTVSPost2010Prop39
140
1.0
102
RTVSPost2010PropOp39
 70
     0
102
RTVSPost2010Prop40
 90
        0
102
RTVSPost2010PropOp40
 70
     0
102
RTVSPost2010Prop41ColorIndex
 90
       18
102
RTVSPost2010Prop41ColorRGB
 90
        0
102
RTVSPost2010PropOp41
 70
     0
102
RTVSPost2010Prop42
 90
       50
102
RTVSPost2010PropOp42
 70
     0
102
RTVSPost2010Prop43
 90
        3
102
RTVSPost2010PropOp43
 70
     0
102
RTVSPost2010Prop44ColorIndex
 90
        5
102
RTVSPost2010Prop44ColorRGB
 90
      255
102
RTVSPost2010PropOp44
 70
     0
102
RTVSPost2010Prop45
280
     0
102
RTVSPost2010PropOp45
 70
     0
102
RTVSPost2010Prop46
 90
       50
102
RTVSPost2010PropOp46
 70
     0
102
RTVSPost2010Prop47
 90
       50
102
RTVSPost2010PropOp47
 70
     0
102
RTVSPost2010Prop48
 90
       50
102
RTVSPost2010PropOp48
 70
     0
102
RTVSPost2010Prop49
280
     0
102
RTVSPost2010PropOp49
 70
     0
102
RTVSPost2010Prop50
 90
       50
102
RTVSPost2010PropOp50
 70
     0
102
RTVSPost2010Prop51ColorIndex
 90
      256
102
RTVSPost2010Prop51ColorRGB
 90
-16777216
102
RTVSPost2010PropOp51
 70
     0
102
RTVSPost2010Prop52
140
1.0
102
RTVSPost2010PropOp52
 70
     0
102
RTVSPost2010Prop53
 90
        2
102
RTVSPost2010PropOp53
 70
     0
102
RTVSPost2010Prop54
  1
strokes_ogs.tif
102
RTVSPost2010PropOp54
 70
     0
102
RTVSPost2010Prop55
280
     0
102
RTVSPost2010PropOp55
 70
     0
102
RTVSPost2010Prop56
140
1.0
102
RTVSPost2010PropOp56
 70
     0
102
RTVSPost2010Prop57
140
1.0
102
RTVSPost2010PropOp57
 70
     0
102
RTVSPropertyOp0
 70
     0
102
RTVSPropertyOp1
 70
     0
102
RTVSPropertyOp2
 70
     0
102
RTVSPropertyOp3
 70
     0
102
RTVSPropertyOp4
 70
     0
102
RTVSPropertyOp5
 70
     0
102
RTVSPropertyOp6
 70
     0
102
RTVSPropertyOp7
 70
     0
102
RTVSPropertyOp8
 70
     0
102
RTVSPropertyOp9
 70
     0
102
RTVSPropertyOp10
 70
     0
102
RTVSPropertyOp11
 70
     0
102
RTVSPropertyOp12
 70
     0
102
RTVSPropertyOp13
 70
     0
102
RTVSPropertyOp14
 70
     2
102
RTVSPropertyOp15
 70
     0
102
RTVSPropertyOp16
 70
     0
102
RTVSPropertyOp17
 70
     0
102
RTVSPropertyOp18
 70
     0
102
RTVSPropertyOp19
 70
     0
102
RTVSPropertyOp20
 70
     0
102
RTVSPropertyOp21
 70
     0
102
RTVSPropertyOp22
 70
     0
102
RTVSPropertyOp23
 70
     0
102
RTVSPropertyOp24
 70
     0
102
RTVSPropertyOp25
 70
     0
102
RTVSPropertyOp26
 70
     0
102
RTVSPropertyOp27
 70
     0
102
RTVSPropertyOp28
 70
     0
102
RTVSPropertyOp29
 70
     0
102
RTVSPropertyOp30
 70
     0
102
RTVSPropertyOp31
 70
     0
102
RTVSPropertyOp32
 70
     0
102
RTVSPropertyOp33
 70
     0
102
RTVSPropertyOp34
 70
     0
102
RTVSPropertyOp35
 70
     0
102
RTVSPropertyOp36
 70
     0
102
RTVSPropertyOp37
 70
     0
102
RTVSPropertyOp38
 70
     0
102
RTVSPropertyOp39
 70
     0
102
RTVSPropertyOp40
 70
     0
102
RTVSPropertyOp41
 70
     0
102
RTVSPropertyOp42
 70
     0
102
RTVSPropertyOp43
 70
     0
102
RTVSPropertyOp44
 70
     0
102
RTVSPropertyOp45
 70
     0
102
RTVSPropertyOp46
 70
     0
102
RTVSPropertyOp47
 70
     0
102
RTVSPropertyOp48
 70
     0
102
RTVSPropertyOp49
 70
     0
102
RTVSPropertyOp50
 70
     0
102
RTVSPropertyOp51
 70
     0
102
RTVSPropertyOp52
 70
     0
102
RTVSPropertyOp53
 70
     0
102
RTVSPropertyOp54
 70
     0
102
RTVSPropertyOp55
 70
     0
102
RTVSPropertyOp56
 70
     0
102
RTVSPropertyOp57
 70
     0
102
RTVSPropertyOp58
 70
     1
102
RTVSPropertyOp59
 70
     1
102
RTVSPropertyOp60
 70
     1
102
RTVSPropertyOp61
 70
     1
102
RTVSPropertyOp62
 70
     1
  0
XRECORD
  5
384
102
{ACAD_REACTORS
330
383
102
}
330
383
100
AcDbXrecord
280
     1
102
RTVSPost2010Prop28
280
     0
102
RTVSPost2010PropOp28
 70
     1
102
RTVSPost2010Prop29
280
     1
102
RTVSPost2010PropOp29
 70
     1
102
RTVSPost2010Prop30
280
     1
102
RTVSPost2010PropOp30
 70
     1
102
RTVSPost2010Prop31
280
     0
102
RTVSPost2010PropOp31
 70
     1
102
RTVSPost2010Prop32
280
     0
102
RTVSPost2010PropOp32
 70
     1
102
RTVSPost2010Prop33
280
     0
102
RTVSPost2010PropOp33
 70
     1
102
RTVSPost2010Prop34
280
     0
102
RTVSPost2010PropOp34
 70
     1
102
RTVSPost2010Prop35
280
     0
102
RTVSPost2010PropOp35
 70
     1
102
RTVSPost2010Prop36
280
     0
102
RTVSPost2010PropOp36
 70
     1
102
RTVSPost2010Prop37
 90
       50
102
RTVSPost2010PropOp37
 70
     1
102
RTVSPost2010Prop38
140
0.0
102
RTVSPost2010PropOp38
 70
     1
102
RTVSPost2010Prop39
140
1.0
102
RTVSPost2010PropOp39
 70
     1
102
RTVSPost2010Prop40
 90
        0
102
RTVSPost2010PropOp40
 70
     1
102
RTVSPost2010Prop41ColorIndex
 90
       18
102
RTVSPost2010Prop41ColorRGB
 90
        0
102
RTVSPost2010PropOp41
 70
     1
102
RTVSPost2010Prop42
 90
       50
102
RTVSPost2010PropOp42
 70
     1
102
RTVSPost2010Prop43
 90
        3
102
RTVSPost2010PropOp43
 70
     1
102
RTVSPost2010Prop44ColorIndex
 90
        5
102
RTVSPost2010Prop44ColorRGB
 90
      255
102
RTVSPost2010PropOp44
 70
     1
102
RTVSPost2010Prop45
280
     0
102
RTVSPost2010PropOp45
 70
     1
102
RTVSPost2010Prop46
 90
       50
102
RTVSPost2010PropOp46
 70
     1
102
RTVSPost2010Prop47
 90
       50
102
RTVSPost2010PropOp47
 70
     1
102
RTVSPost2010Prop48
 90
       50
102
RTVSPost2010PropOp48
 70
     1
102
RTVSPost2010Prop49
280
     0
102
RTVSPost2010PropOp49
 70
     1
102
RTVSPost2010Prop50
 90
       50
102
RTVSPost2010PropOp50
 70
     1
102
RTVSPost2010Prop51ColorIndex
 90
      256
102
RTVSPost2010Prop51ColorRGB
 90
-16777216
102
RTVSPost2010PropOp51
 70
     0
102
RTVSPost2010Prop52
140
1.0
102
RTVSPost2010PropOp52
 70
     0
102
RTVSPost2010Prop53
 90
        2
102
RTVSPost2010PropOp53
 70
     1
102
RTVSPost2010Prop54
  1
strokes_ogs.tif
102
RTVSPost2010PropOp54
 70
     1
102
RTVSPost2010Prop55
280
     0
102
RTVSPost2010PropOp55
 70
     1
102
RTVSPost2010Prop56
140
1.0
102
RTVSPost2010PropOp56
 70
     1
102
RTVSPost2010Prop57
140
1.0
102
RTVSPost2010PropOp57
 70
     1
102
RTVSPropertyOp0
 70
     1
102
RTVSPropertyOp1
 70
     1
102
RTVSPropertyOp2
 70
     1
102
RTVSPropertyOp3
 70
     1
102
RTVSPropertyOp4
 70
     1
102
RTVSPropertyOp5
 70
     1
102
RTVSPropertyOp6
 70
     1
102
RTVSPropertyOp7
 70
     1
102
RTVSPropertyOp8
 70
     1
102
RTVSPropertyOp9
 70
     1
102
RTVSPropertyOp10
 70
     1
102
RTVSPropertyOp11
 70
     1
102
RTVSPropertyOp12
 70
     1
102
RTVSPropertyOp13
 70
     1
102
RTVSPropertyOp14
 70
     1
102
RTVSPropertyOp15
 70
     1
102
RTVSPropertyOp16
 70
     1
102
RTVSPropertyOp17
 70
     1
102
RTVSPropertyOp18
 70
     1
102
RTVSPropertyOp19
 70
     1
102
RTVSPropertyOp20
 70
     1
102
RTVSPropertyOp21
 70
     1
102
RTVSPropertyOp22
 70
     1
102
RTVSPropertyOp23
 70
     1
102
RTVSPropertyOp24
 70
     1
102
RTVSPropertyOp25
 70
     1
102
RTVSPropertyOp26
 70
     1
102
RTVSPropertyOp27
 70
     1
102
RTVSPropertyOp28
 70
     1
102
RTVSPropertyOp29
 70
     1
102
RTVSPropertyOp30
 70
     1
102
RTVSPropertyOp31
 70
     1
102
RTVSPropertyOp32
 70
     1
102
RTVSPropertyOp33
 70
     1
102
RTVSPropertyOp34
 70
     1
102
RTVSPropertyOp35
 70
     1
102
RTVSPropertyOp36
 70
     1
102
RTVSPropertyOp37
 70
     1
102
RTVSPropertyOp38
 70
     1
102
RTVSPropertyOp39
 70
     1
102
RTVSPropertyOp40
 70
     1
102
RTVSPropertyOp41
 70
     1
102
RTVSPropertyOp42
 70
     1
102
RTVSPropertyOp43
 70
     1
102
RTVSPropertyOp44
 70
     1
102
RTVSPropertyOp45
 70
     1
102
RTVSPropertyOp46
 70
     1
102
RTVSPropertyOp47
 70
     1
102
RTVSPropertyOp48
 70
     1
102
RTVSPropertyOp49
 70
     1
102
RTVSPropertyOp50
 70
     1
102
RTVSPropertyOp51
 70
     0
102
RTVSPropertyOp52
 70
     0
102
RTVSPropertyOp53
 70
     1
102
RTVSPropertyOp54
 70
     1
102
RTVSPropertyOp55
 70
     1
102
RTVSPropertyOp56
 70
     1
102
RTVSPropertyOp57
 70
     1
102
RTVSPropertyOp58
 70
     1
102
RTVSPropertyOp59
 70
     1
102
RTVSPropertyOp60
 70
     1
102
RTVSPropertyOp61
 70
     1
102
RTVSPropertyOp62
 70
     1
  0
XRECORD
  5
368
102
{ACAD_REACTORS
330
367
102
}
330
367
100
AcDbXrecord
280
     1
102
RTVSPost2010Prop28
280
     0
102
RTVSPost2010PropOp28
 70
     1
102
RTVSPost2010Prop29
280
     1
102
RTVSPost2010PropOp29
 70
     1
102
RTVSPost2010Prop30
280
     1
102
RTVSPost2010PropOp30
 70
     1
102
RTVSPost2010Prop31
280
     0
102
RTVSPost2010PropOp31
 70
     1
102
RTVSPost2010Prop32
280
     0
102
RTVSPost2010PropOp32
 70
     1
102
RTVSPost2010Prop33
280
     0
102
RTVSPost2010PropOp33
 70
     1
102
RTVSPost2010Prop34
280
     0
102
RTVSPost2010PropOp34
 70
     1
102
RTVSPost2010Prop35
280
     0
102
RTVSPost2010PropOp35
 70
     1
102
RTVSPost2010Prop36
280
     0
102
RTVSPost2010PropOp36
 70
     1
102
RTVSPost2010Prop37
 90
       50
102
RTVSPost2010PropOp37
 70
     1
102
RTVSPost2010Prop38
140
0.0
102
RTVSPost2010PropOp38
 70
     1
102
RTVSPost2010Prop39
140
1.0
102
RTVSPost2010PropOp39
 70
     1
102
RTVSPost2010Prop40
 90
        0
102
RTVSPost2010PropOp40
 70
     1
102
RTVSPost2010Prop41ColorIndex
 90
       18
102
RTVSPost2010Prop41ColorRGB
 90
        0
102
RTVSPost2010PropOp41
 70
     1
102
RTVSPost2010Prop42
 90
       50
102
RTVSPost2010PropOp42
 70
     1
102
RTVSPost2010Prop43
 90
        3
102
RTVSPost2010PropOp43
 70
     1
102
RTVSPost2010Prop44ColorIndex
 90
        5
102
RTVSPost2010Prop44ColorRGB
 90
      255
102
RTVSPost2010PropOp44
 70
     1
102
RTVSPost2010Prop45
280
     0
102
RTVSPost2010PropOp45
 70
     1
102
RTVSPost2010Prop46
 90
       50
102
RTVSPost2010PropOp46
 70
     1
102
RTVSPost2010Prop47
 90
       50
102
RTVSPost2010PropOp47
 70
     1
102
RTVSPost2010Prop48
 90
       50
102
RTVSPost2010PropOp48
 70
     1
102
RTVSPost2010Prop49
280
     0
102
RTVSPost2010PropOp49
 70
     1
102
RTVSPost2010Prop50
 90
       50
102
RTVSPost2010PropOp50
 70
     1
102
RTVSPost2010Prop51ColorIndex
 90
      256
102
RTVSPost2010Prop51ColorRGB
 90
-16777216
102
RTVSPost2010PropOp51
 70
     0
102
RTVSPost2010Prop52
140
1.0
102
RTVSPost2010PropOp52
 70
     0
102
RTVSPost2010Prop53
 90
        2
102
RTVSPost2010PropOp53
 70
     1
102
RTVSPost2010Prop54
  1
strokes_ogs.tif
102
RTVSPost2010PropOp54
 70
     1
102
RTVSPost2010Prop55
280
     0
102
RTVSPost2010PropOp55
 70
     1
102
RTVSPost2010Prop56
140
1.0
102
RTVSPost2010PropOp56
 70
     1
102
RTVSPost2010Prop57
140
1.0
102
RTVSPost2010PropOp57
 70
     1
102
RTVSPropertyOp0
 70
     1
102
RTVSPropertyOp1
 70
     1
102
RTVSPropertyOp2
 70
     1
102
RTVSPropertyOp3
 70
     1
102
RTVSPropertyOp4
 70
     1
102
RTVSPropertyOp5
 70
     1
102
RTVSPropertyOp6
 70
     1
102
RTVSPropertyOp7
 70
     1
102
RTVSPropertyOp8
 70
     1
102
RTVSPropertyOp9
 70
     1
102
RTVSPropertyOp10
 70
     1
102
RTVSPropertyOp11
 70
     1
102
RTVSPropertyOp12
 70
     1
102
RTVSPropertyOp13
 70
     1
102
RTVSPropertyOp14
 70
     1
102
RTVSPropertyOp15
 70
     1
102
RTVSPropertyOp16
 70
     1
102
RTVSPropertyOp17
 70
     1
102
RTVSPropertyOp18
 70
     1
102
RTVSPropertyOp19
 70
     1
102
RTVSPropertyOp20
 70
     1
102
RTVSPropertyOp21
 70
     1
102
RTVSPropertyOp22
 70
     1
102
RTVSPropertyOp23
 70
     1
102
RTVSPropertyOp24
 70
     1
102
RTVSPropertyOp25
 70
     1
102
RTVSPropertyOp26
 70
     1
102
RTVSPropertyOp27
 70
     1
102
RTVSPropertyOp28
 70
     1
102
RTVSPropertyOp29
 70
     1
102
RTVSPropertyOp30
 70
     1
102
RTVSPropertyOp31
 70
     1
102
RTVSPropertyOp32
 70
     1
102
RTVSPropertyOp33
 70
     1
102
RTVSPropertyOp34
 70
     1
102
RTVSPropertyOp35
 70
     1
102
RTVSPropertyOp36
 70
     1
102
RTVSPropertyOp37
 70
     1
102
RTVSPropertyOp38
 70
     1
102
RTVSPropertyOp39
 70
     1
102
RTVSPropertyOp40
 70
     1
102
RTVSPropertyOp41
 70
     1
102
RTVSPropertyOp42
 70
     1
102
RTVSPropertyOp43
 70
     1
102
RTVSPropertyOp44
 70
     1
102
RTVSPropertyOp45
 70
     1
102
RTVSPropertyOp46
 70
     1
102
RTVSPropertyOp47
 70
     1
102
RTVSPropertyOp48
 70
     1
102
RTVSPropertyOp49
 70
     1
102
RTVSPropertyOp50
 70
     1
102
RTVSPropertyOp51
 70
     0
102
RTVSPropertyOp52
 70
     0
102
RTVSPropertyOp53
 70
     1
102
RTVSPropertyOp54
 70
     1
102
RTVSPropertyOp55
 70
     1
102
RTVSPropertyOp56
 70
     1
102
RTVSPropertyOp57
 70
     1
102
RTVSPropertyOp58
 70
     1
102
RTVSPropertyOp59
 70
     1
102
RTVSPropertyOp60
 70
     1
102
RTVSPropertyOp61
 70
     1
102
RTVSPropertyOp62
 70
     1
  0
XRECORD
  5
36A
102
{ACAD_REACTORS
330
369
102
}
330
369
100
AcDbXrecord
280
     1
102
RTVSPost2010Prop28
280
     0
102
RTVSPost2010PropOp28
 70
     1
102
RTVSPost2010Prop29
280
     1
102
RTVSPost2010PropOp29
 70
     1
102
RTVSPost2010Prop30
280
     1
102
RTVSPost2010PropOp30
 70
     1
102
RTVSPost2010Prop31
280
     0
102
RTVSPost2010PropOp31
 70
     1
102
RTVSPost2010Prop32
280
     0
102
RTVSPost2010PropOp32
 70
     1
102
RTVSPost2010Prop33
280
     0
102
RTVSPost2010PropOp33
 70
     1
102
RTVSPost2010Prop34
280
     0
102
RTVSPost2010PropOp34
 70
     1
102
RTVSPost2010Prop35
280
     0
102
RTVSPost2010PropOp35
 70
     1
102
RTVSPost2010Prop36
280
     0
102
RTVSPost2010PropOp36
 70
     1
102
RTVSPost2010Prop37
 90
       50
102
RTVSPost2010PropOp37
 70
     1
102
RTVSPost2010Prop38
140
0.0
102
RTVSPost2010PropOp38
 70
     1
102
RTVSPost2010Prop39
140
1.0
102
RTVSPost2010PropOp39
 70
     1
102
RTVSPost2010Prop40
 90
        0
102
RTVSPost2010PropOp40
 70
     1
102
RTVSPost2010Prop41ColorIndex
 90
       18
102
RTVSPost2010Prop41ColorRGB
 90
        0
102
RTVSPost2010PropOp41
 70
     1
102
RTVSPost2010Prop42
 90
       50
102
RTVSPost2010PropOp42
 70
     1
102
RTVSPost2010Prop43
 90
        3
102
RTVSPost2010PropOp43
 70
     1
102
RTVSPost2010Prop44ColorIndex
 90
        5
102
RTVSPost2010Prop44ColorRGB
 90
      255
102
RTVSPost2010PropOp44
 70
     1
102
RTVSPost2010Prop45
280
     0
102
RTVSPost2010PropOp45
 70
     1
102
RTVSPost2010Prop46
 90
       50
102
RTVSPost2010PropOp46
 70
     1
102
RTVSPost2010Prop47
 90
       50
102
RTVSPost2010PropOp47
 70
     1
102
RTVSPost2010Prop48
 90
       50
102
RTVSPost2010PropOp48
 70
     1
102
RTVSPost2010Prop49
280
     0
102
RTVSPost2010PropOp49
 70
     1
102
RTVSPost2010Prop50
 90
       50
102
RTVSPost2010PropOp50
 70
     1
102
RTVSPost2010Prop51ColorIndex
 90
      256
102
RTVSPost2010Prop51ColorRGB
 90
-16777216
102
RTVSPost2010PropOp51
 70
     0
102
RTVSPost2010Prop52
140
1.0
102
RTVSPost2010PropOp52
 70
     0
102
RTVSPost2010Prop53
 90
        2
102
RTVSPost2010PropOp53
 70
     1
102
RTVSPost2010Prop54
  1
strokes_ogs.tif
102
RTVSPost2010PropOp54
 70
     1
102
RTVSPost2010Prop55
280
     0
102
RTVSPost2010PropOp55
 70
     1
102
RTVSPost2010Prop56
140
1.0
102
RTVSPost2010PropOp56
 70
     1
102
RTVSPost2010Prop57
140
1.0
102
RTVSPost2010PropOp57
 70
     1
102
RTVSPropertyOp0
 70
     1
102
RTVSPropertyOp1
 70
     1
102
RTVSPropertyOp2
 70
     1
102
RTVSPropertyOp3
 70
     1
102
RTVSPropertyOp4
 70
     1
102
RTVSPropertyOp5
 70
     1
102
RTVSPropertyOp6
 70
     1
102
RTVSPropertyOp7
 70
     1
102
RTVSPropertyOp8
 70
     1
102
RTVSPropertyOp9
 70
     1
102
RTVSPropertyOp10
 70
     1
102
RTVSPropertyOp11
 70
     1
102
RTVSPropertyOp12
 70
     1
102
RTVSPropertyOp13
 70
     1
102
RTVSPropertyOp14
 70
     1
102
RTVSPropertyOp15
 70
     1
102
RTVSPropertyOp16
 70
     1
102
RTVSPropertyOp17
 70
     1
102
RTVSPropertyOp18
 70
     1
102
RTVSPropertyOp19
 70
     1
102
RTVSPropertyOp20
 70
     1
102
RTVSPropertyOp21
 70
     1
102
RTVSPropertyOp22
 70
     1
102
RTVSPropertyOp23
 70
     1
102
RTVSPropertyOp24
 70
     1
102
RTVSPropertyOp25
 70
     1
102
RTVSPropertyOp26
 70
     1
102
RTVSPropertyOp27
 70
     1
102
RTVSPropertyOp28
 70
     1
102
RTVSPropertyOp29
 70
     1
102
RTVSPropertyOp30
 70
     1
102
RTVSPropertyOp31
 70
     1
102
RTVSPropertyOp32
 70
     1
102
RTVSPropertyOp33
 70
     1
102
RTVSPropertyOp34
 70
     1
102
RTVSPropertyOp35
 70
     1
102
RTVSPropertyOp36
 70
     1
102
RTVSPropertyOp37
 70
     1
102
RTVSPropertyOp38
 70
     1
102
RTVSPropertyOp39
 70
     1
102
RTVSPropertyOp40
 70
     1
102
RTVSPropertyOp41
 70
     1
102
RTVSPropertyOp42
 70
     1
102
RTVSPropertyOp43
 70
     1
102
RTVSPropertyOp44
 70
     1
102
RTVSPropertyOp45
 70
     1
102
RTVSPropertyOp46
 70
     1
102
RTVSPropertyOp47
 70
     1
102
RTVSPropertyOp48
 70
     1
102
RTVSPropertyOp49
 70
     1
102
RTVSPropertyOp50
 70
     1
102
RTVSPropertyOp51
 70
     0
102
RTVSPropertyOp52
 70
     0
102
RTVSPropertyOp53
 70
     1
102
RTVSPropertyOp54
 70
     1
102
RTVSPropertyOp55
 70
     1
102
RTVSPropertyOp56
 70
     1
102
RTVSPropertyOp57
 70
     1
102
RTVSPropertyOp58
 70
     1
102
RTVSPropertyOp59
 70
     1
102
RTVSPropertyOp60
 70
     1
102
RTVSPropertyOp61
 70
     1
102
RTVSPropertyOp62
 70
     1
  0
XRECORD
  5
36C
102
{ACAD_REACTORS
330
36B
102
}
330
36B
100
AcDbXrecord
280
     1
102
RTVSPost2010Prop28
280
     0
102
RTVSPost2010PropOp28
 70
     1
102
RTVSPost2010Prop29
280
     1
102
RTVSPost2010PropOp29
 70
     1
102
RTVSPost2010Prop30
280
     1
102
RTVSPost2010PropOp30
 70
     1
102
RTVSPost2010Prop31
280
     0
102
RTVSPost2010PropOp31
 70
     1
102
RTVSPost2010Prop32
280
     0
102
RTVSPost2010PropOp32
 70
     1
102
RTVSPost2010Prop33
280
     0
102
RTVSPost2010PropOp33
 70
     1
102
RTVSPost2010Prop34
280
     0
102
RTVSPost2010PropOp34
 70
     1
102
RTVSPost2010Prop35
280
     0
102
RTVSPost2010PropOp35
 70
     1
102
RTVSPost2010Prop36
280
     0
102
RTVSPost2010PropOp36
 70
     1
102
RTVSPost2010Prop37
 90
       50
102
RTVSPost2010PropOp37
 70
     1
102
RTVSPost2010Prop38
140
0.0
102
RTVSPost2010PropOp38
 70
     1
102
RTVSPost2010Prop39
140
1.0
102
RTVSPost2010PropOp39
 70
     1
102
RTVSPost2010Prop40
 90
        0
102
RTVSPost2010PropOp40
 70
     1
102
RTVSPost2010Prop41ColorIndex
 90
       18
102
RTVSPost2010Prop41ColorRGB
 90
        0
102
RTVSPost2010PropOp41
 70
     1
102
RTVSPost2010Prop42
 90
       50
102
RTVSPost2010PropOp42
 70
     1
102
RTVSPost2010Prop43
 90
        3
102
RTVSPost2010PropOp43
 70
     1
102
RTVSPost2010Prop44ColorIndex
 90
        5
102
RTVSPost2010Prop44ColorRGB
 90
      255
102
RTVSPost2010PropOp44
 70
     1
102
RTVSPost2010Prop45
280
     0
102
RTVSPost2010PropOp45
 70
     1
102
RTVSPost2010Prop46
 90
       50
102
RTVSPost2010PropOp46
 70
     1
102
RTVSPost2010Prop47
 90
       50
102
RTVSPost2010PropOp47
 70
     1
102
RTVSPost2010Prop48
 90
       50
102
RTVSPost2010PropOp48
 70
     1
102
RTVSPost2010Prop49
280
     0
102
RTVSPost2010PropOp49
 70
     1
102
RTVSPost2010Prop50
 90
       50
102
RTVSPost2010PropOp50
 70
     1
102
RTVSPost2010Prop51ColorIndex
 90
      256
102
RTVSPost2010Prop51ColorRGB
 90
-16777216
102
RTVSPost2010PropOp51
 70
     0
102
RTVSPost2010Prop52
140
1.0
102
RTVSPost2010PropOp52
 70
     0
102
RTVSPost2010Prop53
 90
        2
102
RTVSPost2010PropOp53
 70
     1
102
RTVSPost2010Prop54
  1
strokes_ogs.tif
102
RTVSPost2010PropOp54
 70
     1
102
RTVSPost2010Prop55
280
     0
102
RTVSPost2010PropOp55
 70
     1
102
RTVSPost2010Prop56
140
1.0
102
RTVSPost2010PropOp56
 70
     1
102
RTVSPost2010Prop57
140
1.0
102
RTVSPost2010PropOp57
 70
     1
102
RTVSPropertyOp0
 70
     1
102
RTVSPropertyOp1
 70
     1
102
RTVSPropertyOp2
 70
     1
102
RTVSPropertyOp3
 70
     1
102
RTVSPropertyOp4
 70
     1
102
RTVSPropertyOp5
 70
     1
102
RTVSPropertyOp6
 70
     1
102
RTVSPropertyOp7
 70
     1
102
RTVSPropertyOp8
 70
     1
102
RTVSPropertyOp9
 70
     1
102
RTVSPropertyOp10
 70
     1
102
RTVSPropertyOp11
 70
     1
102
RTVSPropertyOp12
 70
     1
102
RTVSPropertyOp13
 70
     1
102
RTVSPropertyOp14
 70
     1
102
RTVSPropertyOp15
 70
     1
102
RTVSPropertyOp16
 70
     1
102
RTVSPropertyOp17
 70
     1
102
RTVSPropertyOp18
 70
     1
102
RTVSPropertyOp19
 70
     1
102
RTVSPropertyOp20
 70
     1
102
RTVSPropertyOp21
 70
     1
102
RTVSPropertyOp22
 70
     1
102
RTVSPropertyOp23
 70
     1
102
RTVSPropertyOp24
 70
     1
102
RTVSPropertyOp25
 70
     1
102
RTVSPropertyOp26
 70
     1
102
RTVSPropertyOp27
 70
     1
102
RTVSPropertyOp28
 70
     1
102
RTVSPropertyOp29
 70
     1
102
RTVSPropertyOp30
 70
     1
102
RTVSPropertyOp31
 70
     1
102
RTVSPropertyOp32
 70
     1
102
RTVSPropertyOp33
 70
     1
102
RTVSPropertyOp34
 70
     1
102
RTVSPropertyOp35
 70
     1
102
RTVSPropertyOp36
 70
     1
102
RTVSPropertyOp37
 70
     1
102
RTVSPropertyOp38
 70
     1
102
RTVSPropertyOp39
 70
     1
102
RTVSPropertyOp40
 70
     1
102
RTVSPropertyOp41
 70
     1
102
RTVSPropertyOp42
 70
     1
102
RTVSPropertyOp43
 70
     1
102
RTVSPropertyOp44
 70
     1
102
RTVSPropertyOp45
 70
     1
102
RTVSPropertyOp46
 70
     1
102
RTVSPropertyOp47
 70
     1
102
RTVSPropertyOp48
 70
     1
102
RTVSPropertyOp49
 70
     1
102
RTVSPropertyOp50
 70
     1
102
RTVSPropertyOp51
 70
     0
102
RTVSPropertyOp52
 70
     0
102
RTVSPropertyOp53
 70
     1
102
RTVSPropertyOp54
 70
     1
102
RTVSPropertyOp55
 70
     1
102
RTVSPropertyOp56
 70
     1
102
RTVSPropertyOp57
 70
     1
102
RTVSPropertyOp58
 70
     1
102
RTVSPropertyOp59
 70
     1
102
RTVSPropertyOp60
 70
     1
102
RTVSPropertyOp61
 70
     1
102
RTVSPropertyOp62
 70
     1
  0
XRECORD
  5
36E
102
{ACAD_REACTORS
330
36D
102
}
330
36D
100
AcDbXrecord
280
     1
102
RTVSPost2010Prop28
280
     0
102
RTVSPost2010PropOp28
 70
     1
102
RTVSPost2010Prop29
280
     1
102
RTVSPost2010PropOp29
 70
     1
102
RTVSPost2010Prop30
280
     1
102
RTVSPost2010PropOp30
 70
     1
102
RTVSPost2010Prop31
280
     0
102
RTVSPost2010PropOp31
 70
     1
102
RTVSPost2010Prop32
280
     0
102
RTVSPost2010PropOp32
 70
     1
102
RTVSPost2010Prop33
280
     0
102
RTVSPost2010PropOp33
 70
     1
102
RTVSPost2010Prop34
280
     0
102
RTVSPost2010PropOp34
 70
     1
102
RTVSPost2010Prop35
280
     0
102
RTVSPost2010PropOp35
 70
     1
102
RTVSPost2010Prop36
280
     0
102
RTVSPost2010PropOp36
 70
     1
102
RTVSPost2010Prop37
 90
       50
102
RTVSPost2010PropOp37
 70
     1
102
RTVSPost2010Prop38
140
0.0
102
RTVSPost2010PropOp38
 70
     1
102
RTVSPost2010Prop39
140
1.0
102
RTVSPost2010PropOp39
 70
     1
102
RTVSPost2010Prop40
 90
        0
102
RTVSPost2010PropOp40
 70
     1
102
RTVSPost2010Prop41ColorIndex
 90
       18
102
RTVSPost2010Prop41ColorRGB
 90
        0
102
RTVSPost2010PropOp41
 70
     1
102
RTVSPost2010Prop42
 90
       50
102
RTVSPost2010PropOp42
 70
     1
102
RTVSPost2010Prop43
 90
        3
102
RTVSPost2010PropOp43
 70
     1
102
RTVSPost2010Prop44ColorIndex
 90
        5
102
RTVSPost2010Prop44ColorRGB
 90
      255
102
RTVSPost2010PropOp44
 70
     1
102
RTVSPost2010Prop45
280
     0
102
RTVSPost2010PropOp45
 70
     1
102
RTVSPost2010Prop46
 90
       50
102
RTVSPost2010PropOp46
 70
     1
102
RTVSPost2010Prop47
 90
       50
102
RTVSPost2010PropOp47
 70
     1
102
RTVSPost2010Prop48
 90
       50
102
RTVSPost2010PropOp48
 70
     1
102
RTVSPost2010Prop49
280
     0
102
RTVSPost2010PropOp49
 70
     1
102
RTVSPost2010Prop50
 90
       50
102
RTVSPost2010PropOp50
 70
     1
102
RTVSPost2010Prop51ColorIndex
 90
      256
102
RTVSPost2010Prop51ColorRGB
 90
-16777216
102
RTVSPost2010PropOp51
 70
     0
102
RTVSPost2010Prop52
140
1.0
102
RTVSPost2010PropOp52
 70
     0
102
RTVSPost2010Prop53
 90
        2
102
RTVSPost2010PropOp53
 70
     1
102
RTVSPost2010Prop54
  1
strokes_ogs.tif
102
RTVSPost2010PropOp54
 70
     1
102
RTVSPost2010Prop55
280
     0
102
RTVSPost2010PropOp55
 70
     1
102
RTVSPost2010Prop56
140
1.0
102
RTVSPost2010PropOp56
 70
     1
102
RTVSPost2010Prop57
140
1.0
102
RTVSPost2010PropOp57
 70
     1
102
RTVSPropertyOp0
 70
     1
102
RTVSPropertyOp1
 70
     1
102
RTVSPropertyOp2
 70
     1
102
RTVSPropertyOp3
 70
     1
102
RTVSPropertyOp4
 70
     1
102
RTVSPropertyOp5
 70
     1
102
RTVSPropertyOp6
 70
     1
102
RTVSPropertyOp7
 70
     1
102
RTVSPropertyOp8
 70
     1
102
RTVSPropertyOp9
 70
     1
102
RTVSPropertyOp10
 70
     1
102
RTVSPropertyOp11
 70
     1
102
RTVSPropertyOp12
 70
     1
102
RTVSPropertyOp13
 70
     1
102
RTVSPropertyOp14
 70
     1
102
RTVSPropertyOp15
 70
     1
102
RTVSPropertyOp16
 70
     1
102
RTVSPropertyOp17
 70
     1
102
RTVSPropertyOp18
 70
     1
102
RTVSPropertyOp19
 70
     1
102
RTVSPropertyOp20
 70
     1
102
RTVSPropertyOp21
 70
     1
102
RTVSPropertyOp22
 70
     1
102
RTVSPropertyOp23
 70
     1
102
RTVSPropertyOp24
 70
     1
102
RTVSPropertyOp25
 70
     1
102
RTVSPropertyOp26
 70
     1
102
RTVSPropertyOp27
 70
     1
102
RTVSPropertyOp28
 70
     1
102
RTVSPropertyOp29
 70
     1
102
RTVSPropertyOp30
 70
     1
102
RTVSPropertyOp31
 70
     1
102
RTVSPropertyOp32
 70
     1
102
RTVSPropertyOp33
 70
     1
102
RTVSPropertyOp34
 70
     1
102
RTVSPropertyOp35
 70
     1
102
RTVSPropertyOp36
 70
     1
102
RTVSPropertyOp37
 70
     1
102
RTVSPropertyOp38
 70
     1
102
RTVSPropertyOp39
 70
     1
102
RTVSPropertyOp40
 70
     1
102
RTVSPropertyOp41
 70
     1
102
RTVSPropertyOp42
 70
     1
102
RTVSPropertyOp43
 70
     1
102
RTVSPropertyOp44
 70
     1
102
RTVSPropertyOp45
 70
     1
102
RTVSPropertyOp46
 70
     1
102
RTVSPropertyOp47
 70
     1
102
RTVSPropertyOp48
 70
     1
102
RTVSPropertyOp49
 70
     1
102
RTVSPropertyOp50
 70
     1
102
RTVSPropertyOp51
 70
     0
102
RTVSPropertyOp52
 70
     0
102
RTVSPropertyOp53
 70
     1
102
RTVSPropertyOp54
 70
     1
102
RTVSPropertyOp55
 70
     1
102
RTVSPropertyOp56
 70
     1
102
RTVSPropertyOp57
 70
     1
102
RTVSPropertyOp58
 70
     1
102
RTVSPropertyOp59
 70
     1
102
RTVSPropertyOp60
 70
     1
102
RTVSPropertyOp61
 70
     1
102
RTVSPropertyOp62
 70
     1
  0
XRECORD
  5
374
102
{ACAD_REACTORS
330
373
102
}
330
373
100
AcDbXrecord
280
     1
102
RTVSPost2010Prop28
280
     0
102
RTVSPost2010PropOp28
 70
     1
102
RTVSPost2010Prop29
280
     1
102
RTVSPost2010PropOp29
 70
     1
102
RTVSPost2010Prop30
280
     1
102
RTVSPost2010PropOp30
 70
     1
102
RTVSPost2010Prop31
280
     0
102
RTVSPost2010PropOp31
 70
     1
102
RTVSPost2010Prop32
280
     0
102
RTVSPost2010PropOp32
 70
     1
102
RTVSPost2010Prop33
280
     0
102
RTVSPost2010PropOp33
 70
     1
102
RTVSPost2010Prop34
280
     0
102
RTVSPost2010PropOp34
 70
     1
102
RTVSPost2010Prop35
280
     0
102
RTVSPost2010PropOp35
 70
     1
102
RTVSPost2010Prop36
280
     0
102
RTVSPost2010PropOp36
 70
     1
102
RTVSPost2010Prop37
 90
       50
102
RTVSPost2010PropOp37
 70
     1
102
RTVSPost2010Prop38
140
0.0
102
RTVSPost2010PropOp38
 70
     1
102
RTVSPost2010Prop39
140
1.0
102
RTVSPost2010PropOp39
 70
     1
102
RTVSPost2010Prop40
 90
        0
102
RTVSPost2010PropOp40
 70
     1
102
RTVSPost2010Prop41ColorIndex
 90
       18
102
RTVSPost2010Prop41ColorRGB
 90
        0
102
RTVSPost2010PropOp41
 70
     1
102
RTVSPost2010Prop42
 90
       50
102
RTVSPost2010PropOp42
 70
     1
102
RTVSPost2010Prop43
 90
        3
102
RTVSPost2010PropOp43
 70
     1
102
RTVSPost2010Prop44ColorIndex
 90
        5
102
RTVSPost2010Prop44ColorRGB
 90
      255
102
RTVSPost2010PropOp44
 70
     1
102
RTVSPost2010Prop45
280
     0
102
RTVSPost2010PropOp45
 70
     1
102
RTVSPost2010Prop46
 90
       50
102
RTVSPost2010PropOp46
 70
     1
102
RTVSPost2010Prop47
 90
       50
102
RTVSPost2010PropOp47
 70
     1
102
RTVSPost2010Prop48
 90
       50
102
RTVSPost2010PropOp48
 70
     1
102
RTVSPost2010Prop49
280
     0
102
RTVSPost2010PropOp49
 70
     1
102
RTVSPost2010Prop50
 90
       50
102
RTVSPost2010PropOp50
 70
     1
102
RTVSPost2010Prop51ColorIndex
 90
      256
102
RTVSPost2010Prop51ColorRGB
 90
-16777216
102
RTVSPost2010PropOp51
 70
     0
102
RTVSPost2010Prop52
140
1.0
102
RTVSPost2010PropOp52
 70
     0
102
RTVSPost2010Prop53
 90
        2
102
RTVSPost2010PropOp53
 70
     1
102
RTVSPost2010Prop54
  1
strokes_ogs.tif
102
RTVSPost2010PropOp54
 70
     1
102
RTVSPost2010Prop55
280
     0
102
RTVSPost2010PropOp55
 70
     1
102
RTVSPost2010Prop56
140
1.0
102
RTVSPost2010PropOp56
 70
     1
102
RTVSPost2010Prop57
140
1.0
102
RTVSPost2010PropOp57
 70
     1
102
RTVSPropertyOp0
 70
     1
102
RTVSPropertyOp1
 70
     1
102
RTVSPropertyOp2
 70
     1
102
RTVSPropertyOp3
 70
     1
102
RTVSPropertyOp4
 70
     1
102
RTVSPropertyOp5
 70
     1
102
RTVSPropertyOp6
 70
     1
102
RTVSPropertyOp7
 70
     1
102
RTVSPropertyOp8
 70
     1
102
RTVSPropertyOp9
 70
     1
102
RTVSPropertyOp10
 70
     1
102
RTVSPropertyOp11
 70
     1
102
RTVSPropertyOp12
 70
     1
102
RTVSPropertyOp13
 70
     1
102
RTVSPropertyOp14
 70
     1
102
RTVSPropertyOp15
 70
     1
102
RTVSPropertyOp16
 70
     1
102
RTVSPropertyOp17
 70
     1
102
RTVSPropertyOp18
 70
     1
102
RTVSPropertyOp19
 70
     1
102
RTVSPropertyOp20
 70
     1
102
RTVSPropertyOp21
 70
     1
102
RTVSPropertyOp22
 70
     1
102
RTVSPropertyOp23
 70
     1
102
RTVSPropertyOp24
 70
     1
102
RTVSPropertyOp25
 70
     1
102
RTVSPropertyOp26
 70
     1
102
RTVSPropertyOp27
 70
     1
102
RTVSPropertyOp28
 70
     1
102
RTVSPropertyOp29
 70
     1
102
RTVSPropertyOp30
 70
     1
102
RTVSPropertyOp31
 70
     1
102
RTVSPropertyOp32
 70
     1
102
RTVSPropertyOp33
 70
     1
102
RTVSPropertyOp34
 70
     1
102
RTVSPropertyOp35
 70
     1
102
RTVSPropertyOp36
 70
     1
102
RTVSPropertyOp37
 70
     1
102
RTVSPropertyOp38
 70
     1
102
RTVSPropertyOp39
 70
     1
102
RTVSPropertyOp40
 70
     1
102
RTVSPropertyOp41
 70
     1
102
RTVSPropertyOp42
 70
     1
102
RTVSPropertyOp43
 70
     1
102
RTVSPropertyOp44
 70
     1
102
RTVSPropertyOp45
 70
     1
102
RTVSPropertyOp46
 70
     1
102
RTVSPropertyOp47
 70
     1
102
RTVSPropertyOp48
 70
     1
102
RTVSPropertyOp49
 70
     1
102
RTVSPropertyOp50
 70
     1
102
RTVSPropertyOp51
 70
     0
102
RTVSPropertyOp52
 70
     0
102
RTVSPropertyOp53
 70
     1
102
RTVSPropertyOp54
 70
     1
102
RTVSPropertyOp55
 70
     1
102
RTVSPropertyOp56
 70
     1
102
RTVSPropertyOp57
 70
     1
102
RTVSPropertyOp58
 70
     1
102
RTVSPropertyOp59
 70
     1
102
RTVSPropertyOp60
 70
     1
102
RTVSPropertyOp61
 70
     1
102
RTVSPropertyOp62
 70
     1
  0
XRECORD
  5
388
102
{ACAD_REACTORS
330
387
102
}
330
387
100
AcDbXrecord
280
     1
102
RTVSPost2010Prop28
280
     0
102
RTVSPost2010PropOp28
 70
     0
102
RTVSPost2010Prop29
280
     1
102
RTVSPost2010PropOp29
 70
     0
102
RTVSPost2010Prop30
280
     1
102
RTVSPost2010PropOp30
 70
     0
102
RTVSPost2010Prop31
280
     0
102
RTVSPost2010PropOp31
 70
     0
102
RTVSPost2010Prop32
280
     0
102
RTVSPost2010PropOp32
 70
     0
102
RTVSPost2010Prop33
280
     0
102
RTVSPost2010PropOp33
 70
     0
102
RTVSPost2010Prop34
280
     0
102
RTVSPost2010PropOp34
 70
     0
102
RTVSPost2010Prop35
280
     0
102
RTVSPost2010PropOp35
 70
     0
102
RTVSPost2010Prop36
280
     0
102
RTVSPost2010PropOp36
 70
     0
102
RTVSPost2010Prop37
 90
       50
102
RTVSPost2010PropOp37
 70
     0
102
RTVSPost2010Prop38
140
0.0
102
RTVSPost2010PropOp38
 70
     0
102
RTVSPost2010Prop39
140
1.0
102
RTVSPost2010PropOp39
 70
     0
102
RTVSPost2010Prop40
 90
        0
102
RTVSPost2010PropOp40
 70
     0
102
RTVSPost2010Prop41ColorIndex
 90
       18
102
RTVSPost2010Prop41ColorRGB
 90
        0
102
RTVSPost2010PropOp41
 70
     0
102
RTVSPost2010Prop42
 90
       50
102
RTVSPost2010PropOp42
 70
     0
102
RTVSPost2010Prop43
 90
        3
102
RTVSPost2010PropOp43
 70
     0
102
RTVSPost2010Prop44ColorIndex
 90
        5
102
RTVSPost2010Prop44ColorRGB
 90
      255
102
RTVSPost2010PropOp44
 70
     0
102
RTVSPost2010Prop45
280
     0
102
RTVSPost2010PropOp45
 70
     0
102
RTVSPost2010Prop46
 90
       50
102
RTVSPost2010PropOp46
 70
     0
102
RTVSPost2010Prop47
 90
       50
102
RTVSPost2010PropOp47
 70
     0
102
RTVSPost2010Prop48
 90
       50
102
RTVSPost2010PropOp48
 70
     0
102
RTVSPost2010Prop49
280
     0
102
RTVSPost2010PropOp49
 70
     0
102
RTVSPost2010Prop50
 90
       50
102
RTVSPost2010PropOp50
 70
     0
102
RTVSPost2010Prop51ColorIndex
 90
      256
102
RTVSPost2010Prop51ColorRGB
 90
-16777216
102
RTVSPost2010PropOp51
 70
     0
102
RTVSPost2010Prop52
140
1.0
102
RTVSPost2010PropOp52
 70
     0
102
RTVSPost2010Prop53
 90
        2
102
RTVSPost2010PropOp53
 70
     0
102
RTVSPost2010Prop54
  1
strokes_ogs.tif
102
RTVSPost2010PropOp54
 70
     0
102
RTVSPost2010Prop55
280
     0
102
RTVSPost2010PropOp55
 70
     0
102
RTVSPost2010Prop56
140
1.0
102
RTVSPost2010PropOp56
 70
     0
102
RTVSPost2010Prop57
140
1.0
102
RTVSPost2010PropOp57
 70
     0
102
RTVSPropertyOp0
 70
     0
102
RTVSPropertyOp1
 70
     0
102
RTVSPropertyOp2
 70
     0
102
RTVSPropertyOp3
 70
     0
102
RTVSPropertyOp4
 70
     0
102
RTVSPropertyOp5
 70
     0
102
RTVSPropertyOp6
 70
     0
102
RTVSPropertyOp7
 70
     0
102
RTVSPropertyOp8
 70
     0
102
RTVSPropertyOp9
 70
     0
102
RTVSPropertyOp10
 70
     0
102
RTVSPropertyOp11
 70
     0
102
RTVSPropertyOp12
 70
     0
102
RTVSPropertyOp13
 70
     0
102
RTVSPropertyOp14
 70
     2
102
RTVSPropertyOp15
 70
     0
102
RTVSPropertyOp16
 70
     0
102
RTVSPropertyOp17
 70
     0
102
RTVSPropertyOp18
 70
     0
102
RTVSPropertyOp19
 70
     0
102
RTVSPropertyOp20
 70
     0
102
RTVSPropertyOp21
 70
     0
102
RTVSPropertyOp22
 70
     0
102
RTVSPropertyOp23
 70
     0
102
RTVSPropertyOp24
 70
     0
102
RTVSPropertyOp25
 70
     0
102
RTVSPropertyOp26
 70
     0
102
RTVSPropertyOp27
 70
     0
102
RTVSPropertyOp28
 70
     0
102
RTVSPropertyOp29
 70
     0
102
RTVSPropertyOp30
 70
     0
102
RTVSPropertyOp31
 70
     0
102
RTVSPropertyOp32
 70
     0
102
RTVSPropertyOp33
 70
     0
102
RTVSPropertyOp34
 70
     0
102
RTVSPropertyOp35
 70
     0
102
RTVSPropertyOp36
 70
     0
102
RTVSPropertyOp37
 70
     0
102
RTVSPropertyOp38
 70
     0
102
RTVSPropertyOp39
 70
     0
102
RTVSPropertyOp40
 70
     0
102
RTVSPropertyOp41
 70
     0
102
RTVSPropertyOp42
 70
     0
102
RTVSPropertyOp43
 70
     0
102
RTVSPropertyOp44
 70
     0
102
RTVSPropertyOp45
 70
     0
102
RTVSPropertyOp46
 70
     0
102
RTVSPropertyOp47
 70
     0
102
RTVSPropertyOp48
 70
     0
102
RTVSPropertyOp49
 70
     0
102
RTVSPropertyOp50
 70
     0
102
RTVSPropertyOp51
 70
     0
102
RTVSPropertyOp52
 70
     0
102
RTVSPropertyOp53
 70
     0
102
RTVSPropertyOp54
 70
     0
102
RTVSPropertyOp55
 70
     0
102
RTVSPropertyOp56
 70
     0
102
RTVSPropertyOp57
 70
     0
102
RTVSPropertyOp58
 70
     1
102
RTVSPropertyOp59
 70
     1
102
RTVSPropertyOp60
 70
     1
102
RTVSPropertyOp61
 70
     1
102
RTVSPropertyOp62
 70
     1
  0
XRECORD
  5
382
102
{ACAD_REACTORS
330
381
102
}
330
381
100
AcDbXrecord
280
     1
102
RTVSPost2010Prop28
280
     0
102
RTVSPost2010PropOp28
 70
     1
102
RTVSPost2010Prop29
280
     1
102
RTVSPost2010PropOp29
 70
     1
102
RTVSPost2010Prop30
280
     1
102
RTVSPost2010PropOp30
 70
     1
102
RTVSPost2010Prop31
280
     0
102
RTVSPost2010PropOp31
 70
     1
102
RTVSPost2010Prop32
280
     0
102
RTVSPost2010PropOp32
 70
     1
102
RTVSPost2010Prop33
280
     0
102
RTVSPost2010PropOp33
 70
     1
102
RTVSPost2010Prop34
280
     0
102
RTVSPost2010PropOp34
 70
     1
102
RTVSPost2010Prop35
280
     0
102
RTVSPost2010PropOp35
 70
     1
102
RTVSPost2010Prop36
280
     0
102
RTVSPost2010PropOp36
 70
     1
102
RTVSPost2010Prop37
 90
       50
102
RTVSPost2010PropOp37
 70
     1
102
RTVSPost2010Prop38
140
0.0
102
RTVSPost2010PropOp38
 70
     1
102
RTVSPost2010Prop39
140
1.0
102
RTVSPost2010PropOp39
 70
     1
102
RTVSPost2010Prop40
 90
        0
102
RTVSPost2010PropOp40
 70
     1
102
RTVSPost2010Prop41ColorIndex
 90
       18
102
RTVSPost2010Prop41ColorRGB
 90
        0
102
RTVSPost2010PropOp41
 70
     1
102
RTVSPost2010Prop42
 90
       50
102
RTVSPost2010PropOp42
 70
     1
102
RTVSPost2010Prop43
 90
        3
102
RTVSPost2010PropOp43
 70
     1
102
RTVSPost2010Prop44ColorIndex
 90
        5
102
RTVSPost2010Prop44ColorRGB
 90
      255
102
RTVSPost2010PropOp44
 70
     1
102
RTVSPost2010Prop45
280
     0
102
RTVSPost2010PropOp45
 70
     1
102
RTVSPost2010Prop46
 90
       50
102
RTVSPost2010PropOp46
 70
     1
102
RTVSPost2010Prop47
 90
       50
102
RTVSPost2010PropOp47
 70
     1
102
RTVSPost2010Prop48
 90
       50
102
RTVSPost2010PropOp48
 70
     1
102
RTVSPost2010Prop49
280
     0
102
RTVSPost2010PropOp49
 70
     1
102
RTVSPost2010Prop50
 90
       50
102
RTVSPost2010PropOp50
 70
     1
102
RTVSPost2010Prop51ColorIndex
 90
      256
102
RTVSPost2010Prop51ColorRGB
 90
-16777216
102
RTVSPost2010PropOp51
 70
     0
102
RTVSPost2010Prop52
140
1.0
102
RTVSPost2010PropOp52
 70
     0
102
RTVSPost2010Prop53
 90
        2
102
RTVSPost2010PropOp53
 70
     1
102
RTVSPost2010Prop54
  1
strokes_ogs.tif
102
RTVSPost2010PropOp54
 70
     1
102
RTVSPost2010Prop55
280
     0
102
RTVSPost2010PropOp55
 70
     1
102
RTVSPost2010Prop56
140
1.0
102
RTVSPost2010PropOp56
 70
     1
102
RTVSPost2010Prop57
140
1.0
102
RTVSPost2010PropOp57
 70
     1
102
RTVSPropertyOp0
 70
     1
102
RTVSPropertyOp1
 70
     1
102
RTVSPropertyOp2
 70
     1
102
RTVSPropertyOp3
 70
     1
102
RTVSPropertyOp4
 70
     1
102
RTVSPropertyOp5
 70
     1
102
RTVSPropertyOp6
 70
     1
102
RTVSPropertyOp7
 70
     1
102
RTVSPropertyOp8
 70
     1
102
RTVSPropertyOp9
 70
     1
102
RTVSPropertyOp10
 70
     1
102
RTVSPropertyOp11
 70
     1
102
RTVSPropertyOp12
 70
     1
102
RTVSPropertyOp13
 70
     1
102
RTVSPropertyOp14
 70
     1
102
RTVSPropertyOp15
 70
     1
102
RTVSPropertyOp16
 70
     1
102
RTVSPropertyOp17
 70
     1
102
RTVSPropertyOp18
 70
     1
102
RTVSPropertyOp19
 70
     1
102
RTVSPropertyOp20
 70
     1
102
RTVSPropertyOp21
 70
     1
102
RTVSPropertyOp22
 70
     1
102
RTVSPropertyOp23
 70
     1
102
RTVSPropertyOp24
 70
     1
102
RTVSPropertyOp25
 70
     1
102
RTVSPropertyOp26
 70
     1
102
RTVSPropertyOp27
 70
     1
102
RTVSPropertyOp28
 70
     1
102
RTVSPropertyOp29
 70
     1
102
RTVSPropertyOp30
 70
     1
102
RTVSPropertyOp31
 70
     1
102
RTVSPropertyOp32
 70
     1
102
RTVSPropertyOp33
 70
     1
102
RTVSPropertyOp34
 70
     1
102
RTVSPropertyOp35
 70
     1
102
RTVSPropertyOp36
 70
     1
102
RTVSPropertyOp37
 70
     1
102
RTVSPropertyOp38
 70
     1
102
RTVSPropertyOp39
 70
     1
102
RTVSPropertyOp40
 70
     1
102
RTVSPropertyOp41
 70
     1
102
RTVSPropertyOp42
 70
     1
102
RTVSPropertyOp43
 70
     1
102
RTVSPropertyOp44
 70
     1
102
RTVSPropertyOp45
 70
     1
102
RTVSPropertyOp46
 70
     1
102
RTVSPropertyOp47
 70
     1
102
RTVSPropertyOp48
 70
     1
102
RTVSPropertyOp49
 70
     1
102
RTVSPropertyOp50
 70
     1
102
RTVSPropertyOp51
 70
     0
102
RTVSPropertyOp52
 70
     0
102
RTVSPropertyOp53
 70
     1
102
RTVSPropertyOp54
 70
     1
102
RTVSPropertyOp55
 70
     1
102
RTVSPropertyOp56
 70
     1
102
RTVSPropertyOp57
 70
     1
102
RTVSPropertyOp58
 70
     1
102
RTVSPropertyOp59
 70
     1
102
RTVSPropertyOp60
 70
     1
102
RTVSPropertyOp61
 70
     1
102
RTVSPropertyOp62
 70
     1
  0
XRECORD
  5
38A
102
{ACAD_REACTORS
330
389
102
}
330
389
100
AcDbXrecord
280
     1
102
RTVSPost2010Prop28
280
     0
102
RTVSPost2010PropOp28
 70
     0
102
RTVSPost2010Prop29
280
     1
102
RTVSPost2010PropOp29
 70
     0
102
RTVSPost2010Prop30
280
     1
102
RTVSPost2010PropOp30
 70
     0
102
RTVSPost2010Prop31
280
     0
102
RTVSPost2010PropOp31
 70
     0
102
RTVSPost2010Prop32
280
     0
102
RTVSPost2010PropOp32
 70
     0
102
RTVSPost2010Prop33
280
     0
102
RTVSPost2010PropOp33
 70
     0
102
RTVSPost2010Prop34
280
     0
102
RTVSPost2010PropOp34
 70
     0
102
RTVSPost2010Prop35
280
     0
102
RTVSPost2010PropOp35
 70
     0
102
RTVSPost2010Prop36
280
     0
102
RTVSPost2010PropOp36
 70
     0
102
RTVSPost2010Prop37
 90
       50
102
RTVSPost2010PropOp37
 70
     0
102
RTVSPost2010Prop38
140
0.0
102
RTVSPost2010PropOp38
 70
     0
102
RTVSPost2010Prop39
140
1.0
102
RTVSPost2010PropOp39
 70
     0
102
RTVSPost2010Prop40
 90
        0
102
RTVSPost2010PropOp40
 70
     0
102
RTVSPost2010Prop41ColorIndex
 90
       18
102
RTVSPost2010Prop41ColorRGB
 90
        0
102
RTVSPost2010PropOp41
 70
     0
102
RTVSPost2010Prop42
 90
       50
102
RTVSPost2010PropOp42
 70
     0
102
RTVSPost2010Prop43
 90
        3
102
RTVSPost2010PropOp43
 70
     0
102
RTVSPost2010Prop44ColorIndex
 90
        5
102
RTVSPost2010Prop44ColorRGB
 90
      255
102
RTVSPost2010PropOp44
 70
     0
102
RTVSPost2010Prop45
280
     0
102
RTVSPost2010PropOp45
 70
     0
102
RTVSPost2010Prop46
 90
       50
102
RTVSPost2010PropOp46
 70
     0
102
RTVSPost2010Prop47
 90
       50
102
RTVSPost2010PropOp47
 70
     0
102
RTVSPost2010Prop48
 90
       50
102
RTVSPost2010PropOp48
 70
     0
102
RTVSPost2010Prop49
280
     0
102
RTVSPost2010PropOp49
 70
     0
102
RTVSPost2010Prop50
 90
       50
102
RTVSPost2010PropOp50
 70
     0
102
RTVSPost2010Prop51ColorIndex
 90
      256
102
RTVSPost2010Prop51ColorRGB
 90
-16777216
102
RTVSPost2010PropOp51
 70
     0
102
RTVSPost2010Prop52
140
1.0
102
RTVSPost2010PropOp52
 70
     0
102
RTVSPost2010Prop53
 90
        2
102
RTVSPost2010PropOp53
 70
     0
102
RTVSPost2010Prop54
  1
strokes_ogs.tif
102
RTVSPost2010PropOp54
 70
     0
102
RTVSPost2010Prop55
280
     0
102
RTVSPost2010PropOp55
 70
     0
102
RTVSPost2010Prop56
140
1.0
102
RTVSPost2010PropOp56
 70
     0
102
RTVSPost2010Prop57
140
1.0
102
RTVSPost2010PropOp57
 70
     0
102
RTVSPropertyOp0
 70
     0
102
RTVSPropertyOp1
 70
     0
102
RTVSPropertyOp2
 70
     0
102
RTVSPropertyOp3
 70
     0
102
RTVSPropertyOp4
 70
     0
102
RTVSPropertyOp5
 70
     0
102
RTVSPropertyOp6
 70
     0
102
RTVSPropertyOp7
 70
     0
102
RTVSPropertyOp8
 70
     0
102
RTVSPropertyOp9
 70
     0
102
RTVSPropertyOp10
 70
     0
102
RTVSPropertyOp11
 70
     0
102
RTVSPropertyOp12
 70
     0
102
RTVSPropertyOp13
 70
     0
102
RTVSPropertyOp14
 70
     2
102
RTVSPropertyOp15
 70
     0
102
RTVSPropertyOp16
 70
     0
102
RTVSPropertyOp17
 70
     0
102
RTVSPropertyOp18
 70
     0
102
RTVSPropertyOp19
 70
     0
102
RTVSPropertyOp20
 70
     0
102
RTVSPropertyOp21
 70
     0
102
RTVSPropertyOp22
 70
     0
102
RTVSPropertyOp23
 70
     0
102
RTVSPropertyOp24
 70
     0
102
RTVSPropertyOp25
 70
     0
102
RTVSPropertyOp26
 70
     0
102
RTVSPropertyOp27
 70
     0
102
RTVSPropertyOp28
 70
     0
102
RTVSPropertyOp29
 70
     0
102
RTVSPropertyOp30
 70
     0
102
RTVSPropertyOp31
 70
     0
102
RTVSPropertyOp32
 70
     0
102
RTVSPropertyOp33
 70
     0
102
RTVSPropertyOp34
 70
     0
102
RTVSPropertyOp35
 70
     0
102
RTVSPropertyOp36
 70
     0
102
RTVSPropertyOp37
 70
     0
102
RTVSPropertyOp38
 70
     0
102
RTVSPropertyOp39
 70
     0
102
RTVSPropertyOp40
 70
     0
102
RTVSPropertyOp41
 70
     0
102
RTVSPropertyOp42
 70
     0
102
RTVSPropertyOp43
 70
     0
102
RTVSPropertyOp44
 70
     0
102
RTVSPropertyOp45
 70
     0
102
RTVSPropertyOp46
 70
     0
102
RTVSPropertyOp47
 70
     0
102
RTVSPropertyOp48
 70
     0
102
RTVSPropertyOp49
 70
     0
102
RTVSPropertyOp50
 70
     0
102
RTVSPropertyOp51
 70
     0
102
RTVSPropertyOp52
 70
     0
102
RTVSPropertyOp53
 70
     0
102
RTVSPropertyOp54
 70
     0
102
RTVSPropertyOp55
 70
     0
102
RTVSPropertyOp56
 70
     0
102
RTVSPropertyOp57
 70
     0
102
RTVSPropertyOp58
 70
     1
102
RTVSPropertyOp59
 70
     1
102
RTVSPropertyOp60
 70
     1
102
RTVSPropertyOp61
 70
     1
102
RTVSPropertyOp62
 70
     1
  0
XRECORD
  5
378
102
{ACAD_REACTORS
330
377
102
}
330
377
100
AcDbXrecord
280
     1
102
RTVSPost2010Prop28
280
     0
102
RTVSPost2010PropOp28
 70
     1
102
RTVSPost2010Prop29
280
     1
102
RTVSPost2010PropOp29
 70
     1
102
RTVSPost2010Prop30
280
     1
102
RTVSPost2010PropOp30
 70
     1
102
RTVSPost2010Prop31
280
     0
102
RTVSPost2010PropOp31
 70
     1
102
RTVSPost2010Prop32
280
     0
102
RTVSPost2010PropOp32
 70
     1
102
RTVSPost2010Prop33
280
     0
102
RTVSPost2010PropOp33
 70
     1
102
RTVSPost2010Prop34
280
     0
102
RTVSPost2010PropOp34
 70
     1
102
RTVSPost2010Prop35
280
     0
102
RTVSPost2010PropOp35
 70
     1
102
RTVSPost2010Prop36
280
     0
102
RTVSPost2010PropOp36
 70
     1
102
RTVSPost2010Prop37
 90
       50
102
RTVSPost2010PropOp37
 70
     1
102
RTVSPost2010Prop38
140
0.0
102
RTVSPost2010PropOp38
 70
     1
102
RTVSPost2010Prop39
140
1.0
102
RTVSPost2010PropOp39
 70
     1
102
RTVSPost2010Prop40
 90
        0
102
RTVSPost2010PropOp40
 70
     1
102
RTVSPost2010Prop41ColorIndex
 90
       18
102
RTVSPost2010Prop41ColorRGB
 90
        0
102
RTVSPost2010PropOp41
 70
     1
102
RTVSPost2010Prop42
 90
       50
102
RTVSPost2010PropOp42
 70
     1
102
RTVSPost2010Prop43
 90
        3
102
RTVSPost2010PropOp43
 70
     1
102
RTVSPost2010Prop44ColorIndex
 90
        5
102
RTVSPost2010Prop44ColorRGB
 90
      255
102
RTVSPost2010PropOp44
 70
     1
102
RTVSPost2010Prop45
280
     0
102
RTVSPost2010PropOp45
 70
     1
102
RTVSPost2010Prop46
 90
       50
102
RTVSPost2010PropOp46
 70
     1
102
RTVSPost2010Prop47
 90
       50
102
RTVSPost2010PropOp47
 70
     1
102
RTVSPost2010Prop48
 90
       50
102
RTVSPost2010PropOp48
 70
     1
102
RTVSPost2010Prop49
280
     0
102
RTVSPost2010PropOp49
 70
     1
102
RTVSPost2010Prop50
 90
       50
102
RTVSPost2010PropOp50
 70
     1
102
RTVSPost2010Prop51ColorIndex
 90
      256
102
RTVSPost2010Prop51ColorRGB
 90
-16777216
102
RTVSPost2010PropOp51
 70
     0
102
RTVSPost2010Prop52
140
1.0
102
RTVSPost2010PropOp52
 70
     0
102
RTVSPost2010Prop53
 90
        2
102
RTVSPost2010PropOp53
 70
     1
102
RTVSPost2010Prop54
  1
strokes_ogs.tif
102
RTVSPost2010PropOp54
 70
     1
102
RTVSPost2010Prop55
280
     0
102
RTVSPost2010PropOp55
 70
     1
102
RTVSPost2010Prop56
140
1.0
102
RTVSPost2010PropOp56
 70
     1
102
RTVSPost2010Prop57
140
1.0
102
RTVSPost2010PropOp57
 70
     1
102
RTVSPropertyOp0
 70
     1
102
RTVSPropertyOp1
 70
     1
102
RTVSPropertyOp2
 70
     1
102
RTVSPropertyOp3
 70
     1
102
RTVSPropertyOp4
 70
     1
102
RTVSPropertyOp5
 70
     1
102
RTVSPropertyOp6
 70
     1
102
RTVSPropertyOp7
 70
     1
102
RTVSPropertyOp8
 70
     1
102
RTVSPropertyOp9
 70
     1
102
RTVSPropertyOp10
 70
     1
102
RTVSPropertyOp11
 70
     1
102
RTVSPropertyOp12
 70
     1
102
RTVSPropertyOp13
 70
     1
102
RTVSPropertyOp14
 70
     1
102
RTVSPropertyOp15
 70
     1
102
RTVSPropertyOp16
 70
     1
102
RTVSPropertyOp17
 70
     1
102
RTVSPropertyOp18
 70
     1
102
RTVSPropertyOp19
 70
     1
102
RTVSPropertyOp20
 70
     1
102
RTVSPropertyOp21
 70
     1
102
RTVSPropertyOp22
 70
     1
102
RTVSPropertyOp23
 70
     1
102
RTVSPropertyOp24
 70
     1
102
RTVSPropertyOp25
 70
     1
102
RTVSPropertyOp26
 70
     1
102
RTVSPropertyOp27
 70
     1
102
RTVSPropertyOp28
 70
     1
102
RTVSPropertyOp29
 70
     1
102
RTVSPropertyOp30
 70
     1
102
RTVSPropertyOp31
 70
     1
102
RTVSPropertyOp32
 70
     1
102
RTVSPropertyOp33
 70
     1
102
RTVSPropertyOp34
 70
     1
102
RTVSPropertyOp35
 70
     1
102
RTVSPropertyOp36
 70
     1
102
RTVSPropertyOp37
 70
     1
102
RTVSPropertyOp38
 70
     1
102
RTVSPropertyOp39
 70
     1
102
RTVSPropertyOp40
 70
     1
102
RTVSPropertyOp41
 70
     1
102
RTVSPropertyOp42
 70
     1
102
RTVSPropertyOp43
 70
     1
102
RTVSPropertyOp44
 70
     1
102
RTVSPropertyOp45
 70
     1
102
RTVSPropertyOp46
 70
     1
102
RTVSPropertyOp47
 70
     1
102
RTVSPropertyOp48
 70
     1
102
RTVSPropertyOp49
 70
     1
102
RTVSPropertyOp50
 70
     1
102
RTVSPropertyOp51
 70
     0
102
RTVSPropertyOp52
 70
     0
102
RTVSPropertyOp53
 70
     1
102
RTVSPropertyOp54
 70
     1
102
RTVSPropertyOp55
 70
     1
102
RTVSPropertyOp56
 70
     1
102
RTVSPropertyOp57
 70
     1
102
RTVSPropertyOp58
 70
     1
102
RTVSPropertyOp59
 70
     1
102
RTVSPropertyOp60
 70
     1
102
RTVSPropertyOp61
 70
     1
102
RTVSPropertyOp62
 70
     1
  0
XRECORD
  5
396
102
{ACAD_REACTORS
330
395
102
}
330
395
100
AcDbXrecord
280
     1
102
RTVSPost2010Prop28
280
     0
102
RTVSPost2010PropOp28
 70
     1
102
RTVSPost2010Prop29
280
     1
102
RTVSPost2010PropOp29
 70
     1
102
RTVSPost2010Prop30
280
     1
102
RTVSPost2010PropOp30
 70
     1
102
RTVSPost2010Prop31
280
     0
102
RTVSPost2010PropOp31
 70
     1
102
RTVSPost2010Prop32
280
     0
102
RTVSPost2010PropOp32
 70
     1
102
RTVSPost2010Prop33
280
     0
102
RTVSPost2010PropOp33
 70
     1
102
RTVSPost2010Prop34
280
     0
102
RTVSPost2010PropOp34
 70
     1
102
RTVSPost2010Prop35
280
     0
102
RTVSPost2010PropOp35
 70
     1
102
RTVSPost2010Prop36
280
     0
102
RTVSPost2010PropOp36
 70
     1
102
RTVSPost2010Prop37
 90
       50
102
RTVSPost2010PropOp37
 70
     1
102
RTVSPost2010Prop38
140
0.0
102
RTVSPost2010PropOp38
 70
     1
102
RTVSPost2010Prop39
140
1.0
102
RTVSPost2010PropOp39
 70
     1
102
RTVSPost2010Prop40
 90
        0
102
RTVSPost2010PropOp40
 70
     1
102
RTVSPost2010Prop41ColorIndex
 90
       18
102
RTVSPost2010Prop41ColorRGB
 90
        0
102
RTVSPost2010PropOp41
 70
     1
102
RTVSPost2010Prop42
 90
       50
102
RTVSPost2010PropOp42
 70
     1
102
RTVSPost2010Prop43
 90
        3
102
RTVSPost2010PropOp43
 70
     1
102
RTVSPost2010Prop44ColorIndex
 90
        5
102
RTVSPost2010Prop44ColorRGB
 90
      255
102
RTVSPost2010PropOp44
 70
     1
102
RTVSPost2010Prop45
280
     0
102
RTVSPost2010PropOp45
 70
     1
102
RTVSPost2010Prop46
 90
       50
102
RTVSPost2010PropOp46
 70
     1
102
RTVSPost2010Prop47
 90
       50
102
RTVSPost2010PropOp47
 70
     1
102
RTVSPost2010Prop48
 90
       50
102
RTVSPost2010PropOp48
 70
     1
102
RTVSPost2010Prop49
280
     0
102
RTVSPost2010PropOp49
 70
     1
102
RTVSPost2010Prop50
 90
       50
102
RTVSPost2010PropOp50
 70
     1
102
RTVSPost2010Prop51ColorIndex
 90
      256
102
RTVSPost2010Prop51ColorRGB
 90
-16777216
102
RTVSPost2010PropOp51
 70
     0
102
RTVSPost2010Prop52
140
1.0
102
RTVSPost2010PropOp52
 70
     0
102
RTVSPost2010Prop53
 90
        2
102
RTVSPost2010PropOp53
 70
     1
102
RTVSPost2010Prop54
  1
strokes_ogs.tif
102
RTVSPost2010PropOp54
 70
     1
102
RTVSPost2010Prop55
280
     0
102
RTVSPost2010PropOp55
 70
     1
102
RTVSPost2010Prop56
140
1.0
102
RTVSPost2010PropOp56
 70
     1
102
RTVSPost2010Prop57
140
1.0
102
RTVSPost2010PropOp57
 70
     1
102
RTVSPropertyOp0
 70
     1
102
RTVSPropertyOp1
 70
     1
102
RTVSPropertyOp2
 70
     1
102
RTVSPropertyOp3
 70
     1
102
RTVSPropertyOp4
 70
     1
102
RTVSPropertyOp5
 70
     1
102
RTVSPropertyOp6
 70
     1
102
RTVSPropertyOp7
 70
     1
102
RTVSPropertyOp8
 70
     1
102
RTVSPropertyOp9
 70
     1
102
RTVSPropertyOp10
 70
     1
102
RTVSPropertyOp11
 70
     1
102
RTVSPropertyOp12
 70
     1
102
RTVSPropertyOp13
 70
     1
102
RTVSPropertyOp14
 70
     1
102
RTVSPropertyOp15
 70
     1
102
RTVSPropertyOp16
 70
     1
102
RTVSPropertyOp17
 70
     1
102
RTVSPropertyOp18
 70
     1
102
RTVSPropertyOp19
 70
     1
102
RTVSPropertyOp20
 70
     1
102
RTVSPropertyOp21
 70
     1
102
RTVSPropertyOp22
 70
     1
102
RTVSPropertyOp23
 70
     1
102
RTVSPropertyOp24
 70
     1
102
RTVSPropertyOp25
 70
     1
102
RTVSPropertyOp26
 70
     1
102
RTVSPropertyOp27
 70
     1
102
RTVSPropertyOp28
 70
     1
102
RTVSPropertyOp29
 70
     1
102
RTVSPropertyOp30
 70
     1
102
RTVSPropertyOp31
 70
     1
102
RTVSPropertyOp32
 70
     1
102
RTVSPropertyOp33
 70
     1
102
RTVSPropertyOp34
 70
     1
102
RTVSPropertyOp35
 70
     1
102
RTVSPropertyOp36
 70
     1
102
RTVSPropertyOp37
 70
     1
102
RTVSPropertyOp38
 70
     1
102
RTVSPropertyOp39
 70
     1
102
RTVSPropertyOp40
 70
     1
102
RTVSPropertyOp41
 70
     1
102
RTVSPropertyOp42
 70
     1
102
RTVSPropertyOp43
 70
     1
102
RTVSPropertyOp44
 70
     1
102
RTVSPropertyOp45
 70
     1
102
RTVSPropertyOp46
 70
     1
102
RTVSPropertyOp47
 70
     1
102
RTVSPropertyOp48
 70
     1
102
RTVSPropertyOp49
 70
     1
102
RTVSPropertyOp50
 70
     1
102
RTVSPropertyOp51
 70
     0
102
RTVSPropertyOp52
 70
     0
102
RTVSPropertyOp53
 70
     1
102
RTVSPropertyOp54
 70
     1
102
RTVSPropertyOp55
 70
     1
102
RTVSPropertyOp56
 70
     1
102
RTVSPropertyOp57
 70
     1
102
RTVSPropertyOp58
 70
     1
102
RTVSPropertyOp59
 70
     1
102
RTVSPropertyOp60
 70
     1
102
RTVSPropertyOp61
 70
     1
102
RTVSPropertyOp62
 70
     1
  0
XRECORD
  5
394
102
{ACAD_REACTORS
330
393
102
}
330
393
100
AcDbXrecord
280
     1
102
RTVSPost2010Prop28
280
     0
102
RTVSPost2010PropOp28
 70
     1
102
RTVSPost2010Prop29
280
     1
102
RTVSPost2010PropOp29
 70
     1
102
RTVSPost2010Prop30
280
     1
102
RTVSPost2010PropOp30
 70
     1
102
RTVSPost2010Prop31
280
     0
102
RTVSPost2010PropOp31
 70
     1
102
RTVSPost2010Prop32
280
     0
102
RTVSPost2010PropOp32
 70
     1
102
RTVSPost2010Prop33
280
     0
102
RTVSPost2010PropOp33
 70
     1
102
RTVSPost2010Prop34
280
     0
102
RTVSPost2010PropOp34
 70
     1
102
RTVSPost2010Prop35
280
     0
102
RTVSPost2010PropOp35
 70
     1
102
RTVSPost2010Prop36
280
     0
102
RTVSPost2010PropOp36
 70
     1
102
RTVSPost2010Prop37
 90
       50
102
RTVSPost2010PropOp37
 70
     1
102
RTVSPost2010Prop38
140
0.0
102
RTVSPost2010PropOp38
 70
     1
102
RTVSPost2010Prop39
140
1.0
102
RTVSPost2010PropOp39
 70
     1
102
RTVSPost2010Prop40
 90
        0
102
RTVSPost2010PropOp40
 70
     1
102
RTVSPost2010Prop41ColorIndex
 90
       18
102
RTVSPost2010Prop41ColorRGB
 90
        0
102
RTVSPost2010PropOp41
 70
     1
102
RTVSPost2010Prop42
 90
       50
102
RTVSPost2010PropOp42
 70
     1
102
RTVSPost2010Prop43
 90
        3
102
RTVSPost2010PropOp43
 70
     1
102
RTVSPost2010Prop44ColorIndex
 90
        5
102
RTVSPost2010Prop44ColorRGB
 90
      255
102
RTVSPost2010PropOp44
 70
     1
102
RTVSPost2010Prop45
280
     0
102
RTVSPost2010PropOp45
 70
     1
102
RTVSPost2010Prop46
 90
       50
102
RTVSPost2010PropOp46
 70
     1
102
RTVSPost2010Prop47
 90
       50
102
RTVSPost2010PropOp47
 70
     1
102
RTVSPost2010Prop48
 90
       50
102
RTVSPost2010PropOp48
 70
     1
102
RTVSPost2010Prop49
280
     0
102
RTVSPost2010PropOp49
 70
     1
102
RTVSPost2010Prop50
 90
       50
102
RTVSPost2010PropOp50
 70
     1
102
RTVSPost2010Prop51ColorIndex
 90
      256
102
RTVSPost2010Prop51ColorRGB
 90
-16777216
102
RTVSPost2010PropOp51
 70
     0
102
RTVSPost2010Prop52
140
1.0
102
RTVSPost2010PropOp52
 70
     0
102
RTVSPost2010Prop53
 90
        2
102
RTVSPost2010PropOp53
 70
     1
102
RTVSPost2010Prop54
  1
strokes_ogs.tif
102
RTVSPost2010PropOp54
 70
     1
102
RTVSPost2010Prop55
280
     0
102
RTVSPost2010PropOp55
 70
     1
102
RTVSPost2010Prop56
140
1.0
102
RTVSPost2010PropOp56
 70
     1
102
RTVSPost2010Prop57
140
1.0
102
RTVSPost2010PropOp57
 70
     1
102
RTVSPropertyOp0
 70
     1
102
RTVSPropertyOp1
 70
     1
102
RTVSPropertyOp2
 70
     1
102
RTVSPropertyOp3
 70
     1
102
RTVSPropertyOp4
 70
     1
102
RTVSPropertyOp5
 70
     1
102
RTVSPropertyOp6
 70
     1
102
RTVSPropertyOp7
 70
     1
102
RTVSPropertyOp8
 70
     1
102
RTVSPropertyOp9
 70
     1
102
RTVSPropertyOp10
 70
     1
102
RTVSPropertyOp11
 70
     1
102
RTVSPropertyOp12
 70
     1
102
RTVSPropertyOp13
 70
     1
102
RTVSPropertyOp14
 70
     1
102
RTVSPropertyOp15
 70
     1
102
RTVSPropertyOp16
 70
     1
102
RTVSPropertyOp17
 70
     1
102
RTVSPropertyOp18
 70
     1
102
RTVSPropertyOp19
 70
     1
102
RTVSPropertyOp20
 70
     1
102
RTVSPropertyOp21
 70
     1
102
RTVSPropertyOp22
 70
     1
102
RTVSPropertyOp23
 70
     1
102
RTVSPropertyOp24
 70
     1
102
RTVSPropertyOp25
 70
     1
102
RTVSPropertyOp26
 70
     1
102
RTVSPropertyOp27
 70
     1
102
RTVSPropertyOp28
 70
     1
102
RTVSPropertyOp29
 70
     1
102
RTVSPropertyOp30
 70
     1
102
RTVSPropertyOp31
 70
     1
102
RTVSPropertyOp32
 70
     1
102
RTVSPropertyOp33
 70
     1
102
RTVSPropertyOp34
 70
     1
102
RTVSPropertyOp35
 70
     1
102
RTVSPropertyOp36
 70
     1
102
RTVSPropertyOp37
 70
     1
102
RTVSPropertyOp38
 70
     1
102
RTVSPropertyOp39
 70
     1
102
RTVSPropertyOp40
 70
     1
102
RTVSPropertyOp41
 70
     1
102
RTVSPropertyOp42
 70
     1
102
RTVSPropertyOp43
 70
     1
102
RTVSPropertyOp44
 70
     1
102
RTVSPropertyOp45
 70
     1
102
RTVSPropertyOp46
 70
     1
102
RTVSPropertyOp47
 70
     1
102
RTVSPropertyOp48
 70
     1
102
RTVSPropertyOp49
 70
     1
102
RTVSPropertyOp50
 70
     1
102
RTVSPropertyOp51
 70
     0
102
RTVSPropertyOp52
 70
     0
102
RTVSPropertyOp53
 70
     1
102
RTVSPropertyOp54
 70
     1
102
RTVSPropertyOp55
 70
     1
102
RTVSPropertyOp56
 70
     1
102
RTVSPropertyOp57
 70
     1
102
RTVSPropertyOp58
 70
     1
102
RTVSPropertyOp59
 70
     1
102
RTVSPropertyOp60
 70
     1
102
RTVSPropertyOp61
 70
     1
102
RTVSPropertyOp62
 70
     1
  0
XRECORD
  5
38E
102
{ACAD_REACTORS
330
38D
102
}
330
38D
100
AcDbXrecord
280
     1
102
RTVSPost2010Prop28
280
     0
102
RTVSPost2010PropOp28
 70
     1
102
RTVSPost2010Prop29
280
     1
102
RTVSPost2010PropOp29
 70
     1
102
RTVSPost2010Prop30
280
     1
102
RTVSPost2010PropOp30
 70
     1
102
RTVSPost2010Prop31
280
     0
102
RTVSPost2010PropOp31
 70
     1
102
RTVSPost2010Prop32
280
     0
102
RTVSPost2010PropOp32
 70
     1
102
RTVSPost2010Prop33
280
     0
102
RTVSPost2010PropOp33
 70
     1
102
RTVSPost2010Prop34
280
     0
102
RTVSPost2010PropOp34
 70
     1
102
RTVSPost2010Prop35
280
     0
102
RTVSPost2010PropOp35
 70
     1
102
RTVSPost2010Prop36
280
     0
102
RTVSPost2010PropOp36
 70
     1
102
RTVSPost2010Prop37
 90
       50
102
RTVSPost2010PropOp37
 70
     1
102
RTVSPost2010Prop38
140
0.0
102
RTVSPost2010PropOp38
 70
     1
102
RTVSPost2010Prop39
140
1.0
102
RTVSPost2010PropOp39
 70
     1
102
RTVSPost2010Prop40
 90
        0
102
RTVSPost2010PropOp40
 70
     1
102
RTVSPost2010Prop41ColorIndex
 90
       18
102
RTVSPost2010Prop41ColorRGB
 90
        0
102
RTVSPost2010PropOp41
 70
     1
102
RTVSPost2010Prop42
 90
       50
102
RTVSPost2010PropOp42
 70
     1
102
RTVSPost2010Prop43
 90
        3
102
RTVSPost2010PropOp43
 70
     1
102
RTVSPost2010Prop44ColorIndex
 90
        5
102
RTVSPost2010Prop44ColorRGB
 90
      255
102
RTVSPost2010PropOp44
 70
     1
102
RTVSPost2010Prop45
280
     0
102
RTVSPost2010PropOp45
 70
     1
102
RTVSPost2010Prop46
 90
       50
102
RTVSPost2010PropOp46
 70
     1
102
RTVSPost2010Prop47
 90
       50
102
RTVSPost2010PropOp47
 70
     1
102
RTVSPost2010Prop48
 90
       50
102
RTVSPost2010PropOp48
 70
     1
102
RTVSPost2010Prop49
280
     0
102
RTVSPost2010PropOp49
 70
     1
102
RTVSPost2010Prop50
 90
       50
102
RTVSPost2010PropOp50
 70
     1
102
RTVSPost2010Prop51ColorIndex
 90
      256
102
RTVSPost2010Prop51ColorRGB
 90
-16777216
102
RTVSPost2010PropOp51
 70
     0
102
RTVSPost2010Prop52
140
1.0
102
RTVSPost2010PropOp52
 70
     0
102
RTVSPost2010Prop53
 90
        2
102
RTVSPost2010PropOp53
 70
     1
102
RTVSPost2010Prop54
  1
strokes_ogs.tif
102
RTVSPost2010PropOp54
 70
     1
102
RTVSPost2010Prop55
280
     0
102
RTVSPost2010PropOp55
 70
     1
102
RTVSPost2010Prop56
140
1.0
102
RTVSPost2010PropOp56
 70
     1
102
RTVSPost2010Prop57
140
1.0
102
RTVSPost2010PropOp57
 70
     1
102
RTVSPropertyOp0
 70
     1
102
RTVSPropertyOp1
 70
     1
102
RTVSPropertyOp2
 70
     1
102
RTVSPropertyOp3
 70
     1
102
RTVSPropertyOp4
 70
     1
102
RTVSPropertyOp5
 70
     1
102
RTVSPropertyOp6
 70
     1
102
RTVSPropertyOp7
 70
     1
102
RTVSPropertyOp8
 70
     1
102
RTVSPropertyOp9
 70
     1
102
RTVSPropertyOp10
 70
     1
102
RTVSPropertyOp11
 70
     1
102
RTVSPropertyOp12
 70
     1
102
RTVSPropertyOp13
 70
     1
102
RTVSPropertyOp14
 70
     1
102
RTVSPropertyOp15
 70
     1
102
RTVSPropertyOp16
 70
     1
102
RTVSPropertyOp17
 70
     1
102
RTVSPropertyOp18
 70
     1
102
RTVSPropertyOp19
 70
     1
102
RTVSPropertyOp20
 70
     1
102
RTVSPropertyOp21
 70
     1
102
RTVSPropertyOp22
 70
     1
102
RTVSPropertyOp23
 70
     1
102
RTVSPropertyOp24
 70
     1
102
RTVSPropertyOp25
 70
     1
102
RTVSPropertyOp26
 70
     1
102
RTVSPropertyOp27
 70
     1
102
RTVSPropertyOp28
 70
     1
102
RTVSPropertyOp29
 70
     1
102
RTVSPropertyOp30
 70
     1
102
RTVSPropertyOp31
 70
     1
102
RTVSPropertyOp32
 70
     1
102
RTVSPropertyOp33
 70
     1
102
RTVSPropertyOp34
 70
     1
102
RTVSPropertyOp35
 70
     1
102
RTVSPropertyOp36
 70
     1
102
RTVSPropertyOp37
 70
     1
102
RTVSPropertyOp38
 70
     1
102
RTVSPropertyOp39
 70
     1
102
RTVSPropertyOp40
 70
     1
102
RTVSPropertyOp41
 70
     1
102
RTVSPropertyOp42
 70
     1
102
RTVSPropertyOp43
 70
     1
102
RTVSPropertyOp44
 70
     1
102
RTVSPropertyOp45
 70
     1
102
RTVSPropertyOp46
 70
     1
102
RTVSPropertyOp47
 70
     1
102
RTVSPropertyOp48
 70
     1
102
RTVSPropertyOp49
 70
     1
102
RTVSPropertyOp50
 70
     1
102
RTVSPropertyOp51
 70
     0
102
RTVSPropertyOp52
 70
     0
102
RTVSPropertyOp53
 70
     1
102
RTVSPropertyOp54
 70
     1
102
RTVSPropertyOp55
 70
     1
102
RTVSPropertyOp56
 70
     1
102
RTVSPropertyOp57
 70
     1
102
RTVSPropertyOp58
 70
     1
102
RTVSPropertyOp59
 70
     1
102
RTVSPropertyOp60
 70
     1
102
RTVSPropertyOp61
 70
     1
102
RTVSPropertyOp62
 70
     1
  0
XRECORD
  5
390
102
{ACAD_REACTORS
330
38F
102
}
330
38F
100
AcDbXrecord
280
     1
102
RTVSPost2010Prop28
280
     0
102
RTVSPost2010PropOp28
 70
     1
102
RTVSPost2010Prop29
280
     1
102
RTVSPost2010PropOp29
 70
     1
102
RTVSPost2010Prop30
280
     1
102
RTVSPost2010PropOp30
 70
     1
102
RTVSPost2010Prop31
280
     0
102
RTVSPost2010PropOp31
 70
     1
102
RTVSPost2010Prop32
280
     0
102
RTVSPost2010PropOp32
 70
     1
102
RTVSPost2010Prop33
280
     0
102
RTVSPost2010PropOp33
 70
     1
102
RTVSPost2010Prop34
280
     0
102
RTVSPost2010PropOp34
 70
     1
102
RTVSPost2010Prop35
280
     0
102
RTVSPost2010PropOp35
 70
     1
102
RTVSPost2010Prop36
280
     0
102
RTVSPost2010PropOp36
 70
     1
102
RTVSPost2010Prop37
 90
       50
102
RTVSPost2010PropOp37
 70
     1
102
RTVSPost2010Prop38
140
0.0
102
RTVSPost2010PropOp38
 70
     1
102
RTVSPost2010Prop39
140
1.0
102
RTVSPost2010PropOp39
 70
     1
102
RTVSPost2010Prop40
 90
        0
102
RTVSPost2010PropOp40
 70
     1
102
RTVSPost2010Prop41ColorIndex
 90
       18
102
RTVSPost2010Prop41ColorRGB
 90
        0
102
RTVSPost2010PropOp41
 70
     1
102
RTVSPost2010Prop42
 90
       50
102
RTVSPost2010PropOp42
 70
     1
102
RTVSPost2010Prop43
 90
        3
102
RTVSPost2010PropOp43
 70
     1
102
RTVSPost2010Prop44ColorIndex
 90
        5
102
RTVSPost2010Prop44ColorRGB
 90
      255
102
RTVSPost2010PropOp44
 70
     1
102
RTVSPost2010Prop45
280
     0
102
RTVSPost2010PropOp45
 70
     1
102
RTVSPost2010Prop46
 90
       50
102
RTVSPost2010PropOp46
 70
     1
102
RTVSPost2010Prop47
 90
       50
102
RTVSPost2010PropOp47
 70
     1
102
RTVSPost2010Prop48
 90
       50
102
RTVSPost2010PropOp48
 70
     1
102
RTVSPost2010Prop49
280
     0
102
RTVSPost2010PropOp49
 70
     1
102
RTVSPost2010Prop50
 90
       50
102
RTVSPost2010PropOp50
 70
     1
102
RTVSPost2010Prop51ColorIndex
 90
      256
102
RTVSPost2010Prop51ColorRGB
 90
-16777216
102
RTVSPost2010PropOp51
 70
     0
102
RTVSPost2010Prop52
140
1.0
102
RTVSPost2010PropOp52
 70
     0
102
RTVSPost2010Prop53
 90
        2
102
RTVSPost2010PropOp53
 70
     1
102
RTVSPost2010Prop54
  1
strokes_ogs.tif
102
RTVSPost2010PropOp54
 70
     1
102
RTVSPost2010Prop55
280
     0
102
RTVSPost2010PropOp55
 70
     1
102
RTVSPost2010Prop56
140
1.0
102
RTVSPost2010PropOp56
 70
     1
102
RTVSPost2010Prop57
140
1.0
102
RTVSPost2010PropOp57
 70
     1
102
RTVSPropertyOp0
 70
     1
102
RTVSPropertyOp1
 70
     1
102
RTVSPropertyOp2
 70
     1
102
RTVSPropertyOp3
 70
     1
102
RTVSPropertyOp4
 70
     1
102
RTVSPropertyOp5
 70
     1
102
RTVSPropertyOp6
 70
     1
102
RTVSPropertyOp7
 70
     1
102
RTVSPropertyOp8
 70
     1
102
RTVSPropertyOp9
 70
     1
102
RTVSPropertyOp10
 70
     1
102
RTVSPropertyOp11
 70
     1
102
RTVSPropertyOp12
 70
     1
102
RTVSPropertyOp13
 70
     1
102
RTVSPropertyOp14
 70
     1
102
RTVSPropertyOp15
 70
     1
102
RTVSPropertyOp16
 70
     1
102
RTVSPropertyOp17
 70
     1
102
RTVSPropertyOp18
 70
     1
102
RTVSPropertyOp19
 70
     1
102
RTVSPropertyOp20
 70
     1
102
RTVSPropertyOp21
 70
     1
102
RTVSPropertyOp22
 70
     1
102
RTVSPropertyOp23
 70
     1
102
RTVSPropertyOp24
 70
     1
102
RTVSPropertyOp25
 70
     1
102
RTVSPropertyOp26
 70
     1
102
RTVSPropertyOp27
 70
     1
102
RTVSPropertyOp28
 70
     1
102
RTVSPropertyOp29
 70
     1
102
RTVSPropertyOp30
 70
     1
102
RTVSPropertyOp31
 70
     1
102
RTVSPropertyOp32
 70
     1
102
RTVSPropertyOp33
 70
     1
102
RTVSPropertyOp34
 70
     1
102
RTVSPropertyOp35
 70
     1
102
RTVSPropertyOp36
 70
     1
102
RTVSPropertyOp37
 70
     1
102
RTVSPropertyOp38
 70
     1
102
RTVSPropertyOp39
 70
     1
102
RTVSPropertyOp40
 70
     1
102
RTVSPropertyOp41
 70
     1
102
RTVSPropertyOp42
 70
     1
102
RTVSPropertyOp43
 70
     1
102
RTVSPropertyOp44
 70
     1
102
RTVSPropertyOp45
 70
     1
102
RTVSPropertyOp46
 70
     1
102
RTVSPropertyOp47
 70
     1
102
RTVSPropertyOp48
 70
     1
102
RTVSPropertyOp49
 70
     1
102
RTVSPropertyOp50
 70
     1
102
RTVSPropertyOp51
 70
     0
102
RTVSPropertyOp52
 70
     0
102
RTVSPropertyOp53
 70
     1
102
RTVSPropertyOp54
 70
     1
102
RTVSPropertyOp55
 70
     1
102
RTVSPropertyOp56
 70
     1
102
RTVSPropertyOp57
 70
     1
102
RTVSPropertyOp58
 70
     1
102
RTVSPropertyOp59
 70
     1
102
RTVSPropertyOp60
 70
     1
102
RTVSPropertyOp61
 70
     1
102
RTVSPropertyOp62
 70
     1
  0
XRECORD
  5
380
102
{ACAD_REACTORS
330
37F
102
}
330
37F
100
AcDbXrecord
280
     1
102
RTVSPost2010Prop28
280
     0
102
RTVSPost2010PropOp28
 70
     1
102
RTVSPost2010Prop29
280
     1
102
RTVSPost2010PropOp29
 70
     1
102
RTVSPost2010Prop30
280
     1
102
RTVSPost2010PropOp30
 70
     1
102
RTVSPost2010Prop31
280
     0
102
RTVSPost2010PropOp31
 70
     1
102
RTVSPost2010Prop32
280
     0
102
RTVSPost2010PropOp32
 70
     1
102
RTVSPost2010Prop33
280
     0
102
RTVSPost2010PropOp33
 70
     1
102
RTVSPost2010Prop34
280
     0
102
RTVSPost2010PropOp34
 70
     1
102
RTVSPost2010Prop35
280
     0
102
RTVSPost2010PropOp35
 70
     1
102
RTVSPost2010Prop36
280
     0
102
RTVSPost2010PropOp36
 70
     1
102
RTVSPost2010Prop37
 90
       50
102
RTVSPost2010PropOp37
 70
     1
102
RTVSPost2010Prop38
140
0.0
102
RTVSPost2010PropOp38
 70
     1
102
RTVSPost2010Prop39
140
1.0
102
RTVSPost2010PropOp39
 70
     1
102
RTVSPost2010Prop40
 90
        0
102
RTVSPost2010PropOp40
 70
     1
102
RTVSPost2010Prop41ColorIndex
 90
       18
102
RTVSPost2010Prop41ColorRGB
 90
        0
102
RTVSPost2010PropOp41
 70
     1
102
RTVSPost2010Prop42
 90
       50
102
RTVSPost2010PropOp42
 70
     1
102
RTVSPost2010Prop43
 90
        3
102
RTVSPost2010PropOp43
 70
     1
102
RTVSPost2010Prop44ColorIndex
 90
        5
102
RTVSPost2010Prop44ColorRGB
 90
      255
102
RTVSPost2010PropOp44
 70
     1
102
RTVSPost2010Prop45
280
     0
102
RTVSPost2010PropOp45
 70
     1
102
RTVSPost2010Prop46
 90
       50
102
RTVSPost2010PropOp46
 70
     1
102
RTVSPost2010Prop47
 90
       50
102
RTVSPost2010PropOp47
 70
     1
102
RTVSPost2010Prop48
 90
       50
102
RTVSPost2010PropOp48
 70
     1
102
RTVSPost2010Prop49
280
     0
102
RTVSPost2010PropOp49
 70
     1
102
RTVSPost2010Prop50
 90
       50
102
RTVSPost2010PropOp50
 70
     1
102
RTVSPost2010Prop51ColorIndex
 90
      256
102
RTVSPost2010Prop51ColorRGB
 90
-16777216
102
RTVSPost2010PropOp51
 70
     0
102
RTVSPost2010Prop52
140
1.0
102
RTVSPost2010PropOp52
 70
     0
102
RTVSPost2010Prop53
 90
        2
102
RTVSPost2010PropOp53
 70
     1
102
RTVSPost2010Prop54
  1
strokes_ogs.tif
102
RTVSPost2010PropOp54
 70
     1
102
RTVSPost2010Prop55
280
     0
102
RTVSPost2010PropOp55
 70
     1
102
RTVSPost2010Prop56
140
1.0
102
RTVSPost2010PropOp56
 70
     1
102
RTVSPost2010Prop57
140
1.0
102
RTVSPost2010PropOp57
 70
     1
102
RTVSPropertyOp0
 70
     1
102
RTVSPropertyOp1
 70
     1
102
RTVSPropertyOp2
 70
     1
102
RTVSPropertyOp3
 70
     1
102
RTVSPropertyOp4
 70
     1
102
RTVSPropertyOp5
 70
     1
102
RTVSPropertyOp6
 70
     1
102
RTVSPropertyOp7
 70
     1
102
RTVSPropertyOp8
 70
     1
102
RTVSPropertyOp9
 70
     1
102
RTVSPropertyOp10
 70
     1
102
RTVSPropertyOp11
 70
     1
102
RTVSPropertyOp12
 70
     1
102
RTVSPropertyOp13
 70
     1
102
RTVSPropertyOp14
 70
     1
102
RTVSPropertyOp15
 70
     1
102
RTVSPropertyOp16
 70
     1
102
RTVSPropertyOp17
 70
     1
102
RTVSPropertyOp18
 70
     1
102
RTVSPropertyOp19
 70
     1
102
RTVSPropertyOp20
 70
     1
102
RTVSPropertyOp21
 70
     1
102
RTVSPropertyOp22
 70
     1
102
RTVSPropertyOp23
 70
     1
102
RTVSPropertyOp24
 70
     1
102
RTVSPropertyOp25
 70
     1
102
RTVSPropertyOp26
 70
     1
102
RTVSPropertyOp27
 70
     1
102
RTVSPropertyOp28
 70
     1
102
RTVSPropertyOp29
 70
     1
102
RTVSPropertyOp30
 70
     1
102
RTVSPropertyOp31
 70
     1
102
RTVSPropertyOp32
 70
     1
102
RTVSPropertyOp33
 70
     1
102
RTVSPropertyOp34
 70
     1
102
RTVSPropertyOp35
 70
     1
102
RTVSPropertyOp36
 70
     1
102
RTVSPropertyOp37
 70
     1
102
RTVSPropertyOp38
 70
     1
102
RTVSPropertyOp39
 70
     1
102
RTVSPropertyOp40
 70
     1
102
RTVSPropertyOp41
 70
     1
102
RTVSPropertyOp42
 70
     1
102
RTVSPropertyOp43
 70
     1
102
RTVSPropertyOp44
 70
     1
102
RTVSPropertyOp45
 70
     1
102
RTVSPropertyOp46
 70
     1
102
RTVSPropertyOp47
 70
     1
102
RTVSPropertyOp48
 70
     1
102
RTVSPropertyOp49
 70
     1
102
RTVSPropertyOp50
 70
     1
102
RTVSPropertyOp51
 70
     0
102
RTVSPropertyOp52
 70
     0
102
RTVSPropertyOp53
 70
     1
102
RTVSPropertyOp54
 70
     1
102
RTVSPropertyOp55
 70
     1
102
RTVSPropertyOp56
 70
     1
102
RTVSPropertyOp57
 70
     1
102
RTVSPropertyOp58
 70
     1
102
RTVSPropertyOp59
 70
     1
102
RTVSPropertyOp60
 70
     1
102
RTVSPropertyOp61
 70
     1
102
RTVSPropertyOp62
 70
     1
  0
XRECORD
  5
372
102
{ACAD_REACTORS
330
371
102
}
330
371
100
AcDbXrecord
280
     1
102
RTVSPost2010Prop28
280
     0
102
RTVSPost2010PropOp28
 70
     1
102
RTVSPost2010Prop29
280
     1
102
RTVSPost2010PropOp29
 70
     1
102
RTVSPost2010Prop30
280
     1
102
RTVSPost2010PropOp30
 70
     1
102
RTVSPost2010Prop31
280
     0
102
RTVSPost2010PropOp31
 70
     1
102
RTVSPost2010Prop32
280
     0
102
RTVSPost2010PropOp32
 70
     1
102
RTVSPost2010Prop33
280
     0
102
RTVSPost2010PropOp33
 70
     1
102
RTVSPost2010Prop34
280
     0
102
RTVSPost2010PropOp34
 70
     1
102
RTVSPost2010Prop35
280
     0
102
RTVSPost2010PropOp35
 70
     1
102
RTVSPost2010Prop36
280
     0
102
RTVSPost2010PropOp36
 70
     1
102
RTVSPost2010Prop37
 90
       50
102
RTVSPost2010PropOp37
 70
     1
102
RTVSPost2010Prop38
140
0.0
102
RTVSPost2010PropOp38
 70
     1
102
RTVSPost2010Prop39
140
1.0
102
RTVSPost2010PropOp39
 70
     1
102
RTVSPost2010Prop40
 90
        0
102
RTVSPost2010PropOp40
 70
     1
102
RTVSPost2010Prop41ColorIndex
 90
       18
102
RTVSPost2010Prop41ColorRGB
 90
        0
102
RTVSPost2010PropOp41
 70
     1
102
RTVSPost2010Prop42
 90
       50
102
RTVSPost2010PropOp42
 70
     1
102
RTVSPost2010Prop43
 90
        3
102
RTVSPost2010PropOp43
 70
     1
102
RTVSPost2010Prop44ColorIndex
 90
        5
102
RTVSPost2010Prop44ColorRGB
 90
      255
102
RTVSPost2010PropOp44
 70
     1
102
RTVSPost2010Prop45
280
     0
102
RTVSPost2010PropOp45
 70
     1
102
RTVSPost2010Prop46
 90
       50
102
RTVSPost2010PropOp46
 70
     1
102
RTVSPost2010Prop47
 90
       50
102
RTVSPost2010PropOp47
 70
     1
102
RTVSPost2010Prop48
 90
       50
102
RTVSPost2010PropOp48
 70
     1
102
RTVSPost2010Prop49
280
     0
102
RTVSPost2010PropOp49
 70
     1
102
RTVSPost2010Prop50
 90
       50
102
RTVSPost2010PropOp50
 70
     1
102
RTVSPost2010Prop51ColorIndex
 90
      256
102
RTVSPost2010Prop51ColorRGB
 90
-16777216
102
RTVSPost2010PropOp51
 70
     0
102
RTVSPost2010Prop52
140
1.0
102
RTVSPost2010PropOp52
 70
     0
102
RTVSPost2010Prop53
 90
        2
102
RTVSPost2010PropOp53
 70
     1
102
RTVSPost2010Prop54
  1
strokes_ogs.tif
102
RTVSPost2010PropOp54
 70
     1
102
RTVSPost2010Prop55
280
     0
102
RTVSPost2010PropOp55
 70
     1
102
RTVSPost2010Prop56
140
1.0
102
RTVSPost2010PropOp56
 70
     1
102
RTVSPost2010Prop57
140
1.0
102
RTVSPost2010PropOp57
 70
     1
102
RTVSPropertyOp0
 70
     1
102
RTVSPropertyOp1
 70
     1
102
RTVSPropertyOp2
 70
     1
102
RTVSPropertyOp3
 70
     1
102
RTVSPropertyOp4
 70
     1
102
RTVSPropertyOp5
 70
     1
102
RTVSPropertyOp6
 70
     1
102
RTVSPropertyOp7
 70
     1
102
RTVSPropertyOp8
 70
     1
102
RTVSPropertyOp9
 70
     1
102
RTVSPropertyOp10
 70
     1
102
RTVSPropertyOp11
 70
     1
102
RTVSPropertyOp12
 70
     1
102
RTVSPropertyOp13
 70
     1
102
RTVSPropertyOp14
 70
     1
102
RTVSPropertyOp15
 70
     1
102
RTVSPropertyOp16
 70
     1
102
RTVSPropertyOp17
 70
     1
102
RTVSPropertyOp18
 70
     1
102
RTVSPropertyOp19
 70
     1
102
RTVSPropertyOp20
 70
     1
102
RTVSPropertyOp21
 70
     1
102
RTVSPropertyOp22
 70
     1
102
RTVSPropertyOp23
 70
     1
102
RTVSPropertyOp24
 70
     1
102
RTVSPropertyOp25
 70
     1
102
RTVSPropertyOp26
 70
     1
102
RTVSPropertyOp27
 70
     1
102
RTVSPropertyOp28
 70
     1
102
RTVSPropertyOp29
 70
     1
102
RTVSPropertyOp30
 70
     1
102
RTVSPropertyOp31
 70
     1
102
RTVSPropertyOp32
 70
     1
102
RTVSPropertyOp33
 70
     1
102
RTVSPropertyOp34
 70
     1
102
RTVSPropertyOp35
 70
     1
102
RTVSPropertyOp36
 70
     1
102
RTVSPropertyOp37
 70
     1
102
RTVSPropertyOp38
 70
     1
102
RTVSPropertyOp39
 70
     1
102
RTVSPropertyOp40
 70
     1
102
RTVSPropertyOp41
 70
     1
102
RTVSPropertyOp42
 70
     1
102
RTVSPropertyOp43
 70
     1
102
RTVSPropertyOp44
 70
     1
102
RTVSPropertyOp45
 70
     1
102
RTVSPropertyOp46
 70
     1
102
RTVSPropertyOp47
 70
     1
102
RTVSPropertyOp48
 70
     1
102
RTVSPropertyOp49
 70
     1
102
RTVSPropertyOp50
 70
     1
102
RTVSPropertyOp51
 70
     0
102
RTVSPropertyOp52
 70
     0
102
RTVSPropertyOp53
 70
     1
102
RTVSPropertyOp54
 70
     1
102
RTVSPropertyOp55
 70
     1
102
RTVSPropertyOp56
 70
     1
102
RTVSPropertyOp57
 70
     1
102
RTVSPropertyOp58
 70
     1
102
RTVSPropertyOp59
 70
     1
102
RTVSPropertyOp60
 70
     1
102
RTVSPropertyOp61
 70
     1
102
RTVSPropertyOp62
 70
     1
  0
XRECORD
  5
392
102
{ACAD_REACTORS
330
391
102
}
330
391
100
AcDbXrecord
280
     1
102
RTVSPost2010Prop28
280
     0
102
RTVSPost2010PropOp28
 70
     1
102
RTVSPost2010Prop29
280
     1
102
RTVSPost2010PropOp29
 70
     1
102
RTVSPost2010Prop30
280
     1
102
RTVSPost2010PropOp30
 70
     1
102
RTVSPost2010Prop31
280
     0
102
RTVSPost2010PropOp31
 70
     1
102
RTVSPost2010Prop32
280
     0
102
RTVSPost2010PropOp32
 70
     1
102
RTVSPost2010Prop33
280
     0
102
RTVSPost2010PropOp33
 70
     1
102
RTVSPost2010Prop34
280
     0
102
RTVSPost2010PropOp34
 70
     1
102
RTVSPost2010Prop35
280
     0
102
RTVSPost2010PropOp35
 70
     1
102
RTVSPost2010Prop36
280
     0
102
RTVSPost2010PropOp36
 70
     1
102
RTVSPost2010Prop37
 90
       50
102
RTVSPost2010PropOp37
 70
     1
102
RTVSPost2010Prop38
140
0.0
102
RTVSPost2010PropOp38
 70
     1
102
RTVSPost2010Prop39
140
1.0
102
RTVSPost2010PropOp39
 70
     1
102
RTVSPost2010Prop40
 90
        0
102
RTVSPost2010PropOp40
 70
     1
102
RTVSPost2010Prop41ColorIndex
 90
       18
102
RTVSPost2010Prop41ColorRGB
 90
        0
102
RTVSPost2010PropOp41
 70
     1
102
RTVSPost2010Prop42
 90
       50
102
RTVSPost2010PropOp42
 70
     1
102
RTVSPost2010Prop43
 90
        3
102
RTVSPost2010PropOp43
 70
     1
102
RTVSPost2010Prop44ColorIndex
 90
        5
102
RTVSPost2010Prop44ColorRGB
 90
      255
102
RTVSPost2010PropOp44
 70
     1
102
RTVSPost2010Prop45
280
     0
102
RTVSPost2010PropOp45
 70
     1
102
RTVSPost2010Prop46
 90
       50
102
RTVSPost2010PropOp46
 70
     1
102
RTVSPost2010Prop47
 90
       50
102
RTVSPost2010PropOp47
 70
     1
102
RTVSPost2010Prop48
 90
       50
102
RTVSPost2010PropOp48
 70
     1
102
RTVSPost2010Prop49
280
     0
102
RTVSPost2010PropOp49
 70
     1
102
RTVSPost2010Prop50
 90
       50
102
RTVSPost2010PropOp50
 70
     1
102
RTVSPost2010Prop51ColorIndex
 90
      256
102
RTVSPost2010Prop51ColorRGB
 90
-16777216
102
RTVSPost2010PropOp51
 70
     0
102
RTVSPost2010Prop52
140
1.0
102
RTVSPost2010PropOp52
 70
     0
102
RTVSPost2010Prop53
 90
        2
102
RTVSPost2010PropOp53
 70
     1
102
RTVSPost2010Prop54
  1
strokes_ogs.tif
102
RTVSPost2010PropOp54
 70
     1
102
RTVSPost2010Prop55
280
     0
102
RTVSPost2010PropOp55
 70
     1
102
RTVSPost2010Prop56
140
1.0
102
RTVSPost2010PropOp56
 70
     1
102
RTVSPost2010Prop57
140
1.0
102
RTVSPost2010PropOp57
 70
     1
102
RTVSPropertyOp0
 70
     1
102
RTVSPropertyOp1
 70
     1
102
RTVSPropertyOp2
 70
     1
102
RTVSPropertyOp3
 70
     1
102
RTVSPropertyOp4
 70
     1
102
RTVSPropertyOp5
 70
     1
102
RTVSPropertyOp6
 70
     1
102
RTVSPropertyOp7
 70
     1
102
RTVSPropertyOp8
 70
     1
102
RTVSPropertyOp9
 70
     1
102
RTVSPropertyOp10
 70
     1
102
RTVSPropertyOp11
 70
     1
102
RTVSPropertyOp12
 70
     1
102
RTVSPropertyOp13
 70
     1
102
RTVSPropertyOp14
 70
     1
102
RTVSPropertyOp15
 70
     1
102
RTVSPropertyOp16
 70
     1
102
RTVSPropertyOp17
 70
     1
102
RTVSPropertyOp18
 70
     1
102
RTVSPropertyOp19
 70
     1
102
RTVSPropertyOp20
 70
     1
102
RTVSPropertyOp21
 70
     1
102
RTVSPropertyOp22
 70
     1
102
RTVSPropertyOp23
 70
     1
102
RTVSPropertyOp24
 70
     1
102
RTVSPropertyOp25
 70
     1
102
RTVSPropertyOp26
 70
     1
102
RTVSPropertyOp27
 70
     1
102
RTVSPropertyOp28
 70
     1
102
RTVSPropertyOp29
 70
     1
102
RTVSPropertyOp30
 70
     1
102
RTVSPropertyOp31
 70
     1
102
RTVSPropertyOp32
 70
     1
102
RTVSPropertyOp33
 70
     1
102
RTVSPropertyOp34
 70
     1
102
RTVSPropertyOp35
 70
     1
102
RTVSPropertyOp36
 70
     1
102
RTVSPropertyOp37
 70
     1
102
RTVSPropertyOp38
 70
     1
102
RTVSPropertyOp39
 70
     1
102
RTVSPropertyOp40
 70
     1
102
RTVSPropertyOp41
 70
     1
102
RTVSPropertyOp42
 70
     1
102
RTVSPropertyOp43
 70
     1
102
RTVSPropertyOp44
 70
     1
102
RTVSPropertyOp45
 70
     1
102
RTVSPropertyOp46
 70
     1
102
RTVSPropertyOp47
 70
     1
102
RTVSPropertyOp48
 70
     1
102
RTVSPropertyOp49
 70
     1
102
RTVSPropertyOp50
 70
     1
102
RTVSPropertyOp51
 70
     0
102
RTVSPropertyOp52
 70
     0
102
RTVSPropertyOp53
 70
     1
102
RTVSPropertyOp54
 70
     1
102
RTVSPropertyOp55
 70
     1
102
RTVSPropertyOp56
 70
     1
102
RTVSPropertyOp57
 70
     1
102
RTVSPropertyOp58
 70
     1
102
RTVSPropertyOp59
 70
     1
102
RTVSPropertyOp60
 70
     1
102
RTVSPropertyOp61
 70
     1
102
RTVSPropertyOp62
 70
     1
  0
ENDSEC
  0
EOF
