  0
SECTION
  2
HEADER
  9
$ACADVER
  1
AC1018
  9
$ACADMAINTVER
 70
   104
  9
$DWGCODEPAGE
  3
ANSI_1250
  9
$LASTSAVEDBY
  1
wq7085
  9
$INSBASE
 10
0.0
 20
0.0
 30
0.0
  9
$EXTMIN
 10
188.6658343333333
 20
118.534924
 30
0.0
  9
$EXTMAX
 10
407.4508149999999
 20
345.2288016666667
 30
0.0
  9
$LIMMIN
 10
-0.5
 20
-0.5
  9
$LIMMAX
 10
5.0
 20
5.0
  9
$ORTHOMODE
 70
     0
  9
$REGENMODE
 70
     1
  9
$FILLMODE
 70
     1
  9
$QTEXTMODE
 70
     0
  9
$MIRRTEXT
 70
     1
  9
$LTSCALE
 40
1.0
  9
$ATTMODE
 70
     1
  9
$TEXTSIZE
 40
0.2
  9
$TRACEWID
 40
0.05
  9
$TEXTSTYLE
  7
Standard
  9
$CLAYER
  8
0
  9
$CELTYPE
  6
ByLayer
  9
$CECOLOR
 62
   256
  9
$CELTSCALE
 40
1.0
  9
$DISPSILH
 70
     0
  9
$DIMSCALE
 40
1.0
  9
$DIMASZ
 40
0.18
  9
$DIMEXO
 40
0.0625
  9
$DIMDLI
 40
0.38
  9
$DIMRND
 40
0.0
  9
$DIMDLE
 40
0.0
  9
$DIMEXE
 40
0.18
  9
$DIMTP
 40
0.0
  9
$DIMTM
 40
0.0
  9
$DIMTXT
 40
0.18
  9
$DIMCEN
 40
0.09
  9
$DIMTSZ
 40
0.0
  9
$DIMTOL
 70
     0
  9
$DIMLIM
 70
     0
  9
$DIMTIH
 70
     1
  9
$DIMTOH
 70
     1
  9
$DIMSE1
 70
     0
  9
$DIMSE2
 70
     0
  9
$DIMTAD
 70
     0
  9
$DIMZIN
 70
     0
  9
$DIMBLK
  1

  9
$DIMASO
 70
     1
  9
$DIMSHO
 70
     1
  9
$DIMPOST
  1

  9
$DIMAPOST
  1

  9
$DIMALT
 70
     0
  9
$DIMALTD
 70
     2
  9
$DIMALTF
 40
25.4
  9
$DIMLFAC
 40
1.0
  9
$DIMTOFL
 70
     0
  9
$DIMTVP
 40
0.0
  9
$DIMTIX
 70
     0
  9
$DIMSOXD
 70
     0
  9
$DIMSAH
 70
     0
  9
$DIMBLK1
  1

  9
$DIMBLK2
  1

  9
$DIMSTYLE
  2
Standard
  9
$DIMCLRD
 70
     0
  9
$DIMCLRE
 70
     0
  9
$DIMCLRT
 70
     0
  9
$DIMTFAC
 40
1.0
  9
$DIMGAP
 40
0.09
  9
$DIMJUST
 70
     0
  9
$DIMSD1
 70
     0
  9
$DIMSD2
 70
     0
  9
$DIMTOLJ
 70
     1
  9
$DIMTZIN
 70
     0
  9
$DIMALTZ
 70
     0
  9
$DIMALTTZ
 70
     0
  9
$DIMUPT
 70
     0
  9
$DIMDEC
 70
     4
  9
$DIMTDEC
 70
     4
  9
$DIMALTU
 70
     2
  9
$DIMALTTD
 70
     2
  9
$DIMTXSTY
  7
Standard
  9
$DIMAUNIT
 70
     0
  9
$DIMADEC
 70
     0
  9
$DIMALTRND
 40
0.0
  9
$DIMAZIN
 70
     0
  9
$DIMDSEP
 70
    46
  9
$DIMATFIT
 70
     3
  9
$DIMFRAC
 70
     0
  9
$DIMLDRBLK
  1

  9
$DIMLUNIT
 70
     2
  9
$DIMLWD
 70
    -2
  9
$DIMLWE
 70
    -2
  9
$DIMTMOVE
 70
     0
  9
$LUNITS
 70
     2
  9
$LUPREC
 70
     4
  9
$SKETCHINC
 40
0.1
  9
$FILLETRAD
 40
0.5
  9
$AUNITS
 70
     0
  9
$AUPREC
 70
     0
  9
$MENU
  1
.
  9
$ELEVATION
 40
0.0
  9
$PELEVATION
 40
0.0
  9
$THICKNESS
 40
0.0
  9
$LIMCHECK
 70
     0
  9
$CHAMFERA
 40
0.0
  9
$CHAMFERB
 40
0.0
  9
$CHAMFERC
 40
0.0
  9
$CHAMFERD
 40
0.0
  9
$SKPOLY
 70
     0
  9
$TDCREATE
 40
2459005.379837963
  9
$TDUCREATE
 40
2459005.296509109
  9
$TDUPDATE
 40
2459005.380462963
  9
$TDUUPDATE
 40
2459005.297129630
  9
$TDINDWG
 40
0.0003703819
  9
$TDUSRTIMER
 40
0.0003588079
  9
$USRTIMER
 70
     1
  9
$ANGBASE
 50
0.0
  9
$ANGDIR
 70
     0
  9
$PDMODE
 70
     0
  9
$PDSIZE
 40
0.0
  9
$PLINEWID
 40
0.0
  9
$SPLFRAME
 70
     0
  9
$SPLINETYPE
 70
     6
  9
$SPLINESEGS
 70
     8
  9
$HANDSEED
  5
3AA
  9
$SURFTAB1
 70
     6
  9
$SURFTAB2
 70
     6
  9
$SURFTYPE
 70
     6
  9
$SURFU
 70
     6
  9
$SURFV
 70
     6
  9
$UCSBASE
  2

  9
$UCSNAME
  2

  9
$UCSORG
 10
274.404842
 20
288.907994
 30
0.0
  9
$UCSXDIR
 10
1.0
 20
0.0
 30
0.0
  9
$UCSYDIR
 10
0.0
 20
1.0
 30
0.0
  9
$UCSORTHOREF
  2

  9
$UCSORTHOVIEW
 70
     0
  9
$UCSORGTOP
 10
0.0
 20
0.0
 30
0.0
  9
$UCSORGBOTTOM
 10
0.0
 20
0.0
 30
0.0
  9
$UCSORGLEFT
 10
0.0
 20
0.0
 30
0.0
  9
$UCSORGRIGHT
 10
0.0
 20
0.0
 30
0.0
  9
$UCSORGFRONT
 10
0.0
 20
0.0
 30
0.0
  9
$UCSORGBACK
 10
0.0
 20
0.0
 30
0.0
  9
$PUCSBASE
  2

  9
$PUCSNAME
  2

  9
$PUCSORG
 10
0.0
 20
0.0
 30
0.0
  9
$PUCSXDIR
 10
1.0
 20
0.0
 30
0.0
  9
$PUCSYDIR
 10
0.0
 20
1.0
 30
0.0
  9
$PUCSORTHOREF
  2

  9
$PUCSORTHOVIEW
 70
     0
  9
$PUCSORGTOP
 10
0.0
 20
0.0
 30
0.0
  9
$PUCSORGBOTTOM
 10
0.0
 20
0.0
 30
0.0
  9
$PUCSORGLEFT
 10
0.0
 20
0.0
 30
0.0
  9
$PUCSORGRIGHT
 10
0.0
 20
0.0
 30
0.0
  9
$PUCSORGFRONT
 10
0.0
 20
0.0
 30
0.0
  9
$PUCSORGBACK
 10
0.0
 20
0.0
 30
0.0
  9
$USERI1
 70
     0
  9
$USERI2
 70
     0
  9
$USERI3
 70
     0
  9
$USERI4
 70
     0
  9
$USERI5
 70
     0
  9
$USERR1
 40
0.0
  9
$USERR2
 40
0.0
  9
$USERR3
 40
0.0
  9
$USERR4
 40
0.0
  9
$USERR5
 40
0.0
  9
$WORLDVIEW
 70
     1
  9
$SHADEDGE
 70
     3
  9
$SHADEDIF
 70
    70
  9
$TILEMODE
 70
     1
  9
$MAXACTVP
 70
    64
  9
$PINSBASE
 10
0.0
 20
0.0
 30
0.0
  9
$PLIMCHECK
 70
     0
  9
$PEXTMIN
 10
-0.5
 20
-0.5
 30
-0.5
  9
$PEXTMAX
 10
5.0
 20
5.0
 30
5.0
  9
$PLIMMIN
 10
-0.5
 20
-0.5
  9
$PLIMMAX
 10
5.0
 20
5.0
  9
$UNITMODE
 70
     0
  9
$VISRETAIN
 70
     1
  9
$PLINEGEN
 70
     0
  9
$PSLTSCALE
 70
     1
  9
$TREEDEPTH
 70
  3020
  9
$CMLSTYLE
  2
Standard
  9
$CMLJUST
 70
     0
  9
$CMLSCALE
 40
1.0
  9
$PROXYGRAPHICS
 70
     1
  9
$MEASUREMENT
 70
     1
  9
$CELWEIGHT
370
    13
  9
$ENDCAPS
280
     0
  9
$JOINSTYLE
280
     0
  9
$LWDISPLAY
290
     0
  9
$INSUNITS
 70
     4
  9
$HYPERLINKBASE
  1

  9
$STYLESHEET
  1

  9
$XEDIT
290
     1
  9
$CEPSNTYPE
380
     0
  9
$PSTYLEMODE
290
     1
  9
$FINGERPRINTGUID
  2
{F51BC6EA-83B5-4432-865C-0B9D9C8F9018}
  9
$VERSIONGUID
  2
{BE6B66F9-833F-1A46-8559-D7AF16B4E6AD}
  9
$EXTNAMES
290
     1
  9
$PSVPSCALE
 40
0.0
  9
$OLESTARTUP
290
     0
  9
$SORTENTS
280
   127
  9
$INDEXCTL
280
     0
  9
$HIDETEXT
280
     1
  9
$XCLIPFRAME
290
     0
  9
$HALOGAP
280
     0
  9
$OBSCOLOR
 70
   257
  9
$OBSLTYPE
280
     0
  9
$INTERSECTIONDISPLAY
280
     0
  9
$INTERSECTIONCOLOR
 70
   257
  9
$DIMASSOC
280
     2
  9
$PROJECTNAME
  1

  0
ENDSEC
  0
SECTION
  2
CLASSES
  0
CLASS
  1
ACDBDICTIONARYWDFLT
  2
AcDbDictionaryWithDefault
  3
ObjectDBX Classes
 90
        0
 91
        1
280
     0
281
     0
  0
CLASS
  1
VISUALSTYLE
  2
AcDbVisualStyle
  3
ObjectDBX Classes
 90
     4095
 91
       24
280
     0
281
     0
  0
CLASS
  1
MATERIAL
  2
AcDbMaterial
  3
ObjectDBX Classes
 90
     1153
 91
        3
280
     0
281
     0
  0
CLASS
  1
SCALE
  2
AcDbScale
  3
ObjectDBX Classes
 90
     1153
 91
       33
280
     0
281
     0
  0
CLASS
  1
TABLESTYLE
  2
AcDbTableStyle
  3
ObjectDBX Classes
 90
     4095
 91
        1
280
     0
281
     0
  0
CLASS
  1
MLEADERSTYLE
  2
AcDbMLeaderStyle
  3
ACDB_MLEADERSTYLE_CLASS
 90
     4095
 91
        1
280
     0
281
     0
  0
CLASS
  1
SUN
  2
AcDbSun
  3
SCENEOE
 90
     1153
 91
        0
280
     0
281
     0
  0
CLASS
  1
DIMASSOC
  2
AcDbDimAssoc
  3
"AcDbDimAssoc|Product Desc:     AcDim ARX App For Dimension|Company:          Autodesk, Inc.|WEB Address:      www.autodesk.com"
 90
        0
 91
        7
280
     0
281
     0
  0
CLASS
  1
DICTIONARYVAR
  2
AcDbDictionaryVar
  3
ObjectDBX Classes
 90
        0
 91
        8
280
     0
281
     0
  0
CLASS
  1
CELLSTYLEMAP
  2
AcDbCellStyleMap
  3
ObjectDBX Classes
 90
     1152
 91
        2
280
     0
281
     0
  0
CLASS
  1
ACDBSECTIONVIEWSTYLE
  2
AcDbSectionViewStyle
  3
ObjectDBX Classes
 90
     1025
 91
        1
280
     0
281
     0
  0
CLASS
  1
ACDBDETAILVIEWSTYLE
  2
AcDbDetailViewStyle
  3
ObjectDBX Classes
 90
     1025
 91
        1
280
     0
281
     0
  0
CLASS
  1
SORTENTSTABLE
  2
AcDbSortentsTable
  3
ObjectDBX Classes
 90
        0
 91
        1
280
     0
281
     0
  0
ENDSEC
  0
SECTION
  2
TABLES
  0
TABLE
  2
VPORT
  5
8
330
0
100
AcDbSymbolTable
 70
    16
  0
VPORT
  5
29
330
8
100
AcDbSymbolTableRecord
100
AcDbViewportTableRecord
  2
*Active
 70
     0
 10
0.0
 20
0.0
 11
1.0
 21
1.0
 12
314.5091022062992
 22
285.108043935761
 13
0.0
 23
0.0
 14
0.5
 24
0.5
 15
0.5
 25
0.5
 16
0.0
 26
0.0
 36
1.0
 17
0.0
 27
0.0
 37
0.0
 40
201.8744683322627
 41
2.283154121863799
 42
50.0
 43
416.664333
 44
-416.664333
 50
0.0
 51
0.0
 71
     0
 72
   100
 73
     1
 74
     3
 75
     0
 76
     0
 77
     0
 78
     0
281
     0
 65
     1
110
274.404842
120
288.907994
130
0.0
111
1.0
121
0.0
131
0.0
112
0.0
122
1.0
132
0.0
 79
     0
146
0.0
1001
ACAD_NAV_VCDISPLAY
1070
     3
  0
VPORT
  5
2AE
330
8
100
AcDbSymbolTableRecord
100
AcDbViewportTableRecord
  2
L1
 70
     0
 10
0.0
 20
0.0
 11
1.0
 21
1.0
 12
297.554115
 22
231.838274
 13
0.0
 23
0.0
 14
0.5
 24
0.5
 15
0.5
 25
0.5
 16
0.0
 26
0.0
 36
1.0
 17
0.0
 27
0.0
 37
0.0
 40
207.433333
 41
0.085602
 42
50.0
 43
416.664333
 44
-416.664333
 50
0.0
 51
0.0
 71
     0
 72
   100
 73
     1
 74
     3
 75
     0
 76
     0
 77
     0
 78
     0
281
     0
 65
     1
110
0.0
120
0.0
130
0.0
111
1.0
121
0.0
131
0.0
112
0.0
122
1.0
132
0.0
 79
     0
146
0.0
  0
VPORT
  5
2AF
330
8
100
AcDbSymbolTableRecord
100
AcDbViewportTableRecord
  2
L2
 70
     0
 10
0.0
 20
0.0
 11
0.5
 21
1.0
 12
0.0
 22
0.0
 13
0.0
 23
0.0
 14
0.5
 24
0.5
 15
0.5
 25
0.5
 16
0.0
 26
-1.0
 36
0.0
 17
0.0
 27
0.0
 37
0.0
 40
1319.735116
 41
0.013455
 42
50.0
 43
679.920199
 44
-679.920199
 50
0.0
 51
0.0
 71
     0
 72
   100
 73
     1
 74
     3
 75
     0
 76
     0
 77
     0
 78
     0
281
     0
 65
     1
110
0.0
120
0.0
130
0.0
111
1.0
121
0.0
131
0.0
112
0.0
122
1.0
132
0.0
 79
     0
146
0.0
  0
VPORT
  5
2B0
330
8
100
AcDbSymbolTableRecord
100
AcDbViewportTableRecord
  2
L2
 70
     0
 10
0.5
 20
0.0
 11
1.0
 21
1.0
 12
0.0
 22
0.0
 13
0.0
 23
0.0
 14
0.5
 24
0.5
 15
0.5
 25
0.5
 16
1.0
 26
0.0
 36
0.0
 17
0.0
 27
0.0
 37
0.0
 40
1319.735116
 41
0.013455
 42
50.0
 43
667.9688169999999
 44
-667.9688169999999
 50
0.0
 51
0.0
 71
     0
 72
   100
 73
     1
 74
     3
 75
     0
 76
     0
 77
     0
 78
     0
281
     0
 65
     1
110
0.0
120
0.0
130
0.0
111
1.0
121
0.0
131
0.0
112
0.0
122
1.0
132
0.0
 79
     0
146
0.0
  0
VPORT
  5
2B1
330
8
100
AcDbSymbolTableRecord
100
AcDbViewportTableRecord
  2
L3
 70
     0
 10
0.0
 20
0.5
 11
1.0
 21
1.0
 12
297.554115
 22
231.838274
 13
0.0
 23
0.0
 14
0.5
 24
0.5
 15
0.5
 25
0.5
 16
0.0
 26
0.0
 36
1.0
 17
0.0
 27
0.0
 37
0.0
 40
207.433333
 41
0.085602
 42
50.0
 43
416.664333
 44
-416.664333
 50
0.0
 51
0.0
 71
     0
 72
   100
 73
     1
 74
     3
 75
     0
 76
     0
 77
     0
 78
     0
281
     0
 65
     1
110
0.0
120
0.0
130
0.0
111
1.0
121
0.0
131
0.0
112
0.0
122
1.0
132
0.0
 79
     0
146
0.0
  0
VPORT
  5
2B2
330
8
100
AcDbSymbolTableRecord
100
AcDbViewportTableRecord
  2
L3
 70
     0
 10
0.0
 20
0.0
 11
1.0
 21
0.5
 12
0.0
 22
0.0
 13
0.0
 23
0.0
 14
0.5
 24
0.5
 15
0.5
 25
0.5
 16
0.0
 26
-1.0
 36
0.0
 17
0.0
 27
0.0
 37
0.0
 40
1319.735116
 41
0.013455
 42
50.0
 43
679.920199
 44
-679.920199
 50
0.0
 51
0.0
 71
     0
 72
   100
 73
     1
 74
     3
 75
     0
 76
     0
 77
     0
 78
     0
281
     0
 65
     1
110
0.0
120
0.0
130
0.0
111
1.0
121
0.0
131
0.0
112
0.0
122
1.0
132
0.0
 79
     0
146
0.0
  0
VPORT
  5
2B3
330
8
100
AcDbSymbolTableRecord
100
AcDbViewportTableRecord
  2
L4
 70
     0
 10
0.0
 20
0.5
 11
0.5
 21
1.0
 12
297.554115
 22
231.838274
 13
0.0
 23
0.0
 14
0.5
 24
0.5
 15
0.5
 25
0.5
 16
0.0
 26
0.0
 36
1.0
 17
0.0
 27
0.0
 37
0.0
 40
207.433333
 41
0.085602
 42
50.0
 43
416.664333
 44
-416.664333
 50
0.0
 51
0.0
 71
     0
 72
   100
 73
     1
 74
     3
 75
     0
 76
     0
 77
     0
 78
     0
281
     0
 65
     1
110
0.0
120
0.0
130
0.0
111
1.0
121
0.0
131
0.0
112
0.0
122
1.0
132
0.0
 79
     0
146
0.0
  0
VPORT
  5
2B4
330
8
100
AcDbSymbolTableRecord
100
AcDbViewportTableRecord
  2
L4
 70
     0
 10
0.0
 20
0.0
 11
0.5
 21
0.5
 12
0.0
 22
0.0
 13
0.0
 23
0.0
 14
0.5
 24
0.5
 15
0.5
 25
0.5
 16
0.0
 26
-1.0
 36
0.0
 17
0.0
 27
0.0
 37
0.0
 40
1319.735116
 41
0.013455
 42
50.0
 43
679.920199
 44
-679.920199
 50
0.0
 51
0.0
 71
     0
 72
   100
 73
     1
 74
     3
 75
     0
 76
     0
 77
     0
 78
     0
281
     0
 65
     1
110
0.0
120
0.0
130
0.0
111
1.0
121
0.0
131
0.0
112
0.0
122
1.0
132
0.0
 79
     0
146
0.0
  0
VPORT
  5
2B5
330
8
100
AcDbSymbolTableRecord
100
AcDbViewportTableRecord
  2
L4
 70
     0
 10
0.5
 20
0.0
 11
1.0
 21
0.5
 12
0.0
 22
0.0
 13
0.0
 23
0.0
 14
0.5
 24
0.5
 15
0.5
 25
0.5
 16
1.0
 26
0.0
 36
0.0
 17
0.0
 27
0.0
 37
0.0
 40
1319.735116
 41
0.013455
 42
50.0
 43
667.9688169999999
 44
-667.9688169999999
 50
0.0
 51
0.0
 71
     0
 72
   100
 73
     1
 74
     3
 75
     0
 76
     0
 77
     0
 78
     0
281
     0
 65
     1
110
0.0
120
0.0
130
0.0
111
1.0
121
0.0
131
0.0
112
0.0
122
1.0
132
0.0
 79
     0
146
0.0
  0
VPORT
  5
2B6
330
8
100
AcDbSymbolTableRecord
100
AcDbViewportTableRecord
  2
L4
 70
     0
 10
0.5
 20
0.5
 11
1.0
 21
1.0
 12
0.0
 22
0.0
 13
0.0
 23
0.0
 14
0.5
 24
0.5
 15
0.5
 25
0.5
 16
0.5773502691896259
 26
-0.5773502691896259
 36
0.5773502691896259
 17
0.0
 27
0.0
 37
0.0
 40
1296.074958
 41
0.0137
 42
50.0
 43
675.1032679999999
 44
-675.1032679999999
 50
0.0
 51
0.0
 71
     0
 72
   100
 73
     1
 74
     3
 75
     0
 76
     0
 77
     0
 78
     0
281
     0
 65
     1
110
0.0
120
0.0
130
0.0
111
1.0
121
0.0
131
0.0
112
0.0
122
1.0
132
0.0
 79
     0
146
0.0
  0
VPORT
  5
2B7
330
8
100
AcDbSymbolTableRecord
100
AcDbViewportTableRecord
  2
L6
 70
     0
 10
0.0
 20
0.5
 11
0.333333
 21
1.0
 12
0.0
 22
0.0
 13
0.0
 23
0.0
 14
0.5
 24
0.5
 15
0.5
 25
0.5
 16
0.7188730927569434
 26
-0.5850486126764433
 36
0.3754192287502549
 17
0.0
 27
0.0
 37
0.0
 40
1367.812327
 41
0.012982
 42
50.0
 43
708.2012429999999
 44
-708.2012429999999
 50
0.0
 51
0.0
 71
     0
 72
   100
 73
     1
 74
     3
 75
     0
 76
     0
 77
     0
 78
     0
281
     0
 65
     1
110
0.0
120
0.0
130
0.0
111
1.0
121
0.0
131
0.0
112
0.0
122
1.0
132
0.0
 79
     0
146
0.0
  0
VPORT
  5
2B8
330
8
100
AcDbSymbolTableRecord
100
AcDbViewportTableRecord
  2
L6
 70
     0
 10
0.0
 20
0.0
 11
0.333333
 21
0.5
 12
0.0
 22
0.0
 13
0.0
 23
0.0
 14
0.5
 24
0.5
 15
0.5
 25
0.5
 16
-1.0
 26
0.0
 36
0.0
 17
0.0
 27
0.0
 37
0.0
 40
1319.735116
 41
0.013455
 42
50.0
 43
667.9688169999999
 44
-667.9688169999999
 50
0.0
 51
0.0
 71
     0
 72
   100
 73
     1
 74
     3
 75
     0
 76
     0
 77
     0
 78
     0
281
     0
 65
     1
110
0.0
120
0.0
130
0.0
111
1.0
121
0.0
131
0.0
112
0.0
122
1.0
132
0.0
 79
     0
146
0.0
  0
VPORT
  5
2B9
330
8
100
AcDbSymbolTableRecord
100
AcDbViewportTableRecord
  2
L6
 70
     0
 10
0.333333
 20
0.5
 11
0.666667
 21
1.0
 12
297.554115
 22
231.838274
 13
0.0
 23
0.0
 14
0.5
 24
0.5
 15
0.5
 25
0.5
 16
0.0
 26
0.0
 36
1.0
 17
0.0
 27
0.0
 37
0.0
 40
207.433333
 41
0.085602
 42
50.0
 43
416.664333
 44
-416.664333
 50
0.0
 51
0.0
 71
     0
 72
   100
 73
     1
 74
     3
 75
     0
 76
     0
 77
     0
 78
     0
281
     0
 65
     1
110
0.0
120
0.0
130
0.0
111
1.0
121
0.0
131
0.0
112
0.0
122
1.0
132
0.0
 79
     0
146
0.0
  0
VPORT
  5
2BA
330
8
100
AcDbSymbolTableRecord
100
AcDbViewportTableRecord
  2
L6
 70
     0
 10
0.333333
 20
0.0
 11
0.666667
 21
0.5
 12
0.0
 22
0.0
 13
0.0
 23
0.0
 14
0.5
 24
0.5
 15
0.5
 25
0.5
 16
0.0
 26
-1.0
 36
0.0
 17
0.0
 27
0.0
 37
0.0
 40
1319.735116
 41
0.013455
 42
50.0
 43
679.920199
 44
-679.920199
 50
0.0
 51
0.0
 71
     0
 72
   100
 73
     1
 74
     3
 75
     0
 76
     0
 77
     0
 78
     0
281
     0
 65
     1
110
0.0
120
0.0
130
0.0
111
1.0
121
0.0
131
0.0
112
0.0
122
1.0
132
0.0
 79
     0
146
0.0
  0
VPORT
  5
2BB
330
8
100
AcDbSymbolTableRecord
100
AcDbViewportTableRecord
  2
L6
 70
     0
 10
0.666667
 20
0.5
 11
1.0
 21
1.0
 12
0.0
 22
0.0
 13
0.0
 23
0.0
 14
0.5
 24
0.5
 15
0.5
 25
0.5
 16
0.5773502691896259
 26
-0.5773502691896259
 36
0.5773502691896259
 17
0.0
 27
0.0
 37
0.0
 40
1296.074958
 41
0.0137
 42
50.0
 43
675.1032679999999
 44
-675.1032679999999
 50
0.0
 51
0.0
 71
     0
 72
   100
 73
     1
 74
     3
 75
     0
 76
     0
 77
     0
 78
     0
281
     0
 65
     1
110
0.0
120
0.0
130
0.0
111
1.0
121
0.0
131
0.0
112
0.0
122
1.0
132
0.0
 79
     0
146
0.0
  0
VPORT
  5
2BC
330
8
100
AcDbSymbolTableRecord
100
AcDbViewportTableRecord
  2
L6
 70
     0
 10
0.666667
 20
0.0
 11
1.0
 21
0.5
 12
0.0
 22
0.0
 13
0.0
 23
0.0
 14
0.5
 24
0.5
 15
0.5
 25
0.5
 16
1.0
 26
0.0
 36
0.0
 17
0.0
 27
0.0
 37
0.0
 40
1319.735116
 41
0.013455
 42
50.0
 43
667.9688169999999
 44
-667.9688169999999
 50
0.0
 51
0.0
 71
     0
 72
   100
 73
     1
 74
     3
 75
     0
 76
     0
 77
     0
 78
     0
281
     0
 65
     1
110
0.0
120
0.0
130
0.0
111
1.0
121
0.0
131
0.0
112
0.0
122
1.0
132
0.0
 79
     0
146
0.0
  0
ENDTAB
  0
TABLE
  2
LTYPE
  5
5
330
0
100
AcDbSymbolTable
 70
     7
  0
LTYPE
  5
14
330
5
100
AcDbSymbolTableRecord
100
AcDbLinetypeTableRecord
  2
ByBlock
 70
     0
  3

 72
    65
 73
     0
 40
0.0
  0
LTYPE
  5
15
330
5
100
AcDbSymbolTableRecord
100
AcDbLinetypeTableRecord
  2
ByLayer
 70
     0
  3

 72
    65
 73
     0
 40
0.0
  0
LTYPE
  5
16
330
5
100
AcDbSymbolTableRecord
100
AcDbLinetypeTableRecord
  2
Continuous
 70
     0
  3
Solid line
 72
    65
 73
     0
 40
0.0
  0
LTYPE
  5
6E
330
5
100
AcDbSymbolTableRecord
100
AcDbLinetypeTableRecord
  2
CENTER
 70
     0
  3
____ _ ____ _ ____ _ ____
 72
    65
 73
     4
 40
47.4
 49
22.0
 74
     4
 75
     0
340
0
 46
0.0
 50
0.0
 44
0.0
 45
0.0
 49
-8.5
 74
     4
 75
     0
340
0
 46
0.0
 50
0.0
 44
0.0
 45
0.0
 49
8.5
 74
     4
 75
     0
340
0
 46
0.0
 50
0.0
 44
0.0
 45
0.0
 49
-8.5
 74
     4
 75
     0
340
0
 46
0.0
 50
0.0
 44
0.0
 45
0.0
  0
LTYPE
  5
6F
330
5
100
AcDbSymbolTableRecord
100
AcDbLinetypeTableRecord
  2
DASHDOT
 70
     0
  3
_._._._._._._._._._._._._._._._.
 72
    65
 73
     4
 40
70.0
 49
31.0
 74
     4
 75
     0
340
0
 46
0.0
 50
0.0
 44
0.0
 45
0.0
 49
-13.0
 74
     4
 75
     0
340
0
 46
0.0
 50
0.0
 44
0.0
 45
0.0
 49
13.0
 74
     4
 75
     0
340
0
 46
0.0
 50
0.0
 44
0.0
 45
0.0
 49
-13.0
 74
     4
 75
     0
340
0
 46
0.0
 50
0.0
 44
0.0
 45
0.0
  0
LTYPE
  5
70
330
5
100
AcDbSymbolTableRecord
100
AcDbLinetypeTableRecord
  2
DASHED
 70
     0
  3
__ __ __ __ __ __ __ __ __
 72
    65
 73
     2
 40
25.72
 49
12.86
 74
     4
 75
     0
340
0
 46
0.0
 50
0.0
 44
0.0
 45
0.0
 49
-12.86
 74
     4
 75
     0
340
0
 46
0.0
 50
0.0
 44
0.0
 45
0.0
  0
LTYPE
  5
71
330
5
100
AcDbSymbolTableRecord
100
AcDbLinetypeTableRecord
  2
DOT
 70
     0
  3
.........................
 72
    65
 73
     2
 40
10.0
 49
0.0
 74
     4
 75
     0
340
0
 46
0.0
 50
0.0
 44
0.0
 45
0.0
 49
-10.0
 74
     4
 75
     0
340
0
 46
0.0
 50
0.0
 44
0.0
 45
0.0
  0
LTYPE
  5
72
330
5
100
AcDbSymbolTableRecord
100
AcDbLinetypeTableRecord
  2
PHANTOM
 70
     0
  3
____ _ _ ____ _ _ _____ _ _ ____
 72
    65
 73
     6
 40
50.5
 49
18.0
 74
     4
 75
     0
340
0
 46
0.0
 50
0.0
 44
0.0
 45
0.0
 49
-6.5
 74
     4
 75
     0
340
0
 46
0.0
 50
0.0
 44
0.0
 45
0.0
 49
6.5
 74
     4
 75
     0
340
0
 46
0.0
 50
0.0
 44
0.0
 45
0.0
 49
-6.5
 74
     4
 75
     0
340
0
 46
0.0
 50
0.0
 44
0.0
 45
0.0
 49
6.5
 74
     4
 75
     0
340
0
 46
0.0
 50
0.0
 44
0.0
 45
0.0
 49
-6.5
 74
     4
 75
     0
340
0
 46
0.0
 50
0.0
 44
0.0
 45
0.0
  0
LTYPE
  5
34C
330
5
100
AcDbSymbolTableRecord
100
AcDbLinetypeTableRecord
  2
CENTER2
 70
     0
  3
Center (.5x) ___ _ ___ _ ___ _ ___ _ ___ _ ___
 72
    65
 73
     4
 40
1.125
 49
0.75
 74
     0
 49
-0.125
 74
     0
 49
0.125
 74
     0
 49
-0.125
 74
     0
  0
ENDTAB
  0
TABLE
  2
LAYER
  5
2
330
0
100
AcDbSymbolTable
 70
    22
  0
LAYER
  5
10
102
{ACAD_XDICTIONARY
360
357
102
}
330
2
100
AcDbSymbolTableRecord
100
AcDbLayerTableRecord
  2
0
 70
     0
 62
     7
  6
Continuous
370
    -3
390
F
  0
LAYER
  5
208
330
2
100
AcDbSymbolTableRecord
100
AcDbLayerTableRecord
  2
Defpoints
 70
     0
 62
     7
  6
Continuous
290
     0
370
    -3
390
F
  0
LAYER
  5
349
102
{ACAD_XDICTIONARY
360
359
102
}
330
2
100
AcDbSymbolTableRecord
100
AcDbLayerTableRecord
  2
1
 70
     0
 62
     4
  6
Continuous
370
    -3
390
F
  0
LAYER
  5
34A
102
{ACAD_XDICTIONARY
360
35B
102
}
330
2
100
AcDbSymbolTableRecord
100
AcDbLayerTableRecord
  2
2
 70
     0
 62
     7
  6
Continuous
370
    -3
390
F
  0
LAYER
  5
34B
102
{ACAD_XDICTIONARY
360
35D
102
}
330
2
100
AcDbSymbolTableRecord
100
AcDbLayerTableRecord
  2
4
 70
     0
 62
     2
  6
CENTER2
370
    -3
390
F
  0
LAYER
  5
34D
102
{ACAD_XDICTIONARY
360
35F
102
}
330
2
100
AcDbSymbolTableRecord
100
AcDbLayerTableRecord
  2
SK1
 70
     0
 62
     4
  6
Continuous
370
    -3
390
F
  0
LAYER
  5
34E
102
{ACAD_XDICTIONARY
360
361
102
}
330
2
100
AcDbSymbolTableRecord
100
AcDbLayerTableRecord
  2
SK2
 70
     0
 62
     7
  6
Continuous
370
    -3
390
F
  0
LAYER
  5
350
102
{ACAD_XDICTIONARY
360
363
102
}
330
2
100
AcDbSymbolTableRecord
100
AcDbLayerTableRecord
  2
SK4
 70
     0
 62
     2
  6
CENTER2
370
    -3
390
F
  0
LAYER
  5
351
102
{ACAD_XDICTIONARY
360
365
102
}
330
2
100
AcDbSymbolTableRecord
100
AcDbLayerTableRecord
  2
SK6
 70
     0
 62
     5
  6
Continuous
370
    -3
390
F
  0
LAYER
  5
352
102
{ACAD_XDICTIONARY
360
367
102
}
330
2
100
AcDbSymbolTableRecord
100
AcDbLayerTableRecord
  2
CUT
 70
     0
 62
     1
  6
Continuous
370
    -3
390
F
  0
LAYER
  5
353
102
{ACAD_XDICTIONARY
360
369
102
}
330
2
100
AcDbSymbolTableRecord
100
AcDbLayerTableRecord
  2
NOCUT
 70
     0
 62
     7
  6
Continuous
370
    -3
390
F
  0
LAYER
  5
354
102
{ACAD_XDICTIONARY
360
36B
102
}
330
2
100
AcDbSymbolTableRecord
100
AcDbLayerTableRecord
  2
80
 70
     0
 62
     6
  6
Continuous
370
    -3
390
F
  0
LAYER
  5
355
102
{ACAD_XDICTIONARY
360
36D
102
}
330
2
100
AcDbSymbolTableRecord
100
AcDbLayerTableRecord
  2
81
 70
     0
 62
     3
  6
Continuous
370
    -3
390
F
  0
ENDTAB
  0
TABLE
  2
STYLE
  5
3
330
0
100
AcDbSymbolTable
 70
     3
  0
STYLE
  5
11
330
3
100
AcDbSymbolTableRecord
100
AcDbTextStyleTableRecord
  2
Standard
 70
     0
 40
0.0
 41
1.0
 50
0.0
 71
     0
 42
0.2
  3
txt
  4

  0
STYLE
  5
1FC
330
3
100
AcDbSymbolTableRecord
100
AcDbTextStyleTableRecord
  2
cesky
 70
     0
 40
0.0
 41
1.0
 50
0.0
 71
     0
 42
0.2
  3
simplex.shx
  4

  0
STYLE
  5
1FD
330
3
100
AcDbSymbolTableRecord
100
AcDbTextStyleTableRecord
  2
DWGDirectTextStyle
 70
     0
 40
0.0
 41
1.0
 50
0.0
 71
     0
 42
0.2
  3
simplex
  4

  0
ENDTAB
  0
TABLE
  2
VIEW
  5
6
330
0
100
AcDbSymbolTable
 70
     0
  0
ENDTAB
  0
TABLE
  2
UCS
  5
7
330
0
100
AcDbSymbolTable
 70
     0
  0
ENDTAB
  0
TABLE
  2
APPID
  5
9
330
0
100
AcDbSymbolTable
 70
     7
  0
APPID
  5
12
330
9
100
AcDbSymbolTableRecord
100
AcDbRegAppTableRecord
  2
ACAD
 70
     0
  0
APPID
  5
204
330
9
100
AcDbSymbolTableRecord
100
AcDbRegAppTableRecord
  2
ACAD_DSTYLE_DIMBREAK
 70
     0
  0
APPID
  5
2BD
330
9
100
AcDbSymbolTableRecord
100
AcDbRegAppTableRecord
  2
ACAD_DSTYLE_DIM_LINETYPE
 70
     0
  0
APPID
  5
2BE
330
9
100
AcDbSymbolTableRecord
100
AcDbRegAppTableRecord
  2
ACAD_DSTYLE_DIM_EXT1_LINETYPE
 70
     0
  0
APPID
  5
2BF
330
9
100
AcDbSymbolTableRecord
100
AcDbRegAppTableRecord
  2
ACAD_DSTYLE_DIM_EXT2_LINETYPE
 70
     0
  0
APPID
  5
2FF
330
9
100
AcDbSymbolTableRecord
100
AcDbRegAppTableRecord
  2
ACAD_MLEADERVER
 70
     0
  0
APPID
  5
372
330
9
100
AcDbSymbolTableRecord
100
AcDbRegAppTableRecord
  2
ACAD_NAV_VCDISPLAY
 70
     0
  0
ENDTAB
  0
TABLE
  2
DIMSTYLE
  5
A
330
0
100
AcDbSymbolTable
 70
     1
100
AcDbDimStyleTable
 71
     0
  0
DIMSTYLE
105
27
330
A
100
AcDbSymbolTableRecord
100
AcDbDimStyleTableRecord
  2
Standard
 70
     0
340
11
1001
ACAD_DSTYLE_DIMBREAK
1070
   391
1040
6.349999999999999
  0
ENDTAB
  0
TABLE
  2
BLOCK_RECORD
  5
1
330
0
100
AcDbSymbolTable
 70
    16
  0
BLOCK_RECORD
  5
1F
102
{ACAD_XDICTIONARY
360
30F
102
}
330
1
100
AcDbSymbolTableRecord
100
AcDbBlockTableRecord
  2
*Model_Space
340
22
  0
BLOCK_RECORD
  5
1B
330
1
100
AcDbSymbolTableRecord
100
AcDbBlockTableRecord
  2
*Paper_Space
340
1E
  0
BLOCK_RECORD
  5
23
330
1
100
AcDbSymbolTableRecord
100
AcDbBlockTableRecord
  2
*Paper_Space0
340
26
  0
BLOCK_RECORD
  5
1FF
330
1
100
AcDbSymbolTableRecord
100
AcDbBlockTableRecord
  2
ASSORTED_DRAFT1
340
0
  0
BLOCK_RECORD
  5
209
330
1
100
AcDbSymbolTableRecord
100
AcDbBlockTableRecord
  2
*D2
340
0
  0
BLOCK_RECORD
  5
214
330
1
100
AcDbSymbolTableRecord
100
AcDbBlockTableRecord
  2
_U0
340
0
  0
BLOCK_RECORD
  5
21F
330
1
100
AcDbSymbolTableRecord
100
AcDbBlockTableRecord
  2
*D4
340
0
  0
BLOCK_RECORD
  5
22B
330
1
100
AcDbSymbolTableRecord
100
AcDbBlockTableRecord
  2
_U1
340
0
  0
BLOCK_RECORD
  5
238
330
1
100
AcDbSymbolTableRecord
100
AcDbBlockTableRecord
  2
*D6
340
0
  0
BLOCK_RECORD
  5
244
330
1
100
AcDbSymbolTableRecord
100
AcDbBlockTableRecord
  2
_U2
340
0
  0
BLOCK_RECORD
  5
250
330
1
100
AcDbSymbolTableRecord
100
AcDbBlockTableRecord
  2
*D8
340
0
  0
BLOCK_RECORD
  5
25C
330
1
100
AcDbSymbolTableRecord
100
AcDbBlockTableRecord
  2
_U3
340
0
  0
BLOCK_RECORD
  5
268
330
1
100
AcDbSymbolTableRecord
100
AcDbBlockTableRecord
  2
*D10
340
0
  0
BLOCK_RECORD
  5
274
330
1
100
AcDbSymbolTableRecord
100
AcDbBlockTableRecord
  2
_U4
340
0
  0
BLOCK_RECORD
  5
280
330
1
100
AcDbSymbolTableRecord
100
AcDbBlockTableRecord
  2
*D12
340
0
  0
BLOCK_RECORD
  5
28C
330
1
100
AcDbSymbolTableRecord
100
AcDbBlockTableRecord
  2
_U5
340
0
  0
BLOCK_RECORD
  5
299
330
1
100
AcDbSymbolTableRecord
100
AcDbBlockTableRecord
  2
*D14
340
0
  0
BLOCK_RECORD
  5
2A5
330
1
100
AcDbSymbolTableRecord
100
AcDbBlockTableRecord
  2
_U6
340
0
  0
ENDTAB
  0
ENDSEC
  0
SECTION
  2
BLOCKS
  0
BLOCK
  5
20
330
1F
100
AcDbEntity
  8
0
100
AcDbBlockBegin
  2
*Model_Space
 70
     0
 10
0.0
 20
0.0
 30
0.0
  3
*Model_Space
  1

  0
ENDBLK
  5
21
330
1F
100
AcDbEntity
  8
0
100
AcDbBlockEnd
  0
BLOCK
  5
1C
330
1B
100
AcDbEntity
 67
     1
  8
0
100
AcDbBlockBegin
  2
*Paper_Space
 70
     0
 10
0.0
 20
0.0
 30
0.0
  3
*Paper_Space
  1

  0
ENDBLK
  5
1D
330
1B
100
AcDbEntity
 67
     1
  8
0
100
AcDbBlockEnd
  0
BLOCK
  5
24
330
23
100
AcDbEntity
 67
     1
  8
0
100
AcDbBlockBegin
  2
*Paper_Space0
 70
     0
 10
0.0
 20
0.0
 30
0.0
  3
*Paper_Space0
  1

  0
ENDBLK
  5
25
330
23
100
AcDbEntity
 67
     1
  8
0
100
AcDbBlockEnd
  0
BLOCK
  5
202
330
1FF
100
AcDbEntity
  8
0
100
AcDbBlockBegin
  2
ASSORTED_DRAFT1
 70
     0
 10
0.0
 20
0.0
 30
0.0
  3
ASSORTED_DRAFT1
  1

  0
SOLID
  5
200
330
1FF
100
AcDbEntity
  8
0
 62
   254
370
    13
100
AcDbTrace
 10
270.185042
 20
164.534924
 30
0.0
 11
265.185046
 21
163.42645
 31
0.0
 12
265.1850379999999
 22
165.643397
 32
0.0
 13
270.185042
 23
164.534924
 33
0.0
  0
ENDBLK
  5
203
330
1FF
100
AcDbEntity
  8
0
100
AcDbBlockEnd
  0
BLOCK
  5
20A
330
209
100
AcDbEntity
  8
0
100
AcDbBlockBegin
  2
*D2
 70
     1
 10
0.0
 20
0.0
 30
0.0
  3
*D2
  1

  0
LINE
  5
20C
330
209
100
AcDbEntity
  8
0
 62
   254
370
    -2
100
AcDbLine
 10
291.7038319999999
 20
288.907994
 30
0.0
 11
407.4508149999999
 21
288.907994
 31
0.0
  0
LINE
  5
20D
330
209
100
AcDbEntity
  8
0
 62
   254
370
    -2
100
AcDbLine
 10
330.83929
 20
303.907994
 30
0.0
 11
407.4508149999999
 21
303.907994
 31
0.0
  0
LINE
  5
20E
330
209
100
AcDbEntity
  8
0
 62
   254
370
    -2
100
AcDbLine
 10
406.4508149999999
 20
288.907994
 30
0.0
 11
406.4508149999999
 21
303.907994
 31
0.0
  0
SOLID
  5
20F
330
209
100
AcDbEntity
  8
0
 62
   254
100
AcDbTrace
 10
407.034148
 20
300.407994
 30
0.0
 11
405.867481
 21
300.407994
 31
0.0
 12
406.4508149999999
 22
303.907994
 32
0.0
 13
406.4508149999999
 23
303.907994
 33
0.0
  0
MTEXT
  5
210
330
209
100
AcDbEntity
  8
0
 62
   254
370
    13
100
AcDbMText
 10
401.2008149999999
 20
279.07466
 30
0.0
 40
3.5
 41
0.0
 71
     5
 72
     1
  1
\A1;30
  7
cesky
 11
0.0
 21
1.0
 31
0.0
 73
     1
 44
1.0
  0
POINT
  5
211
330
209
100
AcDbEntity
  8
Defpoints
 62
     0
100
AcDbPoint
 10
291.7038319999999
 20
288.907994
 30
0.0
  0
POINT
  5
212
330
209
100
AcDbEntity
  8
Defpoints
 62
     0
100
AcDbPoint
 10
330.83929
 20
303.907994
 30
0.0
  0
POINT
  5
213
330
209
100
AcDbEntity
  8
Defpoints
 62
     0
100
AcDbPoint
 10
406.4508149999999
 20
303.907994
 30
0.0
  0
ENDBLK
  5
20B
330
209
100
AcDbEntity
  8
0
100
AcDbBlockEnd
  0
BLOCK
  5
21A
330
214
100
AcDbEntity
  8
0
100
AcDbBlockBegin
  2
_U0
 70
     0
 10
0.0
 20
0.0
 30
0.0
  3
_U0
  1

  0
ENDBLK
  5
21B
330
214
100
AcDbEntity
  8
0
100
AcDbBlockEnd
  0
BLOCK
  5
220
330
21F
100
AcDbEntity
  8
0
100
AcDbBlockBegin
  2
*D4
 70
     1
 10
0.0
 20
0.0
 30
0.0
  3
*D4
  1

  0
LINE
  5
222
330
21F
100
AcDbEntity
  8
0
 62
    95
370
    -2
100
AcDbLine
 10
216.404842
 20
304.907994
 30
0.0
 11
204.878544
 21
304.907994
 31
0.0
  0
LINE
  5
223
330
21F
100
AcDbEntity
  8
0
 62
    95
370
    -2
100
AcDbLine
 10
216.404842
 20
272.907994
 30
0.0
 11
204.878544
 21
272.907994
 31
0.0
  0
LINE
  5
224
330
21F
100
AcDbEntity
  8
0
 62
    95
370
    -2
100
AcDbLine
 10
205.878544
 20
301.407994
 30
0.0
 11
205.878544
 21
276.407994
 31
0.0
  0
SOLID
  5
225
330
21F
100
AcDbEntity
  8
0
 62
    95
100
AcDbTrace
 10
206.461878
 20
301.407994
 30
0.0
 11
205.295211
 21
301.407994
 31
0.0
 12
205.878544
 22
304.907994
 32
0.0
 13
205.878544
 23
304.907994
 33
0.0
  0
SOLID
  5
226
330
21F
100
AcDbEntity
  8
0
 62
    95
100
AcDbTrace
 10
205.295211
 20
276.407994
 30
0.0
 11
206.461878
 21
276.407994
 31
0.0
 12
205.878544
 22
272.907994
 32
0.0
 13
205.878544
 23
272.907994
 33
0.0
  0
MTEXT
  5
227
330
21F
100
AcDbEntity
  8
0
 62
    95
370
    13
100
AcDbMText
 10
200.628544
 20
288.907994
 30
0.0
 40
3.5
 41
0.0
 71
     5
 72
     1
  1
\A1;32
  7
cesky
 11
0.0
 21
1.0
 31
0.0
 73
     1
 44
1.0
  0
POINT
  5
228
330
21F
100
AcDbEntity
  8
Defpoints
 62
     0
100
AcDbPoint
 10
216.404842
 20
304.907994
 30
0.0
  0
POINT
  5
229
330
21F
100
AcDbEntity
  8
Defpoints
 62
     0
100
AcDbPoint
 10
216.404842
 20
272.907994
 30
0.0
  0
POINT
  5
22A
330
21F
100
AcDbEntity
  8
Defpoints
 62
     0
100
AcDbPoint
 10
205.878544
 20
272.907994
 30
0.0
  0
ENDBLK
  5
221
330
21F
100
AcDbEntity
  8
0
100
AcDbBlockEnd
  0
BLOCK
  5
233
330
22B
100
AcDbEntity
  8
0
100
AcDbBlockBegin
  2
_U1
 70
     0
 10
0.0
 20
0.0
 30
0.0
  3
_U1
  1

  0
ENDBLK
  5
234
330
22B
100
AcDbEntity
  8
0
100
AcDbBlockEnd
  0
BLOCK
  5
239
330
238
100
AcDbEntity
  8
0
100
AcDbBlockBegin
  2
*D6
 70
     1
 10
0.0
 20
0.0
 30
0.0
  3
*D6
  1

  0
LINE
  5
23B
330
238
100
AcDbEntity
  8
0
 62
   254
370
    -2
100
AcDbLine
 10
389.404842
 20
305.907994
 30
0.0
 11
389.404842
 21
341.687968
 31
0.0
  0
LINE
  5
23C
330
238
100
AcDbEntity
  8
0
 62
   254
370
    -2
100
AcDbLine
 10
214.404842
 20
302.907994
 30
0.0
 11
214.404842
 21
341.687968
 31
0.0
  0
LINE
  5
23D
330
238
100
AcDbEntity
  8
0
 62
   254
370
    -2
100
AcDbLine
 10
385.904842
 20
340.687968
 30
0.0
 11
217.904842
 21
340.687968
 31
0.0
  0
SOLID
  5
23E
330
238
100
AcDbEntity
  8
0
 62
   254
100
AcDbTrace
 10
385.904842
 20
340.104634
 30
0.0
 11
385.904842
 21
341.271301
 31
0.0
 12
389.404842
 22
340.687968
 32
0.0
 13
389.404842
 23
340.687968
 33
0.0
  0
SOLID
  5
23F
330
238
100
AcDbEntity
  8
0
 62
   254
100
AcDbTrace
 10
217.904842
 20
341.271301
 30
0.0
 11
217.904842
 21
340.104634
 31
0.0
 12
214.404842
 22
340.687968
 32
0.0
 13
214.404842
 23
340.687968
 33
0.0
  0
MTEXT
  5
240
330
238
100
AcDbEntity
  8
0
 62
   254
370
    13
100
AcDbMText
 10
301.904842
 20
345.937968
 30
0.0
 40
3.5
 41
0.0
 71
     5
 72
     1
  1
\A1;175
  7
cesky
 73
     1
 44
1.0
  0
POINT
  5
241
330
238
100
AcDbEntity
  8
Defpoints
 62
     0
100
AcDbPoint
 10
389.404842
 20
305.907994
 30
0.0
  0
POINT
  5
242
330
238
100
AcDbEntity
  8
Defpoints
 62
     0
100
AcDbPoint
 10
214.404842
 20
302.907994
 30
0.0
  0
POINT
  5
243
330
238
100
AcDbEntity
  8
Defpoints
 62
     0
100
AcDbPoint
 10
214.404842
 20
340.687968
 30
0.0
  0
ENDBLK
  5
23A
330
238
100
AcDbEntity
  8
0
100
AcDbBlockEnd
  0
BLOCK
  5
24B
330
244
100
AcDbEntity
  8
0
100
AcDbBlockBegin
  2
_U2
 70
     0
 10
0.0
 20
0.0
 30
0.0
  3
_U2
  1

  0
ENDBLK
  5
24C
330
244
100
AcDbEntity
  8
0
100
AcDbBlockEnd
  0
BLOCK
  5
251
330
250
100
AcDbEntity
  8
0
100
AcDbBlockBegin
  2
*D8
 70
     1
 10
0.0
 20
0.0
 30
0.0
  3
*D8
  1

  0
LINE
  5
253
330
250
100
AcDbEntity
  8
0
 62
   254
370
    -2
100
AcDbLine
 10
274.404842
 20
288.907994
 30
0.0
 11
274.404842
 21
328.5109970000001
 31
0.0
  0
LINE
  5
254
330
250
100
AcDbEntity
  8
0
 62
   254
370
    -2
100
AcDbLine
 10
214.404842
 20
295.907994
 30
0.0
 11
214.404842
 21
328.5109970000001
 31
0.0
  0
LINE
  5
255
330
250
100
AcDbEntity
  8
0
 62
   254
370
    -2
100
AcDbLine
 10
270.904842
 20
327.510997
 30
0.0
 11
217.904842
 21
327.510997
 31
0.0
  0
SOLID
  5
256
330
250
100
AcDbEntity
  8
0
 62
   254
100
AcDbTrace
 10
270.904842
 20
326.927663
 30
0.0
 11
270.904842
 21
328.09433
 31
0.0
 12
274.404842
 22
327.510997
 32
0.0
 13
274.404842
 23
327.510997
 33
0.0
  0
SOLID
  5
257
330
250
100
AcDbEntity
  8
0
 62
   254
100
AcDbTrace
 10
217.904842
 20
328.09433
 30
0.0
 11
217.904842
 21
326.927663
 31
0.0
 12
214.404842
 22
327.510997
 32
0.0
 13
214.404842
 23
327.510997
 33
0.0
  0
MTEXT
  5
258
330
250
100
AcDbEntity
  8
0
 62
   254
370
    13
100
AcDbMText
 10
244.404842
 20
332.7609970000001
 30
0.0
 40
3.5
 41
0.0
 71
     5
 72
     1
  1
\A1;60
  7
cesky
 73
     1
 44
1.0
  0
POINT
  5
259
330
250
100
AcDbEntity
  8
Defpoints
 62
     0
100
AcDbPoint
 10
274.404842
 20
288.907994
 30
0.0
  0
POINT
  5
25A
330
250
100
AcDbEntity
  8
Defpoints
 62
     0
100
AcDbPoint
 10
214.404842
 20
295.907994
 30
0.0
  0
POINT
  5
25B
330
250
100
AcDbEntity
  8
Defpoints
 62
     0
100
AcDbPoint
 10
214.404842
 20
327.510997
 30
0.0
  0
ENDBLK
  5
252
330
250
100
AcDbEntity
  8
0
100
AcDbBlockEnd
  0
BLOCK
  5
263
330
25C
100
AcDbEntity
  8
0
100
AcDbBlockBegin
  2
_U3
 70
     0
 10
0.0
 20
0.0
 30
0.0
  3
_U3
  1

  0
ENDBLK
  5
264
330
25C
100
AcDbEntity
  8
0
100
AcDbBlockEnd
  0
BLOCK
  5
269
330
268
100
AcDbEntity
  8
0
100
AcDbBlockBegin
  2
*D10
 70
     1
 10
0.0
 20
0.0
 30
0.0
  3
*D10
  1

  0
LINE
  5
26B
330
268
100
AcDbEntity
  8
0
 62
   254
370
    -2
100
AcDbLine
 10
389.404842
 20
303.907994
 30
0.0
 11
389.404842
 21
317.275348
 31
0.0
  0
LINE
  5
26C
330
268
100
AcDbEntity
  8
0
 62
   254
370
    -2
100
AcDbLine
 10
289.903402
 20
304.091229
 30
0.0
 11
289.903402
 21
317.275348
 31
0.0
  0
LINE
  5
26D
330
268
100
AcDbEntity
  8
0
 62
   254
370
    -2
100
AcDbLine
 10
385.904842
 20
316.275348
 30
0.0
 11
293.403402
 21
316.275348
 31
0.0
  0
SOLID
  5
26E
330
268
100
AcDbEntity
  8
0
 62
   254
100
AcDbTrace
 10
385.904842
 20
315.692015
 30
0.0
 11
385.904842
 21
316.858681
 31
0.0
 12
389.404842
 22
316.275348
 32
0.0
 13
389.404842
 23
316.275348
 33
0.0
  0
SOLID
  5
26F
330
268
100
AcDbEntity
  8
0
 62
   254
100
AcDbTrace
 10
293.403402
 20
316.858681
 30
0.0
 11
293.403402
 21
315.692015
 31
0.0
 12
289.903402
 22
316.275348
 32
0.0
 13
289.903402
 23
316.275348
 33
0.0
  0
MTEXT
  5
270
330
268
100
AcDbEntity
  8
0
 62
   254
370
    13
100
AcDbMText
 10
339.654122
 20
321.525348
 30
0.0
 40
3.5
 41
0.0
 71
     5
 72
     1
  1
\A1;99.5
  7
cesky
 73
     1
 44
1.0
  0
POINT
  5
271
330
268
100
AcDbEntity
  8
Defpoints
 62
     0
100
AcDbPoint
 10
389.404842
 20
303.907994
 30
0.0
  0
POINT
  5
272
330
268
100
AcDbEntity
  8
Defpoints
 62
     0
100
AcDbPoint
 10
289.903402
 20
304.091229
 30
0.0
  0
POINT
  5
273
330
268
100
AcDbEntity
  8
Defpoints
 62
     0
100
AcDbPoint
 10
289.903402
 20
316.275348
 30
0.0
  0
ENDBLK
  5
26A
330
268
100
AcDbEntity
  8
0
100
AcDbBlockEnd
  0
BLOCK
  5
27B
330
274
100
AcDbEntity
  8
0
100
AcDbBlockBegin
  2
_U4
 70
     0
 10
0.0
 20
0.0
 30
0.0
  3
_U4
  1

  0
ENDBLK
  5
27C
330
274
100
AcDbEntity
  8
0
100
AcDbBlockEnd
  0
BLOCK
  5
281
330
280
100
AcDbEntity
  8
0
100
AcDbBlockBegin
  2
*D12
 70
     1
 10
0.0
 20
0.0
 30
0.0
  3
*D12
  1

  0
LINE
  5
283
330
280
100
AcDbEntity
  8
0
 62
    95
370
    -2
100
AcDbLine
 10
277.154842
 20
309.907994
 30
0.0
 11
192.519918
 21
309.907994
 31
0.0
  0
LINE
  5
284
330
280
100
AcDbEntity
  8
0
 62
    95
370
    -2
100
AcDbLine
 10
277.154842
 20
267.907994
 30
0.0
 11
192.519918
 21
267.907994
 31
0.0
  0
LINE
  5
285
330
280
100
AcDbEntity
  8
0
 62
    95
370
    -2
100
AcDbLine
 10
193.519918
 20
306.407994
 30
0.0
 11
193.519918
 21
271.407994
 31
0.0
  0
SOLID
  5
286
330
280
100
AcDbEntity
  8
0
 62
    95
100
AcDbTrace
 10
194.103251
 20
306.407994
 30
0.0
 11
192.936584
 21
306.407994
 31
0.0
 12
193.519918
 22
309.907994
 32
0.0
 13
193.519918
 23
309.907994
 33
0.0
  0
SOLID
  5
287
330
280
100
AcDbEntity
  8
0
 62
    95
100
AcDbTrace
 10
192.936584
 20
271.407994
 30
0.0
 11
194.103251
 21
271.407994
 31
0.0
 12
193.519918
 22
267.907994
 32
0.0
 13
193.519918
 23
267.907994
 33
0.0
  0
MTEXT
  5
288
330
280
100
AcDbEntity
  8
0
 62
    95
370
    13
100
AcDbMText
 10
188.269918
 20
288.907994
 30
0.0
 40
3.5
 41
0.0
 71
     5
 72
     1
  1
\A1;42
  7
cesky
 11
0.0
 21
1.0
 31
0.0
 73
     1
 44
1.0
  0
POINT
  5
289
330
280
100
AcDbEntity
  8
Defpoints
 62
     0
100
AcDbPoint
 10
277.154842
 20
309.907994
 30
0.0
  0
POINT
  5
28A
330
280
100
AcDbEntity
  8
Defpoints
 62
     0
100
AcDbPoint
 10
277.154842
 20
267.907994
 30
0.0
  0
POINT
  5
28B
330
280
100
AcDbEntity
  8
Defpoints
 62
     0
100
AcDbPoint
 10
193.519918
 20
267.907994
 30
0.0
  0
ENDBLK
  5
282
330
280
100
AcDbEntity
  8
0
100
AcDbBlockEnd
  0
BLOCK
  5
294
330
28C
100
AcDbEntity
  8
0
100
AcDbBlockBegin
  2
_U5
 70
     0
 10
0.0
 20
0.0
 30
0.0
  3
_U5
  1

  0
ENDBLK
  5
295
330
28C
100
AcDbEntity
  8
0
100
AcDbBlockEnd
  0
BLOCK
  5
29A
330
299
100
AcDbEntity
  8
0
100
AcDbBlockBegin
  2
*D14
 70
     1
 10
0.0
 20
0.0
 30
0.0
  3
*D14
  1

  0
LINE
  5
29C
330
299
100
AcDbEntity
  8
0
 62
   254
370
    -2
100
AcDbLine
 10
389.404842
 20
303.907994
 30
0.0
 11
389.404842
 21
328.5109970000001
 31
0.0
  0
LINE
  5
29D
330
299
100
AcDbEntity
  8
0
 62
   254
370
    -2
100
AcDbLine
 10
274.404842
 20
288.907994
 30
0.0
 11
274.404842
 21
328.5109970000001
 31
0.0
  0
LINE
  5
29E
330
299
100
AcDbEntity
  8
0
 62
   254
370
    -2
100
AcDbLine
 10
385.904842
 20
327.510997
 30
0.0
 11
277.904842
 21
327.510997
 31
0.0
  0
SOLID
  5
29F
330
299
100
AcDbEntity
  8
0
 62
   254
100
AcDbTrace
 10
385.904842
 20
326.927663
 30
0.0
 11
385.904842
 21
328.09433
 31
0.0
 12
389.404842
 22
327.510997
 32
0.0
 13
389.404842
 23
327.510997
 33
0.0
  0
SOLID
  5
2A0
330
299
100
AcDbEntity
  8
0
 62
   254
100
AcDbTrace
 10
277.904842
 20
328.09433
 30
0.0
 11
277.904842
 21
326.927663
 31
0.0
 12
274.404842
 22
327.510997
 32
0.0
 13
274.404842
 23
327.510997
 33
0.0
  0
MTEXT
  5
2A1
330
299
100
AcDbEntity
  8
0
 62
   254
370
    13
100
AcDbMText
 10
331.904842
 20
332.7609970000001
 30
0.0
 40
3.5
 41
0.0
 71
     5
 72
     1
  1
\A1;115
  7
cesky
 73
     1
 44
1.0
  0
POINT
  5
2A2
330
299
100
AcDbEntity
  8
Defpoints
 62
     0
100
AcDbPoint
 10
389.404842
 20
303.907994
 30
0.0
  0
POINT
  5
2A3
330
299
100
AcDbEntity
  8
Defpoints
 62
     0
100
AcDbPoint
 10
274.404842
 20
288.907994
 30
0.0
  0
POINT
  5
2A4
330
299
100
AcDbEntity
  8
Defpoints
 62
     0
100
AcDbPoint
 10
274.404842
 20
327.510997
 30
0.0
  0
ENDBLK
  5
29B
330
299
100
AcDbEntity
  8
0
100
AcDbBlockEnd
  0
BLOCK
  5
2AC
330
2A5
100
AcDbEntity
  8
0
100
AcDbBlockBegin
  2
_U6
 70
     0
 10
0.0
 20
0.0
 30
0.0
  3
_U6
  1

  0
ENDBLK
  5
2AD
330
2A5
100
AcDbEntity
  8
0
100
AcDbBlockEnd
  0
ENDSEC
  0
SECTION
  2
ENTITIES
  0
POINT
  5
73
102
{ACAD_REACTORS
330
356
102
}
330
1F
100
AcDbEntity
  8
80
100
AcDbPoint
 10
274.404842
 20
288.907994
 30
0.0
  0
POINT
  5
76
330
1F
100
AcDbEntity
  8
4
 60
     1
100
AcDbPoint
 10
291.7038319999999
 20
288.907994
 30
0.0
  0
POINT
  5
78
330
1F
100
AcDbEntity
  8
4
 60
     1
100
AcDbPoint
 10
388.429496
 20
288.907994
 30
0.0
  0
POINT
  5
79
330
1F
100
AcDbEntity
  8
SK4
 60
     1
100
AcDbPoint
 10
216.404842
 20
288.907994
 30
0.0
  0
POINT
  5
7A
330
1F
100
AcDbEntity
  8
SK4
 60
     1
100
AcDbPoint
 10
274.404842
 20
288.907994
 30
0.0
  0
POINT
  5
7B
330
1F
100
AcDbEntity
  8
SK6
 60
     1
100
AcDbPoint
 10
274.404842
 20
288.907994
 30
0.0
  0
POINT
  5
7C
330
1F
100
AcDbEntity
  8
SK6
 60
     1
100
AcDbPoint
 10
289.903402
 20
304.091229
 30
0.0
  0
LINE
  5
7D
330
1F
100
AcDbEntity
  8
1
100
AcDbLine
 10
386.550055
 20
284.145494
 30
0.0
 11
386.795
 21
284.145494
 31
0.0
  0
LINE
  5
7F
330
1F
100
AcDbEntity
  8
1
100
AcDbLine
 10
379.342399
 20
303.321336
 30
0.0
 11
379.339595
 21
303.40295
 31
0.0
  0
LINE
  5
80
330
1F
100
AcDbEntity
  8
1
100
AcDbLine
 10
382.033742
 20
293.8811
 30
0.0
 11
388.2866509999999
 21
294.099229
 31
0.0
  0
LINE
  5
81
330
1F
100
AcDbEntity
  8
1
100
AcDbLine
 10
383.867792
 20
297.571791
 30
0.0
 11
383.893042
 21
297.64338
 31
0.0
  0
LINE
  5
83
330
1F
100
AcDbEntity
  8
1
100
AcDbLine
 10
388.6099779999999
 20
303.062183
 30
0.0
 11
388.895286
 21
295.097754
 31
0.0
  0
LINE
  5
85
330
1F
100
AcDbEntity
  8
1
100
AcDbLine
 10
379.837244
 20
303.528677
 30
0.0
 11
387.809973
 21
303.8068009999999
 31
0.0
  0
LINE
  5
86
330
1F
100
AcDbEntity
  8
1
100
AcDbLine
 10
379.377827
 20
294.765743
 30
0.0
 11
379.092519
 21
302.730172
 31
0.0
  0
LINE
  5
87
330
1F
100
AcDbEntity
  8
1
100
AcDbLine
 10
388.15056
 20
294.299249
 30
0.0
 11
380.177832
 21
294.021125
 31
0.0
  0
LINE
  5
88
330
1F
100
AcDbEntity
  8
1
100
AcDbLine
 10
380.619207
 20
295.290958
 30
0.0
 11
380.368907
 21
302.278135
 31
0.0
  0
LINE
  5
89
330
1F
100
AcDbEntity
  8
1
100
AcDbLine
 10
387.613665
 20
295.534956
 30
0.0
 11
380.619207
 21
295.290958
 31
0.0
  0
LINE
  5
8A
330
1F
100
AcDbEntity
  8
1
100
AcDbLine
 10
387.363365
 20
302.522133
 30
0.0
 11
387.613665
 21
295.534956
 31
0.0
  0
LINE
  5
8B
330
1F
100
AcDbEntity
  8
1
100
AcDbLine
 10
380.368907
 20
302.278135
 30
0.0
 11
387.363365
 21
302.522133
 31
0.0
  0
LINE
  5
8C
330
1F
100
AcDbEntity
  8
1
100
AcDbLine
 10
389.297436
 20
281.863516
 30
0.0
 11
388.671836
 21
280.822342
 31
0.0
  0
LINE
  5
8D
330
1F
100
AcDbEntity
  8
1
100
AcDbLine
 10
388.3014
 20
281.205939
 30
0.0
 11
388.671836
 21
280.822342
 31
0.0
  0
LINE
  5
8E
330
1F
100
AcDbEntity
  8
1
100
AcDbLine
 10
388.671836
 20
280.822342
 30
0.0
 11
387.8425180000001
 21
280.362644
 31
0.0
  0
LINE
  5
8F
330
1F
100
AcDbEntity
  8
1
100
AcDbLine
 10
388.250653
 20
289.441149
 30
0.0
 11
388.797416
 21
289.11262
 31
0.0
  0
LINE
  5
90
330
1F
100
AcDbEntity
  8
1
100
AcDbLine
 10
388.413818
 20
288.742185
 30
0.0
 11
388.797416
 21
289.11262
 31
0.0
  0
LINE
  5
91
330
1F
100
AcDbEntity
  8
1
100
AcDbLine
 10
388.797416
 20
289.11262
 30
0.0
 11
389.404842
 21
288.016795
 31
0.0
  0
LINE
  5
92
330
1F
100
AcDbEntity
  8
1
100
AcDbLine
 10
388.887419
 20
287.887787
 30
0.0
 11
389.404842
 21
288.016795
 31
0.0
  0
LINE
  5
93
330
1F
100
AcDbEntity
  8
1
100
AcDbLine
 10
388.784831
 20
282.010503
 30
0.0
 11
389.297436
 21
281.863516
 31
0.0
  0
LINE
  5
94
330
1F
100
AcDbEntity
  8
1
100
AcDbLine
 10
389.404842
 20
288.016795
 30
0.0
 11
389.297436
 21
281.863516
 31
0.0
  0
LINE
  5
95
330
1F
100
AcDbEntity
  8
1
100
AcDbLine
 10
387.838952
 20
281.684819
 30
0.0
 11
388.144899
 21
282.194001
 31
0.0
  0
LINE
  5
96
330
1F
100
AcDbEntity
  8
1
100
AcDbLine
 10
388.784831
 20
282.010503
 30
0.0
 11
388.3014
 21
281.205939
 31
0.0
  0
LINE
  5
97
330
1F
100
AcDbEntity
  8
1
100
AcDbLine
 10
388.144899
 20
282.194001
 30
0.0
 11
388.241473
 21
287.7267339999999
 31
0.0
  0
LINE
  5
98
330
1F
100
AcDbEntity
  8
1
100
AcDbLine
 10
388.784831
 20
282.010503
 30
0.0
 11
388.144899
 21
282.194001
 31
0.0
  0
LINE
  5
99
330
1F
100
AcDbEntity
  8
1
100
AcDbLine
 10
388.887419
 20
287.887787
 30
0.0
 11
388.784831
 21
282.010503
 31
0.0
  0
LINE
  5
9A
330
1F
100
AcDbEntity
  8
1
100
AcDbLine
 10
388.015811
 20
288.981332
 30
0.0
 11
388.413818
 21
288.742185
 31
0.0
  0
LINE
  5
9B
330
1F
100
AcDbEntity
  8
1
100
AcDbLine
 10
388.413818
 20
288.742185
 30
0.0
 11
388.013872
 21
288.355961
 31
0.0
  0
LINE
  5
9C
330
1F
100
AcDbEntity
  8
1
100
AcDbLine
 10
388.241473
 20
287.7267339999999
 30
0.0
 11
388.013872
 21
288.137338
 31
0.0
  0
LINE
  5
9D
330
1F
100
AcDbEntity
  8
1
100
AcDbLine
 10
388.887419
 20
287.887787
 30
0.0
 11
388.241473
 21
287.7267339999999
 31
0.0
  0
LINE
  5
9E
330
1F
100
AcDbEntity
  8
1
100
AcDbLine
 10
388.413818
 20
288.742185
 30
0.0
 11
388.887419
 21
287.887787
 31
0.0
  0
LINE
  5
9F
330
1F
100
AcDbEntity
  8
1
100
AcDbLine
 10
388.3014
 20
281.205939
 30
0.0
 11
387.838952
 21
281.684819
 31
0.0
  0
LINE
  5
A0
330
1F
100
AcDbEntity
  8
1
100
AcDbLine
 10
388.3014
 20
281.205939
 30
0.0
 11
387.665461
 21
280.853432
 31
0.0
  0
LINE
  5
A1
330
1F
100
AcDbEntity
  8
1
100
AcDbLine
 10
388.287731
 20
293.943721
 30
0.0
 11
388.2866509999999
 21
294.099229
 31
0.0
  0
LINE
  5
A2
330
1F
100
AcDbEntity
  8
1
100
AcDbLine
 10
388.211811
 20
293.413672
 30
0.0
 11
380.467589
 21
293.143519
 31
0.0
  0
LINE
  5
A3
330
1F
100
AcDbEntity
  8
1
100
AcDbLine
 10
388.211811
 20
293.413672
 30
0.0
 11
386.449218
 21
290.49346
 31
0.0
  0
LINE
  5
A4
330
1F
100
AcDbEntity
  8
1
100
AcDbLine
 10
388.328656
 20
294.1153470000001
 30
0.0
 11
382.038975
 21
293.895935
 31
0.0
  0
LINE
  5
A5
330
1F
100
AcDbEntity
  8
1
100
AcDbLine
 10
382.033742
 20
293.8811
 30
0.0
 11
382.038975
 21
293.895935
 31
0.0
  0
LINE
  5
A6
330
1F
100
AcDbEntity
  8
1
100
AcDbLine
 10
388.084138
 20
289.363119
 30
0.0
 11
388.191672
 21
289.361242
 31
0.0
  0
LINE
  5
A7
330
1F
100
AcDbEntity
  8
1
100
AcDbLine
 10
388.191672
 20
289.361242
 30
0.0
 11
388.43268
 21
289.687833
 31
0.0
  0
LINE
  5
A8
330
1F
100
AcDbEntity
  8
1
100
AcDbLine
 10
388.43268
 20
289.926444
 30
0.0
 11
388.43268
 21
289.687833
 31
0.0
  0
LINE
  5
A9
330
1F
100
AcDbEntity
  8
1
100
AcDbLine
 10
388.43268
 20
289.926444
 30
0.0
 11
388.474842
 21
289.925708
 31
0.0
  0
LINE
  5
AA
330
1F
100
AcDbEntity
  8
1
100
AcDbLine
 10
388.474842
 20
294.384986
 30
0.0
 11
388.474842
 21
289.925708
 31
0.0
  0
LINE
  5
AB
330
1F
100
AcDbEntity
  8
1
100
AcDbLine
 10
388.328656
 20
294.1153470000001
 30
0.0
 11
388.3271009999999
 21
294.339424
 31
0.0
  0
LINE
  5
AC
330
1F
100
AcDbEntity
  8
1
100
AcDbLine
 10
388.328656
 20
294.1153470000001
 30
0.0
 11
388.2866509999999
 21
294.099229
 31
0.0
  0
LINE
  5
AD
330
1F
100
AcDbEntity
  8
1
100
AcDbLine
 10
388.211811
 20
293.413672
 30
0.0
 11
388.221191
 21
293.417271
 31
0.0
  0
LINE
  5
AE
330
1F
100
AcDbEntity
  8
1
100
AcDbLine
 10
387.441331
 20
274.407994
 30
0.0
 11
388.020228
 21
279.862222
 31
0.0
  0
LINE
  5
AF
330
1F
100
AcDbEntity
  8
1
100
AcDbLine
 10
388.020228
 20
279.862222
 30
0.0
 11
387.978137
 21
279.862896
 31
0.0
  0
LINE
  5
B0
330
1F
100
AcDbEntity
  8
1
100
AcDbLine
 10
388.003419
 20
280.101096
 30
0.0
 11
387.978137
 21
279.862896
 31
0.0
  0
LINE
  5
B1
330
1F
100
AcDbEntity
  8
1
100
AcDbLine
 10
388.003419
 20
280.101096
 30
0.0
 11
387.797869
 21
280.4351759999999
 31
0.0
  0
LINE
  5
B2
330
1F
100
AcDbEntity
  8
1
100
AcDbLine
 10
387.797869
 20
280.4351759999999
 30
0.0
 11
387.690518
 21
280.436893
 31
0.0
  0
LINE
  5
B3
330
1F
100
AcDbEntity
  8
1
100
AcDbLine
 10
387.673352
 20
280.937232
 30
0.0
 11
388.013868
 21
284.145494
 31
0.0
  0
LINE
  5
B4
330
1F
100
AcDbEntity
  8
1
100
AcDbLine
 10
387.242892
 20
284.145494
 30
0.0
 11
388.013868
 21
284.145494
 31
0.0
  0
LINE
  5
B5
330
1F
100
AcDbEntity
  8
1
100
AcDbLine
 10
388.013868
 20
284.145494
 30
0.0
 11
388.013868
 21
288.864269
 31
0.0
  0
LINE
  5
B6
330
1F
100
AcDbEntity
  8
1
100
AcDbLine
 10
379.113722
 20
302.930865
 30
0.0
 11
379.099445
 21
303.346308
 31
0.0
  0
LINE
  5
B7
330
1F
100
AcDbEntity
  8
SK1
100
AcDbLine
 10
216.404842
 20
304.907994
 30
0.0
 11
216.404842
 21
272.907994
 31
0.0
  0
LINE
  5
B8
330
1F
100
AcDbEntity
  8
SK1
100
AcDbLine
 10
214.404842
 20
302.907994
 30
0.0
 11
214.404842
 21
274.907994
 31
0.0
  0
LINE
  5
B9
330
1F
100
AcDbEntity
  8
1
100
AcDbLine
 10
379.106692
 20
296.607024
 30
0.0
 11
379.101459
 21
296.592189
 31
0.0
  0
LINE
  5
BA
330
1F
100
AcDbEntity
  8
1
100
AcDbLine
 10
379.106692
 20
296.607024
 30
0.0
 11
378.875079
 21
303.346668
 31
0.0
  0
LINE
  5
BB
330
1F
100
AcDbEntity
  8
1
100
AcDbLine
 10
378.870392
 20
303.315974
 30
0.0
 11
379.101459
 21
296.592189
 31
0.0
  0
LINE
  5
BC
330
1F
100
AcDbEntity
  8
1
100
AcDbLine
 10
305.858618
 20
303.407994
 30
0.0
 11
291.7038319999999
 21
303.407994
 31
0.0
  0
LINE
  5
BD
330
1F
100
AcDbEntity
  8
1
100
AcDbLine
 10
384.462482
 20
297.929793
 30
0.0
 11
384.436646
 21
297.856546
 31
0.0
  0
LINE
  5
BE
330
1F
100
AcDbEntity
  8
1
100
AcDbLine
 10
383.216051
 20
299.598792
 30
0.0
 11
383.241887
 21
299.67204
 31
0.0
  0
LINE
  5
C1
330
1F
100
AcDbEntity
  8
1
100
AcDbLine
 10
382.8885450000001
 20
298.167628
 30
0.0
 11
382.914206
 21
298.24038
 31
0.0
  0
LINE
  5
C2
330
1F
100
AcDbEntity
  8
1
100
AcDbLine
 10
384.452968
 20
297.698757
 30
0.0
 11
384.447889
 21
297.69358
 31
0.0
  0
LINE
  5
C3
330
1F
100
AcDbEntity
  8
1
100
AcDbLine
 10
384.789813
 20
299.360462
 30
0.0
 11
384.764152
 21
299.28771
 31
0.0
  0
LINE
  5
C4
330
1F
100
AcDbEntity
  8
1
100
AcDbLine
 10
387.7473
 20
281.634016
 30
0.0
 11
387.838952
 21
281.684819
 31
0.0
  0
LINE
  5
C5
330
1F
100
AcDbEntity
  8
1
100
AcDbLine
 10
291.7038319999999
 20
274.407994
 30
0.0
 11
296.434338
 21
274.407994
 31
0.0
  0
LINE
  5
C6
330
1F
100
AcDbEntity
  8
1
100
AcDbLine
 10
379.285668
 20
303.407994
 30
0.0
 11
372.192182
 21
303.407994
 31
0.0
  0
LINE
  5
C7
330
1F
100
AcDbEntity
  8
1
100
AcDbLine
 10
274.404842
 20
309.407994
 30
0.0
 11
274.404842
 21
288.907994
 31
0.0
  0
LINE
  5
C8
330
1F
100
AcDbEntity
  8
1
100
AcDbLine
 10
274.404842
 20
288.907994
 30
0.0
 11
274.404842
 21
268.407994
 31
0.0
  0
LINE
  5
C9
330
1F
100
AcDbEntity
  8
1
100
AcDbLine
 10
382.6458609999999
 20
298.770136
 30
0.0
 11
382.620915
 21
298.69941
 31
0.0
  0
LINE
  5
CA
330
1F
100
AcDbEntity
  8
1
100
AcDbLine
 10
382.728695
 20
298.755725
 30
0.0
 11
382.703236
 21
298.683545
 31
0.0
  0
LINE
  5
CB
330
1F
100
AcDbEntity
  8
1
100
AcDbLine
 10
384.908029
 20
298.175355
 30
0.0
 11
384.93292
 21
298.245926
 31
0.0
  0
LINE
  5
CC
330
1F
100
AcDbEntity
  8
1
100
AcDbLine
 10
384.814157
 20
298.196623
 30
0.0
 11
384.83964
 21
298.268869
 31
0.0
  0
LINE
  5
CD
330
1F
100
AcDbEntity
  8
1
100
AcDbLine
 10
383.865848
 20
297.590221
 30
0.0
 11
383.891219
 21
297.662149
 31
0.0
  0
LINE
  5
CE
330
1F
100
AcDbEntity
  8
1
100
AcDbLine
 10
376.939862
 20
291.447513
 30
0.0
 11
376.966388
 21
290.672204
 31
0.0
  0
LINE
  5
CF
330
1F
100
AcDbEntity
  8
1
100
AcDbLine
 10
386.740566
 20
293.390041
 30
0.0
 11
380.459756
 21
293.170938
 31
0.0
  0
LINE
  5
D0
330
1F
100
AcDbEntity
  8
1
100
AcDbLine
 10
285.904842
 20
303.165271
 30
0.0
 11
285.904842
 21
287.06238
 31
0.0
  0
LINE
  5
D1
330
1F
100
AcDbEntity
  8
1
100
AcDbLine
 10
383.228642
 20
299.653436
 30
0.0
 11
383.254234
 21
299.725991
 31
0.0
  0
LINE
  5
D2
330
1F
100
AcDbEntity
  8
1
100
AcDbLine
 10
387.441331
 20
274.407994
 30
0.0
 11
372.521156
 21
274.407994
 31
0.0
  0
LINE
  5
D3
330
1F
100
AcDbEntity
  8
1
100
AcDbLine
 10
274.904842
 20
267.907994
 30
0.0
 11
274.904842
 21
288.907994
 31
0.0
  0
LINE
  5
D4
330
1F
100
AcDbEntity
  8
1
100
AcDbLine
 10
274.904842
 20
288.907994
 30
0.0
 11
274.904842
 21
309.907994
 31
0.0
  0
LINE
  5
D5
330
1F
100
AcDbEntity
  8
1
100
AcDbLine
 10
279.404842
 20
267.907994
 30
0.0
 11
279.404842
 21
271.965902
 31
0.0
  0
LINE
  5
D6
330
1F
100
AcDbEntity
  8
1
100
AcDbLine
 10
279.404842
 20
309.907994
 30
0.0
 11
279.404842
 21
280.968577
 31
0.0
  0
LINE
  5
D7
330
1F
100
AcDbEntity
  8
1
100
AcDbLine
 10
381.259105
 20
299.71658
 30
0.0
 11
381.238653
 21
299.658596
 31
0.0
  0
LINE
  5
D8
330
1F
100
AcDbEntity
  8
1
100
AcDbLine
 10
386.425466
 20
297.829123
 30
0.0
 11
386.445918
 21
297.887107
 31
0.0
  0
LINE
  5
D9
330
1F
100
AcDbEntity
  8
SK1
100
AcDbLine
 10
214.404842
 20
274.907994
 30
0.0
 11
216.404842
 21
272.907994
 31
0.0
  0
LINE
  5
DA
330
1F
100
AcDbEntity
  8
SK1
100
AcDbLine
 10
216.404842
 20
304.907994
 30
0.0
 11
214.404842
 21
302.907994
 31
0.0
  0
LINE
  5
DB
330
1F
100
AcDbEntity
  8
1
100
AcDbLine
 10
279.404842
 20
267.907994
 30
0.0
 11
281.804337
 21
270.307488
 31
0.0
  0
LINE
  5
DC
330
1F
100
AcDbEntity
  8
1
100
AcDbLine
 10
281.804337
 20
307.5084990000001
 30
0.0
 11
279.404842
 21
309.907994
 31
0.0
  0
LINE
  5
DD
330
1F
100
AcDbEntity
  8
SK1
100
AcDbLine
 10
274.404842
 20
304.907994
 30
0.0
 11
216.404842
 21
304.907994
 31
0.0
  0
LINE
  5
DE
330
1F
100
AcDbEntity
  8
1
100
AcDbLine
 10
274.904842
 20
267.907994
 30
0.0
 11
274.404842
 21
268.407994
 31
0.0
  0
LINE
  5
DF
330
1F
100
AcDbEntity
  8
1
100
AcDbLine
 10
274.404842
 20
309.407994
 30
0.0
 11
274.904842
 21
309.907994
 31
0.0
  0
LINE
  5
E0
330
1F
100
AcDbEntity
  8
1
100
AcDbLine
 10
279.404842
 20
309.907994
 30
0.0
 11
274.904842
 21
309.907994
 31
0.0
  0
LINE
  5
E3
330
1F
100
AcDbEntity
  8
80
100
AcDbLine
 10
275.404416
 20
288.907994
 30
0.0
 11
273.405268
 21
288.907994
 31
0.0
  0
LINE
  5
E4
330
1F
100
AcDbEntity
  8
81
100
AcDbLine
 10
387.404842
 20
303.907994
 30
0.0
 11
391.404842
 21
303.907994
 31
0.0
  0
LINE
  5
E5
330
1F
100
AcDbEntity
  8
SK1
100
AcDbLine
 10
216.404842
 20
272.907994
 30
0.0
 11
274.404842
 21
272.907994
 31
0.0
  0
LINE
  5
E6
330
1F
100
AcDbEntity
  8
80
100
AcDbLine
 10
274.404842
 20
287.90842
 30
0.0
 11
274.404842
 21
289.907567
 31
0.0
  0
LINE
  5
E7
330
1F
100
AcDbEntity
  8
81
100
AcDbLine
 10
389.404842
 20
305.907994
 30
0.0
 11
389.404842
 21
301.907994
 31
0.0
  0
LINE
  5
E8
330
1F
100
AcDbEntity
  8
1
100
AcDbLine
 10
274.904842
 20
267.907994
 30
0.0
 11
279.404842
 21
267.907994
 31
0.0
  0
LINE
  5
129
330
1F
100
AcDbEntity
  8
NOCUT
100
AcDbLine
 10
279.404842
 20
309.907994
 30
0.0
 11
281.804337
 21
307.5084990000001
 31
0.0
  0
LINE
  5
12A
330
1F
100
AcDbEntity
  8
NOCUT
100
AcDbLine
 10
291.7038319999999
 20
303.407994
 30
0.0
 11
388.16479
 21
303.407994
 31
0.0
  0
LINE
  5
12B
330
1F
100
AcDbEntity
  8
NOCUT
100
AcDbLine
 10
388.16479
 20
303.407994
 30
0.0
 11
388.474842
 21
294.605526
 31
0.0
  0
LINE
  5
12C
330
1F
100
AcDbEntity
  8
NOCUT
100
AcDbLine
 10
388.474842
 20
294.605526
 30
0.0
 11
388.474842
 21
288.907994
 31
0.0
  0
LINE
  5
12D
330
1F
100
AcDbEntity
  8
NOCUT
100
AcDbLine
 10
274.404842
 20
304.907994
 30
0.0
 11
274.404842
 21
309.407994
 31
0.0
  0
LINE
  5
12E
330
1F
100
AcDbEntity
  8
NOCUT
100
AcDbLine
 10
274.404842
 20
309.407994
 30
0.0
 11
274.904842
 21
309.907994
 31
0.0
  0
LINE
  5
12F
330
1F
100
AcDbEntity
  8
NOCUT
100
AcDbLine
 10
214.404842
 20
302.907994
 30
0.0
 11
216.404842
 21
304.907994
 31
0.0
  0
LINE
  5
130
330
1F
100
AcDbEntity
  8
NOCUT
100
AcDbLine
 10
388.474842
 20
288.907994
 30
0.0
 11
214.404842
 21
288.907994
 31
0.0
  0
LINE
  5
131
330
1F
100
AcDbEntity
  8
NOCUT
100
AcDbLine
 10
274.404842
 20
304.907994
 30
0.0
 11
216.404842
 21
304.907994
 31
0.0
  0
LINE
  5
132
330
1F
100
AcDbEntity
  8
NOCUT
100
AcDbLine
 10
214.404842
 20
302.907994
 30
0.0
 11
214.404842
 21
288.907994
 31
0.0
  0
LINE
  5
133
330
1F
100
AcDbEntity
  8
NOCUT
100
AcDbLine
 10
279.404842
 20
309.907994
 30
0.0
 11
274.904842
 21
309.907994
 31
0.0
  0
CIRCLE
  5
13C
330
1F
100
AcDbEntity
  8
1
100
AcDbCircle
 10
384.422479
 20
285.203212
 30
0.0
 40
1.099999999999998
  0
ARC
  5
13D
330
1F
100
AcDbEntity
  8
1
100
AcDbCircle
 10
291.7038319999999
 20
317.407994
 30
0.0
 40
14.0
100
AcDbArc
 50
225.0
 51
270.0
  0
ARC
  5
13E
330
1F
100
AcDbEntity
  8
1
100
AcDbCircle
 10
384.402831
 20
285.223558
 30
0.0
 40
1.5
100
AcDbArc
 50
75.0
 51
345.0
  0
ARC
  5
13F
330
1F
100
AcDbEntity
  8
1
100
AcDbCircle
 10
291.7038319999999
 20
260.407994
 30
0.0
 40
14.0
100
AcDbArc
 50
90.0
 51
135.0
  0
ARC
  5
14E
330
1F
100
AcDbEntity
  8
NOCUT
100
AcDbCircle
 10
291.7038319999999
 20
317.407994
 30
0.0
 40
14.0
100
AcDbArc
 50
225.0
 51
270.0
  0
ELLIPSE
  5
14F
330
1F
100
AcDbEntity
  8
1
100
AcDbEllipse
 10
384.395193
 20
288.907994
 30
0.0
 11
24.86895430095158
 21
-14.30521490674283
 31
0.0
210
0.0
220
0.0
230
1.0
 40
0.095248
 41
4.057657512056028
 42
4.330790287377123
  0
ELLIPSE
  5
150
330
1F
100
AcDbEntity
  8
1
100
AcDbEllipse
 10
379.816853
 20
288.907994
 30
0.0
 11
0.4849168234869136
 21
-14.49999695397964
 31
0.0
210
0.0
220
0.0
230
0.9999999999999996
 40
0.0191
 41
3.051656233735852
 42
3.114577233967271
  0
ELLIPSE
  5
151
330
1F
100
AcDbEntity
  8
1
100
AcDbEllipse
 10
380.639453
 20
295.314203
 30
0.0
 11
1.88611381378318
 21
-0.6652628664342132
 31
0.0
210
0.0
220
0.0
230
1.0
 40
0.9986239999999998
 41
5.697736097639757
 42
5.822604891428749
  0
ELLIPSE
  5
152
330
1F
100
AcDbEntity
  8
1
100
AcDbEllipse
 10
383.128751
 20
299.653285
 30
0.0
 11
-0.0942167666043795
 21
0.0332317783578879
 31
0.0
210
0.0
220
0.0
230
1.0
 40
0.9986239999999998
 41
3.190687465246298
 42
4.039622617657272
  0
ELLIPSE
  5
153
330
1F
100
AcDbEntity
  8
1
100
AcDbEllipse
 10
383.298083
 20
299.759039
 30
0.0
 11
-0.0942167666043796
 21
0.0332317783578879
 31
0.0
210
0.0
220
0.0
230
1.0
 40
0.9986239999999998
 41
5.8086813432379
 42
7.181215271247133
  0
ELLIPSE
  5
154
330
1F
100
AcDbEntity
  8
1
100
AcDbEllipse
 10
383.611444
 20
299.427859
 30
0.0
 11
-0.5243116980215658
 21
0.1849332211989812
 31
0.0
210
0.0
220
0.0
230
1.0
 40
0.9986239999999998
 41
4.888557770068116
 42
5.808681343237915
  0
ELLIPSE
  5
155
330
1F
100
AcDbEntity
  8
1
100
AcDbEllipse
 10
383.685214
 20
299.877301
 30
0.0
 11
-0.0942167666043795
 21
0.0332317783578879
 31
0.0
210
0.0
220
0.0
230
1.0
 40
0.9986239999999998
 41
3.516023842058923
 42
4.888557770068133
  0
ELLIPSE
  5
156
330
1F
100
AcDbEntity
  8
1
100
AcDbEllipse
 10
383.884868
 20
299.884266
 30
0.0
 11
-0.0942167666043795
 21
0.0332317783578879
 31
0.0
210
0.0
220
0.0
230
1.0
 40
0.9986239999999998
 41
0.3744311884691816
 42
1.223366340879882
  0
ELLIPSE
  5
157
330
1F
100
AcDbEntity
  8
1
100
AcDbEllipse
 10
384.173748
 20
300.236455
 30
0.0
 11
-0.5243116980215657
 21
0.1849332211989811
 31
0.0
210
0.0
220
0.0
230
1.0
 40
0.9986239999999998
 41
1.223366340879982
 42
2.143489914049808
  0
ELLIPSE
  5
158
330
1F
100
AcDbEntity
  8
1
100
AcDbEllipse
 10
384.279495
 20
299.793275
 30
0.0
 11
-0.0942167666043795
 21
0.0332317783578879
 31
0.0
210
0.0
220
0.0
230
1.0
 40
0.9986239999999998
 41
2.143489914049721
 42
2.992425066460732
  0
ELLIPSE
  5
159
330
1F
100
AcDbEntity
  8
1
100
AcDbEllipse
 10
384.455972
 20
299.699584
 30
0.0
 11
-0.0942167666043796
 21
0.0332317783578879
 31
0.0
210
0.0
220
0.0
230
1.0
 40
0.9986239999999998
 41
4.761483792041521
 42
6.134017720050526
  0
ELLIPSE
  5
15A
330
1F
100
AcDbEntity
  8
1
100
AcDbEllipse
 10
384.325769
 20
299.263153
 30
0.0
 11
-0.5243116980215658
 21
0.1849332211989812
 31
0.0
210
0.0
220
0.0
230
1.0
 40
0.9986239999999998
 41
3.841360218871503
 42
4.761483792041335
  0
ELLIPSE
  5
15B
330
1F
100
AcDbEntity
  8
1
100
AcDbEllipse
 10
384.752355
 20
299.42372
 30
0.0
 11
-0.0942167666043795
 21
0.0332317783578879
 31
0.0
210
0.0
220
0.0
230
1.0
 40
0.9986239999999998
 41
2.468826290862215
 42
3.841360218871531
  0
ELLIPSE
  5
15C
330
1F
100
AcDbEntity
  8
1
100
AcDbEllipse
 10
384.858369
 20
299.254478
 30
0.0
 11
-0.0942167666043795
 21
0.0332317783578879
 31
0.0
210
0.0
220
0.0
230
1.0
 40
0.9986239999999998
 41
5.610418944452097
 42
6.459354096862958
  0
ELLIPSE
  5
15D
330
1F
100
AcDbEntity
  8
1
100
AcDbEllipse
 10
385.308358
 20
299.180399
 30
0.0
 11
-0.5243116980215657
 21
0.1849332211989811
 31
0.0
210
0.0
220
0.0
230
1.0
 40
0.9986239999999998
 41
0.1761687896833865
 42
1.09629236285326
  0
ELLIPSE
  5
15E
330
1F
100
AcDbEntity
  8
1
100
AcDbEllipse
 10
384.977093
 20
298.867659
 30
0.0
 11
-0.0942167666043795
 21
0.0332317783578879
 31
0.0
210
0.0
220
0.0
230
1.0
 40
0.9986239999999998
 41
1.096292362853274
 42
1.945227515263813
  0
ELLIPSE
  5
15F
330
1F
100
AcDbEntity
  8
1
100
AcDbEllipse
 10
384.984238
 20
298.668214
 30
0.0
 11
-0.0942167666043796
 21
0.0332317783578879
 31
0.0
210
0.0
220
0.0
230
1.0
 40
0.9986239999999998
 41
3.714286240844562
 42
5.086820168853683
  0
ELLIPSE
  5
160
330
1F
100
AcDbEntity
  8
1
100
AcDbEllipse
 10
384.540673
 20
298.562964
 30
0.0
 11
-0.5243116980215658
 21
0.1849332211989812
 31
0.0
210
0.0
220
0.0
230
1.0
 40
0.9986239999999998
 41
2.794162667674879
 42
3.714286240844733
  0
ELLIPSE
  5
161
330
1F
100
AcDbEntity
  8
1
100
AcDbEllipse
 10
384.89349
 20
298.274088
 30
0.0
 11
-0.0942167666043795
 21
0.0332317783578879
 31
0.0
210
0.0
220
0.0
230
1.0
 40
0.9986239999999998
 41
1.421628739665749
 42
2.794162667674912
  0
ELLIPSE
  5
162
330
1F
100
AcDbEntity
  8
1
100
AcDbEllipse
 10
384.79985
 20
298.097881
 30
0.0
 11
-0.0942167666043795
 21
0.0332317783578879
 31
0.0
210
0.0
220
0.0
230
1.0
 40
0.9986239999999998
 41
4.563221393255552
 42
5.412156545666495
  0
ELLIPSE
  5
163
330
1F
100
AcDbEntity
  8
1
100
AcDbEllipse
 10
384.960958
 20
297.671612
 30
0.0
 11
-0.5243116980215657
 21
0.1849332211989811
 31
0.0
210
0.0
220
0.0
230
1.0
 40
0.9986239999999998
 41
5.412156545666373
 42
6.332280118836213
  0
ELLIPSE
  5
164
330
1F
100
AcDbEntity
  8
1
100
AcDbEllipse
 10
384.523947
 20
297.802053
 30
0.0
 11
-0.0942167666043795
 21
0.0332317783578879
 31
0.0
210
0.0
220
0.0
230
1.0
 40
0.9986239999999998
 41
0.0490948116565756
 42
0.8980299640674131
  0
ELLIPSE
  5
165
330
1F
100
AcDbEntity
  8
1
100
AcDbEllipse
 10
384.354614
 20
297.696299
 30
0.0
 11
-0.0942167666043796
 21
0.0332317783578879
 31
0.0
210
0.0
220
0.0
230
1.0
 40
0.9986239999999998
 41
2.667088689647979
 42
4.039622617657296
  0
ELLIPSE
  5
166
330
1F
100
AcDbEntity
  8
1
100
AcDbEllipse
 10
384.041253
 20
298.027479
 30
0.0
 11
-0.5243116980215658
 21
0.1849332211989812
 31
0.0
210
0.0
220
0.0
230
1.0
 40
0.9986239999999998
 41
1.746965116478297
 42
2.66708868964812
  0
ELLIPSE
  5
167
330
1F
100
AcDbEntity
  8
1
100
AcDbEllipse
 10
383.967483
 20
297.578036
 30
0.0
 11
-0.0942167666043795
 21
0.0332317783578879
 31
0.0
210
0.0
220
0.0
230
1.0
 40
0.9986239999999998
 41
0.3744311884690776
 42
1.746965116478493
  0
ELLIPSE
  5
168
330
1F
100
AcDbEntity
  8
1
100
AcDbEllipse
 10
383.76783
 20
297.571072
 30
0.0
 11
-0.0942167666043795
 21
0.0332317783578879
 31
0.0
210
0.0
220
0.0
230
1.0
 40
0.9986239999999998
 41
3.516023842058988
 42
4.364958994469808
  0
ELLIPSE
  5
169
330
1F
100
AcDbEntity
  8
1
100
AcDbEllipse
 10
383.478949
 20
297.218883
 30
0.0
 11
-0.5243116980215657
 21
0.1849332211989811
 31
0.0
210
0.0
220
0.0
230
1.0
 40
0.9986239999999998
 41
4.364958994469787
 42
5.285082567639637
  0
ELLIPSE
  5
16A
330
1F
100
AcDbEntity
  8
1
100
AcDbEllipse
 10
383.826349
 20
298.727669
 30
0.0
 11
1.697502432404862
 21
-0.598736579790792
 31
0.0
210
0.0
220
0.0
230
0.9999999999999998
 40
0.9986239999999998
 41
0.0
 42
6.283185307179585
  0
ELLIPSE
  5
16B
330
1F
100
AcDbEntity
  8
1
100
AcDbEllipse
 10
383.832059
 20
298.74386
 30
0.0
 11
2.593406493951873
 21
-0.9147364413470432
 31
0.0
210
0.0
220
0.0
230
1.0
 40
0.9986239999999998
 41
0.0
 42
6.283185307179585
  0
ELLIPSE
  5
16C
330
1F
100
AcDbEntity
  8
1
100
AcDbEllipse
 10
384.01396
 20
298.97083
 30
0.0
 11
2.919001017965134
 21
-1.02957889929282
 31
0.0
210
0.0
220
0.0
230
0.9999999999999998
 40
0.9986239999999998
 41
1.945227493391412
 42
6.283185307179585
  0
ELLIPSE
  5
16D
330
1F
100
AcDbEntity
  8
1
100
AcDbEllipse
 10
384.01396
 20
298.97083
 30
0.0
 11
2.919001017965134
 21
-1.02957889929282
 31
0.0
210
0.0
220
0.0
230
0.9999999999999998
 40
0.9986239999999998
 41
0.0
 42
1.508938803341973
  0
ELLIPSE
  5
16E
330
1F
100
AcDbEntity
  8
1
100
AcDbEllipse
 10
384.01396
 20
298.97083
 30
0.0
 11
2.919001017965134
 21
-1.02957889929282
 31
0.0
210
0.0
220
0.0
230
0.9999999999999998
 40
0.9986239999999998
 41
1.632540731130997
 42
1.945227493391413
  0
ELLIPSE
  5
16F
330
1F
100
AcDbEntity
  8
1
100
AcDbEllipse
 10
380.096852
 20
294.704746
 30
0.0
 11
0.9634869190113366
 21
1.034109157830918
 31
0.0
210
0.0
220
0.0
230
1.0
 40
0.01483
 41
0.9819686315665839
 42
1.536779664372883
  0
ELLIPSE
  5
170
330
1F
100
AcDbEntity
  8
1
100
AcDbEllipse
 10
383.994164
 20
298.914705
 30
0.0
 11
2.9750967111536
 21
-1.049364758116642
 31
0.0
210
0.0
220
0.0
230
0.9999999999999998
 40
0.9986239999999998
 41
0.0
 42
6.283185307179585
  0
ELLIPSE
  5
171
330
1F
100
AcDbEntity
  8
1
100
AcDbEllipse
 10
383.991286
 20
298.906546
 30
0.0
 11
-3.064934947397671
 21
1.081052157955606
 31
0.0
210
0.0
220
0.0
230
0.9999999999999998
 40
0.9986239999999998
 41
0.0
 42
6.283185307179585
  0
ELLIPSE
  5
172
330
1F
100
AcDbEntity
  8
1
100
AcDbEllipse
 10
388.144042
 20
294.985467
 30
0.0
 11
1.03459353789496
 21
-0.9639382194108412
 31
0.0
210
0.0
220
0.0
230
1.0
 40
0.033998
 41
1.585610887961921
 42
2.140421920736633
  0
ELLIPSE
  5
173
330
1F
100
AcDbEntity
  8
1
100
AcDbEllipse
 10
379.808879
 20
302.743559
 30
0.0
 11
1.034593537425817
 21
-0.9639382189616608
 31
0.0
210
0.0
220
0.0
230
1.0
 40
0.033998
 41
1.030799854760797
 42
1.585610887779369
  0
ELLIPSE
  5
174
330
1F
100
AcDbEntity
  8
1
100
AcDbEllipse
 10
387.856069
 20
303.02428
 30
0.0
 11
0.9634869192001211
 21
1.034109158018922
 31
0.0
210
0.0
220
0.0
230
0.9999999999999998
 40
0.01483
 41
1.53677966486269
 42
2.091590697554581
  0
ELLIPSE
  5
175
330
1F
100
AcDbEntity
  8
1
100
AcDbEllipse
 10
379.684206
 20
288.907994
 30
0.0
 11
0.4065714686216009
 21
-14.49988741406491
 31
0.0
210
0.0
220
0.0
230
0.9999999999999998
 40
0.140543
 41
3.111275237677151
 42
3.229925373378289
  0
ELLIPSE
  5
176
330
1F
100
AcDbEntity
  8
1
100
AcDbEllipse
 10
262.569932
 20
288.907993
 30
0.0
 11
378.8755792460123
 21
14.14027628025941
 31
0.0
210
0.0
220
0.0
230
1.0
 40
0.008472
 41
5.028779141303167
 42
5.045163695883969
  0
ELLIPSE
  5
177
330
1F
100
AcDbEntity
  8
1
100
AcDbEllipse
 10
380.644686
 20
295.329038
 30
0.0
 11
-1.886113813783179
 21
0.6652628664342175
 31
0.0
210
0.0
220
0.0
230
1.0
 40
0.9986239999999998
 41
2.681012237838966
 42
2.813440321327917
  0
ELLIPSE
  5
178
330
1F
100
AcDbEntity
  8
1
100
AcDbEllipse
 10
388.084138
 20
288.863042
 30
0.0
 11
0.0001758288823808
 21
-0.5000776676677021
 31
0.0
210
0.0
220
0.0
230
1.0
 40
0.140519
 41
3.139090475969825
 42
4.709886802760504
  0
ELLIPSE
  5
179
330
1F
100
AcDbEntity
  8
1
100
AcDbEllipse
 10
388.217723
 20
293.916858
 30
0.0
 11
0.0003016037629597
 21
0.5003084758593949
 31
0.0
210
0.0
220
0.0
230
0.9999999999999996
 40
0.140101
 41
3.195395734394462
 42
4.766192061185495
  0
ELLIPSE
  5
17A
330
1F
100
AcDbEntity
  8
1
100
AcDbEllipse
 10
387.743504
 20
280.93611
 30
0.0
 11
0.0538770024358932
 21
0.4991611425114484
 31
0.0
210
0.0
220
0.0
230
1.0
 40
0.139171
 41
1.583568179252895
 42
3.154364506042261
  0
ELLIPSE
  5
17B
330
1F
100
AcDbEntity
  8
1
100
AcDbEllipse
 10
388.98032
 20
288.907994
 30
0.0
 11
1.569462156594201
 21
14.49836012555975
 31
0.0
210
0.0
220
0.0
230
0.9999999999999998
 40
0.138944
 41
1.92049630653196
 42
3.156632395651091
  0
ELLIPSE
  5
17C
330
1F
100
AcDbEntity
  8
1
100
AcDbEllipse
 10
388.474842
 20
288.907994
 30
0.0
 11
0.0
 21
14.49999999964478
 31
0.0
210
0.0
220
0.0
230
1.0
 40
0.140541
 41
1.461234770620479
 42
1.905456564479226
  0
ELLIPSE
  5
17D
330
1F
100
AcDbEntity
  8
1
100
AcDbEllipse
 10
380.7121850000001
 20
295.52041
 30
0.0
 11
-1.886113813783179
 21
0.6652628664342175
 31
0.0
210
0.0
220
0.0
230
1.0
 40
0.9986239999999998
 41
0.0546757932376148
 42
1.945227331219201
  0
ELLIPSE
  5
17E
330
1F
100
AcDbEntity
  8
1
100
AcDbEllipse
 10
380.7121850000001
 20
295.52041
 30
0.0
 11
-1.886113813783179
 21
0.6652628664342175
 31
0.0
210
0.0
220
0.0
230
1.0
 40
0.9986239999999998
 41
1.945227331219204
 42
2.681832479841105
  0
ELLIPSE
  5
17F
330
1F
100
AcDbEntity
  8
1
100
AcDbEllipse
 10
380.644686
 20
295.329038
 30
0.0
 11
-1.886113813783179
 21
0.6652628664342175
 31
0.0
210
0.0
220
0.0
230
1.0
 40
0.9986239999999998
 41
5.785523578469423
 42
5.928503423216231
  0
ELLIPSE
  5
180
330
1F
100
AcDbEntity
  8
1
100
AcDbEllipse
 10
380.639453
 20
295.314203
 30
0.0
 11
1.88611381378318
 21
-0.6652628664342132
 31
0.0
210
0.0
220
0.0
230
1.0
 40
0.9986239999999998
 41
2.786910769626429
 42
4.444101854995996
  0
ELLIPSE
  5
181
330
1F
100
AcDbEntity
  8
1
100
AcDbEllipse
 10
379.38324
 20
288.908026
 30
0.0
 11
0.4849156667499831
 21
-14.49996433596215
 31
0.0
210
0.0
220
0.0
230
1.0
 40
0.0191
 41
3.232957300296491
 42
3.253673819482029
  0
ELLIPSE
  5
182
330
1F
100
AcDbEntity
  8
1
100
AcDbEllipse
 10
296.536761
 20
274.0268069999999
 30
0.0
 11
-19.44158857530041
 21
3.999308665707303
 31
0.0
210
0.0
220
0.0
230
0.9999999999999998
 40
0.5072130000000001
 41
4.746305064554298
 42
5.776911955021004
  0
ELLIPSE
  5
183
330
1F
100
AcDbEntity
  8
1
100
AcDbEllipse
 10
380.127639
 20
291.739853
 30
0.0
 11
-2.646729962194993
 21
-0.1038777500821113
 31
0.0
210
0.0
220
0.0
230
0.9999999999999998
 40
0.22151
 41
1.71660063350536
 42
4.564357714285136
  0
ELLIPSE
  5
184
330
1F
100
AcDbEntity
  8
1
100
AcDbEllipse
 10
383.852511
 20
298.801844
 30
0.0
 11
-2.593406493951871
 21
0.9147364413470493
 31
0.0
210
0.0
220
0.0
230
1.0
 40
0.9986239999999998
 41
3.141683399138616
 42
6.283178024433414
  0
ELLIPSE
  5
185
330
1F
100
AcDbEntity
  8
1
100
AcDbEllipse
 10
383.373203
 20
297.662063
 30
0.0
 11
-0.0942167666043795
 21
0.0332317783578879
 31
0.0
210
0.0
220
0.0
230
1.0
 40
0.9986239999999998
 41
5.285082567639515
 42
6.134017720050433
  0
ELLIPSE
  5
186
330
1F
100
AcDbEntity
  8
1
100
AcDbEllipse
 10
383.1967259999999
 20
297.755754
 30
0.0
 11
-0.0942167666043796
 21
0.0332317783578879
 31
0.0
210
0.0
220
0.0
230
1.0
 40
0.9986239999999998
 41
1.619891138451451
 42
2.992425066460683
  0
ELLIPSE
  5
187
330
1F
100
AcDbEntity
  8
1
100
AcDbEllipse
 10
383.326929
 20
298.192184
 30
0.0
 11
-0.5243116980215658
 21
0.1849332211989812
 31
0.0
210
0.0
220
0.0
230
1.0
 40
0.9986239999999998
 41
0.6997675652817213
 42
1.619891138451541
  0
ELLIPSE
  5
188
330
1F
100
AcDbEntity
  8
1
100
AcDbEllipse
 10
382.900342
 20
298.031617
 30
0.0
 11
-0.0942167666043795
 21
0.0332317783578879
 31
0.0
210
0.0
220
0.0
230
1.0
 40
0.9986239999999998
 41
5.610418944452009
 42
6.982952872461379
  0
ELLIPSE
  5
189
330
1F
100
AcDbEntity
  8
1
100
AcDbEllipse
 10
382.794328
 20
298.20086
 30
0.0
 11
-0.0942167666043795
 21
0.0332317783578879
 31
0.0
210
0.0
220
0.0
230
1.0
 40
0.9986239999999998
 41
2.468826290862215
 42
3.317761443273236
  0
ELLIPSE
  5
18A
330
1F
100
AcDbEntity
  8
1
100
AcDbEllipse
 10
382.34434
 20
298.274939
 30
0.0
 11
-0.5243116980215657
 21
0.1849332211989811
 31
0.0
210
0.0
220
0.0
230
1.0
 40
0.9986239999999998
 41
3.317761443273183
 42
4.237885016443041
  0
ELLIPSE
  5
18B
330
1F
100
AcDbEntity
  8
1
100
AcDbEllipse
 10
382.675605
 20
298.587679
 30
0.0
 11
-0.0942167666043795
 21
0.0332317783578879
 31
0.0
210
0.0
220
0.0
230
1.0
 40
0.9986239999999998
 41
4.237885016443255
 42
5.086820168853764
  0
ELLIPSE
  5
18C
330
1F
100
AcDbEntity
  8
1
100
AcDbEllipse
 10
382.66846
 20
298.787124
 30
0.0
 11
-0.0942167666043796
 21
0.0332317783578879
 31
0.0
210
0.0
220
0.0
230
1.0
 40
0.9986239999999998
 41
0.5726935872548295
 42
1.945227515263996
  0
ELLIPSE
  5
18D
330
1F
100
AcDbEntity
  8
1
100
AcDbEllipse
 10
383.112024
 20
298.892374
 30
0.0
 11
-0.5243116980215658
 21
0.1849332211989812
 31
0.0
210
0.0
220
0.0
230
1.0
 40
0.9986239999999998
 41
5.935755321264668
 42
6.855878894434547
  0
ELLIPSE
  5
18E
330
1F
100
AcDbEntity
  8
1
100
AcDbEllipse
 10
382.759208
 20
299.18125
 30
0.0
 11
-0.0942167666043795
 21
0.0332317783578879
 31
0.0
210
0.0
220
0.0
230
1.0
 40
0.9986239999999998
 41
4.563221393255683
 42
5.935755321264571
  0
ELLIPSE
  5
18F
330
1F
100
AcDbEntity
  8
1
100
AcDbEllipse
 10
382.852847
 20
299.357457
 30
0.0
 11
-0.0942167666043795
 21
0.0332317783578879
 31
0.0
210
0.0
220
0.0
230
1.0
 40
0.9986239999999998
 41
1.421628739665609
 42
2.270563892076639
  0
ELLIPSE
  5
190
330
1F
100
AcDbEntity
  8
1
100
AcDbEllipse
 10
382.6917390000001
 20
299.783725
 30
0.0
 11
-0.5243116980215657
 21
0.1849332211989811
 31
0.0
210
0.0
220
0.0
230
1.0
 40
0.9986239999999998
 41
2.270563892076608
 42
3.190687465246456
  0
ELLIPSE
  5
191
330
1F
100
AcDbEntity
  8
1
100
AcDbEllipse
 10
326.293198
 20
288.8954359999999
 30
0.0
 11
831.5732106170601
 21
-0.7168861645692274
 31
0.0
210
0.0
220
0.0
230
1.0
 40
0.017431
 41
1.507542976768314
 42
1.509889578239569
  0
ELLIPSE
  5
192
330
1F
100
AcDbEntity
  8
1
100
AcDbEllipse
 10
315.918823
 20
288.907994
 30
0.0
 11
82.22606494292335
 21
-12.52879276009783
 31
0.0
210
0.0
220
0.0
230
1.0
 40
0.088771
 41
4.427017517451547
 42
4.505064545596079
  0
ELLIPSE
  5
193
330
1F
100
AcDbEntity
  8
1
100
AcDbEllipse
 10
380.007541
 20
305.723378
 30
0.0
 11
-11.88251702683403
 21
4.191156058535571
 31
0.0
210
0.0
220
0.0
230
1.0
 40
0.9986239999999998
 41
1.455360754289784
 42
1.945227515264139
  0
ELLIPSE
  5
194
330
1F
100
AcDbEntity
  8
1
100
AcDbEllipse
 10
297.904842
 20
279.897482
 30
0.0
 11
-2.382605310748656
 21
-7.636962218918756
 31
0.0
210
0.0
220
0.0
230
1.0
 40
0.176153
 41
4.198387281074703
 42
5.5664633990707
  0
SPLINE
  5
19A
330
1F
100
AcDbEntity
  8
1
100
AcDbSpline
210
0.0
220
0.0
230
1.0
 70
     8
 71
     3
 72
     8
 73
     4
 74
     0
 42
0.000000001
 43
0.0000000001
 40
0.0
 40
0.0
 40
0.0
 40
0.0
 40
1.0
 40
1.0
 40
1.0
 40
1.0
 10
379.8798419452957
 20
291.1536304888236
 30
0.0
 10
380.0995029121713
 20
291.1521761752416
 30
0.0
 10
380.3178832608788
 20
291.1592886738678
 30
0.0
 10
380.534943371354
 20
291.174888201478
 30
0.0
  0
SPLINE
  5
19B
330
1F
100
AcDbEntity
  8
1
100
AcDbSpline
210
0.0
220
0.0
230
1.0
 70
    24
 71
     3
 72
    15
 73
    11
 74
     0
 42
0.000000001
 43
0.0000000001
 40
0.0
 40
0.0
 40
0.0
 40
0.0
 40
0.1261211930842863
 40
0.2522423861685725
 40
0.3783635792528589
 40
0.5044847723371451
 40
0.6306059654214309
 40
0.7567271585057167
 40
0.8828483515900027
 40
1.0
 40
1.0
 40
1.0
 40
1.0
 10
379.8798419452958
 20
292.3384988844921
 30
0.0
 10
379.8798419452958
 20
292.2063063100742
 30
0.0
 10
379.8798419452957
 20
291.9602740388195
 30
0.0
 10
379.8798419452957
 20
291.6498323253521
 30
0.0
 10
379.8798419452957
 20
291.4009836487105
 30
0.0
 10
379.8798419452958
 20
291.2161215211526
 30
0.0
 10
379.8798419452958
 20
291.0970240102749
 30
0.0
 10
379.8798419452958
 20
291.0448366369457
 30
0.0
 10
379.8798419452958
 20
291.0597004377506
 30
0.0
 10
379.8798419452958
 20
291.1112006020064
 30
0.0
 10
379.8798419452958
 20
291.1455683430287
 30
0.0
  0
SPLINE
  5
19C
330
1F
100
AcDbEntity
  8
1
100
AcDbSpline
210
0.0
220
0.0
230
1.0
 70
     8
 71
     3
 72
    18
 73
    14
 74
     0
 42
0.000000001
 43
0.0000000001
 40
0.0
 40
0.0
 40
0.0
 40
0.0
 40
0.2499999999999999
 40
0.2499999999999999
 40
0.4999999999999999
 40
0.4999999999999999
 40
0.6249999999999999
 40
0.6249999999999999
 40
0.7499999999999999
 40
0.7499999999999999
 40
0.8749999999999998
 40
0.8749999999999998
 40
1.0
 40
1.0
 40
1.0
 40
1.0
 10
375.1394223082572
 20
294.0998274287992
 30
0.0
 10
375.5237597735423
 20
293.8765998159927
 30
0.0
 10
375.909402770167
 20
293.6738422155368
 30
0.0
 10
376.6847130709493
 20
293.305981375105
 30
0.0
 10
377.0743498036714
 20
293.140884035659
 30
0.0
 10
377.6634331746978
 20
292.9205995765583
 30
0.0
 10
377.8605740564334
 20
292.8517470297206
 30
0.0
 10
378.2568691575656
 20
292.7232598319471
 30
0.0
 10
378.4560198388415
 20
292.6636231070283
 30
0.0
 10
378.8570008368591
 20
292.5538242526937
 30
0.0
 10
379.058825442056
 20
292.5036582251511
 30
0.0
 10
379.4661726259187
 20
292.4133356745418
 30
0.0
 10
379.6716872649088
 20
292.3731724313887
 30
0.0
 10
379.8798419452958
 20
292.3384988844921
 30
0.0
  0
SPLINE
  5
19D
330
1F
100
AcDbEntity
  8
1
100
AcDbSpline
210
0.0
220
0.0
230
1.0
 70
     8
 71
     3
 72
    24
 73
    20
 74
     0
 42
0.000000001
 43
0.0000000001
 40
0.0
 40
0.0
 40
0.0
 40
0.0
 40
0.125
 40
0.125
 40
0.2499999999999999
 40
0.2499999999999999
 40
0.3749999999999999
 40
0.3749999999999999
 40
0.5
 40
0.5
 40
0.625
 40
0.625
 40
0.7499999999999999
 40
0.7499999999999999
 40
0.8124999999999998
 40
0.8124999999999998
 40
0.8749999999999998
 40
0.8749999999999998
 40
1.0
 40
1.0
 40
1.0
 40
1.0
 10
373.8520930301719
 20
292.5411642943977
 30
0.0
 10
373.6176500308401
 20
292.662772780082
 30
0.0
 10
373.3827157991761
 20
292.786586063336
 30
0.0
 10
372.9120445499474
 20
293.0378157729734
 30
0.0
 10
372.6763066978019
 20
293.1652359452059
 30
0.0
 10
372.2041527814979
 20
293.4231203079485
 30
0.0
 10
371.9677362524166
 20
293.5535865851712
 30
0.0
 10
371.4943158473476
 20
293.8171553281309
 30
0.0
 10
371.2573116947793
 20
293.9502590352442
 30
0.0
 10
370.7827837322708
 20
294.2187988271173
 30
0.0
 10
370.5452597495263
 20
294.3542356874762
 30
0.0
 10
370.0697431009
 20
294.627212998232
 30
0.0
 10
369.8317503231633
 20
294.7647539506679
 30
0.0
 10
369.4744384325637
 20
294.9725138610953
 30
0.0
 10
369.3553425256925
 20
295.0419731948645
 30
0.0
 10
369.1175839090964
 20
295.1810422175279
 30
0.0
 10
368.9988589321284
 20
295.2506880896098
 30
0.0
 10
368.6431277714142
 20
295.4599459168018
 30
0.0
 10
368.4065645757976
 20
295.5998775185475
 30
0.0
 10
368.1705515626401
 20
295.7402061150668
 30
0.0
  0
SPLINE
  5
19E
330
1F
100
AcDbEntity
  8
1
100
AcDbSpline
210
0.0
220
0.0
230
1.0
 70
     8
 71
     3
 72
    23
 73
    19
 74
     0
 42
0.000000001
 43
0.0000000001
 40
0.0
 40
0.0
 40
0.0
 40
0.0
 40
0.1351351477375909
 40
0.1351351477375909
 40
0.2216216329638311
 40
0.2216216329638311
 40
0.3081081181900713
 40
0.3081081181900713
 40
0.4810810886425528
 40
0.4810810886425528
 40
0.5243243312556732
 40
0.5243243312556732
 40
0.567567573868793
 40
0.6540540590950345
 40
0.6540540590950345
 40
0.8270270295475175
 40
0.8270270295475175
 40
1.0
 40
1.0
 40
1.0
 40
1.0
 10
333.4912748334096
 20
277.3514197419753
 30
0.0
 10
332.7348116952086
 20
277.2168284530703
 30
0.0
 10
331.9784160804004
 20
277.0858952131634
 30
0.0
 10
330.7378578668706
 20
276.8776482209708
 30
0.0
 10
330.2537168253538
 20
276.7980066963505
 30
0.0
 10
329.2852929866481
 20
276.642192562518
 30
0.0
 10
328.8009974341363
 20
276.5660431234162
 30
0.0
 10
327.3478385960816
 20
276.3429263847158
 30
0.0
 10
326.378745510661
 20
276.2012034955897
 30
0.0
 10
325.1670746352882
 20
276.0328322488319
 30
0.0
 10
324.9247039003009
 20
275.9995963097134
 30
0.0
 10
324.4401222814925
 20
275.934039723408
 30
0.0
 10
323.7134346276584
 20
275.8370704711331
 30
0.0
 10
322.9872991155877
 20
275.7442326383525
 30
0.0
 10
321.5357294250279
 20
275.5642062241118
 30
0.0
 10
320.5689619953574
 20
275.4517139240659
 30
0.0
 10
318.6368777384797
 20
275.2428171053888
 30
0.0
 10
317.6715593236839
 20
275.1464250905481
 30
0.0
 10
316.7065857722227
 20
275.0586430945182
 30
0.0
  0
SPLINE
  5
19F
330
1F
100
AcDbEntity
  8
1
100
AcDbSpline
210
0.0
220
0.0
230
1.0
 70
     8
 71
     3
 72
    22
 73
    18
 74
     0
 42
0.000000001
 43
0.0000000001
 40
0.0
 40
0.0
 40
0.0
 40
0.0
 40
0.1595596120431518
 40
0.1595596120431518
 40
0.3191192240863036
 40
0.3191192240863036
 40
0.4786788361294554
 40
0.4786788361294554
 40
0.6382384481726073
 40
0.6382384481726073
 40
0.797798060215759
 40
0.797798060215759
 40
0.8775778662373342
 40
0.8775778662373342
 40
0.9573576722589095
 40
0.9573576722589095
 40
1.0
 40
1.0
 40
1.0
 40
1.0
 10
316.7065857722228
 20
275.0586430945165
 30
0.0
 10
317.4218328669293
 20
275.1998739751774
 30
0.0
 10
318.1373979636662
 20
275.3457971160254
 30
0.0
 10
319.5700347589049
 20
275.6441768299325
 30
0.0
 10
320.2871094631506
 20
275.7966214336873
 30
0.0
 10
321.7234633154396
 20
276.1050904512424
 30
0.0
 10
322.4427453386394
 20
276.2610985734164
 30
0.0
 10
323.8839431567306
 20
276.5740798804229
 30
0.0
 10
324.6058608222238
 20
276.7310350982169
 30
0.0
 10
326.0524157495328
 20
277.0441621115273
 30
0.0
 10
326.7770528044566
 20
277.2003198612427
 30
0.0
 10
327.86583308629
 20
277.433685313007
 30
0.0
 10
328.2290770542977
 20
277.5113441038959
 30
0.0
 10
328.956017222586
 20
277.6664871189275
 30
0.0
 10
329.3196920194112
 20
277.744028945285
 30
0.0
 10
329.8780757753142
 20
277.8627945806893
 30
0.0
 10
330.0726389314584
 20
277.9040946459953
 30
0.0
 10
330.2672776143468
 20
277.9452563327781
 30
0.0
  0
SPLINE
  5
1A0
330
1F
100
AcDbEntity
  8
1
100
AcDbSpline
210
0.0
220
0.0
230
1.0
 70
     8
 71
     3
 72
    36
 73
    32
 74
     0
 42
0.000000001
 43
0.0000000001
 40
0.0
 40
0.0
 40
0.0
 40
0.0
 40
0.1250000000000792
 40
0.1250000000000792
 40
0.1875000000001229
 40
0.1875000000001229
 40
0.218750000000137
 40
0.218750000000137
 40
0.2500000000001512
 40
0.2500000000001512
 40
0.3750000000001972
 40
0.3750000000001972
 40
0.4062500000001986
 40
0.4062500000001986
 40
0.4375000000002001
 40
0.4375000000002001
 40
0.5000000000001803
 40
0.5000000000001803
 40
0.6250000000001434
 40
0.6250000000001434
 40
0.6562500000001287
 40
0.6562500000001287
 40
0.6875000000001139
 40
0.7500000000000845
 40
0.812500000000055
 40
0.812500000000055
 40
0.8437500000000568
 40
0.8437500000000568
 40
0.8750000000000586
 40
0.8750000000000586
 40
1.0
 40
1.0
 40
1.0
 40
1.0
 10
388.6099776822096
 20
303.0621832715362
 30
0.0
 10
388.6081554136337
 20
303.113052199283
 30
0.0
 10
388.601184939544
 20
303.1628578145757
 30
0.0
 10
388.583486595
 20
303.2360703410736
 30
0.0
 10
388.5763699857853
 20
303.2602231236395
 30
0.0
 10
388.5638431950084
 20
303.2960698100713
 30
0.0
 10
388.5593451245583
 20
303.3079863794794
 30
0.0
 10
388.5497904163628
 20
303.3315174090424
 30
0.0
 10
388.5447403037876
 20
303.3431213938137
 30
0.0
 10
388.5181567984615
 20
303.4003519372277
 30
0.0
 10
388.4926641192459
 20
303.4436337710097
 30
0.0
 10
388.4555949087703
 20
303.4946545860378
 30
0.0
 10
388.4479184511815
 20
303.504703225799
 30
0.0
 10
388.432032335183
 20
303.5244847390255
 30
0.0
 10
388.423807441268
 20
303.534232645748
 30
0.0
 10
388.3985841562361
 20
303.5627005566805
 30
0.0
 10
388.3809685879744
 20
303.5807405800983
 30
0.0
 10
388.3257879550973
 20
303.6321225699738
 30
0.0
 10
388.2859122343433
 20
303.6627537578711
 30
0.0
 10
388.2320736313131
 20
303.6963571820005
 30
0.0
 10
388.221090476912
 20
303.7028470837212
 30
0.0
 10
388.1989566827053
 20
303.7152108069471
 30
0.0
 10
388.1654209649773
 20
303.7328863201592
 30
0.0
 10
388.1078814892383
 20
303.7580692158342
 30
0.0
 10
388.0601044257617
 20
303.7736824715377
 30
0.0
 10
388.0236011857883
 20
303.7836512584431
 30
0.0
 10
388.0113214844412
 20
303.7866834384023
 30
0.0
 10
387.9865327976504
 20
303.7921523420353
 30
0.0
 10
387.9740075706175
 20
303.7945903265328
 30
0.0
 10
387.9113886003028
 20
303.8051573760108
 30
0.0
 10
387.8608893528519
 20
303.8085771185214
 30
0.0
 10
387.8099730278957
 20
303.8068009321025
 30
0.0
  0
SPLINE
  5
1A1
330
1F
100
AcDbEntity
  8
1
100
AcDbSpline
210
0.0
220
0.0
230
1.0
 70
     8
 71
     3
 72
    36
 73
    32
 74
     0
 42
0.000000001
 43
0.0000000001
 40
0.0
 40
0.0
 40
0.0
 40
0.0
 40
0.1250000000000759
 40
0.1250000000000759
 40
0.1875000000000966
 40
0.1875000000000966
 40
0.2187500000001063
 40
0.2187500000001063
 40
0.250000000000116
 40
0.250000000000116
 40
0.3750000000001857
 40
0.3750000000001857
 40
0.4062500000001818
 40
0.4062500000001818
 40
0.4375000000001776
 40
0.4375000000001776
 40
0.5000000000001696
 40
0.5000000000001696
 40
0.6250000000001533
 40
0.6250000000001533
 40
0.6562500000001403
 40
0.6562500000001403
 40
0.6875000000001271
 40
0.7500000000000972
 40
0.8125000000000671
 40
0.8125000000000671
 40
0.8437500000000566
 40
0.8437500000000566
 40
0.8750000000000463
 40
0.8750000000000463
 40
1.0
 40
1.0
 40
1.0
 40
1.0
 10
379.8372443795067
 20
303.5286769245562
 30
0.0
 10
379.786322445132
 20
303.5269005424561
 30
0.0
 10
379.736469410532
 20
303.5199805505547
 30
0.0
 10
379.6631936154647
 20
303.5023643946645
 30
0.0
 10
379.6390210643541
 20
303.4952762682059
 30
0.0
 10
379.6031467349377
 20
303.4827938547014
 30
0.0
 10
379.5912212644014
 20
303.4783108941468
 30
0.0
 10
379.5676732391602
 20
303.4687867430792
 30
0.0
 10
379.5560611654427
 20
303.4637520616999
 30
0.0
 10
379.498792175516
 20
303.4372464582499
 30
0.0
 10
379.4554859195453
 20
303.4118184652777
 30
0.0
 10
379.4044423771557
 20
303.374833024337
 30
0.0
 10
379.3943895856099
 20
303.3671734676112
 30
0.0
 10
379.3746005681371
 20
303.3513214517106
 30
0.0
 10
379.3648493059813
 20
303.343113786333
 30
0.0
 10
379.3363726349842
 20
303.3179421044501
 30
0.0
 10
379.3183284695755
 20
303.3003609845501
 30
0.0
 10
379.2669390073652
 20
303.2452838317163
 30
0.0
 10
379.2363093933673
 20
303.2054772762572
 30
0.0
 10
379.2027164135614
 20
303.151725360794
 30
0.0
 10
379.196229034394
 20
303.140759575327
 30
0.0
 10
379.1838711619608
 20
303.1186601662774
 30
0.0
 10
379.1662056478497
 20
303.0851756336542
 30
0.0
 10
379.1410455312436
 20
303.0277194968681
 30
0.0
 10
379.1254566839552
 20
302.9800071306294
 30
0.0
 10
379.1155087281883
 20
302.9435515979998
 30
0.0
 10
379.1124839005983
 20
302.9312876678958
 30
0.0
 10
379.1070305386358
 20
302.9065302548847
 30
0.0
 10
379.1046007561142
 20
302.8940205488728
 30
0.0
 10
379.094076451611
 20
302.8314777743383
 30
0.0
 10
379.0906966552571
 20
302.7810355686007
 30
0.0
 10
379.092518723097
 20
302.730172244433
 30
0.0
  0
SPLINE
  5
1A2
330
1F
100
AcDbEntity
  8
1
100
AcDbSpline
210
0.0
220
0.0
230
1.0
 70
     8
 71
     3
 72
    36
 73
    32
 74
     0
 42
0.000000001
 43
0.0000000001
 40
0.0
 40
0.0
 40
0.0
 40
0.0
 40
0.1249999999999851
 40
0.1249999999999851
 40
0.1874999999999736
 40
0.1874999999999736
 40
0.2187499999999612
 40
0.2187499999999612
 40
0.2499999999999488
 40
0.2499999999999488
 40
0.3749999999998849
 40
0.3749999999998849
 40
0.4062499999998782
 40
0.4062499999998782
 40
0.4374999999998713
 40
0.4374999999998713
 40
0.4999999999998789
 40
0.4999999999998789
 40
0.6249999999999208
 40
0.6249999999999208
 40
0.6562499999999242
 40
0.6562499999999242
 40
0.6874999999999277
 40
0.7499999999999356
 40
0.8124999999999435
 40
0.8124999999999435
 40
0.8437499999999641
 40
0.8437499999999641
 40
0.8749999999999847
 40
0.8749999999999847
 40
1.0
 40
1.0
 40
1.0
 40
1.0
 10
379.3778270692766
 20
294.7657427202775
 30
0.0
 10
379.3796493378528
 20
294.7148737925306
 30
0.0
 10
379.3866198119423
 20
294.665068177238
 30
0.0
 10
379.4043181564863
 20
294.5918556507401
 30
0.0
 10
379.4114347657011
 20
294.5677028681741
 30
0.0
 10
379.4239615564779
 20
294.5318561817424
 30
0.0
 10
379.4284596269281
 20
294.5199396123342
 30
0.0
 10
379.4380143351236
 20
294.4964085827712
 30
0.0
 10
379.4430644476987
 20
294.4848045979999
 30
0.0
 10
379.4696479530249
 20
294.4275740545858
 30
0.0
 10
379.4951406322405
 20
294.3842922208038
 30
0.0
 10
379.5322098427162
 20
294.3332714057758
 30
0.0
 10
379.5398863003048
 20
294.3232227660146
 30
0.0
 10
379.5557724163034
 20
294.3034412527882
 30
0.0
 10
379.5639973102183
 20
294.2936933460657
 30
0.0
 10
379.5892205952501
 20
294.2652254351332
 30
0.0
 10
379.6068361635118
 20
294.2471854117152
 30
0.0
 10
379.6620167963892
 20
294.1958034218398
 30
0.0
 10
379.7018925171429
 20
294.1651722339424
 30
0.0
 10
379.7557311201732
 20
294.1315688098132
 30
0.0
 10
379.7667142745743
 20
294.1250789080925
 30
0.0
 10
379.7888480687811
 20
294.1127151848665
 30
0.0
 10
379.8223837865088
 20
294.0950396716545
 30
0.0
 10
379.8799233020229
 20
294.0698568792756
 30
0.0
 10
379.9277003257247
 20
294.0542435202758
 30
0.0
 10
379.9642035656979
 20
294.0442747333706
 30
0.0
 10
379.9764832670453
 20
294.0412425534113
 30
0.0
 10
380.001271953836
 20
294.0357736497783
 30
0.0
 10
380.0137971808688
 20
294.0333356652808
 30
0.0
 10
380.0764161511835
 20
294.0227686158028
 30
0.0
 10
380.1269153986344
 20
294.0193488732922
 30
0.0
 10
380.1778317235908
 20
294.0211250597111
 30
0.0
  0
SPLINE
  5
1A3
330
1F
100
AcDbEntity
  8
1
100
AcDbSpline
210
0.0
220
0.0
230
1.0
 70
     8
 71
     3
 72
    36
 73
    32
 74
     0
 42
0.000000001
 43
0.0000000001
 40
0.0
 40
0.0
 40
0.0
 40
0.0
 40
0.1250000000000437
 40
0.1250000000000437
 40
0.187500000000049
 40
0.187500000000049
 40
0.2187500000000517
 40
0.2187500000000517
 40
0.2500000000000544
 40
0.2500000000000544
 40
0.374999999999969
 40
0.374999999999969
 40
0.4062499999999549
 40
0.4062499999999549
 40
0.4374999999999409
 40
0.4374999999999409
 40
0.4999999999999382
 40
0.4999999999999382
 40
0.624999999999933
 40
0.624999999999933
 40
0.6562499999999411
 40
0.6562499999999411
 40
0.6874999999999493
 40
0.7499999999999656
 40
0.812499999999982
 40
0.812499999999982
 40
0.8437499999999857
 40
0.8437499999999857
 40
0.8749999999999895
 40
0.8749999999999895
 40
1.0
 40
1.0
 40
1.0
 40
1.0
 10
388.1505603719796
 20
294.2992490672574
 30
0.0
 10
388.2014823063543
 20
294.3010254493577
 30
0.0
 10
388.2513353409544
 20
294.3079454412589
 30
0.0
 10
388.3246111360216
 20
294.3255615971491
 30
0.0
 10
388.3487836871322
 20
294.3326497236077
 30
0.0
 10
388.3846580165487
 20
294.3451321371123
 30
0.0
 10
388.3965834870849
 20
294.3496150976669
 30
0.0
 10
388.4201315123262
 20
294.3591392487344
 30
0.0
 10
388.4317435860437
 20
294.3641739301137
 30
0.0
 10
388.4890125759704
 20
294.3906795335637
 30
0.0
 10
388.5323188319412
 20
294.4161075265359
 30
0.0
 10
388.5833623743307
 20
294.4530929674767
 30
0.0
 10
388.5934151658765
 20
294.4607525242024
 30
0.0
 10
388.6132041833493
 20
294.476604540103
 30
0.0
 10
388.6229554455052
 20
294.4848122054807
 30
0.0
 10
388.6514321165022
 20
294.5099838873635
 30
0.0
 10
388.6694762819108
 20
294.5275650072635
 30
0.0
 10
388.7208657441211
 20
294.5826421600974
 30
0.0
 10
388.7514953581192
 20
294.6224487155563
 30
0.0
 10
388.7850883379249
 20
294.6762006310196
 30
0.0
 10
388.7915757170923
 20
294.6871664164867
 30
0.0
 10
388.8039335895257
 20
294.7092658255362
 30
0.0
 10
388.8215991036366
 20
294.7427503581595
 30
0.0
 10
388.8467592202427
 20
294.8002064949455
 30
0.0
 10
388.862348067531
 20
294.8479188611843
 30
0.0
 10
388.8722960232982
 20
294.8843743938139
 30
0.0
 10
388.875320850888
 20
294.8966383239178
 30
0.0
 10
388.8807742128506
 20
294.9213957369289
 30
0.0
 10
388.8832039953722
 20
294.9339054429408
 30
0.0
 10
388.8937282998753
 20
294.9964482174753
 30
0.0
 10
388.8971080962293
 20
295.046890423213
 30
0.0
 10
388.8952860283893
 20
295.0977537473806
 30
0.0
  0
SPLINE
  5
1A4
330
1F
100
AcDbEntity
  8
1
100
AcDbSpline
210
0.0
220
0.0
230
1.0
 70
     8
 71
     3
 72
    26
 73
    22
 74
     0
 42
0.000000001
 43
0.0000000001
 40
0.0
 40
0.0
 40
0.0
 40
0.0
 40
0.1249999999999887
 40
0.1249999999999887
 40
0.2499999999999775
 40
0.2499999999999775
 40
0.3124999999999838
 40
0.3124999999999838
 40
0.3749999999999903
 40
0.3749999999999903
 40
0.5000000000000032
 40
0.6250000000000161
 40
0.6250000000000161
 40
0.7500000000000292
 40
0.7500000000000292
 40
0.7812500000000325
 40
0.7812500000000325
 40
0.8125000000000358
 40
0.8750000000000145
 40
0.8750000000000145
 40
1.0
 40
1.0
 40
1.0
 40
1.0
 10
381.8443597692546
 20
293.7189472895699
 30
0.0
 10
381.7945492288282
 20
293.6814241791153
 30
0.0
 10
381.7435344293209
 20
293.646498942871
 30
0.0
 10
381.6390379343274
 20
293.5815406685415
 30
0.0
 10
381.5855574995446
 20
293.5515097216538
 30
0.0
 10
381.50339717789
 20
293.5100740105472
 30
0.0
 10
381.4756865199579
 20
293.4968654158401
 30
0.0
 10
381.4195933004812
 20
293.4716625625524
 30
0.0
 10
381.3913014348925
 20
293.4597113770975
 30
0.0
 10
381.3060627116239
 20
293.4259403150565
 30
0.0
 10
381.1911156757193
 20
293.3862999608797
 30
0.0
 10
381.0731075844736
 20
293.3572469807927
 30
0.0
 10
380.9532546324951
 20
293.333639896064
 30
0.0
 10
380.8924031119004
 20
293.3245590772608
 30
0.0
 10
380.8149592015845
 20
293.3168667771752
 30
0.0
 10
380.799381134386
 20
293.315510865749
 30
0.0
 10
380.7682862764171
 20
293.3131882296252
 30
0.0
 10
380.7216758061613
 20
293.3102806971111
 30
0.0
 10
380.675162689454
 20
293.3090913642245
 30
0.0
 10
380.5822633346427
 20
293.3089802957192
 30
0.0
 10
380.5205015482376
 20
293.3119260945957
 30
0.0
 10
380.4588735814263
 20
293.3178640777791
 30
0.0
  0
SPLINE
  5
1A5
330
1F
100
AcDbEntity
  8
1
100
AcDbSpline
210
0.0
220
0.0
230
1.0
 70
     8
 71
     3
 72
    21
 73
    17
 74
     0
 42
0.000000001
 43
0.0000000001
 40
0.0
 40
0.0
 40
0.0
 40
0.0
 40
0.2499999999999925
 40
0.2499999999999925
 40
0.4999999999999849
 40
0.4999999999999849
 40
0.5624999999999832
 40
0.5624999999999832
 40
0.6249999999999814
 40
0.6249999999999814
 40
0.7499999999999851
 40
0.8749999999999889
 40
0.8749999999999889
 40
0.9374999999999944
 40
0.9374999999999944
 40
1.0
 40
1.0
 40
1.0
 40
1.0
 10
380.4569126926937
 20
293.1431451073225
 30
0.0
 10
380.001240562062
 20
293.1271379480418
 30
0.0
 10
379.5475912584265
 20
293.1355976700078
 30
0.0
 10
378.6442543469322
 20
293.200381771706
 30
0.0
 10
378.1945668111157
 20
293.256707625938
 30
0.0
 10
377.6349702131436
 20
293.3574132736335
 30
0.0
 10
377.5231124536458
 20
293.379089321077
 30
0.0
 10
377.3004486859442
 20
293.4253301680498
 30
0.0
 10
377.1895537448838
 20
293.4499091337757
 30
0.0
 10
376.8581731867511
 20
293.5279955507582
 30
0.0
 10
376.4198085415107
 20
293.6437033826053
 30
0.0
 10
375.9883733169056
 20
293.7824678725847
 30
0.0
 10
375.6674102826512
 20
293.8952123904245
 30
0.0
 10
375.5608060540058
 20
293.9342619040145
 30
0.0
 10
375.3490958398404
 20
294.0150207662747
 30
0.0
 10
375.2439208021949
 20
294.0567527486245
 30
0.0
 10
375.1394223082572
 20
294.0998274287992
 30
0.0
  0
SPLINE
  5
1A6
330
1F
100
AcDbEntity
  8
1
100
AcDbSpline
210
0.0
220
0.0
230
1.0
 70
     8
 71
     3
 72
     8
 73
     4
 74
     0
 42
0.000000001
 43
0.0000000001
 40
0.0
 40
0.0
 40
0.0
 40
0.0
 40
1.0
 40
1.0
 40
1.0
 40
1.0
 10
380.4569126926937
 20
293.1431451073225
 30
0.0
 10
380.4604704836706
 20
293.1432700878141
 30
0.0
 10
380.4640290895832
 20
293.1433946625199
 30
0.0
 10
380.4675885115413
 20
293.1435188308873
 30
0.0
  0
SPLINE
  5
1A7
330
1F
100
AcDbEntity
  8
1
100
AcDbSpline
210
0.0
220
0.0
230
1.0
 70
     8
 71
     3
 72
    28
 73
    24
 74
     0
 42
0.000000001
 43
0.0000000001
 40
0.0
 40
0.0
 40
0.0
 40
0.0
 40
0.1250000000000189
 40
0.1250000000000189
 40
0.2500000000000377
 40
0.2500000000000377
 40
0.2812500000000385
 40
0.2812500000000385
 40
0.3125000000000392
 40
0.3750000000000351
 40
0.3750000000000351
 40
0.5000000000000327
 40
0.5000000000000327
 40
0.5312500000000306
 40
0.5312500000000306
 40
0.5625000000000285
 40
0.5625000000000285
 40
0.6250000000000245
 40
0.6250000000000245
 40
0.7500000000000164
 40
0.8750000000000081
 40
0.8750000000000081
 40
1.0
 40
1.0
 40
1.0
 40
1.0
 10
373.869343071817
 20
292.0369844856152
 30
0.0
 10
374.1173650065072
 20
291.8814168180897
 30
0.0
 10
374.3707993294277
 20
291.7353713647511
 30
0.0
 10
374.8883630100345
 20
291.4624354261492
 30
0.0
 10
375.1524919222123
 20
291.3355437422264
 30
0.0
 10
375.4893494966217
 20
291.189110481201
 30
0.0
 10
375.5570936812193
 20
291.1604183208753
 30
0.0
 10
375.6930320538856
 20
291.1043517835322
 30
0.0
 10
375.897610213987
 20
291.0222275400989
 30
0.0
 10
376.1041887758809
 20
290.9460102343852
 30
0.0
 10
376.5199931761207
 20
290.8014264473646
 30
0.0
 10
376.8007219849614
 20
290.7154947029285
 30
0.0
 10
377.1560306551023
 20
290.6212195299458
 30
0.0
 10
377.2273125718539
 20
290.6030222783449
 30
0.0
 10
377.3703177477695
 20
290.5679483330763
 30
0.0
 10
377.4420369877605
 20
290.5510739376087
 30
0.0
 10
377.6572495273529
 20
290.5025701404849
 30
0.0
 10
377.8009992415511
 20
290.4730086444031
 30
0.0
 10
378.2330605762133
 20
290.3925428411645
 30
0.0
 10
378.8113056653207
 20
290.3071478889908
 30
0.0
 10
379.3938134222904
 20
290.265010233624
 30
0.0
 10
379.9784612594098
 20
290.2446197426968
 30
0.0
 10
380.2718551075113
 20
290.2452969884102
 30
0.0
 10
380.566344438321
 20
290.2571058410194
 30
0.0
  0
SPLINE
  5
1A8
330
1F
100
AcDbEntity
  8
1
100
AcDbSpline
210
0.0
220
0.0
230
1.0
 70
     8
 71
     3
 72
    26
 73
    22
 74
     0
 42
0.000000001
 43
0.0000000001
 40
0.0
 40
0.0
 40
0.0
 40
0.0
 40
0.1249999999999899
 40
0.1249999999999899
 40
0.2499999999999797
 40
0.2499999999999797
 40
0.3749999999999696
 40
0.3749999999999696
 40
0.4374999999999645
 40
0.4374999999999645
 40
0.4687499999999652
 40
0.4687499999999652
 40
0.4999999999999658
 40
0.4999999999999658
 40
0.6249999999999744
 40
0.6249999999999744
 40
0.7499999999999828
 40
0.7499999999999828
 40
0.8749999999999912
 40
0.8749999999999912
 40
1.0
 40
1.0
 40
1.0
 40
1.0
 10
379.8798419452959
 20
291.1536304888238
 30
0.0
 10
379.6101556482641
 20
291.1537018251287
 30
0.0
 10
379.3431361070458
 20
291.1603331418028
 30
0.0
 10
378.8133601132817
 20
291.1874128102276
 30
0.0
 10
378.5506091268223
 20
291.2078582911529
 30
0.0
 10
378.0286980886974
 20
291.2631653857555
 30
0.0
 10
377.7695418289698
 20
291.2980238313056
 30
0.0
 10
377.3831800389461
 20
291.3615735338095
 30
0.0
 10
377.2547897809387
 20
291.3846340855813
 30
0.0
 10
377.0627708443183
 20
291.422103257339
 30
0.0
 10
376.9988590092237
 20
291.4350727582924
 30
0.0
 10
376.8712202000872
 20
291.461982452821
 30
0.0
 10
376.8074512062556
 20
291.4759325160682
 30
0.0
 10
376.4897994612987
 20
291.5479676033269
 30
0.0
 10
376.2392207196868
 20
291.6129452472824
 30
0.0
 10
375.7446634749286
 20
291.7577160628978
 30
0.0
 10
375.5006876393543
 20
291.8375076813754
 30
0.0
 10
375.019056305572
 20
292.012136471707
 30
0.0
 10
374.7813973268041
 20
292.1069787515021
 30
0.0
 10
374.3121891224171
 20
292.3122183182249
 30
0.0
 10
374.0806403197398
 20
292.4226139863453
 30
0.0
 10
373.8520930301719
 20
292.5411642943979
 30
0.0
  0
SPLINE
  5
1A9
330
1F
100
AcDbEntity
  8
1
100
AcDbSpline
210
0.0
220
0.0
230
1.0
 70
     9
 71
     3
 72
   125
 73
   121
 74
     0
 42
0.000000001
 43
0.0000000001
 40
0.0
 40
0.0
 40
0.0
 40
0.0
 40
0.0312500000000011
 40
0.0312500000000011
 40
0.0468750000000017
 40
0.0468750000000017
 40
0.0546875000000044
 40
0.0546875000000044
 40
0.0625000000000071
 40
0.0625000000000071
 40
0.0937500000000132
 40
0.0937500000000132
 40
0.1015625000000159
 40
0.1015625000000159
 40
0.1093750000000185
 40
0.1093750000000185
 40
0.1250000000000197
 40
0.1250000000000197
 40
0.1562500000000256
 40
0.1562500000000256
 40
0.1718750000000272
 40
0.1718750000000272
 40
0.1875000000000289
 40
0.2031250000000305
 40
0.2031250000000305
 40
0.2109375000000318
 40
0.2109375000000318
 40
0.2187500000000331
 40
0.2187500000000331
 40
0.2500000000000395
 40
0.2500000000000395
 40
0.2578125000000411
 40
0.2578125000000411
 40
0.2656250000000426
 40
0.2656250000000426
 40
0.2812500000000464
 40
0.2812500000000464
 40
0.312500000000054
 40
0.312500000000054
 40
0.3281250000000575
 40
0.3281250000000575
 40
0.3437500000000611
 40
0.3437500000000611
 40
0.3750000000000683
 40
0.3750000000000683
 40
0.3828125000000675
 40
0.3828125000000675
 40
0.3906250000000667
 40
0.4062500000000612
 40
0.4218750000000556
 40
0.4218750000000556
 40
0.4296875000000528
 40
0.4296875000000528
 40
0.43750000000005
 40
0.43750000000005
 40
0.4687500000000386
 40
0.4687500000000386
 40
0.4843750000000328
 40
0.4843750000000328
 40
0.49218750000003
 40
0.49218750000003
 40
0.5000000000000271
 40
0.5000000000000271
 40
0.5312500000000156
 40
0.5312500000000156
 40
0.5390625000000141
 40
0.5390625000000141
 40
0.5468750000000124
 40
0.5468750000000124
 40
0.5625000000000141
 40
0.5781250000000157
 40
0.5781250000000157
 40
0.5937500000000174
 40
0.5937500000000174
 40
0.6250000000000204
 40
0.6250000000000204
 40
0.6328125000000203
 40
0.6328125000000203
 40
0.6406250000000201
 40
0.6406250000000201
 40
0.6562500000000196
 40
0.6562500000000196
 40
0.6875000000000189
 40
0.6875000000000189
 40
0.6953125000000187
 40
0.6953125000000187
 40
0.7031250000000183
 40
0.7187500000000178
 40
0.7343750000000171
 40
0.7343750000000171
 40
0.7421875000000165
 40
0.7421875000000165
 40
0.7500000000000158
 40
0.7500000000000158
 40
0.7812500000000138
 40
0.7812500000000138
 40
0.7968750000000121
 40
0.7968750000000121
 40
0.8125000000000104
 40
0.8125000000000104
 40
0.843750000000009
 40
0.843750000000009
 40
0.8593750000000069
 40
0.8593750000000069
 40
0.8671875000000058
 40
0.8671875000000058
 40
0.8750000000000051
 40
0.8750000000000051
 40
0.9062500000000081
 40
0.9062500000000081
 40
0.9218750000000074
 40
0.9218750000000074
 40
0.9375000000000072
 40
0.9531250000000065
 40
0.9531250000000065
 40
0.9609375000000062
 40
0.9609375000000062
 40
0.968750000000006
 40
0.968750000000006
 40
1.0
 40
1.0
 40
1.0
 40
1.0
 10
384.4246469271758
 20
286.4733679557893
 30
0.0
 10
384.5086918634764
 20
286.4719009459693
 30
0.0
 10
384.5911339292302
 20
286.4620680358424
 30
0.0
 10
384.7124924900317
 20
286.4353033795914
 30
0.0
 10
384.752558258312
 20
286.4243638593387
 30
0.0
 10
384.8120619983952
 20
286.4048567852549
 30
0.0
 10
384.8318535103416
 20
286.3978144925264
 30
0.0
 10
384.8708992956663
 20
286.3828037538547
 30
0.0
 10
384.8901527409407
 20
286.3748399268492
 30
0.0
 10
384.9850997928677
 20
286.3327767390462
 30
0.0
 10
385.0568712808156
 20
286.2920097940449
 30
0.0
 10
385.1413858395167
 20
286.2322534886082
 30
0.0
 10
385.1580263755347
 20
286.2198583394136
 30
0.0
 10
385.1907737743312
 20
286.1941663741997
 30
0.0
 10
385.2068813231209
 20
286.1808639393473
 30
0.0
 10
385.2538614829197
 20
286.1400565033993
 30
0.0
 10
385.2835838896382
 20
286.1115106353249
 30
0.0
 10
385.3681023297668
 20
286.021987334199
 30
0.0
 10
385.4182928611778
 20
285.9571602775247
 30
0.0
 10
385.4841162970778
 20
285.8520736108301
 30
0.0
 10
385.504136100375
 20
285.816254589398
 30
0.0
 10
385.5404034276319
 20
285.7432609192856
 30
0.0
 10
385.5729288517743
 20
285.6688612031373
 30
0.0
 10
385.5980812917103
 20
285.5917085067789
 30
0.0
 10
385.6141453400523
 20
285.5328038483061
 30
0.0
 10
385.6190409908721
 20
285.5129559008424
 30
0.0
 10
385.6278417402963
 20
285.473090670383
 30
0.0
 10
385.631734041626
 20
285.4531415933542
 30
0.0
 10
385.6487144758371
 20
285.3533175176394
 30
0.0
 10
385.6544276541628
 20
285.2732101069568
 30
0.0
 10
385.6519614007993
 20
285.1727849086884
 30
0.0
 10
385.6509835509094
 20
285.1526850970881
 30
0.0
 10
385.6480474330542
 20
285.112455506793
 30
0.0
 10
385.6460833440277
 20
285.0922806420735
 30
0.0
 10
385.6387352914244
 20
285.0320424208523
 30
0.0
 10
385.6319317065823
 20
284.9924473395964
 30
0.0
 10
385.6059975770013
 20
284.875290573167
 30
0.0
 10
385.581395226205
 20
284.7993435009028
 30
0.0
 10
385.5333235254661
 20
284.6886702026466
 30
0.0
 10
385.5153402402215
 20
284.6522059965709
 30
0.0
 10
385.476287439703
 20
284.5818328927189
 30
0.0
 10
385.4551591744986
 20
284.5477548059707
 30
0.0
 10
385.3870274965406
 20
284.4487844669622
 30
0.0
 10
385.3353273258224
 20
284.3871228212091
 30
0.0
 10
385.2623339885456
 20
284.3157189265377
 30
0.0
 10
385.2473437982382
 20
284.3017589286619
 30
0.0
 10
385.216846803538
 20
284.2747187750847
 30
0.0
 10
385.1702134841588
 20
284.2353730257282
 30
0.0
 10
385.0881067492161
 20
284.1757775015328
 30
0.0
 10
385.017721689789
 20
284.1344775952321
 30
0.0
 10
384.9631080501969
 20
284.105966361499
 30
0.0
 10
384.9445987947458
 20
284.0968740071149
 30
0.0
 10
384.9069529699379
 20
284.0795343291633
 30
0.0
 10
384.8877973688805
 20
284.0712832865706
 30
0.0
 10
384.7916067858288
 20
284.0326637417371
 30
0.0
 10
384.7124503937839
 20
284.0096870693893
 30
0.0
 10
384.5904142589517
 20
283.987021026829
 30
0.0
 10
384.5491814484296
 20
283.9814463532081
 30
0.0
 10
384.4864642664278
 20
283.9761828221752
 30
0.0
 10
384.4654800105191
 20
283.9749545072553
 30
0.0
 10
384.42372443678
 20
283.973558396412
 30
0.0
 10
384.4028985214634
 20
283.9733856650975
 30
0.0
 10
384.2990241737178
 20
283.9751067059246
 30
0.0
 10
384.2167341144172
 20
283.9846779823438
 30
0.0
 10
384.1148918700016
 20
284.0069953042507
 30
0.0
 10
384.0945152854035
 20
284.0119986947872
 30
0.0
 10
384.0542398090179
 20
284.0229670267237
 30
0.0
 10
384.0343329916194
 20
284.0289296833002
 30
0.0
 10
383.9752881480908
 20
284.0482196011749
 30
0.0
 10
383.8983595002068
 20
284.0776700742615
 30
0.0
 10
383.8249290154577
 20
284.1144049329558
 30
0.0
 10
383.7532505027189
 20
284.1548034095751
 30
0.0
 10
383.7181557198182
 20
284.1769463440325
 30
0.0
 10
383.6175902217878
 20
284.2475428815916
 30
0.0
 10
383.5561714710655
 20
284.3003979124505
 30
0.0
 10
383.4861472123693
 20
284.3734995418897
 30
0.0
 10
383.4724830328237
 20
284.3884748315259
 30
0.0
 10
383.445841729579
 20
284.419143447095
 30
0.0
 10
383.4328353045473
 20
284.434876194098
 30
0.0
 10
383.3951928274778
 20
284.4827395958723
 30
0.0
 10
383.3718595370328
 20
284.5155990485638
 30
0.0
 10
383.306949173175
 20
284.6169451115168
 30
0.0
 10
383.2704137301469
 20
284.6881739817387
 30
0.0
 10
383.2332778322287
 20
284.7819124982536
 30
0.0
 10
383.2262697099633
 20
284.8009367346123
 30
0.0
 10
383.2132515212125
 20
284.8390999933278
 30
0.0
 10
383.1951791782527
 20
284.896620827021
 30
0.0
 10
383.1721779855574
 20
284.9938468895813
 30
0.0
 10
383.1612744153958
 20
285.0730688943496
 30
0.0
 10
383.1559519055237
 20
285.1330365438514
 30
0.0
 10
383.1546544227253
 20
285.1531177577919
 30
0.0
 10
383.1530305367707
 20
285.193467740561
 30
0.0
 10
383.1527051708211
 20
285.2137899324478
 30
0.0
 10
383.1535571454532
 20
285.3151592323687
 30
0.0
 10
383.1620489354333
 20
285.3951612220681
 30
0.0
 10
383.1862650911633
 20
285.5135385950956
 30
0.0
 10
383.1962633607918
 20
285.5527246687548
 30
0.0
 10
383.2202352604854
 20
285.6305267373676
 30
0.0
 10
383.2342916410527
 20
285.6692959435833
 30
0.0
 10
383.2816622087181
 20
285.7822608602505
 30
0.0
 10
383.32027869725
 20
285.8538472419206
 30
0.0
 10
383.3887705426952
 20
285.9555772326134
 30
0.0
 10
383.413374059782
 20
285.9885392789829
 30
0.0
 10
383.453055802702
 20
286.036489272035
 30
0.0
 10
383.4666710279218
 20
286.0521294772967
 30
0.0
 10
383.4945500648085
 20
286.0825993104011
 30
0.0
 10
383.5088319132308
 20
286.0974508191672
 30
0.0
 10
383.5819319354948
 20
286.1698114917068
 30
0.0
 10
383.6457736725775
 20
286.2216847752247
 30
0.0
 10
383.7497653964624
 20
286.2902016580578
 30
0.0
 10
383.785980649279
 20
286.311549139185
 30
0.0
 10
383.8596452643027
 20
286.3501361521802
 30
0.0
 10
383.9348410053784
 20
286.3848529174317
 30
0.0
 10
384.0130431504399
 20
286.4119560520307
 30
0.0
 10
384.0728349781018
 20
286.4293913911579
 30
0.0
 10
384.0929559721333
 20
286.4347202967245
 30
0.0
 10
384.1335852658655
 20
286.4443951787952
 30
0.0
 10
384.1541408758847
 20
286.4487494388884
 30
0.0
 10
384.2572874771028
 20
286.4678896939151
 30
0.0
 10
384.3406019908751
 20
286.4748349656093
 30
0.0
 10
384.4246469271758
 20
286.4733679557893
 30
0.0
  0
SPLINE
  5
1AA
330
1F
100
AcDbEntity
  8
1
100
AcDbSpline
210
0.0
220
0.0
230
1.0
 70
     8
 71
     3
 72
    41
 73
    37
 74
     0
 42
0.000000001
 43
0.0000000001
 40
0.0
 40
0.0
 40
0.0
 40
0.0
 40
0.1249999999999973
 40
0.1249999999999973
 40
0.2499999999999945
 40
0.2499999999999945
 40
0.3749999999999918
 40
0.3749999999999918
 40
0.4375000000000011
 40
0.4375000000000011
 40
0.5000000000000103
 40
0.5000000000000103
 40
0.5625000000000197
 40
0.5625000000000197
 40
0.6250000000000289
 40
0.6250000000000289
 40
0.6562500000000283
 40
0.6562500000000283
 40
0.6875000000000276
 40
0.6875000000000276
 40
0.7187500000000269
 40
0.7187500000000269
 40
0.7500000000000262
 40
0.7500000000000262
 40
0.812500000000027
 40
0.812500000000027
 40
0.8281250000000312
 40
0.8281250000000312
 40
0.8437500000000357
 40
0.8750000000000285
 40
0.8750000000000285
 40
0.9062500000000214
 40
0.9062500000000214
 40
0.9375000000000142
 40
0.9375000000000142
 40
1.0
 40
1.0
 40
1.0
 40
1.0
 10
374.4813847653101
 20
294.4189155882339
 30
0.0
 10
374.4426506259744
 20
294.439077056056
 30
0.0
 10
374.4050320638571
 20
294.4604861961818
 30
0.0
 10
374.3322523730192
 20
294.5060825667952
 30
0.0
 10
374.2970873808159
 20
294.530265412016
 30
0.0
 10
374.2296239270221
 20
294.5819001867575
 30
0.0
 10
374.1973149564411
 20
294.6093402462448
 30
0.0
 10
374.1515916210389
 20
294.6536421702211
 30
0.0
 10
374.1368107685472
 20
294.6689371724334
 30
0.0
 10
374.1083491522492
 20
294.700789409645
 30
0.0
 10
374.0948245354791
 20
294.7171735863973
 30
0.0
 10
374.0694597418959
 20
294.7509631412451
 30
0.0
 10
374.0576107142076
 20
294.7683734038035
 30
0.0
 10
374.0359589969819
 20
294.8044558944413
 30
0.0
 10
374.0261491609139
 20
294.8231238638923
 30
0.0
 10
374.0134574137929
 20
294.8523670881049
 30
0.0
 10
374.0095666495819
 20
294.8623232901019
 30
0.0
 10
374.0026015182049
 20
294.8827347745914
 30
0.0
 10
373.9995374690057
 20
294.8931764651808
 30
0.0
 10
373.9944943385923
 20
294.9142587814069
 30
0.0
 10
373.9924991751852
 20
294.9249409683476
 30
0.0
 10
373.9897565700035
 20
294.9466369816657
 30
0.0
 10
373.9890100699511
 20
294.9577199922793
 30
0.0
 10
373.9890563812481
 20
294.9909907008803
 30
0.0
 10
373.992051673732
 20
295.0131228749493
 30
0.0
 10
374.0007639378672
 20
295.0406859960337
 30
0.0
 10
374.0027625104954
 20
295.0461937309597
 30
0.0
 10
374.0072050769167
 20
295.0569692929328
 30
0.0
 10
374.0145619865397
 20
295.0728583694758
 30
0.0
 10
374.0240054567984
 20
295.0879198020912
 30
0.0
 10
374.0384946388055
 20
295.107245518611
 30
0.0
 10
374.046551462936
 20
295.1163358419173
 30
0.0
 10
374.063903559931
 20
295.1332590036325
 30
0.0
 10
374.073231682736
 20
295.1411348456243
 30
0.0
 10
374.1029700306092
 20
295.1631846300979
 30
0.0
 10
374.1243496546375
 20
295.1752627817245
 30
0.0
 10
374.1468056879565
 20
295.1855198707452
 30
0.0
  0
SPLINE
  5
1AB
330
1F
100
AcDbEntity
  8
1
100
AcDbSpline
210
0.0
220
0.0
230
1.0
 70
     8
 71
     3
 72
    19
 73
    15
 74
     0
 42
0.000000001
 43
0.0000000001
 40
0.0
 40
0.0
 40
0.0
 40
0.0
 40
0.24999999999999
 40
0.24999999999999
 40
0.49999999999998
 40
0.49999999999998
 40
0.6249999999999769
 40
0.6249999999999769
 40
0.6874999999999769
 40
0.6874999999999769
 40
0.7187499999999789
 40
0.7187499999999789
 40
0.7499999999999809
 40
1.0
 40
1.0
 40
1.0
 40
1.0
 10
295.2247104553103
 20
274.4152045023707
 30
0.0
 10
295.4334449724544
 20
274.4119030700642
 30
0.0
 10
295.646116321322
 20
274.4101045041209
 30
0.0
 10
296.0794591701007
 20
274.4081148074151
 30
0.0
 10
296.3001296695444
 20
274.4079244087533
 30
0.0
 10
296.6373962299796
 20
274.4080556039816
 30
0.0
 10
296.7508637056462
 20
274.4081714102823
 30
0.0
 10
296.9226839809467
 20
274.4083786585786
 30
0.0
 10
296.9802273879901
 20
274.4084535029263
 30
0.0
 10
297.066955198827
 20
274.4085666924766
 30
0.0
 10
297.0959291639076
 20
274.4086045810843
 30
0.0
 10
297.1538149489432
 20
274.4086792880919
 30
0.0
 10
297.4142450635342
 20
274.4090134623306
 30
0.0
 10
297.6741765261498
 20
274.4092409167927
 30
0.0
 10
297.9048419453414
 20
274.4092409167927
 30
0.0
  0
SPLINE
  5
1AC
330
1F
100
AcDbEntity
  8
1
100
AcDbSpline
210
0.0
220
0.0
230
1.0
 70
     8
 71
     3
 72
    16
 73
    12
 74
     0
 42
0.000000001
 43
0.0000000001
 40
0.0
 40
0.0
 40
0.0
 40
0.0
 40
0.25
 40
0.25
 40
0.375
 40
0.375
 40
0.5
 40
0.5
 40
0.75
 40
0.75
 40
1.0
 40
1.0
 40
1.0
 40
1.0
 10
316.7065857722225
 20
275.0586430945184
 30
0.0
 10
315.1497781520594
 20
274.9431800732198
 30
0.0
 10
313.5908283346834
 20
274.845188756245
 30
0.0
 10
311.248139270285
 20
274.7224598919695
 30
0.0
 10
310.4665289130096
 20
274.6855860260695
 30
0.0
 10
308.9024138684446
 20
274.6195031672744
 30
0.0
 10
308.119822635938
 20
274.5902891471744
 30
0.0
 10
305.7702182500344
 20
274.5133604952584
 30
0.0
 10
304.2013647804742
 20
274.4763817915772
 30
0.0
 10
301.0577290196609
 20
274.426271202972
 30
0.0
 10
299.4829454776506
 20
274.4131233913567
 30
0.0
 10
297.9048419452957
 20
274.4092409167934
 30
0.0
  0
SPLINE
  5
1AD
330
1F
100
AcDbEntity
  8
1
100
AcDbSpline
210
0.0
220
0.0
230
1.0
 70
     8
 71
     3
 72
    14
 73
    10
 74
     0
 42
0.000000001
 43
0.0000000001
 40
0.0
 40
0.0
 40
0.0
 40
0.0
 40
0.25
 40
0.25
 40
0.5
 40
0.5
 40
0.75
 40
0.75
 40
1.0
 40
1.0
 40
1.0
 40
1.0
 10
291.7038318185191
 20
274.4796739344954
 30
0.0
 10
291.995293249146
 20
274.4708275997431
 30
0.0
 10
292.2871651557153
 20
274.4629466689458
 30
0.0
 10
292.871761780465
 20
274.4489613881379
 30
0.0
 10
293.1644866392561
 20
274.4428585949994
 30
0.0
 10
293.7509707953791
 20
274.4323028063131
 30
0.0
 10
294.0447310101524
 20
274.4278511602057
 30
0.0
 10
294.6336023426465
 20
274.4204503827963
 30
0.0
 10
294.928714849562
 20
274.4175020119236
 30
0.0
 10
295.2247104553103
 20
274.4152045023707
 30
0.0
  0
SPLINE
  5
1AE
330
1F
100
AcDbEntity
  8
1
100
AcDbSpline
210
0.0
220
0.0
230
1.0
 70
     8
 71
     3
 72
    18
 73
    14
 74
     0
 42
0.000000001
 43
0.0000000001
 40
0.0
 40
0.0
 40
0.0
 40
0.0
 40
0.2499999999999915
 40
0.2499999999999915
 40
0.499999999999983
 40
0.499999999999983
 40
0.6249999999999602
 40
0.6249999999999602
 40
0.6874999999999672
 40
0.6874999999999672
 40
0.7499999999999742
 40
0.7499999999999742
 40
1.0
 40
1.0
 40
1.0
 40
1.0
 10
380.4588735814264
 20
293.3178640777791
 30
0.0
 10
380.3721010887226
 20
293.326224788494
 30
0.0
 10
380.2873998836077
 20
293.3402636752331
 30
0.0
 10
380.1210777803178
 20
293.3788833814436
 30
0.0
 10
380.0394598359996
 20
293.4034688676186
 30
0.0
 10
379.9188083775007
 20
293.448344535821
 30
0.0
 10
379.8788895268568
 20
293.464642626083
 30
0.0
 10
379.8194056282936
 20
293.4911736713115
 30
0.0
 10
379.7996658410208
 20
293.5003566214969
 30
0.0
 10
379.7605768817272
 20
293.5192977935047
 30
0.0
 10
379.7411964719252
 20
293.529069734057
 30
0.0
 10
379.645098464452
 20
293.5794284091446
 30
0.0
 10
379.5707858898173
 20
293.6244875266664
 30
0.0
 10
379.498900033368
 20
293.6744125578238
 30
0.0
  0
SPLINE
  5
1AF
330
1F
100
AcDbEntity
  8
1
100
AcDbSpline
210
0.0
220
0.0
230
1.0
 70
    12
 71
     2
 72
     6
 73
     3
 74
     0
 42
0.000000001
 43
0.0000000001
 40
0.0
 40
0.0
 40
0.0
 40
1.0
 40
1.0
 40
1.0
 10
378.8750791910964
 20
303.3466683975811
 30
0.0
 41
0.5000071859166524
 10
378.9872625981678
 20
303.3464884403405
 30
0.0
 41
0.4999928140833477
 10
379.099444712134
 20
303.3463079561437
 30
0.0
 41
0.5000071859166524
  0
SPLINE
  5
1B0
330
1F
100
AcDbEntity
  8
1
100
AcDbSpline
210
0.0
220
0.0
230
1.0
 70
     8
 71
     3
 72
   119
 73
   115
 74
     0
 42
0.000000001
 43
0.0000000001
 40
0.0
 40
0.0
 40
0.0
 40
0.0
 40
0.0156250000000007
 40
0.0156250000000007
 40
0.0312500000000014
 40
0.0468750000000021
 40
0.0468750000000021
 40
0.0625000000000028
 40
0.0625000000000028
 40
0.0781250000000035
 40
0.0781250000000035
 40
0.0937500000000042
 40
0.0937500000000042
 40
0.1093750000000049
 40
0.1093750000000049
 40
0.1250000000000056
 40
0.1250000000000056
 40
0.1562500000000068
 40
0.1562500000000068
 40
0.1718750000000075
 40
0.1718750000000075
 40
0.1875000000000081
 40
0.1875000000000081
 40
0.2031250000000088
 40
0.2031250000000088
 40
0.2187500000000095
 40
0.2187500000000095
 40
0.2343750000000101
 40
0.2343750000000101
 40
0.2500000000000108
 40
0.2656250000000114
 40
0.2656250000000114
 40
0.2812500000000121
 40
0.2812500000000121
 40
0.2968750000000127
 40
0.2968750000000127
 40
0.3125000000000134
 40
0.3125000000000134
 40
0.328125000000014
 40
0.328125000000014
 40
0.3437500000000147
 40
0.3437500000000147
 40
0.3750000000000156
 40
0.3750000000000156
 40
0.3906250000000163
 40
0.3906250000000163
 40
0.4062500000000171
 40
0.4062500000000171
 40
0.4218750000000177
 40
0.4218750000000177
 40
0.4375000000000184
 40
0.4375000000000184
 40
0.4453125000000184
 40
0.4453125000000184
 40
0.4531250000000184
 40
0.4531250000000184
 40
0.4687500000000179
 40
0.4687500000000179
 40
0.5000000000000174
 40
0.5000000000000174
 40
0.5156250000000173
 40
0.5156250000000173
 40
0.5234375000000171
 40
0.5234375000000171
 40
0.5312500000000171
 40
0.5312500000000171
 40
0.5625000000000161
 40
0.5625000000000161
 40
0.5781250000000156
 40
0.5781250000000156
 40
0.5937500000000151
 40
0.5937500000000151
 40
0.6093750000000146
 40
0.6093750000000146
 40
0.6250000000000141
 40
0.6250000000000141
 40
0.6406250000000135
 40
0.6406250000000135
 40
0.6562500000000129
 40
0.6718750000000125
 40
0.6718750000000125
 40
0.6875000000000119
 40
0.6875000000000119
 40
0.7031250000000114
 40
0.7031250000000114
 40
0.7187500000000108
 40
0.7187500000000108
 40
0.7343750000000103
 40
0.7343750000000103
 40
0.7500000000000098
 40
0.7500000000000098
 40
0.7812500000000087
 40
0.7812500000000087
 40
0.7968750000000082
 40
0.7968750000000082
 40
0.8125000000000076
 40
0.8125000000000076
 40
0.8281250000000071
 40
0.8281250000000071
 40
0.8437500000000065
 40
0.8437500000000065
 40
0.859375000000006
 40
0.859375000000006
 40
0.8750000000000055
 40
0.8906250000000051
 40
0.8906250000000051
 40
0.9062500000000042
 40
0.9062500000000042
 40
0.9218750000000035
 40
0.9218750000000035
 40
0.9375000000000028
 40
0.9375000000000028
 40
0.9687500000000012
 40
1.0
 40
1.0
 40
1.0
 40
1.0
 10
387.2428924057788
 20
284.1454935137006
 30
0.0
 10
387.2467333455417
 20
284.1826608640563
 30
0.0
 10
387.2504023794252
 20
284.2209245329465
 30
0.0
 10
387.2573414484699
 20
284.2990947794952
 30
0.0
 10
387.263879741962
 20
284.3788581387029
 30
0.0
 10
387.2696212657979
 20
284.4617887166141
 30
0.0
 10
387.2749609488302
 20
284.5463166416367
 30
0.0
 10
387.2774171777979
 20
284.589183205684
 30
0.0
 10
387.2818977413385
 20
284.6759528386922
 30
0.0
 10
387.2839236694168
 20
284.7198810824518
 30
0.0
 10
387.2875457279662
 20
284.8088271884044
 30
0.0
 10
387.2891419232299
 20
284.8538793934305
 30
0.0
 10
387.2918795143411
 20
284.9443814885859
 30
0.0
 10
387.2930247262156
 20
284.9899143049126
 30
0.0
 10
387.2948694858803
 20
285.0815415805751
 30
0.0
 10
387.2955697329971
 20
285.1277204973335
 30
0.0
 10
387.2969887165352
 20
285.2664481136295
 30
0.0
 10
387.2970309369307
 20
285.3589912495304
 30
0.0
 10
387.2957433519798
 20
285.4978927366051
 30
0.0
 10
387.2950893571868
 20
285.5440347406258
 30
0.0
 10
387.2933404932858
 20
285.6357387134362
 30
0.0
 10
387.2922452434838
 20
285.6813433794145
 30
0.0
 10
387.2896130305993
 20
285.772057983629
 30
0.0
 10
387.2880735345885
 20
285.817211638856
 30
0.0
 10
387.2845751605566
 20
285.9063664195878
 30
0.0
 10
387.2826145121201
 20
285.9504453667907
 30
0.0
 10
387.2782722982945
 20
286.03761110302
 30
0.0
 10
387.2758864352184
 20
286.0807664479123
 30
0.0
 10
387.2707109288328
 20
286.1657357013523
 30
0.0
 10
387.2651411767217
 20
286.2492368309848
 30
0.0
 10
387.2587902420201
 20
286.329828930324
 30
0.0
 10
387.2520467726464
 20
286.4089592776142
 30
0.0
 10
387.2484880836047
 20
286.4476767849525
 30
0.0
 10
387.2410266418405
 20
286.5231450610871
 30
0.0
 10
387.2371200285057
 20
286.5599416090825
 30
0.0
 10
387.228954782929
 20
286.6316582775902
 30
0.0
 10
387.2246902675124
 20
286.6666166308466
 30
0.0
 10
387.2158671009001
 20
286.734172636176
 30
0.0
 10
387.2113027826565
 20
286.7668261007127
 30
0.0
 10
387.2018697082115
 20
286.8298915512006
 30
0.0
 10
387.1969938137188
 20
286.8603444847074
 30
0.0
 10
387.1819551580452
 20
286.9480135170984
 30
0.0
 10
387.1714261222548
 20
287.0013334462133
 30
0.0
 10
387.1548779925017
 20
287.0736274803807
 30
0.0
 10
387.1492478106802
 20
287.096381764546
 30
0.0
 10
387.1378106881788
 20
287.1390156041815
 30
0.0
 10
387.131996343326
 20
287.1589280212525
 30
0.0
 10
387.1201755135851
 20
287.1959354503118
 30
0.0
 10
387.114160204601
 20
287.213048853503
 30
0.0
 10
387.1020166040407
 20
287.2442149641257
 30
0.0
 10
387.0958808964092
 20
287.2582957010174
 30
0.0
 10
387.0865815669309
 20
287.2771655148488
 30
0.0
 10
387.0834658150072
 20
287.2830799062613
 30
0.0
 10
387.0772022052473
 20
287.2941539511291
 30
0.0
 10
387.0740500548338
 20
287.299319816381
 30
0.0
 10
387.0645804787923
 20
287.3136238487654
 30
0.0
 10
387.058255312481
 20
287.3215673131865
 30
0.0
 10
387.039244258552
 20
287.3407241218492
 30
0.0
 10
387.0265229777683
 20
287.3472851533258
 30
0.0
 10
387.0073703048263
 20
287.3478266185943
 30
0.0
 10
387.0009742480195
 20
287.3464517655743
 30
0.0
 10
386.9913620491916
 20
287.3420085118728
 30
0.0
 10
386.9881549612583
 20
287.3401302406194
 30
0.0
 10
386.9817346467319
 20
287.3355667918899
 30
0.0
 10
386.9785228374288
 20
287.3328812043562
 30
0.0
 10
386.9625395939621
 20
287.3175022748398
 30
0.0
 10
386.9499227475763
 20
287.298937514548
 30
0.0
 10
386.9312547990847
 20
287.261598407587
 30
0.0
 10
386.9251016112008
 20
287.2476145661666
 30
0.0
 10
386.9129621532595
 20
287.2166539060766
 30
0.0
 10
386.9069711977799
 20
287.1996678122377
 30
0.0
 10
386.8951478597815
 20
287.1626644852706
 30
0.0
 10
386.8893090239481
 20
287.1426168307466
 30
0.0
 10
386.8778783948217
 20
287.099770268568
 30
0.0
 10
386.8722764142543
 20
287.0769437592117
 30
0.0
 10
386.8612992532202
 20
287.0284826482795
 30
0.0
 10
386.8559161557956
 20
287.0028066745742
 30
0.0
 10
386.845417503138
 20
286.9487985310163
 30
0.0
 10
386.8352098145053
 20
286.8922682055118
 30
0.0
 10
386.8255808903787
 20
286.8307209388568
 30
0.0
 10
386.8162439987545
 20
286.7666422283023
 30
0.0
 10
386.8117323870455
 20
286.7334034307855
 30
0.0
 10
386.8030684127818
 20
286.6648869435682
 30
0.0
 10
386.7989086973651
 20
286.6295596310688
 30
0.0
 10
386.7909348571199
 20
286.5567603699311
 30
0.0
 10
386.7871152535813
 20
286.5192227894159
 30
0.0
 10
386.779878224584
 20
286.4425298894815
 30
0.0
 10
386.7764550236787
 20
286.4033305792971
 30
0.0
 10
386.769998042962
 20
286.3232315050437
 30
0.0
 10
386.7669608991561
 20
286.2822816073172
 30
0.0
 10
386.7584628719909
 20
286.1571870852207
 30
0.0
 10
386.7536468579798
 20
286.0713539154268
 30
0.0
 10
386.7476920278506
 20
285.9389627435375
 30
0.0
 10
386.7459233251133
 20
285.8942892249345
 30
0.0
 10
386.7428365440903
 20
285.8044021930739
 30
0.0
 10
386.7415148919437
 20
285.7591121015384
 30
0.0
 10
386.7393148193032
 20
285.6678391503095
 30
0.0
 10
386.7384357322301
 20
285.6217741592166
 30
0.0
 10
386.7371339619389
 20
285.5295731772891
 30
0.0
 10
386.7367093480103
 20
285.4833924880627
 30
0.0
 10
386.7363098433391
 20
285.3908717123225
 30
0.0
 10
386.7363351916923
 20
285.3444910339589
 30
0.0
 10
386.7368383110735
 20
285.251743617504
 30
0.0
 10
386.7377910788093
 20
285.1593679148308
 30
0.0
 10
386.7396327592912
 20
285.0677270555416
 30
0.0
 10
386.7419201712747
 20
284.9764546720633
 30
0.0
 10
386.743286597932
 20
284.9310475482779
 30
0.0
 10
386.7464438042179
 20
284.8412727710744
 30
0.0
 10
386.7482364800364
 20
284.7968229986191
 30
0.0
 10
386.7522490425583
 20
284.7087967757287
 30
0.0
 10
386.754476049598
 20
284.6651054566617
 30
0.0
 10
386.7617338635321
 20
284.5365624594158
 30
0.0
 10
386.7729496035035
 20
284.3715155192656
 30
0.0
 10
386.7871419509663
 20
284.218740840477
 30
0.0
 10
386.794999727215
 20
284.1454935137223
 30
0.0
  0
SPLINE
  5
1B1
330
1F
100
AcDbEntity
  8
1
100
AcDbSpline
210
0.0
220
0.0
230
1.0
 70
     8
 71
     3
 72
    23
 73
    19
 74
     0
 42
0.000000001
 43
0.0000000001
 40
0.0
 40
0.0
 40
0.0
 40
0.0
 40
0.1250000000000013
 40
0.2500000000000026
 40
0.2500000000000026
 40
0.3750000000000039
 40
0.3750000000000039
 40
0.5000000000000053
 40
0.5000000000000053
 40
0.5312500000000047
 40
0.5312500000000047
 40
0.5625000000000041
 40
0.6250000000000031
 40
0.6250000000000031
 40
0.7500000000000022
 40
0.875000000000001
 40
0.875000000000001
 40
1.0
 40
1.0
 40
1.0
 40
1.0
 10
279.4048419452957
 20
280.9685768798096
 30
0.0
 10
279.2491218305999
 20
280.8341842298214
 30
0.0
 10
278.9510675811055
 20
280.5570531928337
 30
0.0
 10
278.6790508004254
 20
280.264306044863
 30
0.0
 10
278.4199444307664
 20
279.9641177963108
 30
0.0
 10
278.2968462389385
 20
279.8103028859132
 30
0.0
 10
278.06370506744
 20
279.4954415779547
 30
0.0
 10
277.9536609690833
 20
279.3343954650936
 30
0.0
 10
277.824525683626
 20
279.1286011082467
 30
0.0
 10
277.7990973075077
 20
279.0871776709086
 30
0.0
 10
277.7493029140643
 20
279.0042351008826
 30
0.0
 10
277.6761425188818
 20
278.8795829178434
 30
0.0
 10
277.6075374436525
 20
278.7542439898878
 30
0.0
 10
277.4763286078557
 20
278.5027167861578
 30
0.0
 10
277.3173673699315
 20
278.1650876279839
 30
0.0
 10
277.1900872401272
 20
277.823506326974
 30
0.0
 10
277.0788218814155
 20
277.480148768372
 30
0.0
 10
277.0311954008108
 20
277.3075819877208
 30
0.0
 10
276.9918326342894
 20
277.1341880249824
 30
0.0
  0
SPLINE
  5
1B2
330
1F
100
AcDbEntity
  8
1
100
AcDbSpline
210
0.0
220
0.0
230
1.0
 70
    28
 71
     3
 72
     8
 73
     4
 74
     0
 42
0.000000001
 43
0.0000000001
 40
0.0
 40
0.0
 40
0.0
 40
0.0
 40
1.0
 40
1.0
 40
1.0
 40
1.0
 10
297.9048419452957
 20
284.0177870913189
 30
0.0
 41
1.0
 10
297.9048419452957
 20
284.1296578818086
 30
0.0
 41
0.9932878667457952
 10
297.9048419452957
 20
284.2402198819214
 30
0.0
 41
0.9868064629687259
 10
297.9048419452957
 20
284.3493690913189
 30
0.0
 41
0.9805557886687916
  0
SPLINE
  5
1B3
330
1F
100
AcDbEntity
  8
1
100
AcDbSpline
210
0.0
220
0.0
230
1.0
 70
     8
 71
     3
 72
    30
 73
    26
 74
     0
 42
0.000000001
 43
0.0000000001
 40
0.0
 40
0.0
 40
0.0
 40
0.0
 40
0.1249999999999983
 40
0.1249999999999983
 40
0.2499999999999965
 40
0.2499999999999965
 40
0.3749999999999948
 40
0.3749999999999948
 40
0.4374999999999937
 40
0.4374999999999937
 40
0.4687499999999931
 40
0.4843749999999931
 40
0.4843749999999931
 40
0.4999999999999931
 40
0.4999999999999931
 40
0.6249999999999946
 40
0.6249999999999946
 40
0.749999999999996
 40
0.749999999999996
 40
0.8749999999999975
 40
0.8749999999999975
 40
0.906249999999998
 40
0.906249999999998
 40
0.9374999999999987
 40
1.0
 40
1.0
 40
1.0
 40
1.0
 10
281.8043368819074
 20
283.5199434803174
 30
0.0
 10
282.0298596274393
 20
283.7093219629627
 30
0.0
 10
282.2633994457024
 20
283.8880544499539
 30
0.0
 10
282.7469949351302
 20
284.2245291264756
 30
0.0
 10
282.9970482368963
 20
284.3822730603929
 30
0.0
 10
283.514523139393
 20
284.6764445647563
 30
0.0
 10
283.781940685865
 20
284.8128772002821
 30
0.0
 10
284.1970828924086
 20
285.0007506381476
 30
0.0
 10
284.3378036293666
 20
285.0605730710291
 30
0.0
 10
284.5525612315604
 20
285.14594056805
 30
0.0
 10
284.6608596425818
 20
285.1875320463262
 30
0.0
 10
284.7705734480861
 20
285.2274473522663
 30
0.0
 10
284.8440348758381
 20
285.2536803308977
 30
0.0
 10
284.8809174268388
 20
285.2666051140591
 30
0.0
 10
285.2134215851137
 20
285.3809104573893
 30
0.0
 10
285.5144972445637
 20
285.4687595379004
 30
0.0
 10
286.1279852689007
 20
285.6161773108518
 30
0.0
 10
286.4403978863546
 20
285.6757503459082
 30
0.0
 10
287.0770536481728
 20
285.764822099734
 30
0.0
 10
287.4012972676805
 20
285.7943283741592
 30
0.0
 10
287.8144168906806
 20
285.8105400597327
 30
0.0
 10
287.8974762944243
 20
285.8127439746123
 30
0.0
 10
288.0637048336316
 20
285.8150165339766
 30
0.0
 10
288.313446702891
 20
285.8152344785122
 30
0.0
 10
288.5643635432178
 20
285.8057729672196
 30
0.0
 10
288.7321401331068
 20
285.7950422556534
 30
0.0
  0
SPLINE
  5
1B4
330
1F
100
AcDbEntity
  8
1
100
AcDbSpline
210
0.0
220
0.0
230
1.0
 70
     8
 71
     3
 72
    14
 73
    10
 74
     0
 42
0.000000001
 43
0.0000000001
 40
0.0
 40
0.0
 40
0.0
 40
0.0
 40
0.25
 40
0.25
 40
0.5
 40
0.5
 40
0.75
 40
0.75
 40
1.0
 40
1.0
 40
1.0
 40
1.0
 10
281.8043368819074
 20
283.5199434803174
 30
0.0
 10
281.590894327053
 20
283.3407091105204
 30
0.0
 10
281.3806011568188
 20
283.1541728532871
 30
0.0
 10
280.966621447018
 20
282.7651162189399
 30
0.0
 10
280.7629332759014
 20
282.5626014508344
 30
0.0
 10
280.3624993106956
 20
282.1399384739486
 30
0.0
 10
280.1657510700452
 20
281.919799368813
 30
0.0
 10
279.779622402784
 20
281.4597488434387
 30
0.0
 10
279.5902378490271
 20
281.2198536696989
 30
0.0
 10
279.4048419452957
 20
280.9685768798097
 30
0.0
  0
SPLINE
  5
1B5
330
1F
100
AcDbEntity
  8
1
100
AcDbSpline
210
0.0
220
0.0
230
1.0
 70
     8
 71
     3
 72
     8
 73
     4
 74
     0
 42
0.000000001
 43
0.0000000001
 40
0.0
 40
0.0
 40
0.0
 40
0.0
 40
1.0
 40
1.0
 40
1.0
 40
1.0
 10
383.2502232427652
 20
299.6976887730174
 30
0.0
 10
383.2476726720208
 20
299.6891205364907
 30
0.0
 10
383.2449167724675
 20
299.6806290477906
 30
0.0
 10
383.2419542731488
 20
299.6722138960097
 30
0.0
  0
SPLINE
  5
1B6
330
1F
100
AcDbEntity
  8
1
100
AcDbSpline
210
0.0
220
0.0
230
1.0
 70
     8
 71
     3
 72
     8
 73
     4
 74
     0
 42
0.000000001
 43
0.0000000001
 40
0.0
 40
0.0
 40
0.0
 40
0.0
 40
1.0
 40
1.0
 40
1.0
 40
1.0
 10
380.4952498521883
 20
292.3350402355827
 30
0.0
 10
380.2911416823278
 20
292.3337732441353
 30
0.0
 10
380.0859958737667
 20
292.334847574922
 30
0.0
 10
379.8798419452958
 20
292.3384988844921
 30
0.0
  0
SPLINE
  5
1B7
330
1F
100
AcDbEntity
  8
1
100
AcDbSpline
210
0.0
220
0.0
230
1.0
 70
     8
 71
     3
 72
    54
 73
    50
 74
     0
 42
0.000000001
 43
0.0000000001
 40
0.0
 40
0.0
 40
0.0
 40
0.0
 40
0.0312499999999974
 40
0.0312499999999974
 40
0.0624999999999948
 40
0.0624999999999948
 40
0.1249999999999908
 40
0.1249999999999908
 40
0.1562499999999886
 40
0.1562499999999886
 40
0.1874999999999864
 40
0.1874999999999864
 40
0.2499999999999839
 40
0.2499999999999839
 40
0.2812499999999829
 40
0.2812499999999829
 40
0.3124999999999819
 40
0.3124999999999819
 40
0.3749999999999813
 40
0.3749999999999813
 40
0.406249999999981
 40
0.406249999999981
 40
0.4374999999999807
 40
0.4374999999999807
 40
0.49999999999998
 40
0.49999999999998
 40
0.5624999999999793
 40
0.5624999999999793
 40
0.5937499999999805
 40
0.5937499999999805
 40
0.6249999999999816
 40
0.6562499999999828
 40
0.6562499999999828
 40
0.6874999999999841
 40
0.6874999999999841
 40
0.7499999999999883
 40
0.7499999999999883
 40
0.7812499999999906
 40
0.7812499999999906
 40
0.8124999999999927
 40
0.843749999999995
 40
0.843749999999995
 40
0.8749999999999973
 40
0.8749999999999973
 40
0.9374999999999989
 40
0.9374999999999989
 40
0.9687499999999994
 40
0.9687499999999994
 40
1.0
 40
1.0
 40
1.0
 40
1.0
 10
386.7949997272173
 20
284.1454935137224
 30
0.0
 10
386.7950795792375
 20
284.1148945827334
 30
0.0
 10
386.795354213451
 20
284.0849695447531
 30
0.0
 10
386.7962944816026
 20
284.0264722206859
 30
0.0
 10
386.7969609986105
 20
283.9979000114715
 30
0.0
 10
386.7995340637047
 20
283.9147513998934
 30
0.0
 10
386.8020143251084
 20
283.862545850936
 30
0.0
 10
386.8068832459893
 20
283.789082885586
 30
0.0
 10
386.8086952406887
 20
283.7654575961643
 30
0.0
 10
386.8126806797422
 20
283.7200950760012
 30
0.0
 10
386.8148559352349
 20
283.6983297255674
 30
0.0
 10
386.8219279965442
 20
283.6357748146431
 30
0.0
 10
386.8273862742173
 20
283.5976604498404
 30
0.0
 10
386.8365723215554
 20
283.5466447410222
 30
0.0
 10
386.8398033493266
 20
283.5306380595181
 30
0.0
 10
386.8466033882502
 20
283.5006215661601
 30
0.0
 10
386.850177582451
 20
283.4865943911339
 30
0.0
 10
386.8613738960752
 20
283.4476670111188
 30
0.0
 10
386.8694460310966
 20
283.4259673059554
 30
0.0
 10
386.8824600052958
 20
283.3997527860218
 30
0.0
 10
386.8869548136371
 20
283.3920659387021
 30
0.0
 10
386.8962215883279
 20
283.37887276407
 30
0.0
 10
386.9009906215467
 20
283.3733669762837
 30
0.0
 10
386.9157045993056
 20
283.3601215328983
 30
0.0
 10
386.9260444067884
 20
283.3556772228949
 30
0.0
 10
386.9476256187986
 20
283.3556165735957
 30
0.0
 10
386.95883086479
 20
283.3599778933593
 30
0.0
 10
386.9762587524903
 20
283.373086778775
 30
0.0
 10
386.9821812801056
 20
283.3785651863632
 30
0.0
 10
386.9941787407802
 20
283.391679036686
 30
0.0
 10
387.0063278188878
 20
283.4069406921561
 30
0.0
 10
387.0187786185575
 20
283.4264765205316
 30
0.0
 10
387.0313810358171
 20
283.4481601562743
 30
0.0
 10
387.0377675893409
 20
283.4600967103834
 30
0.0
 10
387.0570496522134
 20
283.4989485499761
 30
0.0
 10
387.0700863102492
 20
283.5289171114593
 30
0.0
 10
387.0899150371172
 20
283.5799891891351
 30
0.0
 10
387.0965771733538
 20
283.5980575465292
 30
0.0
 10
387.1099114910283
 20
283.6360271432452
 30
0.0
 10
387.1232737617217
 20
283.6758720427726
 30
0.0
 10
387.1366918205288
 20
283.7194596367051
 30
0.0
 10
387.1501379967909
 20
283.7649335650887
 30
0.0
 10
387.1568756330564
 20
283.7886192458843
 30
0.0
 10
387.1770010276964
 20
283.8620587563622
 30
0.0
 10
387.1903448892093
 20
283.9143295385889
 30
0.0
 10
387.2102501222803
 20
283.9977457337084
 30
0.0
 10
387.2168564613713
 20
284.0263480977294
 30
0.0
 10
387.2299500805987
 20
284.0848734162199
 30
0.0
 10
387.2364464692324
 20
284.11483419156
 30
0.0
 10
387.2428924057786
 20
284.1454935137006
 30
0.0
  0
SPLINE
  5
1B8
330
1F
100
AcDbEntity
  8
1
100
AcDbSpline
210
0.0
220
0.0
230
1.0
 70
     8
 71
     3
 72
    22
 73
    18
 74
     0
 42
0.000000001
 43
0.0000000001
 40
0.0
 40
0.0
 40
0.0
 40
0.0
 40
0.125
 40
0.125
 40
0.25
 40
0.25
 40
0.375
 40
0.375
 40
0.5
 40
0.5
 40
0.625
 40
0.625
 40
0.75
 40
0.75
 40
0.875
 40
0.875
 40
1.0
 40
1.0
 40
1.0
 40
1.0
 10
383.3102321893413
 20
297.7805467624778
 30
0.0
 10
383.3075635951448
 20
297.7754910820139
 30
0.0
 10
383.3044839352395
 20
297.7706764278703
 30
0.0
 10
383.2976340206511
 20
297.7616812297333
 30
0.0
 10
383.2938516229317
 20
297.7574757436767
 30
0.0
 10
383.2855517455095
 20
297.7496667062143
 30
0.0
 10
383.2810285041026
 20
297.7460726172343
 30
0.0
 10
383.2715369896274
 20
297.739755161568
 30
0.0
 10
383.2665338499822
 20
297.7369953348098
 30
0.0
 10
383.2559913331016
 20
297.7323097388774
 30
0.0
 10
383.2504693246059
 20
297.7304032309557
 30
0.0
 10
383.2392698378921
 20
297.727593734335
 30
0.0
 10
383.2335464648015
 20
297.7266680438353
 30
0.0
 10
383.2218393747909
 20
297.7258311998125
 30
0.0
 10
383.2159447093303
 20
297.7259338284408
 30
0.0
 10
383.2043208041562
 20
297.7271709961481
 30
0.0
 10
383.1985532061621
 20
297.728301936417
 30
0.0
 10
383.1928331633182
 20
297.7299785486309
 30
0.0
  0
SPLINE
  5
1B9
330
1F
100
AcDbEntity
  8
1
100
AcDbSpline
210
0.0
220
0.0
230
1.0
 70
     8
 71
     3
 72
    20
 73
    16
 74
     0
 42
0.000000001
 43
0.0000000001
 40
0.0
 40
0.0
 40
0.0
 40
0.0
 40
0.1249999999999878
 40
0.1249999999999878
 40
0.2499999999999757
 40
0.2499999999999757
 40
0.3749999999999635
 40
0.3749999999999635
 40
0.4999999999999514
 40
0.4999999999999514
 40
0.6249999999999389
 40
0.6249999999999389
 40
0.7499999999999268
 40
0.7499999999999268
 40
1.0
 40
1.0
 40
1.0
 40
1.0
 10
383.9759530366625
 20
297.5494107311746
 30
0.0
 10
383.9700764055995
 20
297.5504076172719
 30
0.0
 10
383.9643905520707
 20
297.5519180044161
 30
0.0
 10
383.9533803096742
 20
297.5559098776574
 30
0.0
 10
383.9480062985184
 20
297.5584233987953
 30
0.0
 10
383.9379094264699
 20
297.564287508528
 30
0.0
 10
383.9331949990799
 20
297.5676182773952
 30
0.0
 10
383.9244016919957
 20
297.5750363009823
 30
0.0
 10
383.9202903975289
 20
297.579164856556
 30
0.0
 10
383.9128931955314
 20
297.5880006661275
 30
0.0
 10
383.9096266657625
 20
297.5926684217167
 30
0.0
 10
383.9039133180663
 20
297.6024760990132
 30
0.0
 10
383.9014571443462
 20
297.6076421129822
 30
0.0
 10
383.8954213388253
 20
297.6236995073893
 30
0.0
 10
383.8932552488765
 20
297.6347678095022
 30
0.0
 10
383.8929246067461
 20
297.6461924935598
 30
0.0
  0
SPLINE
  5
1BA
330
1F
100
AcDbEntity
  8
1
100
AcDbSpline
210
0.0
220
0.0
230
1.0
 70
     8
 71
     3
 72
    14
 73
    10
 74
     0
 42
0.000000001
 43
0.0000000001
 40
0.0
 40
0.0
 40
0.0
 40
0.0
 40
0.25
 40
0.25
 40
0.5
 40
0.5
 40
0.75
 40
0.75
 40
1.0
 40
1.0
 40
1.0
 40
1.0
 10
383.3102321893417
 20
297.7805467624788
 30
0.0
 10
383.313570626578
 20
297.7868714678006
 30
0.0
 10
383.3175635371127
 20
297.7928403881551
 30
0.0
 10
383.3266634916487
 20
297.8037985349656
 30
0.0
 10
383.3317285834192
 20
297.8087551820213
 30
0.0
 10
383.342902153246
 20
297.8176137597603
 30
0.0
 10
383.3490507372788
 20
297.821516363021
 30
0.0
 10
383.3618994478212
 20
297.8278600140491
 30
0.0
 10
383.3686569582376
 20
297.8303581378123
 30
0.0
 10
383.3757785873401
 20
297.8321245744629
 30
0.0
  0
SPLINE
  5
1BB
330
1F
100
AcDbEntity
  8
1
100
AcDbSpline
210
0.0
220
0.0
230
1.0
 70
     8
 71
     3
 72
    14
 73
    10
 74
     0
 42
0.000000001
 43
0.0000000001
 40
0.0
 40
0.0
 40
0.0
 40
0.0
 40
0.25
 40
0.25
 40
0.5
 40
0.5
 40
0.75
 40
0.75
 40
1.0
 40
1.0
 40
1.0
 40
1.0
 10
383.8568530427335
 20
297.7212008609916
 30
0.0
 10
383.8624693586454
 20
297.7164945655132
 30
0.0
 10
383.8675325485462
 20
297.7111819449389
 30
0.0
 10
383.8762743113964
 20
297.6998073217018
 30
0.0
 10
383.8799788643446
 20
297.6937419641584
 30
0.0
 10
383.8860993156126
 20
297.6808760250255
 30
0.0
 10
383.8884919024676
 20
297.6740723425889
 30
0.0
 10
383.8917809528292
 20
297.6603404326338
 30
0.0
 10
383.8927178258713
 20
297.6533373972083
 30
0.0
 10
383.8929246067461
 20
297.6461924935598
 30
0.0
  0
SPLINE
  5
1BC
330
1F
100
AcDbEntity
  8
1
100
AcDbSpline
210
0.0
220
0.0
230
1.0
 70
     8
 71
     3
 72
    21
 73
    17
 74
     0
 42
0.000000001
 43
0.0000000001
 40
0.0
 40
0.0
 40
0.0
 40
0.0
 40
0.2500000000001825
 40
0.2500000000001825
 40
0.3125000000001718
 40
0.3125000000001718
 40
0.375000000000161
 40
0.375000000000161
 40
0.5000000000001396
 40
0.6250000000001182
 40
0.6250000000001182
 40
0.6875000000001074
 40
0.6875000000001074
 40
0.7500000000000967
 40
0.7500000000000967
 40
1.0
 40
1.0
 40
1.0
 40
1.0
 10
383.1928331633182
 20
297.7299785486309
 30
0.0
 10
383.1516887189469
 20
297.7420384719307
 30
0.0
 10
383.1124989176972
 20
297.7586698890719
 30
0.0
 10
383.0659584114444
 20
297.7851681034986
 30
0.0
 10
383.0567558307463
 20
297.7907704235973
 30
0.0
 10
383.0388061146621
 20
297.8024297732651
 30
0.0
 10
383.0300361581273
 20
297.8084982793001
 30
0.0
 10
383.0043298228331
 20
297.8274072246485
 30
0.0
 10
382.9716602482557
 20
297.8544904169898
 30
0.0
 10
382.9421800497367
 20
297.8852906494045
 30
0.0
 10
382.9213058668575
 20
297.909831349796
 30
0.0
 10
382.9145697888121
 20
297.9182377929774
 30
0.0
 10
382.9016853233123
 20
297.9353102850328
 30
0.0
 10
382.8955147063348
 20
297.9440019035403
 30
0.0
 10
382.8659953068458
 20
297.9882228224261
 30
0.0
 10
382.8465950709818
 20
298.0260106721307
 30
0.0
 10
382.8315240808445
 20
298.0662729967722
 30
0.0
  0
SPLINE
  5
1BD
330
1F
100
AcDbEntity
  8
1
100
AcDbSpline
210
0.0
220
0.0
230
1.0
 70
     8
 71
     3
 72
    21
 73
    17
 74
     0
 42
0.000000001
 43
0.0000000001
 40
0.0
 40
0.0
 40
0.0
 40
0.0
 40
0.2500000000001398
 40
0.2500000000001398
 40
0.3125000000001747
 40
0.3125000000001747
 40
0.3750000000002097
 40
0.3750000000002097
 40
0.5000000000001999
 40
0.6250000000001901
 40
0.6250000000001901
 40
0.6875000000001457
 40
0.6875000000001457
 40
0.7500000000001014
 40
0.7500000000001014
 40
1.0
 40
1.0
 40
1.0
 40
1.0
 10
383.3757785873401
 20
297.8321245744629
 30
0.0
 10
383.4170998181658
 20
297.8423738215843
 30
0.0
 10
383.4590761606825
 20
297.847799775766
 30
0.0
 10
383.512454068195
 20
297.8484069038207
 30
0.0
 10
383.5231755393812
 20
297.8482155299417
 30
0.0
 10
383.5447146214306
 20
297.8471864276191
 30
0.0
 10
383.5555580836344
 20
297.8463436908484
 30
0.0
 10
383.5877514142696
 20
297.8428688522055
 30
0.0
 10
383.6300678858473
 20
297.8357164255175
 30
0.0
 10
383.6711948441782
 20
297.8236366448596
 30
0.0
 10
383.701586483392
 20
297.812697263825
 30
0.0
 10
383.7116769505653
 20
297.8087209433216
 30
0.0
 10
383.7315147180682
 20
297.800208128157
 30
0.0
 10
383.7412443317749
 20
297.7956823423582
 30
0.0
 10
383.7889808480156
 20
297.77175002959
 30
0.0
 10
383.8242896921863
 20
297.748487921023
 30
0.0
 10
383.8568530427335
 20
297.7212008609916
 30
0.0
  0
SPLINE
  5
1BE
330
1F
100
AcDbEntity
  8
1
100
AcDbSpline
210
0.0
220
0.0
230
1.0
 70
     8
 71
     3
 72
    10
 73
     6
 74
     0
 42
0.000000001
 43
0.0000000001
 40
0.0
 40
0.0
 40
0.0
 40
0.0
 40
0.6031892670795387
 40
0.6031892670795387
 40
1.0
 40
1.0
 40
1.0
 40
1.0
 10
382.8315240808445
 20
298.0662729967722
 30
0.0
 10
382.8294263703463
 20
298.071877054655
 30
0.0
 10
382.827863792354
 20
298.0775790510218
 30
0.0
 10
382.8261124296201
 20
298.087185346187
 30
0.0
 10
382.825637637555
 20
298.091062998823
 30
0.0
 10
382.8253866191247
 20
298.0949435626995
 30
0.0
  0
SPLINE
  5
1BF
330
1F
100
AcDbEntity
  8
1
100
AcDbSpline
210
0.0
220
0.0
230
1.0
 70
     8
 71
     3
 72
    21
 73
    17
 74
     0
 42
0.000000001
 43
0.0000000001
 40
0.0
 40
0.0
 40
0.0
 40
0.0
 40
0.2500000000000098
 40
0.2500000000000098
 40
0.3124999999999909
 40
0.3124999999999909
 40
0.3749999999999721
 40
0.3749999999999721
 40
0.500000000000009
 40
0.6250000000000461
 40
0.6250000000000461
 40
0.6875000000000654
 40
0.6875000000000654
 40
0.7500000000000849
 40
0.7500000000000849
 40
1.0
 40
1.0
 40
1.0
 40
1.0
 10
384.4478893531538
 20
297.6935796718196
 30
0.0
 10
384.4166836482575
 20
297.6639857088314
 30
0.0
 10
384.3825440101732
 20
297.6383819683979
 30
0.0
 10
384.3362047524344
 20
297.6113644959373
 30
0.0
 10
384.3267303089634
 20
297.6062044188952
 30
0.0
 10
384.3076214058342
 20
297.5965072164097
 30
0.0
 10
384.2979655682673
 20
297.5919561019606
 30
0.0
 10
384.2686994076703
 20
297.5791789624261
 30
0.0
 10
384.2288833837766
 20
297.5644736699134
 30
0.0
 10
384.187489084358
 20
297.5543984634768
 30
0.0
 10
384.155831774347
 20
297.548636374108
 30
0.0
 10
384.1451972897985
 20
297.547021592103
 30
0.0
 10
384.1240030585479
 20
297.5444316315472
 30
0.0
 10
384.1134100553304
 20
297.5434500264053
 30
0.0
 10
384.0604654393491
 20
297.5400807082337
 30
0.0
 10
384.0181739611064
 20
297.5422485574488
 30
0.0
 10
383.9759530366625
 20
297.5494107311746
 30
0.0
  0
SPLINE
  5
1C0
330
1F
100
AcDbEntity
  8
1
100
AcDbSpline
210
0.0
220
0.0
230
1.0
 70
     8
 71
     3
 72
     8
 73
     4
 74
     0
 42
0.000000001
 43
0.0000000001
 40
0.0
 40
0.0
 40
0.0
 40
0.0
 40
1.0
 40
1.0
 40
1.0
 40
1.0
 10
382.9186436198164
 20
298.2576105616319
 30
0.0
 10
382.9176631051366
 20
298.2517146823301
 30
0.0
 10
382.9161606686993
 20
298.2459280180733
 30
0.0
 10
382.9142045590036
 20
298.2403785609052
 30
0.0
  0
SPLINE
  5
1C1
330
1F
100
AcDbEntity
  8
1
100
AcDbSpline
210
0.0
220
0.0
230
1.0
 70
     8
 71
     3
 72
    21
 73
    17
 74
     0
 42
0.000000001
 43
0.0000000001
 40
0.0
 40
0.0
 40
0.0
 40
0.0
 40
0.2500000000000883
 40
0.2500000000000883
 40
0.3125000000000777
 40
0.3125000000000777
 40
0.3750000000000672
 40
0.3750000000000672
 40
0.5000000000000461
 40
0.625000000000025
 40
0.625000000000025
 40
0.6875000000000215
 40
0.6875000000000215
 40
0.7500000000000182
 40
0.7500000000000182
 40
1.0
 40
1.0
 40
1.0
 40
1.0
 10
382.7739123871292
 20
298.7291659186447
 30
0.0
 10
382.8031548381688
 20
298.6989264473881
 30
0.0
 10
382.828610646055
 20
298.6656339482631
 30
0.0
 10
382.8556336258337
 20
298.6200308636418
 30
0.0
 10
382.8607951923183
 20
298.6107083575289
 30
0.0
 10
382.8706171243393
 20
298.5916446679424
 30
0.0
 10
382.8752861511354
 20
298.5818784908442
 30
0.0
 10
382.8883223541886
 20
298.5523771271276
 30
0.0
 10
382.9032634775405
 20
298.512254152633
 30
0.0
 10
382.9134327968002
 20
298.4705888188003
 30
0.0
 10
382.9192391595336
 20
298.4387520919835
 30
0.0
 10
382.9208746989401
 20
298.4280027819418
 30
0.0
 10
382.9234996798752
 20
298.4065075307305
 30
0.0
 10
382.9244893770582
 20
298.3957827287554
 30
0.0
 10
382.9278773690206
 20
298.3422664269973
 30
0.0
 10
382.9256590313216
 20
298.2997945496334
 30
0.0
 10
382.9186436198163
 20
298.2576105616319
 30
0.0
  0
SPLINE
  5
1C2
330
1F
100
AcDbEntity
  8
1
100
AcDbSpline
210
0.0
220
0.0
230
1.0
 70
     8
 71
     3
 72
    14
 73
    10
 74
     0
 42
0.000000001
 43
0.0000000001
 40
0.0
 40
0.0
 40
0.0
 40
0.0
 40
0.2499999999999999
 40
0.2499999999999999
 40
0.4999999999999998
 40
0.4999999999999998
 40
0.7499999999999999
 40
0.7499999999999999
 40
1.0
 40
1.0
 40
1.0
 40
1.0
 10
382.6973003422247
 20
298.75903969759
 30
0.0
 10
382.704367523818
 20
298.7594111701548
 30
0.0
 10
382.7114547497076
 20
298.7590387595328
 30
0.0
 10
382.7253407648274
 20
298.7568361511782
 30
0.0
 10
382.7320918239808
 20
298.7550252371258
 30
0.0
 10
382.7452083383967
 20
298.7499671368496
 30
0.0
 10
382.7515935499136
 20
298.7466861608909
 30
0.0
 10
382.7633867822063
 20
298.7389016493185
 30
0.0
 10
382.7688722109258
 20
298.7343779394573
 30
0.0
 10
382.7739123871292
 20
298.7291659186447
 30
0.0
  0
SPLINE
  5
1C3
330
1F
100
AcDbEntity
  8
1
100
AcDbSpline
210
0.0
220
0.0
230
1.0
 70
     8
 71
     3
 72
    22
 73
    18
 74
     0
 42
0.000000001
 43
0.0000000001
 40
0.0
 40
0.0
 40
0.0
 40
0.0
 40
0.125
 40
0.125
 40
0.25
 40
0.25
 40
0.375
 40
0.375
 40
0.5
 40
0.5
 40
0.625
 40
0.625
 40
0.75
 40
0.75
 40
0.875
 40
0.875
 40
1.0
 40
1.0
 40
1.0
 40
1.0
 10
382.6973003422247
 20
298.75903969759
 30
0.0
 10
382.6916509521192
 20
298.7587427484592
 30
0.0
 10
382.6860041122537
 20
298.758922031124
 30
0.0
 10
382.6749118702378
 20
298.7601979689086
 30
0.0
 10
382.6694390031704
 20
298.7612922654383
 30
0.0
 10
382.6586450457221
 20
298.7644197025263
 30
0.0
 10
382.6533288881448
 20
298.7664627413762
 30
0.0
 10
382.6432222576141
 20
298.771376114575
 30
0.0
 10
382.6383832932062
 20
298.7742577041622
 30
0.0
 10
382.6291546779407
 20
298.7809073245281
 30
0.0
 10
382.6247898095918
 20
298.784670555913
 30
0.0
 10
382.6168432886206
 20
298.7928430849599
 30
0.0
 10
382.6132194184642
 20
298.7972801851935
 30
0.0
 10
382.6067125092176
 20
298.8068957583021
 30
0.0
 10
382.6038850450398
 20
298.8120053680209
 30
0.0
 10
382.5991968802094
 20
298.8226090098996
 30
0.0
 10
382.5973139986577
 20
298.8281342837593
 30
0.0
 10
382.5959224949772
 20
298.8338971499956
 30
0.0
  0
SPLINE
  5
1C4
330
1F
100
AcDbEntity
  8
1
100
AcDbSpline
210
0.0
220
0.0
230
1.0
 70
     8
 71
     3
 72
    21
 73
    17
 74
     0
 42
0.000000001
 43
0.0000000001
 40
0.0
 40
0.0
 40
0.0
 40
0.0
 40
0.2075682197308908
 40
0.2075682197308908
 40
0.2736042014200032
 40
0.2736042014200032
 40
0.3396401831091158
 40
0.3396401831091158
 40
0.4717121464873494
 40
0.6037841098655831
 40
0.6037841098655831
 40
0.669820091554664
 40
0.669820091554664
 40
0.7358560732437454
 40
0.7358560732437454
 40
1.0
 40
1.0
 40
1.0
 40
1.0
 10
384.4624347885364
 20
297.9296768390251
 30
0.0
 10
384.4735488757379
 20
297.9612457634178
 30
0.0
 10
384.4873994377824
 20
297.9916612402117
 30
0.0
 10
384.5093364722004
 20
298.0302318208575
 30
0.0
 10
384.5149173582193
 20
298.0394226555684
 30
0.0
 10
384.5266708037348
 20
298.0575607155206
 30
0.0
 10
384.5328606917608
 20
298.0665278834901
 30
0.0
 10
384.5520548767505
 20
298.0926586685129
 30
0.0
 10
384.5794548884981
 20
298.1256985633019
 30
0.0
 10
384.6103878928309
 20
298.1552149413574
 30
0.0
 10
384.6349362923535
 20
298.1760085095636
 30
0.0
 10
384.6433757492893
 20
298.1827380989011
 30
0.0
 10
384.6605521990641
 20
298.1956169448517
 30
0.0
 10
384.6692711010309
 20
298.2017561719786
 30
0.0
 10
384.7135012103978
 20
298.2310037102718
 30
0.0
 10
384.7508913737024
 20
298.2498254415512
 30
0.0
 10
384.7902988658931
 20
298.2642377281953
 30
0.0
  0
SPLINE
  5
1C5
330
1F
100
AcDbEntity
  8
1
100
AcDbSpline
210
0.0
220
0.0
230
1.0
 70
     8
 71
     3
 72
    14
 73
    10
 74
     0
 42
0.000000001
 43
0.0000000001
 40
0.0
 40
0.0
 40
0.0
 40
0.0
 40
0.25
 40
0.25
 40
0.5
 40
0.5
 40
0.75
 40
0.75
 40
1.0
 40
1.0
 40
1.0
 40
1.0
 10
384.7902988658931
 20
298.2642377281953
 30
0.0
 10
384.7970955475797
 20
298.2667234414251
 30
0.0
 10
384.8041299089318
 20
298.268424832165
 30
0.0
 10
384.8181416125343
 20
298.2702518442345
 30
0.0
 10
384.8251358485521
 20
298.2703984365306
 30
0.0
 10
384.839106039834
 20
298.2692058558737
 30
0.0
 10
384.8460712641835
 20
298.2678452325651
 30
0.0
 10
384.8593624116551
 20
298.2637670402194
 30
0.0
 10
384.8657718607139
 20
298.2610466102786
 30
0.0
 10
384.8719380491629
 20
298.2576227397706
 30
0.0
  0
SPLINE
  5
1C6
330
1F
100
AcDbEntity
  8
1
100
AcDbSpline
210
0.0
220
0.0
230
1.0
 70
     8
 71
     3
 72
    20
 73
    16
 74
     0
 42
0.000000001
 43
0.0000000001
 40
0.0
 40
0.0
 40
0.0
 40
0.0
 40
0.1250000000000008
 40
0.1250000000000008
 40
0.2500000000000016
 40
0.2500000000000016
 40
0.3750000000000022
 40
0.3750000000000022
 40
0.5000000000000031
 40
0.5000000000000031
 40
0.6250000000000038
 40
0.6250000000000038
 40
0.7500000000000045
 40
0.7500000000000045
 40
1.0
 40
1.0
 40
1.0
 40
1.0
 10
384.9954076406308
 20
298.2806360075866
 30
0.0
 10
384.9916383385438
 20
298.2760565291789
 30
0.0
 10
384.9875273793419
 20
298.2719007516769
 30
0.0
 10
384.9786598551273
 20
298.2643911736025
 30
0.0
 10
384.9738512655147
 20
298.2610106153272
 30
0.0
 10
384.9638492609372
 20
298.2552357355602
 30
0.0
 10
384.9586754382333
 20
298.2528377878503
 30
0.0
 10
384.9480010221509
 20
298.2489726188742
 30
0.0
 10
384.9424487464689
 20
298.2474981559974
 30
0.0
 10
384.9312670144257
 20
298.2455553738221
 30
0.0
 10
384.9256788288423
 20
298.2450834307456
 30
0.0
 10
384.9145094256834
 20
298.245086552485
 30
0.0
 10
384.9089004715656
 20
298.2455668613578
 30
0.0
 10
384.892269044315
 20
298.2484416840962
 30
0.0
 10
384.8817976059526
 20
298.2521480699655
 30
0.0
 10
384.871938049163
 20
298.2576227397706
 30
0.0
  0
SPLINE
  5
1C7
330
1F
100
AcDbEntity
  8
1
100
AcDbSpline
210
0.0
220
0.0
230
1.0
 70
     8
 71
     3
 72
    15
 73
    11
 74
     0
 42
0.000000001
 43
0.0000000001
 40
0.0
 40
0.0
 40
0.0
 40
0.0
 40
0.4018691602128023
 40
0.4018691602128023
 40
0.5023364502659988
 40
0.5023364502659988
 40
0.6028037403191953
 40
0.6028037403191953
 40
0.8037383204255883
 40
1.0
 40
1.0
 40
1.0
 40
1.0
 10
382.5959224949772
 20
298.8338971499956
 30
0.0
 10
382.5859130992969
 20
298.8753507294733
 30
0.0
 10
382.5808103401209
 20
298.9174370743397
 30
0.0
 10
382.5805648852319
 20
298.970827356123
 30
0.0
 10
382.5808289453686
 20
298.9815676247559
 30
0.0
 10
382.5819747730307
 20
299.0028863911099
 30
0.0
 10
382.5828551165681
 20
299.0134903633771
 30
0.0
 10
382.5864016822374
 20
299.0451389982741
 30
0.0
 10
382.593456369842
 20
299.0864171674257
 30
0.0
 10
382.6051857784333
 20
299.1268520936929
 30
0.0
 10
382.6121600851902
 20
299.1466191747833
 30
0.0
  0
SPLINE
  5
1C8
330
1F
100
AcDbEntity
  8
1
100
AcDbSpline
210
0.0
220
0.0
230
1.0
 70
     8
 71
     3
 72
    14
 73
    10
 74
     0
 42
0.000000001
 43
0.0000000001
 40
0.0
 40
0.0
 40
0.0
 40
0.0
 40
0.0076878720135206
 40
0.0076878720135206
 40
0.1730732266779184
 40
0.1730732266779184
 40
0.3384585813423158
 40
0.3384585813423158
 40
1.0
 40
1.0
 40
1.0
 40
1.0
 10
385.0893996315079
 20
298.4472499698488
 30
0.0
 10
385.0892340781414
 20
298.4467807493027
 30
0.0
 10
385.0890678623148
 20
298.4463116630017
 30
0.0
 10
385.0853110035096
 20
298.4357543816487
 30
0.0
 10
385.0814183223245
 20
298.4257491781142
 30
0.0
 10
385.0731220399083
 20
298.4061247014301
 30
0.0
 10
385.0687074642863
 20
298.3964735134599
 30
0.0
 10
385.0453265860202
 20
298.349008564501
 30
0.0
 10
385.0224874616124
 20
298.3135363834662
 30
0.0
 10
384.9954076406308
 20
298.2806360075866
 30
0.0
  0
SPLINE
  5
1C9
330
1F
100
AcDbEntity
  8
1
100
AcDbSpline
210
0.0
220
0.0
230
1.0
 70
     8
 71
     3
 72
    14
 73
    10
 74
     0
 42
0.000000001
 43
0.0000000001
 40
0.0
 40
0.0
 40
0.0
 40
0.0
 40
0.25
 40
0.25
 40
0.5
 40
0.5
 40
0.75
 40
0.75
 40
1.0
 40
1.0
 40
1.0
 40
1.0
 10
383.2386849304455
 20
299.7778002910063
 30
0.0
 10
383.242458662396
 20
299.7719735841059
 30
0.0
 10
383.2455972949533
 20
299.7657584933029
 30
0.0
 10
383.2504708529225
 20
299.7528444526943
 30
0.0
 10
383.2521989513016
 20
299.7461961711503
 30
0.0
 10
383.2542226848767
 20
299.7325097041237
 30
0.0
 10
383.2544987391306
 20
299.7254373985448
 30
0.0
 10
383.2535150405157
 20
299.7115121890538
 30
0.0
 10
383.2522756357186
 20
299.7045834605339
 30
0.0
 10
383.2502232427652
 20
299.6976887730174
 30
0.0
  0
SPLINE
  5
1CA
330
1F
100
AcDbEntity
  8
1
100
AcDbSpline
210
0.0
220
0.0
230
1.0
 70
     8
 71
     3
 72
    14
 73
    10
 74
     0
 42
0.000000001
 43
0.0000000001
 40
0.0
 40
0.0
 40
0.0
 40
0.0
 40
0.3300329473117682
 40
0.3300329473117682
 40
0.6600658946235365
 40
0.6600658946235365
 40
0.9900988419353048
 40
0.9900988419353048
 40
1.0
 40
1.0
 40
1.0
 40
1.0
 10
383.2386849304449
 20
299.7778002910075
 30
0.0
 10
383.2356683772681
 20
299.782457900886
 30
0.0
 10
383.2330659924698
 20
299.78735087686
 30
0.0
 10
383.2287541628849
 20
299.7974244638536
 30
0.0
 10
383.2270293664322
 20
299.802627137359
 30
0.0
 10
383.2244675652306
 20
299.8133727910369
 30
0.0
 10
383.2236416847099
 20
299.8189157617609
 30
0.0
 10
383.223292522238
 20
299.8246076614589
 30
0.0
 10
383.2232827780042
 20
299.8247734747067
 30
0.0
 10
383.2232734600568
 20
299.8249393149651
 30
0.0
  0
SPLINE
  5
1CB
330
1F
100
AcDbEntity
  8
1
100
AcDbSpline
210
0.0
220
0.0
230
1.0
 70
     8
 71
     3
 72
    14
 73
    10
 74
     0
 42
0.000000001
 43
0.0000000001
 40
0.0
 40
0.0
 40
0.0
 40
0.0
 40
0.0594535606608406
 40
0.0594535606608406
 40
0.3729690404405604
 40
0.3729690404405604
 40
0.6864845202202802
 40
0.6864845202202802
 40
1.0
 40
1.0
 40
1.0
 40
1.0
 10
384.7898165739518
 20
299.3604690447138
 30
0.0
 10
384.7902610458032
 20
299.3617300374445
 30
0.0
 10
384.7907301648303
 20
299.3629774842972
 30
0.0
 10
384.7938223531863
 20
299.3707082010181
 30
0.0
 10
384.7970734779545
 20
299.3768111678769
 30
0.0
 10
384.8048413425061
 20
299.3882548072502
 30
0.0
 10
384.8093713059989
 20
299.3935754546271
 30
0.0
 10
384.819286983039
 20
299.4029839225636
 30
0.0
 10
384.8247154732952
 20
299.407142307903
 30
0.0
 10
384.8306302199794
 20
299.4107376021059
 30
0.0
  0
SPLINE
  5
1CC
330
1F
100
AcDbEntity
  8
1
100
AcDbSpline
210
0.0
220
0.0
230
1.0
 70
     8
 71
     3
 72
     8
 73
     4
 74
     0
 42
0.000000001
 43
0.0000000001
 40
0.0
 40
0.0
 40
0.0
 40
0.0
 40
1.0
 40
1.0
 40
1.0
 40
1.0
 10
384.8511401283444
 20
299.4274395978112
 30
0.0
 10
384.8451061307518
 20
299.4209441490302
 30
0.0
 10
384.8382665281381
 20
299.4153793519425
 30
0.0
 10
384.8306302199794
 20
299.4107376021059
 30
0.0
  0
SPLINE
  5
1CD
330
1F
100
AcDbEntity
  8
1
100
AcDbSpline
210
0.0
220
0.0
230
1.0
 70
     8
 71
     3
 72
    10
 73
     6
 74
     0
 42
0.000000001
 43
0.0000000001
 40
0.0
 40
0.0
 40
0.0
 40
0.0
 40
0.5
 40
0.5
 40
1.0
 40
1.0
 40
1.0
 40
1.0
 10
376.9811167098001
 20
298.3276591811565
 30
0.0
 10
376.9684618494749
 20
299.1596420918947
 30
0.0
 10
376.957681814738
 20
299.9916504123793
 30
0.0
 10
376.9385704226599
 20
301.6556909935747
 30
0.0
 10
376.9302506173892
 20
302.4877231690191
 30
0.0
 10
376.9227820249786
 20
303.319763530085
 30
0.0
  0
SPLINE
  5
1CE
330
1F
100
AcDbEntity
  8
1
100
AcDbSpline
210
0.0
220
0.0
230
1.0
 70
    28
 71
     4
 72
    13
 73
     8
 74
     0
 42
0.000000001
 43
0.0000000001
 40
0.0
 40
0.0
 40
0.0
 40
0.0
 40
0.0
 40
0.405069686333084
 40
0.405069686333084
 40
0.405069686333084
 40
1.0
 40
1.0
 40
1.0
 40
1.0
 40
1.0
 10
297.9048419452957
 20
284.0177870913189
 30
0.0
 41
0.9970039865930488
 10
297.9048419452957
 20
283.0990779473129
 30
0.0
 41
0.9970039865930488
 10
297.9048419452957
 20
282.0846651481158
 30
0.0
 41
0.9985019932965244
 10
297.9048419452957
 20
281.0369494386931
 30
0.0
 41
1.001498006703475
 10
297.9048419452957
 20
278.5686144116819
 30
0.0
 41
1.001498006703475
 10
297.9048419452957
 20
276.9777926102882
 30
0.0
 41
0.9950352700184236
 10
297.9048419452957
 20
275.5395044259685
 30
0.0
 41
0.9963476355668175
 10
297.9048419452957
 20
274.4092409167929
 30
0.0
 41
0.9987616712944971
  0
SPLINE
  5
1CF
330
1F
100
AcDbEntity
  8
1
100
AcDbSpline
210
0.0
220
0.0
230
1.0
 70
     8
 71
     3
 72
     8
 73
     4
 74
     0
 42
0.000000001
 43
0.0000000001
 40
0.0
 40
0.0
 40
0.0
 40
0.0
 40
1.0
 40
1.0
 40
1.0
 40
1.0
 10
375.1394223082572
 20
294.0998274287992
 30
0.0
 10
374.9176909424603
 20
294.1996461334714
 30
0.0
 10
374.6984068009961
 20
294.3059536671942
 30
0.0
 10
374.4813847653101
 20
294.4189155882339
 30
0.0
  0
SPLINE
  5
1D0
330
1F
100
AcDbEntity
  8
1
100
AcDbSpline
210
0.0
220
0.0
230
1.0
 70
     8
 71
     3
 72
    38
 73
    34
 74
     0
 42
0.000000001
 43
0.0000000001
 40
0.0
 40
0.0
 40
0.0
 40
0.0
 40
0.1249999999999819
 40
0.1249999999999819
 40
0.2499999999999638
 40
0.2499999999999638
 40
0.3124999999999586
 40
0.3124999999999586
 40
0.3749999999999535
 40
0.3749999999999535
 40
0.4999999999999507
 40
0.4999999999999507
 40
0.5624999999999495
 40
0.5624999999999495
 40
0.5937499999999524
 40
0.5937499999999524
 40
0.6249999999999552
 40
0.6249999999999552
 40
0.6874999999999655
 40
0.6874999999999655
 40
0.7499999999999759
 40
0.7499999999999759
 40
0.8124999999999861
 40
0.8124999999999861
 40
0.8281249999999873
 40
0.8281249999999873
 40
0.8437499999999886
 40
0.8437499999999886
 40
0.8749999999999907
 40
0.8749999999999907
 40
0.9374999999999953
 40
0.9374999999999953
 40
1.0
 40
1.0
 40
1.0
 40
1.0
 10
374.1468056879565
 20
295.1855198707452
 30
0.0
 10
374.3149755450162
 20
295.2623336681755
 30
0.0
 10
374.4808420858876
 20
295.3436262968509
 30
0.0
 10
374.8071423521588
 20
295.5167757415268
 30
0.0
 10
374.9675823818315
 20
295.6086202987788
 30
0.0
 10
375.2032942063469
 20
295.7560090191498
 30
0.0
 10
375.2810368866334
 20
295.8067485102119
 30
0.0
 10
375.4346658677729
 20
295.9118372486738
 30
0.0
 10
375.5105749215847
 20
295.9662019701973
 30
0.0
 10
375.7350025007649
 20
296.1353475667545
 30
0.0
 10
375.8784392853632
 20
296.2547558221579
 30
0.0
 10
376.0820408395514
 20
296.4462870464532
 30
0.0
 10
376.1479724330976
 20
296.5122113300768
 30
0.0
 10
376.2435474564845
 20
296.6146689252089
 30
0.0
 10
376.2748509033896
 20
296.6494179056194
 30
0.0
 10
376.3362609664517
 20
296.7202023244949
 30
0.0
 10
376.3663635416232
 20
296.7562401004695
 30
0.0
 10
376.4540742175767
 20
296.8655926625165
 30
0.0
 10
376.5093196428896
 20
296.9403989838867
 30
0.0
 10
376.6126093262989
 20
297.0942600514755
 30
0.0
 10
376.6606567955999
 20
297.1733129032013
 30
0.0
 10
376.7485615907992
 20
297.336250491221
 30
0.0
 10
376.7884243156029
 20
297.4201320423587
 30
0.0
 10
376.8322826105547
 20
297.5285061280915
 30
0.0
 10
376.8407545941996
 20
297.5503577427135
 30
0.0
 10
376.8570725788314
 20
297.5944302787933
 30
0.0
 10
376.8649325946262
 20
297.6166947396793
 30
0.0
 10
376.8873937276732
 20
297.683651309752
 30
0.0
 10
376.9008929003558
 20
297.7285317993604
 30
0.0
 10
376.9368556296952
 20
297.8639197099354
 30
0.0
 10
376.9547920129833
 20
297.9551723191408
 30
0.0
 10
376.9778318285808
 20
298.1397898852261
 30
0.0
 10
376.982937161977
 20
298.2331545291808
 30
0.0
 10
376.9811167098001
 20
298.3276591811565
 30
0.0
  0
SPLINE
  5
1D1
330
1F
100
AcDbEntity
  8
1
100
AcDbSpline
210
0.0
220
0.0
230
1.0
 70
    12
 71
     3
 72
     9
 73
     5
 74
     0
 42
0.000000001
 43
0.0000000001
 40
0.0
 40
0.0
 40
0.0
 40
0.0
 40
0.1224794365862931
 40
1.0
 40
1.0
 40
1.0
 40
1.0
 10
357.367439392759
 20
298.0629894492395
 30
0.0
 41
1.001413282029655
 10
358.1726915644281
 20
298.037416597144
 30
0.0
 41
1.001401284703569
 10
364.7469955623287
 20
297.8186037310337
 30
0.0
 41
1.001339265231627
 10
371.3049984073202
 20
297.5996747604698
 30
0.0
 41
1.001725550892335
 10
376.9811167098001
 20
298.3276591811565
 30
0.0
 41
1.001604260526617
  0
SPLINE
  5
1D2
330
1F
100
AcDbEntity
  8
1
100
AcDbSpline
210
0.0
220
0.0
230
1.0
 70
     8
 71
     3
 72
    15
 73
    11
 74
     0
 42
0.000000001
 43
0.0000000001
 40
0.0
 40
0.0
 40
0.0
 40
0.0
 40
0.4999999999999967
 40
0.4999999999999967
 40
0.6249999999999983
 40
0.6249999999999983
 40
0.6874999999999992
 40
0.6874999999999992
 40
0.75
 40
1.0
 40
1.0
 40
1.0
 40
1.0
 10
288.7321401331068
 20
285.7950422556534
 30
0.0
 10
289.2184466732883
 20
285.7639388983916
 30
0.0
 10
289.7098994532407
 20
285.7179263512813
 30
0.0
 10
290.3306220468536
 20
285.6418500292722
 30
0.0
 10
290.4550876416909
 20
285.6257045740978
 30
0.0
 10
290.6422694495088
 20
285.6000858863626
 30
0.0
 10
290.7047692040254
 20
285.5913091124063
 30
0.0
 10
290.8297188223678
 20
285.5733184193697
 30
0.0
 10
291.1420569369017
 20
285.5272369869227
 30
0.0
 10
291.4542165584101
 20
285.4756678293628
 30
0.0
 10
291.7038318185191
 20
285.4309556517993
 30
0.0
  0
SPLINE
  5
1D3
330
1F
100
AcDbEntity
  8
1
100
AcDbSpline
210
0.0
220
0.0
230
1.0
 70
     8
 71
     3
 72
    14
 73
    10
 74
     0
 42
0.000000001
 43
0.0000000001
 40
0.0
 40
0.0
 40
0.0
 40
0.0
 40
0.25
 40
0.25
 40
0.5
 40
0.5
 40
0.75
 40
0.75
 40
1.0
 40
1.0
 40
1.0
 40
1.0
 10
279.4048419452957
 20
271.9659022059153
 30
0.0
 10
279.5924303466942
 20
271.9698151862989
 30
0.0
 10
279.7840484833958
 20
271.9878821383929
 30
0.0
 10
280.1738504801319
 20
272.0471857957542
 30
0.0
 10
280.3720388030841
 20
272.088441309181
 30
0.0
 10
280.7736667239031
 20
272.1902091516613
 30
0.0
 10
280.977107810772
 20
272.2507299803121
 30
0.0
 10
281.3880044328001
 20
272.3878851552785
 30
0.0
 10
281.5954593087933
 20
272.4645221039099
 30
0.0
 10
281.8043368819074
 20
272.5479529634993
 30
0.0
  0
SPLINE
  5
1D4
330
1F
100
AcDbEntity
  8
1
100
AcDbSpline
210
0.0
220
0.0
230
1.0
 70
     8
 71
     3
 72
    30
 73
    26
 74
     0
 42
0.000000001
 43
0.0000000001
 40
0.0
 40
0.0
 40
0.0
 40
0.0
 40
0.1250000000000012
 40
0.1250000000000012
 40
0.2500000000000024
 40
0.2500000000000024
 40
0.312500000000003
 40
0.312500000000003
 40
0.3281250000000029
 40
0.3281250000000029
 40
0.3437500000000029
 40
0.3750000000000029
 40
0.3750000000000029
 40
0.5000000000000028
 40
0.5000000000000028
 40
0.6250000000000027
 40
0.6250000000000027
 40
0.6562500000000025
 40
0.6562500000000025
 40
0.6875000000000023
 40
0.7500000000000016
 40
0.7500000000000016
 40
0.8750000000000007
 40
0.8750000000000007
 40
1.0
 40
1.0
 40
1.0
 40
1.0
 10
276.9918326342894
 20
277.1341880249823
 30
0.0
 10
276.9385297746219
 20
276.8626851589715
 30
0.0
 10
276.9066563307277
 20
276.5958719943534
 30
0.0
 10
276.883599872029
 20
276.0715756684959
 30
0.0
 10
276.8924259880411
 20
275.8140925302267
 30
0.0
 10
276.9360995618726
 20
275.4348745913751
 30
0.0
 10
276.9557447654047
 20
275.3096368857838
 30
0.0
 10
276.9867649373558
 20
275.1545546800757
 30
0.0
 10
276.9932988667662
 20
275.1235839388443
 30
0.0
 10
277.0069747818137
 20
275.0619767736712
 30
0.0
 10
277.0284041831264
 20
274.9700404500079
 30
0.0
 10
277.0525524917701
 20
274.879509033947
 30
0.0
 10
277.1389857938704
 20
274.5807851479942
 30
0.0
 10
277.2270653861379
 20
274.3515343366233
 30
0.0
 10
277.439665871049
 20
273.9109949161002
 30
0.0
 10
277.5641924410463
 20
273.6997112295011
 30
0.0
 10
277.7428035941511
 20
273.4462243127672
 30
0.0
 10
277.7797380084695
 20
273.3959833751159
 30
0.0
 10
277.8554930408186
 20
273.2971112929744
 30
0.0
 10
277.9720236465414
 20
273.1511012992811
 30
0.0
 10
278.0970905620057
 20
273.0117542960564
 30
0.0
 10
278.358320724148
 20
272.741424462988
 30
0.0
 10
278.5472297993076
 20
272.5723326105237
 30
0.0
 10
278.9540707981955
 20
272.2543206366863
 30
0.0
 10
279.1720023086451
 20
272.1054053558759
 30
0.0
 10
279.4048419452957
 20
271.9659022059153
 30
0.0
  0
SPLINE
  5
1D5
330
1F
100
AcDbEntity
  8
1
100
AcDbSpline
210
0.0
220
0.0
230
1.0
 70
     8
 71
     3
 72
    60
 73
    56
 74
     0
 42
0.000000001
 43
0.0000000001
 40
0.0
 40
0.0
 40
0.0
 40
0.0
 40
0.0624999999999999
 40
0.0624999999999999
 40
0.1249999999999998
 40
0.1249999999999998
 40
0.1874999999999997
 40
0.1874999999999997
 40
0.2187499999999998
 40
0.2187499999999998
 40
0.2343749999999998
 40
0.2343749999999998
 40
0.2499999999999998
 40
0.2499999999999998
 40
0.3125000000000004
 40
0.3125000000000004
 40
0.3750000000000011
 40
0.3750000000000011
 40
0.4062500000000013
 40
0.4062500000000013
 40
0.4218750000000013
 40
0.4218750000000013
 40
0.4375000000000013
 40
0.4531250000000013
 40
0.4531250000000013
 40
0.4687500000000013
 40
0.4687500000000013
 40
0.5000000000000011
 40
0.5000000000000011
 40
0.5312500000000011
 40
0.5312500000000011
 40
0.562500000000001
 40
0.562500000000001
 40
0.593750000000001
 40
0.593750000000001
 40
0.6250000000000009
 40
0.6250000000000009
 40
0.6562500000000009
 40
0.6562500000000009
 40
0.6875000000000008
 40
0.6875000000000008
 40
0.7500000000000011
 40
0.7500000000000011
 40
0.8125000000000015
 40
0.8125000000000015
 40
0.828125000000001
 40
0.828125000000001
 40
0.8437500000000007
 40
0.8437500000000007
 40
0.8750000000000007
 40
0.9062500000000003
 40
0.9375000000000003
 40
0.96875
 40
0.96875
 40
1.0
 40
1.0
 40
1.0
 40
1.0
 10
297.9048419452957
 20
284.3439919903868
 30
0.0
 10
299.4752022091081
 20
284.046177726935
 30
0.0
 10
301.0438578357426
 20
283.7453414031319
 30
0.0
 10
304.1776077557543
 20
283.1381842419724
 30
0.0
 10
305.742700294172
 20
282.831853878977
 30
0.0
 10
308.8691700487136
 20
282.2145122971584
 30
0.0
 10
310.4305439830732
 20
281.9034863733561
 30
0.0
 10
312.7697581910116
 20
281.4345026849925
 30
0.0
 10
313.5490227067514
 20
281.2777735961307
 30
0.0
 10
314.7172146002834
 20
281.0422874541617
 30
0.0
 10
315.1065243866407
 20
280.9637212214567
 30
0.0
 10
315.8847225636235
 20
280.8065401408434
 30
0.0
 10
316.2736151165267
 20
280.7279244534255
 30
0.0
 10
318.217043480051
 20
280.3348446619628
 30
0.0
 10
319.7684575625755
 20
280.0203069663377
 30
0.0
 10
322.86485271916
 20
279.3953295273818
 30
0.0
 10
324.4098270145385
 20
279.0848846544953
 30
0.0
 10
326.7230663210424
 20
278.6268972285108
 30
0.0
 10
327.4934477058762
 20
278.4755303071298
 30
0.0
 10
328.6481013633824
 20
278.2511329991937
 30
0.0
 10
329.0328332365127
 20
278.1767769569357
 30
0.0
 10
329.802017956979
 20
278.0290791343582
 30
0.0
 10
330.5709229232821
 20
277.8823962456063
 30
0.0
 10
331.339575523794
 20
277.7386035836823
 30
0.0
 10
332.1082437192794
 20
277.5966258265211
 30
0.0
 10
332.4925771109501
 20
277.526546146061
 30
0.0
 10
333.6453842946478
 20
277.3195665869508
 30
0.0
 10
334.4138063107214
 20
277.1859279433638
 30
0.0
 10
335.951330131392
 20
276.9291133094611
 30
0.0
 10
336.7204316079583
 20
276.8059316733406
 30
0.0
 10
338.2600528467754
 20
276.5709945080147
 30
0.0
 10
339.0305791161505
 20
276.4592467256772
 30
0.0
 10
340.5736059666244
 20
276.247473676165
 30
0.0
 10
341.3460492345097
 20
276.147323791598
 30
0.0
 10
342.8925271319571
 20
275.9573181474573
 30
0.0
 10
343.6665626712322
 20
275.8674671371405
 30
0.0
 10
345.2160728259368
 20
275.6972546490343
 30
0.0
 10
345.9915482945352
 20
275.6168968133605
 30
0.0
 10
347.5438734729768
 20
275.4651032175377
 30
0.0
 10
348.3207451445725
 20
275.3936682802668
 30
0.0
 10
350.6532897955509
 20
275.192121417211
 30
0.0
 10
352.2092943120492
 20
275.0748909732438
 30
0.0
 10
355.3239243750762
 20
274.8718083390802
 30
0.0
 10
356.8825513803324
 20
274.7859831086139
 30
0.0
 10
358.8331327640977
 20
274.6966171503093
 30
0.0
 10
359.2233648693581
 20
274.6796390669016
 30
0.0
 10
360.0040813242949
 20
274.6474261266691
 30
0.0
 10
360.3945658779788
 20
274.6321908231698
 30
0.0
 10
361.566359344706
 20
274.5889733894283
 30
0.0
 10
363.1296587110282
 20
274.5379762912335
 30
0.0
 10
365.4766356421583
 20
274.4797012395449
 30
0.0
 10
367.8248528389611
 20
274.4384725520509
 30
0.0
 10
369.3905748211926
 20
274.4219219086187
 30
0.0
 10
370.9560997172883
 20
274.4108203686026
 30
0.0
 10
371.7387636468645
 20
274.4079935137005
 30
0.0
 10
372.5211561089087
 20
274.4079935137005
 30
0.0
  0
SPLINE
  5
1D6
330
1F
100
AcDbEntity
  8
1
100
AcDbSpline
210
0.0
220
0.0
230
1.0
 70
     8
 71
     3
 72
    58
 73
    54
 74
     0
 42
0.000000001
 43
0.0000000001
 40
0.0
 40
0.0
 40
0.0
 40
0.0
 40
0.0145529434347704
 40
0.0145529434347704
 40
0.0497474811692426
 40
0.0497474811692426
 40
0.0849420189037148
 40
0.0849420189037148
 40
0.1201365566381871
 40
0.1201365566381871
 40
0.1553310943726593
 40
0.1553310943726593
 40
0.2257201698416041
 40
0.2257201698416041
 40
0.2961092453105489
 40
0.2961092453105489
 40
0.3664983207794937
 40
0.3664983207794937
 40
0.3840955896467299
 40
0.3840955896467299
 40
0.4016928585139662
 40
0.4016928585139662
 40
0.4368873962484388
 40
0.4368873962484388
 40
0.4720819339829113
 40
0.4720819339829113
 40
0.5072764717173838
 40
0.5072764717173838
 40
0.5424710094518563
 40
0.5424710094518563
 40
0.5776655471863289
 40
0.5776655471863289
 40
0.6128600849208014
 40
0.6128600849208014
 40
0.648054622655274
 40
0.648054622655274
 40
0.6832491603897465
 40
0.6832491603897465
 40
0.718443698124219
 40
0.718443698124219
 40
0.7888327735931648
 40
0.7888327735931648
 40
0.8240273113276373
 40
0.8240273113276373
 40
0.8592218490621096
 40
0.8592218490621096
 40
0.8944163867965823
 40
0.8944163867965823
 40
0.9296109245310548
 40
0.9296109245310548
 40
0.9648054622655271
 40
0.9648054622655271
 40
1.0
 40
1.0
 40
1.0
 40
1.0
 10
305.8601874209
 20
303.4079935320302
 30
0.0
 10
306.1649942067944
 20
303.4080100718077
 30
0.0
 10
306.4696980039108
 20
303.4075848823982
 30
0.0
 10
307.5109447456314
 20
303.4045516164325
 30
0.0
 10
308.2469999866187
 20
303.3997006243386
 30
0.0
 10
309.7180284661953
 20
303.3840170387943
 30
0.0
 10
310.4530645543607
 20
303.3731814663682
 30
0.0
 10
311.9214348474021
 20
303.345012099377
 30
0.0
 10
312.6548501186341
 20
303.3276768629914
 30
0.0
 10
314.1203095836492
 20
303.2860628945365
 30
0.0
 10
314.852353842876
 20
303.2617830880303
 30
0.0
 10
317.0467542030807
 20
303.1780223170787
 30
0.0
 10
318.5073597602094
 20
303.1075356023711
 30
0.0
 10
321.4261445827294
 20
302.9363310078939
 30
0.0
 10
322.884335168146
 20
302.8356013189577
 30
0.0
 10
325.8009770714791
 20
302.6057790270347
 30
0.0
 10
327.2594427651597
 20
302.476700491714
 30
0.0
 10
329.0843975619661
 20
302.3005779176647
 30
0.0
 10
329.4494852059488
 20
302.2646264537379
 30
0.0
 10
330.1798684918671
 20
302.191325281695
 30
0.0
 10
330.5451564547393
 20
302.1539641334466
 30
0.0
 10
331.6412315357467
 20
302.0396568058992
 30
0.0
 10
332.3722246884047
 20
301.9604837313459
 30
0.0
 10
333.8344738214826
 20
301.7957419476279
 30
0.0
 10
334.5657704668681
 20
301.7101646451889
 30
0.0
 10
336.0278038277321
 20
301.5323668831873
 30
0.0
 10
336.7586224507036
 20
301.4401365819095
 30
0.0
 10
338.2198568544554
 20
301.2488928711846
 30
0.0
 10
338.9502735737754
 20
301.1498792574655
 30
0.0
 10
340.4108011889416
 20
300.9451505223621
 30
0.0
 10
341.140929426327
 20
300.8394670563745
 30
0.0
 10
342.6012729461443
 20
300.6222090028117
 30
0.0
 10
343.3314872155198
 20
300.5106345573978
 30
0.0
 10
344.7922423378868
 20
300.2822011198396
 30
0.0
 10
345.5228165076664
 20
300.1653363928686
 30
0.0
 10
346.9842917844567
 20
299.9268129062617
 30
0.0
 10
347.715087314619
 20
299.8051713990544
 30
0.0
 10
349.1768848980407
 20
299.5574654796549
 30
0.0
 10
349.9078866195246
 20
299.4314010717403
 30
0.0
 10
352.1012593548945
 20
299.0468779624596
 30
0.0
 10
353.5640186427086
 20
298.7821676322337
 30
0.0
 10
355.7587645958428
 20
298.3724865943702
 30
0.0
 10
356.4904425700652
 20
298.2338052934293
 30
0.0
 10
357.9538974755773
 20
297.9519243596459
 30
0.0
 10
358.6856814258863
 20
297.8087245998875
 30
0.0
 10
360.1487495537774
 20
297.5173965634342
 30
0.0
 10
360.8801114798303
 20
297.3693314778598
 30
0.0
 10
362.3418487186668
 20
297.0662670443288
 30
0.0
 10
363.0722157799491
 20
296.9112395006177
 30
0.0
 10
364.5314952441976
 20
296.5924634008212
 30
0.0
 10
365.2604044889778
 20
296.4287008470486
 30
0.0
 10
366.7166190440112
 20
296.0915655531838
 30
0.0
 10
367.4439206955569
 20
295.9181750575762
 30
0.0
 10
368.1705515626211
 20
295.7402061150714
 30
0.0
  0
SPLINE
  5
1D7
330
1F
100
AcDbEntity
  8
1
100
AcDbSpline
210
0.0
220
0.0
230
1.0
 70
     8
 71
     3
 72
    42
 73
    38
 74
     0
 42
0.000000001
 43
0.0000000001
 40
0.0
 40
0.0
 40
0.0
 40
0.0
 40
0.062210333873015
 40
0.062210333873015
 40
0.1244206677460301
 40
0.1244206677460301
 40
0.1866310016190451
 40
0.1866310016190451
 40
0.2488413354920601
 40
0.2488413354920601
 40
0.2799465024285677
 40
0.2799465024285677
 40
0.3110516693650752
 40
0.3110516693650752
 40
0.3732620032380902
 40
0.3732620032380902
 40
0.4354723371111053
 40
0.4354723371111053
 40
0.4976826709841203
 40
0.4976826709841203
 40
0.6221033387301494
 40
0.6221033387301494
 40
0.6843136726031635
 40
0.6843136726031635
 40
0.7465240064761774
 40
0.7465240064761774
 40
0.8087343403491914
 40
0.8087343403491914
 40
0.8709446742222056
 40
0.8709446742222056
 40
0.9331550080952196
 40
0.9331550080952196
 40
0.964260175031727
 40
0.964260175031727
 40
0.9953653419682344
 40
0.9953653419682344
 40
1.0
 40
1.0
 40
1.0
 40
1.0
 10
376.9227820249785
 20
303.319763530085
 30
0.0
 10
376.132032418288
 20
303.3526528417044
 30
0.0
 10
375.3371198383036
 20
303.3748771004842
 30
0.0
 10
373.7386088582373
 20
303.4027571903934
 30
0.0
 10
372.9350130030882
 20
303.4084268080531
 30
0.0
 10
371.3193955437295
 20
303.4075091363671
 30
0.0
 10
370.5073765521953
 20
303.4009303804618
 30
0.0
 10
368.8757107202412
 20
303.3790065012851
 30
0.0
 10
368.0560666337241
 20
303.3636657012035
 30
0.0
 10
366.8218212174207
 20
303.3359403607222
 30
0.0
 10
366.4095853308928
 20
303.3259039250551
 30
0.0
 10
365.5838343140155
 20
303.3044541111463
 30
0.0
 10
365.1705420247405
 20
303.2930466994439
 30
0.0
 10
363.9296148314052
 20
303.2569895610009
 30
0.0
 10
363.1009241077752
 20
303.2305389812216
 30
0.0
 10
361.4419486608048
 20
303.1731137795814
 30
0.0
 10
360.6116657794743
 20
303.1421380003471
 30
0.0
 10
358.9508813435439
 20
303.0748862306809
 30
0.0
 10
358.1203837730526
 20
303.0385735638031
 30
0.0
 10
355.6288806248935
 20
302.9213214428469
 30
0.0
 10
353.9678803836383
 20
302.8321210993854
 30
0.0
 10
351.4775099077316
 20
302.6795165332958
 30
0.0
 10
350.647634968304
 20
302.6255036383185
 30
0.0
 10
348.9887642670678
 20
302.5106835270717
 30
0.0
 10
348.1597355001073
 20
302.4498753533127
 30
0.0
 10
346.502649095777
 20
302.3208417263722
 30
0.0
 10
345.6745903005342
 20
302.2526189916352
 30
0.0
 10
344.019615992226
 20
302.107982524229
 30
0.0
 10
343.1926989416233
 20
302.0315736527883
 30
0.0
 10
341.5402367023879
 20
301.8695243905158
 30
0.0
 10
340.7146897864703
 20
301.7838912580235
 30
0.0
 10
339.4776494562644
 20
301.647401613786
 30
0.0
 10
339.0655245553572
 20
301.6005433980073
 30
0.0
 10
338.2416925745911
 20
301.5040420391914
 30
0.0
 10
337.829949693094
 20
301.4544005865706
 30
0.0
 10
337.3571839080962
 20
301.3957799360948
 30
0.0
 10
337.2958830234376
 20
301.388147480511
 30
0.0
 10
337.2345883379569
 20
301.3804844138357
 30
0.0
  0
SPLINE
  5
1D8
330
1F
100
AcDbEntity
  8
1
100
AcDbSpline
210
0.0
220
0.0
230
1.0
 70
     8
 71
     3
 72
    37
 73
    33
 74
     0
 42
0.000000001
 43
0.0000000001
 40
0.0
 40
0.0
 40
0.0
 40
0.0
 40
0.062500000000001
 40
0.062500000000001
 40
0.1250000000000021
 40
0.1250000000000021
 40
0.1875000000000027
 40
0.1875000000000027
 40
0.2500000000000034
 40
0.2500000000000034
 40
0.2812500000000037
 40
0.2968750000000037
 40
0.2968750000000037
 40
0.3125000000000036
 40
0.3125000000000036
 40
0.3750000000000032
 40
0.3750000000000032
 40
0.4375000000000029
 40
0.4375000000000029
 40
0.5000000000000026
 40
0.5000000000000026
 40
0.6250000000000018
 40
0.6250000000000018
 40
0.7500000000000009
 40
0.7500000000000009
 40
0.8125000000000005
 40
0.8125000000000005
 40
0.8437500000000003
 40
0.8437500000000003
 40
0.8750000000000001
 40
0.8750000000000001
 40
1.0
 40
1.0
 40
1.0
 40
1.0
 10
291.7038318185191
 20
274.4796739344954
 30
0.0
 10
291.4471293950654
 20
274.4874652760967
 30
0.0
 10
291.1941923985395
 20
274.489574669221
 30
0.0
 10
290.6949784550496
 20
274.4840103434366
 30
0.0
 10
290.4487031096455
 20
274.4763347889113
 30
0.0
 10
289.9621319508554
 20
274.4524940652864
 30
0.0
 10
289.7218371455892
 20
274.4363274611092
 30
0.0
 10
289.2466938871987
 20
274.396563871179
 30
0.0
 10
289.0118460896377
 20
274.3729656578181
 30
0.0
 10
288.6633516894366
 20
274.3326437542261
 30
0.0
 10
288.4900501718728
 20
274.3112495405986
 30
0.0
 10
288.3181209440045
 20
274.2881098012982
 30
0.0
 10
288.2038020255944
 20
274.2723059275368
 30
0.0
 10
288.1468132930629
 20
274.2642179251614
 30
0.0
 10
287.8632460222018
 20
274.2229567604975
 30
0.0
 10
287.6402928724204
 20
274.1872591459445
 30
0.0
 10
287.2015331114463
 20
274.1112211315602
 30
0.0
 10
286.9857280743163
 20
274.0708790483189
 30
0.0
 10
286.5608016191266
 20
273.9861400446856
 30
0.0
 10
286.3516813707599
 20
273.9417418667291
 30
0.0
 10
285.7338722918397
 20
273.8031991486189
 30
0.0
 10
285.3346911741913
 20
273.7037241939752
 30
0.0
 10
284.5604868518241
 20
273.4937755558776
 30
0.0
 10
284.1854804370644
 20
273.3832837852026
 30
0.0
 10
283.64111416024
 20
273.2114093168757
 30
0.0
 10
283.462690567692
 20
273.1530937936989
 30
0.0
 10
283.1996648955668
 20
273.0643532145647
 30
0.0
 10
283.1127583387659
 20
273.034561880702
 30
0.0
 10
282.9404972136604
 20
272.9746030988769
 30
0.0
 10
282.8552906085601
 20
272.944487161459
 30
0.0
 10
282.4339007567337
 20
272.7933595967147
 30
0.0
 10
282.1116021170804
 20
272.6706822843652
 30
0.0
 10
281.8043368819074
 20
272.5479529634993
 30
0.0
  0
LINE
  5
1F9
330
1F
100
AcDbEntity
  8
4
100
AcDbLine
 10
268.703832
 20
288.907994
 30
0.0
 11
393.229496
 21
288.907994
 31
0.0
  0
LINE
  5
1FA
330
1F
100
AcDbEntity
  8
SK4
100
AcDbLine
 10
210.904842
 20
288.907994
 30
0.0
 11
277.404842
 21
288.907994
 31
0.0
  0
MTEXT
  5
1FB
330
1F
100
AcDbEntity
  8
SK6
100
AcDbMText
 10
258.520787
 20
241.27662
 30
0.0
 40
3.5
 41
0.0
 71
     7
 72
     5
  1
\W0.7022;803D-30-90-S32
  7
cesky
 73
     2
 44
0.8433729999999998
  0
MTEXT
  5
311
330
1F
100
AcDbEntity
  8
2
100
AcDbMText
 10
406.263398
 20
287.041151
 30
0.0
 40
3.5
 41
0.0
 71
     7
 72
     5
  1
\W0.7045;30
  7
cesky
 11
0.0000000000000001
 21
1.0
 31
0.0
 73
     2
 44
0.8433729999999998
  0
MTEXT
  5
312
330
1F
100
AcDbEntity
  8
2
100
AcDbMText
 10
406.263398
 20
280.303651
 30
0.0
 40
3.5
 41
0.0
 71
     7
 72
     5
  1
\W3.0115;\H2.63;%%c\H3.50;
  7
cesky
 11
0.0000000000000001
 21
1.0
 31
0.0
 73
     2
 44
0.8433729999999998
  0
LINE
  5
313
330
1F
100
AcDbEntity
  8
2
100
AcDbLine
 10
391.404842
 20
303.907994
 30
0.0
 11
407.4508149999999
 21
303.907994
 31
0.0
  0
LINE
  5
314
330
1F
100
AcDbEntity
  8
2
100
AcDbLine
 10
406.4508149999999
 20
303.907994
 30
0.0
 11
406.4508149999999
 21
280.146151
 31
0.0
  0
SOLID
  5
315
330
1F
100
AcDbEntity
  8
2
100
AcDbTrace
 10
406.4508149999999
 20
303.907994
 30
0.0
 11
407.067959
 21
300.407996
 31
0.0
 12
405.83367
 22
300.4079910000001
 32
0.0
 13
405.83367
 23
300.4079910000001
 33
0.0
  0
MTEXT
  5
316
330
1F
100
AcDbEntity
  8
2
100
AcDbMText
 10
298.827842
 20
340.562135
 30
0.0
 40
3.5
 41
0.0
 71
     7
 72
     5
  1
\W0.7809;175
  7
cesky
 73
     2
 44
0.8433729999999998
  0
LINE
  5
317
330
1F
100
AcDbEntity
  8
2
100
AcDbLine
 10
389.404842
 20
305.907994
 30
0.0
 11
389.404842
 21
341.687968
 31
0.0
  0
LINE
  5
318
330
1F
100
AcDbEntity
  8
2
100
AcDbLine
 10
214.404842
 20
302.907994
 30
0.0
 11
214.404842
 21
341.687968
 31
0.0
  0
LINE
  5
319
330
1F
100
AcDbEntity
  8
2
100
AcDbLine
 10
389.404842
 20
340.687968
 30
0.0
 11
214.404842
 21
340.687968
 31
0.0
  0
SOLID
  5
31A
330
1F
100
AcDbEntity
  8
2
100
AcDbTrace
 10
389.404842
 20
340.687968
 30
0.0
 11
385.904844
 21
340.070823
 31
0.0
 12
385.90484
 22
341.305112
 32
0.0
 13
385.90484
 23
341.305112
 33
0.0
  0
SOLID
  5
31B
330
1F
100
AcDbEntity
  8
2
100
AcDbTrace
 10
214.404842
 20
340.687968
 30
0.0
 11
217.90484
 21
341.305112
 31
0.0
 12
217.904844
 22
340.070823
 32
0.0
 13
217.904844
 23
340.070823
 33
0.0
  0
MTEXT
  5
31C
330
1F
100
AcDbEntity
  8
2
100
AcDbMText
 10
242.590342
 20
327.385163
 30
0.0
 40
3.5
 41
0.0
 71
     7
 72
     5
  1
\W0.7045;60
  7
cesky
 73
     2
 44
0.8433729999999998
  0
LINE
  5
31D
330
1F
100
AcDbEntity
  8
2
100
AcDbLine
 10
274.404842
 20
288.907994
 30
0.0
 11
274.404842
 21
328.5109970000001
 31
0.0
  0
LINE
  5
31E
330
1F
100
AcDbEntity
  8
2
100
AcDbLine
 10
214.404842
 20
302.907994
 30
0.0
 11
214.404842
 21
328.5109970000001
 31
0.0
  0
LINE
  5
31F
330
1F
100
AcDbEntity
  8
2
100
AcDbLine
 10
274.404842
 20
327.510997
 30
0.0
 11
214.404842
 21
327.510997
 31
0.0
  0
SOLID
  5
320
330
1F
100
AcDbEntity
  8
2
100
AcDbTrace
 10
274.404842
 20
327.510997
 30
0.0
 11
270.904844
 21
326.893852
 31
0.0
 12
270.90484
 22
328.128141
 32
0.0
 13
270.90484
 23
328.128141
 33
0.0
  0
SOLID
  5
321
330
1F
100
AcDbEntity
  8
2
100
AcDbTrace
 10
214.404842
 20
327.510997
 30
0.0
 11
217.90484
 21
328.128141
 31
0.0
 12
217.904844
 22
326.893852
 32
0.0
 13
217.904844
 23
326.893852
 33
0.0
  0
MTEXT
  5
322
330
1F
100
AcDbEntity
  8
2
100
AcDbMText
 10
335.3146220000001
 20
316.149515
 30
0.0
 40
3.5
 41
0.0
 71
     7
 72
     5
  1
\W0.8459;99,5
  7
cesky
 73
     2
 44
0.8433729999999998
  0
LINE
  5
323
330
1F
100
AcDbEntity
  8
2
100
AcDbLine
 10
389.404842
 20
305.907994
 30
0.0
 11
389.404842
 21
317.275348
 31
0.0
  0
LINE
  5
324
330
1F
100
AcDbEntity
  8
2
100
AcDbLine
 10
289.903402
 20
304.091229
 30
0.0
 11
289.903402
 21
317.275348
 31
0.0
  0
LINE
  5
325
330
1F
100
AcDbEntity
  8
2
100
AcDbLine
 10
389.404842
 20
316.275348
 30
0.0
 11
289.903402
 21
316.275348
 31
0.0
  0
SOLID
  5
326
330
1F
100
AcDbEntity
  8
2
100
AcDbTrace
 10
389.404842
 20
316.275348
 30
0.0
 11
385.904844
 21
315.658204
 31
0.0
 12
385.90484
 22
316.892492
 32
0.0
 13
385.90484
 23
316.892492
 33
0.0
  0
SOLID
  5
327
330
1F
100
AcDbEntity
  8
2
100
AcDbTrace
 10
289.903402
 20
316.275348
 30
0.0
 11
293.4034
 21
316.892492
 31
0.0
 12
293.403404
 22
315.658204
 32
0.0
 13
293.403404
 23
315.658204
 33
0.0
  0
MTEXT
  5
328
330
1F
100
AcDbEntity
  8
2
100
AcDbMText
 10
328.827842
 20
327.385163
 30
0.0
 40
3.5
 41
0.0
 71
     7
 72
     5
  1
\W0.8488;115
  7
cesky
 73
     2
 44
0.8433729999999998
  0
LINE
  5
329
330
1F
100
AcDbEntity
  8
2
100
AcDbLine
 10
389.404842
 20
303.907994
 30
0.0
 11
389.404842
 21
328.5109970000001
 31
0.0
  0
LINE
  5
32A
330
1F
100
AcDbEntity
  8
2
100
AcDbLine
 10
274.404842
 20
289.907567
 30
0.0
 11
274.404842
 21
328.5109970000001
 31
0.0
  0
LINE
  5
32B
330
1F
100
AcDbEntity
  8
2
100
AcDbLine
 10
389.404842
 20
327.510997
 30
0.0
 11
274.404842
 21
327.510997
 31
0.0
  0
SOLID
  5
32C
330
1F
100
AcDbEntity
  8
2
100
AcDbTrace
 10
389.404842
 20
327.510997
 30
0.0
 11
385.904844
 21
326.893852
 31
0.0
 12
385.90484
 22
328.128141
 32
0.0
 13
385.90484
 23
328.128141
 33
0.0
  0
SOLID
  5
32D
330
1F
100
AcDbEntity
  8
2
100
AcDbTrace
 10
274.404842
 20
327.510997
 30
0.0
 11
277.90484
 21
328.128141
 31
0.0
 12
277.904844
 22
326.893852
 32
0.0
 13
277.904844
 23
326.893852
 33
0.0
  0
MTEXT
  5
32E
330
1F
100
AcDbEntity
  8
SK2
100
AcDbMText
 10
205.691127
 20
290.434244
 30
0.0
 40
3.5
 41
0.0
 71
     7
 72
     5
  1
\W0.7045;32
  7
cesky
 11
0.0000000000000001
 21
1.0
 31
0.0
 73
     2
 44
0.8433729999999998
  0
MTEXT
  5
32F
330
1F
100
AcDbEntity
  8
SK2
100
AcDbMText
 10
205.691127
 20
283.696744
 30
0.0
 40
3.5
 41
0.0
 71
     7
 72
     5
  1
\W3.0115;\H2.63;%%c\H3.50;
  7
cesky
 11
0.0000000000000001
 21
1.0
 31
0.0
 73
     2
 44
0.8433729999999998
  0
LINE
  5
330
330
1F
100
AcDbEntity
  8
SK2
100
AcDbLine
 10
216.404842
 20
304.907994
 30
0.0
 11
204.878544
 21
304.907994
 31
0.0
  0
LINE
  5
331
330
1F
100
AcDbEntity
  8
SK2
100
AcDbLine
 10
216.404842
 20
272.907994
 30
0.0
 11
204.878544
 21
272.907994
 31
0.0
  0
LINE
  5
332
330
1F
100
AcDbEntity
  8
SK2
100
AcDbLine
 10
205.878544
 20
304.907994
 30
0.0
 11
205.878544
 21
272.907994
 31
0.0
  0
SOLID
  5
333
330
1F
100
AcDbEntity
  8
SK2
100
AcDbTrace
 10
205.878544
 20
304.907994
 30
0.0
 11
206.495689
 21
301.407996
 31
0.0
 12
205.2614
 22
301.407991
 32
0.0
 13
205.2614
 23
301.407991
 33
0.0
  0
SOLID
  5
334
330
1F
100
AcDbEntity
  8
SK2
100
AcDbTrace
 10
205.878544
 20
272.907994
 30
0.0
 11
205.2614
 21
276.407991
 31
0.0
 12
206.495689
 22
276.407996
 32
0.0
 13
206.495689
 23
276.407996
 33
0.0
  0
MTEXT
  5
335
330
1F
100
AcDbEntity
  8
SK2
100
AcDbMText
 10
193.332501
 20
290.434244
 30
0.0
 40
3.5
 41
0.0
 71
     7
 72
     5
  1
\W0.7045;42
  7
cesky
 11
0.0000000000000001
 21
1.0
 31
0.0
 73
     2
 44
0.8433729999999998
  0
MTEXT
  5
336
330
1F
100
AcDbEntity
  8
SK2
100
AcDbMText
 10
193.332501
 20
283.696744
 30
0.0
 40
3.5
 41
0.0
 71
     7
 72
     5
  1
\W3.0115;\H2.63;%%c\H3.50;
  7
cesky
 11
0.0000000000000001
 21
1.0
 31
0.0
 73
     2
 44
0.8433729999999998
  0
LINE
  5
337
330
1F
100
AcDbEntity
  8
SK2
100
AcDbLine
 10
274.904842
 20
309.907994
 30
0.0
 11
192.519918
 21
309.907994
 31
0.0
  0
LINE
  5
338
330
1F
100
AcDbEntity
  8
SK2
100
AcDbLine
 10
274.904842
 20
267.907994
 30
0.0
 11
192.519918
 21
267.907994
 31
0.0
  0
LINE
  5
339
330
1F
100
AcDbEntity
  8
SK2
100
AcDbLine
 10
193.519918
 20
309.907994
 30
0.0
 11
193.519918
 21
267.907994
 31
0.0
  0
SOLID
  5
33A
330
1F
100
AcDbEntity
  8
SK2
100
AcDbTrace
 10
193.519918
 20
309.907994
 30
0.0
 11
194.137062
 21
306.407996
 31
0.0
 12
192.902773
 22
306.407991
 32
0.0
 13
192.902773
 23
306.407991
 33
0.0
  0
SOLID
  5
33B
330
1F
100
AcDbEntity
  8
SK2
100
AcDbTrace
 10
193.519918
 20
267.907994
 30
0.0
 11
192.902773
 21
271.4079910000001
 31
0.0
 12
194.137062
 22
271.407996
 32
0.0
 13
194.137062
 23
271.407996
 33
0.0
  0
LINE
  5
33C
330
1F
100
AcDbEntity
  8
CUT
100
AcDbLine
 10
379.8372443795067
 20
303.6114814280407
 30
0.0
 11
387.8099730278957
 21
303.9047581427891
 31
0.0
  0
LINE
  5
33D
330
1F
100
AcDbEntity
  8
CUT
100
AcDbLine
 10
388.8418364143166
 20
296.7113570269073
 30
0.0
 11
389.2974360653503
 21
295.9531808399667
 31
0.0
  0
LINE
  5
33E
330
1F
100
AcDbEntity
  8
CUT
100
AcDbLine
 10
389.2974360653503
 20
295.9531808399667
 30
0.0
 11
389.4048419452957
 21
289.8047852295759
 31
0.0
  0
LINE
  5
341
330
1F
100
AcDbEntity
  8
CUT
100
AcDbLine
 10
388.6099776822095
 20
303.1625269898457
 30
0.0
 11
388.8418364143166
 21
296.7113570269073
 31
0.0
  0
LINE
  5
342
330
1F
100
AcDbEntity
  8
CUT
100
AcDbLine
 10
389.404842
 20
288.907994
 30
0.0
 11
379.092519
 21
288.907994
 31
0.0
  0
LINE
  5
343
330
1F
100
AcDbEntity
  8
CUT
100
AcDbLine
 10
379.092519
 20
288.907994
 30
0.0
 11
379.092519
 21
302.811942
 31
0.0
  0
LINE
  5
344
330
1F
100
AcDbEntity
  8
CUT
100
AcDbLine
 10
389.404842
 20
289.804785
 30
0.0
 11
389.404842
 21
288.907994
 31
0.0
  0
ARC
  5
345
330
1F
100
AcDbEntity
  8
CUT
100
AcDbCircle
 10
387.8305743008235
 20
303.124090373822
 30
0.0
 40
0.7809395482047785
100
AcDbArc
 50
6.974982149671694
 51
91.51164445670827
  0
ARC
  5
346
330
1F
100
AcDbEntity
  8
CUT
100
AcDbCircle
 10
387.8885817054359
 20
303.1366074650903
 30
0.0
 40
0.7218614666739943
100
AcDbArc
 50
2.057733710035974
 51
6.54793383714823
  0
ARC
  5
347
330
1F
100
AcDbEntity
  8
CUT
100
AcDbCircle
 10
379.8747503161786
 20
302.8302883694578
 30
0.0
 40
0.7824467016961759
100
AcDbArc
 50
95.51350172701313
 51
181.3435353566676
  0
ARC
  5
348
330
1F
100
AcDbEntity
  8
CUT
100
AcDbCircle
 10
379.8638468782431
 20
302.8869074202886
 30
0.0
 40
0.7250621943315424
100
AcDbArc
 50
92.10265145727964
 51
95.08575088996449
  0
ENDSEC
  0
SECTION
  2
OBJECTS
  0
DICTIONARY
  5
C
330
0
100
AcDbDictionary
281
     1
  3
ACAD_CIP_PREVIOUS_PRODUCT_INFO
350
30E
  3
ACAD_COLOR
350
309
  3
ACAD_DETAILVIEWSTYLE
350
305
  3
ACAD_GROUP
350
D
  3
ACAD_LAYOUT
350
1A
  3
ACAD_MATERIAL
350
43
  3
ACAD_MLEADERSTYLE
350
6B
  3
ACAD_MLINESTYLE
350
17
  3
ACAD_PLOTSETTINGS
350
19
  3
ACAD_PLOTSTYLENAME
350
E
  3
ACAD_SCALELIST
350
47
  3
ACAD_SECTIONVIEWSTYLE
350
306
  3
ACAD_TABLESTYLE
350
69
  3
ACAD_VISUALSTYLE
350
2A
  3
ACDB_RECOMPOSE_DATA
350
374
  3
AcDbVariableDictionary
350
2C2
  0
DICTIONARY
  5
357
330
10
100
AcDbDictionary
280
     1
281
     1
  3
ADSK_XREC_LAYER_RECONCILED
360
358
  0
DICTIONARY
  5
359
330
349
100
AcDbDictionary
280
     1
281
     1
  3
ADSK_XREC_LAYER_RECONCILED
360
35A
  0
DICTIONARY
  5
35B
330
34A
100
AcDbDictionary
280
     1
281
     1
  3
ADSK_XREC_LAYER_RECONCILED
360
35C
  0
DICTIONARY
  5
35D
330
34B
100
AcDbDictionary
280
     1
281
     1
  3
ADSK_XREC_LAYER_RECONCILED
360
35E
  0
DICTIONARY
  5
35F
330
34D
100
AcDbDictionary
280
     1
281
     1
  3
ADSK_XREC_LAYER_RECONCILED
360
360
  0
DICTIONARY
  5
361
330
34E
100
AcDbDictionary
280
     1
281
     1
  3
ADSK_XREC_LAYER_RECONCILED
360
362
  0
DICTIONARY
  5
363
330
350
100
AcDbDictionary
280
     1
281
     1
  3
ADSK_XREC_LAYER_RECONCILED
360
364
  0
DICTIONARY
  5
365
330
351
100
AcDbDictionary
280
     1
281
     1
  3
ADSK_XREC_LAYER_RECONCILED
360
366
  0
DICTIONARY
  5
367
330
352
100
AcDbDictionary
280
     1
281
     1
  3
ADSK_XREC_LAYER_RECONCILED
360
368
  0
DICTIONARY
  5
369
330
353
100
AcDbDictionary
280
     1
281
     1
  3
ADSK_XREC_LAYER_RECONCILED
360
36A
  0
DICTIONARY
  5
36B
330
354
100
AcDbDictionary
280
     1
281
     1
  3
ADSK_XREC_LAYER_RECONCILED
360
36C
  0
DICTIONARY
  5
36D
330
355
100
AcDbDictionary
280
     1
281
     1
  3
ADSK_XREC_LAYER_RECONCILED
360
36E
  0
DICTIONARY
  5
30F
330
1F
100
AcDbDictionary
280
     1
281
     1
  3
ACAD_SORTENTS
360
310
  0
XRECORD
  5
30E
102
{ACAD_REACTORS
330
C
102
}
330
C
100
AcDbXrecord
280
     1
300
ACD
300
2019
300
87084ACD_2019_0F
  0
DICTIONARY
  5
309
102
{ACAD_REACTORS
330
C
102
}
330
C
100
AcDbDictionary
281
     1
  0
DICTIONARY
  5
305
102
{ACAD_REACTORS
330
C
102
}
330
C
100
AcDbDictionary
281
     1
  3
Metric50
350
30B
  0
DICTIONARY
  5
D
102
{ACAD_REACTORS
330
C
102
}
330
C
100
AcDbDictionary
281
     1
  3
NULOVY_BOD
350
356
  0
DICTIONARY
  5
1A
102
{ACAD_REACTORS
330
C
102
}
330
C
100
AcDbDictionary
281
     1
  3
Layout1
350
1E
  3
Layout2
350
26
  3
Model
350
22
  0
DICTIONARY
  5
43
102
{ACAD_REACTORS
330
C
102
}
330
C
100
AcDbDictionary
281
     1
  3
ByBlock
350
45
  3
ByLayer
350
44
  3
Global
350
46
  0
DICTIONARY
  5
6B
102
{ACAD_REACTORS
330
C
102
}
330
C
100
AcDbDictionary
281
     1
  3
Standard
350
6C
  0
DICTIONARY
  5
17
102
{ACAD_REACTORS
330
C
102
}
330
C
100
AcDbDictionary
281
     1
  3
Standard
350
18
  0
DICTIONARY
  5
19
102
{ACAD_REACTORS
330
C
102
}
330
C
100
AcDbDictionary
281
     1
  0
ACDBDICTIONARYWDFLT
  5
E
102
{ACAD_REACTORS
330
C
102
}
330
C
100
AcDbDictionary
281
     1
  3
Normal
350
F
100
AcDbDictionaryWithDefault
340
F
  0
DICTIONARY
  5
47
102
{ACAD_REACTORS
330
C
102
}
330
C
100
AcDbDictionary
281
     1
  3
A0
350
48
  3
A1
350
49
  3
A2
350
4A
  3
A3
350
4B
  3
A4
350
4C
  3
A5
350
4D
  3
A6
350
4E
  3
A7
350
4F
  3
A8
350
50
  3
A9
350
51
  3
B0
350
52
  3
B1
350
53
  3
B2
350
54
  3
B3
350
55
  3
B4
350
56
  3
B5
350
57
  3
B6
350
58
  3
B7
350
59
  3
B8
350
5A
  3
B9
350
5B
  3
C0
350
5C
  3
C1
350
5D
  3
C2
350
5E
  3
C3
350
5F
  3
C4
350
60
  3
C5
350
61
  3
C6
350
62
  3
C7
350
63
  3
C8
350
64
  3
C9
350
65
  3
D0
350
66
  3
D1
350
67
  3
D2
350
68
  0
DICTIONARY
  5
306
102
{ACAD_REACTORS
330
C
102
}
330
C
100
AcDbDictionary
281
     1
  3
Metric50
350
30A
  0
DICTIONARY
  5
69
102
{ACAD_REACTORS
330
C
102
}
330
C
100
AcDbDictionary
281
     1
  3
Standard
350
6A
  0
DICTIONARY
  5
2A
102
{ACAD_REACTORS
330
C
102
}
330
C
100
AcDbDictionary
281
     1
  3
2dWireframe
350
2F
  3
Basic
350
32
  3
Brighten
350
36
  3
ColorChange
350
3A
  3
Conceptual
350
34
  3
Dim
350
35
  3
EdgeColorOff
350
3D
  3
Facepattern
350
39
  3
Flat
350
2B
  3
FlatWithEdges
350
2C
  3
Gouraud
350
2D
  3
GouraudWithEdges
350
2E
  3
Hidden
350
31
  3
JitterOff
350
3B
  3
Linepattern
350
38
  3
OverhangOff
350
3C
  3
Realistic
350
33
  3
Shaded
350
42
  3
Shaded with edges
350
41
  3
Shades of Gray
350
3E
  3
Sketchy
350
3F
  3
Thicken
350
37
  3
Wireframe
350
30
  3
X-Ray
350
40
  0
XRECORD
  5
374
102
{ACAD_REACTORS
330
C
102
}
330
C
100
AcDbXrecord
280
     1
 90
        1
330
6A
  0
DICTIONARY
  5
2C2
102
{ACAD_REACTORS
330
C
102
}
330
C
100
AcDbDictionary
281
     1
  3
CANNOSCALE
350
2C3
  3
CMLEADERSTYLE
350
304
  3
CTABLESTYLE
350
303
  3
CVIEWDETAILSTYLE
350
36F
  3
CVIEWSECTIONSTYLE
350
370
  3
MSLTSCALE
350
2C4
  3
XCLIPFRAME
350
371
  0
XRECORD
  5
358
102
{ACAD_REACTORS
330
357
102
}
330
357
100
AcDbXrecord
280
     1
290
     1
  0
XRECORD
  5
35A
102
{ACAD_REACTORS
330
359
102
}
330
359
100
AcDbXrecord
280
     1
290
     1
  0
XRECORD
  5
35C
102
{ACAD_REACTORS
330
35B
102
}
330
35B
100
AcDbXrecord
280
     1
290
     1
  0
XRECORD
  5
35E
102
{ACAD_REACTORS
330
35D
102
}
330
35D
100
AcDbXrecord
280
     1
290
     1
  0
XRECORD
  5
360
102
{ACAD_REACTORS
330
35F
102
}
330
35F
100
AcDbXrecord
280
     1
290
     1
  0
XRECORD
  5
362
102
{ACAD_REACTORS
330
361
102
}
330
361
100
AcDbXrecord
280
     1
290
     1
  0
XRECORD
  5
364
102
{ACAD_REACTORS
330
363
102
}
330
363
100
AcDbXrecord
280
     1
290
     1
  0
XRECORD
  5
366
102
{ACAD_REACTORS
330
365
102
}
330
365
100
AcDbXrecord
280
     1
290
     1
  0
XRECORD
  5
368
102
{ACAD_REACTORS
330
367
102
}
330
367
100
AcDbXrecord
280
     1
290
     1
  0
XRECORD
  5
36A
102
{ACAD_REACTORS
330
369
102
}
330
369
100
AcDbXrecord
280
     1
290
     1
  0
XRECORD
  5
36C
102
{ACAD_REACTORS
330
36B
102
}
330
36B
100
AcDbXrecord
280
     1
290
     1
  0
XRECORD
  5
36E
102
{ACAD_REACTORS
330
36D
102
}
330
36D
100
AcDbXrecord
280
     1
290
     1
  0
SORTENTSTABLE
  5
310
102
{ACAD_REACTORS
330
30F
102
}
330
30F
100
AcDbSortentsTable
330
1F
331
311
  5
21C
331
312
  5
27D
331
313
  5
311
331
314
  5
312
331
315
  5
313
331
316
  5
31C
331
317
  5
31D
331
318
  5
31E
331
319
  5
31F
331
31A
  5
320
331
31B
  5
321
331
31C
  5
322
331
31D
  5
323
331
31E
  5
324
331
31F
  5
325
331
320
  5
326
331
321
  5
328
331
322
  5
329
331
323
  5
32A
331
324
  5
32B
331
325
  5
32C
331
326
  5
32D
331
327
  5
32E
331
328
  5
336
331
329
  5
337
331
32A
  5
338
331
32B
  5
339
331
32C
  5
33A
331
32D
  5
33B
331
32E
  5
315
331
32F
  5
316
331
330
  5
317
331
331
  5
318
331
332
  5
319
331
333
  5
31A
331
334
  5
31B
331
335
  5
32F
331
336
  5
330
331
337
  5
331
331
338
  5
332
331
339
  5
333
331
33A
  5
334
331
33B
  5
335
331
341
  5
345
331
342
  5
346
331
343
  5
347
331
344
  5
348
331
345
  5
341
331
346
  5
342
331
347
  5
343
331
348
  5
344
  0
ACDBDETAILVIEWSTYLE
  5
30B
102
{ACAD_XDICTIONARY
360
3A8
102
}
102
{ACAD_REACTORS
330
305
102
}
330
305
100
AcDbModelDocViewStyle
 70
     0
  3
Metric50
290
     0
100
AcDbDetailViewStyle
 70
     0
 71
     0
 90
        3
 71
     1
340
11
 62
   256
 40
5.0
340
0
 62
   256
 40
5.0
300

 40
0.0
280
     1
 71
     2
340
16
 90
       25
 62
   256
 71
     3
340
11
 62
   256
 40
5.0
 90
        0
 40
15.0
 90
        1
300
%<\AcVar ViewDetailId>% (%<\AcVar ViewScale \f "%sn">%)
 71
     4
340
16
 90
       25
 62
   256
340
16
 90
       25
 62
   256
280
     0
  0
GROUP
  5
356
102
{ACAD_REACTORS
330
D
102
}
330
D
100
AcDbGroup
300

 70
     0
 71
     1
340
73
  0
LAYOUT
  5
1E
102
{ACAD_REACTORS
330
1A
102
}
330
1A
100
AcDbPlotSettings
  1

  2
none_device
  4

  6

 40
0.0
 41
0.0
 42
0.0
 43
0.0
 44
0.0
 45
0.0
 46
0.0
 47
0.0
 48
0.0
 49
0.0
140
0.0
141
0.0
142
1.0
143
1.0
 70
   688
 72
     0
 73
     0
 74
     5
  7

 75
    16
147
1.0
 76
     0
 77
     2
 78
   300
148
0.0
149
0.0
100
AcDbLayout
  1
Layout1
 70
     1
 71
     1
 10
-0.5
 20
-0.5
 11
5.0
 21
5.0
 12
0.0
 22
0.0
 32
0.0
 14
-0.5
 24
-0.5
 34
-0.5
 15
5.0
 25
5.0
 35
5.0
146
0.0
 13
0.0
 23
0.0
 33
0.0
 16
1.0
 26
0.0
 36
0.0
 17
0.0
 27
1.0
 37
0.0
 76
     0
330
1B
  0
LAYOUT
  5
26
102
{ACAD_REACTORS
330
1A
102
}
330
1A
100
AcDbPlotSettings
  1

  2
none_device
  4

  6

 40
0.0
 41
0.0
 42
0.0
 43
0.0
 44
0.0
 45
0.0
 46
0.0
 47
0.0
 48
0.0
 49
0.0
140
0.0
141
0.0
142
1.0
143
1.0
 70
   688
 72
     0
 73
     0
 74
     5
  7

 75
    16
147
1.0
 76
     0
 77
     2
 78
   300
148
0.0
149
0.0
100
AcDbLayout
  1
Layout2
 70
     1
 71
     2
 10
0.0
 20
0.0
 11
0.0
 21
0.0
 12
0.0
 22
0.0
 32
0.0
 14
0.0
 24
0.0
 34
0.0
 15
0.0
 25
0.0
 35
0.0
146
0.0
 13
0.0
 23
0.0
 33
0.0
 16
1.0
 26
0.0
 36
0.0
 17
0.0
 27
1.0
 37
0.0
 76
     0
330
23
  0
LAYOUT
  5
22
102
{ACAD_REACTORS
330
1A
102
}
330
1A
100
AcDbPlotSettings
  1

  2
none_device
  4
Letter_(8.50_x_11.00_Inches)
  6

 40
6.349999999999999
 41
6.349999999999999
 42
6.350005
 43
6.350005
 44
215.9
 45
279.4
 46
0.0
 47
0.0
 48
0.0
 49
0.0
140
0.0
141
0.0
142
1.0
143
1.0
 70
  1712
 72
     0
 73
     0
 74
     0
  7

 75
     0
147
1.0
 76
     0
 77
     2
 78
   300
148
0.0
149
0.0
100
AcDbLayout
  1
Model
 70
     1
 71
     0
 10
-0.5
 20
-0.5
 11
5.0
 21
5.0
 12
0.0
 22
0.0
 32
0.0
 14
-0.5
 24
-0.5
 34
-0.5
 15
5.0
 25
5.0
 35
5.0
146
0.0
 13
0.0
 23
0.0
 33
0.0
 16
1.0
 26
0.0
 36
0.0
 17
0.0
 27
1.0
 37
0.0
 76
     0
330
1F
331
29
  0
MATERIAL
  5
45
102
{ACAD_XDICTIONARY
360
2F8
102
}
102
{ACAD_REACTORS
330
43
102
}
330
43
100
AcDbMaterial
  1
ByBlock
  0
MATERIAL
  5
44
102
{ACAD_XDICTIONARY
360
2F6
102
}
102
{ACAD_REACTORS
330
43
102
}
330
43
100
AcDbMaterial
  1
ByLayer
  0
MATERIAL
  5
46
102
{ACAD_XDICTIONARY
360
2FA
102
}
102
{ACAD_REACTORS
330
43
102
}
330
43
100
AcDbMaterial
  1
Global
  0
MLEADERSTYLE
  5
6C
102
{ACAD_REACTORS
330
6B
102
}
330
6B
100
AcDbMLeaderStyle
170
     2
171
     1
172
     0
 90
        2
 40
0.0
 41
0.0
173
     1
 91
-1056964608
340
14
 92
       -2
290
     1
 42
0.09
291
     1
 43
0.36
  3
Standard
 44
0.18
300

342
11
174
     1
178
     6
175
     1
176
     0
 93
-1056964608
 45
0.18
292
     0
297
     0
 46
0.18
 94
-1056964608
 47
1.0
 49
1.0
140
1.0
293
     1
141
0.0
294
     1
177
     0
142
1.0
295
     0
296
     0
143
0.125
1001
ACAD_MLEADERVER
1070
     2
  0
MLINESTYLE
  5
18
102
{ACAD_REACTORS
330
17
102
}
330
17
100
AcDbMlineStyle
  2
STANDARD
 70
     0
  3

 62
   256
 51
90.0
 52
90.0
 71
     2
 49
0.5
 62
   256
  6
BYLAYER
 49
-0.5
 62
   256
  6
BYLAYER
  0
ACDBPLACEHOLDER
  5
F
102
{ACAD_REACTORS
330
E
102
}
330
E
  0
SCALE
  5
48
102
{ACAD_REACTORS
330
47
102
}
330
47
100
AcDbScale
 70
     0
300
1:1
140
1.0
141
1.0
290
     1
  0
SCALE
  5
49
102
{ACAD_REACTORS
330
47
102
}
330
47
100
AcDbScale
 70
     0
300
1:2
140
1.0
141
2.0
290
     0
  0
SCALE
  5
4A
102
{ACAD_REACTORS
330
47
102
}
330
47
100
AcDbScale
 70
     0
300
1:4
140
1.0
141
4.0
290
     0
  0
SCALE
  5
4B
102
{ACAD_REACTORS
330
47
102
}
330
47
100
AcDbScale
 70
     0
300
1:5
140
1.0
141
5.0
290
     0
  0
SCALE
  5
4C
102
{ACAD_REACTORS
330
47
102
}
330
47
100
AcDbScale
 70
     0
300
1:8
140
1.0
141
8.0
290
     0
  0
SCALE
  5
4D
102
{ACAD_REACTORS
330
47
102
}
330
47
100
AcDbScale
 70
     0
300
1:10
140
1.0
141
10.0
290
     0
  0
SCALE
  5
4E
102
{ACAD_REACTORS
330
47
102
}
330
47
100
AcDbScale
 70
     0
300
1:16
140
1.0
141
16.0
290
     0
  0
SCALE
  5
4F
102
{ACAD_REACTORS
330
47
102
}
330
47
100
AcDbScale
 70
     0
300
1:20
140
1.0
141
20.0
290
     0
  0
SCALE
  5
50
102
{ACAD_REACTORS
330
47
102
}
330
47
100
AcDbScale
 70
     0
300
1:30
140
1.0
141
30.0
290
     0
  0
SCALE
  5
51
102
{ACAD_REACTORS
330
47
102
}
330
47
100
AcDbScale
 70
     0
300
1:40
140
1.0
141
40.0
290
     0
  0
SCALE
  5
52
102
{ACAD_REACTORS
330
47
102
}
330
47
100
AcDbScale
 70
     0
300
1:50
140
1.0
141
50.0
290
     0
  0
SCALE
  5
53
102
{ACAD_REACTORS
330
47
102
}
330
47
100
AcDbScale
 70
     0
300
1:100
140
1.0
141
100.0
290
     0
  0
SCALE
  5
54
102
{ACAD_REACTORS
330
47
102
}
330
47
100
AcDbScale
 70
     0
300
2:1
140
2.0
141
1.0
290
     0
  0
SCALE
  5
55
102
{ACAD_REACTORS
330
47
102
}
330
47
100
AcDbScale
 70
     0
300
4:1
140
4.0
141
1.0
290
     0
  0
SCALE
  5
56
102
{ACAD_REACTORS
330
47
102
}
330
47
100
AcDbScale
 70
     0
300
8:1
140
8.0
141
1.0
290
     0
  0
SCALE
  5
57
102
{ACAD_REACTORS
330
47
102
}
330
47
100
AcDbScale
 70
     0
300
10:1
140
10.0
141
1.0
290
     0
  0
SCALE
  5
58
102
{ACAD_REACTORS
330
47
102
}
330
47
100
AcDbScale
 70
     0
300
100:1
140
100.0
141
1.0
290
     0
  0
SCALE
  5
59
102
{ACAD_REACTORS
330
47
102
}
330
47
100
AcDbScale
 70
     0
300
1/128" = 1'-0"
140
0.007812
141
12.0
290
     0
  0
SCALE
  5
5A
102
{ACAD_REACTORS
330
47
102
}
330
47
100
AcDbScale
 70
     0
300
1/64" = 1'-0"
140
0.015625
141
12.0
290
     0
  0
SCALE
  5
5B
102
{ACAD_REACTORS
330
47
102
}
330
47
100
AcDbScale
 70
     0
300
1/32" = 1'-0"
140
0.03125
141
12.0
290
     0
  0
SCALE
  5
5C
102
{ACAD_REACTORS
330
47
102
}
330
47
100
AcDbScale
 70
     0
300
1/16" = 1'-0"
140
0.0625
141
12.0
290
     0
  0
SCALE
  5
5D
102
{ACAD_REACTORS
330
47
102
}
330
47
100
AcDbScale
 70
     0
300
3/32" = 1'-0"
140
0.09375
141
12.0
290
     0
  0
SCALE
  5
5E
102
{ACAD_REACTORS
330
47
102
}
330
47
100
AcDbScale
 70
     0
300
1/8" = 1'-0"
140
0.125
141
12.0
290
     0
  0
SCALE
  5
5F
102
{ACAD_REACTORS
330
47
102
}
330
47
100
AcDbScale
 70
     0
300
3/16" = 1'-0"
140
0.1875
141
12.0
290
     0
  0
SCALE
  5
60
102
{ACAD_REACTORS
330
47
102
}
330
47
100
AcDbScale
 70
     0
300
1/4" = 1'-0"
140
0.25
141
12.0
290
     0
  0
SCALE
  5
61
102
{ACAD_REACTORS
330
47
102
}
330
47
100
AcDbScale
 70
     0
300
3/8" = 1'-0"
140
0.375
141
12.0
290
     0
  0
SCALE
  5
62
102
{ACAD_REACTORS
330
47
102
}
330
47
100
AcDbScale
 70
     0
300
1/2" = 1'-0"
140
0.5
141
12.0
290
     0
  0
SCALE
  5
63
102
{ACAD_REACTORS
330
47
102
}
330
47
100
AcDbScale
 70
     0
300
3/4" = 1'-0"
140
0.75
141
12.0
290
     0
  0
SCALE
  5
64
102
{ACAD_REACTORS
330
47
102
}
330
47
100
AcDbScale
 70
     0
300
1" = 1'-0"
140
1.0
141
12.0
290
     0
  0
SCALE
  5
65
102
{ACAD_REACTORS
330
47
102
}
330
47
100
AcDbScale
 70
     0
300
1-1/2" = 1'-0"
140
1.5
141
12.0
290
     0
  0
SCALE
  5
66
102
{ACAD_REACTORS
330
47
102
}
330
47
100
AcDbScale
 70
     0
300
3" = 1'-0"
140
3.0
141
12.0
290
     0
  0
SCALE
  5
67
102
{ACAD_REACTORS
330
47
102
}
330
47
100
AcDbScale
 70
     0
300
6" = 1'-0"
140
6.0
141
12.0
290
     0
  0
SCALE
  5
68
102
{ACAD_REACTORS
330
47
102
}
330
47
100
AcDbScale
 70
     0
300
1'-0" = 1'-0"
140
12.0
141
12.0
290
     0
  0
ACDBSECTIONVIEWSTYLE
  5
30A
102
{ACAD_XDICTIONARY
360
3A6
102
}
102
{ACAD_REACTORS
330
306
102
}
330
306
100
AcDbModelDocViewStyle
 70
     0
  3
Metric50
290
     0
100
AcDbSectionViewStyle
 70
     0
 71
     0
 90
      102
 71
     1
340
11
 62
   256
 40
5.0
340
0
340
0
 62
   256
 40
5.0
300
I, O, Q, S, X, Z
 40
10.0
 90
        0
 40
2.5
 90
        0
 71
     2
340
16
 90
       25
 62
   256
340
16
 90
       50
 62
   256
 40
5.0
 40
2.5
 40
5.0
 71
     3
340
11
 62
   256
 40
5.0
 90
        0
 40
15.0
 90
        1
300
%<\AcVar ViewSectionStartId>%-%<\AcVar ViewSectionEndId>% (%<\AcVar ViewScale \f "%sn">%)
 71
     4
 62
   256
 62
   257
300
ANSI31
 40
1.0
 90
        0
290
     0
290
     0
 90
        6
 40
0.0
 40
1.570796326794896
 40
0.2617993877991494
 40
1.308996938995747
 40
-0.2617993877991494
 40
1.832595714594046
  0
TABLESTYLE
  5
6A
102
{ACAD_XDICTIONARY
360
2FC
102
}
102
{ACAD_REACTORS
330
69
102
}
330
69
100
AcDbTableStyle
  3
Standard
 70
     0
 71
     0
 40
0.06
 41
0.06
280
     0
281
     0
  7
Standard
140
0.18
170
     2
 62
     0
 63
     7
283
     0
274
    -2
284
     1
 64
     0
275
    -2
285
     1
 65
     0
276
    -2
286
     1
 66
     0
277
    -2
287
     1
 67
     0
278
    -2
288
     1
 68
     0
279
    -2
289
     1
 69
     0
  7
Standard
140
0.25
170
     5
 62
     0
 63
     7
283
     0
274
    -2
284
     1
 64
     0
275
    -2
285
     1
 65
     0
276
    -2
286
     1
 66
     0
277
    -2
287
     1
 67
     0
278
    -2
288
     1
 68
     0
279
    -2
289
     1
 69
     0
  7
Standard
140
0.18
170
     5
 62
     0
 63
     7
283
     0
274
    -2
284
     1
 64
     0
275
    -2
285
     1
 65
     0
276
    -2
286
     1
 66
     0
277
    -2
287
     1
 67
     0
278
    -2
288
     1
 68
     0
279
    -2
289
     1
 69
     0
  0
VISUALSTYLE
  5
2F
102
{ACAD_XDICTIONARY
360
37D
102
}
102
{ACAD_REACTORS
330
2A
102
}
330
2A
100
AcDbVisualStyle
  2

 70
     4
 71
     0
 72
     2
 73
     0
 90
        0
 40
-0.6
 41
-30.0
 62
     5
 63
     7
421
 16777215
 74
     1
 91
        4
 64
     7
 65
   257
 75
     1
175
     1
 42
1.0
 92
        0
 66
   257
 43
1.0
 76
     1
 77
     6
 78
     2
 67
     7
 79
     5
170
     0
171
     0
290
     0
174
     0
 93
        1
 44
0.0
173
     0
291
     0
 45
0.0
1001
ACAD
1000
AcDbSavedByObjectVersion
1070
     0
  0
VISUALSTYLE
  5
32
102
{ACAD_XDICTIONARY
360
383
102
}
102
{ACAD_REACTORS
330
2A
102
}
330
2A
100
AcDbVisualStyle
  2

 70
     7
 71
     1
 72
     0
 73
     1
 90
        0
 40
-0.6
 41
-30.0
 62
     5
 63
     7
421
 16777215
 74
     0
 91
        4
 64
     7
 65
   257
 75
     1
175
     1
 42
1.0
 92
        8
 66
     7
 43
1.0
 76
     1
 77
     6
 78
     2
 67
     7
 79
     5
170
     0
171
     0
290
     0
174
     0
 93
        1
 44
0.0
173
     0
291
     1
 45
0.0
1001
ACAD
1000
AcDbSavedByObjectVersion
1070
     0
  0
VISUALSTYLE
  5
36
102
{ACAD_XDICTIONARY
360
38B
102
}
102
{ACAD_REACTORS
330
2A
102
}
330
2A
100
AcDbVisualStyle
  2

 70
    12
 71
     2
 72
     2
 73
     0
 90
        0
 40
-0.6
 41
-30.0
 62
     5
 63
     7
421
 16777215
 74
     1
 91
        4
 64
     7
 65
   257
 75
     1
175
     1
 42
1.0
 92
        8
 66
     7
 43
1.0
 76
     1
 77
     6
 78
     2
 67
     7
 79
     5
170
     0
171
     0
290
     0
174
     0
 93
        1
 44
50.0
173
     0
291
     1
 45
0.0
1001
ACAD
1000
AcDbSavedByObjectVersion
1070
     0
  0
VISUALSTYLE
  5
3A
102
{ACAD_XDICTIONARY
360
393
102
}
102
{ACAD_REACTORS
330
2A
102
}
330
2A
100
AcDbVisualStyle
  2

 70
    16
 71
     2
 72
     2
 73
     3
 90
        0
 40
-0.6
 41
-30.0
 62
     5
 63
     8
421
  8421504
 74
     1
 91
        4
 64
     7
 65
   257
 75
     1
175
     1
 42
1.0
 92
        8
 66
     8
424
  8421504
 43
1.0
 76
     1
 77
     6
 78
     2
 67
     7
 79
     5
170
     0
171
     0
290
     0
174
     0
 93
        1
 44
0.0
173
     0
291
     1
 45
0.0
1001
ACAD
1000
AcDbSavedByObjectVersion
1070
     0
  0
VISUALSTYLE
  5
34
102
{ACAD_XDICTIONARY
360
387
102
}
102
{ACAD_REACTORS
330
2A
102
}
330
2A
100
AcDbVisualStyle
  2

 70
     9
 71
     3
 72
     2
 73
     0
 90
        0
 40
-0.6
 41
-30.0
 62
     5
 63
     7
421
 16777215
 74
     2
 91
        2
 64
     7
 65
   257
 75
     1
175
     1
 42
179.0
 92
        8
 66
     7
 43
1.0
 76
     1
 77
     6
 78
     2
 67
     7
 79
     3
170
     0
171
     0
290
     0
174
     0
 93
        1
 44
0.0
173
     0
291
     0
 45
0.0
1001
ACAD
1000
AcDbSavedByObjectVersion
1070
     0
  0
VISUALSTYLE
  5
35
102
{ACAD_XDICTIONARY
360
389
102
}
102
{ACAD_REACTORS
330
2A
102
}
330
2A
100
AcDbVisualStyle
  2

 70
    11
 71
     2
 72
     2
 73
     0
 90
        0
 40
-0.6
 41
-30.0
 62
     5
 63
     7
421
 16777215
 74
     1
 91
        4
 64
     7
 65
   257
 75
     1
175
     1
 42
1.0
 92
        8
 66
     7
 43
1.0
 76
     1
 77
     6
 78
     2
 67
     7
 79
     5
170
     0
171
     0
290
     0
174
     0
 93
        1
 44
-50.0
173
     0
291
     1
 45
0.0
1001
ACAD
1000
AcDbSavedByObjectVersion
1070
     0
  0
VISUALSTYLE
  5
3D
102
{ACAD_XDICTIONARY
360
399
102
}
102
{ACAD_REACTORS
330
2A
102
}
330
2A
100
AcDbVisualStyle
  2

 70
    22
 71
     2
 72
     2
 73
     0
 90
        0
 40
-0.6
 41
-30.0
 62
     5
 63
     7
421
 16777215
 74
     1
 91
        4
 64
     7
 65
   257
 75
     1
175
     1
 42
1.0
 92
        8
 66
     7
 43
1.0
 76
     1
 77
     6
 78
     2
 67
     7
 79
     5
170
     0
171
     0
290
     0
174
     0
 93
        1
 44
0.0
173
     0
291
     1
 45
0.0
1001
ACAD
1000
AcDbSavedByObjectVersion
1070
     0
  0
VISUALSTYLE
  5
39
102
{ACAD_XDICTIONARY
360
391
102
}
102
{ACAD_REACTORS
330
2A
102
}
330
2A
100
AcDbVisualStyle
  2

 70
    15
 71
     2
 72
     2
 73
     0
 90
        0
 40
-0.6
 41
-30.0
 62
     5
 63
     7
421
 16777215
 74
     1
 91
        4
 64
     7
 65
   257
 75
     1
175
     1
 42
1.0
 92
        8
 66
     7
 43
1.0
 76
     1
 77
     6
 78
     2
 67
     7
 79
     5
170
     0
171
     0
290
     0
174
     0
 93
        1
 44
0.0
173
     0
291
     1
 45
0.0
1001
ACAD
1000
AcDbSavedByObjectVersion
1070
     0
  0
VISUALSTYLE
  5
2B
102
{ACAD_XDICTIONARY
360
375
102
}
102
{ACAD_REACTORS
330
2A
102
}
330
2A
100
AcDbVisualStyle
  2

 70
     0
 71
     2
 72
     1
 73
     1
 90
        2
 40
-0.6
 41
30.0
 62
     5
 63
     7
421
 16777215
 74
     0
 91
        0
 64
     7
 65
   257
 75
     1
175
     1
 42
1.0
 92
        8
 66
     7
 43
1.0
 76
     1
 77
     6
 78
     2
 67
     7
 79
     5
170
     0
171
     0
290
     0
174
     0
 93
       13
 44
0.0
173
     0
291
     1
 45
0.0
1001
ACAD
1000
AcDbSavedByObjectVersion
1070
     0
  0
VISUALSTYLE
  5
2C
102
{ACAD_XDICTIONARY
360
377
102
}
102
{ACAD_REACTORS
330
2A
102
}
330
2A
100
AcDbVisualStyle
  2

 70
     1
 71
     2
 72
     1
 73
     1
 90
        2
 40
-0.6
 41
30.0
 62
     5
 63
     7
421
 16777215
 74
     1
 91
        0
 64
     7
 65
   257
 75
     1
175
     1
 42
1.0
 92
        0
 66
   257
 43
1.0
 76
     1
 77
     6
 78
     2
 67
     7
 79
     5
170
     0
171
     0
290
     0
174
     0
 93
       13
 44
0.0
173
     0
291
     1
 45
0.0
1001
ACAD
1000
AcDbSavedByObjectVersion
1070
     0
  0
VISUALSTYLE
  5
2D
102
{ACAD_XDICTIONARY
360
379
102
}
102
{ACAD_REACTORS
330
2A
102
}
330
2A
100
AcDbVisualStyle
  2

 70
     2
 71
     2
 72
     2
 73
     1
 90
        2
 40
-0.6
 41
30.0
 62
     5
 63
     7
421
 16777215
 74
     0
 91
        0
 64
     7
 65
   257
 75
     1
175
     1
 42
1.0
 92
        0
 66
     7
 43
1.0
 76
     1
 77
     6
 78
     2
 67
     7
 79
     5
170
     0
171
     0
290
     0
174
     0
 93
       13
 44
0.0
173
     0
291
     1
 45
0.0
1001
ACAD
1000
AcDbSavedByObjectVersion
1070
     0
  0
VISUALSTYLE
  5
2E
102
{ACAD_XDICTIONARY
360
37B
102
}
102
{ACAD_REACTORS
330
2A
102
}
330
2A
100
AcDbVisualStyle
  2

 70
     3
 71
     2
 72
     2
 73
     1
 90
        2
 40
-0.6
 41
30.0
 62
     5
 63
     7
421
 16777215
 74
     1
 91
        0
 64
     7
 65
   257
 75
     1
175
     1
 42
1.0
 92
        0
 66
   257
 43
1.0
 76
     1
 77
     6
 78
     2
 67
     7
 79
     5
170
     0
171
     0
290
     0
174
     0
 93
       13
 44
0.0
173
     0
291
     1
 45
0.0
1001
ACAD
1000
AcDbSavedByObjectVersion
1070
     0
  0
VISUALSTYLE
  5
31
102
{ACAD_XDICTIONARY
360
381
102
}
102
{ACAD_REACTORS
330
2A
102
}
330
2A
100
AcDbVisualStyle
  2

 70
     6
 71
     1
 72
     2
 73
     2
 90
        0
 40
-0.6
 41
-30.0
 62
     5
 63
     7
421
 16777215
 74
     2
 91
        2
 64
     7
 65
   257
 75
     2
175
     1
 42
40.0
 92
        0
 66
   257
 43
1.0
 76
     1
 77
     6
 78
     2
 67
     7
 79
     3
170
     0
171
     0
290
     0
174
     0
 93
        1
 44
0.0
173
     0
291
     0
 45
0.0
1001
ACAD
1000
AcDbSavedByObjectVersion
1070
     0
  0
VISUALSTYLE
  5
3B
102
{ACAD_XDICTIONARY
360
395
102
}
102
{ACAD_REACTORS
330
2A
102
}
330
2A
100
AcDbVisualStyle
  2

 70
    20
 71
     2
 72
     2
 73
     0
 90
        0
 40
-0.6
 41
-30.0
 62
     5
 63
     7
421
 16777215
 74
     1
 91
        4
 64
     7
 65
   257
 75
     1
175
     1
 42
1.0
 92
       10
 66
     7
 43
1.0
 76
     1
 77
     6
 78
     2
 67
     7
 79
     5
170
     0
171
     0
290
     0
174
     0
 93
        1
 44
0.0
173
     0
291
     1
 45
0.0
1001
ACAD
1000
AcDbSavedByObjectVersion
1070
     0
  0
VISUALSTYLE
  5
38
102
{ACAD_XDICTIONARY
360
38F
102
}
102
{ACAD_REACTORS
330
2A
102
}
330
2A
100
AcDbVisualStyle
  2

 70
    14
 71
     2
 72
     2
 73
     0
 90
        0
 40
-0.6
 41
-30.0
 62
     5
 63
     7
421
 16777215
 74
     1
 91
        4
 64
     7
 65
   257
 75
     7
175
     7
 42
1.0
 92
        8
 66
     7
 43
1.0
 76
     1
 77
     6
 78
     2
 67
     7
 79
     5
170
     0
171
     0
290
     0
174
     0
 93
        1
 44
0.0
173
     0
291
     1
 45
0.0
1001
ACAD
1000
AcDbSavedByObjectVersion
1070
     0
  0
VISUALSTYLE
  5
3C
102
{ACAD_XDICTIONARY
360
397
102
}
102
{ACAD_REACTORS
330
2A
102
}
330
2A
100
AcDbVisualStyle
  2

 70
    21
 71
     2
 72
     2
 73
     0
 90
        0
 40
-0.6
 41
-30.0
 62
     5
 63
     7
421
 16777215
 74
     1
 91
        4
 64
     7
 65
   257
 75
     1
175
     1
 42
1.0
 92
        9
 66
     7
 43
1.0
 76
     1
 77
     6
 78
     2
 67
     7
 79
     5
170
     0
171
     0
290
     0
174
     0
 93
        1
 44
0.0
173
     0
291
     1
 45
0.0
1001
ACAD
1000
AcDbSavedByObjectVersion
1070
     0
  0
VISUALSTYLE
  5
33
102
{ACAD_XDICTIONARY
360
385
102
}
102
{ACAD_REACTORS
330
2A
102
}
330
2A
100
AcDbVisualStyle
  2

 70
     8
 71
     2
 72
     3
 73
     0
 90
        2
 40
-0.6
 41
30.0
 62
     5
 63
     7
421
 16777215
 74
     0
 91
        0
 64
     7
 65
   257
 75
     1
175
     1
 42
1.0
 92
        8
 66
   257
 43
1.0
 76
     1
 77
     6
 78
     2
 67
     7
 79
     3
170
     0
171
     0
290
     0
174
     0
 93
       13
 44
0.0
173
     0
291
     0
 45
0.0
1001
ACAD
1000
AcDbSavedByObjectVersion
1070
     0
  0
VISUALSTYLE
  5
42
102
{ACAD_XDICTIONARY
360
3A3
102
}
102
{ACAD_REACTORS
330
2A
102
}
330
2A
100
AcDbVisualStyle
  2

 70
    27
 71
     2
 72
     2
 73
     1
 90
        2
 40
-0.6
 41
30.0
 62
     5
 63
     7
421
 16777215
 74
     0
 91
        4
 64
     7
 65
   257
 75
     1
175
     1
 42
1.0
 92
        8
 66
   257
 43
1.0
 76
     1
 77
     6
 78
     2
 67
     8
425
  7895160
 79
     3
170
     0
171
     0
290
     0
174
     0
 93
        5
 44
0.0
173
     0
291
     0
 45
0.0
1001
ACAD
1000
AcDbSavedByObjectVersion
1070
     0
  0
VISUALSTYLE
  5
41
102
{ACAD_XDICTIONARY
360
3A1
102
}
102
{ACAD_REACTORS
330
2A
102
}
330
2A
100
AcDbVisualStyle
  2

 70
    26
 71
     2
 72
     2
 73
     1
 90
        2
 40
-0.6
 41
30.0
 62
     5
 63
     7
421
 16777215
 74
     1
 91
       10
 64
     7
 65
   257
 75
     2
175
     1
 42
1.0
 92
        8
 66
   257
 43
1.0
 76
     1
 77
     6
 78
     2
 67
     7
 79
     3
170
     0
171
     0
290
     0
174
     0
 93
        5
 44
0.0
173
     0
291
     0
 45
0.0
1001
ACAD
1000
AcDbSavedByObjectVersion
1070
     0
  0
VISUALSTYLE
  5
3E
102
{ACAD_XDICTIONARY
360
39B
102
}
102
{ACAD_REACTORS
330
2A
102
}
330
2A
100
AcDbVisualStyle
  2

 70
    23
 71
     2
 72
     2
 73
     3
 90
        0
 40
-0.6
 41
-30.0
 62
     5
 63
     7
421
 16777215
 74
     2
 91
        2
 64
     7
 65
     7
 75
     1
175
     1
 42
40.0
 92
        8
 66
     7
 43
1.0
 76
     1
 77
     6
 78
     2
 67
     7
 79
     3
170
     0
171
     0
290
     0
174
     0
 93
        1
 44
0.0
173
     0
291
     0
 45
0.0
1001
ACAD
1000
AcDbSavedByObjectVersion
1070
     0
  0
VISUALSTYLE
  5
3F
102
{ACAD_XDICTIONARY
360
39D
102
}
102
{ACAD_REACTORS
330
2A
102
}
330
2A
100
AcDbVisualStyle
  2

 70
    24
 71
     1
 72
     2
 73
     2
 90
        0
 40
-0.6
 41
-30.0
 62
     5
 63
     7
421
 16777215
 74
     2
 91
        2
 64
     7
 65
     7
 75
     1
175
     1
 42
40.0
 92
       11
 66
     7
 43
1.0
 76
     1
 77
     6
 78
     2
 67
     7
 79
     6
170
     0
171
     0
290
     0
174
     0
 93
        1
 44
0.0
173
     0
291
     0
 45
0.0
1001
ACAD
1000
AcDbSavedByObjectVersion
1070
     0
  0
VISUALSTYLE
  5
37
102
{ACAD_XDICTIONARY
360
38D
102
}
102
{ACAD_REACTORS
330
2A
102
}
330
2A
100
AcDbVisualStyle
  2

 70
    13
 71
     2
 72
     2
 73
     0
 90
        0
 40
-0.6
 41
-30.0
 62
     5
 63
     7
421
 16777215
 74
     1
 91
        4
 64
     7
 65
   257
 75
     1
175
     1
 42
1.0
 92
       12
 66
     7
 43
1.0
 76
     1
 77
     6
 78
     2
 67
     7
 79
     5
170
     0
171
     0
290
     0
174
     0
 93
        1
 44
0.0
173
     0
291
     1
 45
0.0
1001
ACAD
1000
AcDbSavedByObjectVersion
1070
     0
  0
VISUALSTYLE
  5
30
102
{ACAD_XDICTIONARY
360
37F
102
}
102
{ACAD_REACTORS
330
2A
102
}
330
2A
100
AcDbVisualStyle
  2

 70
     5
 71
     0
 72
     2
 73
     0
 90
        0
 40
-0.6
 41
-30.0
 62
     5
 63
     7
421
 16777215
 74
     1
 91
        4
 64
     7
 65
   257
 75
     1
175
     1
 42
1.0
 92
        0
 66
   257
 43
1.0
 76
     1
 77
     6
 78
     2
 67
     7
 79
     3
170
     0
171
     0
290
     0
174
     0
 93
        1
 44
0.0
173
     0
291
     0
 45
0.0
1001
ACAD
1000
AcDbSavedByObjectVersion
1070
     0
  0
VISUALSTYLE
  5
40
102
{ACAD_XDICTIONARY
360
39F
102
}
102
{ACAD_REACTORS
330
2A
102
}
330
2A
100
AcDbVisualStyle
  2

 70
    25
 71
     2
 72
     2
 73
     1
 90
        1
 40
0.5
 41
-30.0
 62
     5
 63
     7
421
 16777215
 74
     1
 91
        0
 64
     7
 65
   257
 75
     1
175
     1
 42
1.0
 92
        8
 66
     7
 43
1.0
 76
     1
 77
     6
 78
     2
 67
     7
 79
     3
170
     0
171
     0
290
     0
174
     0
 93
       13
 44
0.0
173
     0
291
     0
 45
0.0
1001
ACAD
1000
AcDbSavedByObjectVersion
1070
     0
  0
DICTIONARYVAR
  5
2C3
102
{ACAD_REACTORS
330
2C2
102
}
330
2C2
100
DictionaryVariables
280
     0
  1
1:1
  0
DICTIONARYVAR
  5
304
102
{ACAD_REACTORS
330
2C2
102
}
330
2C2
100
DictionaryVariables
280
     0
  1
STANDARD
  0
DICTIONARYVAR
  5
303
102
{ACAD_REACTORS
330
2C2
102
}
330
2C2
100
DictionaryVariables
280
     0
  1
STANDARD
  0
DICTIONARYVAR
  5
36F
102
{ACAD_REACTORS
330
2C2
102
}
330
2C2
100
DictionaryVariables
280
     0
  1
Metric50
  0
DICTIONARYVAR
  5
370
102
{ACAD_REACTORS
330
2C2
102
}
330
2C2
100
DictionaryVariables
280
     0
  1
Metric50
  0
DICTIONARYVAR
  5
2C4
102
{ACAD_REACTORS
330
2C2
102
}
330
2C2
100
DictionaryVariables
280
     0
  1
1
  0
DICTIONARYVAR
  5
371
102
{ACAD_REACTORS
330
2C2
102
}
330
2C2
100
DictionaryVariables
280
     0
  1
2
  0
DICTIONARY
  5
3A8
330
30B
100
AcDbDictionary
280
     1
281
     1
  3
ACAD_XREC_ROUNDTRIP
360
3A9
  0
DICTIONARY
  5
2F8
330
45
100
AcDbDictionary
280
     1
281
     1
  3
ACAD_XREC_ROUNDTRIP
360
2F9
  0
DICTIONARY
  5
2F6
330
44
100
AcDbDictionary
280
     1
281
     1
  3
ACAD_XREC_ROUNDTRIP
360
2F7
  0
DICTIONARY
  5
2FA
330
46
100
AcDbDictionary
280
     1
281
     1
  3
ACAD_XREC_ROUNDTRIP
360
2FB
  0
DICTIONARY
  5
3A6
330
30A
100
AcDbDictionary
280
     1
281
     1
  3
ACAD_XREC_ROUNDTRIP
360
3A7
  0
DICTIONARY
  5
2FC
330
6A
100
AcDbDictionary
280
     1
281
     1
  3
ACAD_ROUNDTRIP_2008_TABLESTYLE_CELLSTYLEMAP
360
373
  3
ACAD_XREC_ROUNDTRIP
360
3A5
  0
DICTIONARY
  5
37D
330
2F
100
AcDbDictionary
280
     1
281
     1
  3
ACAD_XREC_ROUNDTRIP
360
37E
  0
DICTIONARY
  5
383
330
32
100
AcDbDictionary
280
     1
281
     1
  3
ACAD_XREC_ROUNDTRIP
360
384
  0
DICTIONARY
  5
38B
330
36
100
AcDbDictionary
280
     1
281
     1
  3
ACAD_XREC_ROUNDTRIP
360
38C
  0
DICTIONARY
  5
393
330
3A
100
AcDbDictionary
280
     1
281
     1
  3
ACAD_XREC_ROUNDTRIP
360
394
  0
DICTIONARY
  5
387
330
34
100
AcDbDictionary
280
     1
281
     1
  3
ACAD_XREC_ROUNDTRIP
360
388
  0
DICTIONARY
  5
389
330
35
100
AcDbDictionary
280
     1
281
     1
  3
ACAD_XREC_ROUNDTRIP
360
38A
  0
DICTIONARY
  5
399
330
3D
100
AcDbDictionary
280
     1
281
     1
  3
ACAD_XREC_ROUNDTRIP
360
39A
  0
DICTIONARY
  5
391
330
39
100
AcDbDictionary
280
     1
281
     1
  3
ACAD_XREC_ROUNDTRIP
360
392
  0
DICTIONARY
  5
375
330
2B
100
AcDbDictionary
280
     1
281
     1
  3
ACAD_XREC_ROUNDTRIP
360
376
  0
DICTIONARY
  5
377
330
2C
100
AcDbDictionary
280
     1
281
     1
  3
ACAD_XREC_ROUNDTRIP
360
378
  0
DICTIONARY
  5
379
330
2D
100
AcDbDictionary
280
     1
281
     1
  3
ACAD_XREC_ROUNDTRIP
360
37A
  0
DICTIONARY
  5
37B
330
2E
100
AcDbDictionary
280
     1
281
     1
  3
ACAD_XREC_ROUNDTRIP
360
37C
  0
DICTIONARY
  5
381
330
31
100
AcDbDictionary
280
     1
281
     1
  3
ACAD_XREC_ROUNDTRIP
360
382
  0
DICTIONARY
  5
395
330
3B
100
AcDbDictionary
280
     1
281
     1
  3
ACAD_XREC_ROUNDTRIP
360
396
  0
DICTIONARY
  5
38F
330
38
100
AcDbDictionary
280
     1
281
     1
  3
ACAD_XREC_ROUNDTRIP
360
390
  0
DICTIONARY
  5
397
330
3C
100
AcDbDictionary
280
     1
281
     1
  3
ACAD_XREC_ROUNDTRIP
360
398
  0
DICTIONARY
  5
385
330
33
100
AcDbDictionary
280
     1
281
     1
  3
ACAD_XREC_ROUNDTRIP
360
386
  0
DICTIONARY
  5
3A3
330
42
100
AcDbDictionary
280
     1
281
     1
  3
ACAD_XREC_ROUNDTRIP
360
3A4
  0
DICTIONARY
  5
3A1
330
41
100
AcDbDictionary
280
     1
281
     1
  3
ACAD_XREC_ROUNDTRIP
360
3A2
  0
DICTIONARY
  5
39B
330
3E
100
AcDbDictionary
280
     1
281
     1
  3
ACAD_XREC_ROUNDTRIP
360
39C
  0
DICTIONARY
  5
39D
330
3F
100
AcDbDictionary
280
     1
281
     1
  3
ACAD_XREC_ROUNDTRIP
360
39E
  0
DICTIONARY
  5
38D
330
37
100
AcDbDictionary
280
     1
281
     1
  3
ACAD_XREC_ROUNDTRIP
360
38E
  0
DICTIONARY
  5
37F
330
30
100
AcDbDictionary
280
     1
281
     1
  3
ACAD_XREC_ROUNDTRIP
360
380
  0
DICTIONARY
  5
39F
330
40
100
AcDbDictionary
280
     1
281
     1
  3
ACAD_XREC_ROUNDTRIP
360
3A0
  0
XRECORD
  5
3A9
102
{ACAD_REACTORS
330
3A8
102
}
330
3A8
100
AcDbXrecord
280
     1
102
DISPLAYNAME
  1
Metric50
102
FLAGS
 90
        0
  0
XRECORD
  5
2F9
102
{ACAD_REACTORS
330
2F8
102
}
330
2F8
100
AcDbXrecord
280
     1
102
MATERIAL
148
0.0
149
0.0
149
0.0
 93
        0
 94
      127
282
     0
 72
     1
 77
     1
171
     1
175
     1
179
     1
273
     0
  0
XRECORD
  5
2F7
102
{ACAD_REACTORS
330
2F6
102
}
330
2F6
100
AcDbXrecord
280
     1
102
MATERIAL
148
0.0
149
0.0
149
0.0
 93
        0
 94
      127
282
     0
 72
     1
 77
     1
171
     1
175
     1
179
     1
273
     0
  0
XRECORD
  5
2FB
102
{ACAD_REACTORS
330
2FA
102
}
330
2FA
100
AcDbXrecord
280
     1
102
MATERIAL
148
0.0
149
0.0
149
0.0
 93
        0
 94
      127
282
     0
 72
     1
 77
     1
171
     1
175
     1
179
     1
273
     0
  0
XRECORD
  5
3A7
102
{ACAD_REACTORS
330
3A6
102
}
330
3A6
100
AcDbXrecord
280
     1
102
DISPLAYNAME
  1
Metric50
102
FLAGS
 90
        0
  0
CELLSTYLEMAP
  5
373
102
{ACAD_REACTORS
330
2FC
102
}
330
2FC
100
AcDbCellStyleMap
 90
        3
300
CELLSTYLE
  1
TABLEFORMAT_BEGIN
 90
        5
170
     1
 91
        0
 92
    32768
 62
   257
 93
        1
300
CONTENTFORMAT
  1
CONTENTFORMAT_BEGIN
 90
        0
 91
        0
 92
        4
 93
        0
300

 40
0.0
140
1.0
 94
        5
 62
     0
340
11
144
0.25
309
CONTENTFORMAT_END
171
     1
301
MARGIN
  1
CELLMARGIN_BEGIN
 40
0.06
 40
0.06
 40
0.06
 40
0.06
 40
0.18
 40
0.18
309
CELLMARGIN_END
 94
        6
 95
        1
302
GRIDFORMAT
  1
GRIDFORMAT_BEGIN
 90
        0
 91
        1
 62
     0
 92
       -2
340
14
 93
        0
 40
0.045
309
GRIDFORMAT_END
 95
        2
302
GRIDFORMAT
  1
GRIDFORMAT_BEGIN
 90
        0
 91
        1
 62
     0
 92
       -2
340
14
 93
        0
 40
0.045
309
GRIDFORMAT_END
 95
        4
302
GRIDFORMAT
  1
GRIDFORMAT_BEGIN
 90
        0
 91
        1
 62
     0
 92
       -2
340
14
 93
        0
 40
0.045
309
GRIDFORMAT_END
 95
        8
302
GRIDFORMAT
  1
GRIDFORMAT_BEGIN
 90
        0
 91
        1
 62
     0
 92
       -2
340
14
 93
        0
 40
0.045
309
GRIDFORMAT_END
 95
       16
302
GRIDFORMAT
  1
GRIDFORMAT_BEGIN
 90
        0
 91
        1
 62
     0
 92
       -2
340
14
 93
        0
 40
0.045
309
GRIDFORMAT_END
 95
       32
302
GRIDFORMAT
  1
GRIDFORMAT_BEGIN
 90
        0
 91
        1
 62
     0
 92
       -2
340
14
 93
        0
 40
0.045
309
GRIDFORMAT_END
309
TABLEFORMAT_END
  1
CELLSTYLE_BEGIN
 90
        1
 91
        1
300
_TITLE
309
CELLSTYLE_END
300
CELLSTYLE
  1
TABLEFORMAT_BEGIN
 90
        5
170
     1
 91
        0
 92
        0
 62
   257
 93
        1
300
CONTENTFORMAT
  1
CONTENTFORMAT_BEGIN
 90
        0
 91
        0
 92
        4
 93
        0
300

 40
0.0
140
1.0
 94
        5
 62
     0
340
11
144
0.18
309
CONTENTFORMAT_END
171
     1
301
MARGIN
  1
CELLMARGIN_BEGIN
 40
0.06
 40
0.06
 40
0.06
 40
0.06
 40
0.18
 40
0.18
309
CELLMARGIN_END
 94
        6
 95
        1
302
GRIDFORMAT
  1
GRIDFORMAT_BEGIN
 90
        0
 91
        1
 62
     0
 92
       -2
340
14
 93
        0
 40
0.045
309
GRIDFORMAT_END
 95
        2
302
GRIDFORMAT
  1
GRIDFORMAT_BEGIN
 90
        0
 91
        1
 62
     0
 92
       -2
340
14
 93
        0
 40
0.045
309
GRIDFORMAT_END
 95
        4
302
GRIDFORMAT
  1
GRIDFORMAT_BEGIN
 90
        0
 91
        1
 62
     0
 92
       -2
340
14
 93
        0
 40
0.045
309
GRIDFORMAT_END
 95
        8
302
GRIDFORMAT
  1
GRIDFORMAT_BEGIN
 90
        0
 91
        1
 62
     0
 92
       -2
340
14
 93
        0
 40
0.045
309
GRIDFORMAT_END
 95
       16
302
GRIDFORMAT
  1
GRIDFORMAT_BEGIN
 90
        0
 91
        1
 62
     0
 92
       -2
340
14
 93
        0
 40
0.045
309
GRIDFORMAT_END
 95
       32
302
GRIDFORMAT
  1
GRIDFORMAT_BEGIN
 90
        0
 91
        1
 62
     0
 92
       -2
340
14
 93
        0
 40
0.045
309
GRIDFORMAT_END
309
TABLEFORMAT_END
  1
CELLSTYLE_BEGIN
 90
        2
 91
        1
300
_HEADER
309
CELLSTYLE_END
300
CELLSTYLE
  1
TABLEFORMAT_BEGIN
 90
        5
170
     1
 91
        0
 92
        0
 62
   257
 93
        1
300
CONTENTFORMAT
  1
CONTENTFORMAT_BEGIN
 90
        0
 91
        0
 92
        4
 93
        0
300

 40
0.0
140
1.0
 94
        2
 62
     0
340
11
144
0.18
309
CONTENTFORMAT_END
171
     1
301
MARGIN
  1
CELLMARGIN_BEGIN
 40
0.06
 40
0.06
 40
0.06
 40
0.06
 40
0.18
 40
0.18
309
CELLMARGIN_END
 94
        6
 95
        1
302
GRIDFORMAT
  1
GRIDFORMAT_BEGIN
 90
        0
 91
        1
 62
     0
 92
       -2
340
14
 93
        0
 40
0.045
309
GRIDFORMAT_END
 95
        2
302
GRIDFORMAT
  1
GRIDFORMAT_BEGIN
 90
        0
 91
        1
 62
     0
 92
       -2
340
14
 93
        0
 40
0.045
309
GRIDFORMAT_END
 95
        4
302
GRIDFORMAT
  1
GRIDFORMAT_BEGIN
 90
        0
 91
        1
 62
     0
 92
       -2
340
14
 93
        0
 40
0.045
309
GRIDFORMAT_END
 95
        8
302
GRIDFORMAT
  1
GRIDFORMAT_BEGIN
 90
        0
 91
        1
 62
     0
 92
       -2
340
14
 93
        0
 40
0.045
309
GRIDFORMAT_END
 95
       16
302
GRIDFORMAT
  1
GRIDFORMAT_BEGIN
 90
        0
 91
        1
 62
     0
 92
       -2
340
14
 93
        0
 40
0.045
309
GRIDFORMAT_END
 95
       32
302
GRIDFORMAT
  1
GRIDFORMAT_BEGIN
 90
        0
 91
        1
 62
     0
 92
       -2
340
14
 93
        0
 40
0.045
309
GRIDFORMAT_END
309
TABLEFORMAT_END
  1
CELLSTYLE_BEGIN
 90
        3
 91
        2
300
_DATA
309
CELLSTYLE_END
  0
XRECORD
  5
3A5
102
{ACAD_REACTORS
330
2FC
102
}
330
2FC
100
AcDbXrecord
280
     1
102
ACAD_ROUNDTRIP_PRE2007_TABLESTYLE
 90
        4
 91
        0
  1

 92
        4
 93
        0
  2

 94
        4
 95
        0
  3

  0
XRECORD
  5
37E
102
{ACAD_REACTORS
330
37D
102
}
330
37D
100
AcDbXrecord
280
     1
102
RTVSPost2010Prop28
280
     1
102
RTVSPost2010PropOp28
 70
     1
102
RTVSPost2010Prop29
280
     1
102
RTVSPost2010PropOp29
 70
     1
102
RTVSPost2010Prop30
280
     0
102
RTVSPost2010PropOp30
 70
     1
102
RTVSPost2010Prop31
280
     0
102
RTVSPost2010PropOp31
 70
     1
102
RTVSPost2010Prop32
280
     0
102
RTVSPost2010PropOp32
 70
     1
102
RTVSPost2010Prop33
280
     0
102
RTVSPost2010PropOp33
 70
     1
102
RTVSPost2010Prop34
280
     0
102
RTVSPost2010PropOp34
 70
     1
102
RTVSPost2010Prop35
280
     0
102
RTVSPost2010PropOp35
 70
     1
102
RTVSPost2010Prop36
280
     0
102
RTVSPost2010PropOp36
 70
     1
102
RTVSPost2010Prop37
 90
       50
102
RTVSPost2010PropOp37
 70
     1
102
RTVSPost2010Prop38
140
0.0
102
RTVSPost2010PropOp38
 70
     1
102
RTVSPost2010Prop39
140
1.0
102
RTVSPost2010PropOp39
 70
     1
102
RTVSPost2010Prop40
 90
        0
102
RTVSPost2010PropOp40
 70
     1
102
RTVSPost2010Prop41ColorIndex
 90
       18
102
RTVSPost2010Prop41ColorRGB
 90
        0
102
RTVSPost2010PropOp41
 70
     1
102
RTVSPost2010Prop42
 90
       50
102
RTVSPost2010PropOp42
 70
     1
102
RTVSPost2010Prop43
 90
        3
102
RTVSPost2010PropOp43
 70
     1
102
RTVSPost2010Prop44ColorIndex
 90
        5
102
RTVSPost2010Prop44ColorRGB
 90
      255
102
RTVSPost2010PropOp44
 70
     1
102
RTVSPost2010Prop45
280
     0
102
RTVSPost2010PropOp45
 70
     1
102
RTVSPost2010Prop46
 90
       50
102
RTVSPost2010PropOp46
 70
     1
102
RTVSPost2010Prop47
 90
       50
102
RTVSPost2010PropOp47
 70
     1
102
RTVSPost2010Prop48
 90
       50
102
RTVSPost2010PropOp48
 70
     1
102
RTVSPost2010Prop49
280
     0
102
RTVSPost2010PropOp49
 70
     1
102
RTVSPost2010Prop50
 90
       50
102
RTVSPost2010PropOp50
 70
     1
102
RTVSPost2010Prop51ColorIndex
 90
      256
102
RTVSPost2010Prop51ColorRGB
 90
-16777216
102
RTVSPost2010PropOp51
 70
     0
102
RTVSPost2010Prop52
140
1.0
102
RTVSPost2010PropOp52
 70
     0
102
RTVSPost2010Prop53
 90
        2
102
RTVSPost2010PropOp53
 70
     1
102
RTVSPost2010Prop54
  1
strokes_ogs.tif
102
RTVSPost2010PropOp54
 70
     1
102
RTVSPost2010Prop55
280
     0
102
RTVSPost2010PropOp55
 70
     1
102
RTVSPost2010Prop56
140
1.0
102
RTVSPost2010PropOp56
 70
     1
102
RTVSPost2010Prop57
140
1.0
102
RTVSPost2010PropOp57
 70
     1
102
RTVSPropertyOp0
 70
     1
102
RTVSPropertyOp1
 70
     1
102
RTVSPropertyOp2
 70
     1
102
RTVSPropertyOp3
 70
     1
102
RTVSPropertyOp4
 70
     1
102
RTVSPropertyOp5
 70
     1
102
RTVSPropertyOp6
 70
     1
102
RTVSPropertyOp7
 70
     1
102
RTVSPropertyOp8
 70
     1
102
RTVSPropertyOp9
 70
     1
102
RTVSPropertyOp10
 70
     1
102
RTVSPropertyOp11
 70
     1
102
RTVSPropertyOp12
 70
     1
102
RTVSPropertyOp13
 70
     1
102
RTVSPropertyOp14
 70
     1
102
RTVSPropertyOp15
 70
     1
102
RTVSPropertyOp16
 70
     1
102
RTVSPropertyOp17
 70
     1
102
RTVSPropertyOp18
 70
     1
102
RTVSPropertyOp19
 70
     1
102
RTVSPropertyOp20
 70
     1
102
RTVSPropertyOp21
 70
     1
102
RTVSPropertyOp22
 70
     1
102
RTVSPropertyOp23
 70
     1
102
RTVSPropertyOp24
 70
     1
102
RTVSPropertyOp25
 70
     1
102
RTVSPropertyOp26
 70
     1
102
RTVSPropertyOp27
 70
     1
102
RTVSPropertyOp28
 70
     1
102
RTVSPropertyOp29
 70
     1
102
RTVSPropertyOp30
 70
     1
102
RTVSPropertyOp31
 70
     1
102
RTVSPropertyOp32
 70
     1
102
RTVSPropertyOp33
 70
     1
102
RTVSPropertyOp34
 70
     1
102
RTVSPropertyOp35
 70
     1
102
RTVSPropertyOp36
 70
     1
102
RTVSPropertyOp37
 70
     1
102
RTVSPropertyOp38
 70
     1
102
RTVSPropertyOp39
 70
     1
102
RTVSPropertyOp40
 70
     1
102
RTVSPropertyOp41
 70
     1
102
RTVSPropertyOp42
 70
     1
102
RTVSPropertyOp43
 70
     1
102
RTVSPropertyOp44
 70
     1
102
RTVSPropertyOp45
 70
     1
102
RTVSPropertyOp46
 70
     1
102
RTVSPropertyOp47
 70
     1
102
RTVSPropertyOp48
 70
     1
102
RTVSPropertyOp49
 70
     1
102
RTVSPropertyOp50
 70
     1
102
RTVSPropertyOp51
 70
     0
102
RTVSPropertyOp52
 70
     0
102
RTVSPropertyOp53
 70
     1
102
RTVSPropertyOp54
 70
     1
102
RTVSPropertyOp55
 70
     1
102
RTVSPropertyOp56
 70
     1
102
RTVSPropertyOp57
 70
     1
102
RTVSPropertyOp58
 70
     1
102
RTVSPropertyOp59
 70
     1
102
RTVSPropertyOp60
 70
     1
102
RTVSPropertyOp61
 70
     1
102
RTVSPropertyOp62
 70
     1
  0
XRECORD
  5
384
102
{ACAD_REACTORS
330
383
102
}
330
383
100
AcDbXrecord
280
     1
102
RTVSPost2010Prop28
280
     0
102
RTVSPost2010PropOp28
 70
     1
102
RTVSPost2010Prop29
280
     1
102
RTVSPost2010PropOp29
 70
     1
102
RTVSPost2010Prop30
280
     1
102
RTVSPost2010PropOp30
 70
     1
102
RTVSPost2010Prop31
280
     0
102
RTVSPost2010PropOp31
 70
     1
102
RTVSPost2010Prop32
280
     0
102
RTVSPost2010PropOp32
 70
     1
102
RTVSPost2010Prop33
280
     0
102
RTVSPost2010PropOp33
 70
     1
102
RTVSPost2010Prop34
280
     0
102
RTVSPost2010PropOp34
 70
     1
102
RTVSPost2010Prop35
280
     0
102
RTVSPost2010PropOp35
 70
     1
102
RTVSPost2010Prop36
280
     0
102
RTVSPost2010PropOp36
 70
     1
102
RTVSPost2010Prop37
 90
       50
102
RTVSPost2010PropOp37
 70
     1
102
RTVSPost2010Prop38
140
0.0
102
RTVSPost2010PropOp38
 70
     1
102
RTVSPost2010Prop39
140
1.0
102
RTVSPost2010PropOp39
 70
     1
102
RTVSPost2010Prop40
 90
        0
102
RTVSPost2010PropOp40
 70
     1
102
RTVSPost2010Prop41ColorIndex
 90
       18
102
RTVSPost2010Prop41ColorRGB
 90
        0
102
RTVSPost2010PropOp41
 70
     1
102
RTVSPost2010Prop42
 90
       50
102
RTVSPost2010PropOp42
 70
     1
102
RTVSPost2010Prop43
 90
        3
102
RTVSPost2010PropOp43
 70
     1
102
RTVSPost2010Prop44ColorIndex
 90
        5
102
RTVSPost2010Prop44ColorRGB
 90
      255
102
RTVSPost2010PropOp44
 70
     1
102
RTVSPost2010Prop45
280
     0
102
RTVSPost2010PropOp45
 70
     1
102
RTVSPost2010Prop46
 90
       50
102
RTVSPost2010PropOp46
 70
     1
102
RTVSPost2010Prop47
 90
       50
102
RTVSPost2010PropOp47
 70
     1
102
RTVSPost2010Prop48
 90
       50
102
RTVSPost2010PropOp48
 70
     1
102
RTVSPost2010Prop49
280
     0
102
RTVSPost2010PropOp49
 70
     1
102
RTVSPost2010Prop50
 90
       50
102
RTVSPost2010PropOp50
 70
     1
102
RTVSPost2010Prop51ColorIndex
 90
      256
102
RTVSPost2010Prop51ColorRGB
 90
-16777216
102
RTVSPost2010PropOp51
 70
     0
102
RTVSPost2010Prop52
140
1.0
102
RTVSPost2010PropOp52
 70
     0
102
RTVSPost2010Prop53
 90
        2
102
RTVSPost2010PropOp53
 70
     1
102
RTVSPost2010Prop54
  1
strokes_ogs.tif
102
RTVSPost2010PropOp54
 70
     1
102
RTVSPost2010Prop55
280
     0
102
RTVSPost2010PropOp55
 70
     1
102
RTVSPost2010Prop56
140
1.0
102
RTVSPost2010PropOp56
 70
     1
102
RTVSPost2010Prop57
140
1.0
102
RTVSPost2010PropOp57
 70
     1
102
RTVSPropertyOp0
 70
     1
102
RTVSPropertyOp1
 70
     1
102
RTVSPropertyOp2
 70
     1
102
RTVSPropertyOp3
 70
     1
102
RTVSPropertyOp4
 70
     1
102
RTVSPropertyOp5
 70
     1
102
RTVSPropertyOp6
 70
     1
102
RTVSPropertyOp7
 70
     1
102
RTVSPropertyOp8
 70
     1
102
RTVSPropertyOp9
 70
     1
102
RTVSPropertyOp10
 70
     1
102
RTVSPropertyOp11
 70
     1
102
RTVSPropertyOp12
 70
     1
102
RTVSPropertyOp13
 70
     1
102
RTVSPropertyOp14
 70
     1
102
RTVSPropertyOp15
 70
     1
102
RTVSPropertyOp16
 70
     1
102
RTVSPropertyOp17
 70
     1
102
RTVSPropertyOp18
 70
     1
102
RTVSPropertyOp19
 70
     1
102
RTVSPropertyOp20
 70
     1
102
RTVSPropertyOp21
 70
     1
102
RTVSPropertyOp22
 70
     1
102
RTVSPropertyOp23
 70
     1
102
RTVSPropertyOp24
 70
     1
102
RTVSPropertyOp25
 70
     1
102
RTVSPropertyOp26
 70
     1
102
RTVSPropertyOp27
 70
     1
102
RTVSPropertyOp28
 70
     1
102
RTVSPropertyOp29
 70
     1
102
RTVSPropertyOp30
 70
     1
102
RTVSPropertyOp31
 70
     1
102
RTVSPropertyOp32
 70
     1
102
RTVSPropertyOp33
 70
     1
102
RTVSPropertyOp34
 70
     1
102
RTVSPropertyOp35
 70
     1
102
RTVSPropertyOp36
 70
     1
102
RTVSPropertyOp37
 70
     1
102
RTVSPropertyOp38
 70
     1
102
RTVSPropertyOp39
 70
     1
102
RTVSPropertyOp40
 70
     1
102
RTVSPropertyOp41
 70
     1
102
RTVSPropertyOp42
 70
     1
102
RTVSPropertyOp43
 70
     1
102
RTVSPropertyOp44
 70
     1
102
RTVSPropertyOp45
 70
     1
102
RTVSPropertyOp46
 70
     1
102
RTVSPropertyOp47
 70
     1
102
RTVSPropertyOp48
 70
     1
102
RTVSPropertyOp49
 70
     1
102
RTVSPropertyOp50
 70
     1
102
RTVSPropertyOp51
 70
     0
102
RTVSPropertyOp52
 70
     0
102
RTVSPropertyOp53
 70
     1
102
RTVSPropertyOp54
 70
     1
102
RTVSPropertyOp55
 70
     1
102
RTVSPropertyOp56
 70
     1
102
RTVSPropertyOp57
 70
     1
102
RTVSPropertyOp58
 70
     1
102
RTVSPropertyOp59
 70
     1
102
RTVSPropertyOp60
 70
     1
102
RTVSPropertyOp61
 70
     1
102
RTVSPropertyOp62
 70
     1
  0
XRECORD
  5
38C
102
{ACAD_REACTORS
330
38B
102
}
330
38B
100
AcDbXrecord
280
     1
102
RTVSPost2010Prop28
280
     0
102
RTVSPost2010PropOp28
 70
     1
102
RTVSPost2010Prop29
280
     1
102
RTVSPost2010PropOp29
 70
     1
102
RTVSPost2010Prop30
280
     1
102
RTVSPost2010PropOp30
 70
     1
102
RTVSPost2010Prop31
280
     0
102
RTVSPost2010PropOp31
 70
     1
102
RTVSPost2010Prop32
280
     0
102
RTVSPost2010PropOp32
 70
     1
102
RTVSPost2010Prop33
280
     0
102
RTVSPost2010PropOp33
 70
     1
102
RTVSPost2010Prop34
280
     0
102
RTVSPost2010PropOp34
 70
     1
102
RTVSPost2010Prop35
280
     0
102
RTVSPost2010PropOp35
 70
     1
102
RTVSPost2010Prop36
280
     0
102
RTVSPost2010PropOp36
 70
     1
102
RTVSPost2010Prop37
 90
       50
102
RTVSPost2010PropOp37
 70
     1
102
RTVSPost2010Prop38
140
0.0
102
RTVSPost2010PropOp38
 70
     1
102
RTVSPost2010Prop39
140
1.0
102
RTVSPost2010PropOp39
 70
     1
102
RTVSPost2010Prop40
 90
        0
102
RTVSPost2010PropOp40
 70
     1
102
RTVSPost2010Prop41ColorIndex
 90
       18
102
RTVSPost2010Prop41ColorRGB
 90
        0
102
RTVSPost2010PropOp41
 70
     1
102
RTVSPost2010Prop42
 90
       50
102
RTVSPost2010PropOp42
 70
     1
102
RTVSPost2010Prop43
 90
        3
102
RTVSPost2010PropOp43
 70
     1
102
RTVSPost2010Prop44ColorIndex
 90
        5
102
RTVSPost2010Prop44ColorRGB
 90
      255
102
RTVSPost2010PropOp44
 70
     1
102
RTVSPost2010Prop45
280
     0
102
RTVSPost2010PropOp45
 70
     1
102
RTVSPost2010Prop46
 90
       50
102
RTVSPost2010PropOp46
 70
     1
102
RTVSPost2010Prop47
 90
       50
102
RTVSPost2010PropOp47
 70
     1
102
RTVSPost2010Prop48
 90
       50
102
RTVSPost2010PropOp48
 70
     1
102
RTVSPost2010Prop49
280
     0
102
RTVSPost2010PropOp49
 70
     1
102
RTVSPost2010Prop50
 90
       50
102
RTVSPost2010PropOp50
 70
     1
102
RTVSPost2010Prop51ColorIndex
 90
      256
102
RTVSPost2010Prop51ColorRGB
 90
-16777216
102
RTVSPost2010PropOp51
 70
     0
102
RTVSPost2010Prop52
140
1.0
102
RTVSPost2010PropOp52
 70
     0
102
RTVSPost2010Prop53
 90
        2
102
RTVSPost2010PropOp53
 70
     1
102
RTVSPost2010Prop54
  1
strokes_ogs.tif
102
RTVSPost2010PropOp54
 70
     1
102
RTVSPost2010Prop55
280
     0
102
RTVSPost2010PropOp55
 70
     1
102
RTVSPost2010Prop56
140
1.0
102
RTVSPost2010PropOp56
 70
     1
102
RTVSPost2010Prop57
140
1.0
102
RTVSPost2010PropOp57
 70
     1
102
RTVSPropertyOp0
 70
     1
102
RTVSPropertyOp1
 70
     1
102
RTVSPropertyOp2
 70
     1
102
RTVSPropertyOp3
 70
     1
102
RTVSPropertyOp4
 70
     1
102
RTVSPropertyOp5
 70
     1
102
RTVSPropertyOp6
 70
     1
102
RTVSPropertyOp7
 70
     1
102
RTVSPropertyOp8
 70
     1
102
RTVSPropertyOp9
 70
     1
102
RTVSPropertyOp10
 70
     1
102
RTVSPropertyOp11
 70
     1
102
RTVSPropertyOp12
 70
     1
102
RTVSPropertyOp13
 70
     1
102
RTVSPropertyOp14
 70
     1
102
RTVSPropertyOp15
 70
     1
102
RTVSPropertyOp16
 70
     1
102
RTVSPropertyOp17
 70
     1
102
RTVSPropertyOp18
 70
     1
102
RTVSPropertyOp19
 70
     1
102
RTVSPropertyOp20
 70
     1
102
RTVSPropertyOp21
 70
     1
102
RTVSPropertyOp22
 70
     1
102
RTVSPropertyOp23
 70
     1
102
RTVSPropertyOp24
 70
     1
102
RTVSPropertyOp25
 70
     1
102
RTVSPropertyOp26
 70
     1
102
RTVSPropertyOp27
 70
     1
102
RTVSPropertyOp28
 70
     1
102
RTVSPropertyOp29
 70
     1
102
RTVSPropertyOp30
 70
     1
102
RTVSPropertyOp31
 70
     1
102
RTVSPropertyOp32
 70
     1
102
RTVSPropertyOp33
 70
     1
102
RTVSPropertyOp34
 70
     1
102
RTVSPropertyOp35
 70
     1
102
RTVSPropertyOp36
 70
     1
102
RTVSPropertyOp37
 70
     1
102
RTVSPropertyOp38
 70
     1
102
RTVSPropertyOp39
 70
     1
102
RTVSPropertyOp40
 70
     1
102
RTVSPropertyOp41
 70
     1
102
RTVSPropertyOp42
 70
     1
102
RTVSPropertyOp43
 70
     1
102
RTVSPropertyOp44
 70
     1
102
RTVSPropertyOp45
 70
     1
102
RTVSPropertyOp46
 70
     1
102
RTVSPropertyOp47
 70
     1
102
RTVSPropertyOp48
 70
     1
102
RTVSPropertyOp49
 70
     1
102
RTVSPropertyOp50
 70
     1
102
RTVSPropertyOp51
 70
     0
102
RTVSPropertyOp52
 70
     0
102
RTVSPropertyOp53
 70
     1
102
RTVSPropertyOp54
 70
     1
102
RTVSPropertyOp55
 70
     1
102
RTVSPropertyOp56
 70
     1
102
RTVSPropertyOp57
 70
     1
102
RTVSPropertyOp58
 70
     1
102
RTVSPropertyOp59
 70
     1
102
RTVSPropertyOp60
 70
     1
102
RTVSPropertyOp61
 70
     1
102
RTVSPropertyOp62
 70
     1
  0
XRECORD
  5
394
102
{ACAD_REACTORS
330
393
102
}
330
393
100
AcDbXrecord
280
     1
102
RTVSPost2010Prop28
280
     0
102
RTVSPost2010PropOp28
 70
     1
102
RTVSPost2010Prop29
280
     1
102
RTVSPost2010PropOp29
 70
     1
102
RTVSPost2010Prop30
280
     1
102
RTVSPost2010PropOp30
 70
     1
102
RTVSPost2010Prop31
280
     0
102
RTVSPost2010PropOp31
 70
     1
102
RTVSPost2010Prop32
280
     0
102
RTVSPost2010PropOp32
 70
     1
102
RTVSPost2010Prop33
280
     0
102
RTVSPost2010PropOp33
 70
     1
102
RTVSPost2010Prop34
280
     0
102
RTVSPost2010PropOp34
 70
     1
102
RTVSPost2010Prop35
280
     0
102
RTVSPost2010PropOp35
 70
     1
102
RTVSPost2010Prop36
280
     0
102
RTVSPost2010PropOp36
 70
     1
102
RTVSPost2010Prop37
 90
       50
102
RTVSPost2010PropOp37
 70
     1
102
RTVSPost2010Prop38
140
0.0
102
RTVSPost2010PropOp38
 70
     1
102
RTVSPost2010Prop39
140
1.0
102
RTVSPost2010PropOp39
 70
     1
102
RTVSPost2010Prop40
 90
        0
102
RTVSPost2010PropOp40
 70
     1
102
RTVSPost2010Prop41ColorIndex
 90
       18
102
RTVSPost2010Prop41ColorRGB
 90
        0
102
RTVSPost2010PropOp41
 70
     1
102
RTVSPost2010Prop42
 90
       50
102
RTVSPost2010PropOp42
 70
     1
102
RTVSPost2010Prop43
 90
        3
102
RTVSPost2010PropOp43
 70
     1
102
RTVSPost2010Prop44ColorIndex
 90
        5
102
RTVSPost2010Prop44ColorRGB
 90
      255
102
RTVSPost2010PropOp44
 70
     1
102
RTVSPost2010Prop45
280
     0
102
RTVSPost2010PropOp45
 70
     1
102
RTVSPost2010Prop46
 90
       50
102
RTVSPost2010PropOp46
 70
     1
102
RTVSPost2010Prop47
 90
       50
102
RTVSPost2010PropOp47
 70
     1
102
RTVSPost2010Prop48
 90
       50
102
RTVSPost2010PropOp48
 70
     1
102
RTVSPost2010Prop49
280
     0
102
RTVSPost2010PropOp49
 70
     1
102
RTVSPost2010Prop50
 90
       50
102
RTVSPost2010PropOp50
 70
     1
102
RTVSPost2010Prop51ColorIndex
 90
      256
102
RTVSPost2010Prop51ColorRGB
 90
-16777216
102
RTVSPost2010PropOp51
 70
     0
102
RTVSPost2010Prop52
140
1.0
102
RTVSPost2010PropOp52
 70
     0
102
RTVSPost2010Prop53
 90
        2
102
RTVSPost2010PropOp53
 70
     1
102
RTVSPost2010Prop54
  1
strokes_ogs.tif
102
RTVSPost2010PropOp54
 70
     1
102
RTVSPost2010Prop55
280
     0
102
RTVSPost2010PropOp55
 70
     1
102
RTVSPost2010Prop56
140
1.0
102
RTVSPost2010PropOp56
 70
     1
102
RTVSPost2010Prop57
140
1.0
102
RTVSPost2010PropOp57
 70
     1
102
RTVSPropertyOp0
 70
     1
102
RTVSPropertyOp1
 70
     1
102
RTVSPropertyOp2
 70
     1
102
RTVSPropertyOp3
 70
     1
102
RTVSPropertyOp4
 70
     1
102
RTVSPropertyOp5
 70
     1
102
RTVSPropertyOp6
 70
     1
102
RTVSPropertyOp7
 70
     1
102
RTVSPropertyOp8
 70
     1
102
RTVSPropertyOp9
 70
     1
102
RTVSPropertyOp10
 70
     1
102
RTVSPropertyOp11
 70
     1
102
RTVSPropertyOp12
 70
     1
102
RTVSPropertyOp13
 70
     1
102
RTVSPropertyOp14
 70
     1
102
RTVSPropertyOp15
 70
     1
102
RTVSPropertyOp16
 70
     1
102
RTVSPropertyOp17
 70
     1
102
RTVSPropertyOp18
 70
     1
102
RTVSPropertyOp19
 70
     1
102
RTVSPropertyOp20
 70
     1
102
RTVSPropertyOp21
 70
     1
102
RTVSPropertyOp22
 70
     1
102
RTVSPropertyOp23
 70
     1
102
RTVSPropertyOp24
 70
     1
102
RTVSPropertyOp25
 70
     1
102
RTVSPropertyOp26
 70
     1
102
RTVSPropertyOp27
 70
     1
102
RTVSPropertyOp28
 70
     1
102
RTVSPropertyOp29
 70
     1
102
RTVSPropertyOp30
 70
     1
102
RTVSPropertyOp31
 70
     1
102
RTVSPropertyOp32
 70
     1
102
RTVSPropertyOp33
 70
     1
102
RTVSPropertyOp34
 70
     1
102
RTVSPropertyOp35
 70
     1
102
RTVSPropertyOp36
 70
     1
102
RTVSPropertyOp37
 70
     1
102
RTVSPropertyOp38
 70
     1
102
RTVSPropertyOp39
 70
     1
102
RTVSPropertyOp40
 70
     1
102
RTVSPropertyOp41
 70
     1
102
RTVSPropertyOp42
 70
     1
102
RTVSPropertyOp43
 70
     1
102
RTVSPropertyOp44
 70
     1
102
RTVSPropertyOp45
 70
     1
102
RTVSPropertyOp46
 70
     1
102
RTVSPropertyOp47
 70
     1
102
RTVSPropertyOp48
 70
     1
102
RTVSPropertyOp49
 70
     1
102
RTVSPropertyOp50
 70
     1
102
RTVSPropertyOp51
 70
     0
102
RTVSPropertyOp52
 70
     0
102
RTVSPropertyOp53
 70
     1
102
RTVSPropertyOp54
 70
     1
102
RTVSPropertyOp55
 70
     1
102
RTVSPropertyOp56
 70
     1
102
RTVSPropertyOp57
 70
     1
102
RTVSPropertyOp58
 70
     1
102
RTVSPropertyOp59
 70
     1
102
RTVSPropertyOp60
 70
     1
102
RTVSPropertyOp61
 70
     1
102
RTVSPropertyOp62
 70
     1
  0
XRECORD
  5
388
102
{ACAD_REACTORS
330
387
102
}
330
387
100
AcDbXrecord
280
     1
102
RTVSPost2010Prop28
280
     0
102
RTVSPost2010PropOp28
 70
     1
102
RTVSPost2010Prop29
280
     1
102
RTVSPost2010PropOp29
 70
     1
102
RTVSPost2010Prop30
280
     1
102
RTVSPost2010PropOp30
 70
     1
102
RTVSPost2010Prop31
280
     0
102
RTVSPost2010PropOp31
 70
     1
102
RTVSPost2010Prop32
280
     0
102
RTVSPost2010PropOp32
 70
     1
102
RTVSPost2010Prop33
280
     0
102
RTVSPost2010PropOp33
 70
     1
102
RTVSPost2010Prop34
280
     0
102
RTVSPost2010PropOp34
 70
     1
102
RTVSPost2010Prop35
280
     0
102
RTVSPost2010PropOp35
 70
     1
102
RTVSPost2010Prop36
280
     0
102
RTVSPost2010PropOp36
 70
     1
102
RTVSPost2010Prop37
 90
       50
102
RTVSPost2010PropOp37
 70
     1
102
RTVSPost2010Prop38
140
0.0
102
RTVSPost2010PropOp38
 70
     1
102
RTVSPost2010Prop39
140
1.0
102
RTVSPost2010PropOp39
 70
     1
102
RTVSPost2010Prop40
 90
        0
102
RTVSPost2010PropOp40
 70
     1
102
RTVSPost2010Prop41ColorIndex
 90
       18
102
RTVSPost2010Prop41ColorRGB
 90
        0
102
RTVSPost2010PropOp41
 70
     1
102
RTVSPost2010Prop42
 90
       50
102
RTVSPost2010PropOp42
 70
     1
102
RTVSPost2010Prop43
 90
        3
102
RTVSPost2010PropOp43
 70
     1
102
RTVSPost2010Prop44ColorIndex
 90
        5
102
RTVSPost2010Prop44ColorRGB
 90
      255
102
RTVSPost2010PropOp44
 70
     1
102
RTVSPost2010Prop45
280
     0
102
RTVSPost2010PropOp45
 70
     1
102
RTVSPost2010Prop46
 90
       50
102
RTVSPost2010PropOp46
 70
     1
102
RTVSPost2010Prop47
 90
       50
102
RTVSPost2010PropOp47
 70
     1
102
RTVSPost2010Prop48
 90
       50
102
RTVSPost2010PropOp48
 70
     1
102
RTVSPost2010Prop49
280
     0
102
RTVSPost2010PropOp49
 70
     1
102
RTVSPost2010Prop50
 90
       50
102
RTVSPost2010PropOp50
 70
     1
102
RTVSPost2010Prop51ColorIndex
 90
      256
102
RTVSPost2010Prop51ColorRGB
 90
-16777216
102
RTVSPost2010PropOp51
 70
     0
102
RTVSPost2010Prop52
140
1.0
102
RTVSPost2010PropOp52
 70
     0
102
RTVSPost2010Prop53
 90
        2
102
RTVSPost2010PropOp53
 70
     1
102
RTVSPost2010Prop54
  1
strokes_ogs.tif
102
RTVSPost2010PropOp54
 70
     1
102
RTVSPost2010Prop55
280
     0
102
RTVSPost2010PropOp55
 70
     1
102
RTVSPost2010Prop56
140
1.0
102
RTVSPost2010PropOp56
 70
     1
102
RTVSPost2010Prop57
140
1.0
102
RTVSPost2010PropOp57
 70
     1
102
RTVSPropertyOp0
 70
     1
102
RTVSPropertyOp1
 70
     1
102
RTVSPropertyOp2
 70
     1
102
RTVSPropertyOp3
 70
     1
102
RTVSPropertyOp4
 70
     1
102
RTVSPropertyOp5
 70
     1
102
RTVSPropertyOp6
 70
     1
102
RTVSPropertyOp7
 70
     1
102
RTVSPropertyOp8
 70
     1
102
RTVSPropertyOp9
 70
     1
102
RTVSPropertyOp10
 70
     1
102
RTVSPropertyOp11
 70
     1
102
RTVSPropertyOp12
 70
     1
102
RTVSPropertyOp13
 70
     1
102
RTVSPropertyOp14
 70
     1
102
RTVSPropertyOp15
 70
     1
102
RTVSPropertyOp16
 70
     1
102
RTVSPropertyOp17
 70
     1
102
RTVSPropertyOp18
 70
     1
102
RTVSPropertyOp19
 70
     1
102
RTVSPropertyOp20
 70
     1
102
RTVSPropertyOp21
 70
     1
102
RTVSPropertyOp22
 70
     1
102
RTVSPropertyOp23
 70
     1
102
RTVSPropertyOp24
 70
     1
102
RTVSPropertyOp25
 70
     1
102
RTVSPropertyOp26
 70
     1
102
RTVSPropertyOp27
 70
     1
102
RTVSPropertyOp28
 70
     1
102
RTVSPropertyOp29
 70
     1
102
RTVSPropertyOp30
 70
     1
102
RTVSPropertyOp31
 70
     1
102
RTVSPropertyOp32
 70
     1
102
RTVSPropertyOp33
 70
     1
102
RTVSPropertyOp34
 70
     1
102
RTVSPropertyOp35
 70
     1
102
RTVSPropertyOp36
 70
     1
102
RTVSPropertyOp37
 70
     1
102
RTVSPropertyOp38
 70
     1
102
RTVSPropertyOp39
 70
     1
102
RTVSPropertyOp40
 70
     1
102
RTVSPropertyOp41
 70
     1
102
RTVSPropertyOp42
 70
     1
102
RTVSPropertyOp43
 70
     1
102
RTVSPropertyOp44
 70
     1
102
RTVSPropertyOp45
 70
     1
102
RTVSPropertyOp46
 70
     1
102
RTVSPropertyOp47
 70
     1
102
RTVSPropertyOp48
 70
     1
102
RTVSPropertyOp49
 70
     1
102
RTVSPropertyOp50
 70
     1
102
RTVSPropertyOp51
 70
     0
102
RTVSPropertyOp52
 70
     0
102
RTVSPropertyOp53
 70
     1
102
RTVSPropertyOp54
 70
     1
102
RTVSPropertyOp55
 70
     1
102
RTVSPropertyOp56
 70
     1
102
RTVSPropertyOp57
 70
     1
102
RTVSPropertyOp58
 70
     1
102
RTVSPropertyOp59
 70
     1
102
RTVSPropertyOp60
 70
     1
102
RTVSPropertyOp61
 70
     1
102
RTVSPropertyOp62
 70
     1
  0
XRECORD
  5
38A
102
{ACAD_REACTORS
330
389
102
}
330
389
100
AcDbXrecord
280
     1
102
RTVSPost2010Prop28
280
     0
102
RTVSPost2010PropOp28
 70
     1
102
RTVSPost2010Prop29
280
     1
102
RTVSPost2010PropOp29
 70
     1
102
RTVSPost2010Prop30
280
     1
102
RTVSPost2010PropOp30
 70
     1
102
RTVSPost2010Prop31
280
     0
102
RTVSPost2010PropOp31
 70
     1
102
RTVSPost2010Prop32
280
     0
102
RTVSPost2010PropOp32
 70
     1
102
RTVSPost2010Prop33
280
     0
102
RTVSPost2010PropOp33
 70
     1
102
RTVSPost2010Prop34
280
     0
102
RTVSPost2010PropOp34
 70
     1
102
RTVSPost2010Prop35
280
     0
102
RTVSPost2010PropOp35
 70
     1
102
RTVSPost2010Prop36
280
     0
102
RTVSPost2010PropOp36
 70
     1
102
RTVSPost2010Prop37
 90
       50
102
RTVSPost2010PropOp37
 70
     1
102
RTVSPost2010Prop38
140
0.0
102
RTVSPost2010PropOp38
 70
     1
102
RTVSPost2010Prop39
140
1.0
102
RTVSPost2010PropOp39
 70
     1
102
RTVSPost2010Prop40
 90
        0
102
RTVSPost2010PropOp40
 70
     1
102
RTVSPost2010Prop41ColorIndex
 90
       18
102
RTVSPost2010Prop41ColorRGB
 90
        0
102
RTVSPost2010PropOp41
 70
     1
102
RTVSPost2010Prop42
 90
       50
102
RTVSPost2010PropOp42
 70
     1
102
RTVSPost2010Prop43
 90
        3
102
RTVSPost2010PropOp43
 70
     1
102
RTVSPost2010Prop44ColorIndex
 90
        5
102
RTVSPost2010Prop44ColorRGB
 90
      255
102
RTVSPost2010PropOp44
 70
     1
102
RTVSPost2010Prop45
280
     0
102
RTVSPost2010PropOp45
 70
     1
102
RTVSPost2010Prop46
 90
       50
102
RTVSPost2010PropOp46
 70
     1
102
RTVSPost2010Prop47
 90
       50
102
RTVSPost2010PropOp47
 70
     1
102
RTVSPost2010Prop48
 90
       50
102
RTVSPost2010PropOp48
 70
     1
102
RTVSPost2010Prop49
280
     0
102
RTVSPost2010PropOp49
 70
     1
102
RTVSPost2010Prop50
 90
       50
102
RTVSPost2010PropOp50
 70
     1
102
RTVSPost2010Prop51ColorIndex
 90
      256
102
RTVSPost2010Prop51ColorRGB
 90
-16777216
102
RTVSPost2010PropOp51
 70
     0
102
RTVSPost2010Prop52
140
1.0
102
RTVSPost2010PropOp52
 70
     0
102
RTVSPost2010Prop53
 90
        2
102
RTVSPost2010PropOp53
 70
     1
102
RTVSPost2010Prop54
  1
strokes_ogs.tif
102
RTVSPost2010PropOp54
 70
     1
102
RTVSPost2010Prop55
280
     0
102
RTVSPost2010PropOp55
 70
     1
102
RTVSPost2010Prop56
140
1.0
102
RTVSPost2010PropOp56
 70
     1
102
RTVSPost2010Prop57
140
1.0
102
RTVSPost2010PropOp57
 70
     1
102
RTVSPropertyOp0
 70
     1
102
RTVSPropertyOp1
 70
     1
102
RTVSPropertyOp2
 70
     1
102
RTVSPropertyOp3
 70
     1
102
RTVSPropertyOp4
 70
     1
102
RTVSPropertyOp5
 70
     1
102
RTVSPropertyOp6
 70
     1
102
RTVSPropertyOp7
 70
     1
102
RTVSPropertyOp8
 70
     1
102
RTVSPropertyOp9
 70
     1
102
RTVSPropertyOp10
 70
     1
102
RTVSPropertyOp11
 70
     1
102
RTVSPropertyOp12
 70
     1
102
RTVSPropertyOp13
 70
     1
102
RTVSPropertyOp14
 70
     1
102
RTVSPropertyOp15
 70
     1
102
RTVSPropertyOp16
 70
     1
102
RTVSPropertyOp17
 70
     1
102
RTVSPropertyOp18
 70
     1
102
RTVSPropertyOp19
 70
     1
102
RTVSPropertyOp20
 70
     1
102
RTVSPropertyOp21
 70
     1
102
RTVSPropertyOp22
 70
     1
102
RTVSPropertyOp23
 70
     1
102
RTVSPropertyOp24
 70
     1
102
RTVSPropertyOp25
 70
     1
102
RTVSPropertyOp26
 70
     1
102
RTVSPropertyOp27
 70
     1
102
RTVSPropertyOp28
 70
     1
102
RTVSPropertyOp29
 70
     1
102
RTVSPropertyOp30
 70
     1
102
RTVSPropertyOp31
 70
     1
102
RTVSPropertyOp32
 70
     1
102
RTVSPropertyOp33
 70
     1
102
RTVSPropertyOp34
 70
     1
102
RTVSPropertyOp35
 70
     1
102
RTVSPropertyOp36
 70
     1
102
RTVSPropertyOp37
 70
     1
102
RTVSPropertyOp38
 70
     1
102
RTVSPropertyOp39
 70
     1
102
RTVSPropertyOp40
 70
     1
102
RTVSPropertyOp41
 70
     1
102
RTVSPropertyOp42
 70
     1
102
RTVSPropertyOp43
 70
     1
102
RTVSPropertyOp44
 70
     1
102
RTVSPropertyOp45
 70
     1
102
RTVSPropertyOp46
 70
     1
102
RTVSPropertyOp47
 70
     1
102
RTVSPropertyOp48
 70
     1
102
RTVSPropertyOp49
 70
     1
102
RTVSPropertyOp50
 70
     1
102
RTVSPropertyOp51
 70
     0
102
RTVSPropertyOp52
 70
     0
102
RTVSPropertyOp53
 70
     1
102
RTVSPropertyOp54
 70
     1
102
RTVSPropertyOp55
 70
     1
102
RTVSPropertyOp56
 70
     1
102
RTVSPropertyOp57
 70
     1
102
RTVSPropertyOp58
 70
     1
102
RTVSPropertyOp59
 70
     1
102
RTVSPropertyOp60
 70
     1
102
RTVSPropertyOp61
 70
     1
102
RTVSPropertyOp62
 70
     1
  0
XRECORD
  5
39A
102
{ACAD_REACTORS
330
399
102
}
330
399
100
AcDbXrecord
280
     1
102
RTVSPost2010Prop28
280
     0
102
RTVSPost2010PropOp28
 70
     0
102
RTVSPost2010Prop29
280
     1
102
RTVSPost2010PropOp29
 70
     0
102
RTVSPost2010Prop30
280
     1
102
RTVSPost2010PropOp30
 70
     0
102
RTVSPost2010Prop31
280
     0
102
RTVSPost2010PropOp31
 70
     0
102
RTVSPost2010Prop32
280
     0
102
RTVSPost2010PropOp32
 70
     0
102
RTVSPost2010Prop33
280
     0
102
RTVSPost2010PropOp33
 70
     0
102
RTVSPost2010Prop34
280
     0
102
RTVSPost2010PropOp34
 70
     0
102
RTVSPost2010Prop35
280
     0
102
RTVSPost2010PropOp35
 70
     0
102
RTVSPost2010Prop36
280
     0
102
RTVSPost2010PropOp36
 70
     0
102
RTVSPost2010Prop37
 90
       50
102
RTVSPost2010PropOp37
 70
     0
102
RTVSPost2010Prop38
140
0.0
102
RTVSPost2010PropOp38
 70
     0
102
RTVSPost2010Prop39
140
1.0
102
RTVSPost2010PropOp39
 70
     0
102
RTVSPost2010Prop40
 90
        0
102
RTVSPost2010PropOp40
 70
     0
102
RTVSPost2010Prop41ColorIndex
 90
       18
102
RTVSPost2010Prop41ColorRGB
 90
        0
102
RTVSPost2010PropOp41
 70
     0
102
RTVSPost2010Prop42
 90
       50
102
RTVSPost2010PropOp42
 70
     0
102
RTVSPost2010Prop43
 90
        3
102
RTVSPost2010PropOp43
 70
     0
102
RTVSPost2010Prop44ColorIndex
 90
        5
102
RTVSPost2010Prop44ColorRGB
 90
      255
102
RTVSPost2010PropOp44
 70
     0
102
RTVSPost2010Prop45
280
     0
102
RTVSPost2010PropOp45
 70
     0
102
RTVSPost2010Prop46
 90
       50
102
RTVSPost2010PropOp46
 70
     0
102
RTVSPost2010Prop47
 90
       50
102
RTVSPost2010PropOp47
 70
     0
102
RTVSPost2010Prop48
 90
       50
102
RTVSPost2010PropOp48
 70
     0
102
RTVSPost2010Prop49
280
     0
102
RTVSPost2010PropOp49
 70
     0
102
RTVSPost2010Prop50
 90
       50
102
RTVSPost2010PropOp50
 70
     0
102
RTVSPost2010Prop51ColorIndex
 90
      256
102
RTVSPost2010Prop51ColorRGB
 90
-16777216
102
RTVSPost2010PropOp51
 70
     0
102
RTVSPost2010Prop52
140
1.0
102
RTVSPost2010PropOp52
 70
     0
102
RTVSPost2010Prop53
 90
        2
102
RTVSPost2010PropOp53
 70
     0
102
RTVSPost2010Prop54
  1
strokes_ogs.tif
102
RTVSPost2010PropOp54
 70
     0
102
RTVSPost2010Prop55
280
     0
102
RTVSPost2010PropOp55
 70
     0
102
RTVSPost2010Prop56
140
1.0
102
RTVSPost2010PropOp56
 70
     0
102
RTVSPost2010Prop57
140
1.0
102
RTVSPost2010PropOp57
 70
     0
102
RTVSPropertyOp0
 70
     0
102
RTVSPropertyOp1
 70
     0
102
RTVSPropertyOp2
 70
     0
102
RTVSPropertyOp3
 70
     0
102
RTVSPropertyOp4
 70
     0
102
RTVSPropertyOp5
 70
     0
102
RTVSPropertyOp6
 70
     0
102
RTVSPropertyOp7
 70
     0
102
RTVSPropertyOp8
 70
     0
102
RTVSPropertyOp9
 70
     0
102
RTVSPropertyOp10
 70
     0
102
RTVSPropertyOp11
 70
     0
102
RTVSPropertyOp12
 70
     0
102
RTVSPropertyOp13
 70
     0
102
RTVSPropertyOp14
 70
     2
102
RTVSPropertyOp15
 70
     0
102
RTVSPropertyOp16
 70
     0
102
RTVSPropertyOp17
 70
     0
102
RTVSPropertyOp18
 70
     0
102
RTVSPropertyOp19
 70
     0
102
RTVSPropertyOp20
 70
     0
102
RTVSPropertyOp21
 70
     0
102
RTVSPropertyOp22
 70
     0
102
RTVSPropertyOp23
 70
     0
102
RTVSPropertyOp24
 70
     0
102
RTVSPropertyOp25
 70
     0
102
RTVSPropertyOp26
 70
     0
102
RTVSPropertyOp27
 70
     0
102
RTVSPropertyOp28
 70
     0
102
RTVSPropertyOp29
 70
     0
102
RTVSPropertyOp30
 70
     0
102
RTVSPropertyOp31
 70
     0
102
RTVSPropertyOp32
 70
     0
102
RTVSPropertyOp33
 70
     0
102
RTVSPropertyOp34
 70
     0
102
RTVSPropertyOp35
 70
     0
102
RTVSPropertyOp36
 70
     0
102
RTVSPropertyOp37
 70
     0
102
RTVSPropertyOp38
 70
     0
102
RTVSPropertyOp39
 70
     0
102
RTVSPropertyOp40
 70
     0
102
RTVSPropertyOp41
 70
     0
102
RTVSPropertyOp42
 70
     0
102
RTVSPropertyOp43
 70
     0
102
RTVSPropertyOp44
 70
     0
102
RTVSPropertyOp45
 70
     0
102
RTVSPropertyOp46
 70
     0
102
RTVSPropertyOp47
 70
     0
102
RTVSPropertyOp48
 70
     0
102
RTVSPropertyOp49
 70
     0
102
RTVSPropertyOp50
 70
     0
102
RTVSPropertyOp51
 70
     0
102
RTVSPropertyOp52
 70
     0
102
RTVSPropertyOp53
 70
     0
102
RTVSPropertyOp54
 70
     0
102
RTVSPropertyOp55
 70
     0
102
RTVSPropertyOp56
 70
     0
102
RTVSPropertyOp57
 70
     0
102
RTVSPropertyOp58
 70
     1
102
RTVSPropertyOp59
 70
     1
102
RTVSPropertyOp60
 70
     1
102
RTVSPropertyOp61
 70
     1
102
RTVSPropertyOp62
 70
     1
  0
XRECORD
  5
392
102
{ACAD_REACTORS
330
391
102
}
330
391
100
AcDbXrecord
280
     1
102
RTVSPost2010Prop28
280
     0
102
RTVSPost2010PropOp28
 70
     1
102
RTVSPost2010Prop29
280
     1
102
RTVSPost2010PropOp29
 70
     1
102
RTVSPost2010Prop30
280
     1
102
RTVSPost2010PropOp30
 70
     1
102
RTVSPost2010Prop31
280
     0
102
RTVSPost2010PropOp31
 70
     1
102
RTVSPost2010Prop32
280
     0
102
RTVSPost2010PropOp32
 70
     1
102
RTVSPost2010Prop33
280
     0
102
RTVSPost2010PropOp33
 70
     1
102
RTVSPost2010Prop34
280
     0
102
RTVSPost2010PropOp34
 70
     1
102
RTVSPost2010Prop35
280
     0
102
RTVSPost2010PropOp35
 70
     1
102
RTVSPost2010Prop36
280
     0
102
RTVSPost2010PropOp36
 70
     1
102
RTVSPost2010Prop37
 90
       50
102
RTVSPost2010PropOp37
 70
     1
102
RTVSPost2010Prop38
140
0.0
102
RTVSPost2010PropOp38
 70
     1
102
RTVSPost2010Prop39
140
1.0
102
RTVSPost2010PropOp39
 70
     1
102
RTVSPost2010Prop40
 90
        0
102
RTVSPost2010PropOp40
 70
     1
102
RTVSPost2010Prop41ColorIndex
 90
       18
102
RTVSPost2010Prop41ColorRGB
 90
        0
102
RTVSPost2010PropOp41
 70
     1
102
RTVSPost2010Prop42
 90
       50
102
RTVSPost2010PropOp42
 70
     1
102
RTVSPost2010Prop43
 90
        3
102
RTVSPost2010PropOp43
 70
     1
102
RTVSPost2010Prop44ColorIndex
 90
        5
102
RTVSPost2010Prop44ColorRGB
 90
      255
102
RTVSPost2010PropOp44
 70
     1
102
RTVSPost2010Prop45
280
     0
102
RTVSPost2010PropOp45
 70
     1
102
RTVSPost2010Prop46
 90
       50
102
RTVSPost2010PropOp46
 70
     1
102
RTVSPost2010Prop47
 90
       50
102
RTVSPost2010PropOp47
 70
     1
102
RTVSPost2010Prop48
 90
       50
102
RTVSPost2010PropOp48
 70
     1
102
RTVSPost2010Prop49
280
     0
102
RTVSPost2010PropOp49
 70
     1
102
RTVSPost2010Prop50
 90
       50
102
RTVSPost2010PropOp50
 70
     1
102
RTVSPost2010Prop51ColorIndex
 90
      256
102
RTVSPost2010Prop51ColorRGB
 90
-16777216
102
RTVSPost2010PropOp51
 70
     0
102
RTVSPost2010Prop52
140
1.0
102
RTVSPost2010PropOp52
 70
     0
102
RTVSPost2010Prop53
 90
        2
102
RTVSPost2010PropOp53
 70
     1
102
RTVSPost2010Prop54
  1
strokes_ogs.tif
102
RTVSPost2010PropOp54
 70
     1
102
RTVSPost2010Prop55
280
     0
102
RTVSPost2010PropOp55
 70
     1
102
RTVSPost2010Prop56
140
1.0
102
RTVSPost2010PropOp56
 70
     1
102
RTVSPost2010Prop57
140
1.0
102
RTVSPost2010PropOp57
 70
     1
102
RTVSPropertyOp0
 70
     1
102
RTVSPropertyOp1
 70
     1
102
RTVSPropertyOp2
 70
     1
102
RTVSPropertyOp3
 70
     1
102
RTVSPropertyOp4
 70
     1
102
RTVSPropertyOp5
 70
     1
102
RTVSPropertyOp6
 70
     1
102
RTVSPropertyOp7
 70
     1
102
RTVSPropertyOp8
 70
     1
102
RTVSPropertyOp9
 70
     1
102
RTVSPropertyOp10
 70
     1
102
RTVSPropertyOp11
 70
     1
102
RTVSPropertyOp12
 70
     1
102
RTVSPropertyOp13
 70
     1
102
RTVSPropertyOp14
 70
     1
102
RTVSPropertyOp15
 70
     1
102
RTVSPropertyOp16
 70
     1
102
RTVSPropertyOp17
 70
     1
102
RTVSPropertyOp18
 70
     1
102
RTVSPropertyOp19
 70
     1
102
RTVSPropertyOp20
 70
     1
102
RTVSPropertyOp21
 70
     1
102
RTVSPropertyOp22
 70
     1
102
RTVSPropertyOp23
 70
     1
102
RTVSPropertyOp24
 70
     1
102
RTVSPropertyOp25
 70
     1
102
RTVSPropertyOp26
 70
     1
102
RTVSPropertyOp27
 70
     1
102
RTVSPropertyOp28
 70
     1
102
RTVSPropertyOp29
 70
     1
102
RTVSPropertyOp30
 70
     1
102
RTVSPropertyOp31
 70
     1
102
RTVSPropertyOp32
 70
     1
102
RTVSPropertyOp33
 70
     1
102
RTVSPropertyOp34
 70
     1
102
RTVSPropertyOp35
 70
     1
102
RTVSPropertyOp36
 70
     1
102
RTVSPropertyOp37
 70
     1
102
RTVSPropertyOp38
 70
     1
102
RTVSPropertyOp39
 70
     1
102
RTVSPropertyOp40
 70
     1
102
RTVSPropertyOp41
 70
     1
102
RTVSPropertyOp42
 70
     1
102
RTVSPropertyOp43
 70
     1
102
RTVSPropertyOp44
 70
     1
102
RTVSPropertyOp45
 70
     1
102
RTVSPropertyOp46
 70
     1
102
RTVSPropertyOp47
 70
     1
102
RTVSPropertyOp48
 70
     1
102
RTVSPropertyOp49
 70
     1
102
RTVSPropertyOp50
 70
     1
102
RTVSPropertyOp51
 70
     0
102
RTVSPropertyOp52
 70
     0
102
RTVSPropertyOp53
 70
     1
102
RTVSPropertyOp54
 70
     1
102
RTVSPropertyOp55
 70
     1
102
RTVSPropertyOp56
 70
     1
102
RTVSPropertyOp57
 70
     1
102
RTVSPropertyOp58
 70
     1
102
RTVSPropertyOp59
 70
     1
102
RTVSPropertyOp60
 70
     1
102
RTVSPropertyOp61
 70
     1
102
RTVSPropertyOp62
 70
     1
  0
XRECORD
  5
376
102
{ACAD_REACTORS
330
375
102
}
330
375
100
AcDbXrecord
280
     1
102
RTVSPost2010Prop28
280
     0
102
RTVSPost2010PropOp28
 70
     1
102
RTVSPost2010Prop29
280
     1
102
RTVSPost2010PropOp29
 70
     1
102
RTVSPost2010Prop30
280
     1
102
RTVSPost2010PropOp30
 70
     1
102
RTVSPost2010Prop31
280
     0
102
RTVSPost2010PropOp31
 70
     1
102
RTVSPost2010Prop32
280
     0
102
RTVSPost2010PropOp32
 70
     1
102
RTVSPost2010Prop33
280
     0
102
RTVSPost2010PropOp33
 70
     1
102
RTVSPost2010Prop34
280
     0
102
RTVSPost2010PropOp34
 70
     1
102
RTVSPost2010Prop35
280
     0
102
RTVSPost2010PropOp35
 70
     1
102
RTVSPost2010Prop36
280
     0
102
RTVSPost2010PropOp36
 70
     1
102
RTVSPost2010Prop37
 90
       50
102
RTVSPost2010PropOp37
 70
     1
102
RTVSPost2010Prop38
140
0.0
102
RTVSPost2010PropOp38
 70
     1
102
RTVSPost2010Prop39
140
1.0
102
RTVSPost2010PropOp39
 70
     1
102
RTVSPost2010Prop40
 90
        0
102
RTVSPost2010PropOp40
 70
     1
102
RTVSPost2010Prop41ColorIndex
 90
       18
102
RTVSPost2010Prop41ColorRGB
 90
        0
102
RTVSPost2010PropOp41
 70
     1
102
RTVSPost2010Prop42
 90
       50
102
RTVSPost2010PropOp42
 70
     1
102
RTVSPost2010Prop43
 90
        3
102
RTVSPost2010PropOp43
 70
     1
102
RTVSPost2010Prop44ColorIndex
 90
        5
102
RTVSPost2010Prop44ColorRGB
 90
      255
102
RTVSPost2010PropOp44
 70
     1
102
RTVSPost2010Prop45
280
     0
102
RTVSPost2010PropOp45
 70
     1
102
RTVSPost2010Prop46
 90
       50
102
RTVSPost2010PropOp46
 70
     1
102
RTVSPost2010Prop47
 90
       50
102
RTVSPost2010PropOp47
 70
     1
102
RTVSPost2010Prop48
 90
       50
102
RTVSPost2010PropOp48
 70
     1
102
RTVSPost2010Prop49
280
     0
102
RTVSPost2010PropOp49
 70
     1
102
RTVSPost2010Prop50
 90
       50
102
RTVSPost2010PropOp50
 70
     1
102
RTVSPost2010Prop51ColorIndex
 90
      256
102
RTVSPost2010Prop51ColorRGB
 90
-16777216
102
RTVSPost2010PropOp51
 70
     0
102
RTVSPost2010Prop52
140
1.0
102
RTVSPost2010PropOp52
 70
     0
102
RTVSPost2010Prop53
 90
        2
102
RTVSPost2010PropOp53
 70
     1
102
RTVSPost2010Prop54
  1
strokes_ogs.tif
102
RTVSPost2010PropOp54
 70
     1
102
RTVSPost2010Prop55
280
     0
102
RTVSPost2010PropOp55
 70
     1
102
RTVSPost2010Prop56
140
1.0
102
RTVSPost2010PropOp56
 70
     1
102
RTVSPost2010Prop57
140
1.0
102
RTVSPost2010PropOp57
 70
     1
102
RTVSPropertyOp0
 70
     1
102
RTVSPropertyOp1
 70
     1
102
RTVSPropertyOp2
 70
     1
102
RTVSPropertyOp3
 70
     1
102
RTVSPropertyOp4
 70
     1
102
RTVSPropertyOp5
 70
     1
102
RTVSPropertyOp6
 70
     1
102
RTVSPropertyOp7
 70
     1
102
RTVSPropertyOp8
 70
     1
102
RTVSPropertyOp9
 70
     1
102
RTVSPropertyOp10
 70
     1
102
RTVSPropertyOp11
 70
     1
102
RTVSPropertyOp12
 70
     1
102
RTVSPropertyOp13
 70
     1
102
RTVSPropertyOp14
 70
     1
102
RTVSPropertyOp15
 70
     1
102
RTVSPropertyOp16
 70
     1
102
RTVSPropertyOp17
 70
     1
102
RTVSPropertyOp18
 70
     1
102
RTVSPropertyOp19
 70
     1
102
RTVSPropertyOp20
 70
     1
102
RTVSPropertyOp21
 70
     1
102
RTVSPropertyOp22
 70
     1
102
RTVSPropertyOp23
 70
     1
102
RTVSPropertyOp24
 70
     1
102
RTVSPropertyOp25
 70
     1
102
RTVSPropertyOp26
 70
     1
102
RTVSPropertyOp27
 70
     1
102
RTVSPropertyOp28
 70
     1
102
RTVSPropertyOp29
 70
     1
102
RTVSPropertyOp30
 70
     1
102
RTVSPropertyOp31
 70
     1
102
RTVSPropertyOp32
 70
     1
102
RTVSPropertyOp33
 70
     1
102
RTVSPropertyOp34
 70
     1
102
RTVSPropertyOp35
 70
     1
102
RTVSPropertyOp36
 70
     1
102
RTVSPropertyOp37
 70
     1
102
RTVSPropertyOp38
 70
     1
102
RTVSPropertyOp39
 70
     1
102
RTVSPropertyOp40
 70
     1
102
RTVSPropertyOp41
 70
     1
102
RTVSPropertyOp42
 70
     1
102
RTVSPropertyOp43
 70
     1
102
RTVSPropertyOp44
 70
     1
102
RTVSPropertyOp45
 70
     1
102
RTVSPropertyOp46
 70
     1
102
RTVSPropertyOp47
 70
     1
102
RTVSPropertyOp48
 70
     1
102
RTVSPropertyOp49
 70
     1
102
RTVSPropertyOp50
 70
     1
102
RTVSPropertyOp51
 70
     0
102
RTVSPropertyOp52
 70
     0
102
RTVSPropertyOp53
 70
     1
102
RTVSPropertyOp54
 70
     1
102
RTVSPropertyOp55
 70
     1
102
RTVSPropertyOp56
 70
     1
102
RTVSPropertyOp57
 70
     1
102
RTVSPropertyOp58
 70
     1
102
RTVSPropertyOp59
 70
     1
102
RTVSPropertyOp60
 70
     1
102
RTVSPropertyOp61
 70
     1
102
RTVSPropertyOp62
 70
     1
  0
XRECORD
  5
378
102
{ACAD_REACTORS
330
377
102
}
330
377
100
AcDbXrecord
280
     1
102
RTVSPost2010Prop28
280
     0
102
RTVSPost2010PropOp28
 70
     1
102
RTVSPost2010Prop29
280
     1
102
RTVSPost2010PropOp29
 70
     1
102
RTVSPost2010Prop30
280
     1
102
RTVSPost2010PropOp30
 70
     1
102
RTVSPost2010Prop31
280
     0
102
RTVSPost2010PropOp31
 70
     1
102
RTVSPost2010Prop32
280
     0
102
RTVSPost2010PropOp32
 70
     1
102
RTVSPost2010Prop33
280
     0
102
RTVSPost2010PropOp33
 70
     1
102
RTVSPost2010Prop34
280
     0
102
RTVSPost2010PropOp34
 70
     1
102
RTVSPost2010Prop35
280
     0
102
RTVSPost2010PropOp35
 70
     1
102
RTVSPost2010Prop36
280
     0
102
RTVSPost2010PropOp36
 70
     1
102
RTVSPost2010Prop37
 90
       50
102
RTVSPost2010PropOp37
 70
     1
102
RTVSPost2010Prop38
140
0.0
102
RTVSPost2010PropOp38
 70
     1
102
RTVSPost2010Prop39
140
1.0
102
RTVSPost2010PropOp39
 70
     1
102
RTVSPost2010Prop40
 90
        0
102
RTVSPost2010PropOp40
 70
     1
102
RTVSPost2010Prop41ColorIndex
 90
       18
102
RTVSPost2010Prop41ColorRGB
 90
        0
102
RTVSPost2010PropOp41
 70
     1
102
RTVSPost2010Prop42
 90
       50
102
RTVSPost2010PropOp42
 70
     1
102
RTVSPost2010Prop43
 90
        3
102
RTVSPost2010PropOp43
 70
     1
102
RTVSPost2010Prop44ColorIndex
 90
        5
102
RTVSPost2010Prop44ColorRGB
 90
      255
102
RTVSPost2010PropOp44
 70
     1
102
RTVSPost2010Prop45
280
     0
102
RTVSPost2010PropOp45
 70
     1
102
RTVSPost2010Prop46
 90
       50
102
RTVSPost2010PropOp46
 70
     1
102
RTVSPost2010Prop47
 90
       50
102
RTVSPost2010PropOp47
 70
     1
102
RTVSPost2010Prop48
 90
       50
102
RTVSPost2010PropOp48
 70
     1
102
RTVSPost2010Prop49
280
     0
102
RTVSPost2010PropOp49
 70
     1
102
RTVSPost2010Prop50
 90
       50
102
RTVSPost2010PropOp50
 70
     1
102
RTVSPost2010Prop51ColorIndex
 90
      256
102
RTVSPost2010Prop51ColorRGB
 90
-16777216
102
RTVSPost2010PropOp51
 70
     0
102
RTVSPost2010Prop52
140
1.0
102
RTVSPost2010PropOp52
 70
     0
102
RTVSPost2010Prop53
 90
        2
102
RTVSPost2010PropOp53
 70
     1
102
RTVSPost2010Prop54
  1
strokes_ogs.tif
102
RTVSPost2010PropOp54
 70
     1
102
RTVSPost2010Prop55
280
     0
102
RTVSPost2010PropOp55
 70
     1
102
RTVSPost2010Prop56
140
1.0
102
RTVSPost2010PropOp56
 70
     1
102
RTVSPost2010Prop57
140
1.0
102
RTVSPost2010PropOp57
 70
     1
102
RTVSPropertyOp0
 70
     1
102
RTVSPropertyOp1
 70
     1
102
RTVSPropertyOp2
 70
     1
102
RTVSPropertyOp3
 70
     1
102
RTVSPropertyOp4
 70
     1
102
RTVSPropertyOp5
 70
     1
102
RTVSPropertyOp6
 70
     1
102
RTVSPropertyOp7
 70
     1
102
RTVSPropertyOp8
 70
     1
102
RTVSPropertyOp9
 70
     1
102
RTVSPropertyOp10
 70
     1
102
RTVSPropertyOp11
 70
     1
102
RTVSPropertyOp12
 70
     1
102
RTVSPropertyOp13
 70
     1
102
RTVSPropertyOp14
 70
     1
102
RTVSPropertyOp15
 70
     1
102
RTVSPropertyOp16
 70
     1
102
RTVSPropertyOp17
 70
     1
102
RTVSPropertyOp18
 70
     1
102
RTVSPropertyOp19
 70
     1
102
RTVSPropertyOp20
 70
     1
102
RTVSPropertyOp21
 70
     1
102
RTVSPropertyOp22
 70
     1
102
RTVSPropertyOp23
 70
     1
102
RTVSPropertyOp24
 70
     1
102
RTVSPropertyOp25
 70
     1
102
RTVSPropertyOp26
 70
     1
102
RTVSPropertyOp27
 70
     1
102
RTVSPropertyOp28
 70
     1
102
RTVSPropertyOp29
 70
     1
102
RTVSPropertyOp30
 70
     1
102
RTVSPropertyOp31
 70
     1
102
RTVSPropertyOp32
 70
     1
102
RTVSPropertyOp33
 70
     1
102
RTVSPropertyOp34
 70
     1
102
RTVSPropertyOp35
 70
     1
102
RTVSPropertyOp36
 70
     1
102
RTVSPropertyOp37
 70
     1
102
RTVSPropertyOp38
 70
     1
102
RTVSPropertyOp39
 70
     1
102
RTVSPropertyOp40
 70
     1
102
RTVSPropertyOp41
 70
     1
102
RTVSPropertyOp42
 70
     1
102
RTVSPropertyOp43
 70
     1
102
RTVSPropertyOp44
 70
     1
102
RTVSPropertyOp45
 70
     1
102
RTVSPropertyOp46
 70
     1
102
RTVSPropertyOp47
 70
     1
102
RTVSPropertyOp48
 70
     1
102
RTVSPropertyOp49
 70
     1
102
RTVSPropertyOp50
 70
     1
102
RTVSPropertyOp51
 70
     0
102
RTVSPropertyOp52
 70
     0
102
RTVSPropertyOp53
 70
     1
102
RTVSPropertyOp54
 70
     1
102
RTVSPropertyOp55
 70
     1
102
RTVSPropertyOp56
 70
     1
102
RTVSPropertyOp57
 70
     1
102
RTVSPropertyOp58
 70
     1
102
RTVSPropertyOp59
 70
     1
102
RTVSPropertyOp60
 70
     1
102
RTVSPropertyOp61
 70
     1
102
RTVSPropertyOp62
 70
     1
  0
XRECORD
  5
37A
102
{ACAD_REACTORS
330
379
102
}
330
379
100
AcDbXrecord
280
     1
102
RTVSPost2010Prop28
280
     0
102
RTVSPost2010PropOp28
 70
     1
102
RTVSPost2010Prop29
280
     1
102
RTVSPost2010PropOp29
 70
     1
102
RTVSPost2010Prop30
280
     1
102
RTVSPost2010PropOp30
 70
     1
102
RTVSPost2010Prop31
280
     0
102
RTVSPost2010PropOp31
 70
     1
102
RTVSPost2010Prop32
280
     0
102
RTVSPost2010PropOp32
 70
     1
102
RTVSPost2010Prop33
280
     0
102
RTVSPost2010PropOp33
 70
     1
102
RTVSPost2010Prop34
280
     0
102
RTVSPost2010PropOp34
 70
     1
102
RTVSPost2010Prop35
280
     0
102
RTVSPost2010PropOp35
 70
     1
102
RTVSPost2010Prop36
280
     0
102
RTVSPost2010PropOp36
 70
     1
102
RTVSPost2010Prop37
 90
       50
102
RTVSPost2010PropOp37
 70
     1
102
RTVSPost2010Prop38
140
0.0
102
RTVSPost2010PropOp38
 70
     1
102
RTVSPost2010Prop39
140
1.0
102
RTVSPost2010PropOp39
 70
     1
102
RTVSPost2010Prop40
 90
        0
102
RTVSPost2010PropOp40
 70
     1
102
RTVSPost2010Prop41ColorIndex
 90
       18
102
RTVSPost2010Prop41ColorRGB
 90
        0
102
RTVSPost2010PropOp41
 70
     1
102
RTVSPost2010Prop42
 90
       50
102
RTVSPost2010PropOp42
 70
     1
102
RTVSPost2010Prop43
 90
        3
102
RTVSPost2010PropOp43
 70
     1
102
RTVSPost2010Prop44ColorIndex
 90
        5
102
RTVSPost2010Prop44ColorRGB
 90
      255
102
RTVSPost2010PropOp44
 70
     1
102
RTVSPost2010Prop45
280
     0
102
RTVSPost2010PropOp45
 70
     1
102
RTVSPost2010Prop46
 90
       50
102
RTVSPost2010PropOp46
 70
     1
102
RTVSPost2010Prop47
 90
       50
102
RTVSPost2010PropOp47
 70
     1
102
RTVSPost2010Prop48
 90
       50
102
RTVSPost2010PropOp48
 70
     1
102
RTVSPost2010Prop49
280
     0
102
RTVSPost2010PropOp49
 70
     1
102
RTVSPost2010Prop50
 90
       50
102
RTVSPost2010PropOp50
 70
     1
102
RTVSPost2010Prop51ColorIndex
 90
      256
102
RTVSPost2010Prop51ColorRGB
 90
-16777216
102
RTVSPost2010PropOp51
 70
     0
102
RTVSPost2010Prop52
140
1.0
102
RTVSPost2010PropOp52
 70
     0
102
RTVSPost2010Prop53
 90
        2
102
RTVSPost2010PropOp53
 70
     1
102
RTVSPost2010Prop54
  1
strokes_ogs.tif
102
RTVSPost2010PropOp54
 70
     1
102
RTVSPost2010Prop55
280
     0
102
RTVSPost2010PropOp55
 70
     1
102
RTVSPost2010Prop56
140
1.0
102
RTVSPost2010PropOp56
 70
     1
102
RTVSPost2010Prop57
140
1.0
102
RTVSPost2010PropOp57
 70
     1
102
RTVSPropertyOp0
 70
     1
102
RTVSPropertyOp1
 70
     1
102
RTVSPropertyOp2
 70
     1
102
RTVSPropertyOp3
 70
     1
102
RTVSPropertyOp4
 70
     1
102
RTVSPropertyOp5
 70
     1
102
RTVSPropertyOp6
 70
     1
102
RTVSPropertyOp7
 70
     1
102
RTVSPropertyOp8
 70
     1
102
RTVSPropertyOp9
 70
     1
102
RTVSPropertyOp10
 70
     1
102
RTVSPropertyOp11
 70
     1
102
RTVSPropertyOp12
 70
     1
102
RTVSPropertyOp13
 70
     1
102
RTVSPropertyOp14
 70
     1
102
RTVSPropertyOp15
 70
     1
102
RTVSPropertyOp16
 70
     1
102
RTVSPropertyOp17
 70
     1
102
RTVSPropertyOp18
 70
     1
102
RTVSPropertyOp19
 70
     1
102
RTVSPropertyOp20
 70
     1
102
RTVSPropertyOp21
 70
     1
102
RTVSPropertyOp22
 70
     1
102
RTVSPropertyOp23
 70
     1
102
RTVSPropertyOp24
 70
     1
102
RTVSPropertyOp25
 70
     1
102
RTVSPropertyOp26
 70
     1
102
RTVSPropertyOp27
 70
     1
102
RTVSPropertyOp28
 70
     1
102
RTVSPropertyOp29
 70
     1
102
RTVSPropertyOp30
 70
     1
102
RTVSPropertyOp31
 70
     1
102
RTVSPropertyOp32
 70
     1
102
RTVSPropertyOp33
 70
     1
102
RTVSPropertyOp34
 70
     1
102
RTVSPropertyOp35
 70
     1
102
RTVSPropertyOp36
 70
     1
102
RTVSPropertyOp37
 70
     1
102
RTVSPropertyOp38
 70
     1
102
RTVSPropertyOp39
 70
     1
102
RTVSPropertyOp40
 70
     1
102
RTVSPropertyOp41
 70
     1
102
RTVSPropertyOp42
 70
     1
102
RTVSPropertyOp43
 70
     1
102
RTVSPropertyOp44
 70
     1
102
RTVSPropertyOp45
 70
     1
102
RTVSPropertyOp46
 70
     1
102
RTVSPropertyOp47
 70
     1
102
RTVSPropertyOp48
 70
     1
102
RTVSPropertyOp49
 70
     1
102
RTVSPropertyOp50
 70
     1
102
RTVSPropertyOp51
 70
     0
102
RTVSPropertyOp52
 70
     0
102
RTVSPropertyOp53
 70
     1
102
RTVSPropertyOp54
 70
     1
102
RTVSPropertyOp55
 70
     1
102
RTVSPropertyOp56
 70
     1
102
RTVSPropertyOp57
 70
     1
102
RTVSPropertyOp58
 70
     1
102
RTVSPropertyOp59
 70
     1
102
RTVSPropertyOp60
 70
     1
102
RTVSPropertyOp61
 70
     1
102
RTVSPropertyOp62
 70
     1
  0
XRECORD
  5
37C
102
{ACAD_REACTORS
330
37B
102
}
330
37B
100
AcDbXrecord
280
     1
102
RTVSPost2010Prop28
280
     0
102
RTVSPost2010PropOp28
 70
     1
102
RTVSPost2010Prop29
280
     1
102
RTVSPost2010PropOp29
 70
     1
102
RTVSPost2010Prop30
280
     1
102
RTVSPost2010PropOp30
 70
     1
102
RTVSPost2010Prop31
280
     0
102
RTVSPost2010PropOp31
 70
     1
102
RTVSPost2010Prop32
280
     0
102
RTVSPost2010PropOp32
 70
     1
102
RTVSPost2010Prop33
280
     0
102
RTVSPost2010PropOp33
 70
     1
102
RTVSPost2010Prop34
280
     0
102
RTVSPost2010PropOp34
 70
     1
102
RTVSPost2010Prop35
280
     0
102
RTVSPost2010PropOp35
 70
     1
102
RTVSPost2010Prop36
280
     0
102
RTVSPost2010PropOp36
 70
     1
102
RTVSPost2010Prop37
 90
       50
102
RTVSPost2010PropOp37
 70
     1
102
RTVSPost2010Prop38
140
0.0
102
RTVSPost2010PropOp38
 70
     1
102
RTVSPost2010Prop39
140
1.0
102
RTVSPost2010PropOp39
 70
     1
102
RTVSPost2010Prop40
 90
        0
102
RTVSPost2010PropOp40
 70
     1
102
RTVSPost2010Prop41ColorIndex
 90
       18
102
RTVSPost2010Prop41ColorRGB
 90
        0
102
RTVSPost2010PropOp41
 70
     1
102
RTVSPost2010Prop42
 90
       50
102
RTVSPost2010PropOp42
 70
     1
102
RTVSPost2010Prop43
 90
        3
102
RTVSPost2010PropOp43
 70
     1
102
RTVSPost2010Prop44ColorIndex
 90
        5
102
RTVSPost2010Prop44ColorRGB
 90
      255
102
RTVSPost2010PropOp44
 70
     1
102
RTVSPost2010Prop45
280
     0
102
RTVSPost2010PropOp45
 70
     1
102
RTVSPost2010Prop46
 90
       50
102
RTVSPost2010PropOp46
 70
     1
102
RTVSPost2010Prop47
 90
       50
102
RTVSPost2010PropOp47
 70
     1
102
RTVSPost2010Prop48
 90
       50
102
RTVSPost2010PropOp48
 70
     1
102
RTVSPost2010Prop49
280
     0
102
RTVSPost2010PropOp49
 70
     1
102
RTVSPost2010Prop50
 90
       50
102
RTVSPost2010PropOp50
 70
     1
102
RTVSPost2010Prop51ColorIndex
 90
      256
102
RTVSPost2010Prop51ColorRGB
 90
-16777216
102
RTVSPost2010PropOp51
 70
     0
102
RTVSPost2010Prop52
140
1.0
102
RTVSPost2010PropOp52
 70
     0
102
RTVSPost2010Prop53
 90
        2
102
RTVSPost2010PropOp53
 70
     1
102
RTVSPost2010Prop54
  1
strokes_ogs.tif
102
RTVSPost2010PropOp54
 70
     1
102
RTVSPost2010Prop55
280
     0
102
RTVSPost2010PropOp55
 70
     1
102
RTVSPost2010Prop56
140
1.0
102
RTVSPost2010PropOp56
 70
     1
102
RTVSPost2010Prop57
140
1.0
102
RTVSPost2010PropOp57
 70
     1
102
RTVSPropertyOp0
 70
     1
102
RTVSPropertyOp1
 70
     1
102
RTVSPropertyOp2
 70
     1
102
RTVSPropertyOp3
 70
     1
102
RTVSPropertyOp4
 70
     1
102
RTVSPropertyOp5
 70
     1
102
RTVSPropertyOp6
 70
     1
102
RTVSPropertyOp7
 70
     1
102
RTVSPropertyOp8
 70
     1
102
RTVSPropertyOp9
 70
     1
102
RTVSPropertyOp10
 70
     1
102
RTVSPropertyOp11
 70
     1
102
RTVSPropertyOp12
 70
     1
102
RTVSPropertyOp13
 70
     1
102
RTVSPropertyOp14
 70
     1
102
RTVSPropertyOp15
 70
     1
102
RTVSPropertyOp16
 70
     1
102
RTVSPropertyOp17
 70
     1
102
RTVSPropertyOp18
 70
     1
102
RTVSPropertyOp19
 70
     1
102
RTVSPropertyOp20
 70
     1
102
RTVSPropertyOp21
 70
     1
102
RTVSPropertyOp22
 70
     1
102
RTVSPropertyOp23
 70
     1
102
RTVSPropertyOp24
 70
     1
102
RTVSPropertyOp25
 70
     1
102
RTVSPropertyOp26
 70
     1
102
RTVSPropertyOp27
 70
     1
102
RTVSPropertyOp28
 70
     1
102
RTVSPropertyOp29
 70
     1
102
RTVSPropertyOp30
 70
     1
102
RTVSPropertyOp31
 70
     1
102
RTVSPropertyOp32
 70
     1
102
RTVSPropertyOp33
 70
     1
102
RTVSPropertyOp34
 70
     1
102
RTVSPropertyOp35
 70
     1
102
RTVSPropertyOp36
 70
     1
102
RTVSPropertyOp37
 70
     1
102
RTVSPropertyOp38
 70
     1
102
RTVSPropertyOp39
 70
     1
102
RTVSPropertyOp40
 70
     1
102
RTVSPropertyOp41
 70
     1
102
RTVSPropertyOp42
 70
     1
102
RTVSPropertyOp43
 70
     1
102
RTVSPropertyOp44
 70
     1
102
RTVSPropertyOp45
 70
     1
102
RTVSPropertyOp46
 70
     1
102
RTVSPropertyOp47
 70
     1
102
RTVSPropertyOp48
 70
     1
102
RTVSPropertyOp49
 70
     1
102
RTVSPropertyOp50
 70
     1
102
RTVSPropertyOp51
 70
     0
102
RTVSPropertyOp52
 70
     0
102
RTVSPropertyOp53
 70
     1
102
RTVSPropertyOp54
 70
     1
102
RTVSPropertyOp55
 70
     1
102
RTVSPropertyOp56
 70
     1
102
RTVSPropertyOp57
 70
     1
102
RTVSPropertyOp58
 70
     1
102
RTVSPropertyOp59
 70
     1
102
RTVSPropertyOp60
 70
     1
102
RTVSPropertyOp61
 70
     1
102
RTVSPropertyOp62
 70
     1
  0
XRECORD
  5
382
102
{ACAD_REACTORS
330
381
102
}
330
381
100
AcDbXrecord
280
     1
102
RTVSPost2010Prop28
280
     0
102
RTVSPost2010PropOp28
 70
     1
102
RTVSPost2010Prop29
280
     1
102
RTVSPost2010PropOp29
 70
     1
102
RTVSPost2010Prop30
280
     1
102
RTVSPost2010PropOp30
 70
     1
102
RTVSPost2010Prop31
280
     0
102
RTVSPost2010PropOp31
 70
     1
102
RTVSPost2010Prop32
280
     0
102
RTVSPost2010PropOp32
 70
     1
102
RTVSPost2010Prop33
280
     0
102
RTVSPost2010PropOp33
 70
     1
102
RTVSPost2010Prop34
280
     0
102
RTVSPost2010PropOp34
 70
     1
102
RTVSPost2010Prop35
280
     0
102
RTVSPost2010PropOp35
 70
     1
102
RTVSPost2010Prop36
280
     0
102
RTVSPost2010PropOp36
 70
     1
102
RTVSPost2010Prop37
 90
       50
102
RTVSPost2010PropOp37
 70
     1
102
RTVSPost2010Prop38
140
0.0
102
RTVSPost2010PropOp38
 70
     1
102
RTVSPost2010Prop39
140
1.0
102
RTVSPost2010PropOp39
 70
     1
102
RTVSPost2010Prop40
 90
        0
102
RTVSPost2010PropOp40
 70
     1
102
RTVSPost2010Prop41ColorIndex
 90
       18
102
RTVSPost2010Prop41ColorRGB
 90
        0
102
RTVSPost2010PropOp41
 70
     1
102
RTVSPost2010Prop42
 90
       50
102
RTVSPost2010PropOp42
 70
     1
102
RTVSPost2010Prop43
 90
        3
102
RTVSPost2010PropOp43
 70
     1
102
RTVSPost2010Prop44ColorIndex
 90
        5
102
RTVSPost2010Prop44ColorRGB
 90
      255
102
RTVSPost2010PropOp44
 70
     1
102
RTVSPost2010Prop45
280
     0
102
RTVSPost2010PropOp45
 70
     1
102
RTVSPost2010Prop46
 90
       50
102
RTVSPost2010PropOp46
 70
     1
102
RTVSPost2010Prop47
 90
       50
102
RTVSPost2010PropOp47
 70
     1
102
RTVSPost2010Prop48
 90
       50
102
RTVSPost2010PropOp48
 70
     1
102
RTVSPost2010Prop49
280
     0
102
RTVSPost2010PropOp49
 70
     1
102
RTVSPost2010Prop50
 90
       50
102
RTVSPost2010PropOp50
 70
     1
102
RTVSPost2010Prop51ColorIndex
 90
      256
102
RTVSPost2010Prop51ColorRGB
 90
-16777216
102
RTVSPost2010PropOp51
 70
     0
102
RTVSPost2010Prop52
140
1.0
102
RTVSPost2010PropOp52
 70
     0
102
RTVSPost2010Prop53
 90
        2
102
RTVSPost2010PropOp53
 70
     1
102
RTVSPost2010Prop54
  1
strokes_ogs.tif
102
RTVSPost2010PropOp54
 70
     1
102
RTVSPost2010Prop55
280
     0
102
RTVSPost2010PropOp55
 70
     1
102
RTVSPost2010Prop56
140
1.0
102
RTVSPost2010PropOp56
 70
     1
102
RTVSPost2010Prop57
140
1.0
102
RTVSPost2010PropOp57
 70
     1
102
RTVSPropertyOp0
 70
     1
102
RTVSPropertyOp1
 70
     1
102
RTVSPropertyOp2
 70
     1
102
RTVSPropertyOp3
 70
     1
102
RTVSPropertyOp4
 70
     1
102
RTVSPropertyOp5
 70
     1
102
RTVSPropertyOp6
 70
     1
102
RTVSPropertyOp7
 70
     1
102
RTVSPropertyOp8
 70
     1
102
RTVSPropertyOp9
 70
     1
102
RTVSPropertyOp10
 70
     1
102
RTVSPropertyOp11
 70
     1
102
RTVSPropertyOp12
 70
     1
102
RTVSPropertyOp13
 70
     1
102
RTVSPropertyOp14
 70
     1
102
RTVSPropertyOp15
 70
     1
102
RTVSPropertyOp16
 70
     1
102
RTVSPropertyOp17
 70
     1
102
RTVSPropertyOp18
 70
     1
102
RTVSPropertyOp19
 70
     1
102
RTVSPropertyOp20
 70
     1
102
RTVSPropertyOp21
 70
     1
102
RTVSPropertyOp22
 70
     1
102
RTVSPropertyOp23
 70
     1
102
RTVSPropertyOp24
 70
     1
102
RTVSPropertyOp25
 70
     1
102
RTVSPropertyOp26
 70
     1
102
RTVSPropertyOp27
 70
     1
102
RTVSPropertyOp28
 70
     1
102
RTVSPropertyOp29
 70
     1
102
RTVSPropertyOp30
 70
     1
102
RTVSPropertyOp31
 70
     1
102
RTVSPropertyOp32
 70
     1
102
RTVSPropertyOp33
 70
     1
102
RTVSPropertyOp34
 70
     1
102
RTVSPropertyOp35
 70
     1
102
RTVSPropertyOp36
 70
     1
102
RTVSPropertyOp37
 70
     1
102
RTVSPropertyOp38
 70
     1
102
RTVSPropertyOp39
 70
     1
102
RTVSPropertyOp40
 70
     1
102
RTVSPropertyOp41
 70
     1
102
RTVSPropertyOp42
 70
     1
102
RTVSPropertyOp43
 70
     1
102
RTVSPropertyOp44
 70
     1
102
RTVSPropertyOp45
 70
     1
102
RTVSPropertyOp46
 70
     1
102
RTVSPropertyOp47
 70
     1
102
RTVSPropertyOp48
 70
     1
102
RTVSPropertyOp49
 70
     1
102
RTVSPropertyOp50
 70
     1
102
RTVSPropertyOp51
 70
     0
102
RTVSPropertyOp52
 70
     0
102
RTVSPropertyOp53
 70
     1
102
RTVSPropertyOp54
 70
     1
102
RTVSPropertyOp55
 70
     1
102
RTVSPropertyOp56
 70
     1
102
RTVSPropertyOp57
 70
     1
102
RTVSPropertyOp58
 70
     1
102
RTVSPropertyOp59
 70
     1
102
RTVSPropertyOp60
 70
     1
102
RTVSPropertyOp61
 70
     1
102
RTVSPropertyOp62
 70
     1
  0
XRECORD
  5
396
102
{ACAD_REACTORS
330
395
102
}
330
395
100
AcDbXrecord
280
     1
102
RTVSPost2010Prop28
280
     0
102
RTVSPost2010PropOp28
 70
     0
102
RTVSPost2010Prop29
280
     1
102
RTVSPost2010PropOp29
 70
     0
102
RTVSPost2010Prop30
280
     1
102
RTVSPost2010PropOp30
 70
     0
102
RTVSPost2010Prop31
280
     0
102
RTVSPost2010PropOp31
 70
     0
102
RTVSPost2010Prop32
280
     0
102
RTVSPost2010PropOp32
 70
     0
102
RTVSPost2010Prop33
280
     0
102
RTVSPost2010PropOp33
 70
     0
102
RTVSPost2010Prop34
280
     0
102
RTVSPost2010PropOp34
 70
     0
102
RTVSPost2010Prop35
280
     0
102
RTVSPost2010PropOp35
 70
     0
102
RTVSPost2010Prop36
280
     0
102
RTVSPost2010PropOp36
 70
     0
102
RTVSPost2010Prop37
 90
       50
102
RTVSPost2010PropOp37
 70
     0
102
RTVSPost2010Prop38
140
0.0
102
RTVSPost2010PropOp38
 70
     0
102
RTVSPost2010Prop39
140
1.0
102
RTVSPost2010PropOp39
 70
     0
102
RTVSPost2010Prop40
 90
        0
102
RTVSPost2010PropOp40
 70
     0
102
RTVSPost2010Prop41ColorIndex
 90
       18
102
RTVSPost2010Prop41ColorRGB
 90
        0
102
RTVSPost2010PropOp41
 70
     0
102
RTVSPost2010Prop42
 90
       50
102
RTVSPost2010PropOp42
 70
     0
102
RTVSPost2010Prop43
 90
        3
102
RTVSPost2010PropOp43
 70
     0
102
RTVSPost2010Prop44ColorIndex
 90
        5
102
RTVSPost2010Prop44ColorRGB
 90
      255
102
RTVSPost2010PropOp44
 70
     0
102
RTVSPost2010Prop45
280
     0
102
RTVSPost2010PropOp45
 70
     0
102
RTVSPost2010Prop46
 90
       50
102
RTVSPost2010PropOp46
 70
     0
102
RTVSPost2010Prop47
 90
       50
102
RTVSPost2010PropOp47
 70
     0
102
RTVSPost2010Prop48
 90
       50
102
RTVSPost2010PropOp48
 70
     0
102
RTVSPost2010Prop49
280
     0
102
RTVSPost2010PropOp49
 70
     0
102
RTVSPost2010Prop50
 90
       50
102
RTVSPost2010PropOp50
 70
     0
102
RTVSPost2010Prop51ColorIndex
 90
      256
102
RTVSPost2010Prop51ColorRGB
 90
-16777216
102
RTVSPost2010PropOp51
 70
     0
102
RTVSPost2010Prop52
140
1.0
102
RTVSPost2010PropOp52
 70
     0
102
RTVSPost2010Prop53
 90
        2
102
RTVSPost2010PropOp53
 70
     0
102
RTVSPost2010Prop54
  1
strokes_ogs.tif
102
RTVSPost2010PropOp54
 70
     0
102
RTVSPost2010Prop55
280
     0
102
RTVSPost2010PropOp55
 70
     0
102
RTVSPost2010Prop56
140
1.0
102
RTVSPost2010PropOp56
 70
     0
102
RTVSPost2010Prop57
140
1.0
102
RTVSPost2010PropOp57
 70
     0
102
RTVSPropertyOp0
 70
     0
102
RTVSPropertyOp1
 70
     0
102
RTVSPropertyOp2
 70
     0
102
RTVSPropertyOp3
 70
     0
102
RTVSPropertyOp4
 70
     0
102
RTVSPropertyOp5
 70
     0
102
RTVSPropertyOp6
 70
     0
102
RTVSPropertyOp7
 70
     0
102
RTVSPropertyOp8
 70
     0
102
RTVSPropertyOp9
 70
     0
102
RTVSPropertyOp10
 70
     0
102
RTVSPropertyOp11
 70
     0
102
RTVSPropertyOp12
 70
     0
102
RTVSPropertyOp13
 70
     0
102
RTVSPropertyOp14
 70
     2
102
RTVSPropertyOp15
 70
     0
102
RTVSPropertyOp16
 70
     0
102
RTVSPropertyOp17
 70
     0
102
RTVSPropertyOp18
 70
     0
102
RTVSPropertyOp19
 70
     0
102
RTVSPropertyOp20
 70
     0
102
RTVSPropertyOp21
 70
     0
102
RTVSPropertyOp22
 70
     0
102
RTVSPropertyOp23
 70
     0
102
RTVSPropertyOp24
 70
     0
102
RTVSPropertyOp25
 70
     0
102
RTVSPropertyOp26
 70
     0
102
RTVSPropertyOp27
 70
     0
102
RTVSPropertyOp28
 70
     0
102
RTVSPropertyOp29
 70
     0
102
RTVSPropertyOp30
 70
     0
102
RTVSPropertyOp31
 70
     0
102
RTVSPropertyOp32
 70
     0
102
RTVSPropertyOp33
 70
     0
102
RTVSPropertyOp34
 70
     0
102
RTVSPropertyOp35
 70
     0
102
RTVSPropertyOp36
 70
     0
102
RTVSPropertyOp37
 70
     0
102
RTVSPropertyOp38
 70
     0
102
RTVSPropertyOp39
 70
     0
102
RTVSPropertyOp40
 70
     0
102
RTVSPropertyOp41
 70
     0
102
RTVSPropertyOp42
 70
     0
102
RTVSPropertyOp43
 70
     0
102
RTVSPropertyOp44
 70
     0
102
RTVSPropertyOp45
 70
     0
102
RTVSPropertyOp46
 70
     0
102
RTVSPropertyOp47
 70
     0
102
RTVSPropertyOp48
 70
     0
102
RTVSPropertyOp49
 70
     0
102
RTVSPropertyOp50
 70
     0
102
RTVSPropertyOp51
 70
     0
102
RTVSPropertyOp52
 70
     0
102
RTVSPropertyOp53
 70
     0
102
RTVSPropertyOp54
 70
     0
102
RTVSPropertyOp55
 70
     0
102
RTVSPropertyOp56
 70
     0
102
RTVSPropertyOp57
 70
     0
102
RTVSPropertyOp58
 70
     1
102
RTVSPropertyOp59
 70
     1
102
RTVSPropertyOp60
 70
     1
102
RTVSPropertyOp61
 70
     1
102
RTVSPropertyOp62
 70
     1
  0
XRECORD
  5
390
102
{ACAD_REACTORS
330
38F
102
}
330
38F
100
AcDbXrecord
280
     1
102
RTVSPost2010Prop28
280
     0
102
RTVSPost2010PropOp28
 70
     1
102
RTVSPost2010Prop29
280
     1
102
RTVSPost2010PropOp29
 70
     1
102
RTVSPost2010Prop30
280
     1
102
RTVSPost2010PropOp30
 70
     1
102
RTVSPost2010Prop31
280
     0
102
RTVSPost2010PropOp31
 70
     1
102
RTVSPost2010Prop32
280
     0
102
RTVSPost2010PropOp32
 70
     1
102
RTVSPost2010Prop33
280
     0
102
RTVSPost2010PropOp33
 70
     1
102
RTVSPost2010Prop34
280
     0
102
RTVSPost2010PropOp34
 70
     1
102
RTVSPost2010Prop35
280
     0
102
RTVSPost2010PropOp35
 70
     1
102
RTVSPost2010Prop36
280
     0
102
RTVSPost2010PropOp36
 70
     1
102
RTVSPost2010Prop37
 90
       50
102
RTVSPost2010PropOp37
 70
     1
102
RTVSPost2010Prop38
140
0.0
102
RTVSPost2010PropOp38
 70
     1
102
RTVSPost2010Prop39
140
1.0
102
RTVSPost2010PropOp39
 70
     1
102
RTVSPost2010Prop40
 90
        0
102
RTVSPost2010PropOp40
 70
     1
102
RTVSPost2010Prop41ColorIndex
 90
       18
102
RTVSPost2010Prop41ColorRGB
 90
        0
102
RTVSPost2010PropOp41
 70
     1
102
RTVSPost2010Prop42
 90
       50
102
RTVSPost2010PropOp42
 70
     1
102
RTVSPost2010Prop43
 90
        3
102
RTVSPost2010PropOp43
 70
     1
102
RTVSPost2010Prop44ColorIndex
 90
        5
102
RTVSPost2010Prop44ColorRGB
 90
      255
102
RTVSPost2010PropOp44
 70
     1
102
RTVSPost2010Prop45
280
     0
102
RTVSPost2010PropOp45
 70
     1
102
RTVSPost2010Prop46
 90
       50
102
RTVSPost2010PropOp46
 70
     1
102
RTVSPost2010Prop47
 90
       50
102
RTVSPost2010PropOp47
 70
     1
102
RTVSPost2010Prop48
 90
       50
102
RTVSPost2010PropOp48
 70
     1
102
RTVSPost2010Prop49
280
     0
102
RTVSPost2010PropOp49
 70
     1
102
RTVSPost2010Prop50
 90
       50
102
RTVSPost2010PropOp50
 70
     1
102
RTVSPost2010Prop51ColorIndex
 90
      256
102
RTVSPost2010Prop51ColorRGB
 90
-16777216
102
RTVSPost2010PropOp51
 70
     0
102
RTVSPost2010Prop52
140
1.0
102
RTVSPost2010PropOp52
 70
     0
102
RTVSPost2010Prop53
 90
        2
102
RTVSPost2010PropOp53
 70
     1
102
RTVSPost2010Prop54
  1
strokes_ogs.tif
102
RTVSPost2010PropOp54
 70
     1
102
RTVSPost2010Prop55
280
     0
102
RTVSPost2010PropOp55
 70
     1
102
RTVSPost2010Prop56
140
1.0
102
RTVSPost2010PropOp56
 70
     1
102
RTVSPost2010Prop57
140
1.0
102
RTVSPost2010PropOp57
 70
     1
102
RTVSPropertyOp0
 70
     1
102
RTVSPropertyOp1
 70
     1
102
RTVSPropertyOp2
 70
     1
102
RTVSPropertyOp3
 70
     1
102
RTVSPropertyOp4
 70
     1
102
RTVSPropertyOp5
 70
     1
102
RTVSPropertyOp6
 70
     1
102
RTVSPropertyOp7
 70
     1
102
RTVSPropertyOp8
 70
     1
102
RTVSPropertyOp9
 70
     1
102
RTVSPropertyOp10
 70
     1
102
RTVSPropertyOp11
 70
     1
102
RTVSPropertyOp12
 70
     1
102
RTVSPropertyOp13
 70
     1
102
RTVSPropertyOp14
 70
     1
102
RTVSPropertyOp15
 70
     1
102
RTVSPropertyOp16
 70
     1
102
RTVSPropertyOp17
 70
     1
102
RTVSPropertyOp18
 70
     1
102
RTVSPropertyOp19
 70
     1
102
RTVSPropertyOp20
 70
     1
102
RTVSPropertyOp21
 70
     1
102
RTVSPropertyOp22
 70
     1
102
RTVSPropertyOp23
 70
     1
102
RTVSPropertyOp24
 70
     1
102
RTVSPropertyOp25
 70
     1
102
RTVSPropertyOp26
 70
     1
102
RTVSPropertyOp27
 70
     1
102
RTVSPropertyOp28
 70
     1
102
RTVSPropertyOp29
 70
     1
102
RTVSPropertyOp30
 70
     1
102
RTVSPropertyOp31
 70
     1
102
RTVSPropertyOp32
 70
     1
102
RTVSPropertyOp33
 70
     1
102
RTVSPropertyOp34
 70
     1
102
RTVSPropertyOp35
 70
     1
102
RTVSPropertyOp36
 70
     1
102
RTVSPropertyOp37
 70
     1
102
RTVSPropertyOp38
 70
     1
102
RTVSPropertyOp39
 70
     1
102
RTVSPropertyOp40
 70
     1
102
RTVSPropertyOp41
 70
     1
102
RTVSPropertyOp42
 70
     1
102
RTVSPropertyOp43
 70
     1
102
RTVSPropertyOp44
 70
     1
102
RTVSPropertyOp45
 70
     1
102
RTVSPropertyOp46
 70
     1
102
RTVSPropertyOp47
 70
     1
102
RTVSPropertyOp48
 70
     1
102
RTVSPropertyOp49
 70
     1
102
RTVSPropertyOp50
 70
     1
102
RTVSPropertyOp51
 70
     0
102
RTVSPropertyOp52
 70
     0
102
RTVSPropertyOp53
 70
     1
102
RTVSPropertyOp54
 70
     1
102
RTVSPropertyOp55
 70
     1
102
RTVSPropertyOp56
 70
     1
102
RTVSPropertyOp57
 70
     1
102
RTVSPropertyOp58
 70
     1
102
RTVSPropertyOp59
 70
     1
102
RTVSPropertyOp60
 70
     1
102
RTVSPropertyOp61
 70
     1
102
RTVSPropertyOp62
 70
     1
  0
XRECORD
  5
398
102
{ACAD_REACTORS
330
397
102
}
330
397
100
AcDbXrecord
280
     1
102
RTVSPost2010Prop28
280
     0
102
RTVSPost2010PropOp28
 70
     0
102
RTVSPost2010Prop29
280
     1
102
RTVSPost2010PropOp29
 70
     0
102
RTVSPost2010Prop30
280
     1
102
RTVSPost2010PropOp30
 70
     0
102
RTVSPost2010Prop31
280
     0
102
RTVSPost2010PropOp31
 70
     0
102
RTVSPost2010Prop32
280
     0
102
RTVSPost2010PropOp32
 70
     0
102
RTVSPost2010Prop33
280
     0
102
RTVSPost2010PropOp33
 70
     0
102
RTVSPost2010Prop34
280
     0
102
RTVSPost2010PropOp34
 70
     0
102
RTVSPost2010Prop35
280
     0
102
RTVSPost2010PropOp35
 70
     0
102
RTVSPost2010Prop36
280
     0
102
RTVSPost2010PropOp36
 70
     0
102
RTVSPost2010Prop37
 90
       50
102
RTVSPost2010PropOp37
 70
     0
102
RTVSPost2010Prop38
140
0.0
102
RTVSPost2010PropOp38
 70
     0
102
RTVSPost2010Prop39
140
1.0
102
RTVSPost2010PropOp39
 70
     0
102
RTVSPost2010Prop40
 90
        0
102
RTVSPost2010PropOp40
 70
     0
102
RTVSPost2010Prop41ColorIndex
 90
       18
102
RTVSPost2010Prop41ColorRGB
 90
        0
102
RTVSPost2010PropOp41
 70
     0
102
RTVSPost2010Prop42
 90
       50
102
RTVSPost2010PropOp42
 70
     0
102
RTVSPost2010Prop43
 90
        3
102
RTVSPost2010PropOp43
 70
     0
102
RTVSPost2010Prop44ColorIndex
 90
        5
102
RTVSPost2010Prop44ColorRGB
 90
      255
102
RTVSPost2010PropOp44
 70
     0
102
RTVSPost2010Prop45
280
     0
102
RTVSPost2010PropOp45
 70
     0
102
RTVSPost2010Prop46
 90
       50
102
RTVSPost2010PropOp46
 70
     0
102
RTVSPost2010Prop47
 90
       50
102
RTVSPost2010PropOp47
 70
     0
102
RTVSPost2010Prop48
 90
       50
102
RTVSPost2010PropOp48
 70
     0
102
RTVSPost2010Prop49
280
     0
102
RTVSPost2010PropOp49
 70
     0
102
RTVSPost2010Prop50
 90
       50
102
RTVSPost2010PropOp50
 70
     0
102
RTVSPost2010Prop51ColorIndex
 90
      256
102
RTVSPost2010Prop51ColorRGB
 90
-16777216
102
RTVSPost2010PropOp51
 70
     0
102
RTVSPost2010Prop52
140
1.0
102
RTVSPost2010PropOp52
 70
     0
102
RTVSPost2010Prop53
 90
        2
102
RTVSPost2010PropOp53
 70
     0
102
RTVSPost2010Prop54
  1
strokes_ogs.tif
102
RTVSPost2010PropOp54
 70
     0
102
RTVSPost2010Prop55
280
     0
102
RTVSPost2010PropOp55
 70
     0
102
RTVSPost2010Prop56
140
1.0
102
RTVSPost2010PropOp56
 70
     0
102
RTVSPost2010Prop57
140
1.0
102
RTVSPost2010PropOp57
 70
     0
102
RTVSPropertyOp0
 70
     0
102
RTVSPropertyOp1
 70
     0
102
RTVSPropertyOp2
 70
     0
102
RTVSPropertyOp3
 70
     0
102
RTVSPropertyOp4
 70
     0
102
RTVSPropertyOp5
 70
     0
102
RTVSPropertyOp6
 70
     0
102
RTVSPropertyOp7
 70
     0
102
RTVSPropertyOp8
 70
     0
102
RTVSPropertyOp9
 70
     0
102
RTVSPropertyOp10
 70
     0
102
RTVSPropertyOp11
 70
     0
102
RTVSPropertyOp12
 70
     0
102
RTVSPropertyOp13
 70
     0
102
RTVSPropertyOp14
 70
     2
102
RTVSPropertyOp15
 70
     0
102
RTVSPropertyOp16
 70
     0
102
RTVSPropertyOp17
 70
     0
102
RTVSPropertyOp18
 70
     0
102
RTVSPropertyOp19
 70
     0
102
RTVSPropertyOp20
 70
     0
102
RTVSPropertyOp21
 70
     0
102
RTVSPropertyOp22
 70
     0
102
RTVSPropertyOp23
 70
     0
102
RTVSPropertyOp24
 70
     0
102
RTVSPropertyOp25
 70
     0
102
RTVSPropertyOp26
 70
     0
102
RTVSPropertyOp27
 70
     0
102
RTVSPropertyOp28
 70
     0
102
RTVSPropertyOp29
 70
     0
102
RTVSPropertyOp30
 70
     0
102
RTVSPropertyOp31
 70
     0
102
RTVSPropertyOp32
 70
     0
102
RTVSPropertyOp33
 70
     0
102
RTVSPropertyOp34
 70
     0
102
RTVSPropertyOp35
 70
     0
102
RTVSPropertyOp36
 70
     0
102
RTVSPropertyOp37
 70
     0
102
RTVSPropertyOp38
 70
     0
102
RTVSPropertyOp39
 70
     0
102
RTVSPropertyOp40
 70
     0
102
RTVSPropertyOp41
 70
     0
102
RTVSPropertyOp42
 70
     0
102
RTVSPropertyOp43
 70
     0
102
RTVSPropertyOp44
 70
     0
102
RTVSPropertyOp45
 70
     0
102
RTVSPropertyOp46
 70
     0
102
RTVSPropertyOp47
 70
     0
102
RTVSPropertyOp48
 70
     0
102
RTVSPropertyOp49
 70
     0
102
RTVSPropertyOp50
 70
     0
102
RTVSPropertyOp51
 70
     0
102
RTVSPropertyOp52
 70
     0
102
RTVSPropertyOp53
 70
     0
102
RTVSPropertyOp54
 70
     0
102
RTVSPropertyOp55
 70
     0
102
RTVSPropertyOp56
 70
     0
102
RTVSPropertyOp57
 70
     0
102
RTVSPropertyOp58
 70
     1
102
RTVSPropertyOp59
 70
     1
102
RTVSPropertyOp60
 70
     1
102
RTVSPropertyOp61
 70
     1
102
RTVSPropertyOp62
 70
     1
  0
XRECORD
  5
386
102
{ACAD_REACTORS
330
385
102
}
330
385
100
AcDbXrecord
280
     1
102
RTVSPost2010Prop28
280
     0
102
RTVSPost2010PropOp28
 70
     1
102
RTVSPost2010Prop29
280
     1
102
RTVSPost2010PropOp29
 70
     1
102
RTVSPost2010Prop30
280
     1
102
RTVSPost2010PropOp30
 70
     1
102
RTVSPost2010Prop31
280
     0
102
RTVSPost2010PropOp31
 70
     1
102
RTVSPost2010Prop32
280
     0
102
RTVSPost2010PropOp32
 70
     1
102
RTVSPost2010Prop33
280
     0
102
RTVSPost2010PropOp33
 70
     1
102
RTVSPost2010Prop34
280
     0
102
RTVSPost2010PropOp34
 70
     1
102
RTVSPost2010Prop35
280
     0
102
RTVSPost2010PropOp35
 70
     1
102
RTVSPost2010Prop36
280
     0
102
RTVSPost2010PropOp36
 70
     1
102
RTVSPost2010Prop37
 90
       50
102
RTVSPost2010PropOp37
 70
     1
102
RTVSPost2010Prop38
140
0.0
102
RTVSPost2010PropOp38
 70
     1
102
RTVSPost2010Prop39
140
1.0
102
RTVSPost2010PropOp39
 70
     1
102
RTVSPost2010Prop40
 90
        0
102
RTVSPost2010PropOp40
 70
     1
102
RTVSPost2010Prop41ColorIndex
 90
       18
102
RTVSPost2010Prop41ColorRGB
 90
        0
102
RTVSPost2010PropOp41
 70
     1
102
RTVSPost2010Prop42
 90
       50
102
RTVSPost2010PropOp42
 70
     1
102
RTVSPost2010Prop43
 90
        3
102
RTVSPost2010PropOp43
 70
     1
102
RTVSPost2010Prop44ColorIndex
 90
        5
102
RTVSPost2010Prop44ColorRGB
 90
      255
102
RTVSPost2010PropOp44
 70
     1
102
RTVSPost2010Prop45
280
     0
102
RTVSPost2010PropOp45
 70
     1
102
RTVSPost2010Prop46
 90
       50
102
RTVSPost2010PropOp46
 70
     1
102
RTVSPost2010Prop47
 90
       50
102
RTVSPost2010PropOp47
 70
     1
102
RTVSPost2010Prop48
 90
       50
102
RTVSPost2010PropOp48
 70
     1
102
RTVSPost2010Prop49
280
     0
102
RTVSPost2010PropOp49
 70
     1
102
RTVSPost2010Prop50
 90
       50
102
RTVSPost2010PropOp50
 70
     1
102
RTVSPost2010Prop51ColorIndex
 90
      256
102
RTVSPost2010Prop51ColorRGB
 90
-16777216
102
RTVSPost2010PropOp51
 70
     0
102
RTVSPost2010Prop52
140
1.0
102
RTVSPost2010PropOp52
 70
     0
102
RTVSPost2010Prop53
 90
        2
102
RTVSPost2010PropOp53
 70
     1
102
RTVSPost2010Prop54
  1
strokes_ogs.tif
102
RTVSPost2010PropOp54
 70
     1
102
RTVSPost2010Prop55
280
     0
102
RTVSPost2010PropOp55
 70
     1
102
RTVSPost2010Prop56
140
1.0
102
RTVSPost2010PropOp56
 70
     1
102
RTVSPost2010Prop57
140
1.0
102
RTVSPost2010PropOp57
 70
     1
102
RTVSPropertyOp0
 70
     1
102
RTVSPropertyOp1
 70
     1
102
RTVSPropertyOp2
 70
     1
102
RTVSPropertyOp3
 70
     1
102
RTVSPropertyOp4
 70
     1
102
RTVSPropertyOp5
 70
     1
102
RTVSPropertyOp6
 70
     1
102
RTVSPropertyOp7
 70
     1
102
RTVSPropertyOp8
 70
     1
102
RTVSPropertyOp9
 70
     1
102
RTVSPropertyOp10
 70
     1
102
RTVSPropertyOp11
 70
     1
102
RTVSPropertyOp12
 70
     1
102
RTVSPropertyOp13
 70
     1
102
RTVSPropertyOp14
 70
     1
102
RTVSPropertyOp15
 70
     1
102
RTVSPropertyOp16
 70
     1
102
RTVSPropertyOp17
 70
     1
102
RTVSPropertyOp18
 70
     1
102
RTVSPropertyOp19
 70
     1
102
RTVSPropertyOp20
 70
     1
102
RTVSPropertyOp21
 70
     1
102
RTVSPropertyOp22
 70
     1
102
RTVSPropertyOp23
 70
     1
102
RTVSPropertyOp24
 70
     1
102
RTVSPropertyOp25
 70
     1
102
RTVSPropertyOp26
 70
     1
102
RTVSPropertyOp27
 70
     1
102
RTVSPropertyOp28
 70
     1
102
RTVSPropertyOp29
 70
     1
102
RTVSPropertyOp30
 70
     1
102
RTVSPropertyOp31
 70
     1
102
RTVSPropertyOp32
 70
     1
102
RTVSPropertyOp33
 70
     1
102
RTVSPropertyOp34
 70
     1
102
RTVSPropertyOp35
 70
     1
102
RTVSPropertyOp36
 70
     1
102
RTVSPropertyOp37
 70
     1
102
RTVSPropertyOp38
 70
     1
102
RTVSPropertyOp39
 70
     1
102
RTVSPropertyOp40
 70
     1
102
RTVSPropertyOp41
 70
     1
102
RTVSPropertyOp42
 70
     1
102
RTVSPropertyOp43
 70
     1
102
RTVSPropertyOp44
 70
     1
102
RTVSPropertyOp45
 70
     1
102
RTVSPropertyOp46
 70
     1
102
RTVSPropertyOp47
 70
     1
102
RTVSPropertyOp48
 70
     1
102
RTVSPropertyOp49
 70
     1
102
RTVSPropertyOp50
 70
     1
102
RTVSPropertyOp51
 70
     0
102
RTVSPropertyOp52
 70
     0
102
RTVSPropertyOp53
 70
     1
102
RTVSPropertyOp54
 70
     1
102
RTVSPropertyOp55
 70
     1
102
RTVSPropertyOp56
 70
     1
102
RTVSPropertyOp57
 70
     1
102
RTVSPropertyOp58
 70
     1
102
RTVSPropertyOp59
 70
     1
102
RTVSPropertyOp60
 70
     1
102
RTVSPropertyOp61
 70
     1
102
RTVSPropertyOp62
 70
     1
  0
XRECORD
  5
3A4
102
{ACAD_REACTORS
330
3A3
102
}
330
3A3
100
AcDbXrecord
280
     1
102
RTVSPost2010Prop28
280
     0
102
RTVSPost2010PropOp28
 70
     1
102
RTVSPost2010Prop29
280
     1
102
RTVSPost2010PropOp29
 70
     1
102
RTVSPost2010Prop30
280
     1
102
RTVSPost2010PropOp30
 70
     1
102
RTVSPost2010Prop31
280
     0
102
RTVSPost2010PropOp31
 70
     1
102
RTVSPost2010Prop32
280
     0
102
RTVSPost2010PropOp32
 70
     1
102
RTVSPost2010Prop33
280
     0
102
RTVSPost2010PropOp33
 70
     1
102
RTVSPost2010Prop34
280
     0
102
RTVSPost2010PropOp34
 70
     1
102
RTVSPost2010Prop35
280
     0
102
RTVSPost2010PropOp35
 70
     1
102
RTVSPost2010Prop36
280
     0
102
RTVSPost2010PropOp36
 70
     1
102
RTVSPost2010Prop37
 90
       50
102
RTVSPost2010PropOp37
 70
     1
102
RTVSPost2010Prop38
140
0.0
102
RTVSPost2010PropOp38
 70
     1
102
RTVSPost2010Prop39
140
1.0
102
RTVSPost2010PropOp39
 70
     1
102
RTVSPost2010Prop40
 90
        0
102
RTVSPost2010PropOp40
 70
     1
102
RTVSPost2010Prop41ColorIndex
 90
       18
102
RTVSPost2010Prop41ColorRGB
 90
        0
102
RTVSPost2010PropOp41
 70
     1
102
RTVSPost2010Prop42
 90
       50
102
RTVSPost2010PropOp42
 70
     1
102
RTVSPost2010Prop43
 90
        3
102
RTVSPost2010PropOp43
 70
     1
102
RTVSPost2010Prop44ColorIndex
 90
        5
102
RTVSPost2010Prop44ColorRGB
 90
      255
102
RTVSPost2010PropOp44
 70
     1
102
RTVSPost2010Prop45
280
     0
102
RTVSPost2010PropOp45
 70
     1
102
RTVSPost2010Prop46
 90
       50
102
RTVSPost2010PropOp46
 70
     1
102
RTVSPost2010Prop47
 90
       50
102
RTVSPost2010PropOp47
 70
     1
102
RTVSPost2010Prop48
 90
       50
102
RTVSPost2010PropOp48
 70
     1
102
RTVSPost2010Prop49
280
     0
102
RTVSPost2010PropOp49
 70
     1
102
RTVSPost2010Prop50
 90
       50
102
RTVSPost2010PropOp50
 70
     1
102
RTVSPost2010Prop51ColorIndex
 90
      256
102
RTVSPost2010Prop51ColorRGB
 90
-16777216
102
RTVSPost2010PropOp51
 70
     0
102
RTVSPost2010Prop52
140
1.0
102
RTVSPost2010PropOp52
 70
     0
102
RTVSPost2010Prop53
 90
        2
102
RTVSPost2010PropOp53
 70
     1
102
RTVSPost2010Prop54
  1
strokes_ogs.tif
102
RTVSPost2010PropOp54
 70
     1
102
RTVSPost2010Prop55
280
     0
102
RTVSPost2010PropOp55
 70
     1
102
RTVSPost2010Prop56
140
1.0
102
RTVSPost2010PropOp56
 70
     1
102
RTVSPost2010Prop57
140
1.0
102
RTVSPost2010PropOp57
 70
     1
102
RTVSPropertyOp0
 70
     1
102
RTVSPropertyOp1
 70
     1
102
RTVSPropertyOp2
 70
     1
102
RTVSPropertyOp3
 70
     1
102
RTVSPropertyOp4
 70
     1
102
RTVSPropertyOp5
 70
     1
102
RTVSPropertyOp6
 70
     1
102
RTVSPropertyOp7
 70
     1
102
RTVSPropertyOp8
 70
     1
102
RTVSPropertyOp9
 70
     1
102
RTVSPropertyOp10
 70
     1
102
RTVSPropertyOp11
 70
     1
102
RTVSPropertyOp12
 70
     1
102
RTVSPropertyOp13
 70
     1
102
RTVSPropertyOp14
 70
     1
102
RTVSPropertyOp15
 70
     1
102
RTVSPropertyOp16
 70
     1
102
RTVSPropertyOp17
 70
     1
102
RTVSPropertyOp18
 70
     1
102
RTVSPropertyOp19
 70
     1
102
RTVSPropertyOp20
 70
     1
102
RTVSPropertyOp21
 70
     1
102
RTVSPropertyOp22
 70
     1
102
RTVSPropertyOp23
 70
     1
102
RTVSPropertyOp24
 70
     1
102
RTVSPropertyOp25
 70
     1
102
RTVSPropertyOp26
 70
     1
102
RTVSPropertyOp27
 70
     1
102
RTVSPropertyOp28
 70
     1
102
RTVSPropertyOp29
 70
     1
102
RTVSPropertyOp30
 70
     1
102
RTVSPropertyOp31
 70
     1
102
RTVSPropertyOp32
 70
     1
102
RTVSPropertyOp33
 70
     1
102
RTVSPropertyOp34
 70
     1
102
RTVSPropertyOp35
 70
     1
102
RTVSPropertyOp36
 70
     1
102
RTVSPropertyOp37
 70
     1
102
RTVSPropertyOp38
 70
     1
102
RTVSPropertyOp39
 70
     1
102
RTVSPropertyOp40
 70
     1
102
RTVSPropertyOp41
 70
     1
102
RTVSPropertyOp42
 70
     1
102
RTVSPropertyOp43
 70
     1
102
RTVSPropertyOp44
 70
     1
102
RTVSPropertyOp45
 70
     1
102
RTVSPropertyOp46
 70
     1
102
RTVSPropertyOp47
 70
     1
102
RTVSPropertyOp48
 70
     1
102
RTVSPropertyOp49
 70
     1
102
RTVSPropertyOp50
 70
     1
102
RTVSPropertyOp51
 70
     0
102
RTVSPropertyOp52
 70
     0
102
RTVSPropertyOp53
 70
     1
102
RTVSPropertyOp54
 70
     1
102
RTVSPropertyOp55
 70
     1
102
RTVSPropertyOp56
 70
     1
102
RTVSPropertyOp57
 70
     1
102
RTVSPropertyOp58
 70
     1
102
RTVSPropertyOp59
 70
     1
102
RTVSPropertyOp60
 70
     1
102
RTVSPropertyOp61
 70
     1
102
RTVSPropertyOp62
 70
     1
  0
XRECORD
  5
3A2
102
{ACAD_REACTORS
330
3A1
102
}
330
3A1
100
AcDbXrecord
280
     1
102
RTVSPost2010Prop28
280
     0
102
RTVSPost2010PropOp28
 70
     1
102
RTVSPost2010Prop29
280
     1
102
RTVSPost2010PropOp29
 70
     1
102
RTVSPost2010Prop30
280
     1
102
RTVSPost2010PropOp30
 70
     1
102
RTVSPost2010Prop31
280
     0
102
RTVSPost2010PropOp31
 70
     1
102
RTVSPost2010Prop32
280
     0
102
RTVSPost2010PropOp32
 70
     1
102
RTVSPost2010Prop33
280
     0
102
RTVSPost2010PropOp33
 70
     1
102
RTVSPost2010Prop34
280
     0
102
RTVSPost2010PropOp34
 70
     1
102
RTVSPost2010Prop35
280
     0
102
RTVSPost2010PropOp35
 70
     1
102
RTVSPost2010Prop36
280
     0
102
RTVSPost2010PropOp36
 70
     1
102
RTVSPost2010Prop37
 90
       50
102
RTVSPost2010PropOp37
 70
     1
102
RTVSPost2010Prop38
140
0.0
102
RTVSPost2010PropOp38
 70
     1
102
RTVSPost2010Prop39
140
1.0
102
RTVSPost2010PropOp39
 70
     1
102
RTVSPost2010Prop40
 90
        0
102
RTVSPost2010PropOp40
 70
     1
102
RTVSPost2010Prop41ColorIndex
 90
       18
102
RTVSPost2010Prop41ColorRGB
 90
        0
102
RTVSPost2010PropOp41
 70
     1
102
RTVSPost2010Prop42
 90
       50
102
RTVSPost2010PropOp42
 70
     1
102
RTVSPost2010Prop43
 90
        3
102
RTVSPost2010PropOp43
 70
     1
102
RTVSPost2010Prop44ColorIndex
 90
        5
102
RTVSPost2010Prop44ColorRGB
 90
      255
102
RTVSPost2010PropOp44
 70
     1
102
RTVSPost2010Prop45
280
     0
102
RTVSPost2010PropOp45
 70
     1
102
RTVSPost2010Prop46
 90
       50
102
RTVSPost2010PropOp46
 70
     1
102
RTVSPost2010Prop47
 90
       50
102
RTVSPost2010PropOp47
 70
     1
102
RTVSPost2010Prop48
 90
       50
102
RTVSPost2010PropOp48
 70
     1
102
RTVSPost2010Prop49
280
     0
102
RTVSPost2010PropOp49
 70
     1
102
RTVSPost2010Prop50
 90
       50
102
RTVSPost2010PropOp50
 70
     1
102
RTVSPost2010Prop51ColorIndex
 90
      256
102
RTVSPost2010Prop51ColorRGB
 90
-16777216
102
RTVSPost2010PropOp51
 70
     0
102
RTVSPost2010Prop52
140
1.0
102
RTVSPost2010PropOp52
 70
     0
102
RTVSPost2010Prop53
 90
        2
102
RTVSPost2010PropOp53
 70
     1
102
RTVSPost2010Prop54
  1
strokes_ogs.tif
102
RTVSPost2010PropOp54
 70
     1
102
RTVSPost2010Prop55
280
     0
102
RTVSPost2010PropOp55
 70
     1
102
RTVSPost2010Prop56
140
1.0
102
RTVSPost2010PropOp56
 70
     1
102
RTVSPost2010Prop57
140
1.0
102
RTVSPost2010PropOp57
 70
     1
102
RTVSPropertyOp0
 70
     1
102
RTVSPropertyOp1
 70
     1
102
RTVSPropertyOp2
 70
     1
102
RTVSPropertyOp3
 70
     1
102
RTVSPropertyOp4
 70
     1
102
RTVSPropertyOp5
 70
     1
102
RTVSPropertyOp6
 70
     1
102
RTVSPropertyOp7
 70
     1
102
RTVSPropertyOp8
 70
     1
102
RTVSPropertyOp9
 70
     1
102
RTVSPropertyOp10
 70
     1
102
RTVSPropertyOp11
 70
     1
102
RTVSPropertyOp12
 70
     1
102
RTVSPropertyOp13
 70
     1
102
RTVSPropertyOp14
 70
     1
102
RTVSPropertyOp15
 70
     1
102
RTVSPropertyOp16
 70
     1
102
RTVSPropertyOp17
 70
     1
102
RTVSPropertyOp18
 70
     1
102
RTVSPropertyOp19
 70
     1
102
RTVSPropertyOp20
 70
     1
102
RTVSPropertyOp21
 70
     1
102
RTVSPropertyOp22
 70
     1
102
RTVSPropertyOp23
 70
     1
102
RTVSPropertyOp24
 70
     1
102
RTVSPropertyOp25
 70
     1
102
RTVSPropertyOp26
 70
     1
102
RTVSPropertyOp27
 70
     1
102
RTVSPropertyOp28
 70
     1
102
RTVSPropertyOp29
 70
     1
102
RTVSPropertyOp30
 70
     1
102
RTVSPropertyOp31
 70
     1
102
RTVSPropertyOp32
 70
     1
102
RTVSPropertyOp33
 70
     1
102
RTVSPropertyOp34
 70
     1
102
RTVSPropertyOp35
 70
     1
102
RTVSPropertyOp36
 70
     1
102
RTVSPropertyOp37
 70
     1
102
RTVSPropertyOp38
 70
     1
102
RTVSPropertyOp39
 70
     1
102
RTVSPropertyOp40
 70
     1
102
RTVSPropertyOp41
 70
     1
102
RTVSPropertyOp42
 70
     1
102
RTVSPropertyOp43
 70
     1
102
RTVSPropertyOp44
 70
     1
102
RTVSPropertyOp45
 70
     1
102
RTVSPropertyOp46
 70
     1
102
RTVSPropertyOp47
 70
     1
102
RTVSPropertyOp48
 70
     1
102
RTVSPropertyOp49
 70
     1
102
RTVSPropertyOp50
 70
     1
102
RTVSPropertyOp51
 70
     0
102
RTVSPropertyOp52
 70
     0
102
RTVSPropertyOp53
 70
     1
102
RTVSPropertyOp54
 70
     1
102
RTVSPropertyOp55
 70
     1
102
RTVSPropertyOp56
 70
     1
102
RTVSPropertyOp57
 70
     1
102
RTVSPropertyOp58
 70
     1
102
RTVSPropertyOp59
 70
     1
102
RTVSPropertyOp60
 70
     1
102
RTVSPropertyOp61
 70
     1
102
RTVSPropertyOp62
 70
     1
  0
XRECORD
  5
39C
102
{ACAD_REACTORS
330
39B
102
}
330
39B
100
AcDbXrecord
280
     1
102
RTVSPost2010Prop28
280
     0
102
RTVSPost2010PropOp28
 70
     1
102
RTVSPost2010Prop29
280
     1
102
RTVSPost2010PropOp29
 70
     1
102
RTVSPost2010Prop30
280
     1
102
RTVSPost2010PropOp30
 70
     1
102
RTVSPost2010Prop31
280
     0
102
RTVSPost2010PropOp31
 70
     1
102
RTVSPost2010Prop32
280
     0
102
RTVSPost2010PropOp32
 70
     1
102
RTVSPost2010Prop33
280
     0
102
RTVSPost2010PropOp33
 70
     1
102
RTVSPost2010Prop34
280
     0
102
RTVSPost2010PropOp34
 70
     1
102
RTVSPost2010Prop35
280
     0
102
RTVSPost2010PropOp35
 70
     1
102
RTVSPost2010Prop36
280
     0
102
RTVSPost2010PropOp36
 70
     1
102
RTVSPost2010Prop37
 90
       50
102
RTVSPost2010PropOp37
 70
     1
102
RTVSPost2010Prop38
140
0.0
102
RTVSPost2010PropOp38
 70
     1
102
RTVSPost2010Prop39
140
1.0
102
RTVSPost2010PropOp39
 70
     1
102
RTVSPost2010Prop40
 90
        0
102
RTVSPost2010PropOp40
 70
     1
102
RTVSPost2010Prop41ColorIndex
 90
       18
102
RTVSPost2010Prop41ColorRGB
 90
        0
102
RTVSPost2010PropOp41
 70
     1
102
RTVSPost2010Prop42
 90
       50
102
RTVSPost2010PropOp42
 70
     1
102
RTVSPost2010Prop43
 90
        3
102
RTVSPost2010PropOp43
 70
     1
102
RTVSPost2010Prop44ColorIndex
 90
        5
102
RTVSPost2010Prop44ColorRGB
 90
      255
102
RTVSPost2010PropOp44
 70
     1
102
RTVSPost2010Prop45
280
     0
102
RTVSPost2010PropOp45
 70
     1
102
RTVSPost2010Prop46
 90
       50
102
RTVSPost2010PropOp46
 70
     1
102
RTVSPost2010Prop47
 90
       50
102
RTVSPost2010PropOp47
 70
     1
102
RTVSPost2010Prop48
 90
       50
102
RTVSPost2010PropOp48
 70
     1
102
RTVSPost2010Prop49
280
     0
102
RTVSPost2010PropOp49
 70
     1
102
RTVSPost2010Prop50
 90
       50
102
RTVSPost2010PropOp50
 70
     1
102
RTVSPost2010Prop51ColorIndex
 90
      256
102
RTVSPost2010Prop51ColorRGB
 90
-16777216
102
RTVSPost2010PropOp51
 70
     0
102
RTVSPost2010Prop52
140
1.0
102
RTVSPost2010PropOp52
 70
     0
102
RTVSPost2010Prop53
 90
        2
102
RTVSPost2010PropOp53
 70
     1
102
RTVSPost2010Prop54
  1
strokes_ogs.tif
102
RTVSPost2010PropOp54
 70
     1
102
RTVSPost2010Prop55
280
     0
102
RTVSPost2010PropOp55
 70
     1
102
RTVSPost2010Prop56
140
1.0
102
RTVSPost2010PropOp56
 70
     1
102
RTVSPost2010Prop57
140
1.0
102
RTVSPost2010PropOp57
 70
     1
102
RTVSPropertyOp0
 70
     1
102
RTVSPropertyOp1
 70
     1
102
RTVSPropertyOp2
 70
     1
102
RTVSPropertyOp3
 70
     1
102
RTVSPropertyOp4
 70
     1
102
RTVSPropertyOp5
 70
     1
102
RTVSPropertyOp6
 70
     1
102
RTVSPropertyOp7
 70
     1
102
RTVSPropertyOp8
 70
     1
102
RTVSPropertyOp9
 70
     1
102
RTVSPropertyOp10
 70
     1
102
RTVSPropertyOp11
 70
     1
102
RTVSPropertyOp12
 70
     1
102
RTVSPropertyOp13
 70
     1
102
RTVSPropertyOp14
 70
     1
102
RTVSPropertyOp15
 70
     1
102
RTVSPropertyOp16
 70
     1
102
RTVSPropertyOp17
 70
     1
102
RTVSPropertyOp18
 70
     1
102
RTVSPropertyOp19
 70
     1
102
RTVSPropertyOp20
 70
     1
102
RTVSPropertyOp21
 70
     1
102
RTVSPropertyOp22
 70
     1
102
RTVSPropertyOp23
 70
     1
102
RTVSPropertyOp24
 70
     1
102
RTVSPropertyOp25
 70
     1
102
RTVSPropertyOp26
 70
     1
102
RTVSPropertyOp27
 70
     1
102
RTVSPropertyOp28
 70
     1
102
RTVSPropertyOp29
 70
     1
102
RTVSPropertyOp30
 70
     1
102
RTVSPropertyOp31
 70
     1
102
RTVSPropertyOp32
 70
     1
102
RTVSPropertyOp33
 70
     1
102
RTVSPropertyOp34
 70
     1
102
RTVSPropertyOp35
 70
     1
102
RTVSPropertyOp36
 70
     1
102
RTVSPropertyOp37
 70
     1
102
RTVSPropertyOp38
 70
     1
102
RTVSPropertyOp39
 70
     1
102
RTVSPropertyOp40
 70
     1
102
RTVSPropertyOp41
 70
     1
102
RTVSPropertyOp42
 70
     1
102
RTVSPropertyOp43
 70
     1
102
RTVSPropertyOp44
 70
     1
102
RTVSPropertyOp45
 70
     1
102
RTVSPropertyOp46
 70
     1
102
RTVSPropertyOp47
 70
     1
102
RTVSPropertyOp48
 70
     1
102
RTVSPropertyOp49
 70
     1
102
RTVSPropertyOp50
 70
     1
102
RTVSPropertyOp51
 70
     0
102
RTVSPropertyOp52
 70
     0
102
RTVSPropertyOp53
 70
     1
102
RTVSPropertyOp54
 70
     1
102
RTVSPropertyOp55
 70
     1
102
RTVSPropertyOp56
 70
     1
102
RTVSPropertyOp57
 70
     1
102
RTVSPropertyOp58
 70
     1
102
RTVSPropertyOp59
 70
     1
102
RTVSPropertyOp60
 70
     1
102
RTVSPropertyOp61
 70
     1
102
RTVSPropertyOp62
 70
     1
  0
XRECORD
  5
39E
102
{ACAD_REACTORS
330
39D
102
}
330
39D
100
AcDbXrecord
280
     1
102
RTVSPost2010Prop28
280
     0
102
RTVSPost2010PropOp28
 70
     1
102
RTVSPost2010Prop29
280
     1
102
RTVSPost2010PropOp29
 70
     1
102
RTVSPost2010Prop30
280
     1
102
RTVSPost2010PropOp30
 70
     1
102
RTVSPost2010Prop31
280
     0
102
RTVSPost2010PropOp31
 70
     1
102
RTVSPost2010Prop32
280
     0
102
RTVSPost2010PropOp32
 70
     1
102
RTVSPost2010Prop33
280
     0
102
RTVSPost2010PropOp33
 70
     1
102
RTVSPost2010Prop34
280
     0
102
RTVSPost2010PropOp34
 70
     1
102
RTVSPost2010Prop35
280
     0
102
RTVSPost2010PropOp35
 70
     1
102
RTVSPost2010Prop36
280
     0
102
RTVSPost2010PropOp36
 70
     1
102
RTVSPost2010Prop37
 90
       50
102
RTVSPost2010PropOp37
 70
     1
102
RTVSPost2010Prop38
140
0.0
102
RTVSPost2010PropOp38
 70
     1
102
RTVSPost2010Prop39
140
1.0
102
RTVSPost2010PropOp39
 70
     1
102
RTVSPost2010Prop40
 90
        0
102
RTVSPost2010PropOp40
 70
     1
102
RTVSPost2010Prop41ColorIndex
 90
       18
102
RTVSPost2010Prop41ColorRGB
 90
        0
102
RTVSPost2010PropOp41
 70
     1
102
RTVSPost2010Prop42
 90
       50
102
RTVSPost2010PropOp42
 70
     1
102
RTVSPost2010Prop43
 90
        3
102
RTVSPost2010PropOp43
 70
     1
102
RTVSPost2010Prop44ColorIndex
 90
        5
102
RTVSPost2010Prop44ColorRGB
 90
      255
102
RTVSPost2010PropOp44
 70
     1
102
RTVSPost2010Prop45
280
     0
102
RTVSPost2010PropOp45
 70
     1
102
RTVSPost2010Prop46
 90
       50
102
RTVSPost2010PropOp46
 70
     1
102
RTVSPost2010Prop47
 90
       50
102
RTVSPost2010PropOp47
 70
     1
102
RTVSPost2010Prop48
 90
       50
102
RTVSPost2010PropOp48
 70
     1
102
RTVSPost2010Prop49
280
     0
102
RTVSPost2010PropOp49
 70
     1
102
RTVSPost2010Prop50
 90
       50
102
RTVSPost2010PropOp50
 70
     1
102
RTVSPost2010Prop51ColorIndex
 90
      256
102
RTVSPost2010Prop51ColorRGB
 90
-16777216
102
RTVSPost2010PropOp51
 70
     0
102
RTVSPost2010Prop52
140
1.0
102
RTVSPost2010PropOp52
 70
     0
102
RTVSPost2010Prop53
 90
        2
102
RTVSPost2010PropOp53
 70
     1
102
RTVSPost2010Prop54
  1
strokes_ogs.tif
102
RTVSPost2010PropOp54
 70
     1
102
RTVSPost2010Prop55
280
     0
102
RTVSPost2010PropOp55
 70
     1
102
RTVSPost2010Prop56
140
1.0
102
RTVSPost2010PropOp56
 70
     1
102
RTVSPost2010Prop57
140
1.0
102
RTVSPost2010PropOp57
 70
     1
102
RTVSPropertyOp0
 70
     1
102
RTVSPropertyOp1
 70
     1
102
RTVSPropertyOp2
 70
     1
102
RTVSPropertyOp3
 70
     1
102
RTVSPropertyOp4
 70
     1
102
RTVSPropertyOp5
 70
     1
102
RTVSPropertyOp6
 70
     1
102
RTVSPropertyOp7
 70
     1
102
RTVSPropertyOp8
 70
     1
102
RTVSPropertyOp9
 70
     1
102
RTVSPropertyOp10
 70
     1
102
RTVSPropertyOp11
 70
     1
102
RTVSPropertyOp12
 70
     1
102
RTVSPropertyOp13
 70
     1
102
RTVSPropertyOp14
 70
     1
102
RTVSPropertyOp15
 70
     1
102
RTVSPropertyOp16
 70
     1
102
RTVSPropertyOp17
 70
     1
102
RTVSPropertyOp18
 70
     1
102
RTVSPropertyOp19
 70
     1
102
RTVSPropertyOp20
 70
     1
102
RTVSPropertyOp21
 70
     1
102
RTVSPropertyOp22
 70
     1
102
RTVSPropertyOp23
 70
     1
102
RTVSPropertyOp24
 70
     1
102
RTVSPropertyOp25
 70
     1
102
RTVSPropertyOp26
 70
     1
102
RTVSPropertyOp27
 70
     1
102
RTVSPropertyOp28
 70
     1
102
RTVSPropertyOp29
 70
     1
102
RTVSPropertyOp30
 70
     1
102
RTVSPropertyOp31
 70
     1
102
RTVSPropertyOp32
 70
     1
102
RTVSPropertyOp33
 70
     1
102
RTVSPropertyOp34
 70
     1
102
RTVSPropertyOp35
 70
     1
102
RTVSPropertyOp36
 70
     1
102
RTVSPropertyOp37
 70
     1
102
RTVSPropertyOp38
 70
     1
102
RTVSPropertyOp39
 70
     1
102
RTVSPropertyOp40
 70
     1
102
RTVSPropertyOp41
 70
     1
102
RTVSPropertyOp42
 70
     1
102
RTVSPropertyOp43
 70
     1
102
RTVSPropertyOp44
 70
     1
102
RTVSPropertyOp45
 70
     1
102
RTVSPropertyOp46
 70
     1
102
RTVSPropertyOp47
 70
     1
102
RTVSPropertyOp48
 70
     1
102
RTVSPropertyOp49
 70
     1
102
RTVSPropertyOp50
 70
     1
102
RTVSPropertyOp51
 70
     0
102
RTVSPropertyOp52
 70
     0
102
RTVSPropertyOp53
 70
     1
102
RTVSPropertyOp54
 70
     1
102
RTVSPropertyOp55
 70
     1
102
RTVSPropertyOp56
 70
     1
102
RTVSPropertyOp57
 70
     1
102
RTVSPropertyOp58
 70
     1
102
RTVSPropertyOp59
 70
     1
102
RTVSPropertyOp60
 70
     1
102
RTVSPropertyOp61
 70
     1
102
RTVSPropertyOp62
 70
     1
  0
XRECORD
  5
38E
102
{ACAD_REACTORS
330
38D
102
}
330
38D
100
AcDbXrecord
280
     1
102
RTVSPost2010Prop28
280
     0
102
RTVSPost2010PropOp28
 70
     1
102
RTVSPost2010Prop29
280
     1
102
RTVSPost2010PropOp29
 70
     1
102
RTVSPost2010Prop30
280
     1
102
RTVSPost2010PropOp30
 70
     1
102
RTVSPost2010Prop31
280
     0
102
RTVSPost2010PropOp31
 70
     1
102
RTVSPost2010Prop32
280
     0
102
RTVSPost2010PropOp32
 70
     1
102
RTVSPost2010Prop33
280
     0
102
RTVSPost2010PropOp33
 70
     1
102
RTVSPost2010Prop34
280
     0
102
RTVSPost2010PropOp34
 70
     1
102
RTVSPost2010Prop35
280
     0
102
RTVSPost2010PropOp35
 70
     1
102
RTVSPost2010Prop36
280
     0
102
RTVSPost2010PropOp36
 70
     1
102
RTVSPost2010Prop37
 90
       50
102
RTVSPost2010PropOp37
 70
     1
102
RTVSPost2010Prop38
140
0.0
102
RTVSPost2010PropOp38
 70
     1
102
RTVSPost2010Prop39
140
1.0
102
RTVSPost2010PropOp39
 70
     1
102
RTVSPost2010Prop40
 90
        0
102
RTVSPost2010PropOp40
 70
     1
102
RTVSPost2010Prop41ColorIndex
 90
       18
102
RTVSPost2010Prop41ColorRGB
 90
        0
102
RTVSPost2010PropOp41
 70
     1
102
RTVSPost2010Prop42
 90
       50
102
RTVSPost2010PropOp42
 70
     1
102
RTVSPost2010Prop43
 90
        3
102
RTVSPost2010PropOp43
 70
     1
102
RTVSPost2010Prop44ColorIndex
 90
        5
102
RTVSPost2010Prop44ColorRGB
 90
      255
102
RTVSPost2010PropOp44
 70
     1
102
RTVSPost2010Prop45
280
     0
102
RTVSPost2010PropOp45
 70
     1
102
RTVSPost2010Prop46
 90
       50
102
RTVSPost2010PropOp46
 70
     1
102
RTVSPost2010Prop47
 90
       50
102
RTVSPost2010PropOp47
 70
     1
102
RTVSPost2010Prop48
 90
       50
102
RTVSPost2010PropOp48
 70
     1
102
RTVSPost2010Prop49
280
     0
102
RTVSPost2010PropOp49
 70
     1
102
RTVSPost2010Prop50
 90
       50
102
RTVSPost2010PropOp50
 70
     1
102
RTVSPost2010Prop51ColorIndex
 90
      256
102
RTVSPost2010Prop51ColorRGB
 90
-16777216
102
RTVSPost2010PropOp51
 70
     0
102
RTVSPost2010Prop52
140
1.0
102
RTVSPost2010PropOp52
 70
     0
102
RTVSPost2010Prop53
 90
        2
102
RTVSPost2010PropOp53
 70
     1
102
RTVSPost2010Prop54
  1
strokes_ogs.tif
102
RTVSPost2010PropOp54
 70
     1
102
RTVSPost2010Prop55
280
     0
102
RTVSPost2010PropOp55
 70
     1
102
RTVSPost2010Prop56
140
1.0
102
RTVSPost2010PropOp56
 70
     1
102
RTVSPost2010Prop57
140
1.0
102
RTVSPost2010PropOp57
 70
     1
102
RTVSPropertyOp0
 70
     1
102
RTVSPropertyOp1
 70
     1
102
RTVSPropertyOp2
 70
     1
102
RTVSPropertyOp3
 70
     1
102
RTVSPropertyOp4
 70
     1
102
RTVSPropertyOp5
 70
     1
102
RTVSPropertyOp6
 70
     1
102
RTVSPropertyOp7
 70
     1
102
RTVSPropertyOp8
 70
     1
102
RTVSPropertyOp9
 70
     1
102
RTVSPropertyOp10
 70
     1
102
RTVSPropertyOp11
 70
     1
102
RTVSPropertyOp12
 70
     1
102
RTVSPropertyOp13
 70
     1
102
RTVSPropertyOp14
 70
     1
102
RTVSPropertyOp15
 70
     1
102
RTVSPropertyOp16
 70
     1
102
RTVSPropertyOp17
 70
     1
102
RTVSPropertyOp18
 70
     1
102
RTVSPropertyOp19
 70
     1
102
RTVSPropertyOp20
 70
     1
102
RTVSPropertyOp21
 70
     1
102
RTVSPropertyOp22
 70
     1
102
RTVSPropertyOp23
 70
     1
102
RTVSPropertyOp24
 70
     1
102
RTVSPropertyOp25
 70
     1
102
RTVSPropertyOp26
 70
     1
102
RTVSPropertyOp27
 70
     1
102
RTVSPropertyOp28
 70
     1
102
RTVSPropertyOp29
 70
     1
102
RTVSPropertyOp30
 70
     1
102
RTVSPropertyOp31
 70
     1
102
RTVSPropertyOp32
 70
     1
102
RTVSPropertyOp33
 70
     1
102
RTVSPropertyOp34
 70
     1
102
RTVSPropertyOp35
 70
     1
102
RTVSPropertyOp36
 70
     1
102
RTVSPropertyOp37
 70
     1
102
RTVSPropertyOp38
 70
     1
102
RTVSPropertyOp39
 70
     1
102
RTVSPropertyOp40
 70
     1
102
RTVSPropertyOp41
 70
     1
102
RTVSPropertyOp42
 70
     1
102
RTVSPropertyOp43
 70
     1
102
RTVSPropertyOp44
 70
     1
102
RTVSPropertyOp45
 70
     1
102
RTVSPropertyOp46
 70
     1
102
RTVSPropertyOp47
 70
     1
102
RTVSPropertyOp48
 70
     1
102
RTVSPropertyOp49
 70
     1
102
RTVSPropertyOp50
 70
     1
102
RTVSPropertyOp51
 70
     0
102
RTVSPropertyOp52
 70
     0
102
RTVSPropertyOp53
 70
     1
102
RTVSPropertyOp54
 70
     1
102
RTVSPropertyOp55
 70
     1
102
RTVSPropertyOp56
 70
     1
102
RTVSPropertyOp57
 70
     1
102
RTVSPropertyOp58
 70
     1
102
RTVSPropertyOp59
 70
     1
102
RTVSPropertyOp60
 70
     1
102
RTVSPropertyOp61
 70
     1
102
RTVSPropertyOp62
 70
     1
  0
XRECORD
  5
380
102
{ACAD_REACTORS
330
37F
102
}
330
37F
100
AcDbXrecord
280
     1
102
RTVSPost2010Prop28
280
     0
102
RTVSPost2010PropOp28
 70
     1
102
RTVSPost2010Prop29
280
     1
102
RTVSPost2010PropOp29
 70
     1
102
RTVSPost2010Prop30
280
     1
102
RTVSPost2010PropOp30
 70
     1
102
RTVSPost2010Prop31
280
     0
102
RTVSPost2010PropOp31
 70
     1
102
RTVSPost2010Prop32
280
     0
102
RTVSPost2010PropOp32
 70
     1
102
RTVSPost2010Prop33
280
     0
102
RTVSPost2010PropOp33
 70
     1
102
RTVSPost2010Prop34
280
     0
102
RTVSPost2010PropOp34
 70
     1
102
RTVSPost2010Prop35
280
     0
102
RTVSPost2010PropOp35
 70
     1
102
RTVSPost2010Prop36
280
     0
102
RTVSPost2010PropOp36
 70
     1
102
RTVSPost2010Prop37
 90
       50
102
RTVSPost2010PropOp37
 70
     1
102
RTVSPost2010Prop38
140
0.0
102
RTVSPost2010PropOp38
 70
     1
102
RTVSPost2010Prop39
140
1.0
102
RTVSPost2010PropOp39
 70
     1
102
RTVSPost2010Prop40
 90
        0
102
RTVSPost2010PropOp40
 70
     1
102
RTVSPost2010Prop41ColorIndex
 90
       18
102
RTVSPost2010Prop41ColorRGB
 90
        0
102
RTVSPost2010PropOp41
 70
     1
102
RTVSPost2010Prop42
 90
       50
102
RTVSPost2010PropOp42
 70
     1
102
RTVSPost2010Prop43
 90
        3
102
RTVSPost2010PropOp43
 70
     1
102
RTVSPost2010Prop44ColorIndex
 90
        5
102
RTVSPost2010Prop44ColorRGB
 90
      255
102
RTVSPost2010PropOp44
 70
     1
102
RTVSPost2010Prop45
280
     0
102
RTVSPost2010PropOp45
 70
     1
102
RTVSPost2010Prop46
 90
       50
102
RTVSPost2010PropOp46
 70
     1
102
RTVSPost2010Prop47
 90
       50
102
RTVSPost2010PropOp47
 70
     1
102
RTVSPost2010Prop48
 90
       50
102
RTVSPost2010PropOp48
 70
     1
102
RTVSPost2010Prop49
280
     0
102
RTVSPost2010PropOp49
 70
     1
102
RTVSPost2010Prop50
 90
       50
102
RTVSPost2010PropOp50
 70
     1
102
RTVSPost2010Prop51ColorIndex
 90
      256
102
RTVSPost2010Prop51ColorRGB
 90
-16777216
102
RTVSPost2010PropOp51
 70
     0
102
RTVSPost2010Prop52
140
1.0
102
RTVSPost2010PropOp52
 70
     0
102
RTVSPost2010Prop53
 90
        2
102
RTVSPost2010PropOp53
 70
     1
102
RTVSPost2010Prop54
  1
strokes_ogs.tif
102
RTVSPost2010PropOp54
 70
     1
102
RTVSPost2010Prop55
280
     0
102
RTVSPost2010PropOp55
 70
     1
102
RTVSPost2010Prop56
140
1.0
102
RTVSPost2010PropOp56
 70
     1
102
RTVSPost2010Prop57
140
1.0
102
RTVSPost2010PropOp57
 70
     1
102
RTVSPropertyOp0
 70
     1
102
RTVSPropertyOp1
 70
     1
102
RTVSPropertyOp2
 70
     1
102
RTVSPropertyOp3
 70
     1
102
RTVSPropertyOp4
 70
     1
102
RTVSPropertyOp5
 70
     1
102
RTVSPropertyOp6
 70
     1
102
RTVSPropertyOp7
 70
     1
102
RTVSPropertyOp8
 70
     1
102
RTVSPropertyOp9
 70
     1
102
RTVSPropertyOp10
 70
     1
102
RTVSPropertyOp11
 70
     1
102
RTVSPropertyOp12
 70
     1
102
RTVSPropertyOp13
 70
     1
102
RTVSPropertyOp14
 70
     1
102
RTVSPropertyOp15
 70
     1
102
RTVSPropertyOp16
 70
     1
102
RTVSPropertyOp17
 70
     1
102
RTVSPropertyOp18
 70
     1
102
RTVSPropertyOp19
 70
     1
102
RTVSPropertyOp20
 70
     1
102
RTVSPropertyOp21
 70
     1
102
RTVSPropertyOp22
 70
     1
102
RTVSPropertyOp23
 70
     1
102
RTVSPropertyOp24
 70
     1
102
RTVSPropertyOp25
 70
     1
102
RTVSPropertyOp26
 70
     1
102
RTVSPropertyOp27
 70
     1
102
RTVSPropertyOp28
 70
     1
102
RTVSPropertyOp29
 70
     1
102
RTVSPropertyOp30
 70
     1
102
RTVSPropertyOp31
 70
     1
102
RTVSPropertyOp32
 70
     1
102
RTVSPropertyOp33
 70
     1
102
RTVSPropertyOp34
 70
     1
102
RTVSPropertyOp35
 70
     1
102
RTVSPropertyOp36
 70
     1
102
RTVSPropertyOp37
 70
     1
102
RTVSPropertyOp38
 70
     1
102
RTVSPropertyOp39
 70
     1
102
RTVSPropertyOp40
 70
     1
102
RTVSPropertyOp41
 70
     1
102
RTVSPropertyOp42
 70
     1
102
RTVSPropertyOp43
 70
     1
102
RTVSPropertyOp44
 70
     1
102
RTVSPropertyOp45
 70
     1
102
RTVSPropertyOp46
 70
     1
102
RTVSPropertyOp47
 70
     1
102
RTVSPropertyOp48
 70
     1
102
RTVSPropertyOp49
 70
     1
102
RTVSPropertyOp50
 70
     1
102
RTVSPropertyOp51
 70
     0
102
RTVSPropertyOp52
 70
     0
102
RTVSPropertyOp53
 70
     1
102
RTVSPropertyOp54
 70
     1
102
RTVSPropertyOp55
 70
     1
102
RTVSPropertyOp56
 70
     1
102
RTVSPropertyOp57
 70
     1
102
RTVSPropertyOp58
 70
     1
102
RTVSPropertyOp59
 70
     1
102
RTVSPropertyOp60
 70
     1
102
RTVSPropertyOp61
 70
     1
102
RTVSPropertyOp62
 70
     1
  0
XRECORD
  5
3A0
102
{ACAD_REACTORS
330
39F
102
}
330
39F
100
AcDbXrecord
280
     1
102
RTVSPost2010Prop28
280
     0
102
RTVSPost2010PropOp28
 70
     1
102
RTVSPost2010Prop29
280
     1
102
RTVSPost2010PropOp29
 70
     1
102
RTVSPost2010Prop30
280
     1
102
RTVSPost2010PropOp30
 70
     1
102
RTVSPost2010Prop31
280
     0
102
RTVSPost2010PropOp31
 70
     1
102
RTVSPost2010Prop32
280
     0
102
RTVSPost2010PropOp32
 70
     1
102
RTVSPost2010Prop33
280
     0
102
RTVSPost2010PropOp33
 70
     1
102
RTVSPost2010Prop34
280
     0
102
RTVSPost2010PropOp34
 70
     1
102
RTVSPost2010Prop35
280
     0
102
RTVSPost2010PropOp35
 70
     1
102
RTVSPost2010Prop36
280
     0
102
RTVSPost2010PropOp36
 70
     1
102
RTVSPost2010Prop37
 90
       50
102
RTVSPost2010PropOp37
 70
     1
102
RTVSPost2010Prop38
140
0.0
102
RTVSPost2010PropOp38
 70
     1
102
RTVSPost2010Prop39
140
1.0
102
RTVSPost2010PropOp39
 70
     1
102
RTVSPost2010Prop40
 90
        0
102
RTVSPost2010PropOp40
 70
     1
102
RTVSPost2010Prop41ColorIndex
 90
       18
102
RTVSPost2010Prop41ColorRGB
 90
        0
102
RTVSPost2010PropOp41
 70
     1
102
RTVSPost2010Prop42
 90
       50
102
RTVSPost2010PropOp42
 70
     1
102
RTVSPost2010Prop43
 90
        3
102
RTVSPost2010PropOp43
 70
     1
102
RTVSPost2010Prop44ColorIndex
 90
        5
102
RTVSPost2010Prop44ColorRGB
 90
      255
102
RTVSPost2010PropOp44
 70
     1
102
RTVSPost2010Prop45
280
     0
102
RTVSPost2010PropOp45
 70
     1
102
RTVSPost2010Prop46
 90
       50
102
RTVSPost2010PropOp46
 70
     1
102
RTVSPost2010Prop47
 90
       50
102
RTVSPost2010PropOp47
 70
     1
102
RTVSPost2010Prop48
 90
       50
102
RTVSPost2010PropOp48
 70
     1
102
RTVSPost2010Prop49
280
     0
102
RTVSPost2010PropOp49
 70
     1
102
RTVSPost2010Prop50
 90
       50
102
RTVSPost2010PropOp50
 70
     1
102
RTVSPost2010Prop51ColorIndex
 90
      256
102
RTVSPost2010Prop51ColorRGB
 90
-16777216
102
RTVSPost2010PropOp51
 70
     0
102
RTVSPost2010Prop52
140
1.0
102
RTVSPost2010PropOp52
 70
     0
102
RTVSPost2010Prop53
 90
        2
102
RTVSPost2010PropOp53
 70
     1
102
RTVSPost2010Prop54
  1
strokes_ogs.tif
102
RTVSPost2010PropOp54
 70
     1
102
RTVSPost2010Prop55
280
     0
102
RTVSPost2010PropOp55
 70
     1
102
RTVSPost2010Prop56
140
1.0
102
RTVSPost2010PropOp56
 70
     1
102
RTVSPost2010Prop57
140
1.0
102
RTVSPost2010PropOp57
 70
     1
102
RTVSPropertyOp0
 70
     1
102
RTVSPropertyOp1
 70
     1
102
RTVSPropertyOp2
 70
     1
102
RTVSPropertyOp3
 70
     1
102
RTVSPropertyOp4
 70
     1
102
RTVSPropertyOp5
 70
     1
102
RTVSPropertyOp6
 70
     1
102
RTVSPropertyOp7
 70
     1
102
RTVSPropertyOp8
 70
     1
102
RTVSPropertyOp9
 70
     1
102
RTVSPropertyOp10
 70
     1
102
RTVSPropertyOp11
 70
     1
102
RTVSPropertyOp12
 70
     1
102
RTVSPropertyOp13
 70
     1
102
RTVSPropertyOp14
 70
     1
102
RTVSPropertyOp15
 70
     1
102
RTVSPropertyOp16
 70
     1
102
RTVSPropertyOp17
 70
     1
102
RTVSPropertyOp18
 70
     1
102
RTVSPropertyOp19
 70
     1
102
RTVSPropertyOp20
 70
     1
102
RTVSPropertyOp21
 70
     1
102
RTVSPropertyOp22
 70
     1
102
RTVSPropertyOp23
 70
     1
102
RTVSPropertyOp24
 70
     1
102
RTVSPropertyOp25
 70
     1
102
RTVSPropertyOp26
 70
     1
102
RTVSPropertyOp27
 70
     1
102
RTVSPropertyOp28
 70
     1
102
RTVSPropertyOp29
 70
     1
102
RTVSPropertyOp30
 70
     1
102
RTVSPropertyOp31
 70
     1
102
RTVSPropertyOp32
 70
     1
102
RTVSPropertyOp33
 70
     1
102
RTVSPropertyOp34
 70
     1
102
RTVSPropertyOp35
 70
     1
102
RTVSPropertyOp36
 70
     1
102
RTVSPropertyOp37
 70
     1
102
RTVSPropertyOp38
 70
     1
102
RTVSPropertyOp39
 70
     1
102
RTVSPropertyOp40
 70
     1
102
RTVSPropertyOp41
 70
     1
102
RTVSPropertyOp42
 70
     1
102
RTVSPropertyOp43
 70
     1
102
RTVSPropertyOp44
 70
     1
102
RTVSPropertyOp45
 70
     1
102
RTVSPropertyOp46
 70
     1
102
RTVSPropertyOp47
 70
     1
102
RTVSPropertyOp48
 70
     1
102
RTVSPropertyOp49
 70
     1
102
RTVSPropertyOp50
 70
     1
102
RTVSPropertyOp51
 70
     0
102
RTVSPropertyOp52
 70
     0
102
RTVSPropertyOp53
 70
     1
102
RTVSPropertyOp54
 70
     1
102
RTVSPropertyOp55
 70
     1
102
RTVSPropertyOp56
 70
     1
102
RTVSPropertyOp57
 70
     1
102
RTVSPropertyOp58
 70
     1
102
RTVSPropertyOp59
 70
     1
102
RTVSPropertyOp60
 70
     1
102
RTVSPropertyOp61
 70
     1
102
RTVSPropertyOp62
 70
     1
  0
ENDSEC
  0
EOF
