  0
SECTION
  2
HEADER
  9
$ACADVER
  1
AC1018
  9
$ACADMAINTVER
 70
   104
  9
$DWGCODEPAGE
  3
ANSI_1250
  9
$LASTSAVEDBY
  1
wq7085
  9
$INSBASE
 10
0.0
 20
0.0
 30
0.0
  9
$EXTMIN
 10
188.6658343333333
 20
118.534924
 30
0.0
  9
$EXTMAX
 10
396.702196
 20
345.2288016666667
 30
0.0
  9
$LIMMIN
 10
-0.5
 20
-0.5
  9
$LIMMAX
 10
5.0
 20
5.0
  9
$ORTHOMODE
 70
     0
  9
$REGENMODE
 70
     1
  9
$FILLMODE
 70
     1
  9
$QTEXTMODE
 70
     0
  9
$MIRRTEXT
 70
     1
  9
$LTSCALE
 40
1.0
  9
$ATTMODE
 70
     1
  9
$TEXTSIZE
 40
0.2
  9
$TRACEWID
 40
0.05
  9
$TEXTSTYLE
  7
Standard
  9
$CLAYER
  8
0
  9
$CELTYPE
  6
ByLayer
  9
$CECOLOR
 62
   256
  9
$CELTSCALE
 40
1.0
  9
$DISPSILH
 70
     0
  9
$DIMSCALE
 40
1.0
  9
$DIMASZ
 40
0.18
  9
$DIMEXO
 40
0.0625
  9
$DIMDLI
 40
0.38
  9
$DIMRND
 40
0.0
  9
$DIMDLE
 40
0.0
  9
$DIMEXE
 40
0.18
  9
$DIMTP
 40
0.0
  9
$DIMTM
 40
0.0
  9
$DIMTXT
 40
0.18
  9
$DIMCEN
 40
0.09
  9
$DIMTSZ
 40
0.0
  9
$DIMTOL
 70
     0
  9
$DIMLIM
 70
     0
  9
$DIMTIH
 70
     1
  9
$DIMTOH
 70
     1
  9
$DIMSE1
 70
     0
  9
$DIMSE2
 70
     0
  9
$DIMTAD
 70
     0
  9
$DIMZIN
 70
     0
  9
$DIMBLK
  1

  9
$DIMASO
 70
     1
  9
$DIMSHO
 70
     1
  9
$DIMPOST
  1

  9
$DIMAPOST
  1

  9
$DIMALT
 70
     0
  9
$DIMALTD
 70
     2
  9
$DIMALTF
 40
25.4
  9
$DIMLFAC
 40
1.0
  9
$DIMTOFL
 70
     0
  9
$DIMTVP
 40
0.0
  9
$DIMTIX
 70
     0
  9
$DIMSOXD
 70
     0
  9
$DIMSAH
 70
     0
  9
$DIMBLK1
  1

  9
$DIMBLK2
  1

  9
$DIMSTYLE
  2
Standard
  9
$DIMCLRD
 70
     0
  9
$DIMCLRE
 70
     0
  9
$DIMCLRT
 70
     0
  9
$DIMTFAC
 40
1.0
  9
$DIMGAP
 40
0.09
  9
$DIMJUST
 70
     0
  9
$DIMSD1
 70
     0
  9
$DIMSD2
 70
     0
  9
$DIMTOLJ
 70
     1
  9
$DIMTZIN
 70
     0
  9
$DIMALTZ
 70
     0
  9
$DIMALTTZ
 70
     0
  9
$DIMUPT
 70
     0
  9
$DIMDEC
 70
     4
  9
$DIMTDEC
 70
     4
  9
$DIMALTU
 70
     2
  9
$DIMALTTD
 70
     2
  9
$DIMTXSTY
  7
Standard
  9
$DIMAUNIT
 70
     0
  9
$DIMADEC
 70
     0
  9
$DIMALTRND
 40
0.0
  9
$DIMAZIN
 70
     0
  9
$DIMDSEP
 70
    46
  9
$DIMATFIT
 70
     3
  9
$DIMFRAC
 70
     0
  9
$DIMLDRBLK
  1

  9
$DIMLUNIT
 70
     2
  9
$DIMLWD
 70
    -2
  9
$DIMLWE
 70
    -2
  9
$DIMTMOVE
 70
     0
  9
$LUNITS
 70
     2
  9
$LUPREC
 70
     4
  9
$SKETCHINC
 40
0.1
  9
$FILLETRAD
 40
0.5
  9
$AUNITS
 70
     0
  9
$AUPREC
 70
     0
  9
$MENU
  1
.
  9
$ELEVATION
 40
0.0
  9
$PELEVATION
 40
0.0
  9
$THICKNESS
 40
0.0
  9
$LIMCHECK
 70
     0
  9
$CHAMFERA
 40
0.0
  9
$CHAMFERB
 40
0.0
  9
$CHAMFERC
 40
0.0
  9
$CHAMFERD
 40
0.0
  9
$SKPOLY
 70
     0
  9
$TDCREATE
 40
2459005.361956019
  9
$TDUCREATE
 40
2459005.278623044
  9
$TDUPDATE
 40
2459005.362928241
  9
$TDUUPDATE
 40
2459005.279594908
  9
$TDINDWG
 40
0.0003935301
  9
$TDUSRTIMER
 40
0.0003935301
  9
$USRTIMER
 70
     1
  9
$ANGBASE
 50
0.0
  9
$ANGDIR
 70
     0
  9
$PDMODE
 70
     0
  9
$PDSIZE
 40
0.0
  9
$PLINEWID
 40
0.0
  9
$SPLFRAME
 70
     0
  9
$SPLINETYPE
 70
     6
  9
$SPLINESEGS
 70
     8
  9
$HANDSEED
  5
395
  9
$SURFTAB1
 70
     6
  9
$SURFTAB2
 70
     6
  9
$SURFTYPE
 70
     6
  9
$SURFU
 70
     6
  9
$SURFV
 70
     6
  9
$UCSBASE
  2

  9
$UCSNAME
  2

  9
$UCSORG
 10
274.404842
 20
288.907994
 30
0.0
  9
$UCSXDIR
 10
1.0
 20
0.0
 30
0.0
  9
$UCSYDIR
 10
0.0
 20
1.0
 30
0.0
  9
$UCSORTHOREF
  2

  9
$UCSORTHOVIEW
 70
     0
  9
$UCSORGTOP
 10
0.0
 20
0.0
 30
0.0
  9
$UCSORGBOTTOM
 10
0.0
 20
0.0
 30
0.0
  9
$UCSORGLEFT
 10
0.0
 20
0.0
 30
0.0
  9
$UCSORGRIGHT
 10
0.0
 20
0.0
 30
0.0
  9
$UCSORGFRONT
 10
0.0
 20
0.0
 30
0.0
  9
$UCSORGBACK
 10
0.0
 20
0.0
 30
0.0
  9
$PUCSBASE
  2

  9
$PUCSNAME
  2

  9
$PUCSORG
 10
0.0
 20
0.0
 30
0.0
  9
$PUCSXDIR
 10
1.0
 20
0.0
 30
0.0
  9
$PUCSYDIR
 10
0.0
 20
1.0
 30
0.0
  9
$PUCSORTHOREF
  2

  9
$PUCSORTHOVIEW
 70
     0
  9
$PUCSORGTOP
 10
0.0
 20
0.0
 30
0.0
  9
$PUCSORGBOTTOM
 10
0.0
 20
0.0
 30
0.0
  9
$PUCSORGLEFT
 10
0.0
 20
0.0
 30
0.0
  9
$PUCSORGRIGHT
 10
0.0
 20
0.0
 30
0.0
  9
$PUCSORGFRONT
 10
0.0
 20
0.0
 30
0.0
  9
$PUCSORGBACK
 10
0.0
 20
0.0
 30
0.0
  9
$USERI1
 70
     0
  9
$USERI2
 70
     0
  9
$USERI3
 70
     0
  9
$USERI4
 70
     0
  9
$USERI5
 70
     0
  9
$USERR1
 40
0.0
  9
$USERR2
 40
0.0
  9
$USERR3
 40
0.0
  9
$USERR4
 40
0.0
  9
$USERR5
 40
0.0
  9
$WORLDVIEW
 70
     1
  9
$SHADEDGE
 70
     3
  9
$SHADEDIF
 70
    70
  9
$TILEMODE
 70
     1
  9
$MAXACTVP
 70
    64
  9
$PINSBASE
 10
0.0
 20
0.0
 30
0.0
  9
$PLIMCHECK
 70
     0
  9
$PEXTMIN
 10
-0.5
 20
-0.5
 30
-0.5
  9
$PEXTMAX
 10
5.0
 20
5.0
 30
5.0
  9
$PLIMMIN
 10
-0.5
 20
-0.5
  9
$PLIMMAX
 10
5.0
 20
5.0
  9
$UNITMODE
 70
     0
  9
$VISRETAIN
 70
     1
  9
$PLINEGEN
 70
     0
  9
$PSLTSCALE
 70
     1
  9
$TREEDEPTH
 70
  3020
  9
$CMLSTYLE
  2
Standard
  9
$CMLJUST
 70
     0
  9
$CMLSCALE
 40
1.0
  9
$PROXYGRAPHICS
 70
     1
  9
$MEASUREMENT
 70
     1
  9
$CELWEIGHT
370
    13
  9
$ENDCAPS
280
     0
  9
$JOINSTYLE
280
     0
  9
$LWDISPLAY
290
     0
  9
$INSUNITS
 70
     4
  9
$HYPERLINKBASE
  1

  9
$STYLESHEET
  1

  9
$XEDIT
290
     1
  9
$CEPSNTYPE
380
     0
  9
$PSTYLEMODE
290
     1
  9
$FINGERPRINTGUID
  2
{50529D8C-5650-414C-BBF0-E3883EA07DC9}
  9
$VERSIONGUID
  2
{FB3012DD-309F-534D-B060-A11CB0E7BB2E}
  9
$EXTNAMES
290
     1
  9
$PSVPSCALE
 40
0.0
  9
$OLESTARTUP
290
     0
  9
$SORTENTS
280
   127
  9
$INDEXCTL
280
     0
  9
$HIDETEXT
280
     1
  9
$XCLIPFRAME
290
     0
  9
$HALOGAP
280
     0
  9
$OBSCOLOR
 70
   257
  9
$OBSLTYPE
280
     0
  9
$INTERSECTIONDISPLAY
280
     0
  9
$INTERSECTIONCOLOR
 70
   257
  9
$DIMASSOC
280
     2
  9
$PROJECTNAME
  1

  0
ENDSEC
  0
SECTION
  2
CLASSES
  0
CLASS
  1
ACDBDICTIONARYWDFLT
  2
AcDbDictionaryWithDefault
  3
ObjectDBX Classes
 90
        0
 91
        1
280
     0
281
     0
  0
CLASS
  1
VISUALSTYLE
  2
AcDbVisualStyle
  3
ObjectDBX Classes
 90
     4095
 91
       24
280
     0
281
     0
  0
CLASS
  1
MATERIAL
  2
AcDbMaterial
  3
ObjectDBX Classes
 90
     1153
 91
        3
280
     0
281
     0
  0
CLASS
  1
SCALE
  2
AcDbScale
  3
ObjectDBX Classes
 90
     1153
 91
       33
280
     0
281
     0
  0
CLASS
  1
TABLESTYLE
  2
AcDbTableStyle
  3
ObjectDBX Classes
 90
     4095
 91
        1
280
     0
281
     0
  0
CLASS
  1
MLEADERSTYLE
  2
AcDbMLeaderStyle
  3
ACDB_MLEADERSTYLE_CLASS
 90
     4095
 91
        1
280
     0
281
     0
  0
CLASS
  1
SUN
  2
AcDbSun
  3
SCENEOE
 90
     1153
 91
        0
280
     0
281
     0
  0
CLASS
  1
DIMASSOC
  2
AcDbDimAssoc
  3
"AcDbDimAssoc|Product Desc:     AcDim ARX App For Dimension|Company:          Autodesk, Inc.|WEB Address:      www.autodesk.com"
 90
        0
 91
        7
280
     0
281
     0
  0
CLASS
  1
DICTIONARYVAR
  2
AcDbDictionaryVar
  3
ObjectDBX Classes
 90
        0
 91
        8
280
     0
281
     0
  0
CLASS
  1
CELLSTYLEMAP
  2
AcDbCellStyleMap
  3
ObjectDBX Classes
 90
     1152
 91
        2
280
     0
281
     0
  0
CLASS
  1
ACDBSECTIONVIEWSTYLE
  2
AcDbSectionViewStyle
  3
ObjectDBX Classes
 90
     1025
 91
        1
280
     0
281
     0
  0
CLASS
  1
ACDBDETAILVIEWSTYLE
  2
AcDbDetailViewStyle
  3
ObjectDBX Classes
 90
     1025
 91
        1
280
     0
281
     0
  0
CLASS
  1
SORTENTSTABLE
  2
AcDbSortentsTable
  3
ObjectDBX Classes
 90
        0
 91
        1
280
     0
281
     0
  0
ENDSEC
  0
SECTION
  2
TABLES
  0
TABLE
  2
VPORT
  5
8
330
0
100
AcDbSymbolTable
 70
    16
  0
VPORT
  5
29
330
8
100
AcDbSymbolTableRecord
100
AcDbViewportTableRecord
  2
*Active
 70
     0
 10
0.0
 20
0.0
 11
1.0
 21
1.0
 12
326.1782167344404
 22
296.2865610702007
 13
0.0
 23
0.0
 14
0.5
 24
0.5
 15
0.5
 25
0.5
 16
0.0
 26
0.0
 36
1.0
 17
0.0
 27
0.0
 37
0.0
 40
207.4880493514628
 41
2.283154121863799
 42
50.0
 43
410.2772889999999
 44
-410.2772889999999
 50
0.0
 51
0.0
 71
     0
 72
   100
 73
     1
 74
     3
 75
     0
 76
     0
 77
     0
 78
     0
281
     0
 65
     1
110
274.404842
120
288.907994
130
0.0
111
1.0
121
0.0
131
0.0
112
0.0
122
1.0
132
0.0
 79
     0
146
0.0
1001
ACAD_NAV_VCDISPLAY
1070
     3
  0
VPORT
  5
299
330
8
100
AcDbSymbolTableRecord
100
AcDbViewportTableRecord
  2
L1
 70
     0
 10
0.0
 20
0.0
 11
1.0
 21
1.0
 12
292.179817
 22
231.833424
 13
0.0
 23
0.0
 14
0.5
 24
0.5
 15
0.5
 25
0.5
 16
0.0
 26
0.0
 36
1.0
 17
0.0
 27
0.0
 37
0.0
 40
207.433333
 41
0.085602
 42
50.0
 43
410.2772889999999
 44
-410.2772889999999
 50
0.0
 51
0.0
 71
     0
 72
   100
 73
     1
 74
     3
 75
     0
 76
     0
 77
     0
 78
     0
281
     0
 65
     1
110
0.0
120
0.0
130
0.0
111
1.0
121
0.0
131
0.0
112
0.0
122
1.0
132
0.0
 79
     0
146
0.0
  0
VPORT
  5
29A
330
8
100
AcDbSymbolTableRecord
100
AcDbViewportTableRecord
  2
L2
 70
     0
 10
0.0
 20
0.0
 11
0.5
 21
1.0
 12
0.0
 22
0.0
 13
0.0
 23
0.0
 14
0.5
 24
0.5
 15
0.5
 25
0.5
 16
0.0
 26
-1.0
 36
0.0
 17
0.0
 27
0.0
 37
0.0
 40
1319.735116
 41
0.013455
 42
50.0
 43
679.920199
 44
-679.920199
 50
0.0
 51
0.0
 71
     0
 72
   100
 73
     1
 74
     3
 75
     0
 76
     0
 77
     0
 78
     0
281
     0
 65
     1
110
0.0
120
0.0
130
0.0
111
1.0
121
0.0
131
0.0
112
0.0
122
1.0
132
0.0
 79
     0
146
0.0
  0
VPORT
  5
29B
330
8
100
AcDbSymbolTableRecord
100
AcDbViewportTableRecord
  2
L2
 70
     0
 10
0.5
 20
0.0
 11
1.0
 21
1.0
 12
0.0
 22
0.0
 13
0.0
 23
0.0
 14
0.5
 24
0.5
 15
0.5
 25
0.5
 16
1.0
 26
0.0
 36
0.0
 17
0.0
 27
0.0
 37
0.0
 40
1319.735116
 41
0.013455
 42
50.0
 43
667.9688169999999
 44
-667.9688169999999
 50
0.0
 51
0.0
 71
     0
 72
   100
 73
     1
 74
     3
 75
     0
 76
     0
 77
     0
 78
     0
281
     0
 65
     1
110
0.0
120
0.0
130
0.0
111
1.0
121
0.0
131
0.0
112
0.0
122
1.0
132
0.0
 79
     0
146
0.0
  0
VPORT
  5
29C
330
8
100
AcDbSymbolTableRecord
100
AcDbViewportTableRecord
  2
L3
 70
     0
 10
0.0
 20
0.5
 11
1.0
 21
1.0
 12
292.179817
 22
231.833424
 13
0.0
 23
0.0
 14
0.5
 24
0.5
 15
0.5
 25
0.5
 16
0.0
 26
0.0
 36
1.0
 17
0.0
 27
0.0
 37
0.0
 40
207.433333
 41
0.085602
 42
50.0
 43
410.2772889999999
 44
-410.2772889999999
 50
0.0
 51
0.0
 71
     0
 72
   100
 73
     1
 74
     3
 75
     0
 76
     0
 77
     0
 78
     0
281
     0
 65
     1
110
0.0
120
0.0
130
0.0
111
1.0
121
0.0
131
0.0
112
0.0
122
1.0
132
0.0
 79
     0
146
0.0
  0
VPORT
  5
29D
330
8
100
AcDbSymbolTableRecord
100
AcDbViewportTableRecord
  2
L3
 70
     0
 10
0.0
 20
0.0
 11
1.0
 21
0.5
 12
0.0
 22
0.0
 13
0.0
 23
0.0
 14
0.5
 24
0.5
 15
0.5
 25
0.5
 16
0.0
 26
-1.0
 36
0.0
 17
0.0
 27
0.0
 37
0.0
 40
1319.735116
 41
0.013455
 42
50.0
 43
679.920199
 44
-679.920199
 50
0.0
 51
0.0
 71
     0
 72
   100
 73
     1
 74
     3
 75
     0
 76
     0
 77
     0
 78
     0
281
     0
 65
     1
110
0.0
120
0.0
130
0.0
111
1.0
121
0.0
131
0.0
112
0.0
122
1.0
132
0.0
 79
     0
146
0.0
  0
VPORT
  5
29E
330
8
100
AcDbSymbolTableRecord
100
AcDbViewportTableRecord
  2
L4
 70
     0
 10
0.0
 20
0.5
 11
0.5
 21
1.0
 12
292.179817
 22
231.833424
 13
0.0
 23
0.0
 14
0.5
 24
0.5
 15
0.5
 25
0.5
 16
0.0
 26
0.0
 36
1.0
 17
0.0
 27
0.0
 37
0.0
 40
207.433333
 41
0.085602
 42
50.0
 43
410.2772889999999
 44
-410.2772889999999
 50
0.0
 51
0.0
 71
     0
 72
   100
 73
     1
 74
     3
 75
     0
 76
     0
 77
     0
 78
     0
281
     0
 65
     1
110
0.0
120
0.0
130
0.0
111
1.0
121
0.0
131
0.0
112
0.0
122
1.0
132
0.0
 79
     0
146
0.0
  0
VPORT
  5
29F
330
8
100
AcDbSymbolTableRecord
100
AcDbViewportTableRecord
  2
L4
 70
     0
 10
0.0
 20
0.0
 11
0.5
 21
0.5
 12
0.0
 22
0.0
 13
0.0
 23
0.0
 14
0.5
 24
0.5
 15
0.5
 25
0.5
 16
0.0
 26
-1.0
 36
0.0
 17
0.0
 27
0.0
 37
0.0
 40
1319.735116
 41
0.013455
 42
50.0
 43
679.920199
 44
-679.920199
 50
0.0
 51
0.0
 71
     0
 72
   100
 73
     1
 74
     3
 75
     0
 76
     0
 77
     0
 78
     0
281
     0
 65
     1
110
0.0
120
0.0
130
0.0
111
1.0
121
0.0
131
0.0
112
0.0
122
1.0
132
0.0
 79
     0
146
0.0
  0
VPORT
  5
2A0
330
8
100
AcDbSymbolTableRecord
100
AcDbViewportTableRecord
  2
L4
 70
     0
 10
0.5
 20
0.0
 11
1.0
 21
0.5
 12
0.0
 22
0.0
 13
0.0
 23
0.0
 14
0.5
 24
0.5
 15
0.5
 25
0.5
 16
1.0
 26
0.0
 36
0.0
 17
0.0
 27
0.0
 37
0.0
 40
1319.735116
 41
0.013455
 42
50.0
 43
667.9688169999999
 44
-667.9688169999999
 50
0.0
 51
0.0
 71
     0
 72
   100
 73
     1
 74
     3
 75
     0
 76
     0
 77
     0
 78
     0
281
     0
 65
     1
110
0.0
120
0.0
130
0.0
111
1.0
121
0.0
131
0.0
112
0.0
122
1.0
132
0.0
 79
     0
146
0.0
  0
VPORT
  5
2A1
330
8
100
AcDbSymbolTableRecord
100
AcDbViewportTableRecord
  2
L4
 70
     0
 10
0.5
 20
0.5
 11
1.0
 21
1.0
 12
0.0
 22
0.0
 13
0.0
 23
0.0
 14
0.5
 24
0.5
 15
0.5
 25
0.5
 16
0.5773502691896259
 26
-0.5773502691896259
 36
0.5773502691896259
 17
0.0
 27
0.0
 37
0.0
 40
1296.074958
 41
0.0137
 42
50.0
 43
675.1032679999999
 44
-675.1032679999999
 50
0.0
 51
0.0
 71
     0
 72
   100
 73
     1
 74
     3
 75
     0
 76
     0
 77
     0
 78
     0
281
     0
 65
     1
110
0.0
120
0.0
130
0.0
111
1.0
121
0.0
131
0.0
112
0.0
122
1.0
132
0.0
 79
     0
146
0.0
  0
VPORT
  5
2A2
330
8
100
AcDbSymbolTableRecord
100
AcDbViewportTableRecord
  2
L6
 70
     0
 10
0.0
 20
0.5
 11
0.333333
 21
1.0
 12
0.0
 22
0.0
 13
0.0
 23
0.0
 14
0.5
 24
0.5
 15
0.5
 25
0.5
 16
0.7188730927569434
 26
-0.5850486126764433
 36
0.3754192287502549
 17
0.0
 27
0.0
 37
0.0
 40
1367.812327
 41
0.012982
 42
50.0
 43
708.2012429999999
 44
-708.2012429999999
 50
0.0
 51
0.0
 71
     0
 72
   100
 73
     1
 74
     3
 75
     0
 76
     0
 77
     0
 78
     0
281
     0
 65
     1
110
0.0
120
0.0
130
0.0
111
1.0
121
0.0
131
0.0
112
0.0
122
1.0
132
0.0
 79
     0
146
0.0
  0
VPORT
  5
2A3
330
8
100
AcDbSymbolTableRecord
100
AcDbViewportTableRecord
  2
L6
 70
     0
 10
0.0
 20
0.0
 11
0.333333
 21
0.5
 12
0.0
 22
0.0
 13
0.0
 23
0.0
 14
0.5
 24
0.5
 15
0.5
 25
0.5
 16
-1.0
 26
0.0
 36
0.0
 17
0.0
 27
0.0
 37
0.0
 40
1319.735116
 41
0.013455
 42
50.0
 43
667.9688169999999
 44
-667.9688169999999
 50
0.0
 51
0.0
 71
     0
 72
   100
 73
     1
 74
     3
 75
     0
 76
     0
 77
     0
 78
     0
281
     0
 65
     1
110
0.0
120
0.0
130
0.0
111
1.0
121
0.0
131
0.0
112
0.0
122
1.0
132
0.0
 79
     0
146
0.0
  0
VPORT
  5
2A4
330
8
100
AcDbSymbolTableRecord
100
AcDbViewportTableRecord
  2
L6
 70
     0
 10
0.333333
 20
0.5
 11
0.666667
 21
1.0
 12
292.179817
 22
231.833424
 13
0.0
 23
0.0
 14
0.5
 24
0.5
 15
0.5
 25
0.5
 16
0.0
 26
0.0
 36
1.0
 17
0.0
 27
0.0
 37
0.0
 40
207.433333
 41
0.085602
 42
50.0
 43
410.2772889999999
 44
-410.2772889999999
 50
0.0
 51
0.0
 71
     0
 72
   100
 73
     1
 74
     3
 75
     0
 76
     0
 77
     0
 78
     0
281
     0
 65
     1
110
0.0
120
0.0
130
0.0
111
1.0
121
0.0
131
0.0
112
0.0
122
1.0
132
0.0
 79
     0
146
0.0
  0
VPORT
  5
2A5
330
8
100
AcDbSymbolTableRecord
100
AcDbViewportTableRecord
  2
L6
 70
     0
 10
0.333333
 20
0.0
 11
0.666667
 21
0.5
 12
0.0
 22
0.0
 13
0.0
 23
0.0
 14
0.5
 24
0.5
 15
0.5
 25
0.5
 16
0.0
 26
-1.0
 36
0.0
 17
0.0
 27
0.0
 37
0.0
 40
1319.735116
 41
0.013455
 42
50.0
 43
679.920199
 44
-679.920199
 50
0.0
 51
0.0
 71
     0
 72
   100
 73
     1
 74
     3
 75
     0
 76
     0
 77
     0
 78
     0
281
     0
 65
     1
110
0.0
120
0.0
130
0.0
111
1.0
121
0.0
131
0.0
112
0.0
122
1.0
132
0.0
 79
     0
146
0.0
  0
VPORT
  5
2A6
330
8
100
AcDbSymbolTableRecord
100
AcDbViewportTableRecord
  2
L6
 70
     0
 10
0.666667
 20
0.5
 11
1.0
 21
1.0
 12
0.0
 22
0.0
 13
0.0
 23
0.0
 14
0.5
 24
0.5
 15
0.5
 25
0.5
 16
0.5773502691896259
 26
-0.5773502691896259
 36
0.5773502691896259
 17
0.0
 27
0.0
 37
0.0
 40
1296.074958
 41
0.0137
 42
50.0
 43
675.1032679999999
 44
-675.1032679999999
 50
0.0
 51
0.0
 71
     0
 72
   100
 73
     1
 74
     3
 75
     0
 76
     0
 77
     0
 78
     0
281
     0
 65
     1
110
0.0
120
0.0
130
0.0
111
1.0
121
0.0
131
0.0
112
0.0
122
1.0
132
0.0
 79
     0
146
0.0
  0
VPORT
  5
2A7
330
8
100
AcDbSymbolTableRecord
100
AcDbViewportTableRecord
  2
L6
 70
     0
 10
0.666667
 20
0.0
 11
1.0
 21
0.5
 12
0.0
 22
0.0
 13
0.0
 23
0.0
 14
0.5
 24
0.5
 15
0.5
 25
0.5
 16
1.0
 26
0.0
 36
0.0
 17
0.0
 27
0.0
 37
0.0
 40
1319.735116
 41
0.013455
 42
50.0
 43
667.9688169999999
 44
-667.9688169999999
 50
0.0
 51
0.0
 71
     0
 72
   100
 73
     1
 74
     3
 75
     0
 76
     0
 77
     0
 78
     0
281
     0
 65
     1
110
0.0
120
0.0
130
0.0
111
1.0
121
0.0
131
0.0
112
0.0
122
1.0
132
0.0
 79
     0
146
0.0
  0
ENDTAB
  0
TABLE
  2
LTYPE
  5
5
330
0
100
AcDbSymbolTable
 70
     7
  0
LTYPE
  5
14
330
5
100
AcDbSymbolTableRecord
100
AcDbLinetypeTableRecord
  2
ByBlock
 70
     0
  3

 72
    65
 73
     0
 40
0.0
  0
LTYPE
  5
15
330
5
100
AcDbSymbolTableRecord
100
AcDbLinetypeTableRecord
  2
ByLayer
 70
     0
  3

 72
    65
 73
     0
 40
0.0
  0
LTYPE
  5
16
330
5
100
AcDbSymbolTableRecord
100
AcDbLinetypeTableRecord
  2
Continuous
 70
     0
  3
Solid line
 72
    65
 73
     0
 40
0.0
  0
LTYPE
  5
6E
330
5
100
AcDbSymbolTableRecord
100
AcDbLinetypeTableRecord
  2
CENTER
 70
     0
  3
____ _ ____ _ ____ _ ____
 72
    65
 73
     4
 40
47.4
 49
22.0
 74
     4
 75
     0
340
0
 46
0.0
 50
0.0
 44
0.0
 45
0.0
 49
-8.5
 74
     4
 75
     0
340
0
 46
0.0
 50
0.0
 44
0.0
 45
0.0
 49
8.5
 74
     4
 75
     0
340
0
 46
0.0
 50
0.0
 44
0.0
 45
0.0
 49
-8.5
 74
     4
 75
     0
340
0
 46
0.0
 50
0.0
 44
0.0
 45
0.0
  0
LTYPE
  5
6F
330
5
100
AcDbSymbolTableRecord
100
AcDbLinetypeTableRecord
  2
DASHDOT
 70
     0
  3
_._._._._._._._._._._._._._._._.
 72
    65
 73
     4
 40
70.0
 49
31.0
 74
     4
 75
     0
340
0
 46
0.0
 50
0.0
 44
0.0
 45
0.0
 49
-13.0
 74
     4
 75
     0
340
0
 46
0.0
 50
0.0
 44
0.0
 45
0.0
 49
13.0
 74
     4
 75
     0
340
0
 46
0.0
 50
0.0
 44
0.0
 45
0.0
 49
-13.0
 74
     4
 75
     0
340
0
 46
0.0
 50
0.0
 44
0.0
 45
0.0
  0
LTYPE
  5
70
330
5
100
AcDbSymbolTableRecord
100
AcDbLinetypeTableRecord
  2
DASHED
 70
     0
  3
__ __ __ __ __ __ __ __ __
 72
    65
 73
     2
 40
25.72
 49
12.86
 74
     4
 75
     0
340
0
 46
0.0
 50
0.0
 44
0.0
 45
0.0
 49
-12.86
 74
     4
 75
     0
340
0
 46
0.0
 50
0.0
 44
0.0
 45
0.0
  0
LTYPE
  5
71
330
5
100
AcDbSymbolTableRecord
100
AcDbLinetypeTableRecord
  2
DOT
 70
     0
  3
.........................
 72
    65
 73
     2
 40
10.0
 49
0.0
 74
     4
 75
     0
340
0
 46
0.0
 50
0.0
 44
0.0
 45
0.0
 49
-10.0
 74
     4
 75
     0
340
0
 46
0.0
 50
0.0
 44
0.0
 45
0.0
  0
LTYPE
  5
72
330
5
100
AcDbSymbolTableRecord
100
AcDbLinetypeTableRecord
  2
PHANTOM
 70
     0
  3
____ _ _ ____ _ _ _____ _ _ ____
 72
    65
 73
     6
 40
50.5
 49
18.0
 74
     4
 75
     0
340
0
 46
0.0
 50
0.0
 44
0.0
 45
0.0
 49
-6.5
 74
     4
 75
     0
340
0
 46
0.0
 50
0.0
 44
0.0
 45
0.0
 49
6.5
 74
     4
 75
     0
340
0
 46
0.0
 50
0.0
 44
0.0
 45
0.0
 49
-6.5
 74
     4
 75
     0
340
0
 46
0.0
 50
0.0
 44
0.0
 45
0.0
 49
6.5
 74
     4
 75
     0
340
0
 46
0.0
 50
0.0
 44
0.0
 45
0.0
 49
-6.5
 74
     4
 75
     0
340
0
 46
0.0
 50
0.0
 44
0.0
 45
0.0
  0
LTYPE
  5
337
330
5
100
AcDbSymbolTableRecord
100
AcDbLinetypeTableRecord
  2
CENTER2
 70
     0
  3
Center (.5x) ___ _ ___ _ ___ _ ___ _ ___ _ ___
 72
    65
 73
     4
 40
1.125
 49
0.75
 74
     0
 49
-0.125
 74
     0
 49
0.125
 74
     0
 49
-0.125
 74
     0
  0
ENDTAB
  0
TABLE
  2
LAYER
  5
2
330
0
100
AcDbSymbolTable
 70
    22
  0
LAYER
  5
10
102
{ACAD_XDICTIONARY
360
342
102
}
330
2
100
AcDbSymbolTableRecord
100
AcDbLayerTableRecord
  2
0
 70
     0
 62
     7
  6
Continuous
370
    -3
390
F
  0
LAYER
  5
1F3
330
2
100
AcDbSymbolTableRecord
100
AcDbLayerTableRecord
  2
Defpoints
 70
     0
 62
     7
  6
Continuous
290
     0
370
    -3
390
F
  0
LAYER
  5
334
102
{ACAD_XDICTIONARY
360
344
102
}
330
2
100
AcDbSymbolTableRecord
100
AcDbLayerTableRecord
  2
1
 70
     0
 62
     4
  6
Continuous
370
    -3
390
F
  0
LAYER
  5
335
102
{ACAD_XDICTIONARY
360
346
102
}
330
2
100
AcDbSymbolTableRecord
100
AcDbLayerTableRecord
  2
2
 70
     0
 62
     7
  6
Continuous
370
    -3
390
F
  0
LAYER
  5
336
102
{ACAD_XDICTIONARY
360
348
102
}
330
2
100
AcDbSymbolTableRecord
100
AcDbLayerTableRecord
  2
4
 70
     0
 62
     2
  6
CENTER2
370
    -3
390
F
  0
LAYER
  5
338
102
{ACAD_XDICTIONARY
360
34A
102
}
330
2
100
AcDbSymbolTableRecord
100
AcDbLayerTableRecord
  2
SK1
 70
     0
 62
     4
  6
Continuous
370
    -3
390
F
  0
LAYER
  5
339
102
{ACAD_XDICTIONARY
360
34C
102
}
330
2
100
AcDbSymbolTableRecord
100
AcDbLayerTableRecord
  2
SK2
 70
     0
 62
     7
  6
Continuous
370
    -3
390
F
  0
LAYER
  5
33B
102
{ACAD_XDICTIONARY
360
34E
102
}
330
2
100
AcDbSymbolTableRecord
100
AcDbLayerTableRecord
  2
SK4
 70
     0
 62
     2
  6
CENTER2
370
    -3
390
F
  0
LAYER
  5
33C
102
{ACAD_XDICTIONARY
360
350
102
}
330
2
100
AcDbSymbolTableRecord
100
AcDbLayerTableRecord
  2
SK6
 70
     0
 62
     5
  6
Continuous
370
    -3
390
F
  0
LAYER
  5
33D
102
{ACAD_XDICTIONARY
360
352
102
}
330
2
100
AcDbSymbolTableRecord
100
AcDbLayerTableRecord
  2
CUT
 70
     0
 62
     1
  6
Continuous
370
    -3
390
F
  0
LAYER
  5
33E
102
{ACAD_XDICTIONARY
360
354
102
}
330
2
100
AcDbSymbolTableRecord
100
AcDbLayerTableRecord
  2
NOCUT
 70
     0
 62
     7
  6
Continuous
370
    -3
390
F
  0
LAYER
  5
33F
102
{ACAD_XDICTIONARY
360
356
102
}
330
2
100
AcDbSymbolTableRecord
100
AcDbLayerTableRecord
  2
80
 70
     0
 62
     6
  6
Continuous
370
    -3
390
F
  0
LAYER
  5
340
102
{ACAD_XDICTIONARY
360
358
102
}
330
2
100
AcDbSymbolTableRecord
100
AcDbLayerTableRecord
  2
81
 70
     0
 62
     3
  6
Continuous
370
    -3
390
F
  0
ENDTAB
  0
TABLE
  2
STYLE
  5
3
330
0
100
AcDbSymbolTable
 70
     3
  0
STYLE
  5
11
330
3
100
AcDbSymbolTableRecord
100
AcDbTextStyleTableRecord
  2
Standard
 70
     0
 40
0.0
 41
1.0
 50
0.0
 71
     0
 42
0.2
  3
txt
  4

  0
STYLE
  5
1E7
330
3
100
AcDbSymbolTableRecord
100
AcDbTextStyleTableRecord
  2
cesky
 70
     0
 40
0.0
 41
1.0
 50
0.0
 71
     0
 42
0.2
  3
simplex.shx
  4

  0
STYLE
  5
1E8
330
3
100
AcDbSymbolTableRecord
100
AcDbTextStyleTableRecord
  2
DWGDirectTextStyle
 70
     0
 40
0.0
 41
1.0
 50
0.0
 71
     0
 42
0.2
  3
simplex
  4

  0
ENDTAB
  0
TABLE
  2
VIEW
  5
6
330
0
100
AcDbSymbolTable
 70
     0
  0
ENDTAB
  0
TABLE
  2
UCS
  5
7
330
0
100
AcDbSymbolTable
 70
     0
  0
ENDTAB
  0
TABLE
  2
APPID
  5
9
330
0
100
AcDbSymbolTable
 70
     7
  0
APPID
  5
12
330
9
100
AcDbSymbolTableRecord
100
AcDbRegAppTableRecord
  2
ACAD
 70
     0
  0
APPID
  5
1EF
330
9
100
AcDbSymbolTableRecord
100
AcDbRegAppTableRecord
  2
ACAD_DSTYLE_DIMBREAK
 70
     0
  0
APPID
  5
2A8
330
9
100
AcDbSymbolTableRecord
100
AcDbRegAppTableRecord
  2
ACAD_DSTYLE_DIM_LINETYPE
 70
     0
  0
APPID
  5
2A9
330
9
100
AcDbSymbolTableRecord
100
AcDbRegAppTableRecord
  2
ACAD_DSTYLE_DIM_EXT1_LINETYPE
 70
     0
  0
APPID
  5
2AA
330
9
100
AcDbSymbolTableRecord
100
AcDbRegAppTableRecord
  2
ACAD_DSTYLE_DIM_EXT2_LINETYPE
 70
     0
  0
APPID
  5
2EA
330
9
100
AcDbSymbolTableRecord
100
AcDbRegAppTableRecord
  2
ACAD_MLEADERVER
 70
     0
  0
APPID
  5
35D
330
9
100
AcDbSymbolTableRecord
100
AcDbRegAppTableRecord
  2
ACAD_NAV_VCDISPLAY
 70
     0
  0
ENDTAB
  0
TABLE
  2
DIMSTYLE
  5
A
330
0
100
AcDbSymbolTable
 70
     1
100
AcDbDimStyleTable
 71
     0
  0
DIMSTYLE
105
27
330
A
100
AcDbSymbolTableRecord
100
AcDbDimStyleTableRecord
  2
Standard
 70
     0
340
11
1001
ACAD_DSTYLE_DIMBREAK
1070
   391
1040
6.349999999999999
  0
ENDTAB
  0
TABLE
  2
BLOCK_RECORD
  5
1
330
0
100
AcDbSymbolTable
 70
    16
  0
BLOCK_RECORD
  5
1F
102
{ACAD_XDICTIONARY
360
2FA
102
}
330
1
100
AcDbSymbolTableRecord
100
AcDbBlockTableRecord
  2
*Model_Space
340
22
  0
BLOCK_RECORD
  5
1B
330
1
100
AcDbSymbolTableRecord
100
AcDbBlockTableRecord
  2
*Paper_Space
340
1E
  0
BLOCK_RECORD
  5
23
330
1
100
AcDbSymbolTableRecord
100
AcDbBlockTableRecord
  2
*Paper_Space0
340
26
  0
BLOCK_RECORD
  5
1EA
330
1
100
AcDbSymbolTableRecord
100
AcDbBlockTableRecord
  2
ASSORTED_DRAFT1
340
0
  0
BLOCK_RECORD
  5
1F4
330
1
100
AcDbSymbolTableRecord
100
AcDbBlockTableRecord
  2
*D2
340
0
  0
BLOCK_RECORD
  5
200
330
1
100
AcDbSymbolTableRecord
100
AcDbBlockTableRecord
  2
_U0
340
0
  0
BLOCK_RECORD
  5
20C
330
1
100
AcDbSymbolTableRecord
100
AcDbBlockTableRecord
  2
*D4
340
0
  0
BLOCK_RECORD
  5
218
330
1
100
AcDbSymbolTableRecord
100
AcDbBlockTableRecord
  2
_U1
340
0
  0
BLOCK_RECORD
  5
224
330
1
100
AcDbSymbolTableRecord
100
AcDbBlockTableRecord
  2
*D6
340
0
  0
BLOCK_RECORD
  5
230
330
1
100
AcDbSymbolTableRecord
100
AcDbBlockTableRecord
  2
_U2
340
0
  0
BLOCK_RECORD
  5
23C
330
1
100
AcDbSymbolTableRecord
100
AcDbBlockTableRecord
  2
*D8
340
0
  0
BLOCK_RECORD
  5
248
330
1
100
AcDbSymbolTableRecord
100
AcDbBlockTableRecord
  2
_U3
340
0
  0
BLOCK_RECORD
  5
254
330
1
100
AcDbSymbolTableRecord
100
AcDbBlockTableRecord
  2
*D10
340
0
  0
BLOCK_RECORD
  5
25F
330
1
100
AcDbSymbolTableRecord
100
AcDbBlockTableRecord
  2
_U4
340
0
  0
BLOCK_RECORD
  5
26A
330
1
100
AcDbSymbolTableRecord
100
AcDbBlockTableRecord
  2
*D12
340
0
  0
BLOCK_RECORD
  5
276
330
1
100
AcDbSymbolTableRecord
100
AcDbBlockTableRecord
  2
_U5
340
0
  0
BLOCK_RECORD
  5
283
330
1
100
AcDbSymbolTableRecord
100
AcDbBlockTableRecord
  2
*D14
340
0
  0
BLOCK_RECORD
  5
28F
330
1
100
AcDbSymbolTableRecord
100
AcDbBlockTableRecord
  2
_U6
340
0
  0
ENDTAB
  0
ENDSEC
  0
SECTION
  2
BLOCKS
  0
BLOCK
  5
20
330
1F
100
AcDbEntity
  8
0
100
AcDbBlockBegin
  2
*Model_Space
 70
     0
 10
0.0
 20
0.0
 30
0.0
  3
*Model_Space
  1

  0
ENDBLK
  5
21
330
1F
100
AcDbEntity
  8
0
100
AcDbBlockEnd
  0
BLOCK
  5
1C
330
1B
100
AcDbEntity
 67
     1
  8
0
100
AcDbBlockBegin
  2
*Paper_Space
 70
     0
 10
0.0
 20
0.0
 30
0.0
  3
*Paper_Space
  1

  0
ENDBLK
  5
1D
330
1B
100
AcDbEntity
 67
     1
  8
0
100
AcDbBlockEnd
  0
BLOCK
  5
24
330
23
100
AcDbEntity
 67
     1
  8
0
100
AcDbBlockBegin
  2
*Paper_Space0
 70
     0
 10
0.0
 20
0.0
 30
0.0
  3
*Paper_Space0
  1

  0
ENDBLK
  5
25
330
23
100
AcDbEntity
 67
     1
  8
0
100
AcDbBlockEnd
  0
BLOCK
  5
1ED
330
1EA
100
AcDbEntity
  8
0
100
AcDbBlockBegin
  2
ASSORTED_DRAFT1
 70
     0
 10
0.0
 20
0.0
 30
0.0
  3
ASSORTED_DRAFT1
  1

  0
SOLID
  5
1EB
330
1EA
100
AcDbEntity
  8
0
 62
   254
370
    13
100
AcDbTrace
 10
270.185042
 20
164.534924
 30
0.0
 11
265.185046
 21
163.42645
 31
0.0
 12
265.1850379999999
 22
165.643397
 32
0.0
 13
270.185042
 23
164.534924
 33
0.0
  0
ENDBLK
  5
1EE
330
1EA
100
AcDbEntity
  8
0
100
AcDbBlockEnd
  0
BLOCK
  5
1F5
330
1F4
100
AcDbEntity
  8
0
100
AcDbBlockBegin
  2
*D2
 70
     1
 10
0.0
 20
0.0
 30
0.0
  3
*D2
  1

  0
LINE
  5
1F7
330
1F4
100
AcDbEntity
  8
0
 62
   254
370
    -2
100
AcDbLine
 10
383.404842
 20
304.907994
 30
0.0
 11
383.404842
 21
341.687968
 31
0.0
  0
LINE
  5
1F8
330
1F4
100
AcDbEntity
  8
0
 62
   254
370
    -2
100
AcDbLine
 10
214.404842
 20
302.907994
 30
0.0
 11
214.404842
 21
341.687968
 31
0.0
  0
LINE
  5
1F9
330
1F4
100
AcDbEntity
  8
0
 62
   254
370
    -2
100
AcDbLine
 10
379.904842
 20
340.687968
 30
0.0
 11
217.904842
 21
340.687968
 31
0.0
  0
SOLID
  5
1FA
330
1F4
100
AcDbEntity
  8
0
 62
   254
100
AcDbTrace
 10
379.904842
 20
340.104634
 30
0.0
 11
379.904842
 21
341.271301
 31
0.0
 12
383.404842
 22
340.687968
 32
0.0
 13
383.404842
 23
340.687968
 33
0.0
  0
SOLID
  5
1FB
330
1F4
100
AcDbEntity
  8
0
 62
   254
100
AcDbTrace
 10
217.904842
 20
341.271301
 30
0.0
 11
217.904842
 21
340.104634
 31
0.0
 12
214.404842
 22
340.687968
 32
0.0
 13
214.404842
 23
340.687968
 33
0.0
  0
MTEXT
  5
1FC
330
1F4
100
AcDbEntity
  8
0
 62
   254
370
    13
100
AcDbMText
 10
298.9048419999999
 20
345.937968
 30
0.0
 40
3.5
 41
0.0
 71
     5
 72
     1
  1
\A1;169
  7
cesky
 73
     1
 44
1.0
  0
POINT
  5
1FD
330
1F4
100
AcDbEntity
  8
Defpoints
 62
     0
100
AcDbPoint
 10
383.404842
 20
304.907994
 30
0.0
  0
POINT
  5
1FE
330
1F4
100
AcDbEntity
  8
Defpoints
 62
     0
100
AcDbPoint
 10
214.404842
 20
302.907994
 30
0.0
  0
POINT
  5
1FF
330
1F4
100
AcDbEntity
  8
Defpoints
 62
     0
100
AcDbPoint
 10
214.404842
 20
340.687968
 30
0.0
  0
ENDBLK
  5
1F6
330
1F4
100
AcDbEntity
  8
0
100
AcDbBlockEnd
  0
BLOCK
  5
207
330
200
100
AcDbEntity
  8
0
100
AcDbBlockBegin
  2
_U0
 70
     0
 10
0.0
 20
0.0
 30
0.0
  3
_U0
  1

  0
ENDBLK
  5
208
330
200
100
AcDbEntity
  8
0
100
AcDbBlockEnd
  0
BLOCK
  5
20D
330
20C
100
AcDbEntity
  8
0
100
AcDbBlockBegin
  2
*D4
 70
     1
 10
0.0
 20
0.0
 30
0.0
  3
*D4
  1

  0
LINE
  5
20F
330
20C
100
AcDbEntity
  8
0
 62
   254
370
    -2
100
AcDbLine
 10
274.404842
 20
288.907994
 30
0.0
 11
274.404842
 21
328.5109970000001
 31
0.0
  0
LINE
  5
210
330
20C
100
AcDbEntity
  8
0
 62
   254
370
    -2
100
AcDbLine
 10
214.404842
 20
295.907994
 30
0.0
 11
214.404842
 21
328.5109970000001
 31
0.0
  0
LINE
  5
211
330
20C
100
AcDbEntity
  8
0
 62
   254
370
    -2
100
AcDbLine
 10
270.904842
 20
327.510997
 30
0.0
 11
217.904842
 21
327.510997
 31
0.0
  0
SOLID
  5
212
330
20C
100
AcDbEntity
  8
0
 62
   254
100
AcDbTrace
 10
270.904842
 20
326.927663
 30
0.0
 11
270.904842
 21
328.09433
 31
0.0
 12
274.404842
 22
327.510997
 32
0.0
 13
274.404842
 23
327.510997
 33
0.0
  0
SOLID
  5
213
330
20C
100
AcDbEntity
  8
0
 62
   254
100
AcDbTrace
 10
217.904842
 20
328.09433
 30
0.0
 11
217.904842
 21
326.927663
 31
0.0
 12
214.404842
 22
327.510997
 32
0.0
 13
214.404842
 23
327.510997
 33
0.0
  0
MTEXT
  5
214
330
20C
100
AcDbEntity
  8
0
 62
   254
370
    13
100
AcDbMText
 10
244.404842
 20
332.7609970000001
 30
0.0
 40
3.5
 41
0.0
 71
     5
 72
     1
  1
\A1;60
  7
cesky
 73
     1
 44
1.0
  0
POINT
  5
215
330
20C
100
AcDbEntity
  8
Defpoints
 62
     0
100
AcDbPoint
 10
274.404842
 20
288.907994
 30
0.0
  0
POINT
  5
216
330
20C
100
AcDbEntity
  8
Defpoints
 62
     0
100
AcDbPoint
 10
214.404842
 20
295.907994
 30
0.0
  0
POINT
  5
217
330
20C
100
AcDbEntity
  8
Defpoints
 62
     0
100
AcDbPoint
 10
214.404842
 20
327.510997
 30
0.0
  0
ENDBLK
  5
20E
330
20C
100
AcDbEntity
  8
0
100
AcDbBlockEnd
  0
BLOCK
  5
21F
330
218
100
AcDbEntity
  8
0
100
AcDbBlockBegin
  2
_U1
 70
     0
 10
0.0
 20
0.0
 30
0.0
  3
_U1
  1

  0
ENDBLK
  5
220
330
218
100
AcDbEntity
  8
0
100
AcDbBlockEnd
  0
BLOCK
  5
225
330
224
100
AcDbEntity
  8
0
100
AcDbBlockBegin
  2
*D6
 70
     1
 10
0.0
 20
0.0
 30
0.0
  3
*D6
  1

  0
LINE
  5
227
330
224
100
AcDbEntity
  8
0
 62
   254
370
    -2
100
AcDbLine
 10
383.404842
 20
302.907994
 30
0.0
 11
383.404842
 21
317.275348
 31
0.0
  0
LINE
  5
228
330
224
100
AcDbEntity
  8
0
 62
   254
370
    -2
100
AcDbLine
 10
290.903402
 20
303.091229
 30
0.0
 11
290.903402
 21
317.275348
 31
0.0
  0
LINE
  5
229
330
224
100
AcDbEntity
  8
0
 62
   254
370
    -2
100
AcDbLine
 10
379.904842
 20
316.275348
 30
0.0
 11
294.403402
 21
316.275348
 31
0.0
  0
SOLID
  5
22A
330
224
100
AcDbEntity
  8
0
 62
   254
100
AcDbTrace
 10
379.904842
 20
315.692015
 30
0.0
 11
379.904842
 21
316.858681
 31
0.0
 12
383.404842
 22
316.275348
 32
0.0
 13
383.404842
 23
316.275348
 33
0.0
  0
SOLID
  5
22B
330
224
100
AcDbEntity
  8
0
 62
   254
100
AcDbTrace
 10
294.403402
 20
316.858681
 30
0.0
 11
294.403402
 21
315.692015
 31
0.0
 12
290.903402
 22
316.275348
 32
0.0
 13
290.903402
 23
316.275348
 33
0.0
  0
MTEXT
  5
22C
330
224
100
AcDbEntity
  8
0
 62
   254
370
    13
100
AcDbMText
 10
337.1541220000001
 20
321.525348
 30
0.0
 40
3.5
 41
0.0
 71
     5
 72
     1
  1
\A1;92.5
  7
cesky
 73
     1
 44
1.0
  0
POINT
  5
22D
330
224
100
AcDbEntity
  8
Defpoints
 62
     0
100
AcDbPoint
 10
383.404842
 20
302.907994
 30
0.0
  0
POINT
  5
22E
330
224
100
AcDbEntity
  8
Defpoints
 62
     0
100
AcDbPoint
 10
290.903402
 20
303.091229
 30
0.0
  0
POINT
  5
22F
330
224
100
AcDbEntity
  8
Defpoints
 62
     0
100
AcDbPoint
 10
290.903402
 20
316.275348
 30
0.0
  0
ENDBLK
  5
226
330
224
100
AcDbEntity
  8
0
100
AcDbBlockEnd
  0
BLOCK
  5
237
330
230
100
AcDbEntity
  8
0
100
AcDbBlockBegin
  2
_U2
 70
     0
 10
0.0
 20
0.0
 30
0.0
  3
_U2
  1

  0
ENDBLK
  5
238
330
230
100
AcDbEntity
  8
0
100
AcDbBlockEnd
  0
BLOCK
  5
23D
330
23C
100
AcDbEntity
  8
0
100
AcDbBlockBegin
  2
*D8
 70
     1
 10
0.0
 20
0.0
 30
0.0
  3
*D8
  1

  0
LINE
  5
23F
330
23C
100
AcDbEntity
  8
0
 62
   254
370
    -2
100
AcDbLine
 10
383.404842
 20
302.907994
 30
0.0
 11
383.404842
 21
328.5109970000001
 31
0.0
  0
LINE
  5
240
330
23C
100
AcDbEntity
  8
0
 62
   254
370
    -2
100
AcDbLine
 10
274.404842
 20
288.907994
 30
0.0
 11
274.404842
 21
328.5109970000001
 31
0.0
  0
LINE
  5
241
330
23C
100
AcDbEntity
  8
0
 62
   254
370
    -2
100
AcDbLine
 10
379.904842
 20
327.510997
 30
0.0
 11
277.904842
 21
327.510997
 31
0.0
  0
SOLID
  5
242
330
23C
100
AcDbEntity
  8
0
 62
   254
100
AcDbTrace
 10
379.904842
 20
326.927663
 30
0.0
 11
379.904842
 21
328.09433
 31
0.0
 12
383.404842
 22
327.510997
 32
0.0
 13
383.404842
 23
327.510997
 33
0.0
  0
SOLID
  5
243
330
23C
100
AcDbEntity
  8
0
 62
   254
100
AcDbTrace
 10
277.904842
 20
328.09433
 30
0.0
 11
277.904842
 21
326.927663
 31
0.0
 12
274.404842
 22
327.510997
 32
0.0
 13
274.404842
 23
327.510997
 33
0.0
  0
MTEXT
  5
244
330
23C
100
AcDbEntity
  8
0
 62
   254
370
    13
100
AcDbMText
 10
328.904842
 20
332.7609970000001
 30
0.0
 40
3.5
 41
0.0
 71
     5
 72
     1
  1
\A1;109
  7
cesky
 73
     1
 44
1.0
  0
POINT
  5
245
330
23C
100
AcDbEntity
  8
Defpoints
 62
     0
100
AcDbPoint
 10
383.404842
 20
302.907994
 30
0.0
  0
POINT
  5
246
330
23C
100
AcDbEntity
  8
Defpoints
 62
     0
100
AcDbPoint
 10
274.404842
 20
288.907994
 30
0.0
  0
POINT
  5
247
330
23C
100
AcDbEntity
  8
Defpoints
 62
     0
100
AcDbPoint
 10
274.404842
 20
327.510997
 30
0.0
  0
ENDBLK
  5
23E
330
23C
100
AcDbEntity
  8
0
100
AcDbBlockEnd
  0
BLOCK
  5
24F
330
248
100
AcDbEntity
  8
0
100
AcDbBlockBegin
  2
_U3
 70
     0
 10
0.0
 20
0.0
 30
0.0
  3
_U3
  1

  0
ENDBLK
  5
250
330
248
100
AcDbEntity
  8
0
100
AcDbBlockEnd
  0
BLOCK
  5
255
330
254
100
AcDbEntity
  8
0
100
AcDbBlockBegin
  2
*D10
 70
     1
 10
0.0
 20
0.0
 30
0.0
  3
*D10
  1

  0
LINE
  5
257
330
254
100
AcDbEntity
  8
0
 62
   254
370
    -2
100
AcDbLine
 10
292.703832
 20
288.907994
 30
0.0
 11
396.702196
 21
288.907994
 31
0.0
  0
LINE
  5
258
330
254
100
AcDbEntity
  8
0
 62
   254
370
    -2
100
AcDbLine
 10
330.83929
 20
302.907994
 30
0.0
 11
396.702196
 21
302.907994
 31
0.0
  0
LINE
  5
259
330
254
100
AcDbEntity
  8
0
 62
   254
370
    -2
100
AcDbLine
 10
395.702196
 20
288.907994
 30
0.0
 11
395.702196
 21
302.907994
 31
0.0
  0
SOLID
  5
25A
330
254
100
AcDbEntity
  8
0
 62
   254
100
AcDbTrace
 10
396.28553
 20
299.407994
 30
0.0
 11
395.118863
 21
299.407994
 31
0.0
 12
395.702196
 22
302.907994
 32
0.0
 13
395.702196
 23
302.907994
 33
0.0
  0
MTEXT
  5
25B
330
254
100
AcDbEntity
  8
0
 62
   254
370
    13
100
AcDbMText
 10
390.452196
 20
279.07466
 30
0.0
 40
3.5
 41
0.0
 71
     5
 72
     1
  1
\A1;28
  7
cesky
 11
0.0
 21
1.0
 31
0.0
 73
     1
 44
1.0
  0
POINT
  5
25C
330
254
100
AcDbEntity
  8
Defpoints
 62
     0
100
AcDbPoint
 10
292.703832
 20
288.907994
 30
0.0
  0
POINT
  5
25D
330
254
100
AcDbEntity
  8
Defpoints
 62
     0
100
AcDbPoint
 10
330.83929
 20
302.907994
 30
0.0
  0
POINT
  5
25E
330
254
100
AcDbEntity
  8
Defpoints
 62
     0
100
AcDbPoint
 10
395.702196
 20
302.907994
 30
0.0
  0
ENDBLK
  5
256
330
254
100
AcDbEntity
  8
0
100
AcDbBlockEnd
  0
BLOCK
  5
265
330
25F
100
AcDbEntity
  8
0
100
AcDbBlockBegin
  2
_U4
 70
     0
 10
0.0
 20
0.0
 30
0.0
  3
_U4
  1

  0
ENDBLK
  5
266
330
25F
100
AcDbEntity
  8
0
100
AcDbBlockEnd
  0
BLOCK
  5
26B
330
26A
100
AcDbEntity
  8
0
100
AcDbBlockBegin
  2
*D12
 70
     1
 10
0.0
 20
0.0
 30
0.0
  3
*D12
  1

  0
LINE
  5
26D
330
26A
100
AcDbEntity
  8
0
 62
    95
370
    -2
100
AcDbLine
 10
216.404842
 20
304.907994
 30
0.0
 11
204.878544
 21
304.907994
 31
0.0
  0
LINE
  5
26E
330
26A
100
AcDbEntity
  8
0
 62
    95
370
    -2
100
AcDbLine
 10
216.404842
 20
272.907994
 30
0.0
 11
204.878544
 21
272.907994
 31
0.0
  0
LINE
  5
26F
330
26A
100
AcDbEntity
  8
0
 62
    95
370
    -2
100
AcDbLine
 10
205.878544
 20
301.407994
 30
0.0
 11
205.878544
 21
276.407994
 31
0.0
  0
SOLID
  5
270
330
26A
100
AcDbEntity
  8
0
 62
    95
100
AcDbTrace
 10
206.461878
 20
301.407994
 30
0.0
 11
205.295211
 21
301.407994
 31
0.0
 12
205.878544
 22
304.907994
 32
0.0
 13
205.878544
 23
304.907994
 33
0.0
  0
SOLID
  5
271
330
26A
100
AcDbEntity
  8
0
 62
    95
100
AcDbTrace
 10
205.295211
 20
276.407994
 30
0.0
 11
206.461878
 21
276.407994
 31
0.0
 12
205.878544
 22
272.907994
 32
0.0
 13
205.878544
 23
272.907994
 33
0.0
  0
MTEXT
  5
272
330
26A
100
AcDbEntity
  8
0
 62
    95
370
    13
100
AcDbMText
 10
200.628544
 20
288.907994
 30
0.0
 40
3.5
 41
0.0
 71
     5
 72
     1
  1
\A1;32
  7
cesky
 11
0.0
 21
1.0
 31
0.0
 73
     1
 44
1.0
  0
POINT
  5
273
330
26A
100
AcDbEntity
  8
Defpoints
 62
     0
100
AcDbPoint
 10
216.404842
 20
304.907994
 30
0.0
  0
POINT
  5
274
330
26A
100
AcDbEntity
  8
Defpoints
 62
     0
100
AcDbPoint
 10
216.404842
 20
272.907994
 30
0.0
  0
POINT
  5
275
330
26A
100
AcDbEntity
  8
Defpoints
 62
     0
100
AcDbPoint
 10
205.878544
 20
272.907994
 30
0.0
  0
ENDBLK
  5
26C
330
26A
100
AcDbEntity
  8
0
100
AcDbBlockEnd
  0
BLOCK
  5
27E
330
276
100
AcDbEntity
  8
0
100
AcDbBlockBegin
  2
_U5
 70
     0
 10
0.0
 20
0.0
 30
0.0
  3
_U5
  1

  0
ENDBLK
  5
27F
330
276
100
AcDbEntity
  8
0
100
AcDbBlockEnd
  0
BLOCK
  5
284
330
283
100
AcDbEntity
  8
0
100
AcDbBlockBegin
  2
*D14
 70
     1
 10
0.0
 20
0.0
 30
0.0
  3
*D14
  1

  0
LINE
  5
286
330
283
100
AcDbEntity
  8
0
 62
    95
370
    -2
100
AcDbLine
 10
277.154842
 20
309.907994
 30
0.0
 11
192.519918
 21
309.907994
 31
0.0
  0
LINE
  5
287
330
283
100
AcDbEntity
  8
0
 62
    95
370
    -2
100
AcDbLine
 10
277.154842
 20
267.907994
 30
0.0
 11
192.519918
 21
267.907994
 31
0.0
  0
LINE
  5
288
330
283
100
AcDbEntity
  8
0
 62
    95
370
    -2
100
AcDbLine
 10
193.519918
 20
306.407994
 30
0.0
 11
193.519918
 21
271.407994
 31
0.0
  0
SOLID
  5
289
330
283
100
AcDbEntity
  8
0
 62
    95
100
AcDbTrace
 10
194.103251
 20
306.407994
 30
0.0
 11
192.936584
 21
306.407994
 31
0.0
 12
193.519918
 22
309.907994
 32
0.0
 13
193.519918
 23
309.907994
 33
0.0
  0
SOLID
  5
28A
330
283
100
AcDbEntity
  8
0
 62
    95
100
AcDbTrace
 10
192.936584
 20
271.407994
 30
0.0
 11
194.103251
 21
271.407994
 31
0.0
 12
193.519918
 22
267.907994
 32
0.0
 13
193.519918
 23
267.907994
 33
0.0
  0
MTEXT
  5
28B
330
283
100
AcDbEntity
  8
0
 62
    95
370
    13
100
AcDbMText
 10
188.269918
 20
288.907994
 30
0.0
 40
3.5
 41
0.0
 71
     5
 72
     1
  1
\A1;42
  7
cesky
 11
0.0
 21
1.0
 31
0.0
 73
     1
 44
1.0
  0
POINT
  5
28C
330
283
100
AcDbEntity
  8
Defpoints
 62
     0
100
AcDbPoint
 10
277.154842
 20
309.907994
 30
0.0
  0
POINT
  5
28D
330
283
100
AcDbEntity
  8
Defpoints
 62
     0
100
AcDbPoint
 10
277.154842
 20
267.907994
 30
0.0
  0
POINT
  5
28E
330
283
100
AcDbEntity
  8
Defpoints
 62
     0
100
AcDbPoint
 10
193.519918
 20
267.907994
 30
0.0
  0
ENDBLK
  5
285
330
283
100
AcDbEntity
  8
0
100
AcDbBlockEnd
  0
BLOCK
  5
297
330
28F
100
AcDbEntity
  8
0
100
AcDbBlockBegin
  2
_U6
 70
     0
 10
0.0
 20
0.0
 30
0.0
  3
_U6
  1

  0
ENDBLK
  5
298
330
28F
100
AcDbEntity
  8
0
100
AcDbBlockEnd
  0
ENDSEC
  0
SECTION
  2
ENTITIES
  0
POINT
  5
73
102
{ACAD_REACTORS
330
341
102
}
330
1F
100
AcDbEntity
  8
80
100
AcDbPoint
 10
274.404842
 20
288.907994
 30
0.0
  0
POINT
  5
76
330
1F
100
AcDbEntity
  8
SK4
 60
     1
100
AcDbPoint
 10
216.404842
 20
288.907994
 30
0.0
  0
POINT
  5
78
330
1F
100
AcDbEntity
  8
SK4
 60
     1
100
AcDbPoint
 10
274.404842
 20
288.907994
 30
0.0
  0
POINT
  5
79
330
1F
100
AcDbEntity
  8
4
 60
     1
100
AcDbPoint
 10
292.703832
 20
288.907994
 30
0.0
  0
POINT
  5
7A
330
1F
100
AcDbEntity
  8
4
 60
     1
100
AcDbPoint
 10
382.49052
 20
288.907994
 30
0.0
  0
POINT
  5
7B
330
1F
100
AcDbEntity
  8
SK6
 60
     1
100
AcDbPoint
 10
274.404842
 20
288.907994
 30
0.0
  0
POINT
  5
7C
330
1F
100
AcDbEntity
  8
SK6
 60
     1
100
AcDbPoint
 10
290.903402
 20
303.091229
 30
0.0
  0
LINE
  5
7D
330
1F
100
AcDbEntity
  8
80
100
AcDbLine
 10
274.404842
 20
287.90842
 30
0.0
 11
274.404842
 21
289.907567
 31
0.0
  0
LINE
  5
7E
330
1F
100
AcDbEntity
  8
81
100
AcDbLine
 10
383.404842
 20
304.907994
 30
0.0
 11
383.404842
 21
300.907994
 31
0.0
  0
LINE
  5
7F
330
1F
100
AcDbEntity
  8
81
100
AcDbLine
 10
381.404842
 20
302.907994
 30
0.0
 11
385.404842
 21
302.907994
 31
0.0
  0
LINE
  5
80
330
1F
100
AcDbEntity
  8
SK1
100
AcDbLine
 10
216.404842
 20
272.907994
 30
0.0
 11
274.404842
 21
272.907994
 31
0.0
  0
LINE
  5
82
330
1F
100
AcDbEntity
  8
1
100
AcDbLine
 10
274.904842
 20
267.907994
 30
0.0
 11
279.404842
 21
267.907994
 31
0.0
  0
LINE
  5
83
330
1F
100
AcDbEntity
  8
1
100
AcDbLine
 10
377.024705
 20
297.114632
 30
0.0
 11
377.050373
 21
297.197913
 31
0.0
  0
LINE
  5
85
330
1F
100
AcDbEntity
  8
1
100
AcDbLine
 10
378.566322
 20
296.788214
 30
0.0
 11
378.592054
 21
296.871703
 31
0.0
  0
LINE
  5
86
330
1F
100
AcDbEntity
  8
1
100
AcDbLine
 10
377.3467490000001
 20
298.571074
 30
0.0
 11
377.372481
 21
298.654563
 31
0.0
  0
LINE
  5
87
330
1F
100
AcDbEntity
  8
1
100
AcDbLine
 10
378.9140339999999
 20
298.327937
 30
0.0
 11
378.888366
 21
298.244656
 31
0.0
  0
LINE
  5
8B
330
1F
100
AcDbEntity
  8
1
100
AcDbLine
 10
376.859692
 20
297.708232
 30
0.0
 11
376.834239
 21
297.625646
 31
0.0
  0
LINE
  5
8C
330
1F
100
AcDbEntity
  8
1
100
AcDbLine
 10
379.041526
 20
297.136756
 30
0.0
 11
379.066417
 21
297.217516
 31
0.0
  0
LINE
  5
8D
330
1F
100
AcDbEntity
  8
1
100
AcDbLine
 10
378.949397
 20
297.157368
 30
0.0
 11
378.974869
 21
297.2400120000001
 31
0.0
  0
LINE
  5
8E
330
1F
100
AcDbEntity
  8
1
100
AcDbLine
 10
378.006385
 20
296.541627
 30
0.0
 11
378.031738
 21
296.623885
 31
0.0
  0
LINE
  5
8F
330
1F
100
AcDbEntity
  8
1
100
AcDbLine
 10
377.350643
 20
298.5968450000001
 30
0.0
 11
377.3762430000001
 21
298.679905
 31
0.0
  0
LINE
  5
90
330
1F
100
AcDbEntity
  8
1
100
AcDbLine
 10
376.775174
 20
297.722408
 30
0.0
 11
376.750244
 21
297.641519
 31
0.0
  0
LINE
  5
92
330
1F
100
AcDbEntity
  8
1
100
AcDbLine
 10
382.701629
 20
302.055579
 30
0.0
 11
383.057492
 21
294.096893
 31
0.0
  0
LINE
  5
94
330
1F
100
AcDbEntity
  8
1
100
AcDbLine
 10
373.925172
 20
302.445437
 30
0.0
 11
381.895064
 21
302.792921
 31
0.0
  0
LINE
  5
95
330
1F
100
AcDbEntity
  8
1
100
AcDbLine
 10
373.54342
 20
293.682084
 30
0.0
 11
373.187556
 21
301.640769
 31
0.0
  0
LINE
  5
96
330
1F
100
AcDbEntity
  8
1
100
AcDbLine
 10
382.319876
 20
293.292226
 30
0.0
 11
374.349985
 21
292.944742
 31
0.0
  0
LINE
  5
97
330
1F
100
AcDbEntity
  8
1
100
AcDbLine
 10
374.780023
 20
294.216853
 30
0.0
 11
374.467825
 21
301.198991
 31
0.0
  0
LINE
  5
98
330
1F
100
AcDbEntity
  8
1
100
AcDbLine
 10
381.771993
 20
294.5217
 30
0.0
 11
374.780023
 21
294.216853
 31
0.0
  0
LINE
  5
99
330
1F
100
AcDbEntity
  8
1
100
AcDbLine
 10
381.459794
 20
301.503838
 30
0.0
 11
381.771993
 21
294.5217
 31
0.0
  0
LINE
  5
9A
330
1F
100
AcDbEntity
  8
1
100
AcDbLine
 10
374.467825
 20
301.198991
 30
0.0
 11
381.459794
 21
301.503838
 31
0.0
  0
LINE
  5
9B
330
1F
100
AcDbEntity
  8
1
100
AcDbLine
 10
292.703832
 20
275.407994
 30
0.0
 11
302.390073
 21
275.407994
 31
0.0
  0
LINE
  5
9C
330
1F
100
AcDbEntity
  8
1
100
AcDbLine
 10
373.378853
 20
302.407994
 30
0.0
 11
365.796836
 21
302.407994
 31
0.0
  0
LINE
  5
9D
330
1F
100
AcDbEntity
  8
1
100
AcDbLine
 10
302.026373
 20
302.407994
 30
0.0
 11
292.703832
 21
302.407994
 31
0.0
  0
LINE
  5
9E
330
1F
100
AcDbEntity
  8
1
100
AcDbLine
 10
375.354677
 20
298.574473
 30
0.0
 11
375.334232
 21
298.508138
 31
0.0
  0
LINE
  5
9F
330
1F
100
AcDbEntity
  8
1
100
AcDbLine
 10
380.590256
 20
296.888195
 30
0.0
 11
380.610701
 21
296.95453
 31
0.0
  0
LINE
  5
A0
330
1F
100
AcDbEntity
  8
1
100
AcDbLine
 10
274.404842
 20
309.407994
 30
0.0
 11
274.404842
 21
288.907994
 31
0.0
  0
LINE
  5
A1
330
1F
100
AcDbEntity
  8
1
100
AcDbLine
 10
274.404842
 20
288.907994
 30
0.0
 11
274.404842
 21
268.407994
 31
0.0
  0
LINE
  5
A2
330
1F
100
AcDbEntity
  8
1
100
AcDbLine
 10
380.869524
 20
284.145494
 30
0.0
 11
381.1325509999999
 21
284.145494
 31
0.0
  0
LINE
  5
A3
330
1F
100
AcDbEntity
  8
1
100
AcDbLine
 10
373.433811
 20
302.229008
 30
0.0
 11
373.426248
 21
302.403856
 31
0.0
  0
LINE
  5
A4
330
1F
100
AcDbEntity
  8
1
100
AcDbLine
 10
376.207006
 20
292.820248
 30
0.0
 11
382.458967
 21
293.09283
 31
0.0
  0
LINE
  5
A5
330
1F
100
AcDbEntity
  8
1
100
AcDbLine
 10
382.46028
 20
292.927466
 30
0.0
 11
382.458967
 21
293.09283
 31
0.0
  0
LINE
  5
A6
330
1F
100
AcDbEntity
  8
1
100
AcDbLine
 10
382.381531
 20
292.391348
 30
0.0
 11
374.525525
 21
292.04883
 31
0.0
  0
LINE
  5
A7
330
1F
100
AcDbEntity
  8
1
100
AcDbLine
 10
382.381531
 20
292.391348
 30
0.0
 11
380.750597
 21
289.673971
 31
0.0
  0
LINE
  5
A8
330
1F
100
AcDbEntity
  8
1
100
AcDbLine
 10
382.500952
 20
293.111404
 30
0.0
 11
376.212237
 21
292.837219
 31
0.0
  0
LINE
  5
A9
330
1F
100
AcDbEntity
  8
1
100
AcDbLine
 10
376.207006
 20
292.820248
 30
0.0
 11
376.212237
 21
292.837219
 31
0.0
  0
LINE
  5
AA
330
1F
100
AcDbEntity
  8
1
100
AcDbLine
 10
382.254138
 20
289.430151
 30
0.0
 11
382.361672
 21
289.428274
 31
0.0
  0
LINE
  5
AB
330
1F
100
AcDbEntity
  8
1
100
AcDbLine
 10
382.361672
 20
289.428274
 30
0.0
 11
382.60268
 21
289.754866
 31
0.0
  0
LINE
  5
AC
330
1F
100
AcDbEntity
  8
1
100
AcDbLine
 10
382.60268
 20
289.993477
 30
0.0
 11
382.60268
 21
289.754866
 31
0.0
  0
LINE
  5
AD
330
1F
100
AcDbEntity
  8
1
100
AcDbLine
 10
382.60268
 20
289.993477
 30
0.0
 11
382.644842
 21
289.992741
 31
0.0
  0
LINE
  5
AE
330
1F
100
AcDbEntity
  8
1
100
AcDbLine
 10
382.644842
 20
293.392384
 30
0.0
 11
382.644842
 21
289.992741
 31
0.0
  0
LINE
  5
AF
330
1F
100
AcDbEntity
  8
1
100
AcDbLine
 10
382.500952
 20
293.111404
 30
0.0
 11
382.499172
 21
293.335452
 31
0.0
  0
LINE
  5
B0
330
1F
100
AcDbEntity
  8
1
100
AcDbLine
 10
382.500952
 20
293.111404
 30
0.0
 11
382.458967
 21
293.09283
 31
0.0
  0
LINE
  5
B1
330
1F
100
AcDbEntity
  8
SK1
100
AcDbLine
 10
214.404842
 20
274.907994
 30
0.0
 11
216.404842
 21
272.907994
 31
0.0
  0
LINE
  5
B2
330
1F
100
AcDbEntity
  8
SK1
100
AcDbLine
 10
216.404842
 20
304.907994
 30
0.0
 11
214.404842
 21
302.907994
 31
0.0
  0
LINE
  5
B3
330
1F
100
AcDbEntity
  8
1
100
AcDbLine
 10
279.404842
 20
267.907994
 30
0.0
 11
282.8043370000001
 21
271.307488
 31
0.0
  0
LINE
  5
B4
330
1F
100
AcDbEntity
  8
1
100
AcDbLine
 10
282.8043370000001
 20
306.508499
 30
0.0
 11
279.404842
 21
309.907994
 31
0.0
  0
LINE
  5
B5
330
1F
100
AcDbEntity
  8
SK1
100
AcDbLine
 10
274.404842
 20
304.907994
 30
0.0
 11
216.404842
 21
304.907994
 31
0.0
  0
LINE
  5
B6
330
1F
100
AcDbEntity
  8
1
100
AcDbLine
 10
274.904842
 20
267.907994
 30
0.0
 11
274.404842
 21
268.407994
 31
0.0
  0
LINE
  5
B7
330
1F
100
AcDbEntity
  8
1
100
AcDbLine
 10
274.404842
 20
309.407994
 30
0.0
 11
274.904842
 21
309.907994
 31
0.0
  0
LINE
  5
B8
330
1F
100
AcDbEntity
  8
1
100
AcDbLine
 10
279.404842
 20
309.907994
 30
0.0
 11
274.904842
 21
309.907994
 31
0.0
  0
LINE
  5
B9
330
1F
100
AcDbEntity
  8
80
100
AcDbLine
 10
275.404416
 20
288.907994
 30
0.0
 11
273.405268
 21
288.907994
 31
0.0
  0
LINE
  5
BA
330
1F
100
AcDbEntity
  8
1
100
AcDbLine
 10
383.297436
 20
281.933516
 30
0.0
 11
382.671836
 21
280.892342
 31
0.0
  0
LINE
  5
BB
330
1F
100
AcDbEntity
  8
1
100
AcDbLine
 10
382.3014
 20
281.275939
 30
0.0
 11
382.671836
 21
280.892342
 31
0.0
  0
LINE
  5
BC
330
1F
100
AcDbEntity
  8
1
100
AcDbLine
 10
382.671836
 20
280.892342
 30
0.0
 11
381.968452
 21
280.50245
 31
0.0
  0
LINE
  5
BD
330
1F
100
AcDbEntity
  8
1
100
AcDbLine
 10
382.369933
 20
289.4394779999999
 30
0.0
 11
382.797416
 21
289.18262
 31
0.0
  0
LINE
  5
BE
330
1F
100
AcDbEntity
  8
1
100
AcDbLine
 10
382.413818
 20
288.812185
 30
0.0
 11
382.797416
 21
289.18262
 31
0.0
  0
LINE
  5
BF
330
1F
100
AcDbEntity
  8
1
100
AcDbLine
 10
382.797416
 20
289.18262
 30
0.0
 11
383.404842
 21
288.086795
 31
0.0
  0
LINE
  5
C0
330
1F
100
AcDbEntity
  8
1
100
AcDbLine
 10
382.887419
 20
287.957787
 30
0.0
 11
383.404842
 21
288.086795
 31
0.0
  0
LINE
  5
C1
330
1F
100
AcDbEntity
  8
1
100
AcDbLine
 10
382.784831
 20
282.080503
 30
0.0
 11
383.297436
 21
281.933516
 31
0.0
  0
LINE
  5
C2
330
1F
100
AcDbEntity
  8
1
100
AcDbLine
 10
383.404842
 20
288.086795
 30
0.0
 11
383.297436
 21
281.933516
 31
0.0
  0
LINE
  5
C3
330
1F
100
AcDbEntity
  8
1
100
AcDbLine
 10
381.94969
 20
281.939119
 30
0.0
 11
382.144899
 21
282.264001
 31
0.0
  0
LINE
  5
C4
330
1F
100
AcDbEntity
  8
1
100
AcDbLine
 10
382.784831
 20
282.080503
 30
0.0
 11
382.3014
 21
281.275939
 31
0.0
  0
LINE
  5
C5
330
1F
100
AcDbEntity
  8
1
100
AcDbLine
 10
382.144899
 20
282.264001
 30
0.0
 11
382.176535
 21
284.076403
 31
0.0
  0
LINE
  5
C6
330
1F
100
AcDbEntity
  8
1
100
AcDbLine
 10
382.183868
 20
284.496545
 30
0.0
 11
382.241473
 21
287.796734
 31
0.0
  0
LINE
  5
C7
330
1F
100
AcDbEntity
  8
1
100
AcDbLine
 10
382.784831
 20
282.080503
 30
0.0
 11
382.144899
 21
282.264001
 31
0.0
  0
LINE
  5
C8
330
1F
100
AcDbEntity
  8
1
100
AcDbLine
 10
382.887419
 20
287.957787
 30
0.0
 11
382.784831
 21
282.080503
 31
0.0
  0
LINE
  5
C9
330
1F
100
AcDbEntity
  8
1
100
AcDbLine
 10
382.183914
 20
288.950325
 30
0.0
 11
382.413818
 21
288.812185
 31
0.0
  0
LINE
  5
CA
330
1F
100
AcDbEntity
  8
1
100
AcDbLine
 10
382.413818
 20
288.812185
 30
0.0
 11
382.183867
 21
288.590123
 31
0.0
  0
LINE
  5
CB
330
1F
100
AcDbEntity
  8
1
100
AcDbLine
 10
382.241473
 20
287.796734
 30
0.0
 11
382.183864
 21
287.900664
 31
0.0
  0
LINE
  5
CC
330
1F
100
AcDbEntity
  8
1
100
AcDbLine
 10
382.887419
 20
287.957787
 30
0.0
 11
382.241473
 21
287.796734
 31
0.0
  0
LINE
  5
CD
330
1F
100
AcDbEntity
  8
1
100
AcDbLine
 10
382.413818
 20
288.812185
 30
0.0
 11
382.887419
 21
287.957787
 31
0.0
  0
LINE
  5
CE
330
1F
100
AcDbEntity
  8
1
100
AcDbLine
 10
382.3014
 20
281.275939
 30
0.0
 11
381.921101
 21
281.66975
 31
0.0
  0
LINE
  5
CF
330
1F
100
AcDbEntity
  8
1
100
AcDbLine
 10
382.3014
 20
281.275939
 30
0.0
 11
381.852921
 21
281.027343
 31
0.0
  0
LINE
  5
D0
330
1F
100
AcDbEntity
  8
1
100
AcDbLine
 10
370.868373
 20
292.41375
 30
0.0
 11
370.887011
 21
291.869011
 31
0.0
  0
LINE
  5
D1
330
1F
100
AcDbEntity
  8
1
100
AcDbLine
 10
370.924206
 20
290.78189
 30
0.0
 11
370.958916
 21
289.76738
 31
0.0
  0
LINE
  5
D2
330
1F
100
AcDbEntity
  8
1
100
AcDbLine
 10
380.915091
 20
292.3604
 30
0.0
 11
374.518276
 21
292.081501
 31
0.0
  0
LINE
  5
D3
330
1F
100
AcDbEntity
  8
1
100
AcDbLine
 10
286.904842
 20
302.165406
 30
0.0
 11
286.904842
 21
287.406652
 31
0.0
  0
LINE
  5
D4
330
1F
100
AcDbEntity
  8
1
100
AcDbLine
 10
382.381531
 20
292.391348
 30
0.0
 11
382.394274
 21
292.396985
 31
0.0
  0
LINE
  5
D5
330
1F
100
AcDbEntity
  8
1
100
AcDbLine
 10
381.717469
 20
275.407994
 30
0.0
 11
382.197357
 21
279.929388
 31
0.0
  0
LINE
  5
D6
330
1F
100
AcDbEntity
  8
1
100
AcDbLine
 10
382.197357
 20
279.929388
 30
0.0
 11
382.155266
 21
279.930062
 31
0.0
  0
LINE
  5
D7
330
1F
100
AcDbEntity
  8
1
100
AcDbLine
 10
382.180548
 20
280.168262
 30
0.0
 11
382.155266
 21
279.930062
 31
0.0
  0
LINE
  5
D8
330
1F
100
AcDbEntity
  8
1
100
AcDbLine
 10
382.180548
 20
280.168262
 30
0.0
 11
381.974998
 21
280.502341
 31
0.0
  0
LINE
  5
D9
330
1F
100
AcDbEntity
  8
1
100
AcDbLine
 10
381.974998
 20
280.502341
 30
0.0
 11
381.867647
 21
280.504059
 31
0.0
  0
LINE
  5
DA
330
1F
100
AcDbEntity
  8
1
100
AcDbLine
 10
381.850481
 20
281.004398
 30
0.0
 11
382.183868
 21
284.145494
 31
0.0
  0
LINE
  5
DB
330
1F
100
AcDbEntity
  8
1
100
AcDbLine
 10
381.48969
 20
284.145494
 30
0.0
 11
382.183868
 21
284.145494
 31
0.0
  0
LINE
  5
DC
330
1F
100
AcDbEntity
  8
1
100
AcDbLine
 10
382.183868
 20
284.145494
 30
0.0
 11
382.183868
 21
288.931302
 31
0.0
  0
LINE
  5
DD
330
1F
100
AcDbEntity
  8
1
100
AcDbLine
 10
373.207476
 20
301.83349
 30
0.0
 11
373.185702
 21
302.336869
 31
0.0
  0
LINE
  5
DE
330
1F
100
AcDbEntity
  8
SK1
100
AcDbLine
 10
216.404842
 20
304.907994
 30
0.0
 11
216.404842
 21
272.907994
 31
0.0
  0
LINE
  5
DF
330
1F
100
AcDbEntity
  8
SK1
100
AcDbLine
 10
214.404842
 20
302.907994
 30
0.0
 11
214.404842
 21
274.907994
 31
0.0
  0
LINE
  5
E0
330
1F
100
AcDbEntity
  8
1
100
AcDbLine
 10
373.256069
 20
295.521648
 30
0.0
 11
373.250838
 21
295.504676
 31
0.0
  0
LINE
  5
E1
330
1F
100
AcDbEntity
  8
1
100
AcDbLine
 10
373.256069
 20
295.521648
 30
0.0
 11
372.961258
 21
302.33727
 31
0.0
  0
LINE
  5
E2
330
1F
100
AcDbEntity
  8
1
100
AcDbLine
 10
372.956765
 20
302.303232
 30
0.0
 11
373.250838
 21
295.504676
 31
0.0
  0
LINE
  5
E3
330
1F
100
AcDbEntity
  8
1
100
AcDbLine
 10
381.717469
 20
275.407994
 30
0.0
 11
367.373243
 21
275.407994
 31
0.0
  0
LINE
  5
E4
330
1F
100
AcDbEntity
  8
1
100
AcDbLine
 10
274.904842
 20
267.907994
 30
0.0
 11
274.904842
 21
288.907994
 31
0.0
  0
LINE
  5
E5
330
1F
100
AcDbEntity
  8
1
100
AcDbLine
 10
274.904842
 20
288.907994
 30
0.0
 11
274.904842
 21
309.907994
 31
0.0
  0
LINE
  5
E6
330
1F
100
AcDbEntity
  8
1
100
AcDbLine
 10
279.404842
 20
267.907994
 30
0.0
 11
279.404842
 21
273.109223
 31
0.0
  0
LINE
  5
E7
330
1F
100
AcDbEntity
  8
1
100
AcDbLine
 10
279.404842
 20
309.907994
 30
0.0
 11
279.404842
 21
281.178201
 31
0.0
  0
LINE
  5
118
330
1F
100
AcDbEntity
  8
NOCUT
100
AcDbLine
 10
274.404842
 20
304.907994
 30
0.0
 11
216.404842
 21
304.907994
 31
0.0
  0
LINE
  5
119
330
1F
100
AcDbEntity
  8
NOCUT
100
AcDbLine
 10
279.404842
 20
309.907994
 30
0.0
 11
274.904842
 21
309.907994
 31
0.0
  0
LINE
  5
11A
330
1F
100
AcDbEntity
  8
NOCUT
100
AcDbLine
 10
214.404842
 20
302.907994
 30
0.0
 11
214.404842
 21
288.907994
 31
0.0
  0
LINE
  5
11B
330
1F
100
AcDbEntity
  8
NOCUT
100
AcDbLine
 10
279.404842
 20
309.907994
 30
0.0
 11
282.8043370000001
 21
306.508499
 31
0.0
  0
LINE
  5
11C
330
1F
100
AcDbEntity
  8
NOCUT
100
AcDbLine
 10
292.703832
 20
302.407994
 30
0.0
 11
382.257498
 21
302.407994
 31
0.0
  0
LINE
  5
11D
330
1F
100
AcDbEntity
  8
NOCUT
100
AcDbLine
 10
382.257498
 20
302.407994
 30
0.0
 11
382.644842
 21
293.60946
 31
0.0
  0
LINE
  5
11E
330
1F
100
AcDbEntity
  8
NOCUT
100
AcDbLine
 10
382.644842
 20
293.60946
 30
0.0
 11
382.644842
 21
288.907994
 31
0.0
  0
LINE
  5
11F
330
1F
100
AcDbEntity
  8
NOCUT
100
AcDbLine
 10
382.644842
 20
288.907994
 30
0.0
 11
214.404842
 21
288.907994
 31
0.0
  0
LINE
  5
120
330
1F
100
AcDbEntity
  8
NOCUT
100
AcDbLine
 10
274.404842
 20
304.907994
 30
0.0
 11
274.404842
 21
309.407994
 31
0.0
  0
LINE
  5
121
330
1F
100
AcDbEntity
  8
NOCUT
100
AcDbLine
 10
274.404842
 20
309.407994
 30
0.0
 11
274.904842
 21
309.907994
 31
0.0
  0
LINE
  5
122
330
1F
100
AcDbEntity
  8
NOCUT
100
AcDbLine
 10
214.404842
 20
302.907994
 30
0.0
 11
216.404842
 21
304.907994
 31
0.0
  0
ARC
  5
12B
330
1F
100
AcDbEntity
  8
1
100
AcDbCircle
 10
292.703832
 20
316.407994
 30
0.0
 40
14.0
100
AcDbArc
 50
225.0
 51
270.0
  0
ARC
  5
12C
330
1F
100
AcDbEntity
  8
1
100
AcDbCircle
 10
292.703832
 20
261.407994
 30
0.0
 40
14.0
100
AcDbArc
 50
90.0
 51
135.0
  0
ARC
  5
12D
330
1F
100
AcDbEntity
  8
1
100
AcDbCircle
 10
378.402831
 20
285.293558
 30
0.0
 40
1.5
100
AcDbArc
 50
75.0
 51
345.0
  0
CIRCLE
  5
12E
330
1F
100
AcDbEntity
  8
1
100
AcDbCircle
 10
378.422479
 20
285.273212
 30
0.0
 40
1.099999999999998
  0
ARC
  5
13D
330
1F
100
AcDbEntity
  8
NOCUT
100
AcDbCircle
 10
292.703832
 20
316.407994
 30
0.0
 40
14.0
100
AcDbArc
 50
225.0
 51
270.0
  0
ELLIPSE
  5
13E
330
1F
100
AcDbEntity
  8
1
100
AcDbEllipse
 10
377.461884
 20
297.140026
 30
0.0
 11
-0.5313079055677012
 21
0.1637527479664135
 31
0.0
210
0.0
220
0.0
230
1.0
 40
0.9982459999999999
 41
0.6684329478154377
 42
1.588556520985273
  0
ELLIPSE
  5
13F
330
1F
100
AcDbEntity
  8
1
100
AcDbEllipse
 10
377.03674
 20
296.975808
 30
0.0
 11
-0.0954739578056769
 21
0.0294257299507034
 31
0.0
210
0.0
220
0.0
230
1.0
 40
0.9982459999999999
 41
5.579084326985828
 42
6.951618254995184
  0
ELLIPSE
  5
140
330
1F
100
AcDbEntity
  8
1
100
AcDbEllipse
 10
376.929231
 20
297.144057
 30
0.0
 11
-0.095473957805677
 21
0.0294257299507034
 31
0.0
210
0.0
220
0.0
230
0.9999999999999998
 40
0.9982459999999999
 41
2.437491673395998
 42
3.286426825807036
  0
ELLIPSE
  5
141
330
1F
100
AcDbEntity
  8
1
100
AcDbEllipse
 10
376.478607
 20
297.214185
 30
0.0
 11
-0.5313079055677009
 21
0.1637527479664135
 31
0.0
210
0.0
220
0.0
230
1.0
 40
0.9982459999999999
 41
3.286426825806926
 42
4.206550398976748
  0
ELLIPSE
  5
142
330
1F
100
AcDbEntity
  8
1
100
AcDbEllipse
 10
376.807085
 20
297.529683
 30
0.0
 11
-0.095473957805677
 21
0.0294257299507034
 31
0.0
210
0.0
220
0.0
230
0.9999999999999998
 40
0.9982459999999999
 41
4.206550398976785
 42
5.055485551387722
  0
ELLIPSE
  5
143
330
1F
100
AcDbEntity
  8
1
100
AcDbEllipse
 10
376.798174
 20
297.728985
 30
0.0
 11
-0.095473957805677
 21
0.0294257299507035
 31
0.0
210
0.0
220
0.0
230
0.9999999999999998
 40
0.9982459999999999
 41
0.5413589697886648
 42
1.913892897798064
  0
ELLIPSE
  5
144
330
1F
100
AcDbEntity
  8
1
100
AcDbEllipse
 10
377.240785
 20
297.838057
 30
0.0
 11
-0.5313079055677012
 21
0.1637527479664135
 31
0.0
210
0.0
220
0.0
230
1.0
 40
0.9982459999999999
 41
5.904420703798433
 42
6.824544276968283
  0
ELLIPSE
  5
145
330
1F
100
AcDbEntity
  8
1
100
AcDbEllipse
 10
376.885426
 20
298.12374
 30
0.0
 11
-0.0954739578056769
 21
0.0294257299507034
 31
0.0
210
0.0
220
0.0
230
1.0
 40
0.9982459999999999
 41
4.53188677578942
 42
5.90442070379836
  0
ELLIPSE
  5
146
330
1F
100
AcDbEntity
  8
1
100
AcDbEllipse
 10
376.977499
 20
298.300691
 30
0.0
 11
-0.095473957805677
 21
0.0294257299507034
 31
0.0
210
0.0
220
0.0
230
0.9999999999999998
 40
0.9982459999999999
 41
1.390294122199448
 42
2.239229274610136
  0
ELLIPSE
  5
147
330
1F
100
AcDbEntity
  8
1
100
AcDbEllipse
 10
376.812622
 20
298.725381
 30
0.0
 11
-0.5313079055677009
 21
0.1637527479664135
 31
0.0
210
0.0
220
0.0
230
1.0
 40
0.9982459999999999
 41
2.239229274610318
 42
3.159352847780166
  0
ELLIPSE
  5
148
330
1F
100
AcDbEntity
  8
1
100
AcDbEllipse
 10
377.250769
 20
298.598802
 30
0.0
 11
-0.095473957805677
 21
0.0294257299507034
 31
0.0
210
0.0
220
0.0
230
0.9999999999999998
 40
0.9982459999999999
 41
3.159352847780221
 42
4.008288000191069
  0
ELLIPSE
  5
149
330
1F
100
AcDbEntity
  8
1
100
AcDbEllipse
 10
377.419156
 20
298.705989
 30
0.0
 11
-0.095473957805677
 21
0.0294257299507035
 31
0.0
210
0.0
220
0.0
230
0.9999999999999998
 40
0.9982459999999999
 41
5.777346725771606
 42
7.149880653780924
  0
ELLIPSE
  5
14A
330
1F
100
AcDbEntity
  8
1
100
AcDbEllipse
 10
377.735437
 20
298.377675
 30
0.0
 11
-0.5313079055677012
 21
0.1637527479664135
 31
0.0
210
0.0
220
0.0
230
1.0
 40
0.9982459999999999
 41
4.857223152601867
 42
5.777346725771657
  0
ELLIPSE
  5
14B
330
1F
100
AcDbEntity
  8
1
100
AcDbEllipse
 10
377.805221
 20
298.827576
 30
0.0
 11
-0.0954739578056769
 21
0.0294257299507034
 31
0.0
210
0.0
220
0.0
230
1.0
 40
0.9982459999999999
 41
3.484689224592725
 42
4.857223152601795
  0
ELLIPSE
  5
14C
330
1F
100
AcDbEntity
  8
1
100
AcDbEllipse
 10
378.004804
 20
298.836278
 30
0.0
 11
-0.095473957805677
 21
0.0294257299507034
 31
0.0
210
0.0
220
0.0
230
0.9999999999999998
 40
0.9982459999999999
 41
0.343096571002865
 42
1.192031723413866
  0
ELLIPSE
  5
14D
330
1F
100
AcDbEntity
  8
1
100
AcDbEllipse
 10
378.29055
 20
299.19084
 30
0.0
 11
-0.5313079055677009
 21
0.1637527479664135
 31
0.0
210
0.0
220
0.0
230
1.0
 40
0.9982459999999999
 41
1.192031723413742
 42
2.112155296583575
  0
ELLIPSE
  5
14E
330
1F
100
AcDbEntity
  8
1
100
AcDbEllipse
 10
378.400219
 20
298.748763
 30
0.0
 11
-0.095473957805677
 21
0.0294257299507034
 31
0.0
210
0.0
220
0.0
230
0.9999999999999998
 40
0.9982459999999999
 41
2.112155296583485
 42
2.961090448994323
  0
ELLIPSE
  5
14F
330
1F
100
AcDbEntity
  8
1
100
AcDbEllipse
 10
378.577518
 20
298.656648
 30
0.0
 11
-0.095473957805677
 21
0.0294257299507035
 31
0.0
210
0.0
220
0.0
230
0.9999999999999998
 40
0.9982459999999999
 41
4.730149174575148
 42
6.102683102584307
  0
ELLIPSE
  5
150
330
1F
100
AcDbEntity
  8
1
100
AcDbEllipse
 10
378.451187
 20
298.219261
 30
0.0
 11
-0.5313079055677012
 21
0.1637527479664135
 31
0.0
210
0.0
220
0.0
230
1.0
 40
0.9982459999999999
 41
3.810025601405234
 42
4.730149174575039
  0
ELLIPSE
  5
151
330
1F
100
AcDbEntity
  8
1
100
AcDbEllipse
 10
378.876331
 20
298.38348
 30
0.0
 11
-0.0954739578056769
 21
0.0294257299507034
 31
0.0
210
0.0
220
0.0
230
1.0
 40
0.9982459999999999
 41
2.43749167339622
 42
3.810025601405303
  0
ELLIPSE
  5
152
330
1F
100
AcDbEntity
  8
1
100
AcDbEllipse
 10
378.98384
 20
298.21523
 30
0.0
 11
-0.095473957805677
 21
0.0294257299507034
 31
0.0
210
0.0
220
0.0
230
0.9999999999999998
 40
0.9982459999999999
 41
5.579084326985974
 42
6.428019479396687
  0
ELLIPSE
  5
153
330
1F
100
AcDbEntity
  8
1
100
AcDbEllipse
 10
379.434464
 20
298.145102
 30
0.0
 11
-0.5313079055677009
 21
0.1637527479664135
 31
0.0
210
0.0
220
0.0
230
1.0
 40
0.9982459999999999
 41
0.144834172217137
 42
1.064957745386962
  0
ELLIPSE
  5
154
330
1F
100
AcDbEntity
  8
1
100
AcDbEllipse
 10
379.105985
 20
297.829604
 30
0.0
 11
-0.095473957805677
 21
0.0294257299507034
 31
0.0
210
0.0
220
0.0
230
0.9999999999999998
 40
0.9982459999999999
 41
1.064957745387028
 42
1.913892897797906
  0
ELLIPSE
  5
155
330
1F
100
AcDbEntity
  8
1
100
AcDbEllipse
 10
379.114897
 20
297.630303
 30
0.0
 11
-0.095473957805677
 21
0.0294257299507035
 31
0.0
210
0.0
220
0.0
230
0.9999999999999998
 40
0.9982459999999999
 41
3.682951623378444
 42
5.055485551387564
  0
ELLIPSE
  5
156
330
1F
100
AcDbEntity
  8
1
100
AcDbEllipse
 10
378.672286
 20
297.52123
 30
0.0
 11
-0.5313079055677012
 21
0.1637527479664135
 31
0.0
210
0.0
220
0.0
230
1.0
 40
0.9982459999999999
 41
2.762828050208641
 42
3.682951623378476
  0
ELLIPSE
  5
157
330
1F
100
AcDbEntity
  8
1
100
AcDbEllipse
 10
379.027645
 20
297.235547
 30
0.0
 11
-0.0954739578056769
 21
0.0294257299507034
 31
0.0
210
0.0
220
0.0
230
1.0
 40
0.9982459999999999
 41
1.390294122199475
 42
2.762828050208685
  0
ELLIPSE
  5
158
330
1F
100
AcDbEntity
  8
1
100
AcDbEllipse
 10
378.935572
 20
297.058596
 30
0.0
 11
-0.095473957805677
 21
0.0294257299507034
 31
0.0
210
0.0
220
0.0
230
0.9999999999999998
 40
0.9982459999999999
 41
4.531886775789228
 42
5.380821928200042
  0
ELLIPSE
  5
159
330
1F
100
AcDbEntity
  8
1
100
AcDbEllipse
 10
379.100449
 20
296.633906
 30
0.0
 11
-0.5313079055677009
 21
0.1637527479664135
 31
0.0
210
0.0
220
0.0
230
1.0
 40
0.9982459999999999
 41
5.380821928200119
 42
6.300945501369959
  0
ELLIPSE
  5
15A
330
1F
100
AcDbEntity
  8
1
100
AcDbEllipse
 10
378.662302
 20
296.760485
 30
0.0
 11
-0.095473957805677
 21
0.0294257299507034
 31
0.0
210
0.0
220
0.0
230
0.9999999999999998
 40
0.9982459999999999
 41
0.0177601941902197
 42
0.8666953466011381
  0
ELLIPSE
  5
15B
330
1F
100
AcDbEntity
  8
1
100
AcDbEllipse
 10
378.493915
 20
296.653299
 30
0.0
 11
-0.095473957805677
 21
0.0294257299507035
 31
0.0
210
0.0
220
0.0
230
0.9999999999999998
 40
0.9982459999999999
 41
2.635754072181818
 42
4.008288000190961
  0
ELLIPSE
  5
15C
330
1F
100
AcDbEntity
  8
1
100
AcDbEllipse
 10
378.177634
 20
296.981613
 30
0.0
 11
-0.5313079055677012
 21
0.1637527479664135
 31
0.0
210
0.0
220
0.0
230
1.0
 40
0.9982459999999999
 41
1.715630499012073
 42
2.635754072181888
  0
ELLIPSE
  5
15D
330
1F
100
AcDbEntity
  8
1
100
AcDbEllipse
 10
378.10785
 20
296.531711
 30
0.0
 11
-0.0954739578056769
 21
0.0294257299507034
 31
0.0
210
0.0
220
0.0
230
1.0
 40
0.9982459999999999
 41
0.3430965710029321
 42
1.715630499012143
  0
ELLIPSE
  5
15E
330
1F
100
AcDbEntity
  8
1
100
AcDbEllipse
 10
377.908267
 20
296.52301
 30
0.0
 11
-0.095473957805677
 21
0.0294257299507034
 31
0.0
210
0.0
220
0.0
230
0.9999999999999998
 40
0.9982459999999999
 41
3.484689224592658
 42
4.333624377003501
  0
ELLIPSE
  5
15F
330
1F
100
AcDbEntity
  8
1
100
AcDbEllipse
 10
377.62252
 20
296.168447
 30
0.0
 11
-0.5313079055677009
 21
0.1637527479664135
 31
0.0
210
0.0
220
0.0
230
1.0
 40
0.9982459999999999
 41
4.333624377003535
 42
5.253747950173369
  0
ELLIPSE
  5
160
330
1F
100
AcDbEntity
  8
1
100
AcDbEllipse
 10
377.956535
 20
297.679644
 30
0.0
 11
1.720153232247756
 21
-0.5301630481159546
 31
0.0
210
0.0
220
0.0
230
0.9999999999999998
 40
0.9982459999999999
 41
0.0
 42
6.283185307179585
  0
ELLIPSE
  5
161
330
1F
100
AcDbEntity
  8
1
100
AcDbEllipse
 10
377.962244
 20
297.698166
 30
0.0
 11
2.628011882600738
 21
-0.8099713235104857
 31
0.0
210
0.0
220
0.0
230
1.0
 40
0.9982459999999999
 41
0.0
 42
6.283185307179585
  0
ELLIPSE
  5
162
330
1F
100
AcDbEntity
  8
1
100
AcDbEllipse
 10
377.512852
 20
296.610525
 30
0.0
 11
-0.095473957805677
 21
0.0294257299507034
 31
0.0
210
0.0
220
0.0
230
0.9999999999999998
 40
0.9982459999999999
 41
5.253747950173523
 42
6.102683102584142
  0
ELLIPSE
  5
163
330
1F
100
AcDbEntity
  8
1
100
AcDbEllipse
 10
377.335553
 20
296.70264
 30
0.0
 11
-0.095473957805677
 21
0.0294257299507035
 31
0.0
210
0.0
220
0.0
230
0.9999999999999998
 40
0.9982459999999999
 41
1.58855652098521
 42
2.961090448994323
  0
ELLIPSE
  5
164
330
1F
100
AcDbEntity
  8
1
100
AcDbEllipse
 10
378.142575
 20
297.933889
 30
0.0
 11
2.957951010929479
 21
-0.9116608304033764
 31
0.0
210
0.0
220
0.0
230
1.0
 40
0.9982459999999999
 41
2.062922183040388
 42
6.283185307179585
  0
ELLIPSE
  5
165
330
1F
100
AcDbEntity
  8
1
100
AcDbEllipse
 10
378.142575
 20
297.933889
 30
0.0
 11
2.957951010929479
 21
-0.9116608304033764
 31
0.0
210
0.0
220
0.0
230
1.0
 40
0.9982459999999999
 41
0.0
 42
1.078621864345935
  0
ELLIPSE
  5
166
330
1F
100
AcDbEntity
  8
1
100
AcDbEllipse
 10
374.262519
 20
293.620387
 30
0.0
 11
0.9542290194142516
 21
1.042393247014232
 31
0.0
210
0.0
220
0.0
230
0.9999999999999998
 40
0.017942
 41
0.9781180679061112
 42
1.532929100663801
  0
ELLIPSE
  5
167
330
1F
100
AcDbEntity
  8
1
100
AcDbEllipse
 10
378.1227859999999
 20
297.86968
 30
0.0
 11
3.014795222820601
 21
-0.9291806071761506
 31
0.0
210
0.0
220
0.0
230
1.0
 40
0.9982459999999999
 41
0.0
 42
6.283185307179585
  0
ELLIPSE
  5
168
330
1F
100
AcDbEntity
  8
1
100
AcDbEllipse
 10
378.119909
 20
297.860346
 30
0.0
 11
-3.105832224891783
 21
0.9572388368760371
 31
0.0
210
0.0
220
0.0
230
0.9999999999999998
 40
0.9982459999999999
 41
0.0
 42
6.283185307179585
  0
ELLIPSE
  5
169
330
1F
100
AcDbEntity
  8
1
100
AcDbEllipse
 10
382.306845
 20
293.971116
 30
0.0
 11
1.042972539398693
 21
-0.9547593160293025
 31
0.0
210
0.0
220
0.0
230
0.9999999999999998
 40
0.037843
 41
1.588716764071976
 42
2.143527797066438
  0
ELLIPSE
  5
16A
330
1F
100
AcDbEntity
  8
1
100
AcDbEllipse
 10
373.903332
 20
301.653402
 30
0.0
 11
1.042972539644997
 21
-0.9547593162479955
 31
0.0
210
0.0
220
0.0
230
0.9999999999999998
 40
0.037843
 41
1.033905731101437
 42
1.58871676397049
  0
ELLIPSE
  5
16B
330
1F
100
AcDbEntity
  8
1
100
AcDbEllipse
 10
381.947658
 20
302.004131
 30
0.0
 11
0.9542290183402466
 21
1.042393245847275
 31
0.0
210
0.0
220
0.0
230
1.0
 40
0.017942
 41
1.532929100446801
 42
2.087740133803464
  0
ELLIPSE
  5
16C
330
1F
100
AcDbEntity
  8
1
100
AcDbEllipse
 10
296.707771
 20
274.865354
 30
0.0
 11
-19.24285045621102
 21
3.917937864571861
 31
0.0
210
0.0
220
0.0
230
0.9999999999999998
 40
0.492404
 41
4.750373035221113
 42
5.762133086795795
  0
ELLIPSE
  5
16D
330
1F
100
AcDbEntity
  8
1
100
AcDbEllipse
 10
377.982689
 20
297.764502
 30
0.0
 11
-2.628011882600735
 21
0.8099713235104916
 31
0.0
210
0.0
220
0.0
230
0.9999999999999998
 40
0.9982459999999999
 41
3.141666558290513
 42
6.283160900740861
  0
ELLIPSE
  5
16E
330
1F
100
AcDbEntity
  8
1
100
AcDbEllipse
 10
376.498654
 20
288.907994
 30
0.0
 11
23.14961790492167
 21
-13.31868308149265
 31
0.0
210
0.0
220
0.0
230
1.0
 40
0.095256
 41
4.086345928626478
 42
4.383055273943238
  0
ELLIPSE
  5
16F
330
1F
100
AcDbEntity
  8
1
100
AcDbEllipse
 10
373.988396
 20
288.907994
 30
0.0
 11
0.5691812702945619
 21
-13.49999527560244
 31
0.0
210
0.0
220
0.0
230
1.0
 40
0.01982
 41
3.000260313051081
 42
3.115999311185008
  0
ELLIPSE
  5
170
330
1F
100
AcDbEntity
  8
1
100
AcDbEllipse
 10
374.800084
 20
294.240615
 30
0.0
 11
1.911281369164172
 21
-0.5890700534621712
 31
0.0
210
0.0
220
0.0
230
1.0
 40
0.9982459999999999
 41
5.657731117003458
 42
5.791270273962477
  0
ELLIPSE
  5
171
330
1F
100
AcDbEntity
  8
1
100
AcDbEllipse
 10
373.856074
 20
288.907994
 30
0.0
 11
0.4869359630434552
 21
-13.49982491114677
 31
0.0
210
0.0
220
0.0
230
1.0
 40
0.141202
 41
3.111741861327427
 42
3.23919440678209
  0
ELLIPSE
  5
172
330
1F
100
AcDbEntity
  8
1
100
AcDbEllipse
 10
301.161262
 20
288.907994
 30
0.0
 11
287.6314899069085
 21
13.1653589652447
 31
0.0
210
0.0
220
0.0
230
1.0
 40
0.010385
 41
4.970155722011047
 42
4.992278068649033
  0
ELLIPSE
  5
173
330
1F
100
AcDbEntity
  8
1
100
AcDbEllipse
 10
374.805314
 20
294.257586
 30
0.0
 11
-1.911281369164171
 21
0.5890700534621757
 31
0.0
210
0.0
220
0.0
230
1.0
 40
0.9982459999999999
 41
2.649677620372683
 42
2.781190600162628
  0
ELLIPSE
  5
174
330
1F
100
AcDbEntity
  8
1
100
AcDbEllipse
 10
382.254138
 20
288.930075
 30
0.0
 11
0.0001758288819744
 21
-0.5000776676639998
 31
0.0
210
0.0
220
0.0
230
1.0
 40
0.140519
 41
3.139090475969326
 42
4.709886802768004
  0
ELLIPSE
  5
175
330
1F
100
AcDbEntity
  8
1
100
AcDbEllipse
 10
382.390305
 20
292.896509
 30
0.0
 11
0.0003744272827248
 21
0.5004816776363672
 31
0.0
210
0.0
220
0.0
230
1.0
 40
0.140039
 41
3.203590848633801
 42
4.774387175427966
  0
ELLIPSE
  5
176
330
1F
100
AcDbEntity
  8
1
100
AcDbEllipse
 10
373.963487
 20
304.649662
 30
0.0
 11
-12.04107262573427
 21
3.711141336811707
 31
0.0
210
0.0
220
0.0
230
0.9999999999999998
 40
0.9982459999999997
 41
1.351490730993179
 42
1.794197327698281
  0
ELLIPSE
  5
177
330
1F
100
AcDbEntity
  8
1
100
AcDbEllipse
 10
381.920632
 20
281.003275
 30
0.0
 11
0.0538770024347829
 21
0.4991611425064713
 31
0.0
210
0.0
220
0.0
230
1.0
 40
0.139171
 41
1.583568179242748
 42
3.154364506043243
  0
ELLIPSE
  5
178
330
1F
100
AcDbEntity
  8
1
100
AcDbEllipse
 10
383.15032
 20
288.907994
 30
0.0
 11
1.461223387174748
 21
13.4984732203528
 31
0.0
210
0.0
220
0.0
230
0.9999999999999998
 40
0.138944
 41
1.946374157578105
 42
3.156632395651078
  0
ELLIPSE
  5
179
330
1F
100
AcDbEntity
  8
1
100
AcDbEllipse
 10
382.644842
 20
288.907994
 30
0.0
 11
0.0
 21
13.50000000036964
 31
0.0
210
0.0
220
0.0
230
1.0
 40
0.140541
 41
1.51402673169765
 42
1.931334415506591
  0
ELLIPSE
  5
17A
330
1F
100
AcDbEntity
  8
1
100
AcDbEllipse
 10
374.872791
 20
294.47652
 30
0.0
 11
-1.911281369164171
 21
0.5890700534621757
 31
0.0
210
0.0
220
0.0
230
1.0
 40
0.9982459999999999
 41
0.0618257924284764
 42
1.91389262152557
  0
ELLIPSE
  5
17B
330
1F
100
AcDbEntity
  8
1
100
AcDbEllipse
 10
374.872791
 20
294.47652
 30
0.0
 11
-1.911281369164171
 21
0.5890700534621757
 31
0.0
210
0.0
220
0.0
230
1.0
 40
0.9982459999999999
 41
1.913893121624745
 42
2.629194719155931
  0
ELLIPSE
  5
17C
330
1F
100
AcDbEntity
  8
1
100
AcDbEllipse
 10
374.805314
 20
294.257586
 30
0.0
 11
-1.911281369164171
 21
0.5890700534621757
 31
0.0
210
0.0
220
0.0
230
1.0
 40
0.9982459999999999
 41
5.754285902275976
 42
5.897168805749951
  0
ELLIPSE
  5
17D
330
1F
100
AcDbEntity
  8
1
100
AcDbEllipse
 10
374.800084
 20
294.240615
 30
0.0
 11
1.911281369164172
 21
-0.5890700534621712
 31
0.0
210
0.0
220
0.0
230
1.0
 40
0.9982459999999999
 41
2.755576152160149
 42
4.430273445429931
  0
ELLIPSE
  5
17E
330
1F
100
AcDbEntity
  8
1
100
AcDbEllipse
 10
373.554642
 20
288.907836
 30
0.0
 11
0.5691882521397009
 21
-13.50015256667624
 31
0.0
210
0.0
220
0.0
230
1.0
 40
0.01982
 41
3.243161035841111
 42
3.265417208419979
  0
ELLIPSE
  5
17F
330
1F
100
AcDbEntity
  8
1
100
AcDbEllipse
 10
320.373651
 20
288.92279
 30
0.0
 11
773.7196867370467
 21
-0.7646379840119384
 31
0.0
210
0.0
220
0.0
230
0.9999999999999998
 40
0.017401
 41
1.502799645537999
 42
1.505441366334961
  0
ELLIPSE
  5
180
330
1F
100
AcDbEntity
  8
1
100
AcDbEllipse
 10
313.272823
 20
288.907994
 30
0.0
 11
76.55558029458437
 21
-11.77977595709699
 31
0.0
210
0.0
220
0.0
230
1.0
 40
0.086139
 41
4.453644275987127
 42
4.523544577308933
  0
ELLIPSE
  5
181
330
1F
100
AcDbEntity
  8
1
100
AcDbEllipse
 10
297.904842
 20
280.982557
 30
0.0
 11
-2.104386049382543
 21
-6.676193477960629
 31
0.0
210
0.0
220
0.0
230
1.0
 40
0.17101
 41
4.215297597330253
 42
5.729320942618162
  0
SPLINE
  5
187
330
1F
100
AcDbEntity
  8
1
100
AcDbSpline
210
0.0
220
0.0
230
1.0
 70
     8
 71
     3
 72
    10
 73
     6
 74
     0
 42
0.000000001
 43
0.0000000001
 40
0.0
 40
0.0
 40
0.0
 40
0.0
 40
0.7930309521485449
 40
0.7930309521485449
 40
1.0
 40
1.0
 40
1.0
 40
1.0
 10
376.9682289973808
 20
297.0197205576305
 30
0.0
 10
376.966081974079
 20
297.0253079782265
 30
0.0
 10
376.9644692607315
 20
297.0309990939797
 30
0.0
 10
376.9630729549792
 20
297.0382989279744
 30
0.0
 10
376.9628185261939
 20
297.0398204971696
 30
0.0
 10
376.9625989203345
 20
297.0413488697708
 30
0.0
  0
SPLINE
  5
188
330
1F
100
AcDbEntity
  8
1
100
AcDbSpline
210
0.0
220
0.0
230
1.0
 70
     8
 71
     3
 72
    21
 73
    17
 74
     0
 42
0.000000001
 43
0.0000000001
 40
0.0
 40
0.0
 40
0.0
 40
0.0
 40
0.2500000000000807
 40
0.2500000000000807
 40
0.3125000000000661
 40
0.3125000000000661
 40
0.3750000000000515
 40
0.3750000000000515
 40
0.5000000000000245
 40
0.6249999999999974
 40
0.6249999999999974
 40
0.6874999999999842
 40
0.6874999999999842
 40
0.7499999999999712
 40
0.7499999999999712
 40
1.0
 40
1.0
 40
1.0
 40
1.0
 10
378.5878210001769
 20
296.6612645164504
 30
0.0
 10
378.5568772178617
 20
296.631382468465
 30
0.0
 10
378.5229647321556
 20
296.6054706759863
 30
0.0
 10
378.4768659251417
 20
296.5780426874782
 30
0.0
 10
378.4674374512688
 20
296.5727990367222
 30
0.0
 10
378.4484150329126
 20
296.5629339696823
 30
0.0
 10
378.4387998348292
 20
296.5582983735115
 30
0.0
 10
378.4096479257222
 20
296.5452661623166
 30
0.0
 10
378.3699638412344
 20
296.5302164453163
 30
0.0
 10
378.3286609647179
 20
296.5197881808062
 30
0.0
 10
378.2970565211704
 20
296.513757965566
 30
0.0
 10
378.2864369803491
 20
296.5120534247306
 30
0.0
 10
378.2652670189282
 20
296.5092851924421
 30
0.0
 10
378.2546834006272
 20
296.5082147923637
 30
0.0
 10
378.201772207558
 20
296.5044031937931
 30
0.0
 10
378.1594647922615
 20
296.5062225480478
 30
0.0
 10
378.1171841308491
 20
296.5130421497556
 30
0.0
  0
SPLINE
  5
189
330
1F
100
AcDbEntity
  8
1
100
AcDbSpline
210
0.0
220
0.0
230
1.0
 70
     8
 71
     3
 72
     8
 73
     4
 74
     0
 42
0.000000001
 43
0.0000000001
 40
0.0
 40
0.0
 40
0.0
 40
0.0
 40
1.0
 40
1.0
 40
1.0
 40
1.0
 10
377.0536767046313
 20
297.2121841633083
 30
0.0
 10
377.0529147253812
 20
297.2073344601279
 30
0.0
 10
377.0518008087216
 20
297.202554451613
 30
0.0
 10
377.0503720198254
 20
297.1979152957116
 30
0.0
  0
SPLINE
  5
18A
330
1F
100
AcDbEntity
  8
1
100
AcDbSpline
210
0.0
220
0.0
230
1.0
 70
     8
 71
     3
 72
    21
 73
    17
 74
     0
 42
0.000000001
 43
0.0000000001
 40
0.0
 40
0.0
 40
0.0
 40
0.0
 40
0.2500000000000021
 40
0.2500000000000021
 40
0.3125000000000108
 40
0.3125000000000108
 40
0.3750000000000195
 40
0.3750000000000195
 40
0.5000000000000372
 40
0.6250000000000544
 40
0.6250000000000544
 40
0.6875000000000507
 40
0.6875000000000507
 40
0.7500000000000469
 40
0.7500000000000469
 40
1.0
 40
1.0
 40
1.0
 40
1.0
 10
376.9047740371761
 20
297.6822854511116
 30
0.0
 10
376.9342873049146
 20
297.6523817278907
 30
0.0
 10
376.9600403052221
 20
297.6193794692642
 30
0.0
 10
376.9874690282834
 20
297.5740779989322
 30
0.0
 10
376.9927134778916
 20
297.5648127196753
 30
0.0
 10
377.0027047694207
 20
297.5458570304696
 30
0.0
 10
377.0074604938786
 20
297.5361417162591
 30
0.0
 10
377.020758397741
 20
297.5067807750132
 30
0.0
 10
377.0360549392805
 20
297.4668142281523
 30
0.0
 10
377.0465923508834
 20
297.4252447620046
 30
0.0
 10
377.0526796198425
 20
297.3934569568029
 30
0.0
 10
377.0544099454454
 20
297.3827201422131
 30
0.0
 10
377.0572243557629
 20
297.3612419365282
 30
0.0
 10
377.058308510361
 20
297.3505217031317
 30
0.0
 10
377.0621675788317
 20
297.2970092892388
 30
0.0
 10
377.0603222665333
 20
297.2544805941932
 30
0.0
 10
377.0536767046313
 20
297.2121841633083
 30
0.0
  0
SPLINE
  5
18B
330
1F
100
AcDbEntity
  8
1
100
AcDbSpline
210
0.0
220
0.0
230
1.0
 70
     8
 71
     3
 72
    14
 73
    10
 74
     0
 42
0.000000001
 43
0.0000000001
 40
0.0
 40
0.0
 40
0.0
 40
0.0
 40
0.25
 40
0.25
 40
0.5
 40
0.5
 40
0.75
 40
0.75
 40
1.0
 40
1.0
 40
1.0
 40
1.0
 10
376.8278891411975
 20
297.7112899898868
 30
0.0
 10
376.8349538089138
 20
297.7117407742237
 30
0.0
 10
376.8420451102131
 20
297.7114481394665
 30
0.0
 10
376.8559521518686
 20
297.7094022873432
 30
0.0
 10
376.8627199861673
 20
297.7076678112304
 30
0.0
 10
376.875882721445
 20
297.7027586282638
 30
0.0
 10
376.8822976799207
 20
297.6995503624118
 30
0.0
 10
376.8941611133822
 20
297.6919004982901
 30
0.0
 10
376.8996871834942
 20
297.6874396029974
 30
0.0
 10
376.9047740371761
 20
297.6822854511116
 30
0.0
  0
SPLINE
  5
18C
330
1F
100
AcDbEntity
  8
1
100
AcDbSpline
210
0.0
220
0.0
230
1.0
 70
     8
 71
     3
 72
    22
 73
    18
 74
     0
 42
0.000000001
 43
0.0000000001
 40
0.0
 40
0.0
 40
0.0
 40
0.0
 40
0.125
 40
0.125
 40
0.25
 40
0.25
 40
0.375
 40
0.375
 40
0.5
 40
0.5
 40
0.625
 40
0.625
 40
0.75
 40
0.75
 40
0.875
 40
0.875
 40
1.0
 40
1.0
 40
1.0
 40
1.0
 10
376.8278891411975
 20
297.7112899898868
 30
0.0
 10
376.8222417606446
 20
297.7109296402145
 30
0.0
 10
376.8165927136913
 20
297.7110453999508
 30
0.0
 10
376.8054879559748
 20
297.7121962566549
 30
0.0
 10
376.8000047981668
 20
297.713228687116
 30
0.0
 10
376.7891819606534
 20
297.7162337679305
 30
0.0
 10
376.7838471266105
 20
297.7182163683047
 30
0.0
 10
376.7736958711857
 20
297.7230144436695
 30
0.0
 10
376.7688308533708
 20
297.7258406253945
 30
0.0
 10
376.7595423242334
 20
297.7323840837081
 30
0.0
 10
376.7551436405822
 20
297.7360968400839
 30
0.0
 10
376.7471238446989
 20
297.7441768639022
 30
0.0
 10
376.7434602640569
 20
297.7485714496634
 30
0.0
 10
376.7368674371967
 20
297.7581098711693
 30
0.0
 10
376.7339943820977
 20
297.7631854957362
 30
0.0
 10
376.7292117239198
 20
297.773731691346
 30
0.0
 10
376.727279660697
 20
297.7792332420793
 30
0.0
 10
376.7258369169641
 20
297.7849776957638
 30
0.0
  0
SPLINE
  5
18D
330
1F
100
AcDbEntity
  8
1
100
AcDbSpline
210
0.0
220
0.0
230
1.0
 70
     8
 71
     3
 72
    21
 73
    17
 74
     0
 42
0.000000001
 43
0.0000000001
 40
0.0
 40
0.0
 40
0.0
 40
0.0
 40
0.2500000000000714
 40
0.2500000000000714
 40
0.3125000000000816
 40
0.3125000000000816
 40
0.3750000000000919
 40
0.3750000000000919
 40
0.5000000000000736
 40
0.6250000000000551
 40
0.6250000000000551
 40
0.6875000000000461
 40
0.6875000000000461
 40
0.7500000000000368
 40
0.7500000000000368
 40
1.0
 40
1.0
 40
1.0
 40
1.0
 10
378.592053652866
 20
296.8717030361141
 30
0.0
 10
378.6039445850355
 20
296.9128351695243
 30
0.0
 10
378.6202580713444
 20
296.9521250960579
 30
0.0
 10
378.6463205166242
 20
296.998930405733
 30
0.0
 10
378.6518202295476
 20
297.0081745480726
 30
0.0
 10
378.6634133199026
 20
297.0264222215222
 30
0.0
 10
378.6695238485764
 20
297.0354458418208
 30
0.0
 10
378.6884865205433
 20
297.0617479520547
 30
0.0
 10
378.7155930817941
 20
297.0950229402333
 30
0.0
 10
378.7462625365467
 20
297.1247869717717
 30
0.0
 10
378.7706246384382
 20
297.1457712483265
 30
0.0
 10
378.7790036927362
 20
297.152565471622
 30
0.0
 10
378.7960643220205
 20
297.1655741017857
 30
0.0
 10
378.8047278973837
 20
297.1717783504632
 30
0.0
 10
378.8486938501573
 20
297.2013518146022
 30
0.0
 10
378.8859120994089
 20
297.2204367991944
 30
0.0
 10
378.9251858039339
 20
297.2351180149824
 30
0.0
  0
SPLINE
  5
18E
330
1F
100
AcDbEntity
  8
1
100
AcDbSpline
210
0.0
220
0.0
230
1.0
 70
     8
 71
     3
 72
    14
 73
    10
 74
     0
 42
0.000000001
 43
0.0000000001
 40
0.0
 40
0.0
 40
0.0
 40
0.0
 40
0.25
 40
0.25
 40
0.5
 40
0.5
 40
0.75
 40
0.75
 40
1.0
 40
1.0
 40
1.0
 40
1.0
 10
378.9251858039339
 20
297.2351180149824
 30
0.0
 10
378.9319594110189
 20
297.2376501109098
 30
0.0
 10
378.9389775356131
 20
297.2393986537643
 30
0.0
 10
378.9529706102649
 20
297.241318178473
 30
0.0
 10
378.9599622668792
 20
297.2415102600863
 30
0.0
 10
378.9739403527436
 20
297.2404072981527
 30
0.0
 10
378.9809162414928
 20
297.2390907171426
 30
0.0
 10
378.9942407582929
 20
297.2350953920241
 30
0.0
 10
379.0006729219461
 20
297.2324143258308
 30
0.0
 10
379.0068680511467
 20
297.2290276963422
 30
0.0
  0
SPLINE
  5
18F
330
1F
100
AcDbEntity
  8
1
100
AcDbSpline
210
0.0
220
0.0
230
1.0
 70
     8
 71
     3
 72
    20
 73
    16
 74
     0
 42
0.000000001
 43
0.0000000001
 40
0.0
 40
0.0
 40
0.0
 40
0.0
 40
0.1249999999999669
 40
0.1249999999999669
 40
0.2499999999999338
 40
0.2499999999999338
 40
0.3749999999999007
 40
0.3749999999999007
 40
0.4999999999998678
 40
0.4999999999998678
 40
0.6249999999998347
 40
0.6249999999998347
 40
0.7499999999998015
 40
0.7499999999998015
 40
1.0
 40
1.0
 40
1.0
 40
1.0
 10
379.130112125857
 20
297.2528517209511
 30
0.0
 10
379.1263838198278
 20
297.2482452050629
 30
0.0
 10
379.1223101886863
 20
297.2440603732776
 30
0.0
 10
379.1135103796362
 20
297.2364889084172
 30
0.0
 10
379.1087324221404
 20
297.2330751639914
 30
0.0
 10
379.0987830741158
 20
297.2272319769416
 30
0.0
 10
379.0936313041767
 20
297.2247990337111
 30
0.0
 10
379.0829928667033
 20
297.2208623321041
 30
0.0
 10
379.0774545901447
 20
297.2193509928967
 30
0.0
 10
379.0662920227998
 20
297.2173346288659
 30
0.0
 10
379.0607090270067
 20
297.2168262450728
 30
0.0
 10
379.0495416770015
 20
297.2167572051144
 30
0.0
 10
379.0439295453071
 20
297.2172016174385
 30
0.0
 10
379.0272759469257
 20
297.2199710890235
 30
0.0
 10
379.0167738833602
 20
297.2236125738488
 30
0.0
 10
379.0068680511467
 20
297.2290276963422
 30
0.0
  0
SPLINE
  5
190
330
1F
100
AcDbEntity
  8
1
100
AcDbSpline
210
0.0
220
0.0
230
1.0
 70
     8
 71
     3
 72
    15
 73
    11
 74
     0
 42
0.000000001
 43
0.0000000001
 40
0.0
 40
0.0
 40
0.0
 40
0.0
 40
0.4251019130862704
 40
0.4251019130862704
 40
0.5313773913578341
 40
0.5313773913578341
 40
0.637652869629398
 40
0.637652869629398
 40
0.8502038261725111
 40
1.0
 40
1.0
 40
1.0
 40
1.0
 10
376.7258369169641
 20
297.7849776957638
 30
0.0
 10
376.7154589401806
 20
297.8262988296604
 30
0.0
 10
376.709982212034
 20
297.8683024567968
 30
0.0
 10
376.7092626054293
 20
297.921650986576
 30
0.0
 10
376.7094312959612
 20
297.9323860374523
 30
0.0
 10
376.7103878466623
 20
297.9537007491891
 30
0.0
 10
376.7111740565535
 20
297.9643058514213
 30
0.0
 10
376.7144397083907
 20
297.9959671680274
 30
0.0
 10
376.7202078193915
 20
298.0316011503734
 30
0.0
 10
376.7294584291337
 20
298.0666436256059
 30
0.0
 10
376.7338918688259
 20
298.0810269235491
 30
0.0
  0
SPLINE
  5
191
330
1F
100
AcDbEntity
  8
1
100
AcDbSpline
210
0.0
220
0.0
230
1.0
 70
     8
 71
     3
 72
    14
 73
    10
 74
     0
 42
0.000000001
 43
0.0000000001
 40
0.0
 40
0.0
 40
0.0
 40
0.0
 40
0.0895974066168405
 40
0.0895974066168405
 40
0.2413311721807362
 40
0.2413311721807362
 40
0.3930649377446319
 40
0.3930649377446319
 40
1.0
 40
1.0
 40
1.0
 40
1.0
 10
379.2280126451146
 20
297.4367047756812
 30
0.0
 10
379.2261590298145
 20
297.4306911397885
 30
0.0
 10
379.2241992813517
 20
297.4246981994232
 30
0.0
 10
379.218632063592
 20
297.4086124620314
 30
0.0
 10
379.2148283541727
 20
297.3985796791946
 30
0.0
 10
379.2067066726797
 20
297.3788962902528
 30
0.0
 10
379.202378009825
 20
297.3692136918775
 30
0.0
 10
379.1794198808876
 20
297.3215821155277
 30
0.0
 10
379.1568974185994
 20
297.2859463423741
 30
0.0
 10
379.130112125857
 20
297.2528517209511
 30
0.0
  0
SPLINE
  5
192
330
1F
100
AcDbEntity
  8
1
100
AcDbSpline
210
0.0
220
0.0
230
1.0
 70
     8
 71
     3
 72
    14
 73
    10
 74
     0
 42
0.000000001
 43
0.0000000001
 40
0.0
 40
0.0
 40
0.0
 40
0.0
 40
0.25
 40
0.25
 40
0.5
 40
0.5
 40
0.75
 40
0.75
 40
1.0
 40
1.0
 40
1.0
 40
1.0
 10
377.3602217577092
 20
298.7343514080832
 30
0.0
 10
377.3640480483748
 20
298.7285778505903
 30
0.0
 10
377.3672427095679
 20
298.7224105176803
 30
0.0
 10
377.3722326232745
 20
298.7095790822343
 30
0.0
 10
377.3740205927054
 20
298.7029654478825
 30
0.0
 10
377.3761675165115
 20
298.6893347657132
 30
0.0
 10
377.3765071960109
 20
298.6822834868466
 30
0.0
 10
377.3756487047763
 20
298.6683841000903
 30
0.0
 10
377.3744715650376
 20
298.6614605701795
 30
0.0
 10
377.3724810900262
 20
298.6545626355378
 30
0.0
  0
SPLINE
  5
193
330
1F
100
AcDbEntity
  8
1
100
AcDbSpline
210
0.0
220
0.0
230
1.0
 70
     8
 71
     3
 72
    12
 73
     8
 74
     0
 42
0.000000001
 43
0.0000000001
 40
0.0
 40
0.0
 40
0.0
 40
0.0
 40
0.3933323418458251
 40
0.3933323418458251
 40
0.7866646836916501
 40
0.7866646836916501
 40
1.0
 40
1.0
 40
1.0
 40
1.0
 10
377.3602217577086
 20
298.7343514080843
 30
0.0
 10
377.3571631914368
 20
298.7389665326945
 30
0.0
 10
377.3545166919428
 20
298.7438205877347
 30
0.0
 10
377.3501140787906
 20
298.7538245791474
 30
0.0
 10
377.3483424144171
 20
298.7589963660675
 30
0.0
 10
377.3462921552708
 20
298.7672418593433
 30
0.0
 10
377.3457045896706
 20
298.7701926622365
 30
0.0
 10
377.3452557873454
 20
298.7731650207131
 30
0.0
  0
SPLINE
  5
194
330
1F
100
AcDbEntity
  8
1
100
AcDbSpline
210
0.0
220
0.0
230
1.0
 70
     8
 71
     3
 72
    14
 73
    10
 74
     0
 42
0.000000001
 43
0.0000000001
 40
0.0
 40
0.0
 40
0.0
 40
0.0
 40
0.1005057132213142
 40
0.1005057132213142
 40
0.4003371421475429
 40
0.4003371421475429
 40
0.7001685710737715
 40
0.7001685710737715
 40
1.0
 40
1.0
 40
1.0
 40
1.0
 10
378.9140351949959
 20
298.3279366014596
 30
0.0
 10
378.9147327075991
 20
298.3302014446606
 30
0.0
 10
378.9155096058128
 20
298.3324283168681
 30
0.0
 10
378.9189019421713
 20
298.3411124606432
 30
0.0
 10
378.9220978861877
 20
298.347225863202
 30
0.0
 10
378.9297619723708
 20
298.3586999058427
 30
0.0
 10
378.9342435149135
 20
298.3640406418262
 30
0.0
 10
378.9440732209968
 20
298.3734970465471
 30
0.0
 10
378.9494635222304
 20
298.3776834337627
 30
0.0
 10
378.9553450284131
 20
298.3813109066337
 30
0.0
  0
SPLINE
  5
195
330
1F
100
AcDbEntity
  8
1
100
AcDbSpline
210
0.0
220
0.0
230
1.0
 70
     8
 71
     3
 72
     8
 73
     4
 74
     0
 42
0.000000001
 43
0.0000000001
 40
0.0
 40
0.0
 40
0.0
 40
0.0
 40
1.0
 40
1.0
 40
1.0
 40
1.0
 10
378.9741719140584
 20
298.3964853261272
 30
0.0
 10
378.9685755980371
 20
298.3906552364146
 30
0.0
 10
378.9622976748227
 20
298.3855990150619
 30
0.0
 10
378.9553450284131
 20
298.3813109066337
 30
0.0
  0
SPLINE
  5
19A
330
1F
100
AcDbEntity
  8
1
100
AcDbSpline
210
0.0
220
0.0
230
1.0
 70
     8
 71
     3
 72
     8
 73
     4
 74
     0
 42
0.000000001
 43
0.0000000001
 40
0.0
 40
0.0
 40
0.0
 40
0.0
 40
1.0
 40
1.0
 40
1.0
 40
1.0
 10
367.8013561020832
 20
294.2586423767208
 30
0.0
 10
367.8012569100483
 20
294.2586090335852
 30
0.0
 10
367.8011577175348
 20
294.2585756915383
 30
0.0
 10
367.8010585245432
 20
294.2585423505799
 30
0.0
  0
SPLINE
  5
19D
330
1F
100
AcDbEntity
  8
1
100
AcDbSpline
210
0.0
220
0.0
230
1.0
 70
     8
 71
     3
 72
    36
 73
    32
 74
     0
 42
0.000000001
 43
0.0000000001
 40
0.0
 40
0.0
 40
0.0
 40
0.0
 40
0.1249999999999296
 40
0.1249999999999296
 40
0.1874999999998882
 40
0.1874999999998882
 40
0.2187499999998674
 40
0.2187499999998674
 40
0.2499999999998467
 40
0.2499999999998467
 40
0.3749999999998079
 40
0.3749999999998079
 40
0.4062499999998059
 40
0.4062499999998059
 40
0.4374999999998038
 40
0.4374999999998038
 40
0.4999999999998029
 40
0.4999999999998029
 40
0.6249999999998264
 40
0.6249999999998264
 40
0.6562499999998323
 40
0.6562499999998323
 40
0.687499999999838
 40
0.7499999999998498
 40
0.8124999999998616
 40
0.8124999999998616
 40
0.8437499999998674
 40
0.8437499999998674
 40
0.8749999999998733
 40
0.8749999999998733
 40
1.0
 40
1.0
 40
1.0
 40
1.0
 10
382.7016286938658
 20
302.0555786786156
 30
0.0
 10
382.6993557885323
 20
302.1064109185622
 30
0.0
 10
382.6919443395961
 20
302.1561354201284
 30
0.0
 10
382.673598125418
 20
302.2291637764533
 30
0.0
 10
382.6662678439694
 20
302.2532446655919
 30
0.0
 10
382.6534240203576
 20
302.2889675312949
 30
0.0
 10
382.6488205737827
 20
302.3008400303518
 30
0.0
 10
382.6390578162543
 20
302.3242781755015
 30
0.0
 10
382.6339051229833
 20
302.3358334073556
 30
0.0
 10
382.6068157707106
 20
302.3928088939795
 30
0.0
 10
382.5809407855178
 20
302.4358508822533
 30
0.0
 10
382.5434212389172
 20
302.4865278094099
 30
0.0
 10
382.5356561043772
 20
302.4965054468138
 30
0.0
 10
382.519595457216
 20
302.5161404382423
 30
0.0
 10
382.5112845765998
 20
302.525812686614
 30
0.0
 10
382.4858102311132
 20
302.554049159383
 30
0.0
 10
382.4680356428668
 20
302.5719283031323
 30
0.0
 10
382.4124023196952
 20
302.6228084364674
 30
0.0
 10
382.3722570552984
 20
302.6530796215797
 30
0.0
 10
382.3181232254791
 20
302.6862001560764
 30
0.0
 10
382.3070830806269
 20
302.69259169701
 30
0.0
 10
382.2848407720926
 20
302.7047574912299
 30
0.0
 10
382.2511500077539
 20
302.7221335474669
 30
0.0
 10
382.193390048959
 20
302.7468046454676
 30
0.0
 10
382.1454769154991
 20
302.7619952938901
 30
0.0
 10
382.1088870526381
 20
302.7716419177214
 30
0.0
 10
382.0965810583929
 20
302.7745658533642
 30
0.0
 10
382.0717450725308
 20
302.7798165139889
 30
0.0
 10
382.0591988289115
 20
302.7821443577515
 30
0.0
 10
381.996489154724
 20
302.7921614298511
 30
0.0
 10
381.9459619656713
 20
302.7951397286241
 30
0.0
 10
381.895063756893
 20
302.792920589579
 30
0.0
  0
SPLINE
  5
19E
330
1F
100
AcDbEntity
  8
1
100
AcDbSpline
210
0.0
220
0.0
230
1.0
 70
     8
 71
     3
 72
    36
 73
    32
 74
     0
 42
0.000000001
 43
0.0000000001
 40
0.0
 40
0.0
 40
0.0
 40
0.0
 40
0.1250000000001287
 40
0.1250000000001287
 40
0.1875000000001925
 40
0.1875000000001925
 40
0.2187500000002244
 40
0.2187500000002244
 40
0.2500000000002563
 40
0.2500000000002563
 40
0.3750000000003201
 40
0.3750000000003201
 40
0.4062500000003304
 40
0.4062500000003304
 40
0.4375000000003407
 40
0.4375000000003407
 40
0.5000000000003361
 40
0.5000000000003361
 40
0.6250000000003002
 40
0.6250000000003002
 40
0.6562500000002859
 40
0.6562500000002859
 40
0.6875000000002714
 40
0.7500000000002239
 40
0.8125000000001762
 40
0.8125000000001762
 40
0.8437500000001481
 40
0.8437500000001481
 40
0.8750000000001199
 40
0.8750000000001199
 40
1.0
 40
1.0
 40
1.0
 40
1.0
 10
373.9251718287903
 20
302.4454368806708
 30
0.0
 10
373.8742680125895
 20
302.4432174971447
 30
0.0
 10
373.8244786209603
 20
302.4358659221676
 30
0.0
 10
373.7513623358533
 20
302.417618455305
 30
0.0
 10
373.727253717899
 20
302.4103225914316
 30
0.0
 10
373.6914916640827
 20
302.3975326791348
 30
0.0
 10
373.6796064716713
 20
302.3929476351809
 30
0.0
 10
373.656143934702
 20
302.3832221852426
 30
0.0
 10
373.6445770129683
 20
302.3780883770594
 30
0.0
 10
373.5875455498621
 20
302.3510945805319
 30
0.0
 10
373.5444666203776
 20
302.3252996233823
 30
0.0
 10
373.4937531701462
 20
302.2878845241693
 30
0.0
 10
373.4837687153399
 20
302.2801405017989
 30
0.0
 10
373.4641210783172
 20
302.2641225311192
 30
0.0
 10
373.4544429953086
 20
302.2558332518031
 30
0.0
 10
373.4261906870586
 20
302.230423724252
 30
0.0
 10
373.4083031412457
 20
302.2126925613377
 30
0.0
 10
373.3574040881625
 20
302.1571901366308
 30
0.0
 10
373.327128609126
 20
302.1171329616278
 30
0.0
 10
373.2940134649473
 20
302.0631103087542
 30
0.0
 10
373.2876235506682
 20
302.0520924787163
 30
0.0
 10
373.2754620663182
 20
302.0298944246573
 30
0.0
 10
373.2580940655984
 20
301.9962696540923
 30
0.0
 10
373.2334442118
 20
301.938617778201
 30
0.0
 10
373.2182788459882
 20
301.8907890899892
 30
0.0
 10
373.2086543675307
 20
301.8542617847
 30
0.0
 10
373.2057383452424
 20
301.8419765133423
 30
0.0
 10
373.200504599972
 20
301.8171817077589
 30
0.0
 10
373.1981857726434
 20
301.8046559461885
 30
0.0
 10
373.1882161172213
 20
301.7420470481619
 30
0.0
 10
373.1852834196676
 20
301.6915960254506
 30
0.0
 10
373.1875560746241
 20
301.6407693850418
 30
0.0
  0
SPLINE
  5
19F
330
1F
100
AcDbEntity
  8
1
100
AcDbSpline
210
0.0
220
0.0
230
1.0
 70
     8
 71
     3
 72
    36
 73
    32
 74
     0
 42
0.000000001
 43
0.0000000001
 40
0.0
 40
0.0
 40
0.0
 40
0.0
 40
0.1249999999999988
 40
0.1249999999999988
 40
0.187499999999994
 40
0.187499999999994
 40
0.2187499999999916
 40
0.2187499999999916
 40
0.2499999999999892
 40
0.2499999999999892
 40
0.3749999999999483
 40
0.3749999999999483
 40
0.4062499999999475
 40
0.4062499999999475
 40
0.4374999999999466
 40
0.4374999999999466
 40
0.4999999999999448
 40
0.4999999999999448
 40
0.6249999999999666
 40
0.6249999999999666
 40
0.6562499999999723
 40
0.6562499999999723
 40
0.6874999999999779
 40
0.7499999999999895
 40
0.812500000000001
 40
0.812500000000001
 40
0.8437500000000063
 40
0.8437500000000063
 40
0.8750000000000119
 40
0.8750000000000119
 40
1.0
 40
1.0
 40
1.0
 40
1.0
 10
373.5434195682249
 20
293.6820839843102
 30
0.0
 10
373.5456924735583
 20
293.6312517443635
 30
0.0
 10
373.5531039224944
 20
293.5815272427974
 30
0.0
 10
373.5714501366726
 20
293.5084988864724
 30
0.0
 10
373.5787804181213
 20
293.4844179973338
 30
0.0
 10
373.5916242417328
 20
293.4486951316308
 30
0.0
 10
373.5962276883079
 20
293.436822632574
 30
0.0
 10
373.6059904458361
 20
293.4133844874242
 30
0.0
 10
373.6111431391073
 20
293.4018292555702
 30
0.0
 10
373.63823249138
 20
293.3448537689463
 30
0.0
 10
373.6641074765728
 20
293.3018117806724
 30
0.0
 10
373.7016270231734
 20
293.2511348535158
 30
0.0
 10
373.7093921577133
 20
293.2411572161118
 30
0.0
 10
373.7254528048745
 20
293.2215222246834
 30
0.0
 10
373.7337636854908
 20
293.2118499763117
 30
0.0
 10
373.7592380309774
 20
293.1836135035427
 30
0.0
 10
373.7770126192238
 20
293.1657343597933
 30
0.0
 10
373.8326459423953
 20
293.1148542264583
 30
0.0
 10
373.8727912067923
 20
293.084583041346
 30
0.0
 10
373.9269250366115
 20
293.0514625068493
 30
0.0
 10
373.9379651814637
 20
293.0450709659157
 30
0.0
 10
373.960207489998
 20
293.0329051716958
 30
0.0
 10
373.9938982543366
 20
293.0155291154587
 30
0.0
 10
374.0516582131318
 20
292.990858017458
 30
0.0
 10
374.0995713465915
 20
292.9756673690356
 30
0.0
 10
374.1361612094525
 20
292.9660207452044
 30
0.0
 10
374.1484672036976
 20
292.9630968095616
 30
0.0
 10
374.1733031895598
 20
292.9578461489368
 30
0.0
 10
374.1858494331792
 20
292.9555183051742
 30
0.0
 10
374.2485591073667
 20
292.9455012330747
 30
0.0
 10
374.2990862964193
 20
292.9425229343017
 30
0.0
 10
374.3499845051976
 20
292.9447420733469
 30
0.0
  0
SPLINE
  5
1A0
330
1F
100
AcDbEntity
  8
1
100
AcDbSpline
210
0.0
220
0.0
230
1.0
 70
     8
 71
     3
 72
    36
 73
    32
 74
     0
 42
0.000000001
 43
0.0000000001
 40
0.0
 40
0.0
 40
0.0
 40
0.0
 40
0.1249999999999699
 40
0.1249999999999699
 40
0.1874999999999551
 40
0.1874999999999551
 40
0.218749999999948
 40
0.218749999999948
 40
0.249999999999941
 40
0.249999999999941
 40
0.3749999999998508
 40
0.3749999999998508
 40
0.4062499999998483
 40
0.4062499999998483
 40
0.4374999999998459
 40
0.4374999999998459
 40
0.4999999999998678
 40
0.4999999999998678
 40
0.6249999999998881
 40
0.6249999999998881
 40
0.6562499999998894
 40
0.6562499999998894
 40
0.6874999999998904
 40
0.7499999999999077
 40
0.8124999999999248
 40
0.8124999999999248
 40
0.8437499999999367
 40
0.8437499999999367
 40
0.8749999999999488
 40
0.8749999999999488
 40
1.0
 40
1.0
 40
1.0
 40
1.0
 10
382.3198764333004
 20
293.2922257822549
 30
0.0
 10
382.3707802495011
 20
293.2944451657812
 30
0.0
 10
382.4205696411303
 20
293.3017967407582
 30
0.0
 10
382.4936859262373
 20
293.3200442076207
 30
0.0
 10
382.5177945441916
 20
293.3273400714942
 30
0.0
 10
382.5535565980078
 20
293.340129983791
 30
0.0
 10
382.5654417904193
 20
293.3447150277448
 30
0.0
 10
382.5889043273887
 20
293.3544404776831
 30
0.0
 10
382.6004712491224
 20
293.3595742858664
 30
0.0
 10
382.6575027122286
 20
293.3865680823938
 30
0.0
 10
382.7005816417131
 20
293.4123630395434
 30
0.0
 10
382.7512950919444
 20
293.4497781387565
 30
0.0
 10
382.7612795467508
 20
293.4575221611268
 30
0.0
 10
382.7809271837734
 20
293.4735401318067
 30
0.0
 10
382.790605266782
 20
293.4818294111226
 30
0.0
 10
382.818857575032
 20
293.5072389386738
 30
0.0
 10
382.8367451208451
 20
293.5249701015881
 30
0.0
 10
382.8876441739282
 20
293.5804725262948
 30
0.0
 10
382.9179196529647
 20
293.6205297012979
 30
0.0
 10
382.9510347971433
 20
293.6745523541716
 30
0.0
 10
382.9574247114223
 20
293.6855701842094
 30
0.0
 10
382.9695861957725
 20
293.7077682382683
 30
0.0
 10
382.9869541964921
 20
293.7413930088334
 30
0.0
 10
383.0116040502907
 20
293.7990448847247
 30
0.0
 10
383.0267694161023
 20
293.8468735729365
 30
0.0
 10
383.03639389456
 20
293.8834008782258
 30
0.0
 10
383.0393099168483
 20
293.8956861495833
 30
0.0
 10
383.0445436621186
 20
293.9204809551668
 30
0.0
 10
383.0468624894472
 20
293.9330067167372
 30
0.0
 10
383.0568321448694
 20
293.9956156147638
 30
0.0
 10
383.0597648424231
 20
294.0460666374751
 30
0.0
 10
383.0574921874665
 20
294.0968932778838
 30
0.0
  0
SPLINE
  5
1A1
330
1F
100
AcDbEntity
  8
1
100
AcDbSpline
210
0.0
220
0.0
230
1.0
 70
     8
 71
     3
 72
    34
 73
    30
 74
     0
 42
0.000000001
 43
0.0000000001
 40
0.0
 40
0.0
 40
0.0
 40
0.0
 40
0.1249999999999989
 40
0.1249999999999989
 40
0.2499999999999977
 40
0.2499999999999977
 40
0.3125000000000087
 40
0.3125000000000087
 40
0.3437500000000075
 40
0.3437500000000075
 40
0.3750000000000062
 40
0.3750000000000062
 40
0.4375000000000063
 40
0.4375000000000063
 40
0.4687500000000046
 40
0.4687500000000046
 40
0.5000000000000028
 40
0.5000000000000028
 40
0.6249999999999944
 40
0.6249999999999944
 40
0.6874999999999902
 40
0.6874999999999902
 40
0.7499999999999859
 40
0.7499999999999859
 40
0.8750000000000181
 40
0.8750000000000181
 40
0.9375000000000092
 40
0.9375000000000092
 40
1.0
 40
1.0
 40
1.0
 40
1.0
 10
367.6870307647413
 20
293.767309569213
 30
0.0
 10
367.670642967602
 20
293.7857453083101
 30
0.0
 10
367.6554423940012
 20
293.8048251303237
 30
0.0
 10
367.6279542413354
 20
293.8445618008816
 30
0.0
 10
367.6156550786283
 20
293.8652126106648
 30
0.0
 10
367.6001116464356
 20
293.8977535829242
 30
0.0
 10
367.5954188269196
 20
293.9088635105264
 30
0.0
 10
367.589269222139
 20
293.9260055282132
 30
0.0
 10
367.5873682214231
 20
293.9317993662385
 30
0.0
 10
367.5838998127389
 20
293.9435655299432
 30
0.0
 10
367.5823292789163
 20
293.9495548254257
 30
0.0
 10
367.5782286664206
 20
293.9676151646693
 30
0.0
 10
367.5762895763085
 20
293.9798188312338
 30
0.0
 10
367.5747945544932
 20
293.9984116883831
 30
0.0
 10
367.5745326546097
 20
294.004657357928
 30
0.0
 10
367.5745320049018
 20
294.0172543356289
 30
0.0
 10
367.5747957451307
 20
294.0236309683505
 30
0.0
 10
367.5775470816132
 20
294.0554822638803
 30
0.0
 10
367.5842034079868
 20
294.0805871344888
 30
0.0
 10
367.6026367496348
 20
294.1174861621657
 30
0.0
 10
367.6099949793827
 20
294.1292254617242
 30
0.0
 10
367.626945468309
 20
294.1515486830856
 30
0.0
 10
367.6365868648751
 20
294.1621864500348
 30
0.0
 10
367.668509154047
 20
294.1922308984713
 30
0.0
 10
367.6927048350046
 20
294.208914740297
 30
0.0
 10
367.7320940843094
 20
294.230372481401
 30
0.0
 10
367.7456275218237
 20
294.2368485675138
 30
0.0
 10
367.7731273147913
 20
294.2485817660537
 30
0.0
 10
367.7871340630462
 20
294.2538592586598
 30
0.0
 10
367.8013571187172
 20
294.2586405455713
 30
0.0
  0
SPLINE
  5
1A2
330
1F
100
AcDbEntity
  8
1
100
AcDbSpline
210
0.0
220
0.0
230
1.0
 70
     8
 71
     3
 72
    21
 73
    17
 74
     0
 42
0.000000001
 43
0.0000000001
 40
0.0
 40
0.0
 40
0.0
 40
0.0
 40
0.1249999999999992
 40
0.2499999999999984
 40
0.3749999999999976
 40
0.3749999999999976
 40
0.4999999999999967
 40
0.4999999999999967
 40
0.5624999999999972
 40
0.5624999999999972
 40
0.6249999999999975
 40
0.6249999999999975
 40
0.7499999999999983
 40
0.8749999999999991
 40
0.8749999999999991
 40
1.0
 40
1.0
 40
1.0
 40
1.0
 10
279.4048419452957
 20
281.178200507308
 30
0.0
 10
279.273449650393
 20
281.0609038138793
 30
0.0
 10
279.022043038678
 20
280.8193011561357
 30
0.0
 10
278.6781197772531
 20
280.4370967981349
 30
0.0
 10
278.4707526509002
 20
280.169635350808
 30
0.0
 10
278.2744433494321
 20
279.8959884445112
 30
0.0
 10
278.1818168463525
 20
279.7560724794655
 30
0.0
 10
278.051407915887
 20
279.5415717077851
 30
0.0
 10
278.0092995319152
 20
279.4691763064473
 30
0.0
 10
277.9286327258374
 20
279.3240255398579
 30
0.0
 10
277.889999178458
 20
279.2511569398335
 30
0.0
 10
277.7791375857273
 20
279.0317193483014
 30
0.0
 10
277.6447439710111
 20
278.7369223728354
 30
0.0
 10
277.5369366502307
 20
278.4380946274969
 30
0.0
 10
277.4425474287791
 20
278.1373811903292
 30
0.0
 10
277.4020609646835
 20
277.9860816597544
 30
0.0
 10
277.3684792154842
 20
277.8338708903767
 30
0.0
  0
SPLINE
  5
1A3
330
1F
100
AcDbEntity
  8
1
100
AcDbSpline
210
0.0
220
0.0
230
1.0
 70
    28
 71
     3
 72
     8
 73
     4
 74
     0
 42
0.000000001
 43
0.0000000001
 40
0.0
 40
0.0
 40
0.0
 40
0.0
 40
1.0
 40
1.0
 40
1.0
 40
1.0
 10
297.9048419452959
 20
284.4825566466162
 30
0.0
 41
1.0
 10
297.9048419452959
 20
284.5372809108871
 30
0.0
 41
0.9962747561992536
 10
297.9048419452959
 20
284.5916733786661
 30
0.0
 41
0.9926205832213376
 10
297.9048419452959
 20
284.6457186466163
 30
0.0
 41
0.9890374810662521
  0
SPLINE
  5
1A4
330
1F
100
AcDbEntity
  8
1
100
AcDbSpline
210
0.0
220
0.0
230
1.0
 70
     8
 71
     3
 72
    24
 73
    20
 74
     0
 42
0.000000001
 43
0.0000000001
 40
0.0
 40
0.0
 40
0.0
 40
0.0
 40
0.1249999999999996
 40
0.2499999999999992
 40
0.2499999999999992
 40
0.3749999999999988
 40
0.3749999999999988
 40
0.4999999999999979
 40
0.4999999999999979
 40
0.5624999999999972
 40
0.5624999999999972
 40
0.5937499999999972
 40
0.5937499999999972
 40
0.6249999999999973
 40
0.7499999999999982
 40
0.7499999999999982
 40
0.8749999999999989
 40
0.8749999999999989
 40
1.0
 40
1.0
 40
1.0
 40
1.0
 10
282.8043368819074
 20
284.4300177901349
 30
0.0
 10
282.9777914563904
 20
284.5457811895631
 30
0.0
 10
283.3337829908503
 20
284.7654229180312
 30
0.0
 10
283.7082639170856
 20
284.9612772192705
 30
0.0
 10
284.0922686923222
 20
285.1450162222907
 30
0.0
 10
284.2890324177471
 20
285.230829251458
 30
0.0
 10
284.6924922461857
 20
285.3898821928614
 30
0.0
 10
284.8991874951536
 20
285.4631240084482
 30
0.0
 10
285.2170995410837
 20
285.5630015550355
 30
0.0
 10
285.3243830143257
 20
285.5946274886798
 30
0.0
 10
285.4873424921888
 20
285.6394727067875
 30
0.0
 10
285.5420020446213
 20
285.6539875693121
 30
0.0
 10
285.651624368121
 20
285.6820403166915
 30
0.0
 10
285.9266741049926
 20
285.7497931182393
 30
0.0
 10
286.2066964636114
 20
285.8056135056429
 30
0.0
 10
286.6611619147306
 20
285.8791113454919
 30
0.0
 10
286.8916099132641
 20
285.9079536507093
 30
0.0
 10
287.3590353045683
 20
285.9489688198293
 30
0.0
 10
287.5960133088302
 20
285.961142623944
 30
0.0
 10
287.8363153030266
 20
285.964384469255
 30
0.0
  0
SPLINE
  5
1A5
330
1F
100
AcDbEntity
  8
1
100
AcDbSpline
210
0.0
220
0.0
230
1.0
 70
     8
 71
     3
 72
    21
 73
    17
 74
     0
 42
0.000000001
 43
0.0000000001
 40
0.0
 40
0.0
 40
0.0
 40
0.0
 40
0.2500000000000007
 40
0.2500000000000007
 40
0.5000000000000014
 40
0.5000000000000014
 40
0.6250000000000013
 40
0.6250000000000013
 40
0.7500000000000011
 40
0.7500000000000011
 40
0.8125000000000014
 40
0.843750000000001
 40
0.843750000000001
 40
0.8750000000000008
 40
0.8750000000000008
 40
1.0
 40
1.0
 40
1.0
 40
1.0
 10
282.8043368819074
 20
284.4300177901349
 30
0.0
 10
282.4993429896529
 20
284.2264651892453
 30
0.0
 10
282.1990281991364
 20
284.0095221274923
 30
0.0
 10
281.6087287031127
 20
283.5442081630191
 30
0.0
 10
281.3187370582654
 20
283.2958697741585
 30
0.0
 10
280.8921924269151
 20
282.895619461257
 30
0.0
 10
280.7514183518064
 20
282.7575687009189
 30
0.0
 10
280.4728206314444
 20
282.4713009455225
 30
0.0
 10
280.3349964413251
 20
282.3230869927287
 30
0.0
 10
280.1305952198832
 20
282.0923073044768
 30
0.0
 10
280.0289787804232
 20
281.9747998039746
 30
0.0
 10
279.9282664511638
 20
281.8539253237383
 30
0.0
 10
279.8613293375585
 20
281.7725700706977
 30
0.0
 10
279.8279383822912
 20
281.7314755721479
 30
0.0
 10
279.6618442077292
 20
281.5244359164382
 30
0.0
 10
279.5318314955848
 20
281.3539547900033
 30
0.0
 10
279.4048419452957
 20
281.178200507308
 30
0.0
  0
SPLINE
  5
1A6
330
1F
100
AcDbEntity
  8
1
100
AcDbSpline
210
0.0
220
0.0
230
1.0
 70
     8
 71
     3
 72
    22
 73
    18
 74
     0
 42
0.000000001
 43
0.0000000001
 40
0.0
 40
0.0
 40
0.0
 40
0.0
 40
0.125
 40
0.125
 40
0.25
 40
0.25
 40
0.375
 40
0.375
 40
0.5
 40
0.5
 40
0.625
 40
0.625
 40
0.75
 40
0.75
 40
0.875
 40
0.875
 40
1.0
 40
1.0
 40
1.0
 40
1.0
 10
377.4494622508429
 20
296.7385383431487
 30
0.0
 10
377.4468376914766
 20
296.7334471828777
 30
0.0
 10
377.4437999531593
 20
296.7285934193571
 30
0.0
 10
377.4370283316661
 20
296.7195143091313
 30
0.0
 10
377.4332825227258
 20
296.7152638554502
 30
0.0
 10
377.4250505508517
 20
296.7073586680522
 30
0.0
 10
377.4205585434831
 20
296.7037133562754
 30
0.0
 10
377.4111218856547
 20
296.6972905571844
 30
0.0
 10
377.4061426857847
 20
296.6944761995796
 30
0.0
 10
377.3956407515572
 20
296.6896776287643
 30
0.0
 10
377.3901352183071
 20
296.687712882317
 30
0.0
 10
377.3789599143876
 20
296.6847870269479
 30
0.0
 10
377.3732444456433
 20
296.6838027207542
 30
0.0
 10
377.3615442940768
 20
296.6828476866317
 30
0.0
 10
377.3556485451265
 20
296.6828916514544
 30
0.0
 10
377.3440134618085
 20
296.6840147671031
 30
0.0
 10
377.338235799393
 20
296.6850899307095
 30
0.0
 10
377.3325009247524
 20
296.6867120833885
 30
0.0
  0
SPLINE
  5
1A7
330
1F
100
AcDbEntity
  8
1
100
AcDbSpline
210
0.0
220
0.0
230
1.0
 70
     8
 71
     3
 72
    20
 73
    16
 74
     0
 42
0.000000001
 43
0.0000000001
 40
0.0
 40
0.0
 40
0.0
 40
0.0
 40
0.1249999999999855
 40
0.1249999999999855
 40
0.2499999999999709
 40
0.2499999999999709
 40
0.3749999999999564
 40
0.3749999999999564
 40
0.4999999999999419
 40
0.4999999999999419
 40
0.6249999999999273
 40
0.6249999999999273
 40
0.7499999999999128
 40
0.7499999999999128
 40
1.0
 40
1.0
 40
1.0
 40
1.0
 10
378.1171841308491
 20
296.5130421497556
 30
0.0
 10
378.1112991851379
 20
296.5139913540603
 30
0.0
 10
378.1056005284129
 20
296.5154566452871
 30
0.0
 10
378.0945561930961
 20
296.5193632542837
 30
0.0
 10
378.0891606161683
 20
296.5218362500329
 30
0.0
 10
378.0790132784514
 20
296.5276264662713
 30
0.0
 10
378.0742701233557
 20
296.5309238997587
 30
0.0
 10
378.06541273276
 20
296.5382821665202
 30
0.0
 10
378.0612657246924
 20
296.542384108407
 30
0.0
 10
378.053792007542
 20
296.5511749075573
 30
0.0
 10
378.0504850190896
 20
296.5558243513385
 30
0.0
 10
378.0446865968603
 20
296.5656033997041
 30
0.0
 10
378.0421855806245
 20
296.5707590703154
 30
0.0
 10
378.0360103057652
 20
296.5867980552125
 30
0.0
 10
378.0337479727609
 20
296.5978708171732
 30
0.0
 10
378.0333178900887
 20
296.6093165510543
 30
0.0
  0
SPLINE
  5
1A8
330
1F
100
AcDbEntity
  8
1
100
AcDbSpline
210
0.0
220
0.0
230
1.0
 70
     8
 71
     3
 72
    14
 73
    10
 74
     0
 42
0.000000001
 43
0.0000000001
 40
0.0
 40
0.0
 40
0.0
 40
0.0
 40
0.25
 40
0.25
 40
0.5
 40
0.5
 40
0.75
 40
0.75
 40
1.0
 40
1.0
 40
1.0
 40
1.0
 10
377.4494622508433
 20
296.7385383431496
 30
0.0
 10
377.4527456000799
 20
296.7449074340543
 30
0.0
 10
377.4566865434318
 20
296.7509265719357
 30
0.0
 10
377.4656911378771
 20
296.7619943877468
 30
0.0
 10
377.4707131198737
 20
296.767010013065
 30
0.0
 10
377.4818096931373
 20
296.7759948834812
 30
0.0
 10
377.4879243854258
 20
296.7799651968117
 30
0.0
 10
377.5007180658954
 20
296.7864469135618
 30
0.0
 10
377.5074539416078
 20
296.7890160637788
 30
0.0
 10
377.514560318596
 20
296.7908556513997
 30
0.0
  0
SPLINE
  5
1A9
330
1F
100
AcDbEntity
  8
1
100
AcDbSpline
210
0.0
220
0.0
230
1.0
 70
     8
 71
     3
 72
    14
 73
    10
 74
     0
 42
0.000000001
 43
0.0000000001
 40
0.0
 40
0.0
 40
0.0
 40
0.0
 40
0.25
 40
0.25
 40
0.5
 40
0.5
 40
0.75
 40
0.75
 40
1.0
 40
1.0
 40
1.0
 40
1.0
 10
377.9965951371191
 20
296.6841693424648
 30
0.0
 10
378.0022521580277
 20
296.6795020859172
 30
0.0
 10
378.0073613505879
 20
296.6742223101764
 30
0.0
 10
378.0162017030187
 20
296.6628996760264
 30
0.0
 10
378.0199588709245
 20
296.6568536828049
 30
0.0
 10
378.0261910148635
 20
296.6440137381283
 30
0.0
 10
378.0286427075883
 20
296.6372164773783
 30
0.0
 10
378.0320511307677
 20
296.6234842255931
 30
0.0
 10
378.0330489199152
 20
296.6164746190897
 30
0.0
 10
378.0333178900887
 20
296.6093165510543
 30
0.0
  0
SPLINE
  5
1AA
330
1F
100
AcDbEntity
  8
1
100
AcDbSpline
210
0.0
220
0.0
230
1.0
 70
     8
 71
     3
 72
    21
 73
    17
 74
     0
 42
0.000000001
 43
0.0000000001
 40
0.0
 40
0.0
 40
0.0
 40
0.0
 40
0.2499999999999828
 40
0.2499999999999828
 40
0.3124999999999791
 40
0.3124999999999791
 40
0.3749999999999756
 40
0.3749999999999756
 40
0.4999999999999741
 40
0.6249999999999727
 40
0.6249999999999727
 40
0.687499999999976
 40
0.687499999999976
 40
0.7499999999999791
 40
0.7499999999999791
 40
1.0
 40
1.0
 40
1.0
 40
1.0
 10
377.3325009247524
 20
296.6867120833885
 30
0.0
 10
377.2912497948089
 20
296.6983802775757
 30
0.0
 10
377.2519131590932
 20
296.7146423590937
 30
0.0
 10
377.2051389395917
 20
296.7407064122867
 30
0.0
 10
377.1958869560503
 20
296.7462231251232
 30
0.0
 10
377.1778344418103
 20
296.7577159750353
 30
0.0
 10
377.1690109887022
 20
296.7637033746913
 30
0.0
 10
377.1431379854647
 20
296.7823753065894
 30
0.0
 10
377.110229751456
 20
296.8091592535158
 30
0.0
 10
377.0804782443045
 20
296.8396935252315
 30
0.0
 10
377.0593879276739
 20
296.864047666901
 30
0.0
 10
377.0525778186345
 20
296.8723942221745
 30
0.0
 10
377.0395430165156
 20
296.8893528096032
 30
0.0
 10
377.0332958687102
 20
296.8979902123548
 30
0.0
 10
377.0033871267277
 20
296.9419535079618
 30
0.0
 10
376.983654275099
 20
296.9795777634886
 30
0.0
 10
376.9682289973808
 20
297.0197205576305
 30
0.0
  0
SPLINE
  5
1AB
330
1F
100
AcDbEntity
  8
1
100
AcDbSpline
210
0.0
220
0.0
230
1.0
 70
     8
 71
     3
 72
    21
 73
    17
 74
     0
 42
0.000000001
 43
0.0000000001
 40
0.0
 40
0.0
 40
0.0
 40
0.0
 40
0.2499999999999393
 40
0.2499999999999393
 40
0.3124999999999439
 40
0.3124999999999439
 40
0.3749999999999487
 40
0.3749999999999487
 40
0.4999999999999591
 40
0.6249999999999697
 40
0.6249999999999697
 40
0.6874999999999733
 40
0.6874999999999733
 40
0.7499999999999769
 40
0.7499999999999769
 40
1.0
 40
1.0
 40
1.0
 40
1.0
 10
377.514560318596
 20
296.7908556513997
 30
0.0
 10
377.55579305336
 20
296.8015293362565
 30
0.0
 10
377.5977227534745
 20
296.8073736507424
 30
0.0
 10
377.6510957296884
 20
296.8084931443848
 30
0.0
 10
377.6618189183027
 20
296.8084037106129
 30
0.0
 10
377.6833670178902
 20
296.8075773334606
 30
0.0
 10
377.6942178235927
 20
296.806835612623
 30
0.0
 10
377.7264413533111
 20
296.8036574828839
 30
0.0
 10
377.7688198302752
 20
296.7968865425643
 30
0.0
 10
377.8100512934182
 20
296.7851602888235
 30
0.0
 10
377.8405375304422
 20
296.7744755142962
 30
0.0
 10
377.8506623770919
 20
296.7705825938212
 30
0.0
 10
377.8705737396617
 20
296.7622315040022
 30
0.0
 10
377.8803424764308
 20
296.7577839097351
 30
0.0
 10
377.9282858700169
 20
296.7342298315802
 30
0.0
 10
377.9637957793577
 20
296.7112300551165
 30
0.0
 10
377.9965951371191
 20
296.6841693424648
 30
0.0
  0
SPLINE
  5
1AC
330
1F
100
AcDbEntity
  8
1
100
AcDbSpline
210
0.0
220
0.0
230
1.0
 70
     8
 71
     3
 72
    16
 73
    12
 74
     0
 42
0.000000001
 43
0.0000000001
 40
0.0
 40
0.0
 40
0.0
 40
0.0
 40
0.2018367234354732
 40
0.2018367234354732
 40
0.4036734468709465
 40
0.4036734468709465
 40
0.6055101703064195
 40
0.6055101703064195
 40
0.8073468937418926
 40
0.8073468937418926
 40
1.0
 40
1.0
 40
1.0
 40
1.0
 10
319.2994577364992
 20
277.411718079065
 30
0.0
 10
319.7823724252934
 20
277.5229546500934
 30
0.0
 10
320.2663895530621
 20
277.6331355303371
 30
0.0
 10
321.2366387810452
 20
277.8503955476449
 30
0.0
 10
321.7228685092568
 20
277.9574770260245
 30
0.0
 10
322.6973140962597
 20
278.1684916861946
 30
0.0
 10
323.1855272219138
 20
278.2724311580704
 30
0.0
 10
324.1635538742232
 20
278.4779279859499
 30
0.0
 10
324.6533649174456
 20
278.5794931200402
 30
0.0
 10
325.6118127293775
 20
278.7770018655483
 30
0.0
 10
326.0803971249162
 20
278.8729977174274
 30
0.0
 10
326.5492948384282
 20
278.9692741497428
 30
0.0
  0
SPLINE
  5
1AD
330
1F
100
AcDbEntity
  8
1
100
AcDbSpline
210
0.0
220
0.0
230
1.0
 70
     8
 71
     3
 72
    49
 73
    45
 74
     0
 42
0.000000001
 43
0.0000000001
 40
0.0
 40
0.0
 40
0.0
 40
0.0
 40
0.0312500000000005
 40
0.0312500000000005
 40
0.0625000000000009
 40
0.0625000000000009
 40
0.1249999999999993
 40
0.1249999999999993
 40
0.1874999999999976
 40
0.1874999999999976
 40
0.249999999999996
 40
0.249999999999996
 40
0.3124999999999944
 40
0.3124999999999944
 40
0.3437499999999936
 40
0.3437499999999936
 40
0.3749999999999927
 40
0.3749999999999927
 40
0.4374999999999928
 40
0.4374999999999928
 40
0.4687499999999928
 40
0.4687499999999928
 40
0.4999999999999928
 40
0.4999999999999928
 40
0.5624999999999947
 40
0.5624999999999947
 40
0.6249999999999966
 40
0.6249999999999966
 40
0.6874999999999984
 40
0.6874999999999984
 40
0.7187499999999986
 40
0.7187499999999986
 40
0.7499999999999987
 40
0.781249999999999
 40
0.781249999999999
 40
0.8124999999999989
 40
0.8124999999999989
 40
0.8749999999999991
 40
0.8749999999999991
 40
0.9062499999999992
 40
0.9062499999999992
 40
0.9374999999999992
 40
0.9374999999999992
 40
1.0
 40
1.0
 40
1.0
 40
1.0
 10
381.1325506491295
 20
284.1454935137234
 30
0.0
 10
381.133184350128
 20
284.1240095445188
 30
0.0
 10
381.1339487498336
 20
284.1030508232067
 30
0.0
 10
381.1357392176617
 20
284.0621849654655
 30
0.0
 10
381.1367669267877
 20
284.0422521729262
 30
0.0
 10
381.1402327111779
 20
283.9842576952591
 30
0.0
 10
381.143048779899
 20
283.9480199421439
 30
0.0
 10
381.1496840209772
 20
283.8803565796618
 30
0.0
 10
381.1535122251648
 20
283.8488994554982
 30
0.0
 10
381.1620944324839
 20
283.7914704058095
 30
0.0
 10
381.1668549294737
 20
283.7654083378781
 30
0.0
 10
381.1773202567962
 20
283.7186204591408
 30
0.0
 10
381.18298897149
 20
283.6980612135656
 30
0.0
 10
381.1921261926768
 20
283.6714830531672
 30
0.0
 10
381.1952785241106
 20
283.6633320632772
 30
0.0
 10
381.2017976599798
 20
283.648455456722
 30
0.0
 10
381.2051616878775
 20
283.6417396129466
 30
0.0
 10
381.2155105134817
 20
283.6238501085949
 30
0.0
 10
381.2227708423966
 20
283.6148821273833
 30
0.0
 10
381.2341992067747
 20
283.6058365836882
 30
0.0
 10
381.2380984800809
 20
283.6035572272536
 30
0.0
 10
381.2460781266163
 20
283.600482148538
 30
0.0
 10
381.2501652352536
 20
283.5996869105482
 30
0.0
 10
381.2626478081698
 20
283.5995595484913
 30
0.0
 10
381.2712528725668
 20
283.6024682024433
 30
0.0
 10
381.289027595759
 20
283.6142504074136
 30
0.0
 10
381.2982183581086
 20
283.6231614375328
 30
0.0
 10
381.3169779315075
 20
283.6468152703497
 30
0.0
 10
381.3265643217201
 20
283.6615579087187
 30
0.0
 10
381.3412564692852
 20
283.6880829461862
 30
0.0
 10
381.3462041989418
 20
283.6976601407566
 30
0.0
 10
381.35614881877
 20
283.7181832720017
 30
0.0
 10
381.3661561346366
 20
283.7400986976137
 30
0.0
 10
381.3762886606165
 20
283.7647946710888
 30
0.0
 10
381.3864841938104
 20
283.7908898492242
 30
0.0
 10
381.3916199987603
 20
283.8046563746065
 30
0.0
 10
381.4070448046865
 20
283.8478589323533
 30
0.0
 10
381.4173671746381
 20
283.8792275023734
 30
0.0
 10
381.4329095517995
 20
283.9301354542306
 30
0.0
 10
381.4381064140631
 20
283.9477706899103
 30
0.0
 10
381.4484896880962
 20
283.9842374870113
 30
0.0
 10
381.4536689732873
 20
284.0030423379387
 30
0.0
 10
381.4691699679169
 20
284.0611622478708
 30
0.0
 10
381.4794549147604
 20
284.102178113954
 30
0.0
 10
381.4896901576572
 20
284.145493513701
 30
0.0
  0
SPLINE
  5
1AE
330
1F
100
AcDbEntity
  8
1
100
AcDbSpline
210
0.0
220
0.0
230
1.0
 70
     8
 71
     3
 72
   118
 73
   114
 74
     0
 42
0.000000001
 43
0.0000000001
 40
0.0
 40
0.0
 40
0.0
 40
0.0
 40
0.0312500000000016
 40
0.0312500000000016
 40
0.0468750000000019
 40
0.0468750000000019
 40
0.0625000000000022
 40
0.0625000000000022
 40
0.0781250000000025
 40
0.0781250000000025
 40
0.0937500000000028
 40
0.0937500000000028
 40
0.1093750000000031
 40
0.1093750000000031
 40
0.1250000000000034
 40
0.1250000000000034
 40
0.1406250000000038
 40
0.1406250000000038
 40
0.1562500000000041
 40
0.1718750000000045
 40
0.1718750000000045
 40
0.1875000000000048
 40
0.1875000000000048
 40
0.2031250000000052
 40
0.2031250000000052
 40
0.2109375000000055
 40
0.2109375000000055
 40
0.2187500000000057
 40
0.2187500000000057
 40
0.250000000000007
 40
0.250000000000007
 40
0.2656250000000079
 40
0.2656250000000079
 40
0.2734375000000081
 40
0.2734375000000081
 40
0.2812500000000083
 40
0.2812500000000083
 40
0.3125000000000085
 40
0.3125000000000085
 40
0.3281250000000083
 40
0.3281250000000083
 40
0.3437500000000081
 40
0.3437500000000081
 40
0.3593750000000079
 40
0.3593750000000079
 40
0.3750000000000077
 40
0.3750000000000077
 40
0.3906250000000075
 40
0.3906250000000075
 40
0.4062500000000074
 40
0.4218750000000072
 40
0.4218750000000072
 40
0.4375000000000071
 40
0.4375000000000071
 40
0.4531250000000068
 40
0.4531250000000068
 40
0.4687500000000068
 40
0.4687500000000068
 40
0.4843750000000064
 40
0.4843750000000064
 40
0.5000000000000063
 40
0.5000000000000063
 40
0.5312500000000059
 40
0.5312500000000059
 40
0.5625000000000055
 40
0.5625000000000055
 40
0.5781250000000054
 40
0.5781250000000054
 40
0.5937500000000052
 40
0.5937500000000052
 40
0.6093750000000049
 40
0.6093750000000049
 40
0.6250000000000048
 40
0.6250000000000048
 40
0.6406250000000046
 40
0.6406250000000046
 40
0.6562500000000044
 40
0.6718750000000043
 40
0.6718750000000043
 40
0.687500000000004
 40
0.687500000000004
 40
0.7031250000000038
 40
0.7031250000000038
 40
0.7187500000000037
 40
0.7187500000000037
 40
0.7343750000000035
 40
0.7343750000000035
 40
0.7500000000000032
 40
0.7500000000000032
 40
0.7656250000000031
 40
0.7656250000000031
 40
0.7812500000000029
 40
0.7812500000000029
 40
0.8125000000000024
 40
0.8125000000000024
 40
0.8437500000000021
 40
0.8437500000000021
 40
0.8593750000000017
 40
0.8593750000000017
 40
0.8750000000000015
 40
0.8750000000000015
 40
0.8906250000000014
 40
0.8906250000000014
 40
0.9062500000000012
 40
0.9062500000000012
 40
0.9375000000000007
 40
0.9375000000000007
 40
0.9531250000000005
 40
0.9531250000000005
 40
0.9687500000000003
 40
0.9843750000000001
 40
0.9843750000000001
 40
1.0
 40
1.0
 40
1.0
 40
1.0
 10
381.4896901576573
 20
284.145493513701
 30
0.0
 10
381.4977452057168
 20
284.2078913138037
 30
0.0
 10
381.5051111453328
 20
284.2742386602022
 30
0.0
 10
381.5151252844192
 20
284.3796903477377
 30
0.0
 10
381.5182776997302
 20
284.4157091096796
 30
0.0
 10
381.5241904381243
 20
284.4891962456334
 30
0.0
 10
381.526954757612
 20
284.5267063012838
 30
0.0
 10
381.5320979038847
 20
284.6032649486524
 30
0.0
 10
381.5344760084189
 20
284.6423231716755
 30
0.0
 10
381.5388072830267
 20
284.7213376281256
 30
0.0
 10
381.5407660734197
 20
284.7613722633834
 30
0.0
 10
381.5442704815997
 20
284.842495018998
 30
0.0
 10
381.5458181702774
 20
284.8836629545672
 30
0.0
 10
381.5484771074188
 20
284.9664733651374
 30
0.0
 10
381.5495909172083
 20
285.008153609413
 30
0.0
 10
381.5513897608866
 20
285.0920609344541
 30
0.0
 10
381.5520754792781
 20
285.1343589467529
 30
0.0
 10
381.5530104159255
 20
285.2191656682739
 30
0.0
 10
381.5535085852282
 20
285.3040080933492
 30
0.0
 10
381.5531420894235
 20
285.3889212004888
 30
0.0
 10
381.5523407730384
 20
285.4738698520443
 30
0.0
 10
381.5517245803496
 20
285.516144107459
 30
0.0
 10
381.5500681584503
 20
285.6001914556719
 30
0.0
 10
381.5490277597407
 20
285.6419821418673
 30
0.0
 10
381.5471483146032
 20
285.7043180684327
 30
0.0
 10
381.5464676277509
 20
285.7250637764838
 30
0.0
 10
381.5450074507859
 20
285.7662154104685
 30
0.0
 10
381.5442274900518
 20
285.786641553322
 30
0.0
 10
381.5400822283342
 20
285.8880356110203
 30
0.0
 10
381.5359843692761
 20
285.9668050087464
 30
0.0
 10
381.5286923563509
 20
286.081522114606
 30
0.0
 10
381.5260700633309
 20
286.1191860632738
 30
0.0
 10
381.5218458783689
 20
286.1748094154427
 30
0.0
 10
381.520389312529
 20
286.1932049644648
 30
0.0
 10
381.5173780396347
 20
286.2297015259425
 30
0.0
 10
381.5158209491622
 20
286.2478283825075
 30
0.0
 10
381.5078243424411
 20
286.3372972302215
 30
0.0
 10
381.5007505803298
 20
286.4052522455793
 30
0.0
 10
381.4891289709871
 20
286.5017747362018
 30
0.0
 10
381.4850976697746
 20
286.5329403150117
 30
0.0
 10
381.4767544813924
 20
286.5930288671545
 30
0.0
 10
381.4724379071405
 20
286.6219911501525
 30
0.0
 10
381.4635141713414
 20
286.6777470493722
 30
0.0
 10
381.4589015609048
 20
286.7045632937756
 30
0.0
 10
381.4494542747993
 20
286.7556173916653
 30
0.0
 10
381.4446120926931
 20
286.7799065823802
 30
0.0
 10
381.4346910042484
 20
286.8260129427285
 30
0.0
 10
381.4296026031321
 20
286.8478664874412
 30
0.0
 10
381.4192348809526
 20
286.8888769827639
 30
0.0
 10
381.4086887205636
 20
286.9271563784239
 30
0.0
 10
381.3977875243957
 20
286.9600017468079
 30
0.0
 10
381.3867069482957
 20
286.9901016019213
 30
0.0
 10
381.3811014191681
 20
287.0037100984774
 30
0.0
 10
381.369784092541
 20
287.0280069180533
 30
0.0
 10
381.3640685613725
 20
287.0387054505268
 30
0.0
 10
381.3525230041794
 20
287.0571834059802
 30
0.0
 10
381.3466900174512
 20
287.0649589623354
 30
0.0
 10
381.3350001856775
 20
287.0774537929733
 30
0.0
 10
381.329132174767
 20
287.0821935004288
 30
0.0
 10
381.3173498418782
 20
287.0886495990366
 30
0.0
 10
381.3114237075098
 20
287.0903646267152
 30
0.0
 10
381.2936766904401
 20
287.0908984500563
 30
0.0
 10
381.2818917545927
 20
287.0851599913375
 30
0.0
 10
381.2584242405525
 20
287.0613511626484
 30
0.0
 10
381.2468802184607
 20
287.043422880076
 30
0.0
 10
381.2298497319583
 20
287.0074646752411
 30
0.0
 10
381.2242254890721
 20
286.9939639525879
 30
0.0
 10
381.2131634761558
 20
286.9641316061827
 30
0.0
 10
381.2077144494129
 20
286.9477776737435
 30
0.0
 10
381.1969811693125
 20
286.9121800152483
 30
0.0
 10
381.191688099407
 20
286.8928965431185
 30
0.0
 10
381.1813464240315
 20
286.8517010055474
 30
0.0
 10
381.1762905737453
 20
286.8297710098215
 30
0.0
 10
381.1664088892758
 20
286.7832460860039
 30
0.0
 10
381.1615746592265
 20
286.758603849687
 30
0.0
 10
381.1521815300782
 20
286.706844320126
 30
0.0
 10
381.1430790411143
 20
286.6527105616833
 30
0.0
 10
381.134555097354
 20
286.5938506889398
 30
0.0
 10
381.1263237319102
 20
286.5326007547845
 30
0.0
 10
381.1223776689893
 20
286.5009530477475
 30
0.0
 10
381.1148284228267
 20
286.4356832072759
 30
0.0
 10
381.1112240955142
 20
286.4020525561527
 30
0.0
 10
381.104358229768
 20
286.3327869441243
 30
0.0
 10
381.1011013292042
 20
286.2971859132203
 30
0.0
 10
381.0949835246912
 20
286.224557582692
 30
0.0
 10
381.092115744101
 20
286.1874630195326
 30
0.0
 10
381.0867629837944
 20
286.1117108208427
 30
0.0
 10
381.0842753312527
 20
286.0729937448905
 30
0.0
 10
381.0797228613584
 20
285.9945956017164
 30
0.0
 10
381.0776530504857
 20
285.9548539318181
 30
0.0
 10
381.073924861601
 20
285.8742891155711
 30
0.0
 10
381.0722637818143
 20
285.8333826004475
 30
0.0
 10
381.0679282143162
 20
285.7097055723551
 30
0.0
 10
381.0658967107472
 20
285.6260432870986
 30
0.0
 10
381.0635555165352
 20
285.4566203389796
 30
0.0
 10
381.0632574089865
 20
285.3717775710609
 30
0.0
 10
381.0641073707012
 20
285.244318225684
 30
0.0
 10
381.0646078385411
 20
285.2018977273882
 30
0.0
 10
381.0660335594091
 20
285.1176269099846
 30
0.0
 10
381.066959182345
 20
285.0757103201385
 30
0.0
 10
381.0692357639716
 20
284.9923145835216
 30
0.0
 10
381.0705898220667
 20
284.9507902643525
 30
0.0
 10
381.0736881698842
 20
284.8691380773474
 30
0.0
 10
381.0754351204517
 20
284.8288900174299
 30
0.0
 10
381.0812565068588
 20
284.7098425422259
 30
0.0
 10
381.0859085568295
 20
284.6327312956496
 30
0.0
 10
381.0940468652258
 20
284.5204553916308
 30
0.0
 10
381.0969558799514
 20
284.4835724083919
 30
0.0
 10
381.1031630521473
 20
284.4110729035898
 30
0.0
 10
381.1097130665193
 20
284.3403728274416
 30
0.0
 10
381.1169406307152
 20
284.2732289140142
 30
0.0
 10
381.1245082358962
 20
284.2078697270114
 30
0.0
 10
381.1284596871552
 20
284.1761137978803
 30
0.0
 10
381.1325506491272
 20
284.1454935137234
 30
0.0
  0
SPLINE
  5
1AF
330
1F
100
AcDbEntity
  8
1
100
AcDbSpline
210
0.0
220
0.0
230
1.0
 70
     8
 71
     3
 72
    22
 73
    18
 74
     0
 42
0.000000001
 43
0.0000000001
 40
0.0
 40
0.0
 40
0.0
 40
0.0
 40
0.1250000000000001
 40
0.1250000000000001
 40
0.2500000000000002
 40
0.2500000000000002
 40
0.3750000000000002
 40
0.3750000000000002
 40
0.5000000000000002
 40
0.5000000000000002
 40
0.6250000000000002
 40
0.6250000000000002
 40
0.7500000000000001
 40
0.7500000000000001
 40
0.8750000000000001
 40
0.8750000000000001
 40
1.0
 40
1.0
 40
1.0
 40
1.0
 10
367.7911528952159
 20
291.7166936872346
 30
0.0
 10
367.5549361198075
 20
291.8309142350387
 30
0.0
 10
367.3163424523072
 20
291.9493855827573
 30
0.0
 10
366.835462280372
 20
292.192932495097
 30
0.0
 10
366.5931690847037
 20
292.3180200262242
 30
0.0
 10
366.1055803971328
 20
292.5735643522413
 30
0.0
 10
365.8602815701606
 20
292.7040271115224
 30
0.0
 10
365.3671667589348
 20
292.9694542782635
 30
0.0
 10
365.1193489442846
 20
293.1044219591786
 30
0.0
 10
364.6215475555614
 20
293.3782305342699
 30
0.0
 10
364.3731725977526
 20
293.5161863746655
 30
0.0
 10
363.8774488842374
 20
293.7938074372443
 30
0.0
 10
363.6300759010971
 20
293.9334874769212
 30
0.0
 10
363.1361822097551
 20
294.2143634085968
 30
0.0
 10
362.8896618880475
 20
294.3555599880122
 30
0.0
 10
362.3973832861119
 20
294.6393085103455
 30
0.0
 10
362.1516252500338
 20
294.7818608875071
 30
0.0
 10
361.9062155531781
 20
294.9250328192221
 30
0.0
  0
SPLINE
  5
1B0
330
1F
100
AcDbEntity
  8
1
100
AcDbSpline
210
0.0
220
0.0
230
1.0
 70
     8
 71
     3
 72
    22
 73
    18
 74
     0
 42
0.000000001
 43
0.0000000001
 40
0.0
 40
0.0
 40
0.0
 40
0.0
 40
0.0837696360923472
 40
0.0837696360923472
 40
0.2146596880791549
 40
0.2146596880791549
 40
0.3455497400659623
 40
0.3455497400659623
 40
0.47643979205277
 40
0.47643979205277
 40
0.6073298440395774
 40
0.6073298440395774
 40
0.738219896026385
 40
0.738219896026385
 40
0.8691099480131924
 40
0.8691099480131924
 40
1.0
 40
1.0
 40
1.0
 40
1.0
 10
331.9102151694058
 20
277.977941754324
 30
0.0
 10
331.270283985098
 20
277.8622847255189
 30
0.0
 10
330.6303814274122
 20
277.7498473449581
 30
0.0
 10
328.9903633856027
 20
277.4707436050758
 30
0.0
 10
327.9900990965491
 20
277.3091667260315
 30
0.0
 10
325.9873789320636
 20
277.0060328709428
 30
0.0
 10
324.9848645274534
 20
276.8644509517453
 30
0.0
 10
322.9783383550353
 20
276.6000079478278
 30
0.0
 10
321.9757581161592
 20
276.4773419012514
 30
0.0
 10
319.9721279041627
 20
276.2509216559007
 30
0.0
 10
318.9710798507426
 20
276.1471852856335
 30
0.0
 10
316.9701739828083
 20
275.959313793511
 30
0.0
 10
315.970314001821
 20
275.875199871104
 30
0.0
 10
313.9709323802564
 20
275.7275255181695
 30
0.0
 10
312.9714055767059
 20
275.6639838066634
 30
0.0
 10
310.9714416562356
 20
275.5580478633893
 30
0.0
 10
309.9709980999859
 20
275.5156654979049
 30
0.0
 10
308.9693671431039
 20
275.4837380155175
 30
0.0
  0
SPLINE
  5
1B1
330
1F
100
AcDbEntity
  8
1
100
AcDbSpline
210
0.0
220
0.0
230
1.0
 70
     8
 71
     3
 72
    14
 73
    10
 74
     0
 42
0.000000001
 43
0.0000000001
 40
0.0
 40
0.0
 40
0.0
 40
0.0
 40
0.25
 40
0.25
 40
0.5
 40
0.5
 40
0.75
 40
0.75
 40
1.0
 40
1.0
 40
1.0
 40
1.0
 10
308.9693671431043
 20
275.4837380155162
 30
0.0
 10
309.832217285903
 20
275.5987070639998
 30
0.0
 10
310.6933297106536
 20
275.726521535057
 30
0.0
 10
312.4139627647257
 20
276.006299101502
 30
0.0
 10
313.2734900263908
 20
276.1582520428146
 30
0.0
 10
314.9928445887289
 20
276.4835675558863
 30
0.0
 10
315.8526809058841
 20
276.6569026857545
 30
0.0
 10
317.574311245392
 20
277.0215757222081
 30
0.0
 10
318.4361172390512
 20
277.2128526504613
 30
0.0
 10
319.2994577364992
 20
277.411718079065
 30
0.0
  0
SPLINE
  5
1B2
330
1F
100
AcDbEntity
  8
1
100
AcDbSpline
210
0.0
220
0.0
230
1.0
 70
     8
 71
     3
 72
    28
 73
    24
 74
     0
 42
0.000000001
 43
0.0000000001
 40
0.0
 40
0.0
 40
0.0
 40
0.0
 40
0.1249999999999837
 40
0.1249999999999837
 40
0.2499999999999674
 40
0.2499999999999674
 40
0.3124999999999593
 40
0.3124999999999593
 40
0.3749999999999512
 40
0.3749999999999512
 40
0.4999999999999348
 40
0.4999999999999348
 40
0.6249999999999185
 40
0.6249999999999185
 40
0.6562499999999147
 40
0.6562499999999147
 40
0.6874999999999107
 40
0.6874999999999107
 40
0.7499999999999285
 40
0.7499999999999285
 40
0.8749999999999642
 40
0.8749999999999642
 40
1.0
 40
1.0
 40
1.0
 40
1.0
 10
376.0052789308133
 20
292.6460303546343
 30
0.0
 10
375.9518465801603
 20
292.6057856187512
 30
0.0
 10
375.8970159587867
 20
292.5684929436071
 30
0.0
 10
375.7844884592719
 20
292.4994851765125
 30
0.0
 10
375.7267932330433
 20
292.4677723360833
 30
0.0
 10
375.6379829665731
 20
292.4243531665851
 30
0.0
 10
375.6079591668927
 20
292.4105560183834
 30
0.0
 10
375.5473088693678
 20
292.3844463303142
 30
0.0
 10
375.5167836782276
 20
292.3721746874353
 30
0.0
 10
375.4245598121814
 20
292.3376687336272
 30
0.0
 10
375.3622164158256
 20
292.3177333301144
 30
0.0
 10
375.2354747041172
 20
292.2840290955795
 30
0.0
 10
375.1710752065406
 20
292.2702596318507
 30
0.0
 10
375.0890194113476
 20
292.2571283170526
 30
0.0
 10
375.0724995132673
 20
292.2547030766997
 30
0.0
 10
375.0394783798526
 20
292.2502946140954
 30
0.0
 10
375.0229790304847
 20
292.2483106052752
 30
0.0
 10
374.9735162647478
 20
292.2430136366769
 30
0.0
 10
374.9405883508255
 20
292.2403555798397
 30
0.0
 10
374.8419519883432
 20
292.2349623421883
 30
0.0
 10
374.7763940852788
 20
292.2348048043078
 30
0.0
 10
374.6456261156135
 20
292.2412260138181
 30
0.0
 10
374.5804142045744
 20
292.247801987067
 30
0.0
 10
374.5153115031369
 20
292.25774578856
 30
0.0
  0
SPLINE
  5
1B3
330
1F
100
AcDbEntity
  8
1
100
AcDbSpline
210
0.0
220
0.0
230
1.0
 70
     8
 71
     3
 72
    25
 73
    21
 74
     0
 42
0.000000001
 43
0.0000000001
 40
0.0
 40
0.0
 40
0.0
 40
0.0
 40
0.2500000000000019
 40
0.2500000000000019
 40
0.3750000000000062
 40
0.3750000000000062
 40
0.4375000000000084
 40
0.4687500000000095
 40
0.4687500000000095
 40
0.5000000000000107
 40
0.5000000000000107
 40
0.7499999999999992
 40
0.7499999999999992
 40
0.8124999999999978
 40
0.8124999999999978
 40
0.8437499999999971
 40
0.8437499999999971
 40
0.8749999999999964
 40
0.8749999999999964
 40
1.0
 40
1.0
 40
1.0
 40
1.0
 10
374.5151378434616
 20
292.0483752987146
 30
0.0
 10
374.0042909370694
 20
292.0259580610339
 30
0.0
 10
373.4958601410539
 20
292.0342545950326
 30
0.0
 10
372.7367569378714
 20
292.0916685491981
 30
0.0
 10
372.4843147384968
 20
292.1183225044218
 30
0.0
 10
372.1065446707797
 20
292.1696253939063
 30
0.0
 10
371.9178831002443
 20
292.1981092332588
 30
0.0
 10
371.729559084925
 20
292.2308681858671
 30
0.0
 10
371.6040851183028
 20
292.253661702408
 30
0.0
 10
371.5413524855571
 20
292.2655422400899
 30
0.0
 10
370.9779704219736
 20
292.3766068763623
 30
0.0
 10
370.4859895194949
 20
292.5045802755136
 30
0.0
 10
369.8819246856519
 20
292.7005921100778
 30
0.0
 10
369.7616592230888
 20
292.7416027557645
 30
0.0
 10
369.5820863872773
 20
292.8058393902508
 30
0.0
 10
369.5223580266372
 20
292.8277087219407
 30
0.0
 10
369.4033803446965
 20
292.8722787689117
 30
0.0
 10
369.3441059969114
 20
292.8949882351087
 30
0.0
 10
369.0488030648888
 20
293.0106478481509
 30
0.0
 10
368.8159778513833
 20
293.1099295315137
 30
0.0
 10
368.5865475626286
 20
293.2158814599457
 30
0.0
  0
SPLINE
  5
1B4
330
1F
100
AcDbEntity
  8
1
100
AcDbSpline
210
0.0
220
0.0
230
1.0
 70
     8
 71
     3
 72
     8
 73
     4
 74
     0
 42
0.000000001
 43
0.0000000001
 40
0.0
 40
0.0
 40
0.0
 40
0.0
 40
1.0
 40
1.0
 40
1.0
 40
1.0
 10
374.5151378434616
 20
292.0483752987146
 30
0.0
 10
374.5185994405131
 20
292.0485272022358
 30
0.0
 10
374.5220618404434
 20
292.048678651382
 30
0.0
 10
374.5255250443748
 20
292.0488296455181
 30
0.0
  0
SPLINE
  5
1B5
330
1F
100
AcDbEntity
  8
1
100
AcDbSpline
210
0.0
220
0.0
230
1.0
 70
     8
 71
     3
 72
    28
 73
    24
 74
     0
 42
0.000000001
 43
0.0000000001
 40
0.0
 40
0.0
 40
0.0
 40
0.0
 40
0.1249999999999968
 40
0.1249999999999968
 40
0.2499999999999935
 40
0.2499999999999935
 40
0.28124999999999
 40
0.28124999999999
 40
0.3124999999999866
 40
0.3749999999999796
 40
0.3749999999999796
 40
0.4999999999999713
 40
0.4999999999999713
 40
0.5312499999999706
 40
0.5312499999999706
 40
0.5624999999999698
 40
0.5624999999999698
 40
0.6249999999999742
 40
0.6249999999999742
 40
0.7499999999999827
 40
0.8749999999999912
 40
0.8749999999999912
 40
1.0
 40
1.0
 40
1.0
 40
1.0
 10
367.8112676801369
 20
291.1287838940933
 30
0.0
 10
368.064284605035
 20
290.9720421890355
 30
0.0
 10
368.3226858000147
 20
290.8252501843667
 30
0.0
 10
368.8501024876867
 20
290.5515415352575
 30
0.0
 10
369.119117626964
 20
290.4246238973897
 30
0.0
 10
369.4620204890146
 20
290.278542997524
 30
0.0
 10
369.5309708454088
 20
290.24994080838
 30
0.0
 10
369.669324871997
 20
290.1940856794729
 30
0.0
 10
369.8775114819875
 20
290.1123339036172
 30
0.0
 10
370.0876531726509
 20
290.0366474062669
 30
0.0
 10
370.5105227860037
 20
289.8933185172793
 30
0.0
 10
370.7958803903578
 20
289.8084802970988
 30
0.0
 10
371.1568709182756
 20
289.7158468086427
 30
0.0
 10
371.2292839962921
 20
289.6979916949429
 30
0.0
 10
371.3745409962872
 20
289.6636287070484
 30
0.0
 10
371.4473989371205
 20
289.6471189474568
 30
0.0
 10
371.6660117728374
 20
289.5997439751382
 30
0.0
 10
371.8120043197189
 20
289.5709834506815
 30
0.0
 10
372.2507231530059
 20
289.4930559833562
 30
0.0
 10
372.8376557981921
 20
289.4114051731774
 30
0.0
 10
373.4284790905622
 20
289.3736619165845
 30
0.0
 10
374.0212558526766
 20
289.3579769241467
 30
0.0
 10
374.3186208711987
 20
289.3611624773774
 30
0.0
 10
374.6169858072764
 20
289.375637841129
 30
0.0
  0
SPLINE
  5
1B6
330
1F
100
AcDbEntity
  8
1
100
AcDbSpline
210
0.0
220
0.0
230
1.0
 70
     8
 71
     3
 72
    79
 73
    75
 74
     0
 42
0.000000001
 43
0.0000000001
 40
0.0
 40
0.0
 40
0.0
 40
0.0
 40
0.0624999999999983
 40
0.0624999999999983
 40
0.1249999999999967
 40
0.1249999999999967
 40
0.1874999999999951
 40
0.1874999999999951
 40
0.2499999999999934
 40
0.2499999999999934
 40
0.2812499999999937
 40
0.2812499999999937
 40
0.3124999999999939
 40
0.3124999999999939
 40
0.3281249999999932
 40
0.3281249999999932
 40
0.3437499999999923
 40
0.3437499999999923
 40
0.3749999999999891
 40
0.3749999999999891
 40
0.4062499999999858
 40
0.4062499999999858
 40
0.4374999999999826
 40
0.4374999999999826
 40
0.4687499999999793
 40
0.4687499999999793
 40
0.4843749999999777
 40
0.4843749999999777
 40
0.4921874999999766
 40
0.4960937499999761
 40
0.4960937499999761
 40
0.4999999999999757
 40
0.4999999999999757
 40
0.5312499999999707
 40
0.5312499999999707
 40
0.5390624999999694
 40
0.5390624999999694
 40
0.542968749999969
 40
0.542968749999969
 40
0.5468749999999685
 40
0.5624999999999663
 40
0.5781249999999641
 40
0.5781249999999641
 40
0.5820312499999638
 40
0.5820312499999638
 40
0.5859374999999637
 40
0.5859374999999637
 40
0.5937499999999649
 40
0.5937499999999649
 40
0.6093749999999668
 40
0.6093749999999668
 40
0.6249999999999689
 40
0.6249999999999689
 40
0.6406249999999709
 40
0.6406249999999709
 40
0.6562499999999729
 40
0.6562499999999729
 40
0.6874999999999769
 40
0.6874999999999769
 40
0.7187499999999809
 40
0.7187499999999809
 40
0.7499999999999849
 40
0.7499999999999849
 40
0.7812499999999892
 40
0.7812499999999892
 40
0.7968749999999912
 40
0.7968749999999912
 40
0.8124999999999932
 40
0.8124999999999932
 40
0.8749999999999953
 40
0.8749999999999953
 40
0.9374999999999975
 40
0.9374999999999975
 40
1.0
 40
1.0
 40
1.0
 40
1.0
 10
368.5865475626285
 20
293.2158814599457
 30
0.0
 10
368.7746259825963
 20
293.0887564484912
 30
0.0
 10
368.9619996553382
 20
292.9669855447635
 30
0.0
 10
369.3347211180169
 20
292.7333481636964
 30
0.0
 10
369.5200737253128
 20
292.6214840386284
 30
0.0
 10
369.8878340039182
 20
292.4069243316325
 30
0.0
 10
370.0702512466488
 20
292.3042317000635
 30
0.0
 10
370.4307102447936
 20
292.1072655618268
 30
0.0
 10
370.608761514729
 20
292.0129980816704
 30
0.0
 10
370.8707290660447
 20
291.8772557536437
 30
0.0
 10
370.9571917704875
 20
291.8329500062402
 30
0.0
 10
371.1279295296922
 20
291.7460834891923
 30
0.0
 10
371.2122072483248
 20
291.7035231846776
 30
0.0
 10
371.3364989306957
 20
291.6408644246606
 30
0.0
 10
371.3775482608987
 20
291.6201875996545
 30
0.0
 10
371.4586242038961
 20
291.5793050173727
 30
0.0
 10
371.4986730682247
 20
291.5590881419192
 30
0.0
 10
371.6171565980515
 20
291.4990711065609
 30
0.0
 10
371.6939466654693
 20
291.4599063826363
 30
0.0
 10
371.8417257973336
 20
291.3830214722944
 30
0.0
 10
371.9127339352589
 20
291.345300028571
 30
0.0
 10
372.0467867396101
 20
291.2709925581946
 30
0.0
 10
372.1092736238861
 20
291.2347195142414
 30
0.0
 10
372.221854537273
 20
291.1636753143238
 30
0.0
 10
372.2719907646007
 20
291.1289017570664
 30
0.0
 10
372.3339451378846
 20
291.0776878476751
 30
0.0
 10
372.3523692141066
 20
291.0607745852591
 30
0.0
 10
372.3759121180535
 20
291.0356290329637
 30
0.0
 10
372.3866570282952
 20
291.0231124921924
 30
0.0
 10
372.3956855957032
 20
291.0106799292748
 30
0.0
 10
372.4013005993325
 20
291.0024103747895
 30
0.0
 10
372.4039092258282
 20
290.9982791530662
 30
0.0
 10
372.4253484372109
 20
290.9613915086809
 30
0.0
 10
372.4301384325219
 20
290.9304333496468
 30
0.0
 10
372.4137774499612
 20
290.8945613566032
 30
0.0
 10
372.4093856722547
 20
290.8875304043771
 30
0.0
 10
372.4010290481583
 20
290.8772164525288
 30
0.0
 10
372.3979435470757
 20
290.8738133778349
 30
0.0
 10
372.3912247308709
 20
290.8671397034218
 30
0.0
 10
372.3730371140387
 20
290.8507565795847
 30
0.0
 10
372.3279426968013
 20
290.8239689580733
 30
0.0
 10
372.2712959696313
 20
290.8040421349806
 30
0.0
 10
372.2310830123541
 20
290.7928278835582
 30
0.0
 10
372.2228001401655
 20
290.7906470604416
 30
0.0
 10
372.2057636003624
 20
290.7864102471171
 30
0.0
 10
372.1970029574119
 20
290.7843530877059
 30
0.0
 10
372.1702062747119
 20
290.7784069878711
 30
0.0
 10
372.1516041253057
 20
290.7747295393786
 30
0.0
 10
372.0937972291217
 20
290.7645160284033
 30
0.0
 10
372.0525987376571
 20
290.7587971531714
 30
0.0
 10
371.9658302433447
 20
290.7493687278823
 30
0.0
 10
371.9202584706474
 20
290.7456597460096
 30
0.0
 10
371.8254950918051
 20
290.7401277400927
 30
0.0
 10
371.776298886396
 20
290.7383050269073
 30
0.0
 10
371.6749037306647
 20
290.7364545638417
 30
0.0
 10
371.6231911050583
 20
290.7364343686357
 30
0.0
 10
371.4656663826303
 20
290.7388504997813
 30
0.0
 10
371.3575010254198
 20
290.7437508140618
 30
0.0
 10
371.1371802307267
 20
290.7593267294735
 30
0.0
 10
371.0250055674975
 20
290.7700098321374
 30
0.0
 10
370.7980338276769
 20
290.7967047460807
 30
0.0
 10
370.6832276826664
 20
290.8127199001069
 30
0.0
 10
370.4518861926452
 20
290.8498111602777
 30
0.0
 10
370.3353461049748
 20
290.8708889108157
 30
0.0
 10
370.1596949188024
 20
290.9061841307924
 30
0.0
 10
370.1009578341894
 20
290.918573189962
 30
0.0
 10
369.9835220533272
 20
290.9445073909461
 30
0.0
 10
369.9248248337734
 20
290.9580510054286
 30
0.0
 10
369.631538175025
 20
291.0285993118953
 30
0.0
 10
369.3975911011775
 20
291.0940622862982
 30
0.0
 10
368.9326664366319
 20
291.242289828815
 30
0.0
 10
368.701672355522
 20
291.3250599234847
 30
0.0
 10
368.2434616153364
 20
291.5078419602798
 30
0.0
 10
368.0162368984817
 20
291.6078562936558
 30
0.0
 10
367.7911528952159
 20
291.7166936872343
 30
0.0
  0
SPLINE
  5
1B7
330
1F
100
AcDbEntity
  8
1
100
AcDbSpline
210
0.0
220
0.0
230
1.0
 70
     9
 71
     3
 72
   127
 73
   123
 74
     0
 42
0.000000001
 43
0.0000000001
 40
0.0
 40
0.0
 40
0.0
 40
0.0
 40
0.0312499999999821
 40
0.0312499999999821
 40
0.0468749999999706
 40
0.0468749999999706
 40
0.0546874999999648
 40
0.0546874999999648
 40
0.0624999999999591
 40
0.0624999999999591
 40
0.0937499999999412
 40
0.0937499999999412
 40
0.1015624999999399
 40
0.1015624999999399
 40
0.1093749999999386
 40
0.1093749999999386
 40
0.1249999999999324
 40
0.1249999999999324
 40
0.15624999999992
 40
0.15624999999992
 40
0.1874999999999077
 40
0.1874999999999077
 40
0.2031249999999006
 40
0.2031249999999006
 40
0.2109374999998965
 40
0.2109374999998965
 40
0.2187499999998924
 40
0.2187499999998924
 40
0.2499999999998753
 40
0.2499999999998753
 40
0.2578124999998708
 40
0.2578124999998708
 40
0.2656249999998664
 40
0.2656249999998664
 40
0.2812499999998578
 40
0.2812499999998578
 40
0.3124999999998406
 40
0.3124999999998406
 40
0.3203124999998367
 40
0.3203124999998367
 40
0.3281249999998328
 40
0.3437499999998222
 40
0.3437499999998222
 40
0.3749999999998011
 40
0.3749999999998011
 40
0.3828124999997941
 40
0.3828124999997941
 40
0.3906249999997871
 40
0.4062499999997768
 40
0.4218749999997665
 40
0.4218749999997665
 40
0.4296874999997613
 40
0.4296874999997613
 40
0.4374999999997561
 40
0.4374999999997561
 40
0.4687499999997308
 40
0.4687499999997308
 40
0.4843749999997181
 40
0.4843749999997181
 40
0.4921874999997143
 40
0.4921874999997143
 40
0.4999999999997107
 40
0.4999999999997107
 40
0.5312499999997112
 40
0.5312499999997112
 40
0.539062499999715
 40
0.539062499999715
 40
0.546874999999719
 40
0.546874999999719
 40
0.5624999999997269
 40
0.5781249999997349
 40
0.5781249999997349
 40
0.5859374999997387
 40
0.5859374999997387
 40
0.5937499999997426
 40
0.5937499999997426
 40
0.6249999999997628
 40
0.6249999999997628
 40
0.6328124999997678
 40
0.6328124999997678
 40
0.6406249999997728
 40
0.6406249999997728
 40
0.6562499999997833
 40
0.6562499999997833
 40
0.6874999999998043
 40
0.6874999999998043
 40
0.695312499999809
 40
0.695312499999809
 40
0.7031249999998137
 40
0.7187499999998228
 40
0.7343749999998318
 40
0.7343749999998318
 40
0.7421874999998363
 40
0.7421874999998363
 40
0.7499999999998406
 40
0.7499999999998406
 40
0.7812499999998585
 40
0.7812499999998585
 40
0.7968749999998669
 40
0.7968749999998669
 40
0.8124999999998752
 40
0.8124999999998752
 40
0.8437499999998918
 40
0.8437499999998918
 40
0.8593749999999015
 40
0.8593749999999015
 40
0.8671874999999065
 40
0.8671874999999065
 40
0.8749999999999113
 40
0.8749999999999113
 40
0.9062499999999417
 40
0.9062499999999417
 40
0.9218749999999548
 40
0.9218749999999548
 40
0.937499999999968
 40
0.9531249999999808
 40
0.9531249999999808
 40
0.9609374999999849
 40
0.9609374999999849
 40
0.9687499999999889
 40
0.9687499999999889
 40
1.0
 40
1.0
 40
1.0
 40
1.0
 10
378.4246469271758
 20
286.5433679557893
 30
0.0
 10
378.5088673741515
 20
286.5418978824191
 30
0.0
 10
378.5914758995003
 20
286.5320273178685
 30
0.0
 10
378.7130711551776
 20
286.5051582482874
 30
0.0
 10
378.7532136223143
 20
286.4941758116103
 30
0.0
 10
378.8128288820261
 20
286.4745916059239
 30
0.0
 10
378.8326571126928
 20
286.4675212202245
 30
0.0
 10
378.8717592496978
 20
286.4524568087218
 30
0.0
 10
378.8910395891094
 20
286.4444647727891
 30
0.0
 10
378.9861147534641
 20
286.4022539742737
 30
0.0
 10
379.0579686713082
 20
286.361348196621
 30
0.0
 10
379.1425589974393
 20
286.3013941915975
 30
0.0
 10
379.1592133055863
 20
286.2889582784327
 30
0.0
 10
379.191985356964
 20
286.2631823177123
 30
0.0
 10
379.2080915718857
 20
286.2498465729303
 30
0.0
 10
379.2550651785309
 20
286.2089391514319
 30
0.0
 10
379.2847781866553
 20
286.1803262209481
 30
0.0
 10
379.369253071436
 20
286.0906020709422
 30
0.0
 10
379.4194071456502
 20
286.0256206195875
 30
0.0
 10
379.507002848214
 20
285.8852904119931
 30
0.0
 10
379.543040652164
 20
285.8122038917822
 30
0.0
 10
379.5861157482318
 20
285.6985037321614
 30
0.0
 10
379.5986302485658
 20
285.6599199326075
 30
0.0
 10
379.6146012966375
 20
285.6010118760922
 30
0.0
 10
379.6194676005767
 20
285.5811548626299
 30
0.0
 10
379.6281965626254
 20
285.5413397420303
 30
0.0
 10
379.6320545846038
 20
285.5214163310488
 30
0.0
 10
379.6488712703901
 20
285.4217238004969
 30
0.0
 10
379.6544773905083
 20
285.3417320068756
 30
0.0
 10
379.6519065856214
 20
285.24146587374
 30
0.0
 10
379.6509093204488
 20
285.2213985966372
 30
0.0
 10
379.6479374644028
 20
285.1812355346527
 30
0.0
 10
379.6459560954842
 20
285.161089355052
 30
0.0
 10
379.6385727656244
 20
285.1010192681842
 30
0.0
 10
379.631755917555
 20
285.0615315223187
 30
0.0
 10
379.605808411011
 20
284.9446832604018
 30
0.0
 10
379.5812322084828
 20
284.8689241428578
 30
0.0
 10
379.5412398608233
 20
284.7769067293074
 30
0.0
 10
379.5327617070512
 20
284.7586144058906
 30
0.0
 10
379.5149005663138
 20
284.7224087699057
 30
0.0
 10
379.4868856154022
 20
284.6689428821759
 30
0.0
 10
379.4552773996063
 20
284.6179442124662
 30
0.0
 10
379.3873219735058
 20
284.5191771026555
 30
0.0
 10
379.3357502864401
 20
284.4576062065087
 30
0.0
 10
379.2629065122852
 20
284.3862619780351
 30
0.0
 10
379.2479434384539
 20
284.3723091669218
 30
0.0
 10
379.2174994093856
 20
284.345279535477
 30
0.0
 10
379.1709422701083
 20
284.3059421954084
 30
0.0
 10
379.0889424558508
 20
284.2463270667503
 30
0.0
 10
379.0186131587631
 20
284.2049814907213
 30
0.0
 10
378.9640262710859
 20
284.1764271836963
 30
0.0
 10
378.9455234124878
 20
284.1673190046142
 30
0.0
 10
378.9078845500301
 20
284.1499452169103
 30
0.0
 10
378.8887160262774
 20
284.1416699028938
 30
0.0
 10
378.7924378757318
 20
284.1029283100606
 30
0.0
 10
378.7131912327688
 20
284.0798678261436
 30
0.0
 10
378.5909840940089
 20
284.0571055321007
 30
0.0
 10
378.5496883079102
 20
284.0515037717123
 30
0.0
 10
378.4868665966087
 20
284.0462092633753
 30
0.0
 10
378.4658233878125
 20
284.044970938576
 30
0.0
 10
378.4239673154696
 20
284.0435616356011
 30
0.0
 10
378.4030927761997
 20
284.0433849083652
 30
0.0
 10
378.2989831883204
 20
284.0450975812487
 30
0.0
 10
378.2165299382354
 20
284.0546986982685
 30
0.0
 10
378.1145133089963
 20
284.0770843306535
 30
0.0
 10
378.0941030810716
 20
284.0821031359359
 30
0.0
 10
378.0537722091225
 20
284.0931023574608
 30
0.0
 10
378.0338405951262
 20
284.0990812252344
 30
0.0
 10
377.9747292967735
 20
284.1184212103406
 30
0.0
 10
377.8977330862145
 20
284.1479421030018
 30
0.0
 10
377.8242705429964
 20
284.1847473778234
 30
0.0
 10
377.7704989812085
 20
284.2150967957992
 30
0.0
 10
377.7527807659305
 20
284.2256816167032
 30
0.0
 10
377.7178576545657
 20
284.247739287963
 30
0.0
 10
377.700761903484
 20
284.2591420256568
 30
0.0
 10
377.6170584718074
 20
284.3179763415083
 30
0.0
 10
377.5557238659517
 20
284.3708154814121
 30
0.0
 10
377.4857983365762
 20
284.4438763819351
 30
0.0
 10
377.472153595939
 20
284.4588424861292
 30
0.0
 10
377.4455503459295
 20
284.489490734645
 30
0.0
 10
377.4325721509106
 20
284.5052013060563
 30
0.0
 10
377.3950410320434
 20
284.5529518570442
 30
0.0
 10
377.3717700151676
 20
284.5857346587759
 30
0.0
 10
377.3070146811135
 20
284.6868511681251
 30
0.0
 10
377.2705403009167
 20
284.7579275062421
 30
0.0
 10
377.2334379782634
 20
284.8514902389764
 30
0.0
 10
377.2264415522701
 20
284.8704615826745
 30
0.0
 10
377.2134460756295
 20
284.9085017877253
 30
0.0
 10
377.1953961054909
 20
284.9658447087183
 30
0.0
 10
377.1723809383957
 20
285.0628089214774
 30
0.0
 10
377.1614236181035
 20
285.1418616110422
 30
0.0
 10
377.1560488466768
 20
285.2017186760451
 30
0.0
 10
377.1547319478229
 20
285.2217657641698
 30
0.0
 10
377.1530658845044
 20
285.2620532224894
 30
0.0
 10
377.1527179828031
 20
285.2823483685323
 30
0.0
 10
377.15344788213
 20
285.3834974864737
 30
0.0
 10
377.1618100908284
 20
285.4633840271609
 30
0.0
 10
377.1858225598565
 20
285.5816696209844
 30
0.0
 10
377.1957512387745
 20
285.6208387447624
 30
0.0
 10
377.2195862009945
 20
285.6986333681328
 30
0.0
 10
377.2335739999882
 20
285.7374088173028
 30
0.0
 10
377.2807458807619
 20
285.8504144129227
 30
0.0
 10
377.3192438920806
 20
285.9220708152329
 30
0.0
 10
377.3875987633957
 20
286.0239521489747
 30
0.0
 10
377.4121633823116
 20
286.0569724394425
 30
0.0
 10
377.4517995810597
 20
286.1050196765162
 30
0.0
 10
377.4654073167338
 20
286.1207000352309
 30
0.0
 10
377.4932705083719
 20
286.1512449267966
 30
0.0
 10
377.5075463889012
 20
286.1661343454661
 30
0.0
 10
377.5806264654155
 20
286.2386857530461
 30
0.0
 10
377.6444835925839
 20
286.2907154214166
 30
0.0
 10
377.748550943376
 20
286.3594595885475
 30
0.0
 10
377.7848056036122
 20
286.3808850662003
 30
0.0
 10
377.8585685016151
 20
286.4196192275433
 30
0.0
 10
377.9338745896867
 20
286.4544714909815
 30
0.0
 10
378.0122106641255
 20
286.4816856067302
 30
0.0
 10
378.0721119888613
 20
286.4991940216032
 30
0.0
 10
378.09227099457
 20
286.504545586882
 30
0.0
 10
378.1329794288774
 20
286.5142621503935
 30
0.0
 10
378.1535766428672
 20
286.5186355295234
 30
0.0
 10
378.2569314301929
 20
286.5378598828672
 30
0.0
 10
378.3404264801999
 20
286.5448380291595
 30
0.0
 10
378.4246469271757
 20
286.5433679557893
 30
0.0
  0
SPLINE
  5
1B8
330
1F
100
AcDbEntity
  8
1
100
AcDbSpline
210
0.0
220
0.0
230
1.0
 70
     8
 71
     3
 72
    10
 73
     6
 74
     0
 42
0.000000001
 43
0.0000000001
 40
0.0
 40
0.0
 40
0.0
 40
0.0
 40
0.5
 40
0.5
 40
1.0
 40
1.0
 40
1.0
 40
1.0
 10
367.9085058473523
 20
293.5910196710912
 30
0.0
 10
367.8666783571865
 20
293.6158008552644
 30
0.0
 10
367.8269696621302
 20
293.6425471085142
 30
0.0
 10
367.7526858200245
 20
293.7008621520881
 30
0.0
 10
367.71806931036
 20
293.7323922142985
 30
0.0
 10
367.6870307647413
 20
293.7673095692129
 30
0.0
  0
SPLINE
  5
1B9
330
1F
100
AcDbEntity
  8
1
100
AcDbSpline
210
0.0
220
0.0
230
1.0
 70
     8
 71
     3
 72
    19
 73
    15
 74
     0
 42
0.000000001
 43
0.0000000001
 40
0.0
 40
0.0
 40
0.0
 40
0.0
 40
0.2500000000000001
 40
0.2500000000000001
 40
0.5000000000000001
 40
0.5000000000000001
 40
0.6250000000000001
 40
0.6250000000000001
 40
0.6562500000000011
 40
0.6562500000000011
 40
0.6875000000000022
 40
0.7500000000000043
 40
0.7500000000000043
 40
1.0
 40
1.0
 40
1.0
 40
1.0
 10
295.51455826922
 20
275.4937496534532
 30
0.0
 10
295.6977111984736
 20
275.4820813094462
 30
0.0
 10
295.8852468890669
 20
275.4729126541233
 30
0.0
 10
296.2692865892008
 20
275.4581786585421
 30
0.0
 10
296.4657887033844
 20
275.4526137632396
 30
0.0
 10
296.7676537342663
 20
275.4462249123879
 30
0.0
 10
296.8694633278577
 20
275.4444247876037
 30
0.0
 10
296.9982733161307
 20
275.4425334048203
 30
0.0
 10
297.0241376150697
 20
275.4421728198043
 30
0.0
 10
297.0758684102624
 20
275.4414886078418
 30
0.0
 10
297.1534753261083
 20
275.4405175168744
 30
0.0
 10
297.2311142526645
 20
275.4397050202219
 30
0.0
 10
297.489981253229
 20
275.4373234501973
 30
0.0
 10
297.6973001158082
 20
275.4364407636425
 30
0.0
 10
297.9048419452959
 20
275.4364407636425
 30
0.0
  0
SPLINE
  5
1BA
330
1F
100
AcDbEntity
  8
1
100
AcDbSpline
210
0.0
220
0.0
230
1.0
 70
     8
 71
     3
 72
    14
 73
    10
 74
     0
 42
0.000000001
 43
0.0000000001
 40
0.0
 40
0.0
 40
0.0
 40
0.0
 40
0.25
 40
0.25
 40
0.5
 40
0.5
 40
0.75
 40
0.75
 40
1.0
 40
1.0
 40
1.0
 40
1.0
 10
308.9693671431039
 20
275.4837380155175
 30
0.0
 10
308.0519761103754
 20
275.4613321990192
 30
0.0
 10
307.1335869857232
 20
275.4443513716692
 30
0.0
 10
305.2945355810704
 20
275.4200828041998
 30
0.0
 10
304.3738730554981
 20
275.4127934965555
 30
0.0
 10
302.5300488478947
 20
275.4066376115271
 30
0.0
 10
301.6068871135975
 20
275.4077693459002
 30
0.0
 10
299.7578947157586
 20
275.4171239865704
 30
0.0
 10
298.8320641421034
 20
275.4253453113944
 30
0.0
 10
297.9048419452959
 20
275.4364407636425
 30
0.0
  0
SPLINE
  5
1BB
330
1F
100
AcDbEntity
  8
1
100
AcDbSpline
210
0.0
220
0.0
230
1.0
 70
     8
 71
     3
 72
    14
 73
    10
 74
     0
 42
0.000000001
 43
0.0000000001
 40
0.0
 40
0.0
 40
0.0
 40
0.0
 40
0.25
 40
0.25
 40
0.5
 40
0.5
 40
0.75
 40
0.75
 40
1.0
 40
1.0
 40
1.0
 40
1.0
 10
292.7038318185191
 20
275.6048419535007
 30
0.0
 10
292.9382816928925
 20
275.5938331129653
 30
0.0
 10
293.1726256067106
 20
275.5832204660028
 30
0.0
 10
293.6411119265568
 20
275.5628245212168
 30
0.0
 10
293.875254396975
 20
275.5530422840814
 30
0.0
 10
294.3434667512148
 20
275.5343987281514
 30
0.0
 10
294.5775372928459
 20
275.5255386773914
 30
0.0
 10
295.0458432360704
 20
275.5088484206531
 30
0.0
 10
295.280079690043
 20
275.5010193489625
 30
0.0
 10
295.5145582692201
 20
275.4937496534534
 30
0.0
  0
SPLINE
  5
1BC
330
1F
100
AcDbEntity
  8
1
100
AcDbSpline
210
0.0
220
0.0
230
1.0
 70
     8
 71
     3
 72
    18
 73
    14
 74
     0
 42
0.000000001
 43
0.0000000001
 40
0.0
 40
0.0
 40
0.0
 40
0.0
 40
0.2499999999999897
 40
0.2499999999999897
 40
0.4999999999999793
 40
0.4999999999999793
 40
0.7499999999999691
 40
0.7499999999999691
 40
0.8124999999999767
 40
0.8124999999999767
 40
0.8749999999999843
 40
0.8749999999999843
 40
1.0
 40
1.0
 40
1.0
 40
1.0
 10
374.5153115031387
 20
292.2577457885598
 30
0.0
 10
374.4427270065253
 20
292.2688323611575
 30
0.0
 10
374.3716277823413
 20
292.2838559888879
 30
0.0
 10
374.2318133783483
 20
292.3213528039291
 30
0.0
 10
374.1631011424202
 20
292.343828087676
 30
0.0
 10
374.0276653949635
 20
292.3962567095732
 30
0.0
 10
373.9609456309237
 20
292.4262075400871
 30
0.0
 10
373.8785959340497
 20
292.4686142962622
 30
0.0
 10
373.8621774143336
 20
292.4773471943043
 30
0.0
 10
373.8296648625756
 20
292.4951969199313
 30
0.0
 10
373.8135430086405
 20
292.5043277547638
 30
0.0
 10
373.7655771546534
 20
292.5323312908109
 30
0.0
 10
373.7341326172952
 20
292.5518147070064
 30
0.0
 10
373.7032144775437
 20
292.5720985054022
 30
0.0
  0
SPLINE
  5
1BD
330
1F
100
AcDbEntity
  8
1
100
AcDbSpline
210
0.0
220
0.0
230
1.0
 70
    12
 71
     2
 72
     6
 73
     3
 74
     0
 42
0.000000001
 43
0.0000000001
 40
0.0
 40
0.0
 40
0.0
 40
1.0
 40
1.0
 40
1.0
 10
372.9612578574455
 20
302.3372701095757
 30
0.0
 41
0.5000001961451975
 10
373.073480889529
 20
302.337069843786
 30
0.0
 41
0.4999998038548026
 10
373.1857024248288
 20
302.3368690124053
 30
0.0
 41
0.5000001961451975
  0
SPLINE
  5
1BE
330
1F
100
AcDbEntity
  8
1
100
AcDbSpline
210
0.0
220
0.0
230
1.0
 70
     8
 71
     3
 72
    10
 73
     6
 74
     0
 42
0.000000001
 43
0.0000000001
 40
0.0
 40
0.0
 40
0.0
 40
0.0
 40
0.5
 40
0.5
 40
1.0
 40
1.0
 40
1.0
 40
1.0
 10
371.9195122910629
 20
298.8710506666026
 30
0.0
 10
371.7288027151841
 20
299.4366729126043
 30
0.0
 10
371.5512162170668
 20
300.0063726672959
 30
0.0
 10
371.2182912410109
 20
301.1526849220867
 30
0.0
 10
371.0630721177943
 20
301.7288898078909
 30
0.0
 10
370.9173585466435
 20
302.3076171469611
 30
0.0
  0
SPLINE
  5
1BF
330
1F
100
AcDbEntity
  8
1
100
AcDbSpline
210
0.0
220
0.0
230
1.0
 70
    28
 71
     4
 72
    13
 73
     8
 74
     0
 42
0.000000001
 43
0.0000000001
 40
0.0
 40
0.0
 40
0.0
 40
0.0
 40
0.0
 40
0.3650959392561307
 40
0.3650959392561307
 40
0.3650959392561307
 40
1.0
 40
1.0
 40
1.0
 40
1.0
 40
1.0
 10
297.9048419452959
 20
284.4825566466163
 30
0.0
 41
0.9970039865930488
 10
297.9048419452959
 20
283.6703788201252
 30
0.0
 41
0.9970039865930488
 10
297.9048419452959
 20
282.7770007074716
 30
0.0
 41
0.9985019932965244
 10
297.9048419452959
 20
281.8575566466163
 30
0.0
 41
1.001498006703475
 10
297.9048419452959
 20
279.460926320399
 30
0.0
 41
1.001498006703475
 10
297.9048419452959
 20
277.7922628364507
 30
0.0
 41
0.9924376362146643
 10
297.9048419452959
 20
276.396457680051
 30
0.0
 41
0.9979509543842508
 10
297.9048419452959
 20
275.4364407636425
 30
0.0
 41
1.000572247639439
  0
SPLINE
  5
1C0
330
1F
100
AcDbEntity
  8
1
100
AcDbSpline
210
0.0
220
0.0
230
1.0
 70
     8
 71
     3
 72
     8
 73
     4
 74
     0
 42
0.000000001
 43
0.0000000001
 40
0.0
 40
0.0
 40
0.0
 40
0.0
 40
1.0
 40
1.0
 40
1.0
 40
1.0
 10
368.5865475626285
 20
293.2158814599457
 30
0.0
 10
368.3582579426171
 20
293.3334991061026
 30
0.0
 10
368.1322953239064
 20
293.4584329867712
 30
0.0
 10
367.9085058473523
 20
293.5910196710912
 30
0.0
  0
SPLINE
  5
1C1
330
1F
100
AcDbEntity
  8
1
100
AcDbSpline
210
0.0
220
0.0
230
1.0
 70
     8
 71
     3
 72
    52
 73
    48
 74
     0
 42
0.000000001
 43
0.0000000001
 40
0.0
 40
0.0
 40
0.0
 40
0.0
 40
0.1250000000000071
 40
0.1250000000000071
 40
0.2500000000000142
 40
0.2500000000000142
 40
0.3125000000000149
 40
0.3125000000000149
 40
0.3750000000000157
 40
0.3750000000000157
 40
0.4062500000000135
 40
0.4062500000000135
 40
0.4375000000000114
 40
0.4375000000000114
 40
0.5000000000000121
 40
0.5000000000000121
 40
0.531250000000015
 40
0.531250000000015
 40
0.5468750000000142
 40
0.5468750000000142
 40
0.5625000000000134
 40
0.5625000000000134
 40
0.6250000000000102
 40
0.6250000000000102
 40
0.687500000000007
 40
0.687500000000007
 40
0.7187500000000055
 40
0.7187500000000055
 40
0.7343750000000046
 40
0.7343750000000046
 40
0.7500000000000036
 40
0.7500000000000036
 40
0.8125000000000044
 40
0.8125000000000044
 40
0.8437500000000046
 40
0.8437500000000046
 40
0.859375000000004
 40
0.859375000000004
 40
0.8750000000000037
 40
0.8750000000000037
 40
0.9375000000000015
 40
0.9375000000000015
 40
0.96875
 40
0.96875
 40
0.984375
 40
0.984375
 40
1.0
 40
1.0
 40
1.0
 40
1.0
 10
367.8013571187172
 20
294.2586405455713
 30
0.0
 10
368.0703919179614
 20
294.3490805040529
 30
0.0
 10
368.3358890594352
 20
294.4474821534774
 30
0.0
 10
368.8583866505447
 20
294.6634077187667
 30
0.0
 10
369.1154005389027
 20
294.7809013900563
 30
0.0
 10
369.493019318532
 20
294.9749258962225
 30
0.0
 10
369.6175692469018
 20
295.0425782108524
 30
0.0
 10
369.8636585138391
 20
295.1846583359691
 30
0.0
 10
369.985199487625
 20
295.2590824663074
 30
0.0
 10
370.1648945873766
 20
295.3766069241773
 30
0.0
 10
370.2243652004181
 20
295.4167769073178
 30
0.0
 10
370.341699324973
 20
295.4987766757549
 30
0.0
 10
370.3996441957399
 20
295.5406582140108
 30
0.0
 10
370.5711708641958
 20
295.669120375065
 30
0.0
 10
370.6824548394551
 20
295.7585061878892
 30
0.0
 10
370.8440638613361
 20
295.8990758481533
 30
0.0
 10
370.897045101009
 20
295.9470170054022
 30
0.0
 10
370.975068386381
 20
296.02069716588
 30
0.0
 10
371.0008345036912
 20
296.0455522198381
 30
0.0
 10
371.0518611852343
 20
296.0958795088001
 30
0.0
 10
371.0771460949926
 20
296.1213772637913
 30
0.0
 10
371.2018698977449
 20
296.2500924293303
 30
0.0
 10
371.2962646235175
 20
296.3569849141606
 30
0.0
 10
371.4726710161807
 20
296.5797860616837
 30
0.0
 10
371.5546969898815
 20
296.695684307504
 30
0.0
 10
371.6666602078865
 20
296.8775959893987
 30
0.0
 10
371.7021279867913
 20
296.9395826107652
 30
0.0
 10
371.7522327087219
 20
297.0348174476879
 30
0.0
 10
371.7684471227675
 20
297.0670020383462
 30
0.0
 10
371.7996176766547
 20
297.1318304505721
 30
0.0
 10
371.8145634784559
 20
297.1644460047249
 30
0.0
 10
371.8860090919793
 20
297.3285576002614
 30
0.0
 10
371.9327085028798
 20
297.4631394402367
 30
0.0
 10
371.9848739313301
 20
297.6706431391727
 30
0.0
 10
371.999272232971
 20
297.7407525387073
 30
0.0
 10
372.0159996481656
 20
297.847450040001
 30
0.0
 10
372.0207594354593
 20
297.8832939107986
 30
0.0
 10
372.0285127475028
 20
297.9547042761178
 30
0.0
 10
372.0315236215857
 20
297.9903689258149
 30
0.0
 10
372.042261549374
 20
298.168490093154
 30
0.0
 10
372.0370685033835
 20
298.3103417357205
 30
0.0
 10
372.0084790815257
 20
298.522145421281
 30
0.0
 10
371.9954767780235
 20
298.592584079352
 30
0.0
 10
371.9706996161846
 20
298.6979951694728
 30
0.0
 10
371.9615923260192
 20
298.732953017504
 30
0.0
 10
371.9417633465014
 20
298.8023480094014
 30
0.0
 10
371.9310351768986
 20
298.8368129202438
 30
0.0
 10
371.9195122910631
 20
298.8710506666026
 30
0.0
  0
SPLINE
  5
1C2
330
1F
100
AcDbEntity
  8
1
100
AcDbSpline
210
0.0
220
0.0
230
1.0
 70
    12
 71
     3
 72
     9
 73
     5
 74
     0
 42
0.000000001
 43
0.0000000001
 40
0.0
 40
0.0
 40
0.0
 40
0.0
 40
0.4110031992020093
 40
1.0
 40
1.0
 40
1.0
 40
1.0
 10
343.5939822712501
 20
298.6710494158793
 30
0.0
 41
1.001477635179639
 10
347.4865096824724
 20
298.7155513860733
 30
0.0
 41
1.001483870143387
 10
356.9549716005004
 20
298.3920364324654
 30
0.0
 41
1.001556903793922
 10
366.4456975135043
 20
298.1022558149883
 30
0.0
 41
1.001456954873059
 10
371.9195122910747
 20
298.8710506666042
 30
0.0
 41
1.001484250352719
  0
SPLINE
  5
1C3
330
1F
100
AcDbEntity
  8
1
100
AcDbSpline
210
0.0
220
0.0
230
1.0
 70
     8
 71
     3
 72
    17
 73
    13
 74
     0
 42
0.000000001
 43
0.0000000001
 40
0.0
 40
0.0
 40
0.0
 40
0.0
 40
0.2499999999999993
 40
0.2499999999999993
 40
0.4999999999999988
 40
0.4999999999999988
 40
0.5624999999999984
 40
0.5624999999999984
 40
0.6249999999999984
 40
0.7499999999999983
 40
0.7499999999999983
 40
1.0
 40
1.0
 40
1.0
 40
1.0
 10
287.8363153030266
 20
285.964384469255
 30
0.0
 10
288.2228968193262
 20
285.9695997296615
 30
0.0
 10
288.615383420493
 20
285.9647210938562
 30
0.0
 10
289.4121365338284
 20
285.9348277527892
 30
0.0
 10
289.8164025132096
 20
285.9098139582513
 30
0.0
 10
290.3292228974285
 20
285.8657472061803
 30
0.0
 10
290.4322476804088
 20
285.8562835111067
 30
0.0
 10
290.6382161299485
 20
285.8361501680963
 30
0.0
 10
290.9472923846125
 20
285.8041227448223
 30
0.0
 10
291.2567352500348
 20
285.7666741709598
 30
0.0
 10
291.8761015121238
 20
285.6846713063939
 30
0.0
 10
292.289652127513
 20
285.6205422570242
 30
0.0
 10
292.7038318185191
 20
285.5471109338565
 30
0.0
  0
SPLINE
  5
1C4
330
1F
100
AcDbEntity
  8
1
100
AcDbSpline
210
0.0
220
0.0
230
1.0
 70
     8
 71
     3
 72
    20
 73
    16
 74
     0
 42
0.000000001
 43
0.0000000001
 40
0.0
 40
0.0
 40
0.0
 40
0.0
 40
0.1249999999999999
 40
0.1249999999999999
 40
0.2499999999999998
 40
0.2499999999999998
 40
0.3749999999999997
 40
0.3749999999999997
 40
0.4999999999999997
 40
0.4999999999999997
 40
0.7499999999999999
 40
0.7499999999999999
 40
0.8749999999999998
 40
0.8749999999999998
 40
1.0
 40
1.0
 40
1.0
 40
1.0
 10
279.4048419452957
 20
273.1092229681312
 30
0.0
 10
279.5338452045548
 20
273.0959691691414
 30
0.0
 10
279.6651438252224
 20
273.0907529478181
 30
0.0
 10
279.9317200569342
 20
273.093996015938
 30
0.0
 10
280.0669994414224
 20
273.1024625097274
 30
0.0
 10
280.341013711245
 20
273.131172113844
 30
0.0
 10
280.4797496672167
 20
273.1514194894385
 30
0.0
 10
280.7601949673607
 20
273.2021036835174
 30
0.0
 10
280.9019049497946
 20
273.2325430529297
 30
0.0
 10
281.3307967413576
 20
273.337084849573
 30
0.0
 10
281.6217429408257
 20
273.4243526313559
 30
0.0
 10
282.0629008705337
 20
273.5746754387899
 30
0.0
 10
282.210823612435
 20
273.6280676329762
 30
0.0
 10
282.5072113445208
 20
273.7401590369438
 30
0.0
 10
282.6557131765227
 20
273.7988668618008
 30
0.0
 10
282.8043368819074
 20
273.8598080409658
 30
0.0
  0
SPLINE
  5
1C5
330
1F
100
AcDbEntity
  8
1
100
AcDbSpline
210
0.0
220
0.0
230
1.0
 70
     8
 71
     3
 72
    31
 73
    27
 74
     0
 42
0.000000001
 43
0.0000000001
 40
0.0
 40
0.0
 40
0.0
 40
0.0
 40
0.1249999999999998
 40
0.1249999999999998
 40
0.2499999999999997
 40
0.2499999999999997
 40
0.3124999999999999
 40
0.3124999999999999
 40
0.3437500000000003
 40
0.3437500000000003
 40
0.3750000000000007
 40
0.3750000000000007
 40
0.5000000000000035
 40
0.5000000000000035
 40
0.6250000000000062
 40
0.6250000000000062
 40
0.6562500000000075
 40
0.6562500000000075
 40
0.6718750000000076
 40
0.6718750000000076
 40
0.6875000000000077
 40
0.7500000000000062
 40
0.7500000000000062
 40
0.875000000000003
 40
0.875000000000003
 40
1.0
 40
1.0
 40
1.0
 40
1.0
 10
277.3684792154842
 20
277.8338708903768
 30
0.0
 10
277.321985533179
 20
277.5943981166923
 30
0.0
 10
277.293530740293
 20
277.3581640193754
 30
0.0
 10
277.2709960430446
 20
276.8921495685798
 30
0.0
 10
277.2769227917571
 20
276.6623692152821
 30
0.0
 10
277.3115628953752
 20
276.3225442284563
 30
0.0
 10
277.3274134062269
 20
276.2100770621199
 30
0.0
 10
277.3577520627787
 20
276.0425908748011
 30
0.0
 10
277.368982659468
 20
275.9868694771785
 30
0.0
 10
277.3935055109802
 20
275.8764963223451
 30
0.0
 10
277.4068000091037
 20
275.8218076515326
 30
0.0
 10
277.4783528900583
 20
275.5507974433974
 30
0.0
 10
277.5517925728361
 20
275.3417559243465
 30
0.0
 10
277.7298992196578
 20
274.9380974245873
 30
0.0
 10
277.8345701452327
 20
274.7434838122105
 30
0.0
 10
277.9850955431169
 20
274.5088118134898
 30
0.0
 10
278.0161883704022
 20
274.46230809716
 30
0.0
 10
278.0643227289535
 20
274.3931933298683
 30
0.0
 10
278.0806195455117
 20
274.3702589034861
 30
0.0
 10
278.1136066158235
 20
274.3247481779468
 30
0.0
 10
278.1971220732239
 20
274.2117747266179
 30
0.0
 10
278.2858266365212
 20
274.1027532778605
 30
0.0
 10
278.5084437903345
 20
273.8482941510965
 30
0.0
 10
278.6697884266204
 20
273.6882227705945
 30
0.0
 10
279.0179869990378
 20
273.3857074101393
 30
0.0
 10
279.2048396904162
 20
273.2432662944875
 30
0.0
 10
279.4048419452957
 20
273.1092229681312
 30
0.0
  0
SPLINE
  5
1C6
330
1F
100
AcDbEntity
  8
1
100
AcDbSpline
210
0.0
220
0.0
230
1.0
 70
     8
 71
     3
 72
    57
 73
    53
 74
     0
 42
0.000000001
 43
0.0000000001
 40
0.0
 40
0.0
 40
0.0
 40
0.0
 40
0.0624999999999991
 40
0.0624999999999991
 40
0.1249999999999981
 40
0.1249999999999981
 40
0.1874999999999972
 40
0.1874999999999972
 40
0.2187499999999968
 40
0.2187499999999968
 40
0.2499999999999963
 40
0.2499999999999963
 40
0.3124999999999951
 40
0.3124999999999951
 40
0.374999999999994
 40
0.374999999999994
 40
0.4062499999999935
 40
0.4062499999999935
 40
0.4218749999999933
 40
0.4218749999999933
 40
0.4374999999999931
 40
0.4374999999999931
 40
0.468749999999993
 40
0.468749999999993
 40
0.4999999999999929
 40
0.4999999999999929
 40
0.5312499999999929
 40
0.5312499999999929
 40
0.5624999999999929
 40
0.5624999999999929
 40
0.5937499999999928
 40
0.5937499999999928
 40
0.6249999999999928
 40
0.6249999999999928
 40
0.6406249999999928
 40
0.6406249999999928
 40
0.6562499999999928
 40
0.6562499999999928
 40
0.6874999999999934
 40
0.6874999999999934
 40
0.7499999999999944
 40
0.7499999999999944
 40
0.8124999999999953
 40
0.8124999999999953
 40
0.8437499999999962
 40
0.8437499999999962
 40
0.8749999999999969
 40
0.9062499999999978
 40
0.9374999999999984
 40
0.9687499999999992
 40
0.9687499999999992
 40
1.0
 40
1.0
 40
1.0
 40
1.0
 10
297.9048419452959
 20
284.6421190465294
 30
0.0
 10
299.3678110602005
 20
284.3695384285634
 30
0.0
 10
300.8290418072283
 20
284.0932100120976
 30
0.0
 10
303.7478800746259
 20
283.5336694234923
 30
0.0
 10
305.2054858809031
 20
283.2504483248062
 30
0.0
 10
308.1169498262003
 20
282.6780679120828
 30
0.0
 10
309.5708048831868
 20
282.3888950780625
 30
0.0
 10
311.7487541639456
 20
281.9519015426278
 30
0.0
 10
312.4743019444939
 20
281.8056973817472
 30
0.0
 10
313.9243191787275
 20
281.5125614814198
 30
0.0
 10
314.6485409160002
 20
281.3656794272794
 30
0.0
 10
316.8188482121886
 20
280.9246920980983
 30
0.0
 10
318.2625601154566
 20
280.6301907262815
 30
0.0
 10
321.143992307337
 20
280.0445791020373
 30
0.0
 10
322.5817068824454
 20
279.753466213691
 30
0.0
 10
324.7344522340173
 20
279.3239821568446
 30
0.0
 10
325.4514013205452
 20
279.1820327174514
 30
0.0
 10
326.5260094484292
 20
278.9716273076234
 30
0.0
 10
326.8840764766764
 20
278.9019124311911
 30
0.0
 10
327.5999665657317
 20
278.7634505214846
 30
0.0
 10
327.9578220529016
 20
278.6947070203313
 30
0.0
 10
329.0310272787193
 20
278.4906115831968
 30
0.0
 10
329.7459319323956
 20
278.3574396176293
 30
0.0
 10
331.1756796157657
 20
278.0994416604199
 30
0.0
 10
331.8905231532858
 20
277.974612488569
 30
0.0
 10
333.3210616698203
 20
277.7349895055963
 30
0.0
 10
334.0367563038209
 20
277.6201906333834
 30
0.0
 10
335.4697479620103
 20
277.4015712701738
 30
0.0
 10
336.1870579478506
 20
277.2977701728584
 30
0.0
 10
337.623830750253
 20
277.101401688975
 30
0.0
 10
338.3432258416088
 20
277.0086949398561
 30
0.0
 10
339.7837543615524
 20
276.8330589241882
 30
0.0
 10
340.5048885708286
 20
276.7501337466448
 30
0.0
 10
341.5877621662431
 20
276.6324548238411
 30
0.0
 10
341.9489161355395
 20
276.5943488972572
 30
0.0
 10
342.6716019024461
 20
276.5202954289322
 30
0.0
 10
343.0331721640003
 20
276.4843443442825
 30
0.0
 10
344.1180792973687
 20
276.3796562821491
 30
0.0
 10
344.8416249596012
 20
276.3140783986616
 30
0.0
 10
347.0130952535964
 20
276.1292374272114
 30
0.0
 10
348.4618422565658
 20
276.0218474234725
 30
0.0
 10
351.3619336400394
 20
275.8356993445037
 30
0.0
 10
352.8132784830815
 20
275.7569661307668
 30
0.0
 10
354.9928072175319
 20
275.6583890018737
 30
0.0
 10
355.7197609472436
 20
275.6288003953812
 30
0.0
 10
357.1744853005955
 20
275.5756733293608
 30
0.0
 10
358.6299989710908
 20
275.5285696478369
 30
0.0
 10
360.8150350415122
 20
275.4745965009383
 30
0.0
 10
363.0011509391427
 20
275.4363304001326
 30
0.0
 10
364.4587710452781
 20
275.4209452967135
 30
0.0
 10
365.91621529935
 20
275.4106236140036
 30
0.0
 10
366.6448495150138
 20
275.4079935137005
 30
0.0
 10
367.3732429221244
 20
275.4079935137005
 30
0.0
  0
SPLINE
  5
1C7
330
1F
100
AcDbEntity
  8
1
100
AcDbSpline
210
0.0
220
0.0
230
1.0
 70
     8
 71
     3
 72
    54
 73
    50
 74
     0
 42
0.000000001
 43
0.0000000001
 40
0.0
 40
0.0
 40
0.0
 40
0.0
 40
0.0655609068393803
 40
0.0655609068393803
 40
0.0989337315951165
 40
0.0989337315951165
 40
0.1323065563508527
 40
0.1323065563508527
 40
0.1990522058623254
 40
0.1990522058623254
 40
0.265797855373798
 40
0.265797855373798
 40
0.3325435048852706
 40
0.3325435048852706
 40
0.3992891543967432
 40
0.3992891543967432
 40
0.4159755667746116
 40
0.4159755667746116
 40
0.4326619791524799
 40
0.4326619791524799
 40
0.4660348039082166
 40
0.4660348039082166
 40
0.4994076286639533
 40
0.4994076286639533
 40
0.53278045341969
 40
0.53278045341969
 40
0.5661532781754266
 40
0.5661532781754266
 40
0.5995261029311633
 40
0.5995261029311633
 40
0.6328989276868998
 40
0.6328989276868998
 40
0.6662717524426364
 40
0.6662717524426364
 40
0.6996445771983729
 40
0.6996445771983729
 40
0.7330174019541095
 40
0.7330174019541095
 40
0.7997630514655821
 40
0.7997630514655821
 40
0.8665087009770548
 40
0.8665087009770548
 40
0.8998815257327908
 40
0.8998815257327908
 40
0.9332543504885272
 40
0.9332543504885272
 40
0.9666271752442636
 40
0.9666271752442636
 40
1.0
 40
1.0
 40
1.0
 40
1.0
 10
302.027690024361
 20
302.4079932986178
 30
0.0
 10
303.3511904221
 20
302.4080389633135
 30
0.0
 10
304.6719894876464
 20
302.4004859559145
 30
0.0
 10
306.6615287783144
 20
302.3742925398878
 30
0.0
 10
307.3320366459523
 20
302.362917546106
 30
0.0
 10
308.6719532477026
 20
302.334554181145
 30
0.0
 10
309.3414280894539
 20
302.3175628838278
 30
0.0
 10
311.3479878521812
 20
302.2574743698777
 30
0.0
 10
312.6826407811075
 20
302.2052201252731
 30
0.0
 10
315.3474960085461
 20
302.0738782446691
 30
0.0
 10
316.6777054927607
 20
301.9947742974368
 30
0.0
 10
319.335822740194
 20
301.8094059607158
 30
0.0
 10
320.6637424176792
 20
301.7031457928458
 30
0.0
 10
323.3196245931302
 20
301.4655227446495
 30
0.0
 10
324.6475996419973
 20
301.3341858936927
 30
0.0
 10
326.3089422286204
 20
301.1568140608521
 30
0.0
 10
326.6412784670462
 20
301.1206830304985
 30
0.0
 10
327.3061151950045
 20
301.0471803187281
 30
0.0
 10
327.6386210297766
 20
301.0098187199282
 30
0.0
 10
328.6363366863573
 20
300.8958247045557
 30
0.0
 10
329.3017324073957
 20
300.8172670933597
 30
0.0
 10
330.6327205463585
 20
300.6545080909408
 30
0.0
 10
331.2983134454488
 20
300.5703038956498
 30
0.0
 10
332.6295521731766
 20
300.3958850907325
 30
0.0
 10
333.2952794386902
 20
300.3056573533058
 30
0.0
 10
334.6261897052734
 20
300.1191359456972
 30
0.0
 10
335.2914120228877
 20
300.0228382435812
 30
0.0
 10
336.6214915059325
 20
299.8242889919773
 30
0.0
 10
337.2863382162844
 20
299.72200969568
 30
0.0
 10
338.6159638845403
 20
299.512120572813
 30
0.0
 10
339.2807495008977
 20
299.4045277414281
 30
0.0
 10
340.6105220560311
 20
299.1846918793978
 30
0.0
 10
341.27550830005
 20
299.0724488697066
 30
0.0
 10
342.6058459341272
 20
298.8438088878019
 30
0.0
 10
343.2711967630373
 20
298.7274118153924
 30
0.0
 10
344.6023559548112
 20
298.4908109813452
 30
0.0
 10
345.2681919362877
 20
298.3706016997253
 30
0.0
 10
347.2657737540214
 20
298.0046901270821
 30
0.0
 10
348.5978233487801
 20
297.7537423217965
 30
0.0
 10
351.2623790519772
 20
297.2377262428103
 30
0.0
 10
352.5948864665012
 20
296.972681812369
 30
0.0
 10
354.5933436176661
 20
296.5624602129849
 30
0.0
 10
355.2594494575834
 20
296.4236191402528
 30
0.0
 10
356.5913211793557
 20
296.1408252077618
 30
0.0
 10
357.257041672896
 20
295.9967801686984
 30
0.0
 10
358.5872986630175
 20
295.7022142474468
 30
0.0
 10
359.2518872129998
 20
295.5516726792337
 30
0.0
 10
360.5798845581854
 20
295.2435335719038
 30
0.0
 10
361.2432905320102
 20
295.0859231727041
 30
0.0
 10
361.9062155531781
 20
294.9250328192221
 30
0.0
  0
SPLINE
  5
1C8
330
1F
100
AcDbEntity
  8
1
100
AcDbSpline
210
0.0
220
0.0
230
1.0
 70
     8
 71
     3
 72
    38
 73
    34
 74
     0
 42
0.000000001
 43
0.0000000001
 40
0.0
 40
0.0
 40
0.0
 40
0.0
 40
0.0602391500210157
 40
0.0602391500210157
 40
0.1204783000420313
 40
0.1204783000420313
 40
0.180717450063047
 40
0.180717450063047
 40
0.2409566000840627
 40
0.2409566000840627
 40
0.2710761750945705
 40
0.2710761750945705
 40
0.3011957501050784
 40
0.3011957501050784
 40
0.361434900126095
 40
0.361434900126095
 40
0.4216740501471117
 40
0.4216740501471117
 40
0.4819132001681285
 40
0.4819132001681285
 40
0.6023915002101619
 40
0.6023915002101619
 40
0.7228698002521952
 40
0.7228698002521952
 40
0.7831089502732124
 40
0.7831089502732124
 40
0.8433481002942295
 40
0.8433481002942295
 40
0.9035872503152468
 40
0.9035872503152468
 40
0.9638264003362644
 40
0.9638264003362644
 40
1.0
 40
1.0
 40
1.0
 40
1.0
 10
370.9173585466435
 20
302.3076171469611
 30
0.0
 10
370.1823786934575
 20
302.3400391043547
 30
0.0
 10
369.4440652996062
 20
302.3632606531259
 30
0.0
 10
367.9606470129712
 20
302.3951009464889
 30
0.0
 10
367.2155429997685
 20
302.4037277683973
 30
0.0
 10
365.7188309930305
 20
302.4097675720359
 30
0.0
 10
364.9672240161302
 20
302.407186310509
 30
0.0
 10
363.4581759067747
 20
302.3935621934032
 30
0.0
 10
362.7007360535474
 20
302.382523100996
 30
0.0
 10
361.5609642572089
 20
302.3610988217768
 30
0.0
 10
361.1804409232512
 20
302.3531400432148
 30
0.0
 10
360.4183516389053
 20
302.3357535816109
 30
0.0
 10
360.0367290139372
 20
302.3263243866122
 30
0.0
 10
358.8910607764923
 20
302.2960122034009
 30
0.0
 10
358.1262075897699
 20
302.2731355138601
 30
0.0
 10
356.5954475398558
 20
302.2222412072691
 30
0.0
 10
355.8295467730218
 20
302.194220558917
 30
0.0
 10
354.2979410635772
 20
302.1322923650416
 30
0.0
 10
353.5321946351426
 20
302.0983896054253
 30
0.0
 10
351.2352608102027
 20
301.9876325740845
 30
0.0
 10
349.7043948794827
 20
301.9017479917409
 30
0.0
 10
346.6440820180055
 20
301.7038601790824
 30
0.0
 10
345.114444869158
 20
301.5918306426055
 30
0.0
 10
342.8226079294242
 20
301.4024531151211
 30
0.0
 10
342.059050198264
 20
301.3357683283099
 30
0.0
 10
340.5327642977419
 20
301.1948834439717
 30
0.0
 10
339.7700343077028
 20
301.1206883432582
 30
0.0
 10
338.2455211236673
 20
300.9641985935547
 30
0.0
 10
337.4837357994095
 20
300.881911532917
 30
0.0
 10
335.9613554902208
 20
300.7082734303907
 30
0.0
 10
335.2007852341231
 20
300.6168629410539
 30
0.0
 10
333.9843694310492
 20
300.4629741383966
 30
0.0
 10
333.5281742397082
 20
300.4035243754655
 30
0.0
 10
333.0721519918532
 20
300.3423582062586
 30
0.0
  0
SPLINE
  5
1C9
330
1F
100
AcDbEntity
  8
1
100
AcDbSpline
210
0.0
220
0.0
230
1.0
 70
     8
 71
     3
 72
    36
 73
    32
 74
     0
 42
0.000000001
 43
0.0000000001
 40
0.0
 40
0.0
 40
0.0
 40
0.0
 40
0.0625
 40
0.0625
 40
0.1249999999999999
 40
0.1249999999999999
 40
0.1874999999999999
 40
0.1874999999999999
 40
0.2499999999999998
 40
0.2499999999999998
 40
0.3124999999999994
 40
0.3124999999999994
 40
0.3437499999999992
 40
0.3437499999999992
 40
0.3749999999999989
 40
0.3749999999999989
 40
0.4374999999999988
 40
0.4374999999999988
 40
0.4999999999999988
 40
0.4999999999999988
 40
0.624999999999999
 40
0.624999999999999
 40
0.7499999999999992
 40
0.7499999999999992
 40
0.8749999999999994
 40
0.8749999999999994
 40
0.9062499999999994
 40
0.9062499999999994
 40
0.9374999999999992
 40
0.9374999999999992
 40
1.0
 40
1.0
 40
1.0
 40
1.0
 10
292.7038318185191
 20
275.6048419535007
 30
0.0
 10
292.4521025063669
 20
275.6166621682181
 30
0.0
 10
292.2038903691247
 20
275.6234395830101
 30
0.0
 10
291.7136268820185
 20
275.6281775336598
 30
0.0
 10
291.4715768294609
 20
275.6261366015949
 30
0.0
 10
290.9929494620616
 20
275.6142519743317
 30
0.0
 10
290.7563729927612
 20
275.6044069939801
 30
0.0
 10
290.2881550954059
 20
275.5777181108086
 30
0.0
 10
290.056514260331
 20
275.5608730199593
 30
0.0
 10
289.5977594053064
 20
275.5208143311523
 30
0.0
 10
289.3706458451642
 20
275.4975996306673
 30
0.0
 10
289.0331500118774
 20
275.4583697099066
 30
0.0
 10
288.9211813352371
 20
275.4445574414625
 30
0.0
 10
288.6982766633828
 20
275.415512829663
 30
0.0
 10
288.587236377341
 20
275.4002643843049
 30
0.0
 10
288.2569371914578
 20
275.3526511564645
 30
0.0
 10
288.0401877805488
 20
275.3183876443005
 30
0.0
 10
287.6131461219785
 20
275.2452857613824
 30
0.0
 10
287.4028552677551
 20
275.2064462642538
 30
0.0
 10
286.7812414422873
 20
275.0836443014343
 30
0.0
 10
286.3791347343437
 20
274.9934117033395
 30
0.0
 10
285.5985555754072
 20
274.7987776334905
 30
0.0
 10
285.2201016146414
 20
274.69436427409
 30
0.0
 10
284.4870569513035
 20
274.473595171356
 30
0.0
 10
284.1324749038741
 20
274.357233112895
 30
0.0
 10
283.7047699711275
 20
274.2056845743551
 30
0.0
 10
283.6200066803018
 20
274.1750701930505
 30
0.0
 10
283.4520564682467
 20
274.1132673057774
 30
0.0
 10
283.3688295785586
 20
274.0820631164437
 30
0.0
 10
283.1220571140272
 20
273.9878398812826
 30
0.0
 10
282.9612978460715
 20
273.9241678025143
 30
0.0
 10
282.8043368819074
 20
273.8598080409658
 30
0.0
  0
LINE
  5
1E4
330
1F
100
AcDbEntity
  8
SK4
100
AcDbLine
 10
210.904842
 20
288.907994
 30
0.0
 11
277.404842
 21
288.907994
 31
0.0
  0
LINE
  5
1E5
330
1F
100
AcDbEntity
  8
4
100
AcDbLine
 10
269.703832
 20
288.907994
 30
0.0
 11
387.29052
 21
288.907994
 31
0.0
  0
MTEXT
  5
1E6
330
1F
100
AcDbEntity
  8
SK6
100
AcDbMText
 10
258.520787
 20
241.27662
 30
0.0
 40
3.5
 41
0.0
 71
     7
 72
     5
  1
\W0.7022;803D-28-84-S32
  7
cesky
 73
     2
 44
0.8433729999999998
  0
MTEXT
  5
2FC
330
1F
100
AcDbEntity
  8
2
100
AcDbMText
 10
295.827842
 20
340.562135
 30
0.0
 40
3.5
 41
0.0
 71
     7
 72
     5
  1
\W0.7969;169
  7
cesky
 73
     2
 44
0.8433729999999998
  0
LINE
  5
2FD
330
1F
100
AcDbEntity
  8
2
100
AcDbLine
 10
383.404842
 20
304.907994
 30
0.0
 11
383.404842
 21
341.687968
 31
0.0
  0
LINE
  5
2FE
330
1F
100
AcDbEntity
  8
2
100
AcDbLine
 10
214.404842
 20
302.907994
 30
0.0
 11
214.404842
 21
341.687968
 31
0.0
  0
LINE
  5
2FF
330
1F
100
AcDbEntity
  8
2
100
AcDbLine
 10
383.404842
 20
340.687968
 30
0.0
 11
214.404842
 21
340.687968
 31
0.0
  0
SOLID
  5
300
330
1F
100
AcDbEntity
  8
2
100
AcDbTrace
 10
383.404842
 20
340.687968
 30
0.0
 11
379.904844
 21
340.070823
 31
0.0
 12
379.90484
 22
341.305112
 32
0.0
 13
379.90484
 23
341.305112
 33
0.0
  0
SOLID
  5
301
330
1F
100
AcDbEntity
  8
2
100
AcDbTrace
 10
214.404842
 20
340.687968
 30
0.0
 11
217.90484
 21
341.305112
 31
0.0
 12
217.904844
 22
340.070823
 32
0.0
 13
217.904844
 23
340.070823
 33
0.0
  0
MTEXT
  5
302
330
1F
100
AcDbEntity
  8
2
100
AcDbMText
 10
242.590342
 20
327.385163
 30
0.0
 40
3.5
 41
0.0
 71
     7
 72
     5
  1
\W0.7045;60
  7
cesky
 73
     2
 44
0.8433729999999998
  0
LINE
  5
303
330
1F
100
AcDbEntity
  8
2
100
AcDbLine
 10
274.404842
 20
288.907994
 30
0.0
 11
274.404842
 21
328.5109970000001
 31
0.0
  0
LINE
  5
304
330
1F
100
AcDbEntity
  8
2
100
AcDbLine
 10
214.404842
 20
302.907994
 30
0.0
 11
214.404842
 21
328.5109970000001
 31
0.0
  0
LINE
  5
305
330
1F
100
AcDbEntity
  8
2
100
AcDbLine
 10
274.404842
 20
327.510997
 30
0.0
 11
214.404842
 21
327.510997
 31
0.0
  0
SOLID
  5
306
330
1F
100
AcDbEntity
  8
2
100
AcDbTrace
 10
274.404842
 20
327.510997
 30
0.0
 11
270.904844
 21
326.893852
 31
0.0
 12
270.90484
 22
328.128141
 32
0.0
 13
270.90484
 23
328.128141
 33
0.0
  0
SOLID
  5
307
330
1F
100
AcDbEntity
  8
2
100
AcDbTrace
 10
214.404842
 20
327.510997
 30
0.0
 11
217.90484
 21
328.128141
 31
0.0
 12
217.904844
 22
326.893852
 32
0.0
 13
217.904844
 23
326.893852
 33
0.0
  0
MTEXT
  5
308
330
1F
100
AcDbEntity
  8
2
100
AcDbMText
 10
332.8146220000001
 20
316.149515
 30
0.0
 40
3.5
 41
0.0
 71
     7
 72
     5
  1
\W0.8459;92,5
  7
cesky
 73
     2
 44
0.8433729999999998
  0
LINE
  5
309
330
1F
100
AcDbEntity
  8
2
100
AcDbLine
 10
383.404842
 20
304.907994
 30
0.0
 11
383.404842
 21
317.275348
 31
0.0
  0
LINE
  5
30A
330
1F
100
AcDbEntity
  8
2
100
AcDbLine
 10
290.903402
 20
303.091229
 30
0.0
 11
290.903402
 21
317.275348
 31
0.0
  0
LINE
  5
30B
330
1F
100
AcDbEntity
  8
2
100
AcDbLine
 10
383.404842
 20
316.275348
 30
0.0
 11
290.903402
 21
316.275348
 31
0.0
  0
SOLID
  5
30C
330
1F
100
AcDbEntity
  8
2
100
AcDbTrace
 10
383.404842
 20
316.275348
 30
0.0
 11
379.904844
 21
315.658204
 31
0.0
 12
379.90484
 22
316.892492
 32
0.0
 13
379.90484
 23
316.892492
 33
0.0
  0
SOLID
  5
30D
330
1F
100
AcDbEntity
  8
2
100
AcDbTrace
 10
290.903402
 20
316.275348
 30
0.0
 11
294.4034
 21
316.892492
 31
0.0
 12
294.403404
 22
315.658204
 32
0.0
 13
294.403404
 23
315.658204
 33
0.0
  0
MTEXT
  5
30E
330
1F
100
AcDbEntity
  8
2
100
AcDbMText
 10
325.827842
 20
327.385163
 30
0.0
 40
3.5
 41
0.0
 71
     7
 72
     5
  1
\W0.7969;109
  7
cesky
 73
     2
 44
0.8433729999999998
  0
LINE
  5
30F
330
1F
100
AcDbEntity
  8
2
100
AcDbLine
 10
383.404842
 20
302.907994
 30
0.0
 11
383.404842
 21
328.5109970000001
 31
0.0
  0
LINE
  5
310
330
1F
100
AcDbEntity
  8
2
100
AcDbLine
 10
274.404842
 20
289.907567
 30
0.0
 11
274.404842
 21
328.5109970000001
 31
0.0
  0
LINE
  5
311
330
1F
100
AcDbEntity
  8
2
100
AcDbLine
 10
383.404842
 20
327.510997
 30
0.0
 11
274.404842
 21
327.510997
 31
0.0
  0
SOLID
  5
312
330
1F
100
AcDbEntity
  8
2
100
AcDbTrace
 10
383.404842
 20
327.510997
 30
0.0
 11
379.904844
 21
326.893852
 31
0.0
 12
379.90484
 22
328.128141
 32
0.0
 13
379.90484
 23
328.128141
 33
0.0
  0
SOLID
  5
313
330
1F
100
AcDbEntity
  8
2
100
AcDbTrace
 10
274.404842
 20
327.510997
 30
0.0
 11
277.90484
 21
328.128141
 31
0.0
 12
277.904844
 22
326.893852
 32
0.0
 13
277.904844
 23
326.893852
 33
0.0
  0
MTEXT
  5
314
330
1F
100
AcDbEntity
  8
2
100
AcDbMText
 10
395.514779
 20
286.691374
 30
0.0
 40
3.5
 41
0.0
 71
     7
 72
     5
  1
\W0.7045;28
  7
cesky
 11
0.0000000000000001
 21
1.0
 31
0.0
 73
     2
 44
0.8433729999999998
  0
MTEXT
  5
315
330
1F
100
AcDbEntity
  8
2
100
AcDbMText
 10
395.514779
 20
279.953874
 30
0.0
 40
3.5
 41
0.0
 71
     7
 72
     5
  1
\W3.0115;\H2.63;%%c\H3.50;
  7
cesky
 11
0.0000000000000001
 21
1.0
 31
0.0
 73
     2
 44
0.8433729999999998
  0
LINE
  5
316
330
1F
100
AcDbEntity
  8
2
100
AcDbLine
 10
385.404842
 20
302.907994
 30
0.0
 11
396.702196
 21
302.907994
 31
0.0
  0
LINE
  5
317
330
1F
100
AcDbEntity
  8
2
100
AcDbLine
 10
395.702196
 20
302.907994
 30
0.0
 11
395.702196
 21
279.796374
 31
0.0
  0
SOLID
  5
318
330
1F
100
AcDbEntity
  8
2
100
AcDbTrace
 10
395.702196
 20
302.907994
 30
0.0
 11
396.319341
 21
299.407996
 31
0.0
 12
395.085052
 22
299.407991
 32
0.0
 13
395.085052
 23
299.407991
 33
0.0
  0
MTEXT
  5
319
330
1F
100
AcDbEntity
  8
SK2
100
AcDbMText
 10
205.691127
 20
290.434244
 30
0.0
 40
3.5
 41
0.0
 71
     7
 72
     5
  1
\W0.7045;32
  7
cesky
 11
0.0000000000000001
 21
1.0
 31
0.0
 73
     2
 44
0.8433729999999998
  0
MTEXT
  5
31A
330
1F
100
AcDbEntity
  8
SK2
100
AcDbMText
 10
205.691127
 20
283.696744
 30
0.0
 40
3.5
 41
0.0
 71
     7
 72
     5
  1
\W3.0115;\H2.63;%%c\H3.50;
  7
cesky
 11
0.0000000000000001
 21
1.0
 31
0.0
 73
     2
 44
0.8433729999999998
  0
LINE
  5
31B
330
1F
100
AcDbEntity
  8
SK2
100
AcDbLine
 10
216.404842
 20
304.907994
 30
0.0
 11
204.878544
 21
304.907994
 31
0.0
  0
LINE
  5
31C
330
1F
100
AcDbEntity
  8
SK2
100
AcDbLine
 10
216.404842
 20
272.907994
 30
0.0
 11
204.878544
 21
272.907994
 31
0.0
  0
LINE
  5
31D
330
1F
100
AcDbEntity
  8
SK2
100
AcDbLine
 10
205.878544
 20
304.907994
 30
0.0
 11
205.878544
 21
272.907994
 31
0.0
  0
SOLID
  5
31E
330
1F
100
AcDbEntity
  8
SK2
100
AcDbTrace
 10
205.878544
 20
304.907994
 30
0.0
 11
206.495689
 21
301.407996
 31
0.0
 12
205.2614
 22
301.407991
 32
0.0
 13
205.2614
 23
301.407991
 33
0.0
  0
SOLID
  5
31F
330
1F
100
AcDbEntity
  8
SK2
100
AcDbTrace
 10
205.878544
 20
272.907994
 30
0.0
 11
205.2614
 21
276.407991
 31
0.0
 12
206.495689
 22
276.407996
 32
0.0
 13
206.495689
 23
276.407996
 33
0.0
  0
MTEXT
  5
320
330
1F
100
AcDbEntity
  8
SK2
100
AcDbMText
 10
193.332501
 20
290.434244
 30
0.0
 40
3.5
 41
0.0
 71
     7
 72
     5
  1
\W0.7045;42
  7
cesky
 11
0.0000000000000001
 21
1.0
 31
0.0
 73
     2
 44
0.8433729999999998
  0
MTEXT
  5
321
330
1F
100
AcDbEntity
  8
SK2
100
AcDbMText
 10
193.332501
 20
283.696744
 30
0.0
 40
3.5
 41
0.0
 71
     7
 72
     5
  1
\W3.0115;\H2.63;%%c\H3.50;
  7
cesky
 11
0.0000000000000001
 21
1.0
 31
0.0
 73
     2
 44
0.8433729999999998
  0
LINE
  5
322
330
1F
100
AcDbEntity
  8
SK2
100
AcDbLine
 10
274.904842
 20
309.907994
 30
0.0
 11
192.519918
 21
309.907994
 31
0.0
  0
LINE
  5
323
330
1F
100
AcDbEntity
  8
SK2
100
AcDbLine
 10
274.904842
 20
267.907994
 30
0.0
 11
192.519918
 21
267.907994
 31
0.0
  0
LINE
  5
324
330
1F
100
AcDbEntity
  8
SK2
100
AcDbLine
 10
193.519918
 20
309.907994
 30
0.0
 11
193.519918
 21
267.907994
 31
0.0
  0
SOLID
  5
325
330
1F
100
AcDbEntity
  8
SK2
100
AcDbTrace
 10
193.519918
 20
309.907994
 30
0.0
 11
194.137062
 21
306.407996
 31
0.0
 12
192.902773
 22
306.407991
 32
0.0
 13
192.902773
 23
306.407991
 33
0.0
  0
SOLID
  5
326
330
1F
100
AcDbEntity
  8
SK2
100
AcDbTrace
 10
193.519918
 20
267.907994
 30
0.0
 11
192.902773
 21
271.4079910000001
 31
0.0
 12
194.137062
 22
271.407996
 32
0.0
 13
194.137062
 23
271.407996
 33
0.0
  0
LINE
  5
327
330
1F
100
AcDbEntity
  8
CUT
100
AcDbLine
 10
373.9251718287903
 20
302.5400568597496
 30
0.0
 11
381.895063756893
 21
302.9043062618901
 31
0.0
  0
LINE
  5
328
330
1F
100
AcDbEntity
  8
CUT
100
AcDbLine
 10
383.2974360653503
 20
295.8831879626113
 30
0.0
 11
383.4048419452957
 21
289.7352586122853
 31
0.0
  0
LINE
  5
32A
330
1F
100
AcDbEntity
  8
CUT
100
AcDbLine
 10
382.9583693143069
 20
296.4474361449547
 30
0.0
 11
383.2974360653503
 21
295.8831879626113
 31
0.0
  0
LINE
  5
32C
330
1F
100
AcDbEntity
  8
CUT
100
AcDbLine
 10
382.7016286938658
 20
302.1695058807888
 30
0.0
 11
382.9583693143069
 21
296.4474361449547
 31
0.0
  0
LINE
  5
32D
330
1F
100
AcDbEntity
  8
CUT
100
AcDbLine
 10
383.404842
 20
289.735259
 30
0.0
 11
383.404842
 21
288.907994
 31
0.0
  0
LINE
  5
32E
330
1F
100
AcDbEntity
  8
CUT
100
AcDbLine
 10
383.404842
 20
288.907994
 30
0.0
 11
373.187556
 21
288.907994
 31
0.0
  0
LINE
  5
32F
330
1F
100
AcDbEntity
  8
CUT
100
AcDbLine
 10
373.187556
 20
288.907994
 30
0.0
 11
373.187556
 21
301.734148
 31
0.0
  0
ARC
  5
330
330
1F
100
AcDbEntity
  8
CUT
100
AcDbCircle
 10
381.9227310101851
 20
302.123968332917
 30
0.0
 40
0.7808282527539284
100
AcDbArc
 50
7.497429971874984
 51
92.03059858074164
  0
ARC
  5
331
330
1F
100
AcDbEntity
  8
CUT
100
AcDbCircle
 10
381.9810979079765
 20
302.1372024564425
 30
0.0
 40
0.7212545491287525
100
AcDbArc
 50
2.567012195007464
 51
7.060100384254304
  0
ARC
  5
332
330
1F
100
AcDbEntity
  8
CUT
100
AcDbCircle
 10
373.9695030901345
 20
301.7593108347493
 30
0.0
 40
0.7823517831140069
100
AcDbArc
 50
96.01455363905756
 51
181.8431394334074
  0
ARC
  5
333
330
1F
100
AcDbEntity
  8
CUT
100
AcDbCircle
 10
373.9582365473024
 20
301.8155059047258
 30
0.0
 40
0.7253050131056498
100
AcDbArc
 50
92.61286711660172
 51
95.5945830073289
  0
ENDSEC
  0
SECTION
  2
OBJECTS
  0
DICTIONARY
  5
C
330
0
100
AcDbDictionary
281
     1
  3
ACAD_CIP_PREVIOUS_PRODUCT_INFO
350
2F9
  3
ACAD_COLOR
350
2F4
  3
ACAD_DETAILVIEWSTYLE
350
2F0
  3
ACAD_GROUP
350
D
  3
ACAD_LAYOUT
350
1A
  3
ACAD_MATERIAL
350
43
  3
ACAD_MLEADERSTYLE
350
6B
  3
ACAD_MLINESTYLE
350
17
  3
ACAD_PLOTSETTINGS
350
19
  3
ACAD_PLOTSTYLENAME
350
E
  3
ACAD_SCALELIST
350
47
  3
ACAD_SECTIONVIEWSTYLE
350
2F1
  3
ACAD_TABLESTYLE
350
69
  3
ACAD_VISUALSTYLE
350
2A
  3
ACDB_RECOMPOSE_DATA
350
35F
  3
AcDbVariableDictionary
350
2AD
  0
DICTIONARY
  5
342
330
10
100
AcDbDictionary
280
     1
281
     1
  3
ADSK_XREC_LAYER_RECONCILED
360
343
  0
DICTIONARY
  5
344
330
334
100
AcDbDictionary
280
     1
281
     1
  3
ADSK_XREC_LAYER_RECONCILED
360
345
  0
DICTIONARY
  5
346
330
335
100
AcDbDictionary
280
     1
281
     1
  3
ADSK_XREC_LAYER_RECONCILED
360
347
  0
DICTIONARY
  5
348
330
336
100
AcDbDictionary
280
     1
281
     1
  3
ADSK_XREC_LAYER_RECONCILED
360
349
  0
DICTIONARY
  5
34A
330
338
100
AcDbDictionary
280
     1
281
     1
  3
ADSK_XREC_LAYER_RECONCILED
360
34B
  0
DICTIONARY
  5
34C
330
339
100
AcDbDictionary
280
     1
281
     1
  3
ADSK_XREC_LAYER_RECONCILED
360
34D
  0
DICTIONARY
  5
34E
330
33B
100
AcDbDictionary
280
     1
281
     1
  3
ADSK_XREC_LAYER_RECONCILED
360
34F
  0
DICTIONARY
  5
350
330
33C
100
AcDbDictionary
280
     1
281
     1
  3
ADSK_XREC_LAYER_RECONCILED
360
351
  0
DICTIONARY
  5
352
330
33D
100
AcDbDictionary
280
     1
281
     1
  3
ADSK_XREC_LAYER_RECONCILED
360
353
  0
DICTIONARY
  5
354
330
33E
100
AcDbDictionary
280
     1
281
     1
  3
ADSK_XREC_LAYER_RECONCILED
360
355
  0
DICTIONARY
  5
356
330
33F
100
AcDbDictionary
280
     1
281
     1
  3
ADSK_XREC_LAYER_RECONCILED
360
357
  0
DICTIONARY
  5
358
330
340
100
AcDbDictionary
280
     1
281
     1
  3
ADSK_XREC_LAYER_RECONCILED
360
359
  0
DICTIONARY
  5
2FA
330
1F
100
AcDbDictionary
280
     1
281
     1
  3
ACAD_SORTENTS
360
2FB
  0
XRECORD
  5
2F9
102
{ACAD_REACTORS
330
C
102
}
330
C
100
AcDbXrecord
280
     1
300
ACD
300
2019
300
87084ACD_2019_0F
  0
DICTIONARY
  5
2F4
102
{ACAD_REACTORS
330
C
102
}
330
C
100
AcDbDictionary
281
     1
  0
DICTIONARY
  5
2F0
102
{ACAD_REACTORS
330
C
102
}
330
C
100
AcDbDictionary
281
     1
  3
Metric50
350
2F6
  0
DICTIONARY
  5
D
102
{ACAD_REACTORS
330
C
102
}
330
C
100
AcDbDictionary
281
     1
  3
NULOVY_BOD
350
341
  0
DICTIONARY
  5
1A
102
{ACAD_REACTORS
330
C
102
}
330
C
100
AcDbDictionary
281
     1
  3
Layout1
350
1E
  3
Layout2
350
26
  3
Model
350
22
  0
DICTIONARY
  5
43
102
{ACAD_REACTORS
330
C
102
}
330
C
100
AcDbDictionary
281
     1
  3
ByBlock
350
45
  3
ByLayer
350
44
  3
Global
350
46
  0
DICTIONARY
  5
6B
102
{ACAD_REACTORS
330
C
102
}
330
C
100
AcDbDictionary
281
     1
  3
Standard
350
6C
  0
DICTIONARY
  5
17
102
{ACAD_REACTORS
330
C
102
}
330
C
100
AcDbDictionary
281
     1
  3
Standard
350
18
  0
DICTIONARY
  5
19
102
{ACAD_REACTORS
330
C
102
}
330
C
100
AcDbDictionary
281
     1
  0
ACDBDICTIONARYWDFLT
  5
E
102
{ACAD_REACTORS
330
C
102
}
330
C
100
AcDbDictionary
281
     1
  3
Normal
350
F
100
AcDbDictionaryWithDefault
340
F
  0
DICTIONARY
  5
47
102
{ACAD_REACTORS
330
C
102
}
330
C
100
AcDbDictionary
281
     1
  3
A0
350
48
  3
A1
350
49
  3
A2
350
4A
  3
A3
350
4B
  3
A4
350
4C
  3
A5
350
4D
  3
A6
350
4E
  3
A7
350
4F
  3
A8
350
50
  3
A9
350
51
  3
B0
350
52
  3
B1
350
53
  3
B2
350
54
  3
B3
350
55
  3
B4
350
56
  3
B5
350
57
  3
B6
350
58
  3
B7
350
59
  3
B8
350
5A
  3
B9
350
5B
  3
C0
350
5C
  3
C1
350
5D
  3
C2
350
5E
  3
C3
350
5F
  3
C4
350
60
  3
C5
350
61
  3
C6
350
62
  3
C7
350
63
  3
C8
350
64
  3
C9
350
65
  3
D0
350
66
  3
D1
350
67
  3
D2
350
68
  0
DICTIONARY
  5
2F1
102
{ACAD_REACTORS
330
C
102
}
330
C
100
AcDbDictionary
281
     1
  3
Metric50
350
2F5
  0
DICTIONARY
  5
69
102
{ACAD_REACTORS
330
C
102
}
330
C
100
AcDbDictionary
281
     1
  3
Standard
350
6A
  0
DICTIONARY
  5
2A
102
{ACAD_REACTORS
330
C
102
}
330
C
100
AcDbDictionary
281
     1
  3
2dWireframe
350
2F
  3
Basic
350
32
  3
Brighten
350
36
  3
ColorChange
350
3A
  3
Conceptual
350
34
  3
Dim
350
35
  3
EdgeColorOff
350
3D
  3
Facepattern
350
39
  3
Flat
350
2B
  3
FlatWithEdges
350
2C
  3
Gouraud
350
2D
  3
GouraudWithEdges
350
2E
  3
Hidden
350
31
  3
JitterOff
350
3B
  3
Linepattern
350
38
  3
OverhangOff
350
3C
  3
Realistic
350
33
  3
Shaded
350
42
  3
Shaded with edges
350
41
  3
Shades of Gray
350
3E
  3
Sketchy
350
3F
  3
Thicken
350
37
  3
Wireframe
350
30
  3
X-Ray
350
40
  0
XRECORD
  5
35F
102
{ACAD_REACTORS
330
C
102
}
330
C
100
AcDbXrecord
280
     1
 90
        1
330
6A
  0
DICTIONARY
  5
2AD
102
{ACAD_REACTORS
330
C
102
}
330
C
100
AcDbDictionary
281
     1
  3
CANNOSCALE
350
2AE
  3
CMLEADERSTYLE
350
2EF
  3
CTABLESTYLE
350
2EE
  3
CVIEWDETAILSTYLE
350
35A
  3
CVIEWSECTIONSTYLE
350
35B
  3
MSLTSCALE
350
2AF
  3
XCLIPFRAME
350
35C
  0
XRECORD
  5
343
102
{ACAD_REACTORS
330
342
102
}
330
342
100
AcDbXrecord
280
     1
290
     1
  0
XRECORD
  5
345
102
{ACAD_REACTORS
330
344
102
}
330
344
100
AcDbXrecord
280
     1
290
     1
  0
XRECORD
  5
347
102
{ACAD_REACTORS
330
346
102
}
330
346
100
AcDbXrecord
280
     1
290
     1
  0
XRECORD
  5
349
102
{ACAD_REACTORS
330
348
102
}
330
348
100
AcDbXrecord
280
     1
290
     1
  0
XRECORD
  5
34B
102
{ACAD_REACTORS
330
34A
102
}
330
34A
100
AcDbXrecord
280
     1
290
     1
  0
XRECORD
  5
34D
102
{ACAD_REACTORS
330
34C
102
}
330
34C
100
AcDbXrecord
280
     1
290
     1
  0
XRECORD
  5
34F
102
{ACAD_REACTORS
330
34E
102
}
330
34E
100
AcDbXrecord
280
     1
290
     1
  0
XRECORD
  5
351
102
{ACAD_REACTORS
330
350
102
}
330
350
100
AcDbXrecord
280
     1
290
     1
  0
XRECORD
  5
353
102
{ACAD_REACTORS
330
352
102
}
330
352
100
AcDbXrecord
280
     1
290
     1
  0
XRECORD
  5
355
102
{ACAD_REACTORS
330
354
102
}
330
354
100
AcDbXrecord
280
     1
290
     1
  0
XRECORD
  5
357
102
{ACAD_REACTORS
330
356
102
}
330
356
100
AcDbXrecord
280
     1
290
     1
  0
XRECORD
  5
359
102
{ACAD_REACTORS
330
358
102
}
330
358
100
AcDbXrecord
280
     1
290
     1
  0
SORTENTSTABLE
  5
2FB
102
{ACAD_REACTORS
330
2FA
102
}
330
2FA
100
AcDbSortentsTable
330
1F
331
2FC
  5
267
331
2FD
  5
280
331
2FE
  5
2FC
331
2FF
  5
2FD
331
300
  5
2FE
331
301
  5
2FF
331
302
  5
300
331
303
  5
301
331
304
  5
302
331
305
  5
303
331
306
  5
304
331
307
  5
305
331
308
  5
306
331
309
  5
307
331
30A
  5
308
331
30B
  5
309
331
30C
  5
30A
331
30D
  5
30B
331
30E
  5
30C
331
30F
  5
30D
331
310
  5
30E
331
311
  5
30F
331
312
  5
310
331
313
  5
311
331
314
  5
312
331
315
  5
313
331
316
  5
314
331
317
  5
315
331
318
  5
316
331
32A
  5
32D
331
32C
  5
330
331
32D
  5
331
331
32E
  5
332
331
32F
  5
333
331
330
  5
32A
331
331
  5
32C
331
332
  5
32E
331
333
  5
32F
  0
ACDBDETAILVIEWSTYLE
  5
2F6
102
{ACAD_XDICTIONARY
360
393
102
}
102
{ACAD_REACTORS
330
2F0
102
}
330
2F0
100
AcDbModelDocViewStyle
 70
     0
  3
Metric50
290
     0
100
AcDbDetailViewStyle
 70
     0
 71
     0
 90
        3
 71
     1
340
11
 62
   256
 40
5.0
340
0
 62
   256
 40
5.0
300

 40
0.0
280
     1
 71
     2
340
16
 90
       25
 62
   256
 71
     3
340
11
 62
   256
 40
5.0
 90
        0
 40
15.0
 90
        1
300
%<\AcVar ViewDetailId>% (%<\AcVar ViewScale \f "%sn">%)
 71
     4
340
16
 90
       25
 62
   256
340
16
 90
       25
 62
   256
280
     0
  0
GROUP
  5
341
102
{ACAD_REACTORS
330
D
102
}
330
D
100
AcDbGroup
300

 70
     0
 71
     1
340
73
  0
LAYOUT
  5
1E
102
{ACAD_REACTORS
330
1A
102
}
330
1A
100
AcDbPlotSettings
  1

  2
none_device
  4

  6

 40
0.0
 41
0.0
 42
0.0
 43
0.0
 44
0.0
 45
0.0
 46
0.0
 47
0.0
 48
0.0
 49
0.0
140
0.0
141
0.0
142
1.0
143
1.0
 70
   688
 72
     0
 73
     0
 74
     5
  7

 75
    16
147
1.0
 76
     0
 77
     2
 78
   300
148
0.0
149
0.0
100
AcDbLayout
  1
Layout1
 70
     1
 71
     1
 10
-0.5
 20
-0.5
 11
5.0
 21
5.0
 12
0.0
 22
0.0
 32
0.0
 14
-0.5
 24
-0.5
 34
-0.5
 15
5.0
 25
5.0
 35
5.0
146
0.0
 13
0.0
 23
0.0
 33
0.0
 16
1.0
 26
0.0
 36
0.0
 17
0.0
 27
1.0
 37
0.0
 76
     0
330
1B
  0
LAYOUT
  5
26
102
{ACAD_REACTORS
330
1A
102
}
330
1A
100
AcDbPlotSettings
  1

  2
none_device
  4

  6

 40
0.0
 41
0.0
 42
0.0
 43
0.0
 44
0.0
 45
0.0
 46
0.0
 47
0.0
 48
0.0
 49
0.0
140
0.0
141
0.0
142
1.0
143
1.0
 70
   688
 72
     0
 73
     0
 74
     5
  7

 75
    16
147
1.0
 76
     0
 77
     2
 78
   300
148
0.0
149
0.0
100
AcDbLayout
  1
Layout2
 70
     1
 71
     2
 10
0.0
 20
0.0
 11
0.0
 21
0.0
 12
0.0
 22
0.0
 32
0.0
 14
0.0
 24
0.0
 34
0.0
 15
0.0
 25
0.0
 35
0.0
146
0.0
 13
0.0
 23
0.0
 33
0.0
 16
1.0
 26
0.0
 36
0.0
 17
0.0
 27
1.0
 37
0.0
 76
     0
330
23
  0
LAYOUT
  5
22
102
{ACAD_REACTORS
330
1A
102
}
330
1A
100
AcDbPlotSettings
  1

  2
none_device
  4
Letter_(8.50_x_11.00_Inches)
  6

 40
6.349999999999999
 41
6.349999999999999
 42
6.350005
 43
6.350005
 44
215.9
 45
279.4
 46
0.0
 47
0.0
 48
0.0
 49
0.0
140
0.0
141
0.0
142
1.0
143
1.0
 70
  1712
 72
     0
 73
     0
 74
     0
  7

 75
     0
147
1.0
 76
     0
 77
     2
 78
   300
148
0.0
149
0.0
100
AcDbLayout
  1
Model
 70
     1
 71
     0
 10
-0.5
 20
-0.5
 11
5.0
 21
5.0
 12
0.0
 22
0.0
 32
0.0
 14
-0.5
 24
-0.5
 34
-0.5
 15
5.0
 25
5.0
 35
5.0
146
0.0
 13
0.0
 23
0.0
 33
0.0
 16
1.0
 26
0.0
 36
0.0
 17
0.0
 27
1.0
 37
0.0
 76
     0
330
1F
331
29
  0
MATERIAL
  5
45
102
{ACAD_XDICTIONARY
360
2E3
102
}
102
{ACAD_REACTORS
330
43
102
}
330
43
100
AcDbMaterial
  1
ByBlock
  0
MATERIAL
  5
44
102
{ACAD_XDICTIONARY
360
2E1
102
}
102
{ACAD_REACTORS
330
43
102
}
330
43
100
AcDbMaterial
  1
ByLayer
  0
MATERIAL
  5
46
102
{ACAD_XDICTIONARY
360
2E5
102
}
102
{ACAD_REACTORS
330
43
102
}
330
43
100
AcDbMaterial
  1
Global
  0
MLEADERSTYLE
  5
6C
102
{ACAD_REACTORS
330
6B
102
}
330
6B
100
AcDbMLeaderStyle
170
     2
171
     1
172
     0
 90
        2
 40
0.0
 41
0.0
173
     1
 91
-1056964608
340
14
 92
       -2
290
     1
 42
0.09
291
     1
 43
0.36
  3
Standard
 44
0.18
300

342
11
174
     1
178
     6
175
     1
176
     0
 93
-1056964608
 45
0.18
292
     0
297
     0
 46
0.18
 94
-1056964608
 47
1.0
 49
1.0
140
1.0
293
     1
141
0.0
294
     1
177
     0
142
1.0
295
     0
296
     0
143
0.125
1001
ACAD_MLEADERVER
1070
     2
  0
MLINESTYLE
  5
18
102
{ACAD_REACTORS
330
17
102
}
330
17
100
AcDbMlineStyle
  2
STANDARD
 70
     0
  3

 62
   256
 51
90.0
 52
90.0
 71
     2
 49
0.5
 62
   256
  6
BYLAYER
 49
-0.5
 62
   256
  6
BYLAYER
  0
ACDBPLACEHOLDER
  5
F
102
{ACAD_REACTORS
330
E
102
}
330
E
  0
SCALE
  5
48
102
{ACAD_REACTORS
330
47
102
}
330
47
100
AcDbScale
 70
     0
300
1:1
140
1.0
141
1.0
290
     1
  0
SCALE
  5
49
102
{ACAD_REACTORS
330
47
102
}
330
47
100
AcDbScale
 70
     0
300
1:2
140
1.0
141
2.0
290
     0
  0
SCALE
  5
4A
102
{ACAD_REACTORS
330
47
102
}
330
47
100
AcDbScale
 70
     0
300
1:4
140
1.0
141
4.0
290
     0
  0
SCALE
  5
4B
102
{ACAD_REACTORS
330
47
102
}
330
47
100
AcDbScale
 70
     0
300
1:5
140
1.0
141
5.0
290
     0
  0
SCALE
  5
4C
102
{ACAD_REACTORS
330
47
102
}
330
47
100
AcDbScale
 70
     0
300
1:8
140
1.0
141
8.0
290
     0
  0
SCALE
  5
4D
102
{ACAD_REACTORS
330
47
102
}
330
47
100
AcDbScale
 70
     0
300
1:10
140
1.0
141
10.0
290
     0
  0
SCALE
  5
4E
102
{ACAD_REACTORS
330
47
102
}
330
47
100
AcDbScale
 70
     0
300
1:16
140
1.0
141
16.0
290
     0
  0
SCALE
  5
4F
102
{ACAD_REACTORS
330
47
102
}
330
47
100
AcDbScale
 70
     0
300
1:20
140
1.0
141
20.0
290
     0
  0
SCALE
  5
50
102
{ACAD_REACTORS
330
47
102
}
330
47
100
AcDbScale
 70
     0
300
1:30
140
1.0
141
30.0
290
     0
  0
SCALE
  5
51
102
{ACAD_REACTORS
330
47
102
}
330
47
100
AcDbScale
 70
     0
300
1:40
140
1.0
141
40.0
290
     0
  0
SCALE
  5
52
102
{ACAD_REACTORS
330
47
102
}
330
47
100
AcDbScale
 70
     0
300
1:50
140
1.0
141
50.0
290
     0
  0
SCALE
  5
53
102
{ACAD_REACTORS
330
47
102
}
330
47
100
AcDbScale
 70
     0
300
1:100
140
1.0
141
100.0
290
     0
  0
SCALE
  5
54
102
{ACAD_REACTORS
330
47
102
}
330
47
100
AcDbScale
 70
     0
300
2:1
140
2.0
141
1.0
290
     0
  0
SCALE
  5
55
102
{ACAD_REACTORS
330
47
102
}
330
47
100
AcDbScale
 70
     0
300
4:1
140
4.0
141
1.0
290
     0
  0
SCALE
  5
56
102
{ACAD_REACTORS
330
47
102
}
330
47
100
AcDbScale
 70
     0
300
8:1
140
8.0
141
1.0
290
     0
  0
SCALE
  5
57
102
{ACAD_REACTORS
330
47
102
}
330
47
100
AcDbScale
 70
     0
300
10:1
140
10.0
141
1.0
290
     0
  0
SCALE
  5
58
102
{ACAD_REACTORS
330
47
102
}
330
47
100
AcDbScale
 70
     0
300
100:1
140
100.0
141
1.0
290
     0
  0
SCALE
  5
59
102
{ACAD_REACTORS
330
47
102
}
330
47
100
AcDbScale
 70
     0
300
1/128" = 1'-0"
140
0.007812
141
12.0
290
     0
  0
SCALE
  5
5A
102
{ACAD_REACTORS
330
47
102
}
330
47
100
AcDbScale
 70
     0
300
1/64" = 1'-0"
140
0.015625
141
12.0
290
     0
  0
SCALE
  5
5B
102
{ACAD_REACTORS
330
47
102
}
330
47
100
AcDbScale
 70
     0
300
1/32" = 1'-0"
140
0.03125
141
12.0
290
     0
  0
SCALE
  5
5C
102
{ACAD_REACTORS
330
47
102
}
330
47
100
AcDbScale
 70
     0
300
1/16" = 1'-0"
140
0.0625
141
12.0
290
     0
  0
SCALE
  5
5D
102
{ACAD_REACTORS
330
47
102
}
330
47
100
AcDbScale
 70
     0
300
3/32" = 1'-0"
140
0.09375
141
12.0
290
     0
  0
SCALE
  5
5E
102
{ACAD_REACTORS
330
47
102
}
330
47
100
AcDbScale
 70
     0
300
1/8" = 1'-0"
140
0.125
141
12.0
290
     0
  0
SCALE
  5
5F
102
{ACAD_REACTORS
330
47
102
}
330
47
100
AcDbScale
 70
     0
300
3/16" = 1'-0"
140
0.1875
141
12.0
290
     0
  0
SCALE
  5
60
102
{ACAD_REACTORS
330
47
102
}
330
47
100
AcDbScale
 70
     0
300
1/4" = 1'-0"
140
0.25
141
12.0
290
     0
  0
SCALE
  5
61
102
{ACAD_REACTORS
330
47
102
}
330
47
100
AcDbScale
 70
     0
300
3/8" = 1'-0"
140
0.375
141
12.0
290
     0
  0
SCALE
  5
62
102
{ACAD_REACTORS
330
47
102
}
330
47
100
AcDbScale
 70
     0
300
1/2" = 1'-0"
140
0.5
141
12.0
290
     0
  0
SCALE
  5
63
102
{ACAD_REACTORS
330
47
102
}
330
47
100
AcDbScale
 70
     0
300
3/4" = 1'-0"
140
0.75
141
12.0
290
     0
  0
SCALE
  5
64
102
{ACAD_REACTORS
330
47
102
}
330
47
100
AcDbScale
 70
     0
300
1" = 1'-0"
140
1.0
141
12.0
290
     0
  0
SCALE
  5
65
102
{ACAD_REACTORS
330
47
102
}
330
47
100
AcDbScale
 70
     0
300
1-1/2" = 1'-0"
140
1.5
141
12.0
290
     0
  0
SCALE
  5
66
102
{ACAD_REACTORS
330
47
102
}
330
47
100
AcDbScale
 70
     0
300
3" = 1'-0"
140
3.0
141
12.0
290
     0
  0
SCALE
  5
67
102
{ACAD_REACTORS
330
47
102
}
330
47
100
AcDbScale
 70
     0
300
6" = 1'-0"
140
6.0
141
12.0
290
     0
  0
SCALE
  5
68
102
{ACAD_REACTORS
330
47
102
}
330
47
100
AcDbScale
 70
     0
300
1'-0" = 1'-0"
140
12.0
141
12.0
290
     0
  0
ACDBSECTIONVIEWSTYLE
  5
2F5
102
{ACAD_XDICTIONARY
360
391
102
}
102
{ACAD_REACTORS
330
2F1
102
}
330
2F1
100
AcDbModelDocViewStyle
 70
     0
  3
Metric50
290
     0
100
AcDbSectionViewStyle
 70
     0
 71
     0
 90
      102
 71
     1
340
11
 62
   256
 40
5.0
340
0
340
0
 62
   256
 40
5.0
300
I, O, Q, S, X, Z
 40
10.0
 90
        0
 40
2.5
 90
        0
 71
     2
340
16
 90
       25
 62
   256
340
16
 90
       50
 62
   256
 40
5.0
 40
2.5
 40
5.0
 71
     3
340
11
 62
   256
 40
5.0
 90
        0
 40
15.0
 90
        1
300
%<\AcVar ViewSectionStartId>%-%<\AcVar ViewSectionEndId>% (%<\AcVar ViewScale \f "%sn">%)
 71
     4
 62
   256
 62
   257
300
ANSI31
 40
1.0
 90
        0
290
     0
290
     0
 90
        6
 40
0.0
 40
1.570796326794896
 40
0.2617993877991494
 40
1.308996938995747
 40
-0.2617993877991494
 40
1.832595714594046
  0
TABLESTYLE
  5
6A
102
{ACAD_XDICTIONARY
360
2E7
102
}
102
{ACAD_REACTORS
330
69
102
}
330
69
100
AcDbTableStyle
  3
Standard
 70
     0
 71
     0
 40
0.06
 41
0.06
280
     0
281
     0
  7
Standard
140
0.18
170
     2
 62
     0
 63
     7
283
     0
274
    -2
284
     1
 64
     0
275
    -2
285
     1
 65
     0
276
    -2
286
     1
 66
     0
277
    -2
287
     1
 67
     0
278
    -2
288
     1
 68
     0
279
    -2
289
     1
 69
     0
  7
Standard
140
0.25
170
     5
 62
     0
 63
     7
283
     0
274
    -2
284
     1
 64
     0
275
    -2
285
     1
 65
     0
276
    -2
286
     1
 66
     0
277
    -2
287
     1
 67
     0
278
    -2
288
     1
 68
     0
279
    -2
289
     1
 69
     0
  7
Standard
140
0.18
170
     5
 62
     0
 63
     7
283
     0
274
    -2
284
     1
 64
     0
275
    -2
285
     1
 65
     0
276
    -2
286
     1
 66
     0
277
    -2
287
     1
 67
     0
278
    -2
288
     1
 68
     0
279
    -2
289
     1
 69
     0
  0
VISUALSTYLE
  5
2F
102
{ACAD_XDICTIONARY
360
368
102
}
102
{ACAD_REACTORS
330
2A
102
}
330
2A
100
AcDbVisualStyle
  2

 70
     4
 71
     0
 72
     2
 73
     0
 90
        0
 40
-0.6
 41
-30.0
 62
     5
 63
     7
421
 16777215
 74
     1
 91
        4
 64
     7
 65
   257
 75
     1
175
     1
 42
1.0
 92
        0
 66
   257
 43
1.0
 76
     1
 77
     6
 78
     2
 67
     7
 79
     5
170
     0
171
     0
290
     0
174
     0
 93
        1
 44
0.0
173
     0
291
     0
 45
0.0
1001
ACAD
1000
AcDbSavedByObjectVersion
1070
     0
  0
VISUALSTYLE
  5
32
102
{ACAD_XDICTIONARY
360
36E
102
}
102
{ACAD_REACTORS
330
2A
102
}
330
2A
100
AcDbVisualStyle
  2

 70
     7
 71
     1
 72
     0
 73
     1
 90
        0
 40
-0.6
 41
-30.0
 62
     5
 63
     7
421
 16777215
 74
     0
 91
        4
 64
     7
 65
   257
 75
     1
175
     1
 42
1.0
 92
        8
 66
     7
 43
1.0
 76
     1
 77
     6
 78
     2
 67
     7
 79
     5
170
     0
171
     0
290
     0
174
     0
 93
        1
 44
0.0
173
     0
291
     1
 45
0.0
1001
ACAD
1000
AcDbSavedByObjectVersion
1070
     0
  0
VISUALSTYLE
  5
36
102
{ACAD_XDICTIONARY
360
376
102
}
102
{ACAD_REACTORS
330
2A
102
}
330
2A
100
AcDbVisualStyle
  2

 70
    12
 71
     2
 72
     2
 73
     0
 90
        0
 40
-0.6
 41
-30.0
 62
     5
 63
     7
421
 16777215
 74
     1
 91
        4
 64
     7
 65
   257
 75
     1
175
     1
 42
1.0
 92
        8
 66
     7
 43
1.0
 76
     1
 77
     6
 78
     2
 67
     7
 79
     5
170
     0
171
     0
290
     0
174
     0
 93
        1
 44
50.0
173
     0
291
     1
 45
0.0
1001
ACAD
1000
AcDbSavedByObjectVersion
1070
     0
  0
VISUALSTYLE
  5
3A
102
{ACAD_XDICTIONARY
360
37E
102
}
102
{ACAD_REACTORS
330
2A
102
}
330
2A
100
AcDbVisualStyle
  2

 70
    16
 71
     2
 72
     2
 73
     3
 90
        0
 40
-0.6
 41
-30.0
 62
     5
 63
     8
421
  8421504
 74
     1
 91
        4
 64
     7
 65
   257
 75
     1
175
     1
 42
1.0
 92
        8
 66
     8
424
  8421504
 43
1.0
 76
     1
 77
     6
 78
     2
 67
     7
 79
     5
170
     0
171
     0
290
     0
174
     0
 93
        1
 44
0.0
173
     0
291
     1
 45
0.0
1001
ACAD
1000
AcDbSavedByObjectVersion
1070
     0
  0
VISUALSTYLE
  5
34
102
{ACAD_XDICTIONARY
360
372
102
}
102
{ACAD_REACTORS
330
2A
102
}
330
2A
100
AcDbVisualStyle
  2

 70
     9
 71
     3
 72
     2
 73
     0
 90
        0
 40
-0.6
 41
-30.0
 62
     5
 63
     7
421
 16777215
 74
     2
 91
        2
 64
     7
 65
   257
 75
     1
175
     1
 42
179.0
 92
        8
 66
     7
 43
1.0
 76
     1
 77
     6
 78
     2
 67
     7
 79
     3
170
     0
171
     0
290
     0
174
     0
 93
        1
 44
0.0
173
     0
291
     0
 45
0.0
1001
ACAD
1000
AcDbSavedByObjectVersion
1070
     0
  0
VISUALSTYLE
  5
35
102
{ACAD_XDICTIONARY
360
374
102
}
102
{ACAD_REACTORS
330
2A
102
}
330
2A
100
AcDbVisualStyle
  2

 70
    11
 71
     2
 72
     2
 73
     0
 90
        0
 40
-0.6
 41
-30.0
 62
     5
 63
     7
421
 16777215
 74
     1
 91
        4
 64
     7
 65
   257
 75
     1
175
     1
 42
1.0
 92
        8
 66
     7
 43
1.0
 76
     1
 77
     6
 78
     2
 67
     7
 79
     5
170
     0
171
     0
290
     0
174
     0
 93
        1
 44
-50.0
173
     0
291
     1
 45
0.0
1001
ACAD
1000
AcDbSavedByObjectVersion
1070
     0
  0
VISUALSTYLE
  5
3D
102
{ACAD_XDICTIONARY
360
384
102
}
102
{ACAD_REACTORS
330
2A
102
}
330
2A
100
AcDbVisualStyle
  2

 70
    22
 71
     2
 72
     2
 73
     0
 90
        0
 40
-0.6
 41
-30.0
 62
     5
 63
     7
421
 16777215
 74
     1
 91
        4
 64
     7
 65
   257
 75
     1
175
     1
 42
1.0
 92
        8
 66
     7
 43
1.0
 76
     1
 77
     6
 78
     2
 67
     7
 79
     5
170
     0
171
     0
290
     0
174
     0
 93
        1
 44
0.0
173
     0
291
     1
 45
0.0
1001
ACAD
1000
AcDbSavedByObjectVersion
1070
     0
  0
VISUALSTYLE
  5
39
102
{ACAD_XDICTIONARY
360
37C
102
}
102
{ACAD_REACTORS
330
2A
102
}
330
2A
100
AcDbVisualStyle
  2

 70
    15
 71
     2
 72
     2
 73
     0
 90
        0
 40
-0.6
 41
-30.0
 62
     5
 63
     7
421
 16777215
 74
     1
 91
        4
 64
     7
 65
   257
 75
     1
175
     1
 42
1.0
 92
        8
 66
     7
 43
1.0
 76
     1
 77
     6
 78
     2
 67
     7
 79
     5
170
     0
171
     0
290
     0
174
     0
 93
        1
 44
0.0
173
     0
291
     1
 45
0.0
1001
ACAD
1000
AcDbSavedByObjectVersion
1070
     0
  0
VISUALSTYLE
  5
2B
102
{ACAD_XDICTIONARY
360
360
102
}
102
{ACAD_REACTORS
330
2A
102
}
330
2A
100
AcDbVisualStyle
  2

 70
     0
 71
     2
 72
     1
 73
     1
 90
        2
 40
-0.6
 41
30.0
 62
     5
 63
     7
421
 16777215
 74
     0
 91
        0
 64
     7
 65
   257
 75
     1
175
     1
 42
1.0
 92
        8
 66
     7
 43
1.0
 76
     1
 77
     6
 78
     2
 67
     7
 79
     5
170
     0
171
     0
290
     0
174
     0
 93
       13
 44
0.0
173
     0
291
     1
 45
0.0
1001
ACAD
1000
AcDbSavedByObjectVersion
1070
     0
  0
VISUALSTYLE
  5
2C
102
{ACAD_XDICTIONARY
360
362
102
}
102
{ACAD_REACTORS
330
2A
102
}
330
2A
100
AcDbVisualStyle
  2

 70
     1
 71
     2
 72
     1
 73
     1
 90
        2
 40
-0.6
 41
30.0
 62
     5
 63
     7
421
 16777215
 74
     1
 91
        0
 64
     7
 65
   257
 75
     1
175
     1
 42
1.0
 92
        0
 66
   257
 43
1.0
 76
     1
 77
     6
 78
     2
 67
     7
 79
     5
170
     0
171
     0
290
     0
174
     0
 93
       13
 44
0.0
173
     0
291
     1
 45
0.0
1001
ACAD
1000
AcDbSavedByObjectVersion
1070
     0
  0
VISUALSTYLE
  5
2D
102
{ACAD_XDICTIONARY
360
364
102
}
102
{ACAD_REACTORS
330
2A
102
}
330
2A
100
AcDbVisualStyle
  2

 70
     2
 71
     2
 72
     2
 73
     1
 90
        2
 40
-0.6
 41
30.0
 62
     5
 63
     7
421
 16777215
 74
     0
 91
        0
 64
     7
 65
   257
 75
     1
175
     1
 42
1.0
 92
        0
 66
     7
 43
1.0
 76
     1
 77
     6
 78
     2
 67
     7
 79
     5
170
     0
171
     0
290
     0
174
     0
 93
       13
 44
0.0
173
     0
291
     1
 45
0.0
1001
ACAD
1000
AcDbSavedByObjectVersion
1070
     0
  0
VISUALSTYLE
  5
2E
102
{ACAD_XDICTIONARY
360
366
102
}
102
{ACAD_REACTORS
330
2A
102
}
330
2A
100
AcDbVisualStyle
  2

 70
     3
 71
     2
 72
     2
 73
     1
 90
        2
 40
-0.6
 41
30.0
 62
     5
 63
     7
421
 16777215
 74
     1
 91
        0
 64
     7
 65
   257
 75
     1
175
     1
 42
1.0
 92
        0
 66
   257
 43
1.0
 76
     1
 77
     6
 78
     2
 67
     7
 79
     5
170
     0
171
     0
290
     0
174
     0
 93
       13
 44
0.0
173
     0
291
     1
 45
0.0
1001
ACAD
1000
AcDbSavedByObjectVersion
1070
     0
  0
VISUALSTYLE
  5
31
102
{ACAD_XDICTIONARY
360
36C
102
}
102
{ACAD_REACTORS
330
2A
102
}
330
2A
100
AcDbVisualStyle
  2

 70
     6
 71
     1
 72
     2
 73
     2
 90
        0
 40
-0.6
 41
-30.0
 62
     5
 63
     7
421
 16777215
 74
     2
 91
        2
 64
     7
 65
   257
 75
     2
175
     1
 42
40.0
 92
        0
 66
   257
 43
1.0
 76
     1
 77
     6
 78
     2
 67
     7
 79
     3
170
     0
171
     0
290
     0
174
     0
 93
        1
 44
0.0
173
     0
291
     0
 45
0.0
1001
ACAD
1000
AcDbSavedByObjectVersion
1070
     0
  0
VISUALSTYLE
  5
3B
102
{ACAD_XDICTIONARY
360
380
102
}
102
{ACAD_REACTORS
330
2A
102
}
330
2A
100
AcDbVisualStyle
  2

 70
    20
 71
     2
 72
     2
 73
     0
 90
        0
 40
-0.6
 41
-30.0
 62
     5
 63
     7
421
 16777215
 74
     1
 91
        4
 64
     7
 65
   257
 75
     1
175
     1
 42
1.0
 92
       10
 66
     7
 43
1.0
 76
     1
 77
     6
 78
     2
 67
     7
 79
     5
170
     0
171
     0
290
     0
174
     0
 93
        1
 44
0.0
173
     0
291
     1
 45
0.0
1001
ACAD
1000
AcDbSavedByObjectVersion
1070
     0
  0
VISUALSTYLE
  5
38
102
{ACAD_XDICTIONARY
360
37A
102
}
102
{ACAD_REACTORS
330
2A
102
}
330
2A
100
AcDbVisualStyle
  2

 70
    14
 71
     2
 72
     2
 73
     0
 90
        0
 40
-0.6
 41
-30.0
 62
     5
 63
     7
421
 16777215
 74
     1
 91
        4
 64
     7
 65
   257
 75
     7
175
     7
 42
1.0
 92
        8
 66
     7
 43
1.0
 76
     1
 77
     6
 78
     2
 67
     7
 79
     5
170
     0
171
     0
290
     0
174
     0
 93
        1
 44
0.0
173
     0
291
     1
 45
0.0
1001
ACAD
1000
AcDbSavedByObjectVersion
1070
     0
  0
VISUALSTYLE
  5
3C
102
{ACAD_XDICTIONARY
360
382
102
}
102
{ACAD_REACTORS
330
2A
102
}
330
2A
100
AcDbVisualStyle
  2

 70
    21
 71
     2
 72
     2
 73
     0
 90
        0
 40
-0.6
 41
-30.0
 62
     5
 63
     7
421
 16777215
 74
     1
 91
        4
 64
     7
 65
   257
 75
     1
175
     1
 42
1.0
 92
        9
 66
     7
 43
1.0
 76
     1
 77
     6
 78
     2
 67
     7
 79
     5
170
     0
171
     0
290
     0
174
     0
 93
        1
 44
0.0
173
     0
291
     1
 45
0.0
1001
ACAD
1000
AcDbSavedByObjectVersion
1070
     0
  0
VISUALSTYLE
  5
33
102
{ACAD_XDICTIONARY
360
370
102
}
102
{ACAD_REACTORS
330
2A
102
}
330
2A
100
AcDbVisualStyle
  2

 70
     8
 71
     2
 72
     3
 73
     0
 90
        2
 40
-0.6
 41
30.0
 62
     5
 63
     7
421
 16777215
 74
     0
 91
        0
 64
     7
 65
   257
 75
     1
175
     1
 42
1.0
 92
        8
 66
   257
 43
1.0
 76
     1
 77
     6
 78
     2
 67
     7
 79
     3
170
     0
171
     0
290
     0
174
     0
 93
       13
 44
0.0
173
     0
291
     0
 45
0.0
1001
ACAD
1000
AcDbSavedByObjectVersion
1070
     0
  0
VISUALSTYLE
  5
42
102
{ACAD_XDICTIONARY
360
38E
102
}
102
{ACAD_REACTORS
330
2A
102
}
330
2A
100
AcDbVisualStyle
  2

 70
    27
 71
     2
 72
     2
 73
     1
 90
        2
 40
-0.6
 41
30.0
 62
     5
 63
     7
421
 16777215
 74
     0
 91
        4
 64
     7
 65
   257
 75
     1
175
     1
 42
1.0
 92
        8
 66
   257
 43
1.0
 76
     1
 77
     6
 78
     2
 67
     8
425
  7895160
 79
     3
170
     0
171
     0
290
     0
174
     0
 93
        5
 44
0.0
173
     0
291
     0
 45
0.0
1001
ACAD
1000
AcDbSavedByObjectVersion
1070
     0
  0
VISUALSTYLE
  5
41
102
{ACAD_XDICTIONARY
360
38C
102
}
102
{ACAD_REACTORS
330
2A
102
}
330
2A
100
AcDbVisualStyle
  2

 70
    26
 71
     2
 72
     2
 73
     1
 90
        2
 40
-0.6
 41
30.0
 62
     5
 63
     7
421
 16777215
 74
     1
 91
       10
 64
     7
 65
   257
 75
     2
175
     1
 42
1.0
 92
        8
 66
   257
 43
1.0
 76
     1
 77
     6
 78
     2
 67
     7
 79
     3
170
     0
171
     0
290
     0
174
     0
 93
        5
 44
0.0
173
     0
291
     0
 45
0.0
1001
ACAD
1000
AcDbSavedByObjectVersion
1070
     0
  0
VISUALSTYLE
  5
3E
102
{ACAD_XDICTIONARY
360
386
102
}
102
{ACAD_REACTORS
330
2A
102
}
330
2A
100
AcDbVisualStyle
  2

 70
    23
 71
     2
 72
     2
 73
     3
 90
        0
 40
-0.6
 41
-30.0
 62
     5
 63
     7
421
 16777215
 74
     2
 91
        2
 64
     7
 65
     7
 75
     1
175
     1
 42
40.0
 92
        8
 66
     7
 43
1.0
 76
     1
 77
     6
 78
     2
 67
     7
 79
     3
170
     0
171
     0
290
     0
174
     0
 93
        1
 44
0.0
173
     0
291
     0
 45
0.0
1001
ACAD
1000
AcDbSavedByObjectVersion
1070
     0
  0
VISUALSTYLE
  5
3F
102
{ACAD_XDICTIONARY
360
388
102
}
102
{ACAD_REACTORS
330
2A
102
}
330
2A
100
AcDbVisualStyle
  2

 70
    24
 71
     1
 72
     2
 73
     2
 90
        0
 40
-0.6
 41
-30.0
 62
     5
 63
     7
421
 16777215
 74
     2
 91
        2
 64
     7
 65
     7
 75
     1
175
     1
 42
40.0
 92
       11
 66
     7
 43
1.0
 76
     1
 77
     6
 78
     2
 67
     7
 79
     6
170
     0
171
     0
290
     0
174
     0
 93
        1
 44
0.0
173
     0
291
     0
 45
0.0
1001
ACAD
1000
AcDbSavedByObjectVersion
1070
     0
  0
VISUALSTYLE
  5
37
102
{ACAD_XDICTIONARY
360
378
102
}
102
{ACAD_REACTORS
330
2A
102
}
330
2A
100
AcDbVisualStyle
  2

 70
    13
 71
     2
 72
     2
 73
     0
 90
        0
 40
-0.6
 41
-30.0
 62
     5
 63
     7
421
 16777215
 74
     1
 91
        4
 64
     7
 65
   257
 75
     1
175
     1
 42
1.0
 92
       12
 66
     7
 43
1.0
 76
     1
 77
     6
 78
     2
 67
     7
 79
     5
170
     0
171
     0
290
     0
174
     0
 93
        1
 44
0.0
173
     0
291
     1
 45
0.0
1001
ACAD
1000
AcDbSavedByObjectVersion
1070
     0
  0
VISUALSTYLE
  5
30
102
{ACAD_XDICTIONARY
360
36A
102
}
102
{ACAD_REACTORS
330
2A
102
}
330
2A
100
AcDbVisualStyle
  2

 70
     5
 71
     0
 72
     2
 73
     0
 90
        0
 40
-0.6
 41
-30.0
 62
     5
 63
     7
421
 16777215
 74
     1
 91
        4
 64
     7
 65
   257
 75
     1
175
     1
 42
1.0
 92
        0
 66
   257
 43
1.0
 76
     1
 77
     6
 78
     2
 67
     7
 79
     3
170
     0
171
     0
290
     0
174
     0
 93
        1
 44
0.0
173
     0
291
     0
 45
0.0
1001
ACAD
1000
AcDbSavedByObjectVersion
1070
     0
  0
VISUALSTYLE
  5
40
102
{ACAD_XDICTIONARY
360
38A
102
}
102
{ACAD_REACTORS
330
2A
102
}
330
2A
100
AcDbVisualStyle
  2

 70
    25
 71
     2
 72
     2
 73
     1
 90
        1
 40
0.5
 41
-30.0
 62
     5
 63
     7
421
 16777215
 74
     1
 91
        0
 64
     7
 65
   257
 75
     1
175
     1
 42
1.0
 92
        8
 66
     7
 43
1.0
 76
     1
 77
     6
 78
     2
 67
     7
 79
     3
170
     0
171
     0
290
     0
174
     0
 93
       13
 44
0.0
173
     0
291
     0
 45
0.0
1001
ACAD
1000
AcDbSavedByObjectVersion
1070
     0
  0
DICTIONARYVAR
  5
2AE
102
{ACAD_REACTORS
330
2AD
102
}
330
2AD
100
DictionaryVariables
280
     0
  1
1:1
  0
DICTIONARYVAR
  5
2EF
102
{ACAD_REACTORS
330
2AD
102
}
330
2AD
100
DictionaryVariables
280
     0
  1
STANDARD
  0
DICTIONARYVAR
  5
2EE
102
{ACAD_REACTORS
330
2AD
102
}
330
2AD
100
DictionaryVariables
280
     0
  1
STANDARD
  0
DICTIONARYVAR
  5
35A
102
{ACAD_REACTORS
330
2AD
102
}
330
2AD
100
DictionaryVariables
280
     0
  1
Metric50
  0
DICTIONARYVAR
  5
35B
102
{ACAD_REACTORS
330
2AD
102
}
330
2AD
100
DictionaryVariables
280
     0
  1
Metric50
  0
DICTIONARYVAR
  5
2AF
102
{ACAD_REACTORS
330
2AD
102
}
330
2AD
100
DictionaryVariables
280
     0
  1
1
  0
DICTIONARYVAR
  5
35C
102
{ACAD_REACTORS
330
2AD
102
}
330
2AD
100
DictionaryVariables
280
     0
  1
2
  0
DICTIONARY
  5
393
330
2F6
100
AcDbDictionary
280
     1
281
     1
  3
ACAD_XREC_ROUNDTRIP
360
394
  0
DICTIONARY
  5
2E3
330
45
100
AcDbDictionary
280
     1
281
     1
  3
ACAD_XREC_ROUNDTRIP
360
2E4
  0
DICTIONARY
  5
2E1
330
44
100
AcDbDictionary
280
     1
281
     1
  3
ACAD_XREC_ROUNDTRIP
360
2E2
  0
DICTIONARY
  5
2E5
330
46
100
AcDbDictionary
280
     1
281
     1
  3
ACAD_XREC_ROUNDTRIP
360
2E6
  0
DICTIONARY
  5
391
330
2F5
100
AcDbDictionary
280
     1
281
     1
  3
ACAD_XREC_ROUNDTRIP
360
392
  0
DICTIONARY
  5
2E7
330
6A
100
AcDbDictionary
280
     1
281
     1
  3
ACAD_ROUNDTRIP_2008_TABLESTYLE_CELLSTYLEMAP
360
35E
  3
ACAD_XREC_ROUNDTRIP
360
390
  0
DICTIONARY
  5
368
330
2F
100
AcDbDictionary
280
     1
281
     1
  3
ACAD_XREC_ROUNDTRIP
360
369
  0
DICTIONARY
  5
36E
330
32
100
AcDbDictionary
280
     1
281
     1
  3
ACAD_XREC_ROUNDTRIP
360
36F
  0
DICTIONARY
  5
376
330
36
100
AcDbDictionary
280
     1
281
     1
  3
ACAD_XREC_ROUNDTRIP
360
377
  0
DICTIONARY
  5
37E
330
3A
100
AcDbDictionary
280
     1
281
     1
  3
ACAD_XREC_ROUNDTRIP
360
37F
  0
DICTIONARY
  5
372
330
34
100
AcDbDictionary
280
     1
281
     1
  3
ACAD_XREC_ROUNDTRIP
360
373
  0
DICTIONARY
  5
374
330
35
100
AcDbDictionary
280
     1
281
     1
  3
ACAD_XREC_ROUNDTRIP
360
375
  0
DICTIONARY
  5
384
330
3D
100
AcDbDictionary
280
     1
281
     1
  3
ACAD_XREC_ROUNDTRIP
360
385
  0
DICTIONARY
  5
37C
330
39
100
AcDbDictionary
280
     1
281
     1
  3
ACAD_XREC_ROUNDTRIP
360
37D
  0
DICTIONARY
  5
360
330
2B
100
AcDbDictionary
280
     1
281
     1
  3
ACAD_XREC_ROUNDTRIP
360
361
  0
DICTIONARY
  5
362
330
2C
100
AcDbDictionary
280
     1
281
     1
  3
ACAD_XREC_ROUNDTRIP
360
363
  0
DICTIONARY
  5
364
330
2D
100
AcDbDictionary
280
     1
281
     1
  3
ACAD_XREC_ROUNDTRIP
360
365
  0
DICTIONARY
  5
366
330
2E
100
AcDbDictionary
280
     1
281
     1
  3
ACAD_XREC_ROUNDTRIP
360
367
  0
DICTIONARY
  5
36C
330
31
100
AcDbDictionary
280
     1
281
     1
  3
ACAD_XREC_ROUNDTRIP
360
36D
  0
DICTIONARY
  5
380
330
3B
100
AcDbDictionary
280
     1
281
     1
  3
ACAD_XREC_ROUNDTRIP
360
381
  0
DICTIONARY
  5
37A
330
38
100
AcDbDictionary
280
     1
281
     1
  3
ACAD_XREC_ROUNDTRIP
360
37B
  0
DICTIONARY
  5
382
330
3C
100
AcDbDictionary
280
     1
281
     1
  3
ACAD_XREC_ROUNDTRIP
360
383
  0
DICTIONARY
  5
370
330
33
100
AcDbDictionary
280
     1
281
     1
  3
ACAD_XREC_ROUNDTRIP
360
371
  0
DICTIONARY
  5
38E
330
42
100
AcDbDictionary
280
     1
281
     1
  3
ACAD_XREC_ROUNDTRIP
360
38F
  0
DICTIONARY
  5
38C
330
41
100
AcDbDictionary
280
     1
281
     1
  3
ACAD_XREC_ROUNDTRIP
360
38D
  0
DICTIONARY
  5
386
330
3E
100
AcDbDictionary
280
     1
281
     1
  3
ACAD_XREC_ROUNDTRIP
360
387
  0
DICTIONARY
  5
388
330
3F
100
AcDbDictionary
280
     1
281
     1
  3
ACAD_XREC_ROUNDTRIP
360
389
  0
DICTIONARY
  5
378
330
37
100
AcDbDictionary
280
     1
281
     1
  3
ACAD_XREC_ROUNDTRIP
360
379
  0
DICTIONARY
  5
36A
330
30
100
AcDbDictionary
280
     1
281
     1
  3
ACAD_XREC_ROUNDTRIP
360
36B
  0
DICTIONARY
  5
38A
330
40
100
AcDbDictionary
280
     1
281
     1
  3
ACAD_XREC_ROUNDTRIP
360
38B
  0
XRECORD
  5
394
102
{ACAD_REACTORS
330
393
102
}
330
393
100
AcDbXrecord
280
     1
102
DISPLAYNAME
  1
Metric50
102
FLAGS
 90
        0
  0
XRECORD
  5
2E4
102
{ACAD_REACTORS
330
2E3
102
}
330
2E3
100
AcDbXrecord
280
     1
102
MATERIAL
148
0.0
149
0.0
149
0.0
 93
        0
 94
      127
282
     0
 72
     1
 77
     1
171
     1
175
     1
179
     1
273
     0
  0
XRECORD
  5
2E2
102
{ACAD_REACTORS
330
2E1
102
}
330
2E1
100
AcDbXrecord
280
     1
102
MATERIAL
148
0.0
149
0.0
149
0.0
 93
        0
 94
      127
282
     0
 72
     1
 77
     1
171
     1
175
     1
179
     1
273
     0
  0
XRECORD
  5
2E6
102
{ACAD_REACTORS
330
2E5
102
}
330
2E5
100
AcDbXrecord
280
     1
102
MATERIAL
148
0.0
149
0.0
149
0.0
 93
        0
 94
      127
282
     0
 72
     1
 77
     1
171
     1
175
     1
179
     1
273
     0
  0
XRECORD
  5
392
102
{ACAD_REACTORS
330
391
102
}
330
391
100
AcDbXrecord
280
     1
102
DISPLAYNAME
  1
Metric50
102
FLAGS
 90
        0
  0
CELLSTYLEMAP
  5
35E
102
{ACAD_REACTORS
330
2E7
102
}
330
2E7
100
AcDbCellStyleMap
 90
        3
300
CELLSTYLE
  1
TABLEFORMAT_BEGIN
 90
        5
170
     1
 91
        0
 92
    32768
 62
   257
 93
        1
300
CONTENTFORMAT
  1
CONTENTFORMAT_BEGIN
 90
        0
 91
        0
 92
        4
 93
        0
300

 40
0.0
140
1.0
 94
        5
 62
     0
340
11
144
0.25
309
CONTENTFORMAT_END
171
     1
301
MARGIN
  1
CELLMARGIN_BEGIN
 40
0.06
 40
0.06
 40
0.06
 40
0.06
 40
0.18
 40
0.18
309
CELLMARGIN_END
 94
        6
 95
        1
302
GRIDFORMAT
  1
GRIDFORMAT_BEGIN
 90
        0
 91
        1
 62
     0
 92
       -2
340
14
 93
        0
 40
0.045
309
GRIDFORMAT_END
 95
        2
302
GRIDFORMAT
  1
GRIDFORMAT_BEGIN
 90
        0
 91
        1
 62
     0
 92
       -2
340
14
 93
        0
 40
0.045
309
GRIDFORMAT_END
 95
        4
302
GRIDFORMAT
  1
GRIDFORMAT_BEGIN
 90
        0
 91
        1
 62
     0
 92
       -2
340
14
 93
        0
 40
0.045
309
GRIDFORMAT_END
 95
        8
302
GRIDFORMAT
  1
GRIDFORMAT_BEGIN
 90
        0
 91
        1
 62
     0
 92
       -2
340
14
 93
        0
 40
0.045
309
GRIDFORMAT_END
 95
       16
302
GRIDFORMAT
  1
GRIDFORMAT_BEGIN
 90
        0
 91
        1
 62
     0
 92
       -2
340
14
 93
        0
 40
0.045
309
GRIDFORMAT_END
 95
       32
302
GRIDFORMAT
  1
GRIDFORMAT_BEGIN
 90
        0
 91
        1
 62
     0
 92
       -2
340
14
 93
        0
 40
0.045
309
GRIDFORMAT_END
309
TABLEFORMAT_END
  1
CELLSTYLE_BEGIN
 90
        1
 91
        1
300
_TITLE
309
CELLSTYLE_END
300
CELLSTYLE
  1
TABLEFORMAT_BEGIN
 90
        5
170
     1
 91
        0
 92
        0
 62
   257
 93
        1
300
CONTENTFORMAT
  1
CONTENTFORMAT_BEGIN
 90
        0
 91
        0
 92
        4
 93
        0
300

 40
0.0
140
1.0
 94
        5
 62
     0
340
11
144
0.18
309
CONTENTFORMAT_END
171
     1
301
MARGIN
  1
CELLMARGIN_BEGIN
 40
0.06
 40
0.06
 40
0.06
 40
0.06
 40
0.18
 40
0.18
309
CELLMARGIN_END
 94
        6
 95
        1
302
GRIDFORMAT
  1
GRIDFORMAT_BEGIN
 90
        0
 91
        1
 62
     0
 92
       -2
340
14
 93
        0
 40
0.045
309
GRIDFORMAT_END
 95
        2
302
GRIDFORMAT
  1
GRIDFORMAT_BEGIN
 90
        0
 91
        1
 62
     0
 92
       -2
340
14
 93
        0
 40
0.045
309
GRIDFORMAT_END
 95
        4
302
GRIDFORMAT
  1
GRIDFORMAT_BEGIN
 90
        0
 91
        1
 62
     0
 92
       -2
340
14
 93
        0
 40
0.045
309
GRIDFORMAT_END
 95
        8
302
GRIDFORMAT
  1
GRIDFORMAT_BEGIN
 90
        0
 91
        1
 62
     0
 92
       -2
340
14
 93
        0
 40
0.045
309
GRIDFORMAT_END
 95
       16
302
GRIDFORMAT
  1
GRIDFORMAT_BEGIN
 90
        0
 91
        1
 62
     0
 92
       -2
340
14
 93
        0
 40
0.045
309
GRIDFORMAT_END
 95
       32
302
GRIDFORMAT
  1
GRIDFORMAT_BEGIN
 90
        0
 91
        1
 62
     0
 92
       -2
340
14
 93
        0
 40
0.045
309
GRIDFORMAT_END
309
TABLEFORMAT_END
  1
CELLSTYLE_BEGIN
 90
        2
 91
        1
300
_HEADER
309
CELLSTYLE_END
300
CELLSTYLE
  1
TABLEFORMAT_BEGIN
 90
        5
170
     1
 91
        0
 92
        0
 62
   257
 93
        1
300
CONTENTFORMAT
  1
CONTENTFORMAT_BEGIN
 90
        0
 91
        0
 92
        4
 93
        0
300

 40
0.0
140
1.0
 94
        2
 62
     0
340
11
144
0.18
309
CONTENTFORMAT_END
171
     1
301
MARGIN
  1
CELLMARGIN_BEGIN
 40
0.06
 40
0.06
 40
0.06
 40
0.06
 40
0.18
 40
0.18
309
CELLMARGIN_END
 94
        6
 95
        1
302
GRIDFORMAT
  1
GRIDFORMAT_BEGIN
 90
        0
 91
        1
 62
     0
 92
       -2
340
14
 93
        0
 40
0.045
309
GRIDFORMAT_END
 95
        2
302
GRIDFORMAT
  1
GRIDFORMAT_BEGIN
 90
        0
 91
        1
 62
     0
 92
       -2
340
14
 93
        0
 40
0.045
309
GRIDFORMAT_END
 95
        4
302
GRIDFORMAT
  1
GRIDFORMAT_BEGIN
 90
        0
 91
        1
 62
     0
 92
       -2
340
14
 93
        0
 40
0.045
309
GRIDFORMAT_END
 95
        8
302
GRIDFORMAT
  1
GRIDFORMAT_BEGIN
 90
        0
 91
        1
 62
     0
 92
       -2
340
14
 93
        0
 40
0.045
309
GRIDFORMAT_END
 95
       16
302
GRIDFORMAT
  1
GRIDFORMAT_BEGIN
 90
        0
 91
        1
 62
     0
 92
       -2
340
14
 93
        0
 40
0.045
309
GRIDFORMAT_END
 95
       32
302
GRIDFORMAT
  1
GRIDFORMAT_BEGIN
 90
        0
 91
        1
 62
     0
 92
       -2
340
14
 93
        0
 40
0.045
309
GRIDFORMAT_END
309
TABLEFORMAT_END
  1
CELLSTYLE_BEGIN
 90
        3
 91
        2
300
_DATA
309
CELLSTYLE_END
  0
XRECORD
  5
390
102
{ACAD_REACTORS
330
2E7
102
}
330
2E7
100
AcDbXrecord
280
     1
102
ACAD_ROUNDTRIP_PRE2007_TABLESTYLE
 90
        4
 91
        0
  1

 92
        4
 93
        0
  2

 94
        4
 95
        0
  3

  0
XRECORD
  5
369
102
{ACAD_REACTORS
330
368
102
}
330
368
100
AcDbXrecord
280
     1
102
RTVSPost2010Prop28
280
     1
102
RTVSPost2010PropOp28
 70
     1
102
RTVSPost2010Prop29
280
     1
102
RTVSPost2010PropOp29
 70
     1
102
RTVSPost2010Prop30
280
     0
102
RTVSPost2010PropOp30
 70
     1
102
RTVSPost2010Prop31
280
     0
102
RTVSPost2010PropOp31
 70
     1
102
RTVSPost2010Prop32
280
     0
102
RTVSPost2010PropOp32
 70
     1
102
RTVSPost2010Prop33
280
     0
102
RTVSPost2010PropOp33
 70
     1
102
RTVSPost2010Prop34
280
     0
102
RTVSPost2010PropOp34
 70
     1
102
RTVSPost2010Prop35
280
     0
102
RTVSPost2010PropOp35
 70
     1
102
RTVSPost2010Prop36
280
     0
102
RTVSPost2010PropOp36
 70
     1
102
RTVSPost2010Prop37
 90
       50
102
RTVSPost2010PropOp37
 70
     1
102
RTVSPost2010Prop38
140
0.0
102
RTVSPost2010PropOp38
 70
     1
102
RTVSPost2010Prop39
140
1.0
102
RTVSPost2010PropOp39
 70
     1
102
RTVSPost2010Prop40
 90
        0
102
RTVSPost2010PropOp40
 70
     1
102
RTVSPost2010Prop41ColorIndex
 90
       18
102
RTVSPost2010Prop41ColorRGB
 90
        0
102
RTVSPost2010PropOp41
 70
     1
102
RTVSPost2010Prop42
 90
       50
102
RTVSPost2010PropOp42
 70
     1
102
RTVSPost2010Prop43
 90
        3
102
RTVSPost2010PropOp43
 70
     1
102
RTVSPost2010Prop44ColorIndex
 90
        5
102
RTVSPost2010Prop44ColorRGB
 90
      255
102
RTVSPost2010PropOp44
 70
     1
102
RTVSPost2010Prop45
280
     0
102
RTVSPost2010PropOp45
 70
     1
102
RTVSPost2010Prop46
 90
       50
102
RTVSPost2010PropOp46
 70
     1
102
RTVSPost2010Prop47
 90
       50
102
RTVSPost2010PropOp47
 70
     1
102
RTVSPost2010Prop48
 90
       50
102
RTVSPost2010PropOp48
 70
     1
102
RTVSPost2010Prop49
280
     0
102
RTVSPost2010PropOp49
 70
     1
102
RTVSPost2010Prop50
 90
       50
102
RTVSPost2010PropOp50
 70
     1
102
RTVSPost2010Prop51ColorIndex
 90
      256
102
RTVSPost2010Prop51ColorRGB
 90
-16777216
102
RTVSPost2010PropOp51
 70
     0
102
RTVSPost2010Prop52
140
1.0
102
RTVSPost2010PropOp52
 70
     0
102
RTVSPost2010Prop53
 90
        2
102
RTVSPost2010PropOp53
 70
     1
102
RTVSPost2010Prop54
  1
strokes_ogs.tif
102
RTVSPost2010PropOp54
 70
     1
102
RTVSPost2010Prop55
280
     0
102
RTVSPost2010PropOp55
 70
     1
102
RTVSPost2010Prop56
140
1.0
102
RTVSPost2010PropOp56
 70
     1
102
RTVSPost2010Prop57
140
1.0
102
RTVSPost2010PropOp57
 70
     1
102
RTVSPropertyOp0
 70
     1
102
RTVSPropertyOp1
 70
     1
102
RTVSPropertyOp2
 70
     1
102
RTVSPropertyOp3
 70
     1
102
RTVSPropertyOp4
 70
     1
102
RTVSPropertyOp5
 70
     1
102
RTVSPropertyOp6
 70
     1
102
RTVSPropertyOp7
 70
     1
102
RTVSPropertyOp8
 70
     1
102
RTVSPropertyOp9
 70
     1
102
RTVSPropertyOp10
 70
     1
102
RTVSPropertyOp11
 70
     1
102
RTVSPropertyOp12
 70
     1
102
RTVSPropertyOp13
 70
     1
102
RTVSPropertyOp14
 70
     1
102
RTVSPropertyOp15
 70
     1
102
RTVSPropertyOp16
 70
     1
102
RTVSPropertyOp17
 70
     1
102
RTVSPropertyOp18
 70
     1
102
RTVSPropertyOp19
 70
     1
102
RTVSPropertyOp20
 70
     1
102
RTVSPropertyOp21
 70
     1
102
RTVSPropertyOp22
 70
     1
102
RTVSPropertyOp23
 70
     1
102
RTVSPropertyOp24
 70
     1
102
RTVSPropertyOp25
 70
     1
102
RTVSPropertyOp26
 70
     1
102
RTVSPropertyOp27
 70
     1
102
RTVSPropertyOp28
 70
     1
102
RTVSPropertyOp29
 70
     1
102
RTVSPropertyOp30
 70
     1
102
RTVSPropertyOp31
 70
     1
102
RTVSPropertyOp32
 70
     1
102
RTVSPropertyOp33
 70
     1
102
RTVSPropertyOp34
 70
     1
102
RTVSPropertyOp35
 70
     1
102
RTVSPropertyOp36
 70
     1
102
RTVSPropertyOp37
 70
     1
102
RTVSPropertyOp38
 70
     1
102
RTVSPropertyOp39
 70
     1
102
RTVSPropertyOp40
 70
     1
102
RTVSPropertyOp41
 70
     1
102
RTVSPropertyOp42
 70
     1
102
RTVSPropertyOp43
 70
     1
102
RTVSPropertyOp44
 70
     1
102
RTVSPropertyOp45
 70
     1
102
RTVSPropertyOp46
 70
     1
102
RTVSPropertyOp47
 70
     1
102
RTVSPropertyOp48
 70
     1
102
RTVSPropertyOp49
 70
     1
102
RTVSPropertyOp50
 70
     1
102
RTVSPropertyOp51
 70
     0
102
RTVSPropertyOp52
 70
     0
102
RTVSPropertyOp53
 70
     1
102
RTVSPropertyOp54
 70
     1
102
RTVSPropertyOp55
 70
     1
102
RTVSPropertyOp56
 70
     1
102
RTVSPropertyOp57
 70
     1
102
RTVSPropertyOp58
 70
     1
102
RTVSPropertyOp59
 70
     1
102
RTVSPropertyOp60
 70
     1
102
RTVSPropertyOp61
 70
     1
102
RTVSPropertyOp62
 70
     1
  0
XRECORD
  5
36F
102
{ACAD_REACTORS
330
36E
102
}
330
36E
100
AcDbXrecord
280
     1
102
RTVSPost2010Prop28
280
     0
102
RTVSPost2010PropOp28
 70
     1
102
RTVSPost2010Prop29
280
     1
102
RTVSPost2010PropOp29
 70
     1
102
RTVSPost2010Prop30
280
     1
102
RTVSPost2010PropOp30
 70
     1
102
RTVSPost2010Prop31
280
     0
102
RTVSPost2010PropOp31
 70
     1
102
RTVSPost2010Prop32
280
     0
102
RTVSPost2010PropOp32
 70
     1
102
RTVSPost2010Prop33
280
     0
102
RTVSPost2010PropOp33
 70
     1
102
RTVSPost2010Prop34
280
     0
102
RTVSPost2010PropOp34
 70
     1
102
RTVSPost2010Prop35
280
     0
102
RTVSPost2010PropOp35
 70
     1
102
RTVSPost2010Prop36
280
     0
102
RTVSPost2010PropOp36
 70
     1
102
RTVSPost2010Prop37
 90
       50
102
RTVSPost2010PropOp37
 70
     1
102
RTVSPost2010Prop38
140
0.0
102
RTVSPost2010PropOp38
 70
     1
102
RTVSPost2010Prop39
140
1.0
102
RTVSPost2010PropOp39
 70
     1
102
RTVSPost2010Prop40
 90
        0
102
RTVSPost2010PropOp40
 70
     1
102
RTVSPost2010Prop41ColorIndex
 90
       18
102
RTVSPost2010Prop41ColorRGB
 90
        0
102
RTVSPost2010PropOp41
 70
     1
102
RTVSPost2010Prop42
 90
       50
102
RTVSPost2010PropOp42
 70
     1
102
RTVSPost2010Prop43
 90
        3
102
RTVSPost2010PropOp43
 70
     1
102
RTVSPost2010Prop44ColorIndex
 90
        5
102
RTVSPost2010Prop44ColorRGB
 90
      255
102
RTVSPost2010PropOp44
 70
     1
102
RTVSPost2010Prop45
280
     0
102
RTVSPost2010PropOp45
 70
     1
102
RTVSPost2010Prop46
 90
       50
102
RTVSPost2010PropOp46
 70
     1
102
RTVSPost2010Prop47
 90
       50
102
RTVSPost2010PropOp47
 70
     1
102
RTVSPost2010Prop48
 90
       50
102
RTVSPost2010PropOp48
 70
     1
102
RTVSPost2010Prop49
280
     0
102
RTVSPost2010PropOp49
 70
     1
102
RTVSPost2010Prop50
 90
       50
102
RTVSPost2010PropOp50
 70
     1
102
RTVSPost2010Prop51ColorIndex
 90
      256
102
RTVSPost2010Prop51ColorRGB
 90
-16777216
102
RTVSPost2010PropOp51
 70
     0
102
RTVSPost2010Prop52
140
1.0
102
RTVSPost2010PropOp52
 70
     0
102
RTVSPost2010Prop53
 90
        2
102
RTVSPost2010PropOp53
 70
     1
102
RTVSPost2010Prop54
  1
strokes_ogs.tif
102
RTVSPost2010PropOp54
 70
     1
102
RTVSPost2010Prop55
280
     0
102
RTVSPost2010PropOp55
 70
     1
102
RTVSPost2010Prop56
140
1.0
102
RTVSPost2010PropOp56
 70
     1
102
RTVSPost2010Prop57
140
1.0
102
RTVSPost2010PropOp57
 70
     1
102
RTVSPropertyOp0
 70
     1
102
RTVSPropertyOp1
 70
     1
102
RTVSPropertyOp2
 70
     1
102
RTVSPropertyOp3
 70
     1
102
RTVSPropertyOp4
 70
     1
102
RTVSPropertyOp5
 70
     1
102
RTVSPropertyOp6
 70
     1
102
RTVSPropertyOp7
 70
     1
102
RTVSPropertyOp8
 70
     1
102
RTVSPropertyOp9
 70
     1
102
RTVSPropertyOp10
 70
     1
102
RTVSPropertyOp11
 70
     1
102
RTVSPropertyOp12
 70
     1
102
RTVSPropertyOp13
 70
     1
102
RTVSPropertyOp14
 70
     1
102
RTVSPropertyOp15
 70
     1
102
RTVSPropertyOp16
 70
     1
102
RTVSPropertyOp17
 70
     1
102
RTVSPropertyOp18
 70
     1
102
RTVSPropertyOp19
 70
     1
102
RTVSPropertyOp20
 70
     1
102
RTVSPropertyOp21
 70
     1
102
RTVSPropertyOp22
 70
     1
102
RTVSPropertyOp23
 70
     1
102
RTVSPropertyOp24
 70
     1
102
RTVSPropertyOp25
 70
     1
102
RTVSPropertyOp26
 70
     1
102
RTVSPropertyOp27
 70
     1
102
RTVSPropertyOp28
 70
     1
102
RTVSPropertyOp29
 70
     1
102
RTVSPropertyOp30
 70
     1
102
RTVSPropertyOp31
 70
     1
102
RTVSPropertyOp32
 70
     1
102
RTVSPropertyOp33
 70
     1
102
RTVSPropertyOp34
 70
     1
102
RTVSPropertyOp35
 70
     1
102
RTVSPropertyOp36
 70
     1
102
RTVSPropertyOp37
 70
     1
102
RTVSPropertyOp38
 70
     1
102
RTVSPropertyOp39
 70
     1
102
RTVSPropertyOp40
 70
     1
102
RTVSPropertyOp41
 70
     1
102
RTVSPropertyOp42
 70
     1
102
RTVSPropertyOp43
 70
     1
102
RTVSPropertyOp44
 70
     1
102
RTVSPropertyOp45
 70
     1
102
RTVSPropertyOp46
 70
     1
102
RTVSPropertyOp47
 70
     1
102
RTVSPropertyOp48
 70
     1
102
RTVSPropertyOp49
 70
     1
102
RTVSPropertyOp50
 70
     1
102
RTVSPropertyOp51
 70
     0
102
RTVSPropertyOp52
 70
     0
102
RTVSPropertyOp53
 70
     1
102
RTVSPropertyOp54
 70
     1
102
RTVSPropertyOp55
 70
     1
102
RTVSPropertyOp56
 70
     1
102
RTVSPropertyOp57
 70
     1
102
RTVSPropertyOp58
 70
     1
102
RTVSPropertyOp59
 70
     1
102
RTVSPropertyOp60
 70
     1
102
RTVSPropertyOp61
 70
     1
102
RTVSPropertyOp62
 70
     1
  0
XRECORD
  5
377
102
{ACAD_REACTORS
330
376
102
}
330
376
100
AcDbXrecord
280
     1
102
RTVSPost2010Prop28
280
     0
102
RTVSPost2010PropOp28
 70
     1
102
RTVSPost2010Prop29
280
     1
102
RTVSPost2010PropOp29
 70
     1
102
RTVSPost2010Prop30
280
     1
102
RTVSPost2010PropOp30
 70
     1
102
RTVSPost2010Prop31
280
     0
102
RTVSPost2010PropOp31
 70
     1
102
RTVSPost2010Prop32
280
     0
102
RTVSPost2010PropOp32
 70
     1
102
RTVSPost2010Prop33
280
     0
102
RTVSPost2010PropOp33
 70
     1
102
RTVSPost2010Prop34
280
     0
102
RTVSPost2010PropOp34
 70
     1
102
RTVSPost2010Prop35
280
     0
102
RTVSPost2010PropOp35
 70
     1
102
RTVSPost2010Prop36
280
     0
102
RTVSPost2010PropOp36
 70
     1
102
RTVSPost2010Prop37
 90
       50
102
RTVSPost2010PropOp37
 70
     1
102
RTVSPost2010Prop38
140
0.0
102
RTVSPost2010PropOp38
 70
     1
102
RTVSPost2010Prop39
140
1.0
102
RTVSPost2010PropOp39
 70
     1
102
RTVSPost2010Prop40
 90
        0
102
RTVSPost2010PropOp40
 70
     1
102
RTVSPost2010Prop41ColorIndex
 90
       18
102
RTVSPost2010Prop41ColorRGB
 90
        0
102
RTVSPost2010PropOp41
 70
     1
102
RTVSPost2010Prop42
 90
       50
102
RTVSPost2010PropOp42
 70
     1
102
RTVSPost2010Prop43
 90
        3
102
RTVSPost2010PropOp43
 70
     1
102
RTVSPost2010Prop44ColorIndex
 90
        5
102
RTVSPost2010Prop44ColorRGB
 90
      255
102
RTVSPost2010PropOp44
 70
     1
102
RTVSPost2010Prop45
280
     0
102
RTVSPost2010PropOp45
 70
     1
102
RTVSPost2010Prop46
 90
       50
102
RTVSPost2010PropOp46
 70
     1
102
RTVSPost2010Prop47
 90
       50
102
RTVSPost2010PropOp47
 70
     1
102
RTVSPost2010Prop48
 90
       50
102
RTVSPost2010PropOp48
 70
     1
102
RTVSPost2010Prop49
280
     0
102
RTVSPost2010PropOp49
 70
     1
102
RTVSPost2010Prop50
 90
       50
102
RTVSPost2010PropOp50
 70
     1
102
RTVSPost2010Prop51ColorIndex
 90
      256
102
RTVSPost2010Prop51ColorRGB
 90
-16777216
102
RTVSPost2010PropOp51
 70
     0
102
RTVSPost2010Prop52
140
1.0
102
RTVSPost2010PropOp52
 70
     0
102
RTVSPost2010Prop53
 90
        2
102
RTVSPost2010PropOp53
 70
     1
102
RTVSPost2010Prop54
  1
strokes_ogs.tif
102
RTVSPost2010PropOp54
 70
     1
102
RTVSPost2010Prop55
280
     0
102
RTVSPost2010PropOp55
 70
     1
102
RTVSPost2010Prop56
140
1.0
102
RTVSPost2010PropOp56
 70
     1
102
RTVSPost2010Prop57
140
1.0
102
RTVSPost2010PropOp57
 70
     1
102
RTVSPropertyOp0
 70
     1
102
RTVSPropertyOp1
 70
     1
102
RTVSPropertyOp2
 70
     1
102
RTVSPropertyOp3
 70
     1
102
RTVSPropertyOp4
 70
     1
102
RTVSPropertyOp5
 70
     1
102
RTVSPropertyOp6
 70
     1
102
RTVSPropertyOp7
 70
     1
102
RTVSPropertyOp8
 70
     1
102
RTVSPropertyOp9
 70
     1
102
RTVSPropertyOp10
 70
     1
102
RTVSPropertyOp11
 70
     1
102
RTVSPropertyOp12
 70
     1
102
RTVSPropertyOp13
 70
     1
102
RTVSPropertyOp14
 70
     1
102
RTVSPropertyOp15
 70
     1
102
RTVSPropertyOp16
 70
     1
102
RTVSPropertyOp17
 70
     1
102
RTVSPropertyOp18
 70
     1
102
RTVSPropertyOp19
 70
     1
102
RTVSPropertyOp20
 70
     1
102
RTVSPropertyOp21
 70
     1
102
RTVSPropertyOp22
 70
     1
102
RTVSPropertyOp23
 70
     1
102
RTVSPropertyOp24
 70
     1
102
RTVSPropertyOp25
 70
     1
102
RTVSPropertyOp26
 70
     1
102
RTVSPropertyOp27
 70
     1
102
RTVSPropertyOp28
 70
     1
102
RTVSPropertyOp29
 70
     1
102
RTVSPropertyOp30
 70
     1
102
RTVSPropertyOp31
 70
     1
102
RTVSPropertyOp32
 70
     1
102
RTVSPropertyOp33
 70
     1
102
RTVSPropertyOp34
 70
     1
102
RTVSPropertyOp35
 70
     1
102
RTVSPropertyOp36
 70
     1
102
RTVSPropertyOp37
 70
     1
102
RTVSPropertyOp38
 70
     1
102
RTVSPropertyOp39
 70
     1
102
RTVSPropertyOp40
 70
     1
102
RTVSPropertyOp41
 70
     1
102
RTVSPropertyOp42
 70
     1
102
RTVSPropertyOp43
 70
     1
102
RTVSPropertyOp44
 70
     1
102
RTVSPropertyOp45
 70
     1
102
RTVSPropertyOp46
 70
     1
102
RTVSPropertyOp47
 70
     1
102
RTVSPropertyOp48
 70
     1
102
RTVSPropertyOp49
 70
     1
102
RTVSPropertyOp50
 70
     1
102
RTVSPropertyOp51
 70
     0
102
RTVSPropertyOp52
 70
     0
102
RTVSPropertyOp53
 70
     1
102
RTVSPropertyOp54
 70
     1
102
RTVSPropertyOp55
 70
     1
102
RTVSPropertyOp56
 70
     1
102
RTVSPropertyOp57
 70
     1
102
RTVSPropertyOp58
 70
     1
102
RTVSPropertyOp59
 70
     1
102
RTVSPropertyOp60
 70
     1
102
RTVSPropertyOp61
 70
     1
102
RTVSPropertyOp62
 70
     1
  0
XRECORD
  5
37F
102
{ACAD_REACTORS
330
37E
102
}
330
37E
100
AcDbXrecord
280
     1
102
RTVSPost2010Prop28
280
     0
102
RTVSPost2010PropOp28
 70
     1
102
RTVSPost2010Prop29
280
     1
102
RTVSPost2010PropOp29
 70
     1
102
RTVSPost2010Prop30
280
     1
102
RTVSPost2010PropOp30
 70
     1
102
RTVSPost2010Prop31
280
     0
102
RTVSPost2010PropOp31
 70
     1
102
RTVSPost2010Prop32
280
     0
102
RTVSPost2010PropOp32
 70
     1
102
RTVSPost2010Prop33
280
     0
102
RTVSPost2010PropOp33
 70
     1
102
RTVSPost2010Prop34
280
     0
102
RTVSPost2010PropOp34
 70
     1
102
RTVSPost2010Prop35
280
     0
102
RTVSPost2010PropOp35
 70
     1
102
RTVSPost2010Prop36
280
     0
102
RTVSPost2010PropOp36
 70
     1
102
RTVSPost2010Prop37
 90
       50
102
RTVSPost2010PropOp37
 70
     1
102
RTVSPost2010Prop38
140
0.0
102
RTVSPost2010PropOp38
 70
     1
102
RTVSPost2010Prop39
140
1.0
102
RTVSPost2010PropOp39
 70
     1
102
RTVSPost2010Prop40
 90
        0
102
RTVSPost2010PropOp40
 70
     1
102
RTVSPost2010Prop41ColorIndex
 90
       18
102
RTVSPost2010Prop41ColorRGB
 90
        0
102
RTVSPost2010PropOp41
 70
     1
102
RTVSPost2010Prop42
 90
       50
102
RTVSPost2010PropOp42
 70
     1
102
RTVSPost2010Prop43
 90
        3
102
RTVSPost2010PropOp43
 70
     1
102
RTVSPost2010Prop44ColorIndex
 90
        5
102
RTVSPost2010Prop44ColorRGB
 90
      255
102
RTVSPost2010PropOp44
 70
     1
102
RTVSPost2010Prop45
280
     0
102
RTVSPost2010PropOp45
 70
     1
102
RTVSPost2010Prop46
 90
       50
102
RTVSPost2010PropOp46
 70
     1
102
RTVSPost2010Prop47
 90
       50
102
RTVSPost2010PropOp47
 70
     1
102
RTVSPost2010Prop48
 90
       50
102
RTVSPost2010PropOp48
 70
     1
102
RTVSPost2010Prop49
280
     0
102
RTVSPost2010PropOp49
 70
     1
102
RTVSPost2010Prop50
 90
       50
102
RTVSPost2010PropOp50
 70
     1
102
RTVSPost2010Prop51ColorIndex
 90
      256
102
RTVSPost2010Prop51ColorRGB
 90
-16777216
102
RTVSPost2010PropOp51
 70
     0
102
RTVSPost2010Prop52
140
1.0
102
RTVSPost2010PropOp52
 70
     0
102
RTVSPost2010Prop53
 90
        2
102
RTVSPost2010PropOp53
 70
     1
102
RTVSPost2010Prop54
  1
strokes_ogs.tif
102
RTVSPost2010PropOp54
 70
     1
102
RTVSPost2010Prop55
280
     0
102
RTVSPost2010PropOp55
 70
     1
102
RTVSPost2010Prop56
140
1.0
102
RTVSPost2010PropOp56
 70
     1
102
RTVSPost2010Prop57
140
1.0
102
RTVSPost2010PropOp57
 70
     1
102
RTVSPropertyOp0
 70
     1
102
RTVSPropertyOp1
 70
     1
102
RTVSPropertyOp2
 70
     1
102
RTVSPropertyOp3
 70
     1
102
RTVSPropertyOp4
 70
     1
102
RTVSPropertyOp5
 70
     1
102
RTVSPropertyOp6
 70
     1
102
RTVSPropertyOp7
 70
     1
102
RTVSPropertyOp8
 70
     1
102
RTVSPropertyOp9
 70
     1
102
RTVSPropertyOp10
 70
     1
102
RTVSPropertyOp11
 70
     1
102
RTVSPropertyOp12
 70
     1
102
RTVSPropertyOp13
 70
     1
102
RTVSPropertyOp14
 70
     1
102
RTVSPropertyOp15
 70
     1
102
RTVSPropertyOp16
 70
     1
102
RTVSPropertyOp17
 70
     1
102
RTVSPropertyOp18
 70
     1
102
RTVSPropertyOp19
 70
     1
102
RTVSPropertyOp20
 70
     1
102
RTVSPropertyOp21
 70
     1
102
RTVSPropertyOp22
 70
     1
102
RTVSPropertyOp23
 70
     1
102
RTVSPropertyOp24
 70
     1
102
RTVSPropertyOp25
 70
     1
102
RTVSPropertyOp26
 70
     1
102
RTVSPropertyOp27
 70
     1
102
RTVSPropertyOp28
 70
     1
102
RTVSPropertyOp29
 70
     1
102
RTVSPropertyOp30
 70
     1
102
RTVSPropertyOp31
 70
     1
102
RTVSPropertyOp32
 70
     1
102
RTVSPropertyOp33
 70
     1
102
RTVSPropertyOp34
 70
     1
102
RTVSPropertyOp35
 70
     1
102
RTVSPropertyOp36
 70
     1
102
RTVSPropertyOp37
 70
     1
102
RTVSPropertyOp38
 70
     1
102
RTVSPropertyOp39
 70
     1
102
RTVSPropertyOp40
 70
     1
102
RTVSPropertyOp41
 70
     1
102
RTVSPropertyOp42
 70
     1
102
RTVSPropertyOp43
 70
     1
102
RTVSPropertyOp44
 70
     1
102
RTVSPropertyOp45
 70
     1
102
RTVSPropertyOp46
 70
     1
102
RTVSPropertyOp47
 70
     1
102
RTVSPropertyOp48
 70
     1
102
RTVSPropertyOp49
 70
     1
102
RTVSPropertyOp50
 70
     1
102
RTVSPropertyOp51
 70
     0
102
RTVSPropertyOp52
 70
     0
102
RTVSPropertyOp53
 70
     1
102
RTVSPropertyOp54
 70
     1
102
RTVSPropertyOp55
 70
     1
102
RTVSPropertyOp56
 70
     1
102
RTVSPropertyOp57
 70
     1
102
RTVSPropertyOp58
 70
     1
102
RTVSPropertyOp59
 70
     1
102
RTVSPropertyOp60
 70
     1
102
RTVSPropertyOp61
 70
     1
102
RTVSPropertyOp62
 70
     1
  0
XRECORD
  5
373
102
{ACAD_REACTORS
330
372
102
}
330
372
100
AcDbXrecord
280
     1
102
RTVSPost2010Prop28
280
     0
102
RTVSPost2010PropOp28
 70
     1
102
RTVSPost2010Prop29
280
     1
102
RTVSPost2010PropOp29
 70
     1
102
RTVSPost2010Prop30
280
     1
102
RTVSPost2010PropOp30
 70
     1
102
RTVSPost2010Prop31
280
     0
102
RTVSPost2010PropOp31
 70
     1
102
RTVSPost2010Prop32
280
     0
102
RTVSPost2010PropOp32
 70
     1
102
RTVSPost2010Prop33
280
     0
102
RTVSPost2010PropOp33
 70
     1
102
RTVSPost2010Prop34
280
     0
102
RTVSPost2010PropOp34
 70
     1
102
RTVSPost2010Prop35
280
     0
102
RTVSPost2010PropOp35
 70
     1
102
RTVSPost2010Prop36
280
     0
102
RTVSPost2010PropOp36
 70
     1
102
RTVSPost2010Prop37
 90
       50
102
RTVSPost2010PropOp37
 70
     1
102
RTVSPost2010Prop38
140
0.0
102
RTVSPost2010PropOp38
 70
     1
102
RTVSPost2010Prop39
140
1.0
102
RTVSPost2010PropOp39
 70
     1
102
RTVSPost2010Prop40
 90
        0
102
RTVSPost2010PropOp40
 70
     1
102
RTVSPost2010Prop41ColorIndex
 90
       18
102
RTVSPost2010Prop41ColorRGB
 90
        0
102
RTVSPost2010PropOp41
 70
     1
102
RTVSPost2010Prop42
 90
       50
102
RTVSPost2010PropOp42
 70
     1
102
RTVSPost2010Prop43
 90
        3
102
RTVSPost2010PropOp43
 70
     1
102
RTVSPost2010Prop44ColorIndex
 90
        5
102
RTVSPost2010Prop44ColorRGB
 90
      255
102
RTVSPost2010PropOp44
 70
     1
102
RTVSPost2010Prop45
280
     0
102
RTVSPost2010PropOp45
 70
     1
102
RTVSPost2010Prop46
 90
       50
102
RTVSPost2010PropOp46
 70
     1
102
RTVSPost2010Prop47
 90
       50
102
RTVSPost2010PropOp47
 70
     1
102
RTVSPost2010Prop48
 90
       50
102
RTVSPost2010PropOp48
 70
     1
102
RTVSPost2010Prop49
280
     0
102
RTVSPost2010PropOp49
 70
     1
102
RTVSPost2010Prop50
 90
       50
102
RTVSPost2010PropOp50
 70
     1
102
RTVSPost2010Prop51ColorIndex
 90
      256
102
RTVSPost2010Prop51ColorRGB
 90
-16777216
102
RTVSPost2010PropOp51
 70
     0
102
RTVSPost2010Prop52
140
1.0
102
RTVSPost2010PropOp52
 70
     0
102
RTVSPost2010Prop53
 90
        2
102
RTVSPost2010PropOp53
 70
     1
102
RTVSPost2010Prop54
  1
strokes_ogs.tif
102
RTVSPost2010PropOp54
 70
     1
102
RTVSPost2010Prop55
280
     0
102
RTVSPost2010PropOp55
 70
     1
102
RTVSPost2010Prop56
140
1.0
102
RTVSPost2010PropOp56
 70
     1
102
RTVSPost2010Prop57
140
1.0
102
RTVSPost2010PropOp57
 70
     1
102
RTVSPropertyOp0
 70
     1
102
RTVSPropertyOp1
 70
     1
102
RTVSPropertyOp2
 70
     1
102
RTVSPropertyOp3
 70
     1
102
RTVSPropertyOp4
 70
     1
102
RTVSPropertyOp5
 70
     1
102
RTVSPropertyOp6
 70
     1
102
RTVSPropertyOp7
 70
     1
102
RTVSPropertyOp8
 70
     1
102
RTVSPropertyOp9
 70
     1
102
RTVSPropertyOp10
 70
     1
102
RTVSPropertyOp11
 70
     1
102
RTVSPropertyOp12
 70
     1
102
RTVSPropertyOp13
 70
     1
102
RTVSPropertyOp14
 70
     1
102
RTVSPropertyOp15
 70
     1
102
RTVSPropertyOp16
 70
     1
102
RTVSPropertyOp17
 70
     1
102
RTVSPropertyOp18
 70
     1
102
RTVSPropertyOp19
 70
     1
102
RTVSPropertyOp20
 70
     1
102
RTVSPropertyOp21
 70
     1
102
RTVSPropertyOp22
 70
     1
102
RTVSPropertyOp23
 70
     1
102
RTVSPropertyOp24
 70
     1
102
RTVSPropertyOp25
 70
     1
102
RTVSPropertyOp26
 70
     1
102
RTVSPropertyOp27
 70
     1
102
RTVSPropertyOp28
 70
     1
102
RTVSPropertyOp29
 70
     1
102
RTVSPropertyOp30
 70
     1
102
RTVSPropertyOp31
 70
     1
102
RTVSPropertyOp32
 70
     1
102
RTVSPropertyOp33
 70
     1
102
RTVSPropertyOp34
 70
     1
102
RTVSPropertyOp35
 70
     1
102
RTVSPropertyOp36
 70
     1
102
RTVSPropertyOp37
 70
     1
102
RTVSPropertyOp38
 70
     1
102
RTVSPropertyOp39
 70
     1
102
RTVSPropertyOp40
 70
     1
102
RTVSPropertyOp41
 70
     1
102
RTVSPropertyOp42
 70
     1
102
RTVSPropertyOp43
 70
     1
102
RTVSPropertyOp44
 70
     1
102
RTVSPropertyOp45
 70
     1
102
RTVSPropertyOp46
 70
     1
102
RTVSPropertyOp47
 70
     1
102
RTVSPropertyOp48
 70
     1
102
RTVSPropertyOp49
 70
     1
102
RTVSPropertyOp50
 70
     1
102
RTVSPropertyOp51
 70
     0
102
RTVSPropertyOp52
 70
     0
102
RTVSPropertyOp53
 70
     1
102
RTVSPropertyOp54
 70
     1
102
RTVSPropertyOp55
 70
     1
102
RTVSPropertyOp56
 70
     1
102
RTVSPropertyOp57
 70
     1
102
RTVSPropertyOp58
 70
     1
102
RTVSPropertyOp59
 70
     1
102
RTVSPropertyOp60
 70
     1
102
RTVSPropertyOp61
 70
     1
102
RTVSPropertyOp62
 70
     1
  0
XRECORD
  5
375
102
{ACAD_REACTORS
330
374
102
}
330
374
100
AcDbXrecord
280
     1
102
RTVSPost2010Prop28
280
     0
102
RTVSPost2010PropOp28
 70
     1
102
RTVSPost2010Prop29
280
     1
102
RTVSPost2010PropOp29
 70
     1
102
RTVSPost2010Prop30
280
     1
102
RTVSPost2010PropOp30
 70
     1
102
RTVSPost2010Prop31
280
     0
102
RTVSPost2010PropOp31
 70
     1
102
RTVSPost2010Prop32
280
     0
102
RTVSPost2010PropOp32
 70
     1
102
RTVSPost2010Prop33
280
     0
102
RTVSPost2010PropOp33
 70
     1
102
RTVSPost2010Prop34
280
     0
102
RTVSPost2010PropOp34
 70
     1
102
RTVSPost2010Prop35
280
     0
102
RTVSPost2010PropOp35
 70
     1
102
RTVSPost2010Prop36
280
     0
102
RTVSPost2010PropOp36
 70
     1
102
RTVSPost2010Prop37
 90
       50
102
RTVSPost2010PropOp37
 70
     1
102
RTVSPost2010Prop38
140
0.0
102
RTVSPost2010PropOp38
 70
     1
102
RTVSPost2010Prop39
140
1.0
102
RTVSPost2010PropOp39
 70
     1
102
RTVSPost2010Prop40
 90
        0
102
RTVSPost2010PropOp40
 70
     1
102
RTVSPost2010Prop41ColorIndex
 90
       18
102
RTVSPost2010Prop41ColorRGB
 90
        0
102
RTVSPost2010PropOp41
 70
     1
102
RTVSPost2010Prop42
 90
       50
102
RTVSPost2010PropOp42
 70
     1
102
RTVSPost2010Prop43
 90
        3
102
RTVSPost2010PropOp43
 70
     1
102
RTVSPost2010Prop44ColorIndex
 90
        5
102
RTVSPost2010Prop44ColorRGB
 90
      255
102
RTVSPost2010PropOp44
 70
     1
102
RTVSPost2010Prop45
280
     0
102
RTVSPost2010PropOp45
 70
     1
102
RTVSPost2010Prop46
 90
       50
102
RTVSPost2010PropOp46
 70
     1
102
RTVSPost2010Prop47
 90
       50
102
RTVSPost2010PropOp47
 70
     1
102
RTVSPost2010Prop48
 90
       50
102
RTVSPost2010PropOp48
 70
     1
102
RTVSPost2010Prop49
280
     0
102
RTVSPost2010PropOp49
 70
     1
102
RTVSPost2010Prop50
 90
       50
102
RTVSPost2010PropOp50
 70
     1
102
RTVSPost2010Prop51ColorIndex
 90
      256
102
RTVSPost2010Prop51ColorRGB
 90
-16777216
102
RTVSPost2010PropOp51
 70
     0
102
RTVSPost2010Prop52
140
1.0
102
RTVSPost2010PropOp52
 70
     0
102
RTVSPost2010Prop53
 90
        2
102
RTVSPost2010PropOp53
 70
     1
102
RTVSPost2010Prop54
  1
strokes_ogs.tif
102
RTVSPost2010PropOp54
 70
     1
102
RTVSPost2010Prop55
280
     0
102
RTVSPost2010PropOp55
 70
     1
102
RTVSPost2010Prop56
140
1.0
102
RTVSPost2010PropOp56
 70
     1
102
RTVSPost2010Prop57
140
1.0
102
RTVSPost2010PropOp57
 70
     1
102
RTVSPropertyOp0
 70
     1
102
RTVSPropertyOp1
 70
     1
102
RTVSPropertyOp2
 70
     1
102
RTVSPropertyOp3
 70
     1
102
RTVSPropertyOp4
 70
     1
102
RTVSPropertyOp5
 70
     1
102
RTVSPropertyOp6
 70
     1
102
RTVSPropertyOp7
 70
     1
102
RTVSPropertyOp8
 70
     1
102
RTVSPropertyOp9
 70
     1
102
RTVSPropertyOp10
 70
     1
102
RTVSPropertyOp11
 70
     1
102
RTVSPropertyOp12
 70
     1
102
RTVSPropertyOp13
 70
     1
102
RTVSPropertyOp14
 70
     1
102
RTVSPropertyOp15
 70
     1
102
RTVSPropertyOp16
 70
     1
102
RTVSPropertyOp17
 70
     1
102
RTVSPropertyOp18
 70
     1
102
RTVSPropertyOp19
 70
     1
102
RTVSPropertyOp20
 70
     1
102
RTVSPropertyOp21
 70
     1
102
RTVSPropertyOp22
 70
     1
102
RTVSPropertyOp23
 70
     1
102
RTVSPropertyOp24
 70
     1
102
RTVSPropertyOp25
 70
     1
102
RTVSPropertyOp26
 70
     1
102
RTVSPropertyOp27
 70
     1
102
RTVSPropertyOp28
 70
     1
102
RTVSPropertyOp29
 70
     1
102
RTVSPropertyOp30
 70
     1
102
RTVSPropertyOp31
 70
     1
102
RTVSPropertyOp32
 70
     1
102
RTVSPropertyOp33
 70
     1
102
RTVSPropertyOp34
 70
     1
102
RTVSPropertyOp35
 70
     1
102
RTVSPropertyOp36
 70
     1
102
RTVSPropertyOp37
 70
     1
102
RTVSPropertyOp38
 70
     1
102
RTVSPropertyOp39
 70
     1
102
RTVSPropertyOp40
 70
     1
102
RTVSPropertyOp41
 70
     1
102
RTVSPropertyOp42
 70
     1
102
RTVSPropertyOp43
 70
     1
102
RTVSPropertyOp44
 70
     1
102
RTVSPropertyOp45
 70
     1
102
RTVSPropertyOp46
 70
     1
102
RTVSPropertyOp47
 70
     1
102
RTVSPropertyOp48
 70
     1
102
RTVSPropertyOp49
 70
     1
102
RTVSPropertyOp50
 70
     1
102
RTVSPropertyOp51
 70
     0
102
RTVSPropertyOp52
 70
     0
102
RTVSPropertyOp53
 70
     1
102
RTVSPropertyOp54
 70
     1
102
RTVSPropertyOp55
 70
     1
102
RTVSPropertyOp56
 70
     1
102
RTVSPropertyOp57
 70
     1
102
RTVSPropertyOp58
 70
     1
102
RTVSPropertyOp59
 70
     1
102
RTVSPropertyOp60
 70
     1
102
RTVSPropertyOp61
 70
     1
102
RTVSPropertyOp62
 70
     1
  0
XRECORD
  5
385
102
{ACAD_REACTORS
330
384
102
}
330
384
100
AcDbXrecord
280
     1
102
RTVSPost2010Prop28
280
     0
102
RTVSPost2010PropOp28
 70
     0
102
RTVSPost2010Prop29
280
     1
102
RTVSPost2010PropOp29
 70
     0
102
RTVSPost2010Prop30
280
     1
102
RTVSPost2010PropOp30
 70
     0
102
RTVSPost2010Prop31
280
     0
102
RTVSPost2010PropOp31
 70
     0
102
RTVSPost2010Prop32
280
     0
102
RTVSPost2010PropOp32
 70
     0
102
RTVSPost2010Prop33
280
     0
102
RTVSPost2010PropOp33
 70
     0
102
RTVSPost2010Prop34
280
     0
102
RTVSPost2010PropOp34
 70
     0
102
RTVSPost2010Prop35
280
     0
102
RTVSPost2010PropOp35
 70
     0
102
RTVSPost2010Prop36
280
     0
102
RTVSPost2010PropOp36
 70
     0
102
RTVSPost2010Prop37
 90
       50
102
RTVSPost2010PropOp37
 70
     0
102
RTVSPost2010Prop38
140
0.0
102
RTVSPost2010PropOp38
 70
     0
102
RTVSPost2010Prop39
140
1.0
102
RTVSPost2010PropOp39
 70
     0
102
RTVSPost2010Prop40
 90
        0
102
RTVSPost2010PropOp40
 70
     0
102
RTVSPost2010Prop41ColorIndex
 90
       18
102
RTVSPost2010Prop41ColorRGB
 90
        0
102
RTVSPost2010PropOp41
 70
     0
102
RTVSPost2010Prop42
 90
       50
102
RTVSPost2010PropOp42
 70
     0
102
RTVSPost2010Prop43
 90
        3
102
RTVSPost2010PropOp43
 70
     0
102
RTVSPost2010Prop44ColorIndex
 90
        5
102
RTVSPost2010Prop44ColorRGB
 90
      255
102
RTVSPost2010PropOp44
 70
     0
102
RTVSPost2010Prop45
280
     0
102
RTVSPost2010PropOp45
 70
     0
102
RTVSPost2010Prop46
 90
       50
102
RTVSPost2010PropOp46
 70
     0
102
RTVSPost2010Prop47
 90
       50
102
RTVSPost2010PropOp47
 70
     0
102
RTVSPost2010Prop48
 90
       50
102
RTVSPost2010PropOp48
 70
     0
102
RTVSPost2010Prop49
280
     0
102
RTVSPost2010PropOp49
 70
     0
102
RTVSPost2010Prop50
 90
       50
102
RTVSPost2010PropOp50
 70
     0
102
RTVSPost2010Prop51ColorIndex
 90
      256
102
RTVSPost2010Prop51ColorRGB
 90
-16777216
102
RTVSPost2010PropOp51
 70
     0
102
RTVSPost2010Prop52
140
1.0
102
RTVSPost2010PropOp52
 70
     0
102
RTVSPost2010Prop53
 90
        2
102
RTVSPost2010PropOp53
 70
     0
102
RTVSPost2010Prop54
  1
strokes_ogs.tif
102
RTVSPost2010PropOp54
 70
     0
102
RTVSPost2010Prop55
280
     0
102
RTVSPost2010PropOp55
 70
     0
102
RTVSPost2010Prop56
140
1.0
102
RTVSPost2010PropOp56
 70
     0
102
RTVSPost2010Prop57
140
1.0
102
RTVSPost2010PropOp57
 70
     0
102
RTVSPropertyOp0
 70
     0
102
RTVSPropertyOp1
 70
     0
102
RTVSPropertyOp2
 70
     0
102
RTVSPropertyOp3
 70
     0
102
RTVSPropertyOp4
 70
     0
102
RTVSPropertyOp5
 70
     0
102
RTVSPropertyOp6
 70
     0
102
RTVSPropertyOp7
 70
     0
102
RTVSPropertyOp8
 70
     0
102
RTVSPropertyOp9
 70
     0
102
RTVSPropertyOp10
 70
     0
102
RTVSPropertyOp11
 70
     0
102
RTVSPropertyOp12
 70
     0
102
RTVSPropertyOp13
 70
     0
102
RTVSPropertyOp14
 70
     2
102
RTVSPropertyOp15
 70
     0
102
RTVSPropertyOp16
 70
     0
102
RTVSPropertyOp17
 70
     0
102
RTVSPropertyOp18
 70
     0
102
RTVSPropertyOp19
 70
     0
102
RTVSPropertyOp20
 70
     0
102
RTVSPropertyOp21
 70
     0
102
RTVSPropertyOp22
 70
     0
102
RTVSPropertyOp23
 70
     0
102
RTVSPropertyOp24
 70
     0
102
RTVSPropertyOp25
 70
     0
102
RTVSPropertyOp26
 70
     0
102
RTVSPropertyOp27
 70
     0
102
RTVSPropertyOp28
 70
     0
102
RTVSPropertyOp29
 70
     0
102
RTVSPropertyOp30
 70
     0
102
RTVSPropertyOp31
 70
     0
102
RTVSPropertyOp32
 70
     0
102
RTVSPropertyOp33
 70
     0
102
RTVSPropertyOp34
 70
     0
102
RTVSPropertyOp35
 70
     0
102
RTVSPropertyOp36
 70
     0
102
RTVSPropertyOp37
 70
     0
102
RTVSPropertyOp38
 70
     0
102
RTVSPropertyOp39
 70
     0
102
RTVSPropertyOp40
 70
     0
102
RTVSPropertyOp41
 70
     0
102
RTVSPropertyOp42
 70
     0
102
RTVSPropertyOp43
 70
     0
102
RTVSPropertyOp44
 70
     0
102
RTVSPropertyOp45
 70
     0
102
RTVSPropertyOp46
 70
     0
102
RTVSPropertyOp47
 70
     0
102
RTVSPropertyOp48
 70
     0
102
RTVSPropertyOp49
 70
     0
102
RTVSPropertyOp50
 70
     0
102
RTVSPropertyOp51
 70
     0
102
RTVSPropertyOp52
 70
     0
102
RTVSPropertyOp53
 70
     0
102
RTVSPropertyOp54
 70
     0
102
RTVSPropertyOp55
 70
     0
102
RTVSPropertyOp56
 70
     0
102
RTVSPropertyOp57
 70
     0
102
RTVSPropertyOp58
 70
     1
102
RTVSPropertyOp59
 70
     1
102
RTVSPropertyOp60
 70
     1
102
RTVSPropertyOp61
 70
     1
102
RTVSPropertyOp62
 70
     1
  0
XRECORD
  5
37D
102
{ACAD_REACTORS
330
37C
102
}
330
37C
100
AcDbXrecord
280
     1
102
RTVSPost2010Prop28
280
     0
102
RTVSPost2010PropOp28
 70
     1
102
RTVSPost2010Prop29
280
     1
102
RTVSPost2010PropOp29
 70
     1
102
RTVSPost2010Prop30
280
     1
102
RTVSPost2010PropOp30
 70
     1
102
RTVSPost2010Prop31
280
     0
102
RTVSPost2010PropOp31
 70
     1
102
RTVSPost2010Prop32
280
     0
102
RTVSPost2010PropOp32
 70
     1
102
RTVSPost2010Prop33
280
     0
102
RTVSPost2010PropOp33
 70
     1
102
RTVSPost2010Prop34
280
     0
102
RTVSPost2010PropOp34
 70
     1
102
RTVSPost2010Prop35
280
     0
102
RTVSPost2010PropOp35
 70
     1
102
RTVSPost2010Prop36
280
     0
102
RTVSPost2010PropOp36
 70
     1
102
RTVSPost2010Prop37
 90
       50
102
RTVSPost2010PropOp37
 70
     1
102
RTVSPost2010Prop38
140
0.0
102
RTVSPost2010PropOp38
 70
     1
102
RTVSPost2010Prop39
140
1.0
102
RTVSPost2010PropOp39
 70
     1
102
RTVSPost2010Prop40
 90
        0
102
RTVSPost2010PropOp40
 70
     1
102
RTVSPost2010Prop41ColorIndex
 90
       18
102
RTVSPost2010Prop41ColorRGB
 90
        0
102
RTVSPost2010PropOp41
 70
     1
102
RTVSPost2010Prop42
 90
       50
102
RTVSPost2010PropOp42
 70
     1
102
RTVSPost2010Prop43
 90
        3
102
RTVSPost2010PropOp43
 70
     1
102
RTVSPost2010Prop44ColorIndex
 90
        5
102
RTVSPost2010Prop44ColorRGB
 90
      255
102
RTVSPost2010PropOp44
 70
     1
102
RTVSPost2010Prop45
280
     0
102
RTVSPost2010PropOp45
 70
     1
102
RTVSPost2010Prop46
 90
       50
102
RTVSPost2010PropOp46
 70
     1
102
RTVSPost2010Prop47
 90
       50
102
RTVSPost2010PropOp47
 70
     1
102
RTVSPost2010Prop48
 90
       50
102
RTVSPost2010PropOp48
 70
     1
102
RTVSPost2010Prop49
280
     0
102
RTVSPost2010PropOp49
 70
     1
102
RTVSPost2010Prop50
 90
       50
102
RTVSPost2010PropOp50
 70
     1
102
RTVSPost2010Prop51ColorIndex
 90
      256
102
RTVSPost2010Prop51ColorRGB
 90
-16777216
102
RTVSPost2010PropOp51
 70
     0
102
RTVSPost2010Prop52
140
1.0
102
RTVSPost2010PropOp52
 70
     0
102
RTVSPost2010Prop53
 90
        2
102
RTVSPost2010PropOp53
 70
     1
102
RTVSPost2010Prop54
  1
strokes_ogs.tif
102
RTVSPost2010PropOp54
 70
     1
102
RTVSPost2010Prop55
280
     0
102
RTVSPost2010PropOp55
 70
     1
102
RTVSPost2010Prop56
140
1.0
102
RTVSPost2010PropOp56
 70
     1
102
RTVSPost2010Prop57
140
1.0
102
RTVSPost2010PropOp57
 70
     1
102
RTVSPropertyOp0
 70
     1
102
RTVSPropertyOp1
 70
     1
102
RTVSPropertyOp2
 70
     1
102
RTVSPropertyOp3
 70
     1
102
RTVSPropertyOp4
 70
     1
102
RTVSPropertyOp5
 70
     1
102
RTVSPropertyOp6
 70
     1
102
RTVSPropertyOp7
 70
     1
102
RTVSPropertyOp8
 70
     1
102
RTVSPropertyOp9
 70
     1
102
RTVSPropertyOp10
 70
     1
102
RTVSPropertyOp11
 70
     1
102
RTVSPropertyOp12
 70
     1
102
RTVSPropertyOp13
 70
     1
102
RTVSPropertyOp14
 70
     1
102
RTVSPropertyOp15
 70
     1
102
RTVSPropertyOp16
 70
     1
102
RTVSPropertyOp17
 70
     1
102
RTVSPropertyOp18
 70
     1
102
RTVSPropertyOp19
 70
     1
102
RTVSPropertyOp20
 70
     1
102
RTVSPropertyOp21
 70
     1
102
RTVSPropertyOp22
 70
     1
102
RTVSPropertyOp23
 70
     1
102
RTVSPropertyOp24
 70
     1
102
RTVSPropertyOp25
 70
     1
102
RTVSPropertyOp26
 70
     1
102
RTVSPropertyOp27
 70
     1
102
RTVSPropertyOp28
 70
     1
102
RTVSPropertyOp29
 70
     1
102
RTVSPropertyOp30
 70
     1
102
RTVSPropertyOp31
 70
     1
102
RTVSPropertyOp32
 70
     1
102
RTVSPropertyOp33
 70
     1
102
RTVSPropertyOp34
 70
     1
102
RTVSPropertyOp35
 70
     1
102
RTVSPropertyOp36
 70
     1
102
RTVSPropertyOp37
 70
     1
102
RTVSPropertyOp38
 70
     1
102
RTVSPropertyOp39
 70
     1
102
RTVSPropertyOp40
 70
     1
102
RTVSPropertyOp41
 70
     1
102
RTVSPropertyOp42
 70
     1
102
RTVSPropertyOp43
 70
     1
102
RTVSPropertyOp44
 70
     1
102
RTVSPropertyOp45
 70
     1
102
RTVSPropertyOp46
 70
     1
102
RTVSPropertyOp47
 70
     1
102
RTVSPropertyOp48
 70
     1
102
RTVSPropertyOp49
 70
     1
102
RTVSPropertyOp50
 70
     1
102
RTVSPropertyOp51
 70
     0
102
RTVSPropertyOp52
 70
     0
102
RTVSPropertyOp53
 70
     1
102
RTVSPropertyOp54
 70
     1
102
RTVSPropertyOp55
 70
     1
102
RTVSPropertyOp56
 70
     1
102
RTVSPropertyOp57
 70
     1
102
RTVSPropertyOp58
 70
     1
102
RTVSPropertyOp59
 70
     1
102
RTVSPropertyOp60
 70
     1
102
RTVSPropertyOp61
 70
     1
102
RTVSPropertyOp62
 70
     1
  0
XRECORD
  5
361
102
{ACAD_REACTORS
330
360
102
}
330
360
100
AcDbXrecord
280
     1
102
RTVSPost2010Prop28
280
     0
102
RTVSPost2010PropOp28
 70
     1
102
RTVSPost2010Prop29
280
     1
102
RTVSPost2010PropOp29
 70
     1
102
RTVSPost2010Prop30
280
     1
102
RTVSPost2010PropOp30
 70
     1
102
RTVSPost2010Prop31
280
     0
102
RTVSPost2010PropOp31
 70
     1
102
RTVSPost2010Prop32
280
     0
102
RTVSPost2010PropOp32
 70
     1
102
RTVSPost2010Prop33
280
     0
102
RTVSPost2010PropOp33
 70
     1
102
RTVSPost2010Prop34
280
     0
102
RTVSPost2010PropOp34
 70
     1
102
RTVSPost2010Prop35
280
     0
102
RTVSPost2010PropOp35
 70
     1
102
RTVSPost2010Prop36
280
     0
102
RTVSPost2010PropOp36
 70
     1
102
RTVSPost2010Prop37
 90
       50
102
RTVSPost2010PropOp37
 70
     1
102
RTVSPost2010Prop38
140
0.0
102
RTVSPost2010PropOp38
 70
     1
102
RTVSPost2010Prop39
140
1.0
102
RTVSPost2010PropOp39
 70
     1
102
RTVSPost2010Prop40
 90
        0
102
RTVSPost2010PropOp40
 70
     1
102
RTVSPost2010Prop41ColorIndex
 90
       18
102
RTVSPost2010Prop41ColorRGB
 90
        0
102
RTVSPost2010PropOp41
 70
     1
102
RTVSPost2010Prop42
 90
       50
102
RTVSPost2010PropOp42
 70
     1
102
RTVSPost2010Prop43
 90
        3
102
RTVSPost2010PropOp43
 70
     1
102
RTVSPost2010Prop44ColorIndex
 90
        5
102
RTVSPost2010Prop44ColorRGB
 90
      255
102
RTVSPost2010PropOp44
 70
     1
102
RTVSPost2010Prop45
280
     0
102
RTVSPost2010PropOp45
 70
     1
102
RTVSPost2010Prop46
 90
       50
102
RTVSPost2010PropOp46
 70
     1
102
RTVSPost2010Prop47
 90
       50
102
RTVSPost2010PropOp47
 70
     1
102
RTVSPost2010Prop48
 90
       50
102
RTVSPost2010PropOp48
 70
     1
102
RTVSPost2010Prop49
280
     0
102
RTVSPost2010PropOp49
 70
     1
102
RTVSPost2010Prop50
 90
       50
102
RTVSPost2010PropOp50
 70
     1
102
RTVSPost2010Prop51ColorIndex
 90
      256
102
RTVSPost2010Prop51ColorRGB
 90
-16777216
102
RTVSPost2010PropOp51
 70
     0
102
RTVSPost2010Prop52
140
1.0
102
RTVSPost2010PropOp52
 70
     0
102
RTVSPost2010Prop53
 90
        2
102
RTVSPost2010PropOp53
 70
     1
102
RTVSPost2010Prop54
  1
strokes_ogs.tif
102
RTVSPost2010PropOp54
 70
     1
102
RTVSPost2010Prop55
280
     0
102
RTVSPost2010PropOp55
 70
     1
102
RTVSPost2010Prop56
140
1.0
102
RTVSPost2010PropOp56
 70
     1
102
RTVSPost2010Prop57
140
1.0
102
RTVSPost2010PropOp57
 70
     1
102
RTVSPropertyOp0
 70
     1
102
RTVSPropertyOp1
 70
     1
102
RTVSPropertyOp2
 70
     1
102
RTVSPropertyOp3
 70
     1
102
RTVSPropertyOp4
 70
     1
102
RTVSPropertyOp5
 70
     1
102
RTVSPropertyOp6
 70
     1
102
RTVSPropertyOp7
 70
     1
102
RTVSPropertyOp8
 70
     1
102
RTVSPropertyOp9
 70
     1
102
RTVSPropertyOp10
 70
     1
102
RTVSPropertyOp11
 70
     1
102
RTVSPropertyOp12
 70
     1
102
RTVSPropertyOp13
 70
     1
102
RTVSPropertyOp14
 70
     1
102
RTVSPropertyOp15
 70
     1
102
RTVSPropertyOp16
 70
     1
102
RTVSPropertyOp17
 70
     1
102
RTVSPropertyOp18
 70
     1
102
RTVSPropertyOp19
 70
     1
102
RTVSPropertyOp20
 70
     1
102
RTVSPropertyOp21
 70
     1
102
RTVSPropertyOp22
 70
     1
102
RTVSPropertyOp23
 70
     1
102
RTVSPropertyOp24
 70
     1
102
RTVSPropertyOp25
 70
     1
102
RTVSPropertyOp26
 70
     1
102
RTVSPropertyOp27
 70
     1
102
RTVSPropertyOp28
 70
     1
102
RTVSPropertyOp29
 70
     1
102
RTVSPropertyOp30
 70
     1
102
RTVSPropertyOp31
 70
     1
102
RTVSPropertyOp32
 70
     1
102
RTVSPropertyOp33
 70
     1
102
RTVSPropertyOp34
 70
     1
102
RTVSPropertyOp35
 70
     1
102
RTVSPropertyOp36
 70
     1
102
RTVSPropertyOp37
 70
     1
102
RTVSPropertyOp38
 70
     1
102
RTVSPropertyOp39
 70
     1
102
RTVSPropertyOp40
 70
     1
102
RTVSPropertyOp41
 70
     1
102
RTVSPropertyOp42
 70
     1
102
RTVSPropertyOp43
 70
     1
102
RTVSPropertyOp44
 70
     1
102
RTVSPropertyOp45
 70
     1
102
RTVSPropertyOp46
 70
     1
102
RTVSPropertyOp47
 70
     1
102
RTVSPropertyOp48
 70
     1
102
RTVSPropertyOp49
 70
     1
102
RTVSPropertyOp50
 70
     1
102
RTVSPropertyOp51
 70
     0
102
RTVSPropertyOp52
 70
     0
102
RTVSPropertyOp53
 70
     1
102
RTVSPropertyOp54
 70
     1
102
RTVSPropertyOp55
 70
     1
102
RTVSPropertyOp56
 70
     1
102
RTVSPropertyOp57
 70
     1
102
RTVSPropertyOp58
 70
     1
102
RTVSPropertyOp59
 70
     1
102
RTVSPropertyOp60
 70
     1
102
RTVSPropertyOp61
 70
     1
102
RTVSPropertyOp62
 70
     1
  0
XRECORD
  5
363
102
{ACAD_REACTORS
330
362
102
}
330
362
100
AcDbXrecord
280
     1
102
RTVSPost2010Prop28
280
     0
102
RTVSPost2010PropOp28
 70
     1
102
RTVSPost2010Prop29
280
     1
102
RTVSPost2010PropOp29
 70
     1
102
RTVSPost2010Prop30
280
     1
102
RTVSPost2010PropOp30
 70
     1
102
RTVSPost2010Prop31
280
     0
102
RTVSPost2010PropOp31
 70
     1
102
RTVSPost2010Prop32
280
     0
102
RTVSPost2010PropOp32
 70
     1
102
RTVSPost2010Prop33
280
     0
102
RTVSPost2010PropOp33
 70
     1
102
RTVSPost2010Prop34
280
     0
102
RTVSPost2010PropOp34
 70
     1
102
RTVSPost2010Prop35
280
     0
102
RTVSPost2010PropOp35
 70
     1
102
RTVSPost2010Prop36
280
     0
102
RTVSPost2010PropOp36
 70
     1
102
RTVSPost2010Prop37
 90
       50
102
RTVSPost2010PropOp37
 70
     1
102
RTVSPost2010Prop38
140
0.0
102
RTVSPost2010PropOp38
 70
     1
102
RTVSPost2010Prop39
140
1.0
102
RTVSPost2010PropOp39
 70
     1
102
RTVSPost2010Prop40
 90
        0
102
RTVSPost2010PropOp40
 70
     1
102
RTVSPost2010Prop41ColorIndex
 90
       18
102
RTVSPost2010Prop41ColorRGB
 90
        0
102
RTVSPost2010PropOp41
 70
     1
102
RTVSPost2010Prop42
 90
       50
102
RTVSPost2010PropOp42
 70
     1
102
RTVSPost2010Prop43
 90
        3
102
RTVSPost2010PropOp43
 70
     1
102
RTVSPost2010Prop44ColorIndex
 90
        5
102
RTVSPost2010Prop44ColorRGB
 90
      255
102
RTVSPost2010PropOp44
 70
     1
102
RTVSPost2010Prop45
280
     0
102
RTVSPost2010PropOp45
 70
     1
102
RTVSPost2010Prop46
 90
       50
102
RTVSPost2010PropOp46
 70
     1
102
RTVSPost2010Prop47
 90
       50
102
RTVSPost2010PropOp47
 70
     1
102
RTVSPost2010Prop48
 90
       50
102
RTVSPost2010PropOp48
 70
     1
102
RTVSPost2010Prop49
280
     0
102
RTVSPost2010PropOp49
 70
     1
102
RTVSPost2010Prop50
 90
       50
102
RTVSPost2010PropOp50
 70
     1
102
RTVSPost2010Prop51ColorIndex
 90
      256
102
RTVSPost2010Prop51ColorRGB
 90
-16777216
102
RTVSPost2010PropOp51
 70
     0
102
RTVSPost2010Prop52
140
1.0
102
RTVSPost2010PropOp52
 70
     0
102
RTVSPost2010Prop53
 90
        2
102
RTVSPost2010PropOp53
 70
     1
102
RTVSPost2010Prop54
  1
strokes_ogs.tif
102
RTVSPost2010PropOp54
 70
     1
102
RTVSPost2010Prop55
280
     0
102
RTVSPost2010PropOp55
 70
     1
102
RTVSPost2010Prop56
140
1.0
102
RTVSPost2010PropOp56
 70
     1
102
RTVSPost2010Prop57
140
1.0
102
RTVSPost2010PropOp57
 70
     1
102
RTVSPropertyOp0
 70
     1
102
RTVSPropertyOp1
 70
     1
102
RTVSPropertyOp2
 70
     1
102
RTVSPropertyOp3
 70
     1
102
RTVSPropertyOp4
 70
     1
102
RTVSPropertyOp5
 70
     1
102
RTVSPropertyOp6
 70
     1
102
RTVSPropertyOp7
 70
     1
102
RTVSPropertyOp8
 70
     1
102
RTVSPropertyOp9
 70
     1
102
RTVSPropertyOp10
 70
     1
102
RTVSPropertyOp11
 70
     1
102
RTVSPropertyOp12
 70
     1
102
RTVSPropertyOp13
 70
     1
102
RTVSPropertyOp14
 70
     1
102
RTVSPropertyOp15
 70
     1
102
RTVSPropertyOp16
 70
     1
102
RTVSPropertyOp17
 70
     1
102
RTVSPropertyOp18
 70
     1
102
RTVSPropertyOp19
 70
     1
102
RTVSPropertyOp20
 70
     1
102
RTVSPropertyOp21
 70
     1
102
RTVSPropertyOp22
 70
     1
102
RTVSPropertyOp23
 70
     1
102
RTVSPropertyOp24
 70
     1
102
RTVSPropertyOp25
 70
     1
102
RTVSPropertyOp26
 70
     1
102
RTVSPropertyOp27
 70
     1
102
RTVSPropertyOp28
 70
     1
102
RTVSPropertyOp29
 70
     1
102
RTVSPropertyOp30
 70
     1
102
RTVSPropertyOp31
 70
     1
102
RTVSPropertyOp32
 70
     1
102
RTVSPropertyOp33
 70
     1
102
RTVSPropertyOp34
 70
     1
102
RTVSPropertyOp35
 70
     1
102
RTVSPropertyOp36
 70
     1
102
RTVSPropertyOp37
 70
     1
102
RTVSPropertyOp38
 70
     1
102
RTVSPropertyOp39
 70
     1
102
RTVSPropertyOp40
 70
     1
102
RTVSPropertyOp41
 70
     1
102
RTVSPropertyOp42
 70
     1
102
RTVSPropertyOp43
 70
     1
102
RTVSPropertyOp44
 70
     1
102
RTVSPropertyOp45
 70
     1
102
RTVSPropertyOp46
 70
     1
102
RTVSPropertyOp47
 70
     1
102
RTVSPropertyOp48
 70
     1
102
RTVSPropertyOp49
 70
     1
102
RTVSPropertyOp50
 70
     1
102
RTVSPropertyOp51
 70
     0
102
RTVSPropertyOp52
 70
     0
102
RTVSPropertyOp53
 70
     1
102
RTVSPropertyOp54
 70
     1
102
RTVSPropertyOp55
 70
     1
102
RTVSPropertyOp56
 70
     1
102
RTVSPropertyOp57
 70
     1
102
RTVSPropertyOp58
 70
     1
102
RTVSPropertyOp59
 70
     1
102
RTVSPropertyOp60
 70
     1
102
RTVSPropertyOp61
 70
     1
102
RTVSPropertyOp62
 70
     1
  0
XRECORD
  5
365
102
{ACAD_REACTORS
330
364
102
}
330
364
100
AcDbXrecord
280
     1
102
RTVSPost2010Prop28
280
     0
102
RTVSPost2010PropOp28
 70
     1
102
RTVSPost2010Prop29
280
     1
102
RTVSPost2010PropOp29
 70
     1
102
RTVSPost2010Prop30
280
     1
102
RTVSPost2010PropOp30
 70
     1
102
RTVSPost2010Prop31
280
     0
102
RTVSPost2010PropOp31
 70
     1
102
RTVSPost2010Prop32
280
     0
102
RTVSPost2010PropOp32
 70
     1
102
RTVSPost2010Prop33
280
     0
102
RTVSPost2010PropOp33
 70
     1
102
RTVSPost2010Prop34
280
     0
102
RTVSPost2010PropOp34
 70
     1
102
RTVSPost2010Prop35
280
     0
102
RTVSPost2010PropOp35
 70
     1
102
RTVSPost2010Prop36
280
     0
102
RTVSPost2010PropOp36
 70
     1
102
RTVSPost2010Prop37
 90
       50
102
RTVSPost2010PropOp37
 70
     1
102
RTVSPost2010Prop38
140
0.0
102
RTVSPost2010PropOp38
 70
     1
102
RTVSPost2010Prop39
140
1.0
102
RTVSPost2010PropOp39
 70
     1
102
RTVSPost2010Prop40
 90
        0
102
RTVSPost2010PropOp40
 70
     1
102
RTVSPost2010Prop41ColorIndex
 90
       18
102
RTVSPost2010Prop41ColorRGB
 90
        0
102
RTVSPost2010PropOp41
 70
     1
102
RTVSPost2010Prop42
 90
       50
102
RTVSPost2010PropOp42
 70
     1
102
RTVSPost2010Prop43
 90
        3
102
RTVSPost2010PropOp43
 70
     1
102
RTVSPost2010Prop44ColorIndex
 90
        5
102
RTVSPost2010Prop44ColorRGB
 90
      255
102
RTVSPost2010PropOp44
 70
     1
102
RTVSPost2010Prop45
280
     0
102
RTVSPost2010PropOp45
 70
     1
102
RTVSPost2010Prop46
 90
       50
102
RTVSPost2010PropOp46
 70
     1
102
RTVSPost2010Prop47
 90
       50
102
RTVSPost2010PropOp47
 70
     1
102
RTVSPost2010Prop48
 90
       50
102
RTVSPost2010PropOp48
 70
     1
102
RTVSPost2010Prop49
280
     0
102
RTVSPost2010PropOp49
 70
     1
102
RTVSPost2010Prop50
 90
       50
102
RTVSPost2010PropOp50
 70
     1
102
RTVSPost2010Prop51ColorIndex
 90
      256
102
RTVSPost2010Prop51ColorRGB
 90
-16777216
102
RTVSPost2010PropOp51
 70
     0
102
RTVSPost2010Prop52
140
1.0
102
RTVSPost2010PropOp52
 70
     0
102
RTVSPost2010Prop53
 90
        2
102
RTVSPost2010PropOp53
 70
     1
102
RTVSPost2010Prop54
  1
strokes_ogs.tif
102
RTVSPost2010PropOp54
 70
     1
102
RTVSPost2010Prop55
280
     0
102
RTVSPost2010PropOp55
 70
     1
102
RTVSPost2010Prop56
140
1.0
102
RTVSPost2010PropOp56
 70
     1
102
RTVSPost2010Prop57
140
1.0
102
RTVSPost2010PropOp57
 70
     1
102
RTVSPropertyOp0
 70
     1
102
RTVSPropertyOp1
 70
     1
102
RTVSPropertyOp2
 70
     1
102
RTVSPropertyOp3
 70
     1
102
RTVSPropertyOp4
 70
     1
102
RTVSPropertyOp5
 70
     1
102
RTVSPropertyOp6
 70
     1
102
RTVSPropertyOp7
 70
     1
102
RTVSPropertyOp8
 70
     1
102
RTVSPropertyOp9
 70
     1
102
RTVSPropertyOp10
 70
     1
102
RTVSPropertyOp11
 70
     1
102
RTVSPropertyOp12
 70
     1
102
RTVSPropertyOp13
 70
     1
102
RTVSPropertyOp14
 70
     1
102
RTVSPropertyOp15
 70
     1
102
RTVSPropertyOp16
 70
     1
102
RTVSPropertyOp17
 70
     1
102
RTVSPropertyOp18
 70
     1
102
RTVSPropertyOp19
 70
     1
102
RTVSPropertyOp20
 70
     1
102
RTVSPropertyOp21
 70
     1
102
RTVSPropertyOp22
 70
     1
102
RTVSPropertyOp23
 70
     1
102
RTVSPropertyOp24
 70
     1
102
RTVSPropertyOp25
 70
     1
102
RTVSPropertyOp26
 70
     1
102
RTVSPropertyOp27
 70
     1
102
RTVSPropertyOp28
 70
     1
102
RTVSPropertyOp29
 70
     1
102
RTVSPropertyOp30
 70
     1
102
RTVSPropertyOp31
 70
     1
102
RTVSPropertyOp32
 70
     1
102
RTVSPropertyOp33
 70
     1
102
RTVSPropertyOp34
 70
     1
102
RTVSPropertyOp35
 70
     1
102
RTVSPropertyOp36
 70
     1
102
RTVSPropertyOp37
 70
     1
102
RTVSPropertyOp38
 70
     1
102
RTVSPropertyOp39
 70
     1
102
RTVSPropertyOp40
 70
     1
102
RTVSPropertyOp41
 70
     1
102
RTVSPropertyOp42
 70
     1
102
RTVSPropertyOp43
 70
     1
102
RTVSPropertyOp44
 70
     1
102
RTVSPropertyOp45
 70
     1
102
RTVSPropertyOp46
 70
     1
102
RTVSPropertyOp47
 70
     1
102
RTVSPropertyOp48
 70
     1
102
RTVSPropertyOp49
 70
     1
102
RTVSPropertyOp50
 70
     1
102
RTVSPropertyOp51
 70
     0
102
RTVSPropertyOp52
 70
     0
102
RTVSPropertyOp53
 70
     1
102
RTVSPropertyOp54
 70
     1
102
RTVSPropertyOp55
 70
     1
102
RTVSPropertyOp56
 70
     1
102
RTVSPropertyOp57
 70
     1
102
RTVSPropertyOp58
 70
     1
102
RTVSPropertyOp59
 70
     1
102
RTVSPropertyOp60
 70
     1
102
RTVSPropertyOp61
 70
     1
102
RTVSPropertyOp62
 70
     1
  0
XRECORD
  5
367
102
{ACAD_REACTORS
330
366
102
}
330
366
100
AcDbXrecord
280
     1
102
RTVSPost2010Prop28
280
     0
102
RTVSPost2010PropOp28
 70
     1
102
RTVSPost2010Prop29
280
     1
102
RTVSPost2010PropOp29
 70
     1
102
RTVSPost2010Prop30
280
     1
102
RTVSPost2010PropOp30
 70
     1
102
RTVSPost2010Prop31
280
     0
102
RTVSPost2010PropOp31
 70
     1
102
RTVSPost2010Prop32
280
     0
102
RTVSPost2010PropOp32
 70
     1
102
RTVSPost2010Prop33
280
     0
102
RTVSPost2010PropOp33
 70
     1
102
RTVSPost2010Prop34
280
     0
102
RTVSPost2010PropOp34
 70
     1
102
RTVSPost2010Prop35
280
     0
102
RTVSPost2010PropOp35
 70
     1
102
RTVSPost2010Prop36
280
     0
102
RTVSPost2010PropOp36
 70
     1
102
RTVSPost2010Prop37
 90
       50
102
RTVSPost2010PropOp37
 70
     1
102
RTVSPost2010Prop38
140
0.0
102
RTVSPost2010PropOp38
 70
     1
102
RTVSPost2010Prop39
140
1.0
102
RTVSPost2010PropOp39
 70
     1
102
RTVSPost2010Prop40
 90
        0
102
RTVSPost2010PropOp40
 70
     1
102
RTVSPost2010Prop41ColorIndex
 90
       18
102
RTVSPost2010Prop41ColorRGB
 90
        0
102
RTVSPost2010PropOp41
 70
     1
102
RTVSPost2010Prop42
 90
       50
102
RTVSPost2010PropOp42
 70
     1
102
RTVSPost2010Prop43
 90
        3
102
RTVSPost2010PropOp43
 70
     1
102
RTVSPost2010Prop44ColorIndex
 90
        5
102
RTVSPost2010Prop44ColorRGB
 90
      255
102
RTVSPost2010PropOp44
 70
     1
102
RTVSPost2010Prop45
280
     0
102
RTVSPost2010PropOp45
 70
     1
102
RTVSPost2010Prop46
 90
       50
102
RTVSPost2010PropOp46
 70
     1
102
RTVSPost2010Prop47
 90
       50
102
RTVSPost2010PropOp47
 70
     1
102
RTVSPost2010Prop48
 90
       50
102
RTVSPost2010PropOp48
 70
     1
102
RTVSPost2010Prop49
280
     0
102
RTVSPost2010PropOp49
 70
     1
102
RTVSPost2010Prop50
 90
       50
102
RTVSPost2010PropOp50
 70
     1
102
RTVSPost2010Prop51ColorIndex
 90
      256
102
RTVSPost2010Prop51ColorRGB
 90
-16777216
102
RTVSPost2010PropOp51
 70
     0
102
RTVSPost2010Prop52
140
1.0
102
RTVSPost2010PropOp52
 70
     0
102
RTVSPost2010Prop53
 90
        2
102
RTVSPost2010PropOp53
 70
     1
102
RTVSPost2010Prop54
  1
strokes_ogs.tif
102
RTVSPost2010PropOp54
 70
     1
102
RTVSPost2010Prop55
280
     0
102
RTVSPost2010PropOp55
 70
     1
102
RTVSPost2010Prop56
140
1.0
102
RTVSPost2010PropOp56
 70
     1
102
RTVSPost2010Prop57
140
1.0
102
RTVSPost2010PropOp57
 70
     1
102
RTVSPropertyOp0
 70
     1
102
RTVSPropertyOp1
 70
     1
102
RTVSPropertyOp2
 70
     1
102
RTVSPropertyOp3
 70
     1
102
RTVSPropertyOp4
 70
     1
102
RTVSPropertyOp5
 70
     1
102
RTVSPropertyOp6
 70
     1
102
RTVSPropertyOp7
 70
     1
102
RTVSPropertyOp8
 70
     1
102
RTVSPropertyOp9
 70
     1
102
RTVSPropertyOp10
 70
     1
102
RTVSPropertyOp11
 70
     1
102
RTVSPropertyOp12
 70
     1
102
RTVSPropertyOp13
 70
     1
102
RTVSPropertyOp14
 70
     1
102
RTVSPropertyOp15
 70
     1
102
RTVSPropertyOp16
 70
     1
102
RTVSPropertyOp17
 70
     1
102
RTVSPropertyOp18
 70
     1
102
RTVSPropertyOp19
 70
     1
102
RTVSPropertyOp20
 70
     1
102
RTVSPropertyOp21
 70
     1
102
RTVSPropertyOp22
 70
     1
102
RTVSPropertyOp23
 70
     1
102
RTVSPropertyOp24
 70
     1
102
RTVSPropertyOp25
 70
     1
102
RTVSPropertyOp26
 70
     1
102
RTVSPropertyOp27
 70
     1
102
RTVSPropertyOp28
 70
     1
102
RTVSPropertyOp29
 70
     1
102
RTVSPropertyOp30
 70
     1
102
RTVSPropertyOp31
 70
     1
102
RTVSPropertyOp32
 70
     1
102
RTVSPropertyOp33
 70
     1
102
RTVSPropertyOp34
 70
     1
102
RTVSPropertyOp35
 70
     1
102
RTVSPropertyOp36
 70
     1
102
RTVSPropertyOp37
 70
     1
102
RTVSPropertyOp38
 70
     1
102
RTVSPropertyOp39
 70
     1
102
RTVSPropertyOp40
 70
     1
102
RTVSPropertyOp41
 70
     1
102
RTVSPropertyOp42
 70
     1
102
RTVSPropertyOp43
 70
     1
102
RTVSPropertyOp44
 70
     1
102
RTVSPropertyOp45
 70
     1
102
RTVSPropertyOp46
 70
     1
102
RTVSPropertyOp47
 70
     1
102
RTVSPropertyOp48
 70
     1
102
RTVSPropertyOp49
 70
     1
102
RTVSPropertyOp50
 70
     1
102
RTVSPropertyOp51
 70
     0
102
RTVSPropertyOp52
 70
     0
102
RTVSPropertyOp53
 70
     1
102
RTVSPropertyOp54
 70
     1
102
RTVSPropertyOp55
 70
     1
102
RTVSPropertyOp56
 70
     1
102
RTVSPropertyOp57
 70
     1
102
RTVSPropertyOp58
 70
     1
102
RTVSPropertyOp59
 70
     1
102
RTVSPropertyOp60
 70
     1
102
RTVSPropertyOp61
 70
     1
102
RTVSPropertyOp62
 70
     1
  0
XRECORD
  5
36D
102
{ACAD_REACTORS
330
36C
102
}
330
36C
100
AcDbXrecord
280
     1
102
RTVSPost2010Prop28
280
     0
102
RTVSPost2010PropOp28
 70
     1
102
RTVSPost2010Prop29
280
     1
102
RTVSPost2010PropOp29
 70
     1
102
RTVSPost2010Prop30
280
     1
102
RTVSPost2010PropOp30
 70
     1
102
RTVSPost2010Prop31
280
     0
102
RTVSPost2010PropOp31
 70
     1
102
RTVSPost2010Prop32
280
     0
102
RTVSPost2010PropOp32
 70
     1
102
RTVSPost2010Prop33
280
     0
102
RTVSPost2010PropOp33
 70
     1
102
RTVSPost2010Prop34
280
     0
102
RTVSPost2010PropOp34
 70
     1
102
RTVSPost2010Prop35
280
     0
102
RTVSPost2010PropOp35
 70
     1
102
RTVSPost2010Prop36
280
     0
102
RTVSPost2010PropOp36
 70
     1
102
RTVSPost2010Prop37
 90
       50
102
RTVSPost2010PropOp37
 70
     1
102
RTVSPost2010Prop38
140
0.0
102
RTVSPost2010PropOp38
 70
     1
102
RTVSPost2010Prop39
140
1.0
102
RTVSPost2010PropOp39
 70
     1
102
RTVSPost2010Prop40
 90
        0
102
RTVSPost2010PropOp40
 70
     1
102
RTVSPost2010Prop41ColorIndex
 90
       18
102
RTVSPost2010Prop41ColorRGB
 90
        0
102
RTVSPost2010PropOp41
 70
     1
102
RTVSPost2010Prop42
 90
       50
102
RTVSPost2010PropOp42
 70
     1
102
RTVSPost2010Prop43
 90
        3
102
RTVSPost2010PropOp43
 70
     1
102
RTVSPost2010Prop44ColorIndex
 90
        5
102
RTVSPost2010Prop44ColorRGB
 90
      255
102
RTVSPost2010PropOp44
 70
     1
102
RTVSPost2010Prop45
280
     0
102
RTVSPost2010PropOp45
 70
     1
102
RTVSPost2010Prop46
 90
       50
102
RTVSPost2010PropOp46
 70
     1
102
RTVSPost2010Prop47
 90
       50
102
RTVSPost2010PropOp47
 70
     1
102
RTVSPost2010Prop48
 90
       50
102
RTVSPost2010PropOp48
 70
     1
102
RTVSPost2010Prop49
280
     0
102
RTVSPost2010PropOp49
 70
     1
102
RTVSPost2010Prop50
 90
       50
102
RTVSPost2010PropOp50
 70
     1
102
RTVSPost2010Prop51ColorIndex
 90
      256
102
RTVSPost2010Prop51ColorRGB
 90
-16777216
102
RTVSPost2010PropOp51
 70
     0
102
RTVSPost2010Prop52
140
1.0
102
RTVSPost2010PropOp52
 70
     0
102
RTVSPost2010Prop53
 90
        2
102
RTVSPost2010PropOp53
 70
     1
102
RTVSPost2010Prop54
  1
strokes_ogs.tif
102
RTVSPost2010PropOp54
 70
     1
102
RTVSPost2010Prop55
280
     0
102
RTVSPost2010PropOp55
 70
     1
102
RTVSPost2010Prop56
140
1.0
102
RTVSPost2010PropOp56
 70
     1
102
RTVSPost2010Prop57
140
1.0
102
RTVSPost2010PropOp57
 70
     1
102
RTVSPropertyOp0
 70
     1
102
RTVSPropertyOp1
 70
     1
102
RTVSPropertyOp2
 70
     1
102
RTVSPropertyOp3
 70
     1
102
RTVSPropertyOp4
 70
     1
102
RTVSPropertyOp5
 70
     1
102
RTVSPropertyOp6
 70
     1
102
RTVSPropertyOp7
 70
     1
102
RTVSPropertyOp8
 70
     1
102
RTVSPropertyOp9
 70
     1
102
RTVSPropertyOp10
 70
     1
102
RTVSPropertyOp11
 70
     1
102
RTVSPropertyOp12
 70
     1
102
RTVSPropertyOp13
 70
     1
102
RTVSPropertyOp14
 70
     1
102
RTVSPropertyOp15
 70
     1
102
RTVSPropertyOp16
 70
     1
102
RTVSPropertyOp17
 70
     1
102
RTVSPropertyOp18
 70
     1
102
RTVSPropertyOp19
 70
     1
102
RTVSPropertyOp20
 70
     1
102
RTVSPropertyOp21
 70
     1
102
RTVSPropertyOp22
 70
     1
102
RTVSPropertyOp23
 70
     1
102
RTVSPropertyOp24
 70
     1
102
RTVSPropertyOp25
 70
     1
102
RTVSPropertyOp26
 70
     1
102
RTVSPropertyOp27
 70
     1
102
RTVSPropertyOp28
 70
     1
102
RTVSPropertyOp29
 70
     1
102
RTVSPropertyOp30
 70
     1
102
RTVSPropertyOp31
 70
     1
102
RTVSPropertyOp32
 70
     1
102
RTVSPropertyOp33
 70
     1
102
RTVSPropertyOp34
 70
     1
102
RTVSPropertyOp35
 70
     1
102
RTVSPropertyOp36
 70
     1
102
RTVSPropertyOp37
 70
     1
102
RTVSPropertyOp38
 70
     1
102
RTVSPropertyOp39
 70
     1
102
RTVSPropertyOp40
 70
     1
102
RTVSPropertyOp41
 70
     1
102
RTVSPropertyOp42
 70
     1
102
RTVSPropertyOp43
 70
     1
102
RTVSPropertyOp44
 70
     1
102
RTVSPropertyOp45
 70
     1
102
RTVSPropertyOp46
 70
     1
102
RTVSPropertyOp47
 70
     1
102
RTVSPropertyOp48
 70
     1
102
RTVSPropertyOp49
 70
     1
102
RTVSPropertyOp50
 70
     1
102
RTVSPropertyOp51
 70
     0
102
RTVSPropertyOp52
 70
     0
102
RTVSPropertyOp53
 70
     1
102
RTVSPropertyOp54
 70
     1
102
RTVSPropertyOp55
 70
     1
102
RTVSPropertyOp56
 70
     1
102
RTVSPropertyOp57
 70
     1
102
RTVSPropertyOp58
 70
     1
102
RTVSPropertyOp59
 70
     1
102
RTVSPropertyOp60
 70
     1
102
RTVSPropertyOp61
 70
     1
102
RTVSPropertyOp62
 70
     1
  0
XRECORD
  5
381
102
{ACAD_REACTORS
330
380
102
}
330
380
100
AcDbXrecord
280
     1
102
RTVSPost2010Prop28
280
     0
102
RTVSPost2010PropOp28
 70
     0
102
RTVSPost2010Prop29
280
     1
102
RTVSPost2010PropOp29
 70
     0
102
RTVSPost2010Prop30
280
     1
102
RTVSPost2010PropOp30
 70
     0
102
RTVSPost2010Prop31
280
     0
102
RTVSPost2010PropOp31
 70
     0
102
RTVSPost2010Prop32
280
     0
102
RTVSPost2010PropOp32
 70
     0
102
RTVSPost2010Prop33
280
     0
102
RTVSPost2010PropOp33
 70
     0
102
RTVSPost2010Prop34
280
     0
102
RTVSPost2010PropOp34
 70
     0
102
RTVSPost2010Prop35
280
     0
102
RTVSPost2010PropOp35
 70
     0
102
RTVSPost2010Prop36
280
     0
102
RTVSPost2010PropOp36
 70
     0
102
RTVSPost2010Prop37
 90
       50
102
RTVSPost2010PropOp37
 70
     0
102
RTVSPost2010Prop38
140
0.0
102
RTVSPost2010PropOp38
 70
     0
102
RTVSPost2010Prop39
140
1.0
102
RTVSPost2010PropOp39
 70
     0
102
RTVSPost2010Prop40
 90
        0
102
RTVSPost2010PropOp40
 70
     0
102
RTVSPost2010Prop41ColorIndex
 90
       18
102
RTVSPost2010Prop41ColorRGB
 90
        0
102
RTVSPost2010PropOp41
 70
     0
102
RTVSPost2010Prop42
 90
       50
102
RTVSPost2010PropOp42
 70
     0
102
RTVSPost2010Prop43
 90
        3
102
RTVSPost2010PropOp43
 70
     0
102
RTVSPost2010Prop44ColorIndex
 90
        5
102
RTVSPost2010Prop44ColorRGB
 90
      255
102
RTVSPost2010PropOp44
 70
     0
102
RTVSPost2010Prop45
280
     0
102
RTVSPost2010PropOp45
 70
     0
102
RTVSPost2010Prop46
 90
       50
102
RTVSPost2010PropOp46
 70
     0
102
RTVSPost2010Prop47
 90
       50
102
RTVSPost2010PropOp47
 70
     0
102
RTVSPost2010Prop48
 90
       50
102
RTVSPost2010PropOp48
 70
     0
102
RTVSPost2010Prop49
280
     0
102
RTVSPost2010PropOp49
 70
     0
102
RTVSPost2010Prop50
 90
       50
102
RTVSPost2010PropOp50
 70
     0
102
RTVSPost2010Prop51ColorIndex
 90
      256
102
RTVSPost2010Prop51ColorRGB
 90
-16777216
102
RTVSPost2010PropOp51
 70
     0
102
RTVSPost2010Prop52
140
1.0
102
RTVSPost2010PropOp52
 70
     0
102
RTVSPost2010Prop53
 90
        2
102
RTVSPost2010PropOp53
 70
     0
102
RTVSPost2010Prop54
  1
strokes_ogs.tif
102
RTVSPost2010PropOp54
 70
     0
102
RTVSPost2010Prop55
280
     0
102
RTVSPost2010PropOp55
 70
     0
102
RTVSPost2010Prop56
140
1.0
102
RTVSPost2010PropOp56
 70
     0
102
RTVSPost2010Prop57
140
1.0
102
RTVSPost2010PropOp57
 70
     0
102
RTVSPropertyOp0
 70
     0
102
RTVSPropertyOp1
 70
     0
102
RTVSPropertyOp2
 70
     0
102
RTVSPropertyOp3
 70
     0
102
RTVSPropertyOp4
 70
     0
102
RTVSPropertyOp5
 70
     0
102
RTVSPropertyOp6
 70
     0
102
RTVSPropertyOp7
 70
     0
102
RTVSPropertyOp8
 70
     0
102
RTVSPropertyOp9
 70
     0
102
RTVSPropertyOp10
 70
     0
102
RTVSPropertyOp11
 70
     0
102
RTVSPropertyOp12
 70
     0
102
RTVSPropertyOp13
 70
     0
102
RTVSPropertyOp14
 70
     2
102
RTVSPropertyOp15
 70
     0
102
RTVSPropertyOp16
 70
     0
102
RTVSPropertyOp17
 70
     0
102
RTVSPropertyOp18
 70
     0
102
RTVSPropertyOp19
 70
     0
102
RTVSPropertyOp20
 70
     0
102
RTVSPropertyOp21
 70
     0
102
RTVSPropertyOp22
 70
     0
102
RTVSPropertyOp23
 70
     0
102
RTVSPropertyOp24
 70
     0
102
RTVSPropertyOp25
 70
     0
102
RTVSPropertyOp26
 70
     0
102
RTVSPropertyOp27
 70
     0
102
RTVSPropertyOp28
 70
     0
102
RTVSPropertyOp29
 70
     0
102
RTVSPropertyOp30
 70
     0
102
RTVSPropertyOp31
 70
     0
102
RTVSPropertyOp32
 70
     0
102
RTVSPropertyOp33
 70
     0
102
RTVSPropertyOp34
 70
     0
102
RTVSPropertyOp35
 70
     0
102
RTVSPropertyOp36
 70
     0
102
RTVSPropertyOp37
 70
     0
102
RTVSPropertyOp38
 70
     0
102
RTVSPropertyOp39
 70
     0
102
RTVSPropertyOp40
 70
     0
102
RTVSPropertyOp41
 70
     0
102
RTVSPropertyOp42
 70
     0
102
RTVSPropertyOp43
 70
     0
102
RTVSPropertyOp44
 70
     0
102
RTVSPropertyOp45
 70
     0
102
RTVSPropertyOp46
 70
     0
102
RTVSPropertyOp47
 70
     0
102
RTVSPropertyOp48
 70
     0
102
RTVSPropertyOp49
 70
     0
102
RTVSPropertyOp50
 70
     0
102
RTVSPropertyOp51
 70
     0
102
RTVSPropertyOp52
 70
     0
102
RTVSPropertyOp53
 70
     0
102
RTVSPropertyOp54
 70
     0
102
RTVSPropertyOp55
 70
     0
102
RTVSPropertyOp56
 70
     0
102
RTVSPropertyOp57
 70
     0
102
RTVSPropertyOp58
 70
     1
102
RTVSPropertyOp59
 70
     1
102
RTVSPropertyOp60
 70
     1
102
RTVSPropertyOp61
 70
     1
102
RTVSPropertyOp62
 70
     1
  0
XRECORD
  5
37B
102
{ACAD_REACTORS
330
37A
102
}
330
37A
100
AcDbXrecord
280
     1
102
RTVSPost2010Prop28
280
     0
102
RTVSPost2010PropOp28
 70
     1
102
RTVSPost2010Prop29
280
     1
102
RTVSPost2010PropOp29
 70
     1
102
RTVSPost2010Prop30
280
     1
102
RTVSPost2010PropOp30
 70
     1
102
RTVSPost2010Prop31
280
     0
102
RTVSPost2010PropOp31
 70
     1
102
RTVSPost2010Prop32
280
     0
102
RTVSPost2010PropOp32
 70
     1
102
RTVSPost2010Prop33
280
     0
102
RTVSPost2010PropOp33
 70
     1
102
RTVSPost2010Prop34
280
     0
102
RTVSPost2010PropOp34
 70
     1
102
RTVSPost2010Prop35
280
     0
102
RTVSPost2010PropOp35
 70
     1
102
RTVSPost2010Prop36
280
     0
102
RTVSPost2010PropOp36
 70
     1
102
RTVSPost2010Prop37
 90
       50
102
RTVSPost2010PropOp37
 70
     1
102
RTVSPost2010Prop38
140
0.0
102
RTVSPost2010PropOp38
 70
     1
102
RTVSPost2010Prop39
140
1.0
102
RTVSPost2010PropOp39
 70
     1
102
RTVSPost2010Prop40
 90
        0
102
RTVSPost2010PropOp40
 70
     1
102
RTVSPost2010Prop41ColorIndex
 90
       18
102
RTVSPost2010Prop41ColorRGB
 90
        0
102
RTVSPost2010PropOp41
 70
     1
102
RTVSPost2010Prop42
 90
       50
102
RTVSPost2010PropOp42
 70
     1
102
RTVSPost2010Prop43
 90
        3
102
RTVSPost2010PropOp43
 70
     1
102
RTVSPost2010Prop44ColorIndex
 90
        5
102
RTVSPost2010Prop44ColorRGB
 90
      255
102
RTVSPost2010PropOp44
 70
     1
102
RTVSPost2010Prop45
280
     0
102
RTVSPost2010PropOp45
 70
     1
102
RTVSPost2010Prop46
 90
       50
102
RTVSPost2010PropOp46
 70
     1
102
RTVSPost2010Prop47
 90
       50
102
RTVSPost2010PropOp47
 70
     1
102
RTVSPost2010Prop48
 90
       50
102
RTVSPost2010PropOp48
 70
     1
102
RTVSPost2010Prop49
280
     0
102
RTVSPost2010PropOp49
 70
     1
102
RTVSPost2010Prop50
 90
       50
102
RTVSPost2010PropOp50
 70
     1
102
RTVSPost2010Prop51ColorIndex
 90
      256
102
RTVSPost2010Prop51ColorRGB
 90
-16777216
102
RTVSPost2010PropOp51
 70
     0
102
RTVSPost2010Prop52
140
1.0
102
RTVSPost2010PropOp52
 70
     0
102
RTVSPost2010Prop53
 90
        2
102
RTVSPost2010PropOp53
 70
     1
102
RTVSPost2010Prop54
  1
strokes_ogs.tif
102
RTVSPost2010PropOp54
 70
     1
102
RTVSPost2010Prop55
280
     0
102
RTVSPost2010PropOp55
 70
     1
102
RTVSPost2010Prop56
140
1.0
102
RTVSPost2010PropOp56
 70
     1
102
RTVSPost2010Prop57
140
1.0
102
RTVSPost2010PropOp57
 70
     1
102
RTVSPropertyOp0
 70
     1
102
RTVSPropertyOp1
 70
     1
102
RTVSPropertyOp2
 70
     1
102
RTVSPropertyOp3
 70
     1
102
RTVSPropertyOp4
 70
     1
102
RTVSPropertyOp5
 70
     1
102
RTVSPropertyOp6
 70
     1
102
RTVSPropertyOp7
 70
     1
102
RTVSPropertyOp8
 70
     1
102
RTVSPropertyOp9
 70
     1
102
RTVSPropertyOp10
 70
     1
102
RTVSPropertyOp11
 70
     1
102
RTVSPropertyOp12
 70
     1
102
RTVSPropertyOp13
 70
     1
102
RTVSPropertyOp14
 70
     1
102
RTVSPropertyOp15
 70
     1
102
RTVSPropertyOp16
 70
     1
102
RTVSPropertyOp17
 70
     1
102
RTVSPropertyOp18
 70
     1
102
RTVSPropertyOp19
 70
     1
102
RTVSPropertyOp20
 70
     1
102
RTVSPropertyOp21
 70
     1
102
RTVSPropertyOp22
 70
     1
102
RTVSPropertyOp23
 70
     1
102
RTVSPropertyOp24
 70
     1
102
RTVSPropertyOp25
 70
     1
102
RTVSPropertyOp26
 70
     1
102
RTVSPropertyOp27
 70
     1
102
RTVSPropertyOp28
 70
     1
102
RTVSPropertyOp29
 70
     1
102
RTVSPropertyOp30
 70
     1
102
RTVSPropertyOp31
 70
     1
102
RTVSPropertyOp32
 70
     1
102
RTVSPropertyOp33
 70
     1
102
RTVSPropertyOp34
 70
     1
102
RTVSPropertyOp35
 70
     1
102
RTVSPropertyOp36
 70
     1
102
RTVSPropertyOp37
 70
     1
102
RTVSPropertyOp38
 70
     1
102
RTVSPropertyOp39
 70
     1
102
RTVSPropertyOp40
 70
     1
102
RTVSPropertyOp41
 70
     1
102
RTVSPropertyOp42
 70
     1
102
RTVSPropertyOp43
 70
     1
102
RTVSPropertyOp44
 70
     1
102
RTVSPropertyOp45
 70
     1
102
RTVSPropertyOp46
 70
     1
102
RTVSPropertyOp47
 70
     1
102
RTVSPropertyOp48
 70
     1
102
RTVSPropertyOp49
 70
     1
102
RTVSPropertyOp50
 70
     1
102
RTVSPropertyOp51
 70
     0
102
RTVSPropertyOp52
 70
     0
102
RTVSPropertyOp53
 70
     1
102
RTVSPropertyOp54
 70
     1
102
RTVSPropertyOp55
 70
     1
102
RTVSPropertyOp56
 70
     1
102
RTVSPropertyOp57
 70
     1
102
RTVSPropertyOp58
 70
     1
102
RTVSPropertyOp59
 70
     1
102
RTVSPropertyOp60
 70
     1
102
RTVSPropertyOp61
 70
     1
102
RTVSPropertyOp62
 70
     1
  0
XRECORD
  5
383
102
{ACAD_REACTORS
330
382
102
}
330
382
100
AcDbXrecord
280
     1
102
RTVSPost2010Prop28
280
     0
102
RTVSPost2010PropOp28
 70
     0
102
RTVSPost2010Prop29
280
     1
102
RTVSPost2010PropOp29
 70
     0
102
RTVSPost2010Prop30
280
     1
102
RTVSPost2010PropOp30
 70
     0
102
RTVSPost2010Prop31
280
     0
102
RTVSPost2010PropOp31
 70
     0
102
RTVSPost2010Prop32
280
     0
102
RTVSPost2010PropOp32
 70
     0
102
RTVSPost2010Prop33
280
     0
102
RTVSPost2010PropOp33
 70
     0
102
RTVSPost2010Prop34
280
     0
102
RTVSPost2010PropOp34
 70
     0
102
RTVSPost2010Prop35
280
     0
102
RTVSPost2010PropOp35
 70
     0
102
RTVSPost2010Prop36
280
     0
102
RTVSPost2010PropOp36
 70
     0
102
RTVSPost2010Prop37
 90
       50
102
RTVSPost2010PropOp37
 70
     0
102
RTVSPost2010Prop38
140
0.0
102
RTVSPost2010PropOp38
 70
     0
102
RTVSPost2010Prop39
140
1.0
102
RTVSPost2010PropOp39
 70
     0
102
RTVSPost2010Prop40
 90
        0
102
RTVSPost2010PropOp40
 70
     0
102
RTVSPost2010Prop41ColorIndex
 90
       18
102
RTVSPost2010Prop41ColorRGB
 90
        0
102
RTVSPost2010PropOp41
 70
     0
102
RTVSPost2010Prop42
 90
       50
102
RTVSPost2010PropOp42
 70
     0
102
RTVSPost2010Prop43
 90
        3
102
RTVSPost2010PropOp43
 70
     0
102
RTVSPost2010Prop44ColorIndex
 90
        5
102
RTVSPost2010Prop44ColorRGB
 90
      255
102
RTVSPost2010PropOp44
 70
     0
102
RTVSPost2010Prop45
280
     0
102
RTVSPost2010PropOp45
 70
     0
102
RTVSPost2010Prop46
 90
       50
102
RTVSPost2010PropOp46
 70
     0
102
RTVSPost2010Prop47
 90
       50
102
RTVSPost2010PropOp47
 70
     0
102
RTVSPost2010Prop48
 90
       50
102
RTVSPost2010PropOp48
 70
     0
102
RTVSPost2010Prop49
280
     0
102
RTVSPost2010PropOp49
 70
     0
102
RTVSPost2010Prop50
 90
       50
102
RTVSPost2010PropOp50
 70
     0
102
RTVSPost2010Prop51ColorIndex
 90
      256
102
RTVSPost2010Prop51ColorRGB
 90
-16777216
102
RTVSPost2010PropOp51
 70
     0
102
RTVSPost2010Prop52
140
1.0
102
RTVSPost2010PropOp52
 70
     0
102
RTVSPost2010Prop53
 90
        2
102
RTVSPost2010PropOp53
 70
     0
102
RTVSPost2010Prop54
  1
strokes_ogs.tif
102
RTVSPost2010PropOp54
 70
     0
102
RTVSPost2010Prop55
280
     0
102
RTVSPost2010PropOp55
 70
     0
102
RTVSPost2010Prop56
140
1.0
102
RTVSPost2010PropOp56
 70
     0
102
RTVSPost2010Prop57
140
1.0
102
RTVSPost2010PropOp57
 70
     0
102
RTVSPropertyOp0
 70
     0
102
RTVSPropertyOp1
 70
     0
102
RTVSPropertyOp2
 70
     0
102
RTVSPropertyOp3
 70
     0
102
RTVSPropertyOp4
 70
     0
102
RTVSPropertyOp5
 70
     0
102
RTVSPropertyOp6
 70
     0
102
RTVSPropertyOp7
 70
     0
102
RTVSPropertyOp8
 70
     0
102
RTVSPropertyOp9
 70
     0
102
RTVSPropertyOp10
 70
     0
102
RTVSPropertyOp11
 70
     0
102
RTVSPropertyOp12
 70
     0
102
RTVSPropertyOp13
 70
     0
102
RTVSPropertyOp14
 70
     2
102
RTVSPropertyOp15
 70
     0
102
RTVSPropertyOp16
 70
     0
102
RTVSPropertyOp17
 70
     0
102
RTVSPropertyOp18
 70
     0
102
RTVSPropertyOp19
 70
     0
102
RTVSPropertyOp20
 70
     0
102
RTVSPropertyOp21
 70
     0
102
RTVSPropertyOp22
 70
     0
102
RTVSPropertyOp23
 70
     0
102
RTVSPropertyOp24
 70
     0
102
RTVSPropertyOp25
 70
     0
102
RTVSPropertyOp26
 70
     0
102
RTVSPropertyOp27
 70
     0
102
RTVSPropertyOp28
 70
     0
102
RTVSPropertyOp29
 70
     0
102
RTVSPropertyOp30
 70
     0
102
RTVSPropertyOp31
 70
     0
102
RTVSPropertyOp32
 70
     0
102
RTVSPropertyOp33
 70
     0
102
RTVSPropertyOp34
 70
     0
102
RTVSPropertyOp35
 70
     0
102
RTVSPropertyOp36
 70
     0
102
RTVSPropertyOp37
 70
     0
102
RTVSPropertyOp38
 70
     0
102
RTVSPropertyOp39
 70
     0
102
RTVSPropertyOp40
 70
     0
102
RTVSPropertyOp41
 70
     0
102
RTVSPropertyOp42
 70
     0
102
RTVSPropertyOp43
 70
     0
102
RTVSPropertyOp44
 70
     0
102
RTVSPropertyOp45
 70
     0
102
RTVSPropertyOp46
 70
     0
102
RTVSPropertyOp47
 70
     0
102
RTVSPropertyOp48
 70
     0
102
RTVSPropertyOp49
 70
     0
102
RTVSPropertyOp50
 70
     0
102
RTVSPropertyOp51
 70
     0
102
RTVSPropertyOp52
 70
     0
102
RTVSPropertyOp53
 70
     0
102
RTVSPropertyOp54
 70
     0
102
RTVSPropertyOp55
 70
     0
102
RTVSPropertyOp56
 70
     0
102
RTVSPropertyOp57
 70
     0
102
RTVSPropertyOp58
 70
     1
102
RTVSPropertyOp59
 70
     1
102
RTVSPropertyOp60
 70
     1
102
RTVSPropertyOp61
 70
     1
102
RTVSPropertyOp62
 70
     1
  0
XRECORD
  5
371
102
{ACAD_REACTORS
330
370
102
}
330
370
100
AcDbXrecord
280
     1
102
RTVSPost2010Prop28
280
     0
102
RTVSPost2010PropOp28
 70
     1
102
RTVSPost2010Prop29
280
     1
102
RTVSPost2010PropOp29
 70
     1
102
RTVSPost2010Prop30
280
     1
102
RTVSPost2010PropOp30
 70
     1
102
RTVSPost2010Prop31
280
     0
102
RTVSPost2010PropOp31
 70
     1
102
RTVSPost2010Prop32
280
     0
102
RTVSPost2010PropOp32
 70
     1
102
RTVSPost2010Prop33
280
     0
102
RTVSPost2010PropOp33
 70
     1
102
RTVSPost2010Prop34
280
     0
102
RTVSPost2010PropOp34
 70
     1
102
RTVSPost2010Prop35
280
     0
102
RTVSPost2010PropOp35
 70
     1
102
RTVSPost2010Prop36
280
     0
102
RTVSPost2010PropOp36
 70
     1
102
RTVSPost2010Prop37
 90
       50
102
RTVSPost2010PropOp37
 70
     1
102
RTVSPost2010Prop38
140
0.0
102
RTVSPost2010PropOp38
 70
     1
102
RTVSPost2010Prop39
140
1.0
102
RTVSPost2010PropOp39
 70
     1
102
RTVSPost2010Prop40
 90
        0
102
RTVSPost2010PropOp40
 70
     1
102
RTVSPost2010Prop41ColorIndex
 90
       18
102
RTVSPost2010Prop41ColorRGB
 90
        0
102
RTVSPost2010PropOp41
 70
     1
102
RTVSPost2010Prop42
 90
       50
102
RTVSPost2010PropOp42
 70
     1
102
RTVSPost2010Prop43
 90
        3
102
RTVSPost2010PropOp43
 70
     1
102
RTVSPost2010Prop44ColorIndex
 90
        5
102
RTVSPost2010Prop44ColorRGB
 90
      255
102
RTVSPost2010PropOp44
 70
     1
102
RTVSPost2010Prop45
280
     0
102
RTVSPost2010PropOp45
 70
     1
102
RTVSPost2010Prop46
 90
       50
102
RTVSPost2010PropOp46
 70
     1
102
RTVSPost2010Prop47
 90
       50
102
RTVSPost2010PropOp47
 70
     1
102
RTVSPost2010Prop48
 90
       50
102
RTVSPost2010PropOp48
 70
     1
102
RTVSPost2010Prop49
280
     0
102
RTVSPost2010PropOp49
 70
     1
102
RTVSPost2010Prop50
 90
       50
102
RTVSPost2010PropOp50
 70
     1
102
RTVSPost2010Prop51ColorIndex
 90
      256
102
RTVSPost2010Prop51ColorRGB
 90
-16777216
102
RTVSPost2010PropOp51
 70
     0
102
RTVSPost2010Prop52
140
1.0
102
RTVSPost2010PropOp52
 70
     0
102
RTVSPost2010Prop53
 90
        2
102
RTVSPost2010PropOp53
 70
     1
102
RTVSPost2010Prop54
  1
strokes_ogs.tif
102
RTVSPost2010PropOp54
 70
     1
102
RTVSPost2010Prop55
280
     0
102
RTVSPost2010PropOp55
 70
     1
102
RTVSPost2010Prop56
140
1.0
102
RTVSPost2010PropOp56
 70
     1
102
RTVSPost2010Prop57
140
1.0
102
RTVSPost2010PropOp57
 70
     1
102
RTVSPropertyOp0
 70
     1
102
RTVSPropertyOp1
 70
     1
102
RTVSPropertyOp2
 70
     1
102
RTVSPropertyOp3
 70
     1
102
RTVSPropertyOp4
 70
     1
102
RTVSPropertyOp5
 70
     1
102
RTVSPropertyOp6
 70
     1
102
RTVSPropertyOp7
 70
     1
102
RTVSPropertyOp8
 70
     1
102
RTVSPropertyOp9
 70
     1
102
RTVSPropertyOp10
 70
     1
102
RTVSPropertyOp11
 70
     1
102
RTVSPropertyOp12
 70
     1
102
RTVSPropertyOp13
 70
     1
102
RTVSPropertyOp14
 70
     1
102
RTVSPropertyOp15
 70
     1
102
RTVSPropertyOp16
 70
     1
102
RTVSPropertyOp17
 70
     1
102
RTVSPropertyOp18
 70
     1
102
RTVSPropertyOp19
 70
     1
102
RTVSPropertyOp20
 70
     1
102
RTVSPropertyOp21
 70
     1
102
RTVSPropertyOp22
 70
     1
102
RTVSPropertyOp23
 70
     1
102
RTVSPropertyOp24
 70
     1
102
RTVSPropertyOp25
 70
     1
102
RTVSPropertyOp26
 70
     1
102
RTVSPropertyOp27
 70
     1
102
RTVSPropertyOp28
 70
     1
102
RTVSPropertyOp29
 70
     1
102
RTVSPropertyOp30
 70
     1
102
RTVSPropertyOp31
 70
     1
102
RTVSPropertyOp32
 70
     1
102
RTVSPropertyOp33
 70
     1
102
RTVSPropertyOp34
 70
     1
102
RTVSPropertyOp35
 70
     1
102
RTVSPropertyOp36
 70
     1
102
RTVSPropertyOp37
 70
     1
102
RTVSPropertyOp38
 70
     1
102
RTVSPropertyOp39
 70
     1
102
RTVSPropertyOp40
 70
     1
102
RTVSPropertyOp41
 70
     1
102
RTVSPropertyOp42
 70
     1
102
RTVSPropertyOp43
 70
     1
102
RTVSPropertyOp44
 70
     1
102
RTVSPropertyOp45
 70
     1
102
RTVSPropertyOp46
 70
     1
102
RTVSPropertyOp47
 70
     1
102
RTVSPropertyOp48
 70
     1
102
RTVSPropertyOp49
 70
     1
102
RTVSPropertyOp50
 70
     1
102
RTVSPropertyOp51
 70
     0
102
RTVSPropertyOp52
 70
     0
102
RTVSPropertyOp53
 70
     1
102
RTVSPropertyOp54
 70
     1
102
RTVSPropertyOp55
 70
     1
102
RTVSPropertyOp56
 70
     1
102
RTVSPropertyOp57
 70
     1
102
RTVSPropertyOp58
 70
     1
102
RTVSPropertyOp59
 70
     1
102
RTVSPropertyOp60
 70
     1
102
RTVSPropertyOp61
 70
     1
102
RTVSPropertyOp62
 70
     1
  0
XRECORD
  5
38F
102
{ACAD_REACTORS
330
38E
102
}
330
38E
100
AcDbXrecord
280
     1
102
RTVSPost2010Prop28
280
     0
102
RTVSPost2010PropOp28
 70
     1
102
RTVSPost2010Prop29
280
     1
102
RTVSPost2010PropOp29
 70
     1
102
RTVSPost2010Prop30
280
     1
102
RTVSPost2010PropOp30
 70
     1
102
RTVSPost2010Prop31
280
     0
102
RTVSPost2010PropOp31
 70
     1
102
RTVSPost2010Prop32
280
     0
102
RTVSPost2010PropOp32
 70
     1
102
RTVSPost2010Prop33
280
     0
102
RTVSPost2010PropOp33
 70
     1
102
RTVSPost2010Prop34
280
     0
102
RTVSPost2010PropOp34
 70
     1
102
RTVSPost2010Prop35
280
     0
102
RTVSPost2010PropOp35
 70
     1
102
RTVSPost2010Prop36
280
     0
102
RTVSPost2010PropOp36
 70
     1
102
RTVSPost2010Prop37
 90
       50
102
RTVSPost2010PropOp37
 70
     1
102
RTVSPost2010Prop38
140
0.0
102
RTVSPost2010PropOp38
 70
     1
102
RTVSPost2010Prop39
140
1.0
102
RTVSPost2010PropOp39
 70
     1
102
RTVSPost2010Prop40
 90
        0
102
RTVSPost2010PropOp40
 70
     1
102
RTVSPost2010Prop41ColorIndex
 90
       18
102
RTVSPost2010Prop41ColorRGB
 90
        0
102
RTVSPost2010PropOp41
 70
     1
102
RTVSPost2010Prop42
 90
       50
102
RTVSPost2010PropOp42
 70
     1
102
RTVSPost2010Prop43
 90
        3
102
RTVSPost2010PropOp43
 70
     1
102
RTVSPost2010Prop44ColorIndex
 90
        5
102
RTVSPost2010Prop44ColorRGB
 90
      255
102
RTVSPost2010PropOp44
 70
     1
102
RTVSPost2010Prop45
280
     0
102
RTVSPost2010PropOp45
 70
     1
102
RTVSPost2010Prop46
 90
       50
102
RTVSPost2010PropOp46
 70
     1
102
RTVSPost2010Prop47
 90
       50
102
RTVSPost2010PropOp47
 70
     1
102
RTVSPost2010Prop48
 90
       50
102
RTVSPost2010PropOp48
 70
     1
102
RTVSPost2010Prop49
280
     0
102
RTVSPost2010PropOp49
 70
     1
102
RTVSPost2010Prop50
 90
       50
102
RTVSPost2010PropOp50
 70
     1
102
RTVSPost2010Prop51ColorIndex
 90
      256
102
RTVSPost2010Prop51ColorRGB
 90
-16777216
102
RTVSPost2010PropOp51
 70
     0
102
RTVSPost2010Prop52
140
1.0
102
RTVSPost2010PropOp52
 70
     0
102
RTVSPost2010Prop53
 90
        2
102
RTVSPost2010PropOp53
 70
     1
102
RTVSPost2010Prop54
  1
strokes_ogs.tif
102
RTVSPost2010PropOp54
 70
     1
102
RTVSPost2010Prop55
280
     0
102
RTVSPost2010PropOp55
 70
     1
102
RTVSPost2010Prop56
140
1.0
102
RTVSPost2010PropOp56
 70
     1
102
RTVSPost2010Prop57
140
1.0
102
RTVSPost2010PropOp57
 70
     1
102
RTVSPropertyOp0
 70
     1
102
RTVSPropertyOp1
 70
     1
102
RTVSPropertyOp2
 70
     1
102
RTVSPropertyOp3
 70
     1
102
RTVSPropertyOp4
 70
     1
102
RTVSPropertyOp5
 70
     1
102
RTVSPropertyOp6
 70
     1
102
RTVSPropertyOp7
 70
     1
102
RTVSPropertyOp8
 70
     1
102
RTVSPropertyOp9
 70
     1
102
RTVSPropertyOp10
 70
     1
102
RTVSPropertyOp11
 70
     1
102
RTVSPropertyOp12
 70
     1
102
RTVSPropertyOp13
 70
     1
102
RTVSPropertyOp14
 70
     1
102
RTVSPropertyOp15
 70
     1
102
RTVSPropertyOp16
 70
     1
102
RTVSPropertyOp17
 70
     1
102
RTVSPropertyOp18
 70
     1
102
RTVSPropertyOp19
 70
     1
102
RTVSPropertyOp20
 70
     1
102
RTVSPropertyOp21
 70
     1
102
RTVSPropertyOp22
 70
     1
102
RTVSPropertyOp23
 70
     1
102
RTVSPropertyOp24
 70
     1
102
RTVSPropertyOp25
 70
     1
102
RTVSPropertyOp26
 70
     1
102
RTVSPropertyOp27
 70
     1
102
RTVSPropertyOp28
 70
     1
102
RTVSPropertyOp29
 70
     1
102
RTVSPropertyOp30
 70
     1
102
RTVSPropertyOp31
 70
     1
102
RTVSPropertyOp32
 70
     1
102
RTVSPropertyOp33
 70
     1
102
RTVSPropertyOp34
 70
     1
102
RTVSPropertyOp35
 70
     1
102
RTVSPropertyOp36
 70
     1
102
RTVSPropertyOp37
 70
     1
102
RTVSPropertyOp38
 70
     1
102
RTVSPropertyOp39
 70
     1
102
RTVSPropertyOp40
 70
     1
102
RTVSPropertyOp41
 70
     1
102
RTVSPropertyOp42
 70
     1
102
RTVSPropertyOp43
 70
     1
102
RTVSPropertyOp44
 70
     1
102
RTVSPropertyOp45
 70
     1
102
RTVSPropertyOp46
 70
     1
102
RTVSPropertyOp47
 70
     1
102
RTVSPropertyOp48
 70
     1
102
RTVSPropertyOp49
 70
     1
102
RTVSPropertyOp50
 70
     1
102
RTVSPropertyOp51
 70
     0
102
RTVSPropertyOp52
 70
     0
102
RTVSPropertyOp53
 70
     1
102
RTVSPropertyOp54
 70
     1
102
RTVSPropertyOp55
 70
     1
102
RTVSPropertyOp56
 70
     1
102
RTVSPropertyOp57
 70
     1
102
RTVSPropertyOp58
 70
     1
102
RTVSPropertyOp59
 70
     1
102
RTVSPropertyOp60
 70
     1
102
RTVSPropertyOp61
 70
     1
102
RTVSPropertyOp62
 70
     1
  0
XRECORD
  5
38D
102
{ACAD_REACTORS
330
38C
102
}
330
38C
100
AcDbXrecord
280
     1
102
RTVSPost2010Prop28
280
     0
102
RTVSPost2010PropOp28
 70
     1
102
RTVSPost2010Prop29
280
     1
102
RTVSPost2010PropOp29
 70
     1
102
RTVSPost2010Prop30
280
     1
102
RTVSPost2010PropOp30
 70
     1
102
RTVSPost2010Prop31
280
     0
102
RTVSPost2010PropOp31
 70
     1
102
RTVSPost2010Prop32
280
     0
102
RTVSPost2010PropOp32
 70
     1
102
RTVSPost2010Prop33
280
     0
102
RTVSPost2010PropOp33
 70
     1
102
RTVSPost2010Prop34
280
     0
102
RTVSPost2010PropOp34
 70
     1
102
RTVSPost2010Prop35
280
     0
102
RTVSPost2010PropOp35
 70
     1
102
RTVSPost2010Prop36
280
     0
102
RTVSPost2010PropOp36
 70
     1
102
RTVSPost2010Prop37
 90
       50
102
RTVSPost2010PropOp37
 70
     1
102
RTVSPost2010Prop38
140
0.0
102
RTVSPost2010PropOp38
 70
     1
102
RTVSPost2010Prop39
140
1.0
102
RTVSPost2010PropOp39
 70
     1
102
RTVSPost2010Prop40
 90
        0
102
RTVSPost2010PropOp40
 70
     1
102
RTVSPost2010Prop41ColorIndex
 90
       18
102
RTVSPost2010Prop41ColorRGB
 90
        0
102
RTVSPost2010PropOp41
 70
     1
102
RTVSPost2010Prop42
 90
       50
102
RTVSPost2010PropOp42
 70
     1
102
RTVSPost2010Prop43
 90
        3
102
RTVSPost2010PropOp43
 70
     1
102
RTVSPost2010Prop44ColorIndex
 90
        5
102
RTVSPost2010Prop44ColorRGB
 90
      255
102
RTVSPost2010PropOp44
 70
     1
102
RTVSPost2010Prop45
280
     0
102
RTVSPost2010PropOp45
 70
     1
102
RTVSPost2010Prop46
 90
       50
102
RTVSPost2010PropOp46
 70
     1
102
RTVSPost2010Prop47
 90
       50
102
RTVSPost2010PropOp47
 70
     1
102
RTVSPost2010Prop48
 90
       50
102
RTVSPost2010PropOp48
 70
     1
102
RTVSPost2010Prop49
280
     0
102
RTVSPost2010PropOp49
 70
     1
102
RTVSPost2010Prop50
 90
       50
102
RTVSPost2010PropOp50
 70
     1
102
RTVSPost2010Prop51ColorIndex
 90
      256
102
RTVSPost2010Prop51ColorRGB
 90
-16777216
102
RTVSPost2010PropOp51
 70
     0
102
RTVSPost2010Prop52
140
1.0
102
RTVSPost2010PropOp52
 70
     0
102
RTVSPost2010Prop53
 90
        2
102
RTVSPost2010PropOp53
 70
     1
102
RTVSPost2010Prop54
  1
strokes_ogs.tif
102
RTVSPost2010PropOp54
 70
     1
102
RTVSPost2010Prop55
280
     0
102
RTVSPost2010PropOp55
 70
     1
102
RTVSPost2010Prop56
140
1.0
102
RTVSPost2010PropOp56
 70
     1
102
RTVSPost2010Prop57
140
1.0
102
RTVSPost2010PropOp57
 70
     1
102
RTVSPropertyOp0
 70
     1
102
RTVSPropertyOp1
 70
     1
102
RTVSPropertyOp2
 70
     1
102
RTVSPropertyOp3
 70
     1
102
RTVSPropertyOp4
 70
     1
102
RTVSPropertyOp5
 70
     1
102
RTVSPropertyOp6
 70
     1
102
RTVSPropertyOp7
 70
     1
102
RTVSPropertyOp8
 70
     1
102
RTVSPropertyOp9
 70
     1
102
RTVSPropertyOp10
 70
     1
102
RTVSPropertyOp11
 70
     1
102
RTVSPropertyOp12
 70
     1
102
RTVSPropertyOp13
 70
     1
102
RTVSPropertyOp14
 70
     1
102
RTVSPropertyOp15
 70
     1
102
RTVSPropertyOp16
 70
     1
102
RTVSPropertyOp17
 70
     1
102
RTVSPropertyOp18
 70
     1
102
RTVSPropertyOp19
 70
     1
102
RTVSPropertyOp20
 70
     1
102
RTVSPropertyOp21
 70
     1
102
RTVSPropertyOp22
 70
     1
102
RTVSPropertyOp23
 70
     1
102
RTVSPropertyOp24
 70
     1
102
RTVSPropertyOp25
 70
     1
102
RTVSPropertyOp26
 70
     1
102
RTVSPropertyOp27
 70
     1
102
RTVSPropertyOp28
 70
     1
102
RTVSPropertyOp29
 70
     1
102
RTVSPropertyOp30
 70
     1
102
RTVSPropertyOp31
 70
     1
102
RTVSPropertyOp32
 70
     1
102
RTVSPropertyOp33
 70
     1
102
RTVSPropertyOp34
 70
     1
102
RTVSPropertyOp35
 70
     1
102
RTVSPropertyOp36
 70
     1
102
RTVSPropertyOp37
 70
     1
102
RTVSPropertyOp38
 70
     1
102
RTVSPropertyOp39
 70
     1
102
RTVSPropertyOp40
 70
     1
102
RTVSPropertyOp41
 70
     1
102
RTVSPropertyOp42
 70
     1
102
RTVSPropertyOp43
 70
     1
102
RTVSPropertyOp44
 70
     1
102
RTVSPropertyOp45
 70
     1
102
RTVSPropertyOp46
 70
     1
102
RTVSPropertyOp47
 70
     1
102
RTVSPropertyOp48
 70
     1
102
RTVSPropertyOp49
 70
     1
102
RTVSPropertyOp50
 70
     1
102
RTVSPropertyOp51
 70
     0
102
RTVSPropertyOp52
 70
     0
102
RTVSPropertyOp53
 70
     1
102
RTVSPropertyOp54
 70
     1
102
RTVSPropertyOp55
 70
     1
102
RTVSPropertyOp56
 70
     1
102
RTVSPropertyOp57
 70
     1
102
RTVSPropertyOp58
 70
     1
102
RTVSPropertyOp59
 70
     1
102
RTVSPropertyOp60
 70
     1
102
RTVSPropertyOp61
 70
     1
102
RTVSPropertyOp62
 70
     1
  0
XRECORD
  5
387
102
{ACAD_REACTORS
330
386
102
}
330
386
100
AcDbXrecord
280
     1
102
RTVSPost2010Prop28
280
     0
102
RTVSPost2010PropOp28
 70
     1
102
RTVSPost2010Prop29
280
     1
102
RTVSPost2010PropOp29
 70
     1
102
RTVSPost2010Prop30
280
     1
102
RTVSPost2010PropOp30
 70
     1
102
RTVSPost2010Prop31
280
     0
102
RTVSPost2010PropOp31
 70
     1
102
RTVSPost2010Prop32
280
     0
102
RTVSPost2010PropOp32
 70
     1
102
RTVSPost2010Prop33
280
     0
102
RTVSPost2010PropOp33
 70
     1
102
RTVSPost2010Prop34
280
     0
102
RTVSPost2010PropOp34
 70
     1
102
RTVSPost2010Prop35
280
     0
102
RTVSPost2010PropOp35
 70
     1
102
RTVSPost2010Prop36
280
     0
102
RTVSPost2010PropOp36
 70
     1
102
RTVSPost2010Prop37
 90
       50
102
RTVSPost2010PropOp37
 70
     1
102
RTVSPost2010Prop38
140
0.0
102
RTVSPost2010PropOp38
 70
     1
102
RTVSPost2010Prop39
140
1.0
102
RTVSPost2010PropOp39
 70
     1
102
RTVSPost2010Prop40
 90
        0
102
RTVSPost2010PropOp40
 70
     1
102
RTVSPost2010Prop41ColorIndex
 90
       18
102
RTVSPost2010Prop41ColorRGB
 90
        0
102
RTVSPost2010PropOp41
 70
     1
102
RTVSPost2010Prop42
 90
       50
102
RTVSPost2010PropOp42
 70
     1
102
RTVSPost2010Prop43
 90
        3
102
RTVSPost2010PropOp43
 70
     1
102
RTVSPost2010Prop44ColorIndex
 90
        5
102
RTVSPost2010Prop44ColorRGB
 90
      255
102
RTVSPost2010PropOp44
 70
     1
102
RTVSPost2010Prop45
280
     0
102
RTVSPost2010PropOp45
 70
     1
102
RTVSPost2010Prop46
 90
       50
102
RTVSPost2010PropOp46
 70
     1
102
RTVSPost2010Prop47
 90
       50
102
RTVSPost2010PropOp47
 70
     1
102
RTVSPost2010Prop48
 90
       50
102
RTVSPost2010PropOp48
 70
     1
102
RTVSPost2010Prop49
280
     0
102
RTVSPost2010PropOp49
 70
     1
102
RTVSPost2010Prop50
 90
       50
102
RTVSPost2010PropOp50
 70
     1
102
RTVSPost2010Prop51ColorIndex
 90
      256
102
RTVSPost2010Prop51ColorRGB
 90
-16777216
102
RTVSPost2010PropOp51
 70
     0
102
RTVSPost2010Prop52
140
1.0
102
RTVSPost2010PropOp52
 70
     0
102
RTVSPost2010Prop53
 90
        2
102
RTVSPost2010PropOp53
 70
     1
102
RTVSPost2010Prop54
  1
strokes_ogs.tif
102
RTVSPost2010PropOp54
 70
     1
102
RTVSPost2010Prop55
280
     0
102
RTVSPost2010PropOp55
 70
     1
102
RTVSPost2010Prop56
140
1.0
102
RTVSPost2010PropOp56
 70
     1
102
RTVSPost2010Prop57
140
1.0
102
RTVSPost2010PropOp57
 70
     1
102
RTVSPropertyOp0
 70
     1
102
RTVSPropertyOp1
 70
     1
102
RTVSPropertyOp2
 70
     1
102
RTVSPropertyOp3
 70
     1
102
RTVSPropertyOp4
 70
     1
102
RTVSPropertyOp5
 70
     1
102
RTVSPropertyOp6
 70
     1
102
RTVSPropertyOp7
 70
     1
102
RTVSPropertyOp8
 70
     1
102
RTVSPropertyOp9
 70
     1
102
RTVSPropertyOp10
 70
     1
102
RTVSPropertyOp11
 70
     1
102
RTVSPropertyOp12
 70
     1
102
RTVSPropertyOp13
 70
     1
102
RTVSPropertyOp14
 70
     1
102
RTVSPropertyOp15
 70
     1
102
RTVSPropertyOp16
 70
     1
102
RTVSPropertyOp17
 70
     1
102
RTVSPropertyOp18
 70
     1
102
RTVSPropertyOp19
 70
     1
102
RTVSPropertyOp20
 70
     1
102
RTVSPropertyOp21
 70
     1
102
RTVSPropertyOp22
 70
     1
102
RTVSPropertyOp23
 70
     1
102
RTVSPropertyOp24
 70
     1
102
RTVSPropertyOp25
 70
     1
102
RTVSPropertyOp26
 70
     1
102
RTVSPropertyOp27
 70
     1
102
RTVSPropertyOp28
 70
     1
102
RTVSPropertyOp29
 70
     1
102
RTVSPropertyOp30
 70
     1
102
RTVSPropertyOp31
 70
     1
102
RTVSPropertyOp32
 70
     1
102
RTVSPropertyOp33
 70
     1
102
RTVSPropertyOp34
 70
     1
102
RTVSPropertyOp35
 70
     1
102
RTVSPropertyOp36
 70
     1
102
RTVSPropertyOp37
 70
     1
102
RTVSPropertyOp38
 70
     1
102
RTVSPropertyOp39
 70
     1
102
RTVSPropertyOp40
 70
     1
102
RTVSPropertyOp41
 70
     1
102
RTVSPropertyOp42
 70
     1
102
RTVSPropertyOp43
 70
     1
102
RTVSPropertyOp44
 70
     1
102
RTVSPropertyOp45
 70
     1
102
RTVSPropertyOp46
 70
     1
102
RTVSPropertyOp47
 70
     1
102
RTVSPropertyOp48
 70
     1
102
RTVSPropertyOp49
 70
     1
102
RTVSPropertyOp50
 70
     1
102
RTVSPropertyOp51
 70
     0
102
RTVSPropertyOp52
 70
     0
102
RTVSPropertyOp53
 70
     1
102
RTVSPropertyOp54
 70
     1
102
RTVSPropertyOp55
 70
     1
102
RTVSPropertyOp56
 70
     1
102
RTVSPropertyOp57
 70
     1
102
RTVSPropertyOp58
 70
     1
102
RTVSPropertyOp59
 70
     1
102
RTVSPropertyOp60
 70
     1
102
RTVSPropertyOp61
 70
     1
102
RTVSPropertyOp62
 70
     1
  0
XRECORD
  5
389
102
{ACAD_REACTORS
330
388
102
}
330
388
100
AcDbXrecord
280
     1
102
RTVSPost2010Prop28
280
     0
102
RTVSPost2010PropOp28
 70
     1
102
RTVSPost2010Prop29
280
     1
102
RTVSPost2010PropOp29
 70
     1
102
RTVSPost2010Prop30
280
     1
102
RTVSPost2010PropOp30
 70
     1
102
RTVSPost2010Prop31
280
     0
102
RTVSPost2010PropOp31
 70
     1
102
RTVSPost2010Prop32
280
     0
102
RTVSPost2010PropOp32
 70
     1
102
RTVSPost2010Prop33
280
     0
102
RTVSPost2010PropOp33
 70
     1
102
RTVSPost2010Prop34
280
     0
102
RTVSPost2010PropOp34
 70
     1
102
RTVSPost2010Prop35
280
     0
102
RTVSPost2010PropOp35
 70
     1
102
RTVSPost2010Prop36
280
     0
102
RTVSPost2010PropOp36
 70
     1
102
RTVSPost2010Prop37
 90
       50
102
RTVSPost2010PropOp37
 70
     1
102
RTVSPost2010Prop38
140
0.0
102
RTVSPost2010PropOp38
 70
     1
102
RTVSPost2010Prop39
140
1.0
102
RTVSPost2010PropOp39
 70
     1
102
RTVSPost2010Prop40
 90
        0
102
RTVSPost2010PropOp40
 70
     1
102
RTVSPost2010Prop41ColorIndex
 90
       18
102
RTVSPost2010Prop41ColorRGB
 90
        0
102
RTVSPost2010PropOp41
 70
     1
102
RTVSPost2010Prop42
 90
       50
102
RTVSPost2010PropOp42
 70
     1
102
RTVSPost2010Prop43
 90
        3
102
RTVSPost2010PropOp43
 70
     1
102
RTVSPost2010Prop44ColorIndex
 90
        5
102
RTVSPost2010Prop44ColorRGB
 90
      255
102
RTVSPost2010PropOp44
 70
     1
102
RTVSPost2010Prop45
280
     0
102
RTVSPost2010PropOp45
 70
     1
102
RTVSPost2010Prop46
 90
       50
102
RTVSPost2010PropOp46
 70
     1
102
RTVSPost2010Prop47
 90
       50
102
RTVSPost2010PropOp47
 70
     1
102
RTVSPost2010Prop48
 90
       50
102
RTVSPost2010PropOp48
 70
     1
102
RTVSPost2010Prop49
280
     0
102
RTVSPost2010PropOp49
 70
     1
102
RTVSPost2010Prop50
 90
       50
102
RTVSPost2010PropOp50
 70
     1
102
RTVSPost2010Prop51ColorIndex
 90
      256
102
RTVSPost2010Prop51ColorRGB
 90
-16777216
102
RTVSPost2010PropOp51
 70
     0
102
RTVSPost2010Prop52
140
1.0
102
RTVSPost2010PropOp52
 70
     0
102
RTVSPost2010Prop53
 90
        2
102
RTVSPost2010PropOp53
 70
     1
102
RTVSPost2010Prop54
  1
strokes_ogs.tif
102
RTVSPost2010PropOp54
 70
     1
102
RTVSPost2010Prop55
280
     0
102
RTVSPost2010PropOp55
 70
     1
102
RTVSPost2010Prop56
140
1.0
102
RTVSPost2010PropOp56
 70
     1
102
RTVSPost2010Prop57
140
1.0
102
RTVSPost2010PropOp57
 70
     1
102
RTVSPropertyOp0
 70
     1
102
RTVSPropertyOp1
 70
     1
102
RTVSPropertyOp2
 70
     1
102
RTVSPropertyOp3
 70
     1
102
RTVSPropertyOp4
 70
     1
102
RTVSPropertyOp5
 70
     1
102
RTVSPropertyOp6
 70
     1
102
RTVSPropertyOp7
 70
     1
102
RTVSPropertyOp8
 70
     1
102
RTVSPropertyOp9
 70
     1
102
RTVSPropertyOp10
 70
     1
102
RTVSPropertyOp11
 70
     1
102
RTVSPropertyOp12
 70
     1
102
RTVSPropertyOp13
 70
     1
102
RTVSPropertyOp14
 70
     1
102
RTVSPropertyOp15
 70
     1
102
RTVSPropertyOp16
 70
     1
102
RTVSPropertyOp17
 70
     1
102
RTVSPropertyOp18
 70
     1
102
RTVSPropertyOp19
 70
     1
102
RTVSPropertyOp20
 70
     1
102
RTVSPropertyOp21
 70
     1
102
RTVSPropertyOp22
 70
     1
102
RTVSPropertyOp23
 70
     1
102
RTVSPropertyOp24
 70
     1
102
RTVSPropertyOp25
 70
     1
102
RTVSPropertyOp26
 70
     1
102
RTVSPropertyOp27
 70
     1
102
RTVSPropertyOp28
 70
     1
102
RTVSPropertyOp29
 70
     1
102
RTVSPropertyOp30
 70
     1
102
RTVSPropertyOp31
 70
     1
102
RTVSPropertyOp32
 70
     1
102
RTVSPropertyOp33
 70
     1
102
RTVSPropertyOp34
 70
     1
102
RTVSPropertyOp35
 70
     1
102
RTVSPropertyOp36
 70
     1
102
RTVSPropertyOp37
 70
     1
102
RTVSPropertyOp38
 70
     1
102
RTVSPropertyOp39
 70
     1
102
RTVSPropertyOp40
 70
     1
102
RTVSPropertyOp41
 70
     1
102
RTVSPropertyOp42
 70
     1
102
RTVSPropertyOp43
 70
     1
102
RTVSPropertyOp44
 70
     1
102
RTVSPropertyOp45
 70
     1
102
RTVSPropertyOp46
 70
     1
102
RTVSPropertyOp47
 70
     1
102
RTVSPropertyOp48
 70
     1
102
RTVSPropertyOp49
 70
     1
102
RTVSPropertyOp50
 70
     1
102
RTVSPropertyOp51
 70
     0
102
RTVSPropertyOp52
 70
     0
102
RTVSPropertyOp53
 70
     1
102
RTVSPropertyOp54
 70
     1
102
RTVSPropertyOp55
 70
     1
102
RTVSPropertyOp56
 70
     1
102
RTVSPropertyOp57
 70
     1
102
RTVSPropertyOp58
 70
     1
102
RTVSPropertyOp59
 70
     1
102
RTVSPropertyOp60
 70
     1
102
RTVSPropertyOp61
 70
     1
102
RTVSPropertyOp62
 70
     1
  0
XRECORD
  5
379
102
{ACAD_REACTORS
330
378
102
}
330
378
100
AcDbXrecord
280
     1
102
RTVSPost2010Prop28
280
     0
102
RTVSPost2010PropOp28
 70
     1
102
RTVSPost2010Prop29
280
     1
102
RTVSPost2010PropOp29
 70
     1
102
RTVSPost2010Prop30
280
     1
102
RTVSPost2010PropOp30
 70
     1
102
RTVSPost2010Prop31
280
     0
102
RTVSPost2010PropOp31
 70
     1
102
RTVSPost2010Prop32
280
     0
102
RTVSPost2010PropOp32
 70
     1
102
RTVSPost2010Prop33
280
     0
102
RTVSPost2010PropOp33
 70
     1
102
RTVSPost2010Prop34
280
     0
102
RTVSPost2010PropOp34
 70
     1
102
RTVSPost2010Prop35
280
     0
102
RTVSPost2010PropOp35
 70
     1
102
RTVSPost2010Prop36
280
     0
102
RTVSPost2010PropOp36
 70
     1
102
RTVSPost2010Prop37
 90
       50
102
RTVSPost2010PropOp37
 70
     1
102
RTVSPost2010Prop38
140
0.0
102
RTVSPost2010PropOp38
 70
     1
102
RTVSPost2010Prop39
140
1.0
102
RTVSPost2010PropOp39
 70
     1
102
RTVSPost2010Prop40
 90
        0
102
RTVSPost2010PropOp40
 70
     1
102
RTVSPost2010Prop41ColorIndex
 90
       18
102
RTVSPost2010Prop41ColorRGB
 90
        0
102
RTVSPost2010PropOp41
 70
     1
102
RTVSPost2010Prop42
 90
       50
102
RTVSPost2010PropOp42
 70
     1
102
RTVSPost2010Prop43
 90
        3
102
RTVSPost2010PropOp43
 70
     1
102
RTVSPost2010Prop44ColorIndex
 90
        5
102
RTVSPost2010Prop44ColorRGB
 90
      255
102
RTVSPost2010PropOp44
 70
     1
102
RTVSPost2010Prop45
280
     0
102
RTVSPost2010PropOp45
 70
     1
102
RTVSPost2010Prop46
 90
       50
102
RTVSPost2010PropOp46
 70
     1
102
RTVSPost2010Prop47
 90
       50
102
RTVSPost2010PropOp47
 70
     1
102
RTVSPost2010Prop48
 90
       50
102
RTVSPost2010PropOp48
 70
     1
102
RTVSPost2010Prop49
280
     0
102
RTVSPost2010PropOp49
 70
     1
102
RTVSPost2010Prop50
 90
       50
102
RTVSPost2010PropOp50
 70
     1
102
RTVSPost2010Prop51ColorIndex
 90
      256
102
RTVSPost2010Prop51ColorRGB
 90
-16777216
102
RTVSPost2010PropOp51
 70
     0
102
RTVSPost2010Prop52
140
1.0
102
RTVSPost2010PropOp52
 70
     0
102
RTVSPost2010Prop53
 90
        2
102
RTVSPost2010PropOp53
 70
     1
102
RTVSPost2010Prop54
  1
strokes_ogs.tif
102
RTVSPost2010PropOp54
 70
     1
102
RTVSPost2010Prop55
280
     0
102
RTVSPost2010PropOp55
 70
     1
102
RTVSPost2010Prop56
140
1.0
102
RTVSPost2010PropOp56
 70
     1
102
RTVSPost2010Prop57
140
1.0
102
RTVSPost2010PropOp57
 70
     1
102
RTVSPropertyOp0
 70
     1
102
RTVSPropertyOp1
 70
     1
102
RTVSPropertyOp2
 70
     1
102
RTVSPropertyOp3
 70
     1
102
RTVSPropertyOp4
 70
     1
102
RTVSPropertyOp5
 70
     1
102
RTVSPropertyOp6
 70
     1
102
RTVSPropertyOp7
 70
     1
102
RTVSPropertyOp8
 70
     1
102
RTVSPropertyOp9
 70
     1
102
RTVSPropertyOp10
 70
     1
102
RTVSPropertyOp11
 70
     1
102
RTVSPropertyOp12
 70
     1
102
RTVSPropertyOp13
 70
     1
102
RTVSPropertyOp14
 70
     1
102
RTVSPropertyOp15
 70
     1
102
RTVSPropertyOp16
 70
     1
102
RTVSPropertyOp17
 70
     1
102
RTVSPropertyOp18
 70
     1
102
RTVSPropertyOp19
 70
     1
102
RTVSPropertyOp20
 70
     1
102
RTVSPropertyOp21
 70
     1
102
RTVSPropertyOp22
 70
     1
102
RTVSPropertyOp23
 70
     1
102
RTVSPropertyOp24
 70
     1
102
RTVSPropertyOp25
 70
     1
102
RTVSPropertyOp26
 70
     1
102
RTVSPropertyOp27
 70
     1
102
RTVSPropertyOp28
 70
     1
102
RTVSPropertyOp29
 70
     1
102
RTVSPropertyOp30
 70
     1
102
RTVSPropertyOp31
 70
     1
102
RTVSPropertyOp32
 70
     1
102
RTVSPropertyOp33
 70
     1
102
RTVSPropertyOp34
 70
     1
102
RTVSPropertyOp35
 70
     1
102
RTVSPropertyOp36
 70
     1
102
RTVSPropertyOp37
 70
     1
102
RTVSPropertyOp38
 70
     1
102
RTVSPropertyOp39
 70
     1
102
RTVSPropertyOp40
 70
     1
102
RTVSPropertyOp41
 70
     1
102
RTVSPropertyOp42
 70
     1
102
RTVSPropertyOp43
 70
     1
102
RTVSPropertyOp44
 70
     1
102
RTVSPropertyOp45
 70
     1
102
RTVSPropertyOp46
 70
     1
102
RTVSPropertyOp47
 70
     1
102
RTVSPropertyOp48
 70
     1
102
RTVSPropertyOp49
 70
     1
102
RTVSPropertyOp50
 70
     1
102
RTVSPropertyOp51
 70
     0
102
RTVSPropertyOp52
 70
     0
102
RTVSPropertyOp53
 70
     1
102
RTVSPropertyOp54
 70
     1
102
RTVSPropertyOp55
 70
     1
102
RTVSPropertyOp56
 70
     1
102
RTVSPropertyOp57
 70
     1
102
RTVSPropertyOp58
 70
     1
102
RTVSPropertyOp59
 70
     1
102
RTVSPropertyOp60
 70
     1
102
RTVSPropertyOp61
 70
     1
102
RTVSPropertyOp62
 70
     1
  0
XRECORD
  5
36B
102
{ACAD_REACTORS
330
36A
102
}
330
36A
100
AcDbXrecord
280
     1
102
RTVSPost2010Prop28
280
     0
102
RTVSPost2010PropOp28
 70
     1
102
RTVSPost2010Prop29
280
     1
102
RTVSPost2010PropOp29
 70
     1
102
RTVSPost2010Prop30
280
     1
102
RTVSPost2010PropOp30
 70
     1
102
RTVSPost2010Prop31
280
     0
102
RTVSPost2010PropOp31
 70
     1
102
RTVSPost2010Prop32
280
     0
102
RTVSPost2010PropOp32
 70
     1
102
RTVSPost2010Prop33
280
     0
102
RTVSPost2010PropOp33
 70
     1
102
RTVSPost2010Prop34
280
     0
102
RTVSPost2010PropOp34
 70
     1
102
RTVSPost2010Prop35
280
     0
102
RTVSPost2010PropOp35
 70
     1
102
RTVSPost2010Prop36
280
     0
102
RTVSPost2010PropOp36
 70
     1
102
RTVSPost2010Prop37
 90
       50
102
RTVSPost2010PropOp37
 70
     1
102
RTVSPost2010Prop38
140
0.0
102
RTVSPost2010PropOp38
 70
     1
102
RTVSPost2010Prop39
140
1.0
102
RTVSPost2010PropOp39
 70
     1
102
RTVSPost2010Prop40
 90
        0
102
RTVSPost2010PropOp40
 70
     1
102
RTVSPost2010Prop41ColorIndex
 90
       18
102
RTVSPost2010Prop41ColorRGB
 90
        0
102
RTVSPost2010PropOp41
 70
     1
102
RTVSPost2010Prop42
 90
       50
102
RTVSPost2010PropOp42
 70
     1
102
RTVSPost2010Prop43
 90
        3
102
RTVSPost2010PropOp43
 70
     1
102
RTVSPost2010Prop44ColorIndex
 90
        5
102
RTVSPost2010Prop44ColorRGB
 90
      255
102
RTVSPost2010PropOp44
 70
     1
102
RTVSPost2010Prop45
280
     0
102
RTVSPost2010PropOp45
 70
     1
102
RTVSPost2010Prop46
 90
       50
102
RTVSPost2010PropOp46
 70
     1
102
RTVSPost2010Prop47
 90
       50
102
RTVSPost2010PropOp47
 70
     1
102
RTVSPost2010Prop48
 90
       50
102
RTVSPost2010PropOp48
 70
     1
102
RTVSPost2010Prop49
280
     0
102
RTVSPost2010PropOp49
 70
     1
102
RTVSPost2010Prop50
 90
       50
102
RTVSPost2010PropOp50
 70
     1
102
RTVSPost2010Prop51ColorIndex
 90
      256
102
RTVSPost2010Prop51ColorRGB
 90
-16777216
102
RTVSPost2010PropOp51
 70
     0
102
RTVSPost2010Prop52
140
1.0
102
RTVSPost2010PropOp52
 70
     0
102
RTVSPost2010Prop53
 90
        2
102
RTVSPost2010PropOp53
 70
     1
102
RTVSPost2010Prop54
  1
strokes_ogs.tif
102
RTVSPost2010PropOp54
 70
     1
102
RTVSPost2010Prop55
280
     0
102
RTVSPost2010PropOp55
 70
     1
102
RTVSPost2010Prop56
140
1.0
102
RTVSPost2010PropOp56
 70
     1
102
RTVSPost2010Prop57
140
1.0
102
RTVSPost2010PropOp57
 70
     1
102
RTVSPropertyOp0
 70
     1
102
RTVSPropertyOp1
 70
     1
102
RTVSPropertyOp2
 70
     1
102
RTVSPropertyOp3
 70
     1
102
RTVSPropertyOp4
 70
     1
102
RTVSPropertyOp5
 70
     1
102
RTVSPropertyOp6
 70
     1
102
RTVSPropertyOp7
 70
     1
102
RTVSPropertyOp8
 70
     1
102
RTVSPropertyOp9
 70
     1
102
RTVSPropertyOp10
 70
     1
102
RTVSPropertyOp11
 70
     1
102
RTVSPropertyOp12
 70
     1
102
RTVSPropertyOp13
 70
     1
102
RTVSPropertyOp14
 70
     1
102
RTVSPropertyOp15
 70
     1
102
RTVSPropertyOp16
 70
     1
102
RTVSPropertyOp17
 70
     1
102
RTVSPropertyOp18
 70
     1
102
RTVSPropertyOp19
 70
     1
102
RTVSPropertyOp20
 70
     1
102
RTVSPropertyOp21
 70
     1
102
RTVSPropertyOp22
 70
     1
102
RTVSPropertyOp23
 70
     1
102
RTVSPropertyOp24
 70
     1
102
RTVSPropertyOp25
 70
     1
102
RTVSPropertyOp26
 70
     1
102
RTVSPropertyOp27
 70
     1
102
RTVSPropertyOp28
 70
     1
102
RTVSPropertyOp29
 70
     1
102
RTVSPropertyOp30
 70
     1
102
RTVSPropertyOp31
 70
     1
102
RTVSPropertyOp32
 70
     1
102
RTVSPropertyOp33
 70
     1
102
RTVSPropertyOp34
 70
     1
102
RTVSPropertyOp35
 70
     1
102
RTVSPropertyOp36
 70
     1
102
RTVSPropertyOp37
 70
     1
102
RTVSPropertyOp38
 70
     1
102
RTVSPropertyOp39
 70
     1
102
RTVSPropertyOp40
 70
     1
102
RTVSPropertyOp41
 70
     1
102
RTVSPropertyOp42
 70
     1
102
RTVSPropertyOp43
 70
     1
102
RTVSPropertyOp44
 70
     1
102
RTVSPropertyOp45
 70
     1
102
RTVSPropertyOp46
 70
     1
102
RTVSPropertyOp47
 70
     1
102
RTVSPropertyOp48
 70
     1
102
RTVSPropertyOp49
 70
     1
102
RTVSPropertyOp50
 70
     1
102
RTVSPropertyOp51
 70
     0
102
RTVSPropertyOp52
 70
     0
102
RTVSPropertyOp53
 70
     1
102
RTVSPropertyOp54
 70
     1
102
RTVSPropertyOp55
 70
     1
102
RTVSPropertyOp56
 70
     1
102
RTVSPropertyOp57
 70
     1
102
RTVSPropertyOp58
 70
     1
102
RTVSPropertyOp59
 70
     1
102
RTVSPropertyOp60
 70
     1
102
RTVSPropertyOp61
 70
     1
102
RTVSPropertyOp62
 70
     1
  0
XRECORD
  5
38B
102
{ACAD_REACTORS
330
38A
102
}
330
38A
100
AcDbXrecord
280
     1
102
RTVSPost2010Prop28
280
     0
102
RTVSPost2010PropOp28
 70
     1
102
RTVSPost2010Prop29
280
     1
102
RTVSPost2010PropOp29
 70
     1
102
RTVSPost2010Prop30
280
     1
102
RTVSPost2010PropOp30
 70
     1
102
RTVSPost2010Prop31
280
     0
102
RTVSPost2010PropOp31
 70
     1
102
RTVSPost2010Prop32
280
     0
102
RTVSPost2010PropOp32
 70
     1
102
RTVSPost2010Prop33
280
     0
102
RTVSPost2010PropOp33
 70
     1
102
RTVSPost2010Prop34
280
     0
102
RTVSPost2010PropOp34
 70
     1
102
RTVSPost2010Prop35
280
     0
102
RTVSPost2010PropOp35
 70
     1
102
RTVSPost2010Prop36
280
     0
102
RTVSPost2010PropOp36
 70
     1
102
RTVSPost2010Prop37
 90
       50
102
RTVSPost2010PropOp37
 70
     1
102
RTVSPost2010Prop38
140
0.0
102
RTVSPost2010PropOp38
 70
     1
102
RTVSPost2010Prop39
140
1.0
102
RTVSPost2010PropOp39
 70
     1
102
RTVSPost2010Prop40
 90
        0
102
RTVSPost2010PropOp40
 70
     1
102
RTVSPost2010Prop41ColorIndex
 90
       18
102
RTVSPost2010Prop41ColorRGB
 90
        0
102
RTVSPost2010PropOp41
 70
     1
102
RTVSPost2010Prop42
 90
       50
102
RTVSPost2010PropOp42
 70
     1
102
RTVSPost2010Prop43
 90
        3
102
RTVSPost2010PropOp43
 70
     1
102
RTVSPost2010Prop44ColorIndex
 90
        5
102
RTVSPost2010Prop44ColorRGB
 90
      255
102
RTVSPost2010PropOp44
 70
     1
102
RTVSPost2010Prop45
280
     0
102
RTVSPost2010PropOp45
 70
     1
102
RTVSPost2010Prop46
 90
       50
102
RTVSPost2010PropOp46
 70
     1
102
RTVSPost2010Prop47
 90
       50
102
RTVSPost2010PropOp47
 70
     1
102
RTVSPost2010Prop48
 90
       50
102
RTVSPost2010PropOp48
 70
     1
102
RTVSPost2010Prop49
280
     0
102
RTVSPost2010PropOp49
 70
     1
102
RTVSPost2010Prop50
 90
       50
102
RTVSPost2010PropOp50
 70
     1
102
RTVSPost2010Prop51ColorIndex
 90
      256
102
RTVSPost2010Prop51ColorRGB
 90
-16777216
102
RTVSPost2010PropOp51
 70
     0
102
RTVSPost2010Prop52
140
1.0
102
RTVSPost2010PropOp52
 70
     0
102
RTVSPost2010Prop53
 90
        2
102
RTVSPost2010PropOp53
 70
     1
102
RTVSPost2010Prop54
  1
strokes_ogs.tif
102
RTVSPost2010PropOp54
 70
     1
102
RTVSPost2010Prop55
280
     0
102
RTVSPost2010PropOp55
 70
     1
102
RTVSPost2010Prop56
140
1.0
102
RTVSPost2010PropOp56
 70
     1
102
RTVSPost2010Prop57
140
1.0
102
RTVSPost2010PropOp57
 70
     1
102
RTVSPropertyOp0
 70
     1
102
RTVSPropertyOp1
 70
     1
102
RTVSPropertyOp2
 70
     1
102
RTVSPropertyOp3
 70
     1
102
RTVSPropertyOp4
 70
     1
102
RTVSPropertyOp5
 70
     1
102
RTVSPropertyOp6
 70
     1
102
RTVSPropertyOp7
 70
     1
102
RTVSPropertyOp8
 70
     1
102
RTVSPropertyOp9
 70
     1
102
RTVSPropertyOp10
 70
     1
102
RTVSPropertyOp11
 70
     1
102
RTVSPropertyOp12
 70
     1
102
RTVSPropertyOp13
 70
     1
102
RTVSPropertyOp14
 70
     1
102
RTVSPropertyOp15
 70
     1
102
RTVSPropertyOp16
 70
     1
102
RTVSPropertyOp17
 70
     1
102
RTVSPropertyOp18
 70
     1
102
RTVSPropertyOp19
 70
     1
102
RTVSPropertyOp20
 70
     1
102
RTVSPropertyOp21
 70
     1
102
RTVSPropertyOp22
 70
     1
102
RTVSPropertyOp23
 70
     1
102
RTVSPropertyOp24
 70
     1
102
RTVSPropertyOp25
 70
     1
102
RTVSPropertyOp26
 70
     1
102
RTVSPropertyOp27
 70
     1
102
RTVSPropertyOp28
 70
     1
102
RTVSPropertyOp29
 70
     1
102
RTVSPropertyOp30
 70
     1
102
RTVSPropertyOp31
 70
     1
102
RTVSPropertyOp32
 70
     1
102
RTVSPropertyOp33
 70
     1
102
RTVSPropertyOp34
 70
     1
102
RTVSPropertyOp35
 70
     1
102
RTVSPropertyOp36
 70
     1
102
RTVSPropertyOp37
 70
     1
102
RTVSPropertyOp38
 70
     1
102
RTVSPropertyOp39
 70
     1
102
RTVSPropertyOp40
 70
     1
102
RTVSPropertyOp41
 70
     1
102
RTVSPropertyOp42
 70
     1
102
RTVSPropertyOp43
 70
     1
102
RTVSPropertyOp44
 70
     1
102
RTVSPropertyOp45
 70
     1
102
RTVSPropertyOp46
 70
     1
102
RTVSPropertyOp47
 70
     1
102
RTVSPropertyOp48
 70
     1
102
RTVSPropertyOp49
 70
     1
102
RTVSPropertyOp50
 70
     1
102
RTVSPropertyOp51
 70
     0
102
RTVSPropertyOp52
 70
     0
102
RTVSPropertyOp53
 70
     1
102
RTVSPropertyOp54
 70
     1
102
RTVSPropertyOp55
 70
     1
102
RTVSPropertyOp56
 70
     1
102
RTVSPropertyOp57
 70
     1
102
RTVSPropertyOp58
 70
     1
102
RTVSPropertyOp59
 70
     1
102
RTVSPropertyOp60
 70
     1
102
RTVSPropertyOp61
 70
     1
102
RTVSPropertyOp62
 70
     1
  0
ENDSEC
  0
EOF
