  0
SECTION
  2
HEADER
  9
$ACADVER
  1
AC1018
  9
$ACADMAINTVER
 70
   104
  9
$DWGCODEPAGE
  3
ANSI_1250
  9
$LASTSAVEDBY
  1
wq7085
  9
$INSBASE
 10
0.0
 20
0.0
 30
0.0
  9
$EXTMIN
 10
188.6658343333333
 20
122.034924
 30
0.0
  9
$EXTMAX
 10
387.774856
 20
345.2288016666668
 30
0.0
  9
$LIMMIN
 10
-0.5
 20
-0.5
  9
$LIMMAX
 10
5.0
 20
5.0
  9
$ORTHOMODE
 70
     0
  9
$REGENMODE
 70
     1
  9
$FILLMODE
 70
     1
  9
$QTEXTMODE
 70
     0
  9
$MIRRTEXT
 70
     1
  9
$LTSCALE
 40
1.0
  9
$ATTMODE
 70
     1
  9
$TEXTSIZE
 40
0.2
  9
$TRACEWID
 40
0.05
  9
$TEXTSTYLE
  7
Standard
  9
$CLAYER
  8
0
  9
$CELTYPE
  6
ByLayer
  9
$CECOLOR
 62
   256
  9
$CELTSCALE
 40
1.0
  9
$DISPSILH
 70
     0
  9
$DIMSCALE
 40
1.0
  9
$DIMASZ
 40
0.18
  9
$DIMEXO
 40
0.0625
  9
$DIMDLI
 40
0.38
  9
$DIMRND
 40
0.0
  9
$DIMDLE
 40
0.0
  9
$DIMEXE
 40
0.18
  9
$DIMTP
 40
0.0
  9
$DIMTM
 40
0.0
  9
$DIMTXT
 40
0.18
  9
$DIMCEN
 40
0.09
  9
$DIMTSZ
 40
0.0
  9
$DIMTOL
 70
     0
  9
$DIMLIM
 70
     0
  9
$DIMTIH
 70
     1
  9
$DIMTOH
 70
     1
  9
$DIMSE1
 70
     0
  9
$DIMSE2
 70
     0
  9
$DIMTAD
 70
     0
  9
$DIMZIN
 70
     0
  9
$DIMBLK
  1

  9
$DIMASO
 70
     1
  9
$DIMSHO
 70
     1
  9
$DIMPOST
  1

  9
$DIMAPOST
  1

  9
$DIMALT
 70
     0
  9
$DIMALTD
 70
     2
  9
$DIMALTF
 40
25.4
  9
$DIMLFAC
 40
1.0
  9
$DIMTOFL
 70
     0
  9
$DIMTVP
 40
0.0
  9
$DIMTIX
 70
     0
  9
$DIMSOXD
 70
     0
  9
$DIMSAH
 70
     0
  9
$DIMBLK1
  1

  9
$DIMBLK2
  1

  9
$DIMSTYLE
  2
Standard
  9
$DIMCLRD
 70
     0
  9
$DIMCLRE
 70
     0
  9
$DIMCLRT
 70
     0
  9
$DIMTFAC
 40
1.0
  9
$DIMGAP
 40
0.09
  9
$DIMJUST
 70
     0
  9
$DIMSD1
 70
     0
  9
$DIMSD2
 70
     0
  9
$DIMTOLJ
 70
     1
  9
$DIMTZIN
 70
     0
  9
$DIMALTZ
 70
     0
  9
$DIMALTTZ
 70
     0
  9
$DIMUPT
 70
     0
  9
$DIMDEC
 70
     4
  9
$DIMTDEC
 70
     4
  9
$DIMALTU
 70
     2
  9
$DIMALTTD
 70
     2
  9
$DIMTXSTY
  7
Standard
  9
$DIMAUNIT
 70
     0
  9
$DIMADEC
 70
     0
  9
$DIMALTRND
 40
0.0
  9
$DIMAZIN
 70
     0
  9
$DIMDSEP
 70
    46
  9
$DIMATFIT
 70
     3
  9
$DIMFRAC
 70
     0
  9
$DIMLDRBLK
  1

  9
$DIMLUNIT
 70
     2
  9
$DIMLWD
 70
    -2
  9
$DIMLWE
 70
    -2
  9
$DIMTMOVE
 70
     0
  9
$LUNITS
 70
     2
  9
$LUPREC
 70
     4
  9
$SKETCHINC
 40
0.1
  9
$FILLETRAD
 40
0.5
  9
$AUNITS
 70
     0
  9
$AUPREC
 70
     0
  9
$MENU
  1
.
  9
$ELEVATION
 40
0.0
  9
$PELEVATION
 40
0.0
  9
$THICKNESS
 40
0.0
  9
$LIMCHECK
 70
     0
  9
$CHAMFERA
 40
0.0
  9
$CHAMFERB
 40
0.0
  9
$CHAMFERC
 40
0.0
  9
$CHAMFERD
 40
0.0
  9
$SKPOLY
 70
     0
  9
$TDCREATE
 40
2459004.520462963
  9
$TDUCREATE
 40
2459004.437138935
  9
$TDUPDATE
 40
2459004.521377315
  9
$TDUUPDATE
 40
2459004.438043982
  9
$TDINDWG
 40
0.0004976968
  9
$TDUSRTIMER
 40
0.0004976968
  9
$USRTIMER
 70
     1
  9
$ANGBASE
 50
0.0
  9
$ANGDIR
 70
     0
  9
$PDMODE
 70
     0
  9
$PDSIZE
 40
0.0
  9
$PLINEWID
 40
0.0
  9
$SPLFRAME
 70
     0
  9
$SPLINETYPE
 70
     6
  9
$SPLINESEGS
 70
     8
  9
$HANDSEED
  5
3A6
  9
$SURFTAB1
 70
     6
  9
$SURFTAB2
 70
     6
  9
$SURFTYPE
 70
     6
  9
$SURFU
 70
     6
  9
$SURFV
 70
     6
  9
$UCSBASE
  2

  9
$UCSNAME
  2

  9
$UCSORG
 10
274.404842
 20
288.907994
 30
0.0
  9
$UCSXDIR
 10
1.0
 20
0.0
 30
0.0
  9
$UCSYDIR
 10
0.0
 20
1.0
 30
0.0
  9
$UCSORTHOREF
  2

  9
$UCSORTHOVIEW
 70
     0
  9
$UCSORGTOP
 10
0.0
 20
0.0
 30
0.0
  9
$UCSORGBOTTOM
 10
0.0
 20
0.0
 30
0.0
  9
$UCSORGLEFT
 10
0.0
 20
0.0
 30
0.0
  9
$UCSORGRIGHT
 10
0.0
 20
0.0
 30
0.0
  9
$UCSORGFRONT
 10
0.0
 20
0.0
 30
0.0
  9
$UCSORGBACK
 10
0.0
 20
0.0
 30
0.0
  9
$PUCSBASE
  2

  9
$PUCSNAME
  2

  9
$PUCSORG
 10
0.0
 20
0.0
 30
0.0
  9
$PUCSXDIR
 10
1.0
 20
0.0
 30
0.0
  9
$PUCSYDIR
 10
0.0
 20
1.0
 30
0.0
  9
$PUCSORTHOREF
  2

  9
$PUCSORTHOVIEW
 70
     0
  9
$PUCSORGTOP
 10
0.0
 20
0.0
 30
0.0
  9
$PUCSORGBOTTOM
 10
0.0
 20
0.0
 30
0.0
  9
$PUCSORGLEFT
 10
0.0
 20
0.0
 30
0.0
  9
$PUCSORGRIGHT
 10
0.0
 20
0.0
 30
0.0
  9
$PUCSORGFRONT
 10
0.0
 20
0.0
 30
0.0
  9
$PUCSORGBACK
 10
0.0
 20
0.0
 30
0.0
  9
$USERI1
 70
     0
  9
$USERI2
 70
     0
  9
$USERI3
 70
     0
  9
$USERI4
 70
     0
  9
$USERI5
 70
     0
  9
$USERR1
 40
0.0
  9
$USERR2
 40
0.0
  9
$USERR3
 40
0.0
  9
$USERR4
 40
0.0
  9
$USERR5
 40
0.0
  9
$WORLDVIEW
 70
     1
  9
$SHADEDGE
 70
     3
  9
$SHADEDIF
 70
    70
  9
$TILEMODE
 70
     1
  9
$MAXACTVP
 70
    64
  9
$PINSBASE
 10
0.0
 20
0.0
 30
0.0
  9
$PLIMCHECK
 70
     0
  9
$PEXTMIN
 10
-0.5
 20
-0.5
 30
-0.5
  9
$PEXTMAX
 10
5.0
 20
5.0
 30
5.0
  9
$PLIMMIN
 10
-0.5
 20
-0.5
  9
$PLIMMAX
 10
5.0
 20
5.0
  9
$UNITMODE
 70
     0
  9
$VISRETAIN
 70
     1
  9
$PLINEGEN
 70
     0
  9
$PSLTSCALE
 70
     1
  9
$TREEDEPTH
 70
  3020
  9
$CMLSTYLE
  2
Standard
  9
$CMLJUST
 70
     0
  9
$CMLSCALE
 40
1.0
  9
$PROXYGRAPHICS
 70
     1
  9
$MEASUREMENT
 70
     1
  9
$CELWEIGHT
370
    13
  9
$ENDCAPS
280
     0
  9
$JOINSTYLE
280
     0
  9
$LWDISPLAY
290
     0
  9
$INSUNITS
 70
     4
  9
$HYPERLINKBASE
  1

  9
$STYLESHEET
  1

  9
$XEDIT
290
     1
  9
$CEPSNTYPE
380
     0
  9
$PSTYLEMODE
290
     1
  9
$FINGERPRINTGUID
  2
{11C804B4-E7BF-444F-ACD7-6C1F5E3C153E}
  9
$VERSIONGUID
  2
{09E1A376-3189-5141-880C-F62D10434E32}
  9
$EXTNAMES
290
     1
  9
$PSVPSCALE
 40
0.0
  9
$OLESTARTUP
290
     0
  9
$SORTENTS
280
   127
  9
$INDEXCTL
280
     0
  9
$HIDETEXT
280
     1
  9
$XCLIPFRAME
290
     0
  9
$HALOGAP
280
     0
  9
$OBSCOLOR
 70
   257
  9
$OBSLTYPE
280
     0
  9
$INTERSECTIONDISPLAY
280
     0
  9
$INTERSECTIONCOLOR
 70
   257
  9
$DIMASSOC
280
     2
  9
$PROJECTNAME
  1

  0
ENDSEC
  0
SECTION
  2
CLASSES
  0
CLASS
  1
ACDBDICTIONARYWDFLT
  2
AcDbDictionaryWithDefault
  3
ObjectDBX Classes
 90
        0
 91
        1
280
     0
281
     0
  0
CLASS
  1
VISUALSTYLE
  2
AcDbVisualStyle
  3
ObjectDBX Classes
 90
     4095
 91
       24
280
     0
281
     0
  0
CLASS
  1
MATERIAL
  2
AcDbMaterial
  3
ObjectDBX Classes
 90
     1153
 91
        3
280
     0
281
     0
  0
CLASS
  1
SCALE
  2
AcDbScale
  3
ObjectDBX Classes
 90
     1153
 91
       33
280
     0
281
     0
  0
CLASS
  1
TABLESTYLE
  2
AcDbTableStyle
  3
ObjectDBX Classes
 90
     4095
 91
        1
280
     0
281
     0
  0
CLASS
  1
MLEADERSTYLE
  2
AcDbMLeaderStyle
  3
ACDB_MLEADERSTYLE_CLASS
 90
     4095
 91
        1
280
     0
281
     0
  0
CLASS
  1
SUN
  2
AcDbSun
  3
SCENEOE
 90
     1153
 91
        0
280
     0
281
     0
  0
CLASS
  1
DIMASSOC
  2
AcDbDimAssoc
  3
"AcDbDimAssoc|Product Desc:     AcDim ARX App For Dimension|Company:          Autodesk, Inc.|WEB Address:      www.autodesk.com"
 90
        0
 91
        7
280
     0
281
     0
  0
CLASS
  1
DICTIONARYVAR
  2
AcDbDictionaryVar
  3
ObjectDBX Classes
 90
        0
 91
        8
280
     0
281
     0
  0
CLASS
  1
CELLSTYLEMAP
  2
AcDbCellStyleMap
  3
ObjectDBX Classes
 90
     1152
 91
        2
280
     0
281
     0
  0
CLASS
  1
ACDBSECTIONVIEWSTYLE
  2
AcDbSectionViewStyle
  3
ObjectDBX Classes
 90
     1025
 91
        1
280
     0
281
     0
  0
CLASS
  1
ACDBDETAILVIEWSTYLE
  2
AcDbDetailViewStyle
  3
ObjectDBX Classes
 90
     1025
 91
        1
280
     0
281
     0
  0
CLASS
  1
SORTENTSTABLE
  2
AcDbSortentsTable
  3
ObjectDBX Classes
 90
        0
 91
        1
280
     0
281
     0
  0
ENDSEC
  0
SECTION
  2
TABLES
  0
TABLE
  2
VPORT
  5
8
330
0
100
AcDbSymbolTable
 70
    16
  0
VPORT
  5
29
330
8
100
AcDbSymbolTableRecord
100
AcDbViewportTableRecord
  2
*Active
 70
     0
 10
0.0
 20
0.0
 11
1.0
 21
1.0
 12
286.9350786581831
 22
273.4135160894567
 13
0.0
 23
0.0
 14
0.5
 24
0.5
 15
0.5
 25
0.5
 16
0.0
 26
0.0
 36
1.0
 17
0.0
 27
0.0
 37
0.0
 40
211.8003616651362
 41
2.283154121863799
 42
50.0
 43
386.724479
 44
-386.724479
 50
0.0
 51
0.0
 71
     0
 72
   100
 73
     1
 74
     3
 75
     0
 76
     0
 77
     0
 78
     0
281
     0
 65
     1
110
274.404842
120
288.907994
130
0.0
111
1.0
121
0.0
131
0.0
112
0.0
122
1.0
132
0.0
 79
     0
146
0.0
1001
ACAD_NAV_VCDISPLAY
1070
     3
  0
VPORT
  5
2A9
330
8
100
AcDbSymbolTableRecord
100
AcDbViewportTableRecord
  2
L1
 70
     0
 10
0.0
 20
0.0
 11
1.0
 21
1.0
 12
287.716133
 22
233.61638
 13
0.0
 23
0.0
 14
0.5
 24
0.5
 15
0.5
 25
0.5
 16
0.0
 26
0.0
 36
1.0
 17
0.0
 27
0.0
 37
0.0
 40
207.433333
 41
0.085602
 42
50.0
 43
386.724479
 44
-386.724479
 50
0.0
 51
0.0
 71
     0
 72
   100
 73
     1
 74
     3
 75
     0
 76
     0
 77
     0
 78
     0
281
     0
 65
     1
110
0.0
120
0.0
130
0.0
111
1.0
121
0.0
131
0.0
112
0.0
122
1.0
132
0.0
 79
     0
146
0.0
  0
VPORT
  5
2AA
330
8
100
AcDbSymbolTableRecord
100
AcDbViewportTableRecord
  2
L2
 70
     0
 10
0.0
 20
0.0
 11
0.5
 21
1.0
 12
0.0
 22
0.0
 13
0.0
 23
0.0
 14
0.5
 24
0.5
 15
0.5
 25
0.5
 16
0.0
 26
-1.0
 36
0.0
 17
0.0
 27
0.0
 37
0.0
 40
1319.735116
 41
0.013455
 42
50.0
 43
679.920199
 44
-679.920199
 50
0.0
 51
0.0
 71
     0
 72
   100
 73
     1
 74
     3
 75
     0
 76
     0
 77
     0
 78
     0
281
     0
 65
     1
110
0.0
120
0.0
130
0.0
111
1.0
121
0.0
131
0.0
112
0.0
122
1.0
132
0.0
 79
     0
146
0.0
  0
VPORT
  5
2AB
330
8
100
AcDbSymbolTableRecord
100
AcDbViewportTableRecord
  2
L2
 70
     0
 10
0.5
 20
0.0
 11
1.0
 21
1.0
 12
0.0
 22
0.0
 13
0.0
 23
0.0
 14
0.5
 24
0.5
 15
0.5
 25
0.5
 16
1.0
 26
0.0
 36
0.0
 17
0.0
 27
0.0
 37
0.0
 40
1319.735116
 41
0.013455
 42
50.0
 43
667.9688169999999
 44
-667.9688169999999
 50
0.0
 51
0.0
 71
     0
 72
   100
 73
     1
 74
     3
 75
     0
 76
     0
 77
     0
 78
     0
281
     0
 65
     1
110
0.0
120
0.0
130
0.0
111
1.0
121
0.0
131
0.0
112
0.0
122
1.0
132
0.0
 79
     0
146
0.0
  0
VPORT
  5
2AC
330
8
100
AcDbSymbolTableRecord
100
AcDbViewportTableRecord
  2
L3
 70
     0
 10
0.0
 20
0.5
 11
1.0
 21
1.0
 12
287.716133
 22
233.61638
 13
0.0
 23
0.0
 14
0.5
 24
0.5
 15
0.5
 25
0.5
 16
0.0
 26
0.0
 36
1.0
 17
0.0
 27
0.0
 37
0.0
 40
207.433333
 41
0.085602
 42
50.0
 43
386.724479
 44
-386.724479
 50
0.0
 51
0.0
 71
     0
 72
   100
 73
     1
 74
     3
 75
     0
 76
     0
 77
     0
 78
     0
281
     0
 65
     1
110
0.0
120
0.0
130
0.0
111
1.0
121
0.0
131
0.0
112
0.0
122
1.0
132
0.0
 79
     0
146
0.0
  0
VPORT
  5
2AD
330
8
100
AcDbSymbolTableRecord
100
AcDbViewportTableRecord
  2
L3
 70
     0
 10
0.0
 20
0.0
 11
1.0
 21
0.5
 12
0.0
 22
0.0
 13
0.0
 23
0.0
 14
0.5
 24
0.5
 15
0.5
 25
0.5
 16
0.0
 26
-1.0
 36
0.0
 17
0.0
 27
0.0
 37
0.0
 40
1319.735116
 41
0.013455
 42
50.0
 43
679.920199
 44
-679.920199
 50
0.0
 51
0.0
 71
     0
 72
   100
 73
     1
 74
     3
 75
     0
 76
     0
 77
     0
 78
     0
281
     0
 65
     1
110
0.0
120
0.0
130
0.0
111
1.0
121
0.0
131
0.0
112
0.0
122
1.0
132
0.0
 79
     0
146
0.0
  0
VPORT
  5
2AE
330
8
100
AcDbSymbolTableRecord
100
AcDbViewportTableRecord
  2
L4
 70
     0
 10
0.0
 20
0.5
 11
0.5
 21
1.0
 12
287.716133
 22
233.61638
 13
0.0
 23
0.0
 14
0.5
 24
0.5
 15
0.5
 25
0.5
 16
0.0
 26
0.0
 36
1.0
 17
0.0
 27
0.0
 37
0.0
 40
207.433333
 41
0.085602
 42
50.0
 43
386.724479
 44
-386.724479
 50
0.0
 51
0.0
 71
     0
 72
   100
 73
     1
 74
     3
 75
     0
 76
     0
 77
     0
 78
     0
281
     0
 65
     1
110
0.0
120
0.0
130
0.0
111
1.0
121
0.0
131
0.0
112
0.0
122
1.0
132
0.0
 79
     0
146
0.0
  0
VPORT
  5
2AF
330
8
100
AcDbSymbolTableRecord
100
AcDbViewportTableRecord
  2
L4
 70
     0
 10
0.0
 20
0.0
 11
0.5
 21
0.5
 12
0.0
 22
0.0
 13
0.0
 23
0.0
 14
0.5
 24
0.5
 15
0.5
 25
0.5
 16
0.0
 26
-1.0
 36
0.0
 17
0.0
 27
0.0
 37
0.0
 40
1319.735116
 41
0.013455
 42
50.0
 43
679.920199
 44
-679.920199
 50
0.0
 51
0.0
 71
     0
 72
   100
 73
     1
 74
     3
 75
     0
 76
     0
 77
     0
 78
     0
281
     0
 65
     1
110
0.0
120
0.0
130
0.0
111
1.0
121
0.0
131
0.0
112
0.0
122
1.0
132
0.0
 79
     0
146
0.0
  0
VPORT
  5
2B0
330
8
100
AcDbSymbolTableRecord
100
AcDbViewportTableRecord
  2
L4
 70
     0
 10
0.5
 20
0.0
 11
1.0
 21
0.5
 12
0.0
 22
0.0
 13
0.0
 23
0.0
 14
0.5
 24
0.5
 15
0.5
 25
0.5
 16
1.0
 26
0.0
 36
0.0
 17
0.0
 27
0.0
 37
0.0
 40
1319.735116
 41
0.013455
 42
50.0
 43
667.9688169999999
 44
-667.9688169999999
 50
0.0
 51
0.0
 71
     0
 72
   100
 73
     1
 74
     3
 75
     0
 76
     0
 77
     0
 78
     0
281
     0
 65
     1
110
0.0
120
0.0
130
0.0
111
1.0
121
0.0
131
0.0
112
0.0
122
1.0
132
0.0
 79
     0
146
0.0
  0
VPORT
  5
2B1
330
8
100
AcDbSymbolTableRecord
100
AcDbViewportTableRecord
  2
L4
 70
     0
 10
0.5
 20
0.5
 11
1.0
 21
1.0
 12
0.0
 22
0.0
 13
0.0
 23
0.0
 14
0.5
 24
0.5
 15
0.5
 25
0.5
 16
0.5773502691896259
 26
-0.5773502691896259
 36
0.5773502691896259
 17
0.0
 27
0.0
 37
0.0
 40
1296.074958
 41
0.0137
 42
50.0
 43
675.1032679999999
 44
-675.1032679999999
 50
0.0
 51
0.0
 71
     0
 72
   100
 73
     1
 74
     3
 75
     0
 76
     0
 77
     0
 78
     0
281
     0
 65
     1
110
0.0
120
0.0
130
0.0
111
1.0
121
0.0
131
0.0
112
0.0
122
1.0
132
0.0
 79
     0
146
0.0
  0
VPORT
  5
2B2
330
8
100
AcDbSymbolTableRecord
100
AcDbViewportTableRecord
  2
L6
 70
     0
 10
0.0
 20
0.5
 11
0.333333
 21
1.0
 12
0.0
 22
0.0
 13
0.0
 23
0.0
 14
0.5
 24
0.5
 15
0.5
 25
0.5
 16
0.7188730927569434
 26
-0.5850486126764433
 36
0.3754192287502549
 17
0.0
 27
0.0
 37
0.0
 40
1367.812327
 41
0.012982
 42
50.0
 43
708.2012429999999
 44
-708.2012429999999
 50
0.0
 51
0.0
 71
     0
 72
   100
 73
     1
 74
     3
 75
     0
 76
     0
 77
     0
 78
     0
281
     0
 65
     1
110
0.0
120
0.0
130
0.0
111
1.0
121
0.0
131
0.0
112
0.0
122
1.0
132
0.0
 79
     0
146
0.0
  0
VPORT
  5
2B3
330
8
100
AcDbSymbolTableRecord
100
AcDbViewportTableRecord
  2
L6
 70
     0
 10
0.0
 20
0.0
 11
0.333333
 21
0.5
 12
0.0
 22
0.0
 13
0.0
 23
0.0
 14
0.5
 24
0.5
 15
0.5
 25
0.5
 16
-1.0
 26
0.0
 36
0.0
 17
0.0
 27
0.0
 37
0.0
 40
1319.735116
 41
0.013455
 42
50.0
 43
667.9688169999999
 44
-667.9688169999999
 50
0.0
 51
0.0
 71
     0
 72
   100
 73
     1
 74
     3
 75
     0
 76
     0
 77
     0
 78
     0
281
     0
 65
     1
110
0.0
120
0.0
130
0.0
111
1.0
121
0.0
131
0.0
112
0.0
122
1.0
132
0.0
 79
     0
146
0.0
  0
VPORT
  5
2B4
330
8
100
AcDbSymbolTableRecord
100
AcDbViewportTableRecord
  2
L6
 70
     0
 10
0.333333
 20
0.5
 11
0.666667
 21
1.0
 12
287.716133
 22
233.61638
 13
0.0
 23
0.0
 14
0.5
 24
0.5
 15
0.5
 25
0.5
 16
0.0
 26
0.0
 36
1.0
 17
0.0
 27
0.0
 37
0.0
 40
207.433333
 41
0.085602
 42
50.0
 43
386.724479
 44
-386.724479
 50
0.0
 51
0.0
 71
     0
 72
   100
 73
     1
 74
     3
 75
     0
 76
     0
 77
     0
 78
     0
281
     0
 65
     1
110
0.0
120
0.0
130
0.0
111
1.0
121
0.0
131
0.0
112
0.0
122
1.0
132
0.0
 79
     0
146
0.0
  0
VPORT
  5
2B5
330
8
100
AcDbSymbolTableRecord
100
AcDbViewportTableRecord
  2
L6
 70
     0
 10
0.333333
 20
0.0
 11
0.666667
 21
0.5
 12
0.0
 22
0.0
 13
0.0
 23
0.0
 14
0.5
 24
0.5
 15
0.5
 25
0.5
 16
0.0
 26
-1.0
 36
0.0
 17
0.0
 27
0.0
 37
0.0
 40
1319.735116
 41
0.013455
 42
50.0
 43
679.920199
 44
-679.920199
 50
0.0
 51
0.0
 71
     0
 72
   100
 73
     1
 74
     3
 75
     0
 76
     0
 77
     0
 78
     0
281
     0
 65
     1
110
0.0
120
0.0
130
0.0
111
1.0
121
0.0
131
0.0
112
0.0
122
1.0
132
0.0
 79
     0
146
0.0
  0
VPORT
  5
2B6
330
8
100
AcDbSymbolTableRecord
100
AcDbViewportTableRecord
  2
L6
 70
     0
 10
0.666667
 20
0.5
 11
1.0
 21
1.0
 12
0.0
 22
0.0
 13
0.0
 23
0.0
 14
0.5
 24
0.5
 15
0.5
 25
0.5
 16
0.5773502691896259
 26
-0.5773502691896259
 36
0.5773502691896259
 17
0.0
 27
0.0
 37
0.0
 40
1296.074958
 41
0.0137
 42
50.0
 43
675.1032679999999
 44
-675.1032679999999
 50
0.0
 51
0.0
 71
     0
 72
   100
 73
     1
 74
     3
 75
     0
 76
     0
 77
     0
 78
     0
281
     0
 65
     1
110
0.0
120
0.0
130
0.0
111
1.0
121
0.0
131
0.0
112
0.0
122
1.0
132
0.0
 79
     0
146
0.0
  0
VPORT
  5
2B7
330
8
100
AcDbSymbolTableRecord
100
AcDbViewportTableRecord
  2
L6
 70
     0
 10
0.666667
 20
0.0
 11
1.0
 21
0.5
 12
0.0
 22
0.0
 13
0.0
 23
0.0
 14
0.5
 24
0.5
 15
0.5
 25
0.5
 16
1.0
 26
0.0
 36
0.0
 17
0.0
 27
0.0
 37
0.0
 40
1319.735116
 41
0.013455
 42
50.0
 43
667.9688169999999
 44
-667.9688169999999
 50
0.0
 51
0.0
 71
     0
 72
   100
 73
     1
 74
     3
 75
     0
 76
     0
 77
     0
 78
     0
281
     0
 65
     1
110
0.0
120
0.0
130
0.0
111
1.0
121
0.0
131
0.0
112
0.0
122
1.0
132
0.0
 79
     0
146
0.0
  0
ENDTAB
  0
TABLE
  2
LTYPE
  5
5
330
0
100
AcDbSymbolTable
 70
     7
  0
LTYPE
  5
14
330
5
100
AcDbSymbolTableRecord
100
AcDbLinetypeTableRecord
  2
ByBlock
 70
     0
  3

 72
    65
 73
     0
 40
0.0
  0
LTYPE
  5
15
330
5
100
AcDbSymbolTableRecord
100
AcDbLinetypeTableRecord
  2
ByLayer
 70
     0
  3

 72
    65
 73
     0
 40
0.0
  0
LTYPE
  5
16
330
5
100
AcDbSymbolTableRecord
100
AcDbLinetypeTableRecord
  2
Continuous
 70
     0
  3
Solid line
 72
    65
 73
     0
 40
0.0
  0
LTYPE
  5
6E
330
5
100
AcDbSymbolTableRecord
100
AcDbLinetypeTableRecord
  2
CENTER
 70
     0
  3
____ _ ____ _ ____ _ ____
 72
    65
 73
     4
 40
47.4
 49
22.0
 74
     4
 75
     0
340
0
 46
0.0
 50
0.0
 44
0.0
 45
0.0
 49
-8.5
 74
     4
 75
     0
340
0
 46
0.0
 50
0.0
 44
0.0
 45
0.0
 49
8.5
 74
     4
 75
     0
340
0
 46
0.0
 50
0.0
 44
0.0
 45
0.0
 49
-8.5
 74
     4
 75
     0
340
0
 46
0.0
 50
0.0
 44
0.0
 45
0.0
  0
LTYPE
  5
6F
330
5
100
AcDbSymbolTableRecord
100
AcDbLinetypeTableRecord
  2
DASHDOT
 70
     0
  3
_._._._._._._._._._._._._._._._.
 72
    65
 73
     4
 40
70.0
 49
31.0
 74
     4
 75
     0
340
0
 46
0.0
 50
0.0
 44
0.0
 45
0.0
 49
-13.0
 74
     4
 75
     0
340
0
 46
0.0
 50
0.0
 44
0.0
 45
0.0
 49
13.0
 74
     4
 75
     0
340
0
 46
0.0
 50
0.0
 44
0.0
 45
0.0
 49
-13.0
 74
     4
 75
     0
340
0
 46
0.0
 50
0.0
 44
0.0
 45
0.0
  0
LTYPE
  5
70
330
5
100
AcDbSymbolTableRecord
100
AcDbLinetypeTableRecord
  2
DASHED
 70
     0
  3
__ __ __ __ __ __ __ __ __
 72
    65
 73
     2
 40
25.72
 49
12.86
 74
     4
 75
     0
340
0
 46
0.0
 50
0.0
 44
0.0
 45
0.0
 49
-12.86
 74
     4
 75
     0
340
0
 46
0.0
 50
0.0
 44
0.0
 45
0.0
  0
LTYPE
  5
71
330
5
100
AcDbSymbolTableRecord
100
AcDbLinetypeTableRecord
  2
DOT
 70
     0
  3
.........................
 72
    65
 73
     2
 40
10.0
 49
0.0
 74
     4
 75
     0
340
0
 46
0.0
 50
0.0
 44
0.0
 45
0.0
 49
-10.0
 74
     4
 75
     0
340
0
 46
0.0
 50
0.0
 44
0.0
 45
0.0
  0
LTYPE
  5
72
330
5
100
AcDbSymbolTableRecord
100
AcDbLinetypeTableRecord
  2
PHANTOM
 70
     0
  3
____ _ _ ____ _ _ _____ _ _ ____
 72
    65
 73
     6
 40
50.5
 49
18.0
 74
     4
 75
     0
340
0
 46
0.0
 50
0.0
 44
0.0
 45
0.0
 49
-6.5
 74
     4
 75
     0
340
0
 46
0.0
 50
0.0
 44
0.0
 45
0.0
 49
6.5
 74
     4
 75
     0
340
0
 46
0.0
 50
0.0
 44
0.0
 45
0.0
 49
-6.5
 74
     4
 75
     0
340
0
 46
0.0
 50
0.0
 44
0.0
 45
0.0
 49
6.5
 74
     4
 75
     0
340
0
 46
0.0
 50
0.0
 44
0.0
 45
0.0
 49
-6.5
 74
     4
 75
     0
340
0
 46
0.0
 50
0.0
 44
0.0
 45
0.0
  0
LTYPE
  5
346
330
5
100
AcDbSymbolTableRecord
100
AcDbLinetypeTableRecord
  2
CENTER2
 70
     0
  3
Center (.5x) ___ _ ___ _ ___ _ ___ _ ___ _ ___
 72
    65
 73
     4
 40
1.125
 49
0.75
 74
     0
 49
-0.125
 74
     0
 49
0.125
 74
     0
 49
-0.125
 74
     0
  0
ENDTAB
  0
TABLE
  2
LAYER
  5
2
330
0
100
AcDbSymbolTable
 70
    22
  0
LAYER
  5
10
102
{ACAD_XDICTIONARY
360
351
102
}
330
2
100
AcDbSymbolTableRecord
100
AcDbLayerTableRecord
  2
0
 70
     0
 62
     7
  6
Continuous
370
    -3
390
F
  0
LAYER
  5
8C
102
{ACAD_XDICTIONARY
360
353
102
}
330
2
100
AcDbSymbolTableRecord
100
AcDbLayerTableRecord
  2
95
 70
     0
 62
     7
420
 16777215
  6
Continuous
370
    -3
390
F
  0
LAYER
  5
203
330
2
100
AcDbSymbolTableRecord
100
AcDbLayerTableRecord
  2
Defpoints
 70
     0
 62
     7
  6
Continuous
290
     0
370
    -3
390
F
  0
LAYER
  5
343
102
{ACAD_XDICTIONARY
360
355
102
}
330
2
100
AcDbSymbolTableRecord
100
AcDbLayerTableRecord
  2
1
 70
     0
 62
     4
  6
Continuous
370
    -3
390
F
  0
LAYER
  5
344
102
{ACAD_XDICTIONARY
360
357
102
}
330
2
100
AcDbSymbolTableRecord
100
AcDbLayerTableRecord
  2
2
 70
     0
 62
     7
  6
Continuous
370
    -3
390
F
  0
LAYER
  5
345
102
{ACAD_XDICTIONARY
360
359
102
}
330
2
100
AcDbSymbolTableRecord
100
AcDbLayerTableRecord
  2
4
 70
     0
 62
     2
  6
CENTER2
370
    -3
390
F
  0
LAYER
  5
347
102
{ACAD_XDICTIONARY
360
35B
102
}
330
2
100
AcDbSymbolTableRecord
100
AcDbLayerTableRecord
  2
SK1
 70
     0
 62
     4
  6
Continuous
370
    -3
390
F
  0
LAYER
  5
348
102
{ACAD_XDICTIONARY
360
35D
102
}
330
2
100
AcDbSymbolTableRecord
100
AcDbLayerTableRecord
  2
SK2
 70
     0
 62
     7
  6
Continuous
370
    -3
390
F
  0
LAYER
  5
34A
102
{ACAD_XDICTIONARY
360
35F
102
}
330
2
100
AcDbSymbolTableRecord
100
AcDbLayerTableRecord
  2
SK4
 70
     0
 62
     2
  6
CENTER2
370
    -3
390
F
  0
LAYER
  5
34B
102
{ACAD_XDICTIONARY
360
361
102
}
330
2
100
AcDbSymbolTableRecord
100
AcDbLayerTableRecord
  2
SK6
 70
     0
 62
     5
  6
Continuous
370
    -3
390
F
  0
LAYER
  5
34C
102
{ACAD_XDICTIONARY
360
363
102
}
330
2
100
AcDbSymbolTableRecord
100
AcDbLayerTableRecord
  2
CUT
 70
     0
 62
     1
  6
Continuous
370
    -3
390
F
  0
LAYER
  5
34D
102
{ACAD_XDICTIONARY
360
365
102
}
330
2
100
AcDbSymbolTableRecord
100
AcDbLayerTableRecord
  2
NOCUT
 70
     0
 62
     7
  6
Continuous
370
    -3
390
F
  0
LAYER
  5
34E
102
{ACAD_XDICTIONARY
360
367
102
}
330
2
100
AcDbSymbolTableRecord
100
AcDbLayerTableRecord
  2
80
 70
     0
 62
     6
  6
Continuous
370
    -3
390
F
  0
LAYER
  5
34F
102
{ACAD_XDICTIONARY
360
369
102
}
330
2
100
AcDbSymbolTableRecord
100
AcDbLayerTableRecord
  2
81
 70
     0
 62
     3
  6
Continuous
370
    -3
390
F
  0
ENDTAB
  0
TABLE
  2
STYLE
  5
3
330
0
100
AcDbSymbolTable
 70
     3
  0
STYLE
  5
11
330
3
100
AcDbSymbolTableRecord
100
AcDbTextStyleTableRecord
  2
Standard
 70
     0
 40
0.0
 41
1.0
 50
0.0
 71
     0
 42
0.2
  3
txt
  4

  0
STYLE
  5
1F7
330
3
100
AcDbSymbolTableRecord
100
AcDbTextStyleTableRecord
  2
cesky
 70
     0
 40
0.0
 41
1.0
 50
0.0
 71
     0
 42
0.2
  3
simplex.shx
  4

  0
STYLE
  5
1F8
330
3
100
AcDbSymbolTableRecord
100
AcDbTextStyleTableRecord
  2
DWGDirectTextStyle
 70
     0
 40
0.0
 41
1.0
 50
0.0
 71
     0
 42
0.2
  3
simplex
  4

  0
ENDTAB
  0
TABLE
  2
VIEW
  5
6
330
0
100
AcDbSymbolTable
 70
     0
  0
ENDTAB
  0
TABLE
  2
UCS
  5
7
330
0
100
AcDbSymbolTable
 70
     0
  0
ENDTAB
  0
TABLE
  2
APPID
  5
9
330
0
100
AcDbSymbolTable
 70
     7
  0
APPID
  5
12
330
9
100
AcDbSymbolTableRecord
100
AcDbRegAppTableRecord
  2
ACAD
 70
     0
  0
APPID
  5
1FF
330
9
100
AcDbSymbolTableRecord
100
AcDbRegAppTableRecord
  2
ACAD_DSTYLE_DIMBREAK
 70
     0
  0
APPID
  5
2B8
330
9
100
AcDbSymbolTableRecord
100
AcDbRegAppTableRecord
  2
ACAD_DSTYLE_DIM_LINETYPE
 70
     0
  0
APPID
  5
2B9
330
9
100
AcDbSymbolTableRecord
100
AcDbRegAppTableRecord
  2
ACAD_DSTYLE_DIM_EXT1_LINETYPE
 70
     0
  0
APPID
  5
2BA
330
9
100
AcDbSymbolTableRecord
100
AcDbRegAppTableRecord
  2
ACAD_DSTYLE_DIM_EXT2_LINETYPE
 70
     0
  0
APPID
  5
2FA
330
9
100
AcDbSymbolTableRecord
100
AcDbRegAppTableRecord
  2
ACAD_MLEADERVER
 70
     0
  0
APPID
  5
36E
330
9
100
AcDbSymbolTableRecord
100
AcDbRegAppTableRecord
  2
ACAD_NAV_VCDISPLAY
 70
     0
  0
ENDTAB
  0
TABLE
  2
DIMSTYLE
  5
A
330
0
100
AcDbSymbolTable
 70
     1
100
AcDbDimStyleTable
 71
     0
  0
DIMSTYLE
105
27
330
A
100
AcDbSymbolTableRecord
100
AcDbDimStyleTableRecord
  2
Standard
 70
     0
340
11
1001
ACAD_DSTYLE_DIMBREAK
1070
   391
1040
6.349999999999999
  0
ENDTAB
  0
TABLE
  2
BLOCK_RECORD
  5
1
330
0
100
AcDbSymbolTable
 70
    16
  0
BLOCK_RECORD
  5
1F
102
{ACAD_XDICTIONARY
360
30A
102
}
330
1
100
AcDbSymbolTableRecord
100
AcDbBlockTableRecord
  2
*Model_Space
340
22
  0
BLOCK_RECORD
  5
1B
330
1
100
AcDbSymbolTableRecord
100
AcDbBlockTableRecord
  2
*Paper_Space
340
1E
  0
BLOCK_RECORD
  5
23
330
1
100
AcDbSymbolTableRecord
100
AcDbBlockTableRecord
  2
*Paper_Space0
340
26
  0
BLOCK_RECORD
  5
1FA
330
1
100
AcDbSymbolTableRecord
100
AcDbBlockTableRecord
  2
ASSORTED_DRAFT1
340
0
  0
BLOCK_RECORD
  5
204
330
1
100
AcDbSymbolTableRecord
100
AcDbBlockTableRecord
  2
*D2
340
0
  0
BLOCK_RECORD
  5
210
330
1
100
AcDbSymbolTableRecord
100
AcDbBlockTableRecord
  2
_U0
340
0
  0
BLOCK_RECORD
  5
21C
330
1
100
AcDbSymbolTableRecord
100
AcDbBlockTableRecord
  2
*D4
340
0
  0
BLOCK_RECORD
  5
228
330
1
100
AcDbSymbolTableRecord
100
AcDbBlockTableRecord
  2
_U1
340
0
  0
BLOCK_RECORD
  5
234
330
1
100
AcDbSymbolTableRecord
100
AcDbBlockTableRecord
  2
*D6
340
0
  0
BLOCK_RECORD
  5
240
330
1
100
AcDbSymbolTableRecord
100
AcDbBlockTableRecord
  2
_U2
340
0
  0
BLOCK_RECORD
  5
24C
330
1
100
AcDbSymbolTableRecord
100
AcDbBlockTableRecord
  2
*D8
340
0
  0
BLOCK_RECORD
  5
258
330
1
100
AcDbSymbolTableRecord
100
AcDbBlockTableRecord
  2
_U3
340
0
  0
BLOCK_RECORD
  5
264
330
1
100
AcDbSymbolTableRecord
100
AcDbBlockTableRecord
  2
*D10
340
0
  0
BLOCK_RECORD
  5
26F
330
1
100
AcDbSymbolTableRecord
100
AcDbBlockTableRecord
  2
_U4
340
0
  0
BLOCK_RECORD
  5
27A
330
1
100
AcDbSymbolTableRecord
100
AcDbBlockTableRecord
  2
*D12
340
0
  0
BLOCK_RECORD
  5
286
330
1
100
AcDbSymbolTableRecord
100
AcDbBlockTableRecord
  2
_U5
340
0
  0
BLOCK_RECORD
  5
293
330
1
100
AcDbSymbolTableRecord
100
AcDbBlockTableRecord
  2
*D14
340
0
  0
BLOCK_RECORD
  5
29F
330
1
100
AcDbSymbolTableRecord
100
AcDbBlockTableRecord
  2
_U6
340
0
  0
ENDTAB
  0
ENDSEC
  0
SECTION
  2
BLOCKS
  0
BLOCK
  5
20
330
1F
100
AcDbEntity
  8
0
100
AcDbBlockBegin
  2
*Model_Space
 70
     0
 10
0.0
 20
0.0
 30
0.0
  3
*Model_Space
  1

  0
ENDBLK
  5
21
330
1F
100
AcDbEntity
  8
0
100
AcDbBlockEnd
  0
BLOCK
  5
1C
330
1B
100
AcDbEntity
 67
     1
  8
0
100
AcDbBlockBegin
  2
*Paper_Space
 70
     0
 10
0.0
 20
0.0
 30
0.0
  3
*Paper_Space
  1

  0
ENDBLK
  5
1D
330
1B
100
AcDbEntity
 67
     1
  8
0
100
AcDbBlockEnd
  0
BLOCK
  5
24
330
23
100
AcDbEntity
 67
     1
  8
0
100
AcDbBlockBegin
  2
*Paper_Space0
 70
     0
 10
0.0
 20
0.0
 30
0.0
  3
*Paper_Space0
  1

  0
ENDBLK
  5
25
330
23
100
AcDbEntity
 67
     1
  8
0
100
AcDbBlockEnd
  0
BLOCK
  5
1FD
330
1FA
100
AcDbEntity
  8
0
100
AcDbBlockBegin
  2
ASSORTED_DRAFT1
 70
     0
 10
0.0
 20
0.0
 30
0.0
  3
ASSORTED_DRAFT1
  1

  0
SOLID
  5
1FB
330
1FA
100
AcDbEntity
  8
0
 62
   254
370
    13
100
AcDbTrace
 10
270.185042
 20
161.034924
 30
0.0
 11
265.185046
 21
159.92645
 31
0.0
 12
265.1850379999999
 22
162.143397
 32
0.0
 13
270.185042
 23
161.034924
 33
0.0
  0
ENDBLK
  5
1FE
330
1FA
100
AcDbEntity
  8
0
100
AcDbBlockEnd
  0
BLOCK
  5
205
330
204
100
AcDbEntity
  8
0
100
AcDbBlockBegin
  2
*D2
 70
     1
 10
0.0
 20
0.0
 30
0.0
  3
*D2
  1

  0
LINE
  5
207
330
204
100
AcDbEntity
  8
0
 62
   254
370
    -2
100
AcDbLine
 10
372.904842
 20
301.157994
 30
0.0
 11
372.904842
 21
328.5109970000001
 31
0.0
  0
LINE
  5
208
330
204
100
AcDbEntity
  8
0
 62
   254
370
    -2
100
AcDbLine
 10
274.404842
 20
288.907994
 30
0.0
 11
274.404842
 21
328.5109970000001
 31
0.0
  0
LINE
  5
209
330
204
100
AcDbEntity
  8
0
 62
   254
370
    -2
100
AcDbLine
 10
369.404842
 20
327.510997
 30
0.0
 11
277.904842
 21
327.510997
 31
0.0
  0
SOLID
  5
20A
330
204
100
AcDbEntity
  8
0
 62
   254
100
AcDbTrace
 10
369.404842
 20
326.927663
 30
0.0
 11
369.404842
 21
328.09433
 31
0.0
 12
372.904842
 22
327.510997
 32
0.0
 13
372.904842
 23
327.510997
 33
0.0
  0
SOLID
  5
20B
330
204
100
AcDbEntity
  8
0
 62
   254
100
AcDbTrace
 10
277.904842
 20
328.09433
 30
0.0
 11
277.904842
 21
326.927663
 31
0.0
 12
274.404842
 22
327.510997
 32
0.0
 13
274.404842
 23
327.510997
 33
0.0
  0
MTEXT
  5
20C
330
204
100
AcDbEntity
  8
0
 62
   254
370
    13
100
AcDbMText
 10
323.654842
 20
332.7609970000001
 30
0.0
 40
3.5
 41
0.0
 71
     5
 72
     1
  1
\A1;98.5
  7
cesky
 73
     1
 44
1.0
  0
POINT
  5
20D
330
204
100
AcDbEntity
  8
Defpoints
 62
     0
100
AcDbPoint
 10
372.904842
 20
301.157994
 30
0.0
  0
POINT
  5
20E
330
204
100
AcDbEntity
  8
Defpoints
 62
     0
100
AcDbPoint
 10
274.404842
 20
288.907994
 30
0.0
  0
POINT
  5
20F
330
204
100
AcDbEntity
  8
Defpoints
 62
     0
100
AcDbPoint
 10
274.404842
 20
327.510997
 30
0.0
  0
ENDBLK
  5
206
330
204
100
AcDbEntity
  8
0
100
AcDbBlockEnd
  0
BLOCK
  5
217
330
210
100
AcDbEntity
  8
0
100
AcDbBlockBegin
  2
_U0
 70
     0
 10
0.0
 20
0.0
 30
0.0
  3
_U0
  1

  0
ENDBLK
  5
218
330
210
100
AcDbEntity
  8
0
100
AcDbBlockEnd
  0
BLOCK
  5
21D
330
21C
100
AcDbEntity
  8
0
100
AcDbBlockBegin
  2
*D4
 70
     1
 10
0.0
 20
0.0
 30
0.0
  3
*D4
  1

  0
LINE
  5
21F
330
21C
100
AcDbEntity
  8
0
 62
   254
370
    -2
100
AcDbLine
 10
372.904842
 20
303.157994
 30
0.0
 11
372.904842
 21
341.687968
 31
0.0
  0
LINE
  5
220
330
21C
100
AcDbEntity
  8
0
 62
   254
370
    -2
100
AcDbLine
 10
218.404842
 20
299.407994
 30
0.0
 11
218.404842
 21
341.687968
 31
0.0
  0
LINE
  5
221
330
21C
100
AcDbEntity
  8
0
 62
   254
370
    -2
100
AcDbLine
 10
369.404842
 20
340.687968
 30
0.0
 11
221.904842
 21
340.687968
 31
0.0
  0
SOLID
  5
222
330
21C
100
AcDbEntity
  8
0
 62
   254
100
AcDbTrace
 10
369.404842
 20
340.104634
 30
0.0
 11
369.404842
 21
341.271301
 31
0.0
 12
372.904842
 22
340.687968
 32
0.0
 13
372.904842
 23
340.687968
 33
0.0
  0
SOLID
  5
223
330
21C
100
AcDbEntity
  8
0
 62
   254
100
AcDbTrace
 10
221.904842
 20
341.271301
 30
0.0
 11
221.904842
 21
340.104634
 31
0.0
 12
218.404842
 22
340.687968
 32
0.0
 13
218.404842
 23
340.687968
 33
0.0
  0
MTEXT
  5
224
330
21C
100
AcDbEntity
  8
0
 62
   254
370
    13
100
AcDbMText
 10
295.654842
 20
345.937968
 30
0.0
 40
3.5
 41
0.0
 71
     5
 72
     1
  1
\A1;154.5
  7
cesky
 73
     1
 44
1.0
  0
POINT
  5
225
330
21C
100
AcDbEntity
  8
Defpoints
 62
     0
100
AcDbPoint
 10
372.904842
 20
303.157994
 30
0.0
  0
POINT
  5
226
330
21C
100
AcDbEntity
  8
Defpoints
 62
     0
100
AcDbPoint
 10
218.404842
 20
299.407994
 30
0.0
  0
POINT
  5
227
330
21C
100
AcDbEntity
  8
Defpoints
 62
     0
100
AcDbPoint
 10
218.404842
 20
340.687968
 30
0.0
  0
ENDBLK
  5
21E
330
21C
100
AcDbEntity
  8
0
100
AcDbBlockEnd
  0
BLOCK
  5
22F
330
228
100
AcDbEntity
  8
0
100
AcDbBlockBegin
  2
_U1
 70
     0
 10
0.0
 20
0.0
 30
0.0
  3
_U1
  1

  0
ENDBLK
  5
230
330
228
100
AcDbEntity
  8
0
100
AcDbBlockEnd
  0
BLOCK
  5
235
330
234
100
AcDbEntity
  8
0
100
AcDbBlockBegin
  2
*D6
 70
     1
 10
0.0
 20
0.0
 30
0.0
  3
*D6
  1

  0
LINE
  5
237
330
234
100
AcDbEntity
  8
0
 62
   254
370
    -2
100
AcDbLine
 10
274.404842
 20
288.907994
 30
0.0
 11
274.404842
 21
328.5109970000001
 31
0.0
  0
LINE
  5
238
330
234
100
AcDbEntity
  8
0
 62
   254
370
    -2
100
AcDbLine
 10
218.404842
 20
294.157994
 30
0.0
 11
218.404842
 21
328.5109970000001
 31
0.0
  0
LINE
  5
239
330
234
100
AcDbEntity
  8
0
 62
   254
370
    -2
100
AcDbLine
 10
270.904842
 20
327.510997
 30
0.0
 11
221.904842
 21
327.510997
 31
0.0
  0
SOLID
  5
23A
330
234
100
AcDbEntity
  8
0
 62
   254
100
AcDbTrace
 10
270.904842
 20
326.927663
 30
0.0
 11
270.904842
 21
328.09433
 31
0.0
 12
274.404842
 22
327.510997
 32
0.0
 13
274.404842
 23
327.510997
 33
0.0
  0
SOLID
  5
23B
330
234
100
AcDbEntity
  8
0
 62
   254
100
AcDbTrace
 10
221.904842
 20
328.09433
 30
0.0
 11
221.904842
 21
326.927663
 31
0.0
 12
218.404842
 22
327.510997
 32
0.0
 13
218.404842
 23
327.510997
 33
0.0
  0
MTEXT
  5
23C
330
234
100
AcDbEntity
  8
0
 62
   254
370
    13
100
AcDbMText
 10
246.404842
 20
332.7609970000001
 30
0.0
 40
3.5
 41
0.0
 71
     5
 72
     1
  1
\A1;56
  7
cesky
 73
     1
 44
1.0
  0
POINT
  5
23D
330
234
100
AcDbEntity
  8
Defpoints
 62
     0
100
AcDbPoint
 10
274.404842
 20
288.907994
 30
0.0
  0
POINT
  5
23E
330
234
100
AcDbEntity
  8
Defpoints
 62
     0
100
AcDbPoint
 10
218.404842
 20
294.157994
 30
0.0
  0
POINT
  5
23F
330
234
100
AcDbEntity
  8
Defpoints
 62
     0
100
AcDbPoint
 10
218.404842
 20
327.510997
 30
0.0
  0
ENDBLK
  5
236
330
234
100
AcDbEntity
  8
0
100
AcDbBlockEnd
  0
BLOCK
  5
247
330
240
100
AcDbEntity
  8
0
100
AcDbBlockBegin
  2
_U2
 70
     0
 10
0.0
 20
0.0
 30
0.0
  3
_U2
  1

  0
ENDBLK
  5
248
330
240
100
AcDbEntity
  8
0
100
AcDbBlockEnd
  0
BLOCK
  5
24D
330
24C
100
AcDbEntity
  8
0
100
AcDbBlockBegin
  2
*D8
 70
     1
 10
0.0
 20
0.0
 30
0.0
  3
*D8
  1

  0
LINE
  5
24F
330
24C
100
AcDbEntity
  8
0
 62
   254
370
    -2
100
AcDbLine
 10
372.904842
 20
301.157994
 30
0.0
 11
372.904842
 21
317.275348
 31
0.0
  0
LINE
  5
250
330
24C
100
AcDbEntity
  8
0
 62
   254
370
    -2
100
AcDbLine
 10
294.16521
 20
301.230388
 30
0.0
 11
294.16521
 21
317.275348
 31
0.0
  0
LINE
  5
251
330
24C
100
AcDbEntity
  8
0
 62
   254
370
    -2
100
AcDbLine
 10
369.404842
 20
316.275348
 30
0.0
 11
297.66521
 21
316.275348
 31
0.0
  0
SOLID
  5
252
330
24C
100
AcDbEntity
  8
0
 62
   254
100
AcDbTrace
 10
369.404842
 20
315.692015
 30
0.0
 11
369.404842
 21
316.858681
 31
0.0
 12
372.904842
 22
316.275348
 32
0.0
 13
372.904842
 23
316.275348
 33
0.0
  0
SOLID
  5
253
330
24C
100
AcDbEntity
  8
0
 62
   254
100
AcDbTrace
 10
297.66521
 20
316.858681
 30
0.0
 11
297.66521
 21
315.692015
 31
0.0
 12
294.16521
 22
316.275348
 32
0.0
 13
294.16521
 23
316.275348
 33
0.0
  0
MTEXT
  5
254
330
24C
100
AcDbEntity
  8
0
 62
   254
370
    13
100
AcDbMText
 10
333.535026
 20
321.525348
 30
0.0
 40
3.5
 41
0.0
 71
     5
 72
     1
  1
\A1;78.7
  7
cesky
 73
     1
 44
1.0
  0
POINT
  5
255
330
24C
100
AcDbEntity
  8
Defpoints
 62
     0
100
AcDbPoint
 10
372.904842
 20
301.157994
 30
0.0
  0
POINT
  5
256
330
24C
100
AcDbEntity
  8
Defpoints
 62
     0
100
AcDbPoint
 10
294.16521
 20
301.230388
 30
0.0
  0
POINT
  5
257
330
24C
100
AcDbEntity
  8
Defpoints
 62
     0
100
AcDbPoint
 10
294.16521
 20
316.275348
 30
0.0
  0
ENDBLK
  5
24E
330
24C
100
AcDbEntity
  8
0
100
AcDbBlockEnd
  0
BLOCK
  5
25F
330
258
100
AcDbEntity
  8
0
100
AcDbBlockBegin
  2
_U3
 70
     0
 10
0.0
 20
0.0
 30
0.0
  3
_U3
  1

  0
ENDBLK
  5
260
330
258
100
AcDbEntity
  8
0
100
AcDbBlockEnd
  0
BLOCK
  5
265
330
264
100
AcDbEntity
  8
0
100
AcDbBlockBegin
  2
*D10
 70
     1
 10
0.0
 20
0.0
 30
0.0
  3
*D10
  1

  0
LINE
  5
267
330
264
100
AcDbEntity
  8
0
 62
   254
370
    -2
100
AcDbLine
 10
291.782259
 20
288.907994
 30
0.0
 11
387.774856
 21
288.907994
 31
0.0
  0
LINE
  5
268
330
264
100
AcDbEntity
  8
0
 62
   254
370
    -2
100
AcDbLine
 10
330.83929
 20
301.157994
 30
0.0
 11
387.774856
 21
301.157994
 31
0.0
  0
LINE
  5
269
330
264
100
AcDbEntity
  8
0
 62
   254
370
    -2
100
AcDbLine
 10
386.774856
 20
304.657994
 30
0.0
 11
386.774856
 21
308.157994
 31
0.0
  0
SOLID
  5
26A
330
264
100
AcDbEntity
  8
0
 62
   254
100
AcDbTrace
 10
386.191523
 20
304.657994
 30
0.0
 11
387.35819
 21
304.657994
 31
0.0
 12
386.774856
 22
301.157994
 32
0.0
 13
386.774856
 23
301.157994
 33
0.0
  0
MTEXT
  5
26B
330
264
100
AcDbEntity
  8
0
 62
   254
370
    13
100
AcDbMText
 10
381.524856
 20
273.07466
 30
0.0
 40
3.5
 41
0.0
 71
     5
 72
     1
  1
\A1;24.5
  7
cesky
 11
0.0
 21
1.0
 31
0.0
 73
     1
 44
1.0
  0
POINT
  5
26C
330
264
100
AcDbEntity
  8
Defpoints
 62
     0
100
AcDbPoint
 10
291.782259
 20
288.907994
 30
0.0
  0
POINT
  5
26D
330
264
100
AcDbEntity
  8
Defpoints
 62
     0
100
AcDbPoint
 10
330.83929
 20
301.157994
 30
0.0
  0
POINT
  5
26E
330
264
100
AcDbEntity
  8
Defpoints
 62
     0
100
AcDbPoint
 10
386.774856
 20
301.157994
 30
0.0
  0
ENDBLK
  5
266
330
264
100
AcDbEntity
  8
0
100
AcDbBlockEnd
  0
BLOCK
  5
275
330
26F
100
AcDbEntity
  8
0
100
AcDbBlockBegin
  2
_U4
 70
     0
 10
0.0
 20
0.0
 30
0.0
  3
_U4
  1

  0
ENDBLK
  5
276
330
26F
100
AcDbEntity
  8
0
100
AcDbBlockEnd
  0
BLOCK
  5
27B
330
27A
100
AcDbEntity
  8
0
100
AcDbBlockBegin
  2
*D12
 70
     1
 10
0.0
 20
0.0
 30
0.0
  3
*D12
  1

  0
LINE
  5
27D
330
27A
100
AcDbEntity
  8
0
 62
    95
370
    -2
100
AcDbLine
 10
220.404842
 20
301.407994
 30
0.0
 11
205.304739
 21
301.407994
 31
0.0
  0
LINE
  5
27E
330
27A
100
AcDbEntity
  8
0
 62
    95
370
    -2
100
AcDbLine
 10
220.404842
 20
276.407994
 30
0.0
 11
205.304739
 21
276.407994
 31
0.0
  0
LINE
  5
27F
330
27A
100
AcDbEntity
  8
0
 62
    95
370
    -2
100
AcDbLine
 10
206.304739
 20
297.907994
 30
0.0
 11
206.304739
 21
279.907994
 31
0.0
  0
SOLID
  5
280
330
27A
100
AcDbEntity
  8
0
 62
    95
100
AcDbTrace
 10
206.888073
 20
297.907994
 30
0.0
 11
205.721406
 21
297.907994
 31
0.0
 12
206.304739
 22
301.407994
 32
0.0
 13
206.304739
 23
301.407994
 33
0.0
  0
SOLID
  5
281
330
27A
100
AcDbEntity
  8
0
 62
    95
100
AcDbTrace
 10
205.721406
 20
279.907994
 30
0.0
 11
206.888073
 21
279.907994
 31
0.0
 12
206.304739
 22
276.407994
 32
0.0
 13
206.304739
 23
276.407994
 33
0.0
  0
MTEXT
  5
282
330
27A
100
AcDbEntity
  8
0
 62
    95
370
    13
100
AcDbMText
 10
201.054739
 20
288.907994
 30
0.0
 40
3.5
 41
0.0
 71
     5
 72
     1
  1
\A1;25
  7
cesky
 11
0.0
 21
1.0
 31
0.0
 73
     1
 44
1.0
  0
POINT
  5
283
330
27A
100
AcDbEntity
  8
Defpoints
 62
     0
100
AcDbPoint
 10
220.404842
 20
301.407994
 30
0.0
  0
POINT
  5
284
330
27A
100
AcDbEntity
  8
Defpoints
 62
     0
100
AcDbPoint
 10
220.404842
 20
276.407994
 30
0.0
  0
POINT
  5
285
330
27A
100
AcDbEntity
  8
Defpoints
 62
     0
100
AcDbPoint
 10
206.304739
 20
276.407994
 30
0.0
  0
ENDBLK
  5
27C
330
27A
100
AcDbEntity
  8
0
100
AcDbBlockEnd
  0
BLOCK
  5
28E
330
286
100
AcDbEntity
  8
0
100
AcDbBlockBegin
  2
_U5
 70
     0
 10
0.0
 20
0.0
 30
0.0
  3
_U5
  1

  0
ENDBLK
  5
28F
330
286
100
AcDbEntity
  8
0
100
AcDbBlockEnd
  0
BLOCK
  5
294
330
293
100
AcDbEntity
  8
0
100
AcDbBlockBegin
  2
*D14
 70
     1
 10
0.0
 20
0.0
 30
0.0
  3
*D14
  1

  0
LINE
  5
296
330
293
100
AcDbEntity
  8
0
 62
    95
370
    -2
100
AcDbLine
 10
277.154842
 20
306.407994
 30
0.0
 11
192.519918
 21
306.407994
 31
0.0
  0
LINE
  5
297
330
293
100
AcDbEntity
  8
0
 62
    95
370
    -2
100
AcDbLine
 10
277.154842
 20
271.407994
 30
0.0
 11
192.519918
 21
271.407994
 31
0.0
  0
LINE
  5
298
330
293
100
AcDbEntity
  8
0
 62
    95
370
    -2
100
AcDbLine
 10
193.519918
 20
302.907994
 30
0.0
 11
193.519918
 21
274.907994
 31
0.0
  0
SOLID
  5
299
330
293
100
AcDbEntity
  8
0
 62
    95
100
AcDbTrace
 10
194.103251
 20
302.907994
 30
0.0
 11
192.936584
 21
302.907994
 31
0.0
 12
193.519918
 22
306.407994
 32
0.0
 13
193.519918
 23
306.407994
 33
0.0
  0
SOLID
  5
29A
330
293
100
AcDbEntity
  8
0
 62
    95
100
AcDbTrace
 10
192.936584
 20
274.907994
 30
0.0
 11
194.103251
 21
274.907994
 31
0.0
 12
193.519918
 22
271.407994
 32
0.0
 13
193.519918
 23
271.407994
 33
0.0
  0
MTEXT
  5
29B
330
293
100
AcDbEntity
  8
0
 62
    95
370
    13
100
AcDbMText
 10
188.269918
 20
288.907994
 30
0.0
 40
3.5
 41
0.0
 71
     5
 72
     1
  1
\A1;35
  7
cesky
 11
0.0
 21
1.0
 31
0.0
 73
     1
 44
1.0
  0
POINT
  5
29C
330
293
100
AcDbEntity
  8
Defpoints
 62
     0
100
AcDbPoint
 10
277.154842
 20
306.407994
 30
0.0
  0
POINT
  5
29D
330
293
100
AcDbEntity
  8
Defpoints
 62
     0
100
AcDbPoint
 10
277.154842
 20
271.407994
 30
0.0
  0
POINT
  5
29E
330
293
100
AcDbEntity
  8
Defpoints
 62
     0
100
AcDbPoint
 10
193.519918
 20
271.407994
 30
0.0
  0
ENDBLK
  5
295
330
293
100
AcDbEntity
  8
0
100
AcDbBlockEnd
  0
BLOCK
  5
2A7
330
29F
100
AcDbEntity
  8
0
100
AcDbBlockBegin
  2
_U6
 70
     0
 10
0.0
 20
0.0
 30
0.0
  3
_U6
  1

  0
ENDBLK
  5
2A8
330
29F
100
AcDbEntity
  8
0
100
AcDbBlockEnd
  0
ENDSEC
  0
SECTION
  2
ENTITIES
  0
POINT
  5
73
102
{ACAD_REACTORS
330
350
102
}
330
1F
100
AcDbEntity
  8
80
100
AcDbPoint
 10
274.404842
 20
288.907994
 30
0.0
  0
POINT
  5
76
330
1F
100
AcDbEntity
  8
SK4
 60
     1
100
AcDbPoint
 10
220.404842
 20
288.907994
 30
0.0
  0
POINT
  5
78
330
1F
100
AcDbEntity
  8
SK4
 60
     1
100
AcDbPoint
 10
274.404842
 20
288.907994
 30
0.0
  0
POINT
  5
79
330
1F
100
AcDbEntity
  8
4
 60
     1
100
AcDbPoint
 10
291.782259
 20
288.907994
 30
0.0
  0
POINT
  5
7A
330
1F
100
AcDbEntity
  8
4
 60
     1
100
AcDbPoint
 10
371.99873
 20
288.907994
 30
0.0
  0
POINT
  5
7B
330
1F
100
AcDbEntity
  8
SK6
 60
     1
100
AcDbPoint
 10
274.404842
 20
288.907994
 30
0.0
  0
POINT
  5
7C
330
1F
100
AcDbEntity
  8
SK6
 60
     1
100
AcDbPoint
 10
294.16521
 20
301.230388
 30
0.0
  0
LINE
  5
7D
330
1F
100
AcDbEntity
  8
80
100
AcDbLine
 10
274.404842
 20
287.90842
 30
0.0
 11
274.404842
 21
289.907567
 31
0.0
  0
LINE
  5
7E
330
1F
100
AcDbEntity
  8
SK1
100
AcDbLine
 10
220.404842
 20
276.407994
 30
0.0
 11
274.404842
 21
276.407994
 31
0.0
  0
LINE
  5
80
330
1F
100
AcDbEntity
  8
81
100
AcDbLine
 10
372.904842
 20
303.157994
 30
0.0
 11
372.904842
 21
299.157994
 31
0.0
  0
LINE
  5
81
330
1F
100
AcDbEntity
  8
81
100
AcDbLine
 10
370.904842
 20
301.157994
 30
0.0
 11
374.904842
 21
301.157994
 31
0.0
  0
LINE
  5
82
330
1F
100
AcDbEntity
  8
1
100
AcDbLine
 10
274.904842
 20
271.407994
 30
0.0
 11
279.404842
 21
271.407994
 31
0.0
  0
LINE
  5
83
330
1F
100
AcDbEntity
  8
1
100
AcDbLine
 10
274.404842
 20
305.907994
 30
0.0
 11
274.404842
 21
288.907994
 31
0.0
  0
LINE
  5
84
330
1F
100
AcDbEntity
  8
1
100
AcDbLine
 10
274.404842
 20
288.907994
 30
0.0
 11
274.404842
 21
271.907994
 31
0.0
  0
LINE
  5
85
330
1F
100
AcDbEntity
  8
1
100
AcDbLine
 10
367.302397
 20
296.243452
 30
0.0
 11
367.327197
 21
296.326397
 31
0.0
  0
LINE
  5
87
330
1F
100
AcDbEntity
  8
1
100
AcDbLine
 10
368.870644
 20
295.795469
 30
0.0
 11
368.864414
 21
295.78888
 31
0.0
  0
LINE
  5
88
330
1F
100
AcDbEntity
  8
1
100
AcDbLine
 10
367.624153
 20
297.6989450000001
 30
0.0
 11
367.649013
 21
297.782089
 31
0.0
  0
LINE
  5
89
330
1F
100
AcDbEntity
  8
1
100
AcDbLine
 10
369.190336
 20
297.454702
 30
0.0
 11
369.165536
 21
297.371757
 31
0.0
  0
LINE
  5
8A
330
1F
100
AcDbEntity
  8
80
100
AcDbLine
 10
275.404416
 20
288.907994
 30
0.0
 11
273.405268
 21
288.907994
 31
0.0
  0
LINE
  5
8B
330
1F
100
AcDbEntity
  8
CUT
100
AcDbLine
 10
372.904842
 20
289.81769
 30
0.0
 11
372.904842
 21
288.907994
 31
0.0
  0
LINE
  5
8D
330
1F
100
AcDbEntity
  8
1
100
AcDbLine
 10
371.391462
 20
283.126756
 30
0.0
 11
371.418712
 21
283.141861
 31
0.0
  0
LINE
  5
8F
330
1F
100
AcDbEntity
  8
1
100
AcDbLine
 10
291.782259
 20
277.157994
 30
0.0
 11
293.798408
 21
277.157994
 31
0.0
  0
LINE
  5
90
330
1F
100
AcDbEntity
  8
1
100
AcDbLine
 10
364.431188
 20
300.657994
 30
0.0
 11
358.162173
 21
300.657994
 31
0.0
  0
LINE
  5
91
330
1F
100
AcDbEntity
  8
1
100
AcDbLine
 10
302.678244
 20
300.657994
 30
0.0
 11
291.782259
 21
300.657994
 31
0.0
  0
LINE
  5
92
330
1F
100
AcDbEntity
  8
1
100
AcDbLine
 10
371.815342
 20
289.362516
 30
0.0
 11
372.319673
 21
289.059483
 31
0.0
  0
LINE
  5
93
330
1F
100
AcDbEntity
  8
1
100
AcDbLine
 10
371.838341
 20
282.707322
 30
0.0
 11
371.31624
 21
282.417916
 31
0.0
  0
LINE
  5
94
330
1F
100
AcDbEntity
  8
1
100
AcDbLine
 10
371.583862
 20
288.889548
 30
0.0
 11
371.928971
 21
288.682186
 31
0.0
  0
LINE
  5
95
330
1F
100
AcDbEntity
  8
1
100
AcDbLine
 10
371.720443
 20
283.644026
 30
0.0
 11
371.791699
 21
287.726272
 31
0.0
  0
LINE
  5
96
330
1F
100
AcDbEntity
  8
1
100
AcDbLine
 10
372.377836
 20
287.872412
 30
0.0
 11
372.301122
 21
283.477519
 31
0.0
  0
LINE
  5
97
330
1F
100
AcDbEntity
  8
1
100
AcDbLine
 10
372.301122
 20
283.477519
 30
0.0
 11
371.720443
 21
283.644026
 31
0.0
  0
LINE
  5
98
330
1F
100
AcDbEntity
  8
1
100
AcDbLine
 10
371.418712
 20
283.141861
 30
0.0
 11
371.720443
 21
283.644026
 31
0.0
  0
LINE
  5
99
330
1F
100
AcDbEntity
  8
1
100
AcDbLine
 10
371.838341
 20
282.707322
 30
0.0
 11
371.418712
 21
283.141861
 31
0.0
  0
LINE
  5
9A
330
1F
100
AcDbEntity
  8
1
100
AcDbLine
 10
372.301122
 20
283.477519
 30
0.0
 11
371.838341
 21
282.707322
 31
0.0
  0
LINE
  5
9B
330
1F
100
AcDbEntity
  8
1
100
AcDbLine
 10
371.928971
 20
288.682186
 30
0.0
 11
371.5838720000001
 21
288.348929
 31
0.0
  0
LINE
  5
9C
330
1F
100
AcDbEntity
  8
1
100
AcDbLine
 10
371.791699
 20
287.726272
 30
0.0
 11
371.5838720000001
 21
288.101202
 31
0.0
  0
LINE
  5
9D
330
1F
100
AcDbEntity
  8
1
100
AcDbLine
 10
372.377836
 20
287.872412
 30
0.0
 11
371.791699
 21
287.726272
 31
0.0
  0
LINE
  5
9E
330
1F
100
AcDbEntity
  8
1
100
AcDbLine
 10
371.928971
 20
288.682186
 30
0.0
 11
372.377836
 21
287.872412
 31
0.0
  0
LINE
  5
9F
330
1F
100
AcDbEntity
  8
1
100
AcDbLine
 10
372.904842
 20
288.00381
 30
0.0
 11
372.8232220000001
 21
283.327809
 31
0.0
  0
LINE
  5
A0
330
1F
100
AcDbEntity
  8
1
100
AcDbLine
 10
367.726664
 20
295.8673819999999
 30
0.0
 11
367.702269
 21
295.785791
 31
0.0
  0
LINE
  5
A1
330
1F
100
AcDbEntity
  8
1
100
AcDbLine
 10
367.628024
 20
297.723741
 30
0.0
 11
367.652757
 21
297.806461
 31
0.0
  0
LINE
  5
A2
330
1F
100
AcDbEntity
  8
1
100
AcDbLine
 10
367.051419
 20
296.850114
 30
0.0
 11
367.0273620000001
 21
296.769656
 31
0.0
  0
LINE
  5
A3
330
1F
100
AcDbEntity
  8
1
100
AcDbLine
 10
367.136354
 20
296.8358
 30
0.0
 11
367.111771
 21
296.753584
 31
0.0
  0
LINE
  5
A4
330
1F
100
AcDbEntity
  8
1
100
AcDbLine
 10
369.318571
 20
296.264716
 30
0.0
 11
369.342592
 21
296.345054
 31
0.0
  0
LINE
  5
A5
330
1F
100
AcDbEntity
  8
1
100
AcDbLine
 10
369.22695
 20
296.285366
 30
0.0
 11
369.251548
 21
296.367637
 31
0.0
  0
LINE
  5
A6
330
1F
100
AcDbEntity
  8
1
100
AcDbLine
 10
368.283928
 20
295.669296
 30
0.0
 11
368.308406
 21
295.7511629999999
 31
0.0
  0
LINE
  5
A7
330
1F
100
AcDbEntity
  8
1
100
AcDbLine
 10
362.011734
 20
290.790252
 30
0.0
 11
362.032496
 21
290.183415
 31
0.0
  0
LINE
  5
A8
330
1F
100
AcDbEntity
  8
1
100
AcDbLine
 10
370.315323
 20
292.288435
 30
0.0
 11
365.60604
 21
292.083133
 31
0.0
  0
LINE
  5
A9
330
1F
100
AcDbEntity
  8
1
100
AcDbLine
 10
285.154842
 20
300.594902
 30
0.0
 11
285.154842
 21
288.05157
 31
0.0
  0
LINE
  5
AA
330
1F
100
AcDbEntity
  8
1
100
AcDbLine
 10
368.84378
 20
295.916264
 30
0.0
 11
368.86864
 21
295.9994089999999
 31
0.0
  0
LINE
  5
AB
330
1F
100
AcDbEntity
  8
1
100
AcDbLine
 10
274.904842
 20
271.407994
 30
0.0
 11
274.904842
 21
288.907994
 31
0.0
  0
LINE
  5
AC
330
1F
100
AcDbEntity
  8
1
100
AcDbLine
 10
274.904842
 20
288.907994
 30
0.0
 11
274.904842
 21
306.407994
 31
0.0
  0
LINE
  5
AD
330
1F
100
AcDbEntity
  8
1
100
AcDbLine
 10
279.404842
 20
271.407994
 30
0.0
 11
279.404842
 21
274.887843
 31
0.0
  0
LINE
  5
AE
330
1F
100
AcDbEntity
  8
1
100
AcDbLine
 10
279.404842
 20
306.407994
 30
0.0
 11
279.404842
 21
283.082318
 31
0.0
  0
LINE
  5
AF
330
1F
100
AcDbEntity
  8
1
100
AcDbLine
 10
370.248742
 20
296.215341
 30
0.0
 11
370.263391
 21
296.264335
 31
0.0
  0
LINE
  5
B0
330
1F
100
AcDbEntity
  8
SK1
100
AcDbLine
 10
218.404842
 20
278.407994
 30
0.0
 11
220.404842
 21
276.407994
 31
0.0
  0
LINE
  5
B1
330
1F
100
AcDbEntity
  8
SK1
100
AcDbLine
 10
220.404842
 20
301.407994
 30
0.0
 11
218.404842
 21
299.407994
 31
0.0
  0
LINE
  5
B2
330
1F
100
AcDbEntity
  8
1
100
AcDbLine
 10
279.404842
 20
271.407994
 30
0.0
 11
280.46855
 21
272.471702
 31
0.0
  0
LINE
  5
B3
330
1F
100
AcDbEntity
  8
1
100
AcDbLine
 10
280.46855
 20
305.344285
 30
0.0
 11
279.404842
 21
306.407994
 31
0.0
  0
LINE
  5
B4
330
1F
100
AcDbEntity
  8
SK1
100
AcDbLine
 10
274.404842
 20
301.407994
 30
0.0
 11
220.404842
 21
301.407994
 31
0.0
  0
LINE
  5
B5
330
1F
100
AcDbEntity
  8
1
100
AcDbLine
 10
274.904842
 20
271.407994
 30
0.0
 11
274.404842
 21
271.907994
 31
0.0
  0
LINE
  5
B6
330
1F
100
AcDbEntity
  8
1
100
AcDbLine
 10
274.404842
 20
305.907994
 30
0.0
 11
274.904842
 21
306.407994
 31
0.0
  0
LINE
  5
B7
330
1F
100
AcDbEntity
  8
1
100
AcDbLine
 10
279.404842
 20
306.407994
 30
0.0
 11
274.904842
 21
306.407994
 31
0.0
  0
LINE
  5
BA
330
1F
100
AcDbEntity
  8
1
100
AcDbLine
 10
365.739546
 20
299.316274
 30
0.0
 11
370.733803
 21
299.534
 31
0.0
  0
LINE
  5
BB
330
1F
100
AcDbEntity
  8
1
100
AcDbLine
 10
365.9626970000001
 20
294.329533
 30
0.0
 11
365.739546
 21
299.316274
 31
0.0
  0
LINE
  5
BC
330
1F
100
AcDbEntity
  8
1
100
AcDbLine
 10
370.956954
 20
294.547259
 30
0.0
 11
365.9626970000001
 21
294.329533
 31
0.0
  0
LINE
  5
BD
330
1F
100
AcDbEntity
  8
1
100
AcDbLine
 10
370.733803
 20
299.534
 30
0.0
 11
370.956954
 21
294.547259
 31
0.0
  0
LINE
  5
BE
330
1F
100
AcDbEntity
  8
1
100
AcDbLine
 10
372.171987
 20
300.304924
 30
0.0
 11
372.457628
 21
293.921721
 31
0.0
  0
LINE
  5
BF
330
1F
100
AcDbEntity
  8
1
100
AcDbLine
 10
364.977338
 20
300.759141
 30
0.0
 11
371.370163
 21
301.037838
 31
0.0
  0
LINE
  5
C0
330
1F
100
AcDbEntity
  8
1
100
AcDbLine
 10
364.529745
 20
293.576103
 30
0.0
 11
364.244103
 21
299.9593069999999
 31
0.0
  0
LINE
  5
C1
330
1F
100
AcDbEntity
  8
1
100
AcDbLine
 10
371.724393
 20
293.1218859999999
 30
0.0
 11
365.331568
 21
292.843189
 31
0.0
  0
LINE
  5
C2
330
1F
100
AcDbEntity
  8
1
100
AcDbLine
 10
372.8232220000001
 20
283.327809
 30
0.0
 11
372.215638
 21
282.31662
 31
0.0
  0
LINE
  5
C3
330
1F
100
AcDbEntity
  8
1
100
AcDbLine
 10
372.301122
 20
283.477519
 30
0.0
 11
372.8232220000001
 21
283.327809
 31
0.0
  0
LINE
  5
C4
330
1F
100
AcDbEntity
  8
1
100
AcDbLine
 10
372.377836
 20
287.872412
 30
0.0
 11
372.904842
 21
288.00381
 31
0.0
  0
LINE
  5
C5
330
1F
100
AcDbEntity
  8
1
100
AcDbLine
 10
372.319673
 20
289.059483
 30
0.0
 11
372.904842
 21
288.00381
 31
0.0
  0
LINE
  5
C6
330
1F
100
AcDbEntity
  8
1
100
AcDbLine
 10
371.838341
 20
282.707322
 30
0.0
 11
372.215638
 21
282.31662
 31
0.0
  0
LINE
  5
C7
330
1F
100
AcDbEntity
  8
1
100
AcDbLine
 10
372.215638
 20
282.31662
 30
0.0
 11
371.472131
 21
281.904487
 31
0.0
  0
LINE
  5
C8
330
1F
100
AcDbEntity
  8
1
100
AcDbLine
 10
371.928971
 20
288.682186
 30
0.0
 11
372.319673
 21
289.059483
 31
0.0
  0
LINE
  5
C9
330
1F
100
AcDbEntity
  8
1
100
AcDbLine
 10
364.4906259999999
 20
300.544332
 30
0.0
 11
364.48598
 21
300.651658
 31
0.0
  0
LINE
  5
CA
330
1F
100
AcDbEntity
  8
1
100
AcDbLine
 10
365.920589
 20
292.663254
 30
0.0
 11
371.859567
 21
292.922165
 31
0.0
  0
LINE
  5
CB
330
1F
100
AcDbEntity
  8
1
100
AcDbLine
 10
371.860113
 20
292.855428
 30
0.0
 11
371.859567
 21
292.922165
 31
0.0
  0
LINE
  5
CC
330
1F
100
AcDbEntity
  8
1
100
AcDbLine
 10
371.780609
 20
292.317933
 30
0.0
 11
365.613326
 21
292.049069
 31
0.0
  0
LINE
  5
CD
330
1F
100
AcDbEntity
  8
1
100
AcDbLine
 10
371.780609
 20
292.317933
 30
0.0
 11
370.400887
 21
290.019092
 31
0.0
  0
LINE
  5
CE
330
1F
100
AcDbEntity
  8
1
100
AcDbLine
 10
371.901547
 20
292.941261
 30
0.0
 11
365.925819
 21
292.680748
 31
0.0
  0
LINE
  5
CF
330
1F
100
AcDbEntity
  8
1
100
AcDbLine
 10
365.920589
 20
292.663254
 30
0.0
 11
365.925819
 21
292.680748
 31
0.0
  0
LINE
  5
D0
330
1F
100
AcDbEntity
  8
1
100
AcDbLine
 10
371.62603
 20
289.292145
 30
0.0
 11
371.761672
 21
289.289778
 31
0.0
  0
LINE
  5
D1
330
1F
100
AcDbEntity
  8
1
100
AcDbLine
 10
371.761672
 20
289.289778
 30
0.0
 11
372.00268
 21
289.61637
 31
0.0
  0
LINE
  5
D2
330
1F
100
AcDbEntity
  8
1
100
AcDbLine
 10
372.00268
 20
289.8549799999999
 30
0.0
 11
372.00268
 21
289.61637
 31
0.0
  0
LINE
  5
D3
330
1F
100
AcDbEntity
  8
1
100
AcDbLine
 10
372.00268
 20
289.8549799999999
 30
0.0
 11
372.044842
 21
289.854244
 31
0.0
  0
LINE
  5
D4
330
1F
100
AcDbEntity
  8
1
100
AcDbLine
 10
372.044842
 20
293.2204290000001
 30
0.0
 11
372.044842
 21
289.854244
 31
0.0
  0
LINE
  5
D5
330
1F
100
AcDbEntity
  8
1
100
AcDbLine
 10
371.901547
 20
292.941261
 30
0.0
 11
371.8997129999999
 21
293.165284
 31
0.0
  0
LINE
  5
D6
330
1F
100
AcDbEntity
  8
1
100
AcDbLine
 10
371.901547
 20
292.941261
 30
0.0
 11
371.859567
 21
292.922165
 31
0.0
  0
LINE
  5
D7
330
1F
100
AcDbEntity
  8
1
100
AcDbLine
 10
371.780609
 20
292.317933
 30
0.0
 11
371.794237
 21
292.324132
 31
0.0
  0
LINE
  5
D8
330
1F
100
AcDbEntity
  8
1
100
AcDbLine
 10
371.218936
 20
277.157994
 30
0.0
 11
371.666696
 21
281.376686
 31
0.0
  0
LINE
  5
D9
330
1F
100
AcDbEntity
  8
1
100
AcDbLine
 10
371.666696
 20
281.376686
 30
0.0
 11
371.624605
 21
281.37736
 31
0.0
  0
LINE
  5
DA
330
1F
100
AcDbEntity
  8
1
100
AcDbLine
 10
371.6498870000001
 20
281.61556
 30
0.0
 11
371.624605
 21
281.37736
 31
0.0
  0
LINE
  5
DB
330
1F
100
AcDbEntity
  8
1
100
AcDbLine
 10
371.6498870000001
 20
281.61556
 30
0.0
 11
371.444337
 21
281.94964
 31
0.0
  0
LINE
  5
DC
330
1F
100
AcDbEntity
  8
1
100
AcDbLine
 10
371.444337
 20
281.94964
 30
0.0
 11
371.308926
 21
281.951806
 31
0.0
  0
LINE
  5
DD
330
1F
100
AcDbEntity
  8
1
100
AcDbLine
 10
371.298626
 20
282.252009
 30
0.0
 11
371.583868
 21
284.939494
 31
0.0
  0
LINE
  5
DE
330
1F
100
AcDbEntity
  8
1
100
AcDbLine
 10
370.490524
 20
284.939494
 30
0.0
 11
371.583868
 21
284.939494
 31
0.0
  0
LINE
  5
DF
330
1F
100
AcDbEntity
  8
1
100
AcDbLine
 10
371.583868
 20
284.939494
 30
0.0
 11
371.583868
 21
288.992836
 31
0.0
  0
LINE
  5
E0
330
1F
100
AcDbEntity
  8
1
100
AcDbLine
 10
364.264075
 20
300.151032
 30
0.0
 11
364.245409
 21
300.582221
 31
0.0
  0
LINE
  5
E1
330
1F
100
AcDbEntity
  8
SK1
100
AcDbLine
 10
220.404842
 20
301.407994
 30
0.0
 11
220.404842
 21
276.407994
 31
0.0
  0
LINE
  5
E2
330
1F
100
AcDbEntity
  8
SK1
100
AcDbLine
 10
218.404842
 20
299.407994
 30
0.0
 11
218.404842
 21
278.407994
 31
0.0
  0
LINE
  5
E3
330
1F
100
AcDbEntity
  8
1
100
AcDbLine
 10
364.299448
 20
294.149648
 30
0.0
 11
364.294218
 21
294.132154
 31
0.0
  0
LINE
  5
E4
330
1F
100
AcDbEntity
  8
1
100
AcDbLine
 10
364.299448
 20
294.149648
 30
0.0
 11
364.020962
 21
300.5826649999999
 31
0.0
  0
LINE
  5
E5
330
1F
100
AcDbEntity
  8
1
100
AcDbLine
 10
364.016611
 20
300.544856
 30
0.0
 11
364.294218
 21
294.132154
 31
0.0
  0
LINE
  5
E6
330
1F
100
AcDbEntity
  8
1
100
AcDbLine
 10
371.218936
 20
277.157994
 30
0.0
 11
359.851986
 21
277.157994
 31
0.0
  0
LINE
  5
129
330
1F
100
AcDbEntity
  8
NOCUT
100
AcDbLine
 10
218.404842
 20
299.407994
 30
0.0
 11
218.404842
 21
288.907994
 31
0.0
  0
LINE
  5
12A
330
1F
100
AcDbEntity
  8
NOCUT
100
AcDbLine
 10
279.404842
 20
306.407994
 30
0.0
 11
274.904842
 21
306.407994
 31
0.0
  0
LINE
  5
12B
330
1F
100
AcDbEntity
  8
NOCUT
100
AcDbLine
 10
274.404842
 20
301.407994
 30
0.0
 11
220.404842
 21
301.407994
 31
0.0
  0
LINE
  5
12C
330
1F
100
AcDbEntity
  8
NOCUT
100
AcDbLine
 10
279.404842
 20
306.407994
 30
0.0
 11
280.46855
 21
305.344285
 31
0.0
  0
LINE
  5
12D
330
1F
100
AcDbEntity
  8
NOCUT
100
AcDbLine
 10
291.782259
 20
300.657994
 30
0.0
 11
371.727149
 21
300.657994
 31
0.0
  0
LINE
  5
12E
330
1F
100
AcDbEntity
  8
NOCUT
100
AcDbLine
 10
371.727149
 20
300.657994
 30
0.0
 11
372.044842
 21
293.440886
 31
0.0
  0
LINE
  5
12F
330
1F
100
AcDbEntity
  8
NOCUT
100
AcDbLine
 10
372.044842
 20
293.440886
 30
0.0
 11
372.044842
 21
288.907994
 31
0.0
  0
LINE
  5
130
330
1F
100
AcDbEntity
  8
NOCUT
100
AcDbLine
 10
372.044842
 20
288.907994
 30
0.0
 11
218.404842
 21
288.907994
 31
0.0
  0
LINE
  5
131
330
1F
100
AcDbEntity
  8
NOCUT
100
AcDbLine
 10
218.404842
 20
299.407994
 30
0.0
 11
220.404842
 21
301.407994
 31
0.0
  0
LINE
  5
132
330
1F
100
AcDbEntity
  8
NOCUT
100
AcDbLine
 10
274.404842
 20
301.407994
 30
0.0
 11
274.404842
 21
305.907994
 31
0.0
  0
LINE
  5
133
330
1F
100
AcDbEntity
  8
NOCUT
100
AcDbLine
 10
274.404842
 20
305.907994
 30
0.0
 11
274.904842
 21
306.407994
 31
0.0
  0
ARC
  5
13C
330
1F
100
AcDbEntity
  8
1
100
AcDbCircle
 10
368.778336
 20
285.862145
 30
0.0
 40
1.25
100
AcDbArc
 50
75.0
 51
345.0
  0
ARC
  5
13D
330
1F
100
AcDbEntity
  8
1
100
AcDbCircle
 10
291.782259
 20
261.157994
 30
0.0
 40
16.0
100
AcDbArc
 50
90.0
 51
135.0
  0
CIRCLE
  5
13E
330
1F
100
AcDbEntity
  8
1
100
AcDbCircle
 10
368.778336
 20
285.862145
 30
0.0
 40
0.8499999999999991
  0
ARC
  5
13F
330
1F
100
AcDbEntity
  8
1
100
AcDbCircle
 10
291.782259
 20
316.657994
 30
0.0
 40
16.0
100
AcDbArc
 50
225.0
 51
270.0
  0
ARC
  5
14E
330
1F
100
AcDbEntity
  8
NOCUT
100
AcDbCircle
 10
291.782259
 20
316.657994
 30
0.0
 40
16.0
100
AcDbArc
 50
225.0
 51
270.0
  0
ELLIPSE
  5
14F
330
1F
100
AcDbEntity
  8
1
100
AcDbEllipse
 10
365.237438
 20
290.916028
 30
0.0
 11
-1.71608703628758
 21
-0.0826238034675171
 31
0.0
210
0.0
220
0.0
230
1.0
 40
0.221493
 41
1.811347400543399
 42
4.465676158571232
  0
ELLIPSE
  5
150
330
1F
100
AcDbEntity
  8
1
100
AcDbEllipse
 10
296.707771
 20
274.433071
 30
0.0
 11
-20.01704760871498
 21
4.117685736088156
 31
0.0
210
0.0
220
0.0
230
1.0
 40
0.5072130000000001
 41
4.756836367824683
 42
6.187487237857118
  0
ELLIPSE
  5
151
330
1F
100
AcDbEntity
  8
1
100
AcDbEllipse
 10
368.251402
 20
296.865919
 30
0.0
 11
-2.011988453610476
 21
0.6015832964254648
 31
0.0
210
0.0
220
0.0
230
1.0
 40
0.9981459999999998
 41
3.141596138026462
 42
6.283090846336357
  0
ELLIPSE
  5
152
330
1F
100
AcDbEntity
  8
1
100
AcDbEllipse
 10
367.790316
 20
295.738593
 30
0.0
 11
-0.0957186323990642
 21
0.0286198115623552
 31
0.0
210
0.0
220
0.0
230
1.0
 40
0.9981459999999998
 41
5.245332866828575
 42
6.094268019239362
  0
ELLIPSE
  5
153
330
1F
100
AcDbEntity
  8
1
100
AcDbEllipse
 10
367.613014
 20
295.830699
 30
0.0
 11
-0.0957186323990644
 21
0.0286198115623553
 31
0.0
210
0.0
220
0.0
230
1.0
 40
0.9981459999999998
 41
1.580141437640459
 42
2.952675365649501
  0
ELLIPSE
  5
154
330
1F
100
AcDbEntity
  8
1
100
AcDbEllipse
 10
367.739331
 20
296.268041
 30
0.0
 11
-0.5326695077128936
 21
0.1592678515526364
 31
0.0
210
0.0
220
0.0
230
1.0
 40
0.9981459999999998
 41
0.660017864470563
 42
1.580141437640403
  0
ELLIPSE
  5
155
330
1F
100
AcDbEntity
  8
1
100
AcDbEllipse
 10
367.314192
 20
296.103839
 30
0.0
 11
-0.0957186323990642
 21
0.0286198115623552
 31
0.0
210
0.0
220
0.0
230
1.0
 40
0.9981459999999998
 41
5.570669243641169
 42
6.943203171650261
  0
ELLIPSE
  5
156
330
1F
100
AcDbEntity
  8
1
100
AcDbEllipse
 10
367.206678
 20
296.272072
 30
0.0
 11
-0.0957186323990642
 21
0.0286198115623552
 31
0.0
210
0.0
220
0.0
230
1.0
 40
0.9981459999999998
 41
2.429076590051376
 42
3.278011742462198
  0
ELLIPSE
  5
157
330
1F
100
AcDbEntity
  8
1
100
AcDbEllipse
 10
366.756052
 20
296.342193
 30
0.0
 11
-0.5326695077128932
 21
0.1592678515526363
 31
0.0
210
0.0
220
0.0
230
1.0
 40
0.9981459999999998
 41
3.278011742462048
 42
4.198135315631913
  0
ELLIPSE
  5
158
330
1F
100
AcDbEntity
  8
1
100
AcDbEllipse
 10
367.084521
 20
296.657659
 30
0.0
 11
-0.0957186323990642
 21
0.0286198115623552
 31
0.0
210
0.0
220
0.0
230
1.0
 40
0.9981459999999998
 41
4.198135315631823
 42
5.047070468042691
  0
ELLIPSE
  5
159
330
1F
100
AcDbEntity
  8
1
100
AcDbEllipse
 10
367.075604
 20
296.856941
 30
0.0
 11
-0.0957186323990644
 21
0.0286198115623553
 31
0.0
210
0.0
220
0.0
230
1.0
 40
0.9981459999999998
 41
0.5329438864438009
 42
1.905477814453008
  0
ELLIPSE
  5
15A
330
1F
100
AcDbEntity
  8
1
100
AcDbEllipse
 10
367.518211
 20
296.966002
 30
0.0
 11
-0.5326695077128936
 21
0.1592678515526364
 31
0.0
210
0.0
220
0.0
230
1.0
 40
0.9981459999999998
 41
5.896005620453542
 42
6.816129193623405
  0
ELLIPSE
  5
15B
330
1F
100
AcDbEntity
  8
1
100
AcDbEllipse
 10
367.162843
 20
297.251657
 30
0.0
 11
-0.0957186323990642
 21
0.0286198115623552
 31
0.0
210
0.0
220
0.0
230
1.0
 40
0.9981459999999998
 41
4.523471692444542
 42
5.896005620453487
  0
ELLIPSE
  5
15C
330
1F
100
AcDbEntity
  8
1
100
AcDbEllipse
 10
367.254911
 20
297.42859
 30
0.0
 11
-0.0957186323990642
 21
0.0286198115623552
 31
0.0
210
0.0
220
0.0
230
1.0
 40
0.9981459999999998
 41
1.381879038854623
 42
2.230814191265291
  0
ELLIPSE
  5
15D
330
1F
100
AcDbEntity
  8
1
100
AcDbEllipse
 10
367.090021
 20
297.853237
 30
0.0
 11
-0.5326695077128932
 21
0.1592678515526363
 31
0.0
210
0.0
220
0.0
230
1.0
 40
0.9981459999999998
 41
2.230814191265475
 42
3.150937764435319
  0
ELLIPSE
  5
15E
330
1F
100
AcDbEntity
  8
1
100
AcDbEllipse
 10
367.528172
 20
297.726671
 30
0.0
 11
-0.0957186323990642
 21
0.0286198115623552
 31
0.0
210
0.0
220
0.0
230
1.0
 40
0.9981459999999998
 41
3.150937764435408
 42
3.999872916846269
  0
ELLIPSE
  5
15F
330
1F
100
AcDbEntity
  8
1
100
AcDbEllipse
 10
367.696556
 20
297.833847
 30
0.0
 11
-0.0957186323990644
 21
0.0286198115623553
 31
0.0
210
0.0
220
0.0
230
1.0
 40
0.9981459999999998
 41
5.768931642426849
 42
7.14146557043583
  0
ELLIPSE
  5
160
330
1F
100
AcDbEntity
  8
1
100
AcDbEllipse
 10
368.012847
 20
297.505565
 30
0.0
 11
-0.5326695077128936
 21
0.1592678515526364
 31
0.0
210
0.0
220
0.0
230
1.0
 40
0.9981459999999998
 41
4.848808069256952
 42
5.768931642426815
  0
ELLIPSE
  5
161
330
1F
100
AcDbEntity
  8
1
100
AcDbEllipse
 10
368.082617
 20
297.955422
 30
0.0
 11
-0.0957186323990642
 21
0.0286198115623552
 31
0.0
210
0.0
220
0.0
230
1.0
 40
0.9981459999999998
 41
3.476274141247884
 42
4.848808069257096
  0
ELLIPSE
  5
162
330
1F
100
AcDbEntity
  8
1
100
AcDbEllipse
 10
368.2821990000001
 20
297.964123
 30
0.0
 11
-0.0957186323990642
 21
0.0286198115623552
 31
0.0
210
0.0
220
0.0
230
1.0
 40
0.9981459999999998
 41
0.3346814876580914
 42
1.183616640068791
  0
ELLIPSE
  5
163
330
1F
100
AcDbEntity
  8
1
100
AcDbEllipse
 10
368.567935
 20
298.3186490000001
 30
0.0
 11
-0.5326695077128932
 21
0.1592678515526363
 31
0.0
210
0.0
220
0.0
230
1.0
 40
0.9981459999999998
 41
1.183616640068872
 42
2.103740213238716
  0
ELLIPSE
  5
164
330
1F
100
AcDbEntity
  8
1
100
AcDbEllipse
 10
368.677617
 20
297.876616
 30
0.0
 11
-0.0957186323990642
 21
0.0286198115623552
 31
0.0
210
0.0
220
0.0
230
1.0
 40
0.9981459999999998
 41
2.103740213238624
 42
2.952675365649641
  0
ELLIPSE
  5
165
330
1F
100
AcDbEntity
  8
1
100
AcDbEllipse
 10
368.854919
 20
297.78451
 30
0.0
 11
-0.0957186323990644
 21
0.0286198115623553
 31
0.0
210
0.0
220
0.0
230
1.0
 40
0.9981459999999998
 41
4.721734091230393
 42
6.094268019239362
  0
ELLIPSE
  5
166
330
1F
100
AcDbEntity
  8
1
100
AcDbEllipse
 10
368.728602
 20
297.347168
 30
0.0
 11
-0.5326695077128936
 21
0.1592678515526364
 31
0.0
210
0.0
220
0.0
230
1.0
 40
0.9981459999999998
 41
3.801610518060346
 42
4.721734091230196
  0
ELLIPSE
  5
167
330
1F
100
AcDbEntity
  8
1
100
AcDbEllipse
 10
369.153741
 20
297.51137
 30
0.0
 11
-0.0957186323990642
 21
0.0286198115623552
 31
0.0
210
0.0
220
0.0
230
1.0
 40
0.9981459999999998
 41
2.429076590051177
 42
3.801610518060498
  0
ELLIPSE
  5
168
330
1F
100
AcDbEntity
  8
1
100
AcDbEllipse
 10
369.261255
 20
297.343137
 30
0.0
 11
-0.0957186323990642
 21
0.0286198115623552
 31
0.0
210
0.0
220
0.0
230
1.0
 40
0.9981459999999998
 41
5.570669243640915
 42
6.419604396051848
  0
ELLIPSE
  5
169
330
1F
100
AcDbEntity
  8
1
100
AcDbEllipse
 10
369.711881
 20
297.273017
 30
0.0
 11
-0.5326695077128932
 21
0.1592678515526363
 31
0.0
210
0.0
220
0.0
230
1.0
 40
0.9981459999999998
 41
0.1364190888722742
 42
1.056542662042127
  0
ELLIPSE
  5
16A
330
1F
100
AcDbEntity
  8
1
100
AcDbEllipse
 10
369.383412
 20
296.95755
 30
0.0
 11
-0.0957186323990642
 21
0.0286198115623552
 31
0.0
210
0.0
220
0.0
230
1.0
 40
0.9981459999999998
 41
1.056542662042189
 42
1.905477814452874
  0
ELLIPSE
  5
16B
330
1F
100
AcDbEntity
  8
1
100
AcDbEllipse
 10
369.39233
 20
296.758269
 30
0.0
 11
-0.0957186323990644
 21
0.0286198115623553
 31
0.0
210
0.0
220
0.0
230
1.0
 40
0.9981459999999998
 41
3.674536540033582
 42
5.047070468042825
  0
ELLIPSE
  5
16C
330
1F
100
AcDbEntity
  8
1
100
AcDbEllipse
 10
368.949722
 20
296.649207
 30
0.0
 11
-0.5326695077128936
 21
0.1592678515526364
 31
0.0
210
0.0
220
0.0
230
1.0
 40
0.9981459999999998
 41
2.754412966863741
 42
3.674536540033638
  0
ELLIPSE
  5
16D
330
1F
100
AcDbEntity
  8
1
100
AcDbEllipse
 10
369.30509
 20
296.363553
 30
0.0
 11
-0.0957186323990642
 21
0.0286198115623552
 31
0.0
210
0.0
220
0.0
230
1.0
 40
0.9981459999999998
 41
1.381879038854762
 42
2.754412966863694
  0
ELLIPSE
  5
16E
330
1F
100
AcDbEntity
  8
1
100
AcDbEllipse
 10
365.050859
 20
304.650032
 30
0.0
 11
-12.07193072166286
 21
3.609499778552784
 31
0.0
210
0.0
220
0.0
230
0.9999999999999998
 40
0.9981459999999998
 41
1.576886760684778
 42
1.90490888459874
  0
ELLIPSE
  5
16F
330
1F
100
AcDbEntity
  8
1
100
AcDbEllipse
 10
369.213022
 20
296.186619
 30
0.0
 11
-0.0957186323990642
 21
0.0286198115623552
 31
0.0
210
0.0
220
0.0
230
1.0
 40
0.9981459999999998
 41
4.523471692444402
 42
5.372406844855241
  0
ELLIPSE
  5
170
330
1F
100
AcDbEntity
  8
1
100
AcDbEllipse
 10
369.377912
 20
295.761972
 30
0.0
 11
-0.5326695077128932
 21
0.1592678515526363
 31
0.0
210
0.0
220
0.0
230
1.0
 40
0.9981459999999998
 41
5.372406844855261
 42
6.292530418025101
  0
ELLIPSE
  5
171
330
1F
100
AcDbEntity
  8
1
100
AcDbEllipse
 10
368.939761
 20
295.888539
 30
0.0
 11
-0.0957186323990642
 21
0.0286198115623552
 31
0.0
210
0.0
220
0.0
230
1.0
 40
0.9981459999999998
 41
0.0093451108454747
 42
0.8582802632562765
  0
ELLIPSE
  5
172
330
1F
100
AcDbEntity
  8
1
100
AcDbEllipse
 10
368.771377
 20
295.781363
 30
0.0
 11
-0.0957186323990644
 21
0.0286198115623553
 31
0.0
210
0.0
220
0.0
230
1.0
 40
0.9981459999999998
 41
2.627338988837056
 42
3.999872916846083
  0
ELLIPSE
  5
173
330
1F
100
AcDbEntity
  8
1
100
AcDbEllipse
 10
368.455086
 20
296.109644
 30
0.0
 11
-0.5326695077128936
 21
0.1592678515526364
 31
0.0
210
0.0
220
0.0
230
1.0
 40
0.9981459999999998
 41
1.707215415667159
 42
2.627338988837
  0
ELLIPSE
  5
174
330
1F
100
AcDbEntity
  8
1
100
AcDbEllipse
 10
368.385316
 20
295.659787
 30
0.0
 11
-0.0957186323990642
 21
0.0286198115623552
 31
0.0
210
0.0
220
0.0
230
1.0
 40
0.9981459999999998
 41
0.3346814876580447
 42
1.707215415667284
  0
ELLIPSE
  5
175
330
1F
100
AcDbEntity
  8
1
100
AcDbEllipse
 10
368.185734
 20
295.651087
 30
0.0
 11
-0.0957186323990642
 21
0.0286198115623552
 31
0.0
210
0.0
220
0.0
230
1.0
 40
0.9981459999999998
 41
3.476274141247884
 42
4.325209293658557
  0
ELLIPSE
  5
176
330
1F
100
AcDbEntity
  8
1
100
AcDbEllipse
 10
367.899998
 20
295.29656
 30
0.0
 11
-0.5326695077128932
 21
0.1592678515526363
 31
0.0
210
0.0
220
0.0
230
1.0
 40
0.9981459999999998
 41
4.325209293658707
 42
5.245332866828544
  0
ELLIPSE
  5
177
330
1F
100
AcDbEntity
  8
1
100
AcDbEllipse
 10
368.233967
 20
296.807605
 30
0.0
 11
1.437134609721768
 21
-0.4297023545896171
 31
0.0
210
0.0
220
0.0
230
1.0
 40
0.9981459999999998
 41
0.0
 42
6.283185307179585
  0
ELLIPSE
  5
178
330
1F
100
AcDbEntity
  8
1
100
AcDbEllipse
 10
368.236753
 20
296.816924
 30
0.0
 11
2.011988453610475
 21
-0.6015832964254637
 31
0.0
210
0.0
220
0.0
230
0.9999999999999998
 40
0.9981459999999998
 41
0.0
 42
6.283185307179585
  0
ELLIPSE
  5
179
330
1F
100
AcDbEntity
  8
1
100
AcDbEllipse
 10
368.370917
 20
297.007575
 30
0.0
 11
2.007441720040435
 21
-0.6002238259155188
 31
0.0
210
0.0
220
0.0
230
0.9999999999999998
 40
0.9981459999999998
 41
2.115866363545535
 42
2.750762367930815
  0
ELLIPSE
  5
17A
330
1F
100
AcDbEntity
  8
1
100
AcDbEllipse
 10
368.370917
 20
297.007575
 30
0.0
 11
2.007441720040435
 21
-0.6002238259155188
 31
0.0
210
0.0
220
0.0
230
0.9999999999999998
 40
0.9981459999999998
 41
5.925636271296999
 42
6.283185307179585
  0
ELLIPSE
  5
17B
330
1F
100
AcDbEntity
  8
1
100
AcDbEllipse
 10
368.370917
 20
297.007575
 30
0.0
 11
2.007441720040435
 21
-0.6002238259155188
 31
0.0
210
0.0
220
0.0
230
0.9999999999999998
 40
0.9981459999999998
 41
0.0
 42
1.025733597672489
  0
ELLIPSE
  5
17C
330
1F
100
AcDbEntity
  8
1
100
AcDbEllipse
 10
365.44521
 20
293.731642
 30
0.0
 11
0.954179739067673
 21
1.04237152518132
 31
0.0
210
0.0
220
0.0
230
0.9999999999999998
 40
0.018776
 41
0.9772064749793491
 42
1.532017507975375
  0
ELLIPSE
  5
17D
330
1F
100
AcDbEntity
  8
1
100
AcDbEllipse
 10
368.351127
 20
296.941388
 30
0.0
 11
2.064431608666349
 21
-0.6172637671741156
 31
0.0
210
0.0
220
0.0
230
1.0
 40
0.9981459999999998
 41
0.0
 42
6.283185307179585
  0
ELLIPSE
  5
17E
330
1F
100
AcDbEntity
  8
1
100
AcDbEllipse
 10
365.175038
 20
299.769154
 30
0.0
 11
1.042971255340858
 21
-0.9547287279365759
 31
0.0
210
0.0
220
0.0
230
1.0
 40
0.038754
 41
1.034737474725569
 42
1.589548507680567
  0
ELLIPSE
  5
17F
330
1F
100
AcDbEntity
  8
1
100
AcDbEllipse
 10
368.34825
 20
296.931767
 30
0.0
 11
-2.155701914582654
 21
0.6445535318844261
 31
0.0
210
0.0
220
0.0
230
1.0
 40
0.9981459999999998
 41
0.0
 42
6.283185307179585
  0
ELLIPSE
  5
180
330
1F
100
AcDbEntity
  8
1
100
AcDbEllipse
 10
371.22165
 20
300.032757
 30
0.0
 11
0.9541797382945567
 21
1.042371524352245
 31
0.0
210
0.0
220
0.0
230
1.0
 40
0.018776
 41
1.532017507544618
 42
2.086828540969869
  0
ELLIPSE
  5
181
330
1F
100
AcDbEntity
  8
1
100
AcDbEllipse
 10
371.491822
 20
293.995245
 30
0.0
 11
1.042971254979571
 21
-0.9547287275954875
 31
0.0
210
0.0
220
0.0
230
1.0
 40
0.038754
 41
1.58954850754404
 42
2.144359540681394
  0
ELLIPSE
  5
182
330
1F
100
AcDbEntity
  8
1
100
AcDbEllipse
 10
364.973178
 20
288.907993
 30
0.0
 11
0.4953509183495889
 21
-11.74999605254143
 31
0.0
210
0.0
220
0.0
230
0.9999999999999998
 40
0.019895
 41
3.025756910093193
 42
3.107914381883646
  0
ELLIPSE
  5
183
330
1F
100
AcDbEntity
  8
1
100
AcDbEllipse
 10
365.169161
 20
293.465885
 30
0.0
 11
1.053898713795964
 21
-0.3151150600323858
 31
0.0
210
0.0
220
0.0
230
1.0
 40
0.9981459999999998
 41
5.655202807390537
 42
5.754581212077217
  0
ELLIPSE
  5
184
330
1F
100
AcDbEntity
  8
1
100
AcDbEllipse
 10
364.844007
 20
288.907994
 30
0.0
 11
0.4212304047332141
 21
-11.74984932494734
 31
0.0
210
0.0
220
0.0
230
1.0
 40
0.141267
 41
3.103688726979882
 42
3.250156156007292
  0
ELLIPSE
  5
185
330
1F
100
AcDbEntity
  8
1
100
AcDbEllipse
 10
367.601959
 20
288.907994
 30
0.0
 11
20.15003233891091
 21
-11.59217654557469
 31
0.0
210
0.0
220
0.0
230
1.0
 40
0.095253
 41
4.103447517746396
 42
4.320427978073701
  0
ELLIPSE
  5
186
330
1F
100
AcDbEntity
  8
1
100
AcDbEllipse
 10
292.076843
 20
288.907995
 30
0.0
 11
250.2761890047269
 21
11.45873336767278
 31
0.0
210
0.0
220
0.0
230
1.0
 40
0.010388
 41
5.010458923583433
 42
5.030211252501346
  0
ELLIPSE
  5
187
330
1F
100
AcDbEntity
  8
1
100
AcDbEllipse
 10
365.174392
 20
293.483379
 30
0.0
 11
-1.053898713795964
 21
0.315115060032386
 31
0.0
210
0.0
220
0.0
230
1.0
 40
0.9981459999999998
 41
2.612988558487426
 42
2.846899584524739
  0
ELLIPSE
  5
188
330
1F
100
AcDbEntity
  8
1
100
AcDbEllipse
 10
371.62603
 20
288.9921
 30
0.0
 11
0.0001054973293685
 21
-0.300046600599877
 31
0.0
210
0.0
220
0.0
230
0.9999999999999998
 40
0.140519
 41
3.139090475970025
 42
4.709886802763003
  0
ELLIPSE
  5
189
330
1F
100
AcDbEntity
  8
1
100
AcDbEllipse
 10
371.790146
 20
292.823601
 30
0.0
 11
0.0003741403108381
 21
0.5004815717818142
 31
0.0
210
0.0
220
0.0
230
1.0
 40
0.140038
 41
3.20533344337498
 42
4.776129770169488
  0
ELLIPSE
  5
18A
330
1F
100
AcDbEntity
  8
1
100
AcDbEllipse
 10
371.340717
 20
282.251336
 30
0.0
 11
0.0323262014611187
 21
0.299496685505135
 31
0.0
210
0.0
220
0.0
230
0.9999999999999996
 40
0.139171
 41
1.583568179246963
 42
3.154364506043102
  0
ELLIPSE
  5
18B
330
1F
100
AcDbEntity
  8
1
100
AcDbEllipse
 10
372.466047
 20
288.907994
 30
0.0
 11
1.271805540688212
 21
11.74867113622851
 31
0.0
210
0.0
220
0.0
230
1.0
 40
0.138944
 41
1.93035581255881
 42
3.156632395651097
  0
ELLIPSE
  5
18C
330
1F
100
AcDbEntity
  8
1
100
AcDbEllipse
 10
372.044842
 20
288.907994
 30
0.0
 11
0.0
 21
11.75000000018266
 31
0.0
210
0.0
220
0.0
230
1.0
 40
0.140541
 41
1.476093240275467
 42
1.915316070492194
  0
ELLIPSE
  5
18D
330
1F
100
AcDbEntity
  8
1
100
AcDbEllipse
 10
365.228094
 20
293.662986
 30
0.0
 11
-1.053898713795963
 21
0.3151150600323858
 31
0.0
210
0.0
220
0.0
230
1.0
 40
0.9981459999999998
 41
0.0937609710182711
 42
1.905477879472735
  0
ELLIPSE
  5
18E
330
1F
100
AcDbEntity
  8
1
100
AcDbEllipse
 10
365.228094
 20
293.662986
 30
0.0
 11
-1.053898713795963
 21
0.3151150600323858
 31
0.0
210
0.0
220
0.0
230
1.0
 40
0.9981459999999998
 41
1.905477879472739
 42
2.628437104849681
  0
ELLIPSE
  5
18F
330
1F
100
AcDbEntity
  8
1
100
AcDbEllipse
 10
365.174392
 20
293.483379
 30
0.0
 11
-1.053898713795964
 21
0.315115060032386
 31
0.0
210
0.0
220
0.0
230
1.0
 40
0.9981459999999998
 41
5.668020883289553
 42
5.922290797383896
  0
ELLIPSE
  5
190
330
1F
100
AcDbEntity
  8
1
100
AcDbEllipse
 10
365.169161
 20
293.465885
 30
0.0
 11
1.053898713795964
 21
-0.3151150600323858
 31
0.0
210
0.0
220
0.0
230
1.0
 40
0.9981459999999998
 41
2.780698143794106
 42
4.366648655155206
  0
ELLIPSE
  5
191
330
1F
100
AcDbEntity
  8
1
100
AcDbEllipse
 10
364.539416
 20
288.90802
 30
0.0
 11
0.4953497343822232
 21
-11.74996948897008
 31
0.0
210
0.0
220
0.0
230
1.0
 40
0.019895
 41
3.254048323036148
 42
3.279637061686297
  0
ELLIPSE
  5
192
330
1F
100
AcDbEntity
  8
1
100
AcDbEllipse
 10
314.061328
 20
288.907994
 30
0.0
 11
66.6314663886153
 21
-10.15264240588723
 31
0.0
210
0.0
220
0.0
230
1.0
 40
0.088771
 41
4.385017816108564
 42
4.481020527026552
  0
ELLIPSE
  5
193
330
1F
100
AcDbEntity
  8
1
100
AcDbEllipse
 10
297.904842
 20
281.153654
 30
0.0
 11
-2.084779646905063
 21
-6.682341941553901
 31
0.0
210
0.0
220
0.0
230
1.0
 40
0.176153
 41
4.198387281074696
 42
5.405456392431303
  0
SPLINE
  5
199
330
1F
100
AcDbEntity
  8
1
100
AcDbSpline
210
0.0
220
0.0
230
1.0
 70
     8
 71
     3
 72
    33
 73
    29
 74
     0
 42
0.000000001
 43
0.0000000001
 40
0.0
 40
0.0
 40
0.0
 40
0.0
 40
0.124999999999998
 40
0.124999999999998
 40
0.2499999999999959
 40
0.2499999999999959
 40
0.3749999999999938
 40
0.3749999999999938
 40
0.4374999999999929
 40
0.4374999999999929
 40
0.453124999999993
 40
0.453124999999993
 40
0.4687499999999931
 40
0.4687499999999931
 40
0.4999999999999933
 40
0.4999999999999933
 40
0.6249999999999942
 40
0.6249999999999942
 40
0.7499999999999949
 40
0.7499999999999949
 40
0.812499999999995
 40
0.812499999999995
 40
0.8281249999999953
 40
0.8281249999999953
 40
0.8437499999999957
 40
0.8749999999999964
 40
0.8749999999999964
 40
1.0
 40
1.0
 40
1.0
 40
1.0
 10
280.4685504442817
 20
284.102498791287
 30
0.0
 10
280.7615256896445
 20
284.3559002483654
 30
0.0
 10
281.0662503107549
 20
284.5927735738887
 30
0.0
 10
281.6997894729361
 20
285.0353635501022
 30
0.0
 10
282.0285991767198
 20
285.2410753748574
 30
0.0
 10
282.7116019247339
 20
285.6217876061756
 30
0.0
 10
283.0657857863376
 20
285.7967942633278
 30
0.0
 10
283.6177514859933
 20
286.0355210538513
 30
0.0
 10
283.8051963084415
 20
286.1111209004523
 30
0.0
 10
284.0440674822222
 20
286.2004695044596
 30
0.0
 10
284.0920701919532
 20
286.2180813601842
 30
0.0
 10
284.1885395912571
 20
286.2527835345008
 30
0.0
 10
284.2369680049842
 20
286.2698596128236
 30
0.0
 10
284.3825435630503
 20
286.3201580963517
 30
0.0
 10
284.4800959474748
 20
286.3524925513834
 30
0.0
 10
284.9703880590194
 20
286.5081727274032
 30
0.0
 10
285.3707017613555
 20
286.613618332368
 30
0.0
 10
286.1882696753013
 20
286.7850404837507
 30
0.0
 10
286.6055239877448
 20
286.8510274680015
 30
0.0
 10
287.2450149203969
 20
286.9178897707154
 30
0.0
 10
287.4604501484389
 20
286.9348067880301
 30
0.0
 10
287.7327018831437
 20
286.9488336468728
 30
0.0
 10
287.7873322645397
 20
286.9512835525529
 30
0.0
 10
287.8966228395479
 20
286.9554498091022
 30
0.0
 10
288.0606706141984
 20
286.9606035351242
 30
0.0
 10
288.225050977874
 20
286.9624554686914
 30
0.0
 10
288.7737087426493
 20
286.9612108592084
 30
0.0
 10
289.2149594274625
 20
286.9365253921426
 30
0.0
 10
289.6582555692088
 20
286.8867010069405
 30
0.0
  0
SPLINE
  5
19A
330
1F
100
AcDbEntity
  8
1
100
AcDbSpline
210
0.0
220
0.0
230
1.0
 70
     8
 71
     3
 72
    10
 73
     6
 74
     0
 42
0.000000001
 43
0.0000000001
 40
0.0
 40
0.0
 40
0.0
 40
0.0
 40
0.5
 40
0.5
 40
1.0
 40
1.0
 40
1.0
 40
1.0
 10
280.4685504442817
 20
284.102498791287
 30
0.0
 10
280.2870232892022
 20
283.9454915139675
 30
0.0
 10
280.1075153481274
 20
283.7824894249424
 30
0.0
 10
279.7528356727966
 20
283.4429964507145
 30
0.0
 10
279.5776625575608
 20
283.2665125347933
 30
0.0
 10
279.4048419452957
 20
283.0823178309312
 30
0.0
  0
SPLINE
  5
19B
330
1F
100
AcDbEntity
  8
1
100
AcDbSpline
210
0.0
220
0.0
230
1.0
 70
     8
 71
     3
 72
    10
 73
     6
 74
     0
 42
0.000000001
 43
0.0000000001
 40
0.0
 40
0.0
 40
0.0
 40
0.0
 40
0.5
 40
0.5
 40
1.0
 40
1.0
 40
1.0
 40
1.0
 10
365.6387905333555
 20
291.3047972851178
 30
0.0
 10
365.5285846944262
 20
291.305636431577
 30
0.0
 10
365.4175386423007
 20
291.3064938717852
 30
0.0
 10
365.1938713305745
 20
291.3085609995998
 30
0.0
 10
365.0812495096691
 20
291.3097692077433
 30
0.0
 10
364.9678419452957
 20
291.3112242419501
 30
0.0
  0
SPLINE
  5
19C
330
1F
100
AcDbEntity
  8
1
100
AcDbSpline
210
0.0
220
0.0
230
1.0
 70
     9
 71
     3
 72
   165
 73
   161
 74
     0
 42
0.000000001
 43
0.0000000001
 40
0.0
 40
0.0
 40
0.0
 40
0.0
 40
0.0156249999999995
 40
0.0156249999999995
 40
0.0234374999999996
 40
0.0234374999999996
 40
0.0312499999999996
 40
0.0312499999999996
 40
0.0468750000000002
 40
0.0468750000000002
 40
0.0625000000000008
 40
0.0625000000000008
 40
0.0781250000000014
 40
0.0781250000000014
 40
0.0859375000000014
 40
0.0859375000000014
 40
0.0937500000000014
 40
0.1015625000000013
 40
0.1015625000000013
 40
0.1093750000000013
 40
0.1093750000000013
 40
0.1250000000000012
 40
0.1250000000000012
 40
0.1406250000000011
 40
0.1406250000000011
 40
0.156250000000001
 40
0.156250000000001
 40
0.1640625000000009
 40
0.1640625000000009
 40
0.1718750000000007
 40
0.1796875000000006
 40
0.1796875000000006
 40
0.1875000000000005
 40
0.1875000000000005
 40
0.203125
 40
0.203125
 40
0.2187499999999995
 40
0.2187499999999995
 40
0.234374999999999
 40
0.234374999999999
 40
0.2499999999999985
 40
0.2499999999999985
 40
0.2578124999999984
 40
0.2578124999999984
 40
0.2656249999999982
 40
0.2656249999999982
 40
0.2812499999999984
 40
0.2812499999999984
 40
0.2890624999999989
 40
0.2890624999999989
 40
0.2968749999999993
 40
0.2968749999999993
 40
0.3124999999999999
 40
0.3124999999999999
 40
0.3281250000000007
 40
0.3281250000000007
 40
0.3437500000000013
 40
0.3437500000000013
 40
0.359375000000002
 40
0.359375000000002
 40
0.3671875000000022
 40
0.3671875000000022
 40
0.3750000000000025
 40
0.3828125000000028
 40
0.3828125000000028
 40
0.390625000000003
 40
0.390625000000003
 40
0.4062500000000038
 40
0.4062500000000038
 40
0.4218750000000047
 40
0.4218750000000047
 40
0.4375000000000055
 40
0.4531250000000064
 40
0.4531250000000064
 40
0.4609375000000068
 40
0.4609375000000068
 40
0.4687500000000071
 40
0.4687500000000071
 40
0.4843750000000077
 40
0.4843750000000077
 40
0.5000000000000082
 40
0.5000000000000082
 40
0.5156250000000089
 40
0.5156250000000089
 40
0.5234375000000095
 40
0.5234375000000095
 40
0.5312500000000102
 40
0.5312500000000102
 40
0.5468750000000107
 40
0.5468750000000107
 40
0.5625000000000111
 40
0.5625000000000111
 40
0.5703125000000115
 40
0.5703125000000115
 40
0.5781250000000118
 40
0.5781250000000118
 40
0.5937500000000124
 40
0.5937500000000124
 40
0.609375000000013
 40
0.609375000000013
 40
0.6250000000000135
 40
0.6250000000000135
 40
0.6328125000000139
 40
0.6328125000000139
 40
0.6406250000000142
 40
0.6484375000000146
 40
0.6484375000000146
 40
0.656250000000015
 40
0.656250000000015
 40
0.6718750000000146
 40
0.6718750000000146
 40
0.6796875000000143
 40
0.6796875000000143
 40
0.6875000000000142
 40
0.6875000000000142
 40
0.7031250000000139
 40
0.7031250000000139
 40
0.7187500000000138
 40
0.7187500000000138
 40
0.7265625000000138
 40
0.7265625000000138
 40
0.7343750000000137
 40
0.7343750000000137
 40
0.7500000000000132
 40
0.7500000000000132
 40
0.7578125000000126
 40
0.7578125000000126
 40
0.7656250000000121
 40
0.7656250000000121
 40
0.7812500000000111
 40
0.7812500000000111
 40
0.7968750000000103
 40
0.7968750000000103
 40
0.8125000000000094
 40
0.8125000000000094
 40
0.8437500000000078
 40
0.8437500000000078
 40
0.8515625000000078
 40
0.8515625000000078
 40
0.8593750000000074
 40
0.8593750000000074
 40
0.8750000000000071
 40
0.8750000000000071
 40
0.8906250000000063
 40
0.8906250000000063
 40
0.9062500000000055
 40
0.9062500000000055
 40
0.9140625000000051
 40
0.9140625000000051
 40
0.9218750000000047
 40
0.9218750000000047
 40
0.9375000000000042
 40
0.9375000000000042
 40
0.9531250000000035
 40
0.9531250000000035
 40
0.9609375000000031
 40
0.9609375000000031
 40
0.9687500000000024
 40
0.9687500000000024
 40
1.0
 40
1.0
 40
1.0
 40
1.0
 10
370.7635550463477
 20
281.8064176203271
 30
0.0
 10
370.7702555853713
 20
281.8051708671358
 30
0.0
 10
370.7771795520129
 20
281.806248114551
 30
0.0
 10
370.7878986832176
 20
281.8113295975639
 30
0.0
 10
370.7915273554468
 20
281.81360204956
 30
0.0
 10
370.7988968192659
 20
281.8193131722336
 30
0.0
 10
370.8026406968459
 20
281.8227563643612
 30
0.0
 10
370.8139838980792
 20
281.8347912283619
 30
0.0
 10
370.821711222322
 20
281.8450935662101
 30
0.0
 10
370.8374974261731
 20
281.8702726461457
 30
0.0
 10
370.8455700845301
 20
281.8851875403171
 30
0.0
 10
370.8618836339428
 20
281.9193386525114
 30
0.0
 10
370.870142643096
 20
281.9385970169041
 30
0.0
 10
370.8826864710816
 20
281.9708006791165
 30
0.0
 10
370.8868933442051
 20
281.9820898005363
 30
0.0
 10
370.8953134366195
 20
282.0056574488274
 30
0.0
 10
370.9037512429647
 20
282.0302428730359
 30
0.0
 10
370.912224477159
 20
282.056863848393
 30
0.0
 10
370.920715554462
 20
282.0845100217463
 30
0.0
 10
370.9249758595956
 20
282.098866438315
 30
0.0
 10
370.9377340090425
 20
282.1433198879498
 30
0.0
 10
370.9462050930895
 20
282.1747768476286
 30
0.0
 10
370.9630784564429
 20
282.2413390887593
 30
0.0
 10
370.9714989181398
 20
282.2765324800492
 30
0.0
 10
370.9880967478838
 20
282.3498893421468
 30
0.0
 10
370.9962911944145
 20
282.3881115141436
 30
0.0
 10
371.0084245402305
 20
282.4477843441899
 30
0.0
 10
371.0124421422818
 20
282.4680658512196
 30
0.0
 10
371.0203791841475
 20
282.5091846493756
 30
0.0
 10
371.0282295331828
 20
282.5509147222159
 30
0.0
 10
371.0359067806379
 20
282.5938653413619
 30
0.0
 10
371.0434969768916
 20
282.6374297620805
 30
0.0
 10
371.0472535122194
 20
282.6595496337609
 30
0.0
 10
371.058338184789
 20
282.7265195666823
 30
0.0
 10
371.0654903861012
 20
282.7720206960151
 30
0.0
 10
371.0793206623704
 20
282.8647282488475
 30
0.0
 10
371.0860063299335
 20
282.9120059310735
 30
0.0
 10
371.0987533640467
 20
283.0072321050507
 30
0.0
 10
371.1048336628905
 20
283.0552999367687
 30
0.0
 10
371.1164041079097
 20
283.1523508530907
 30
0.0
 10
371.1218558935951
 20
283.2010177400521
 30
0.0
 10
371.1295159232029
 20
283.27401975617
 30
0.0
 10
371.1319841796369
 20
283.2983653272445
 30
0.0
 10
371.1367498803336
 20
283.3470796876056
 30
0.0
 10
371.1390478509841
 20
283.3714573494776
 30
0.0
 10
371.1456475943443
 20
283.4442203578607
 30
0.0
 10
371.1496694194404
 20
283.492370405145
 30
0.0
 10
371.1551383647171
 20
283.5640605872276
 30
0.0
 10
371.156869331571
 20
283.5879001805496
 30
0.0
 10
371.1601277528648
 20
283.6351952120664
 30
0.0
 10
371.1616559126871
 20
283.6586560269491
 30
0.0
 10
371.1659399767165
 20
283.7284834259022
 30
0.0
 10
371.1683976893253
 20
283.7743294612989
 30
0.0
 10
371.1725041503431
 20
283.8644004806651
 30
0.0
 10
371.174140161279
 20
283.9083337633557
 30
0.0
 10
371.1765902786946
 20
283.9940289893847
 30
0.0
 10
371.1774041995573
 20
284.0358865585293
 30
0.0
 10
371.1781960075764
 20
284.1166806738104
 30
0.0
 10
371.1781775296994
 20
284.1556752825982
 30
0.0
 10
371.1775308289258
 20
284.2120722843718
 30
0.0
 10
371.1772114025452
 20
284.2305309709207
 30
0.0
 10
371.1763693539816
 20
284.2665648604976
 30
0.0
 10
371.1753238693828
 20
284.3017613395044
 30
0.0
 10
371.1738743778081
 20
284.3352947910548
 30
0.0
 10
371.1722228667875
 20
284.3679966631892
 30
0.0
 10
371.1712947382671
 20
284.3839508809489
 30
0.0
 10
371.1682168990346
 20
284.4303885944785
 30
0.0
 10
371.1657761071874
 20
284.4594507431236
 30
0.0
 10
371.1601238358416
 20
284.5138170576548
 30
0.0
 10
371.1569013961067
 20
284.5391645835024
 30
0.0
 10
371.1497827746423
 20
284.5854135348876
 30
0.0
 10
371.1419759797909
 20
284.6274080346865
 30
0.0
 10
371.1328190143654
 20
284.6610554588111
 30
0.0
 10
371.1254405997962
 20
284.6831338167461
 30
0.0
 10
371.1228958675765
 20
284.6899661674818
 30
0.0
 10
371.1176333334446
 20
284.7025609109453
 30
0.0
 10
371.1149104250517
 20
284.7083313743896
 30
0.0
 10
371.106532796479
 20
284.7239057359653
 30
0.0
 10
371.100661499682
 20
284.732007471646
 30
0.0
 10
371.0883481801013
 20
284.7436621178817
 30
0.0
 10
371.0818899998927
 20
284.7472103363864
 30
0.0
 10
371.0685197838942
 20
284.7496486398973
 30
0.0
 10
371.0615990439876
 20
284.748558781479
 30
0.0
 10
371.0508622428595
 20
284.7434384949366
 30
0.0
 10
371.0472192789899
 20
284.7411454181873
 30
0.0
 10
371.0398472209005
 20
284.7354088924026
 30
0.0
 10
371.0361160734862
 20
284.7319659404943
 30
0.0
 10
371.0247876669187
 20
284.7199179952776
 30
0.0
 10
371.0170557705565
 20
284.7095980790679
 30
0.0
 10
371.0012270668713
 20
284.6843102435637
 30
0.0
 10
370.9931885411592
 20
284.6694340528139
 30
0.0
 10
370.9809569120715
 20
284.6438029423988
 30
0.0
 10
370.9768500314077
 20
284.6347044204371
 30
0.0
 10
370.9685764009218
 20
284.6153878809835
 30
0.0
 10
370.9644059374111
 20
284.6051592012529
 30
0.0
 10
370.9518692578442
 20
284.5729429456754
 30
0.0
 10
370.9434591116717
 20
284.5493886569031
 30
0.0
 10
370.9265335636863
 20
284.498105247436
 30
0.0
 10
370.9180067618303
 20
284.4703260421552
 30
0.0
 10
370.9010298364487
 20
284.4111370562684
 30
0.0
 10
370.8925581785481
 20
284.3796678332517
 30
0.0
 10
370.8798762557391
 20
284.3296120929099
 30
0.0
 10
370.8756592676973
 20
284.3124732525685
 30
0.0
 10
370.8672786189256
 20
284.2774233359008
 30
0.0
 10
370.8589416103711
 20
284.2415632414612
 30
0.0
 10
370.8506919167452
 20
284.2040821510842
 30
0.0
 10
370.8424862209558
 20
284.1657842437583
 30
0.0
 10
370.8384011795712
 20
284.146205155992
 30
0.0
 10
370.8262769215044
 20
284.086544776784
 30
0.0
 10
370.8183505807759
 20
284.0454644497098
 30
0.0
 10
370.8066962993194
 20
283.9818798175179
 30
0.0
 10
370.8028460424118
 20
283.9603293412077
 30
0.0
 10
370.795248941889
 20
283.9167026203242
 30
0.0
 10
370.7915061244128
 20
283.8946511324161
 30
0.0
 10
370.7804438985211
 20
283.8277864385503
 30
0.0
 10
370.7732903032684
 20
283.7822647686573
 30
0.0
 10
370.7594302788015
 20
283.6893108386287
 30
0.0
 10
370.7527782733046
 20
283.6422419311462
 30
0.0
 10
370.7432232892096
 20
283.5708298212885
 30
0.0
 10
370.7401083524027
 20
283.5468868692508
 30
0.0
 10
370.7340194148618
 20
283.498721507812
 30
0.0
 10
370.7310465923757
 20
283.4745059342779
 30
0.0
 10
370.7223895502592
 20
283.4018488807309
 30
0.0
 10
370.7169488034543
 20
283.3532622542107
 30
0.0
 10
370.7092826112277
 20
283.2801598749069
 30
0.0
 10
370.7068069969883
 20
283.2557246042537
 30
0.0
 10
370.702045835939
 20
283.2070211689648
 30
0.0
 10
370.6997581149021
 20
283.1827344374568
 30
0.0
 10
370.6931714108827
 20
283.1100677181355
 30
0.0
 10
370.689143535653
 20
283.061818786367
 30
0.0
 10
370.6818489070137
 20
282.9661067158655
 30
0.0
 10
370.6786010437503
 20
282.9189039739648
 30
0.0
 10
370.6728937733426
 20
282.8257879926722
 30
0.0
 10
370.670429380724
 20
282.7797233077379
 30
0.0
 10
370.6643160455185
 20
282.6454573223628
 30
0.0
 10
370.6618942515732
 20
282.5606423711294
 30
0.0
 10
370.6608807488916
 20
282.4603415086435
 30
0.0
 10
370.6607796445985
 20
282.4405698092213
 30
0.0
 10
370.6607829379054
 20
282.401609913871
 30
0.0
 10
370.6608878243339
 20
282.3823857706723
 30
0.0
 10
370.6615127329208
 20
282.3258954720466
 30
0.0
 10
370.6623396520874
 20
282.2898623383545
 30
0.0
 10
370.6648038909815
 20
282.2210096500805
 30
0.0
 10
370.6664471842937
 20
282.1881234260854
 30
0.0
 10
370.6705144199195
 20
282.1261727898896
 30
0.0
 10
370.6729382865889
 20
282.0970492597986
 30
0.0
 10
370.6771581502413
 20
282.0561354322526
 30
0.0
 10
370.6786639608738
 20
282.0429494206351
 30
0.0
 10
370.6818562256193
 20
282.0176307936335
 30
0.0
 10
370.6835439106675
 20
282.0054836450673
 30
0.0
 10
370.6888798741153
 20
281.9705689058496
 30
0.0
 10
370.6928042098283
 20
281.9493076591436
 30
0.0
 10
370.7013695458048
 20
281.9109543016411
 30
0.0
 10
370.7059852695717
 20
281.8939686690576
 30
0.0
 10
370.7134040414727
 20
281.8717478605142
 30
0.0
 10
370.7159596427451
 20
281.8648848266008
 30
0.0
 10
370.7212372244509
 20
281.8522533034296
 30
0.0
 10
370.7239573055114
 20
281.8464919295458
 30
0.0
 10
370.7378913404242
 20
281.8205853975024
 30
0.0
 10
370.7501539683004
 20
281.8089111267093
 30
0.0
 10
370.7635550463477
 20
281.806417620327
 30
0.0
  0
SPLINE
  5
19D
330
1F
100
AcDbEntity
  8
1
100
AcDbSpline
210
0.0
220
0.0
230
1.0
 70
     8
 71
     3
 72
    10
 73
     6
 74
     0
 42
0.000000001
 43
0.0000000001
 40
0.0
 40
0.0
 40
0.0
 40
0.0
 40
0.5
 40
0.5
 40
1.0
 40
1.0
 40
1.0
 40
1.0
 10
364.9678419452957
 20
290.532169855798
 30
0.0
 10
365.0857207665492
 20
290.5318787264055
 30
0.0
 10
365.2026832304783
 20
290.5346357514572
 30
0.0
 10
365.4347732913307
 20
290.5461103233159
 30
0.0
 10
365.5499016049006
 20
290.5548273202015
 30
0.0
 10
365.6640487808218
 20
290.5665556831682
 30
0.0
  0
SPLINE
  5
19E
330
1F
100
AcDbEntity
  8
1
100
AcDbSpline
210
0.0
220
0.0
230
1.0
 70
    24
 71
     3
 72
    14
 73
    10
 74
     0
 42
0.000000001
 43
0.0000000001
 40
0.0
 40
0.0
 40
0.0
 40
0.0
 40
0.2568419282061212
 40
0.2568419282061212
 40
0.5136838564122425
 40
0.5136838564122425
 40
0.7705257846183638
 40
0.7705257846183638
 40
1.0
 40
1.0
 40
1.0
 40
1.0
 10
364.9678419452957
 20
291.3112242419501
 30
0.0
 10
364.9678419452957
 20
291.1630722878052
 30
0.0
 10
364.9678419452957
 20
291.0341757910587
 30
0.0
 10
364.9678419452957
 20
290.8177402516667
 30
0.0
 10
364.9678419452957
 20
290.7302029781248
 30
0.0
 10
364.9678419452957
 20
290.5984225890751
 30
0.0
 10
364.9678419452957
 20
290.5541805507155
 30
0.0
 10
364.9678419452957
 20
290.5123252539713
 30
0.0
 10
364.9678419452957
 20
290.5102460885057
 30
0.0
 10
364.9678419452957
 20
290.5258374414128
 30
0.0
  0
SPLINE
  5
19F
330
1F
100
AcDbEntity
  8
1
100
AcDbSpline
210
0.0
220
0.0
230
1.0
 70
     8
 71
     3
 72
    22
 73
    18
 74
     0
 42
0.000000001
 43
0.0000000001
 40
0.0
 40
0.0
 40
0.0
 40
0.0
 40
0.2500000000000183
 40
0.2500000000000183
 40
0.3750000000000244
 40
0.3750000000000244
 40
0.4375000000000245
 40
0.4375000000000245
 40
0.5000000000000245
 40
0.5000000000000245
 40
0.6250000000000183
 40
0.6250000000000183
 40
0.7500000000000123
 40
0.7500000000000123
 40
0.8750000000000062
 40
0.8750000000000062
 40
1.0
 40
1.0
 40
1.0
 40
1.0
 10
360.9169221085205
 20
292.7187218390622
 30
0.0
 10
361.2526141136271
 20
292.5469513249889
 30
0.0
 10
361.589114058663
 20
292.3895702369246
 30
0.0
 10
362.0954991980454
 20
292.1738425374753
 30
0.0
 10
362.264566973982
 20
292.1053318870505
 30
0.0
 10
362.5186175660161
 20
292.0075706494401
 30
0.0
 10
362.6033757474901
 20
291.9758180743037
 30
0.0
 10
362.7730445348539
 20
291.9139703750722
 30
0.0
 10
362.8579850457644
 20
291.8838654021601
 30
0.0
 10
363.1126710337517
 20
291.7961448106948
 30
0.0
 10
363.2823637665594
 20
291.7410925517665
 30
0.0
 10
363.6214670490812
 20
291.6376796986075
 30
0.0
 10
363.7908855251103
 20
291.5893234000821
 30
0.0
 10
364.1289090646081
 20
291.4990682506919
 30
0.0
 10
364.2975526231439
 20
291.4571755665447
 30
0.0
 10
364.6337065692617
 20
291.3796151958218
 30
0.0
 10
364.8012217292448
 20
291.3439503587529
 30
0.0
 10
364.9678419452958
 20
291.3112242419501
 30
0.0
  0
SPLINE
  5
1A0
330
1F
100
AcDbEntity
  8
1
100
AcDbSpline
210
0.0
220
0.0
230
1.0
 70
     8
 71
     3
 72
    27
 73
    23
 74
     0
 42
0.000000001
 43
0.0000000001
 40
0.0
 40
0.0
 40
0.0
 40
0.0
 40
0.1250000000000004
 40
0.1250000000000004
 40
0.2500000000000008
 40
0.2500000000000008
 40
0.3750000000000012
 40
0.3750000000000012
 40
0.4375000000000013
 40
0.4687500000000011
 40
0.4687500000000011
 40
0.5000000000000009
 40
0.5000000000000009
 40
0.6250000000000004
 40
0.6250000000000004
 40
0.7500000000000002
 40
0.7500000000000002
 40
0.875
 40
0.875
 40
0.9375
 40
0.9375
 40
1.0
 40
1.0
 40
1.0
 40
1.0
 10
279.4048419452957
 20
283.0823178309312
 30
0.0
 10
279.2492650270096
 20
282.9635457287754
 30
0.0
 10
279.0998565392436
 20
282.8400390500436
 30
0.0
 10
278.8132406487107
 20
282.5839511383291
 30
0.0
 10
278.6760331441148
 20
282.4513695805026
 30
0.0
 10
278.4139565655254
 20
282.1773202220095
 30
0.0
 10
278.2890862840843
 20
282.0358528784778
 30
0.0
 10
278.1113555063461
 20
281.816973959088
 30
0.0
 10
278.0248873509235
 20
281.705862544421
 30
0.0
 10
277.94211123357
 20
281.5922164162494
 30
0.0
 10
277.8877610835027
 20
281.5158842425923
 30
0.0
 10
277.8610714745659
 20
281.4775293909692
 30
0.0
 10
277.7303067176374
 20
281.2852064517642
 30
0.0
 10
277.6339935645081
 20
281.1292152778932
 30
0.0
 10
277.4578469585614
 20
280.8133111395556
 30
0.0
 10
277.3780130638342
 20
280.6533978498379
 30
0.0
 10
277.2350911466268
 20
280.3298628711437
 30
0.0
 10
277.172001097015
 20
280.1662413476249
 30
0.0
 10
277.0904385037037
 20
279.9180930175165
 30
0.0
 10
277.0654080638361
 20
279.8348086057688
 30
0.0
 10
277.0201198094889
 20
279.6684341117029
 30
0.0
 10
276.9998211271824
 20
279.5852390179953
 30
0.0
 10
276.9818780344987
 20
279.5020479830677
 30
0.0
  0
SPLINE
  5
1A1
330
1F
100
AcDbEntity
  8
1
100
AcDbSpline
210
0.0
220
0.0
230
1.0
 70
    28
 71
     3
 72
     8
 73
     4
 74
     0
 42
0.000000001
 43
0.0000000001
 40
0.0
 40
0.0
 40
0.0
 40
0.0
 40
1.0
 40
1.0
 40
1.0
 40
1.0
 10
297.9048419452957
 20
284.7589202588405
 30
0.0
 41
1.0
 10
297.9048419452957
 20
285.008612793671
 30
0.0
 41
0.9830549048388594
 10
297.9048419452957
 20
285.2504902834125
 30
0.0
 41
0.9675803263963201
 10
297.9048419452957
 20
285.4830532588405
 30
0.0
 41
0.9535762646723824
  0
SPLINE
  5
1A2
330
1F
100
AcDbEntity
  8
1
100
AcDbSpline
210
0.0
220
0.0
230
1.0
 70
     8
 71
     3
 72
    14
 73
    10
 74
     0
 42
0.000000001
 43
0.0000000001
 40
0.0
 40
0.0
 40
0.0
 40
0.0
 40
0.25
 40
0.25
 40
0.5
 40
0.5
 40
0.75
 40
0.75
 40
1.0
 40
1.0
 40
1.0
 40
1.0
 10
368.273187447151
 20
295.8118938408132
 30
0.0
 10
368.2788446076557
 20
295.8072240958898
 30
0.0
 10
368.2839539581546
 20
295.8019414876517
 30
0.0
 10
368.2927946493548
 20
295.7906127796203
 30
0.0
 10
368.2965519981845
 20
295.7845635434063
 30
0.0
 10
368.302784526432
 20
295.7717167363389
 30
0.0
 10
368.3052364226417
 20
295.7649158548768
 30
0.0
 10
368.3086452569983
 20
295.7511763257142
 30
0.0
 10
368.3096432560711
 20
295.7441630224583
 30
0.0
 10
368.3099124406599
 20
295.7370012002156
 30
0.0
  0
SPLINE
  5
1A3
330
1F
100
AcDbEntity
  8
1
100
AcDbSpline
210
0.0
220
0.0
230
1.0
 70
     8
 71
     3
 72
    10
 73
     6
 74
     0
 42
0.000000001
 43
0.0000000001
 40
0.0
 40
0.0
 40
0.0
 40
0.0
 40
0.8145002366082849
 40
0.8145002366082849
 40
1.0
 40
1.0
 40
1.0
 40
1.0
 10
367.244810969011
 20
296.1473000618286
 30
0.0
 10
367.2426637759139
 20
296.1528879051839
 30
0.0
 10
367.2410508898654
 20
296.1585797167371
 30
0.0
 10
367.239691173723
 20
296.1656883116913
 30
0.0
 10
367.2394652666413
 20
296.1670151394019
 30
0.0
 10
367.2392658521163
 20
296.1683475426325
 30
0.0
  0
SPLINE
  5
1A4
330
1F
100
AcDbEntity
  8
1
100
AcDbSpline
210
0.0
220
0.0
230
1.0
 70
     8
 71
     3
 72
     8
 73
     4
 74
     0
 42
0.000000001
 43
0.0000000001
 40
0.0
 40
0.0
 40
0.0
 40
0.0
 40
1.0
 40
1.0
 40
1.0
 40
1.0
 10
367.3302528994101
 20
296.3398556499927
 30
0.0
 10
367.3295356908027
 20
296.3352886254782
 30
0.0
 10
367.3285065646446
 20
296.3307832049097
 30
0.0
 10
367.3271964451302
 20
296.3263987942241
 30
0.0
  0
SPLINE
  5
1A5
330
1F
100
AcDbEntity
  8
1
100
AcDbSpline
210
0.0
220
0.0
230
1.0
 70
     8
 71
     3
 72
    21
 73
    17
 74
     0
 42
0.000000001
 43
0.0000000001
 40
0.0
 40
0.0
 40
0.0
 40
0.0
 40
0.2499999999999962
 40
0.2499999999999962
 40
0.3125000000000023
 40
0.3125000000000023
 40
0.3750000000000085
 40
0.3750000000000085
 40
0.5000000000000209
 40
0.6250000000000333
 40
0.6250000000000333
 40
0.6875000000000293
 40
0.6875000000000293
 40
0.7500000000000256
 40
0.7500000000000256
 40
1.0
 40
1.0
 40
1.0
 40
1.0
 10
367.181335863054
 20
296.8099097405384
 30
0.0
 10
367.2108500612038
 20
296.7800261626087
 30
0.0
 10
367.2366040833644
 20
296.747040919877
 30
0.0
 10
367.2640342024641
 20
296.7017558704511
 30
0.0
 10
367.2692789372917
 20
296.692493630705
 30
0.0
 10
367.2792708117137
 20
296.6735434988283
 30
0.0
 10
367.2840268346072
 20
296.663830705853
 30
0.0
 10
367.29732563944
 20
296.6344764025058
 30
0.0
 10
367.312623364835
 20
296.5945163105626
 30
0.0
 10
367.3231620847818
 20
296.5529485827768
 30
0.0
 10
367.3292503218296
 20
296.5211602940754
 30
0.0
 10
367.3309809741343
 20
296.5104230188203
 30
0.0
 10
367.3337960374413
 20
296.488943313691
 30
0.0
 10
367.3348805176864
 20
296.4782220456231
 30
0.0
 10
367.3387412104086
 20
296.4247031210302
 30
0.0
 10
367.3368971848879
 20
296.3821649786098
 30
0.0
 10
367.3302528994101
 20
296.3398556499927
 30
0.0
  0
SPLINE
  5
1A6
330
1F
100
AcDbEntity
  8
1
100
AcDbSpline
210
0.0
220
0.0
230
1.0
 70
     8
 71
     3
 72
    22
 73
    18
 74
     0
 42
0.000000001
 43
0.0000000001
 40
0.0
 40
0.0
 40
0.0
 40
0.0
 40
0.125
 40
0.125
 40
0.25
 40
0.25
 40
0.375
 40
0.375
 40
0.5
 40
0.5
 40
0.625
 40
0.625
 40
0.75
 40
0.75
 40
0.875
 40
0.875
 40
1.0
 40
1.0
 40
1.0
 40
1.0
 10
367.1044500356362
 20
296.8388640030521
 30
0.0
 10
367.0988026627297
 20
296.8385001156025
 30
0.0
 10
367.0931536088781
 20
296.8386123023128
 30
0.0
 10
367.0820488093949
 20
296.8397560668695
 30
0.0
 10
367.0765656167839
 20
296.8407849610859
 30
0.0
 10
367.0657426810208
 20
296.8437829843664
 30
0.0
 10
367.0604077832301
 20
296.8457620656517
 30
0.0
 10
367.0502563751603
 20
296.85055335346
 30
0.0
 10
367.0453912680919
 20
296.853376235301
 30
0.0
 10
367.0361025334616
 20
296.8599132796741
 30
0.0
 10
367.0317037337236
 20
296.863622937766
 30
0.0
 10
367.0236836860983
 20
296.8716971704243
 30
0.0
 10
367.020019968941
 20
296.8760890343129
 30
0.0
 10
367.0134268465472
 20
296.885622368183
 30
0.0
 10
367.010553634548
 20
296.8906956687236
 30
0.0
 10
367.0057706510247
 20
296.9012377409612
 30
0.0
 10
367.0038384183962
 20
296.9067374752496
 30
0.0
 10
367.0023954980947
 20
296.9124803696296
 30
0.0
  0
SPLINE
  5
1A7
330
1F
100
AcDbEntity
  8
1
100
AcDbSpline
210
0.0
220
0.0
230
1.0
 70
     8
 71
     3
 72
    14
 73
    10
 74
     0
 42
0.000000001
 43
0.0000000001
 40
0.0
 40
0.0
 40
0.0
 40
0.0
 40
0.5504899492457774
 40
0.5504899492457774
 40
0.6881124365572103
 40
0.6881124365572103
 40
0.825734923868643
 40
0.825734923868643
 40
1.0
 40
1.0
 40
1.0
 40
1.0
 10
367.0023954980946
 20
296.9124803696296
 30
0.0
 10
366.992016251215
 20
296.9537902871002
 30
0.0
 10
366.9865382337476
 20
296.9957844372408
 30
0.0
 10
366.9858169916121
 20
297.0491231670735
 30
0.0
 10
366.9859853531366
 20
297.0598563587472
 30
0.0
 10
366.9869412507867
 20
297.0811676007332
 30
0.0
 10
366.9877271358533
 20
297.0917710872767
 30
0.0
 10
366.990193336088
 20
297.1156852218003
 30
0.0
 10
366.9920549142198
 20
297.128965161644
 30
0.0
 10
366.9943980324315
 20
297.1421635084109
 30
0.0
  0
SPLINE
  5
1A8
330
1F
100
AcDbEntity
  8
1
100
AcDbSpline
210
0.0
220
0.0
230
1.0
 70
     8
 71
     3
 72
    14
 73
    10
 74
     0
 42
0.000000001
 43
0.0000000001
 40
0.0
 40
0.0
 40
0.0
 40
0.0
 40
0.25
 40
0.25
 40
0.5
 40
0.5
 40
0.75
 40
0.75
 40
1.0
 40
1.0
 40
1.0
 40
1.0
 10
367.6367513554372
 20
297.8618227078663
 30
0.0
 10
367.640577826948
 20
297.8560542011477
 30
0.0
 10
367.6437726810415
 20
297.8498919544943
 30
0.0
 10
367.6487629955632
 20
297.8370705222052
 30
0.0
 10
367.6505511713362
 20
297.8304617697173
 30
0.0
 10
367.6526985199107
 20
297.8168405950622
 30
0.0
 10
367.6530384188949
 20
297.809793956713
 30
0.0
 10
367.652180359781
 20
297.7959031409771
 30
0.0
 10
367.6510034350318
 20
297.7889835977127
 30
0.0
 10
367.6490131739182
 20
297.7820893102212
 30
0.0
  0
SPLINE
  5
1A9
330
1F
100
AcDbEntity
  8
1
100
AcDbSpline
210
0.0
220
0.0
230
1.0
 70
     8
 71
     3
 72
    12
 73
     8
 74
     0
 42
0.000000001
 43
0.0000000001
 40
0.0
 40
0.0
 40
0.0
 40
0.0
 40
0.398640119210309
 40
0.398640119210309
 40
0.797280238420618
 40
0.797280238420618
 40
1.0
 40
1.0
 40
1.0
 40
1.0
 10
367.6367513554367
 20
297.8618227078675
 30
0.0
 10
367.6336926446053
 20
297.8664337951139
 30
0.0
 10
367.6310459932463
 20
297.8712838017034
 30
0.0
 10
367.6266430674352
 20
297.8812798122709
 30
0.0
 10
367.6248712415827
 20
297.8864476473152
 30
0.0
 10
367.6228657284954
 20
297.8945062688002
 30
0.0
 10
367.6223069411967
 20
297.8972679256187
 30
0.0
 10
367.6218698423734
 20
297.9000501887033
 30
0.0
  0
SPLINE
  5
1AA
330
1F
100
AcDbEntity
  8
1
100
AcDbSpline
210
0.0
220
0.0
230
1.0
 70
     8
 71
     3
 72
    10
 73
     6
 74
     0
 42
0.000000001
 43
0.0000000001
 40
0.0
 40
0.0
 40
0.0
 40
0.0
 40
0.1390427329006116
 40
0.1390427329006116
 40
1.0
 40
1.0
 40
1.0
 40
1.0
 10
369.4829252390255
 20
296.5058716214808
 30
0.0
 10
369.4801800626011
 20
296.4995876234814
 30
0.0
 10
369.4773238385996
 20
296.4933696399189
 30
0.0
 10
369.4559925429603
 20
296.4491190163201
 30
0.0
 10
369.4334711761232
 20
296.4134920504011
 30
0.0
 10
369.4066869030896
 20
296.3804078192325
 30
0.0
  0
SPLINE
  5
1AB
330
1F
100
AcDbEntity
  8
1
100
AcDbSpline
210
0.0
220
0.0
230
1.0
 70
     8
 71
     3
 72
    20
 73
    16
 74
     0
 42
0.000000001
 43
0.0000000001
 40
0.0
 40
0.0
 40
0.0
 40
0.0
 40
0.125
 40
0.125
 40
0.2500000000000001
 40
0.2500000000000001
 40
0.3750000000000001
 40
0.3750000000000001
 40
0.5000000000000001
 40
0.5000000000000001
 40
0.6250000000000002
 40
0.6250000000000002
 40
0.7500000000000002
 40
0.7500000000000002
 40
1.0
 40
1.0
 40
1.0
 40
1.0
 10
369.4066869030896
 20
296.3804078192325
 30
0.0
 10
369.4029587389959
 20
296.3758027495877
 30
0.0
 10
369.3988852371887
 20
296.3716196051684
 30
0.0
 10
369.3900856629613
 20
296.3640519788729
 30
0.0
 10
369.3853078118068
 20
296.3606404105563
 30
0.0
 10
369.3753586468333
 20
296.3548019324105
 30
0.0
 10
369.3702069536986
 20
296.3523715106755
 30
0.0
 10
369.3595686418531
 20
296.348440180475
 30
0.0
 10
369.3540304143776
 20
296.3469317189858
 30
0.0
 10
369.3428679147449
 20
296.3449213231356
 30
0.0
 10
369.3372849376583
 20
296.3444160060625
 30
0.0
 10
369.3261175963483
 20
296.3443532660315
 30
0.0
 10
369.3205054545058
 20
296.3448009281245
 30
0.0
 10
369.3038517820636
 20
296.3475803103752
 30
0.0
 10
369.2933496143905
 20
296.3512283960777
 30
0.0
 10
369.2834436240067
 20
296.3566501277064
 30
0.0
  0
SPLINE
  5
1AC
330
1F
100
AcDbEntity
  8
1
100
AcDbSpline
210
0.0
220
0.0
230
1.0
 70
     8
 71
     3
 72
    14
 73
    10
 74
     0
 42
0.000000001
 43
0.0000000001
 40
0.0
 40
0.0
 40
0.0
 40
0.0
 40
0.25
 40
0.25
 40
0.5
 40
0.5
 40
0.75
 40
0.75
 40
1.0
 40
1.0
 40
1.0
 40
1.0
 10
369.2017612400651
 20
296.3627871991526
 30
0.0
 10
369.20853476659
 20
296.3653160839525
 30
0.0
 10
369.2155528341715
 20
296.3670610886568
 30
0.0
 10
369.2295458425526
 20
296.3689732105508
 30
0.0
 10
369.236537489261
 20
296.3691614229211
 30
0.0
 10
369.2505156003341
 20
296.368050419646
 30
0.0
 10
369.2574915248567
 20
296.3667296681062
 30
0.0
 10
369.2708161548206
 20
296.3627260882672
 30
0.0
 10
369.2772483958862
 20
296.3600408905628
 30
0.0
 10
369.2834436240067
 20
296.3566501277064
 30
0.0
  0
SPLINE
  5
1AD
330
1F
100
AcDbEntity
  8
1
100
AcDbSpline
210
0.0
220
0.0
230
1.0
 70
     8
 71
     3
 72
    21
 73
    17
 74
     0
 42
0.000000001
 43
0.0000000001
 40
0.0
 40
0.0
 40
0.0
 40
0.0
 40
0.2499999999998656
 40
0.2499999999998656
 40
0.3124999999998626
 40
0.3124999999998626
 40
0.3749999999998594
 40
0.3749999999998594
 40
0.4999999999999002
 40
0.624999999999941
 40
0.624999999999941
 40
0.6874999999999613
 40
0.6874999999999613
 40
0.7499999999999816
 40
0.7499999999999816
 40
1.0
 40
1.0
 40
1.0
 40
1.0
 10
368.8686402107304
 20
295.9994087064433
 30
0.0
 10
368.880529901912
 20
296.0405538531603
 30
0.0
 10
368.896842200011
 20
296.0798535376005
 30
0.0
 10
368.9229032251821
 20
296.1266660208913
 30
0.0
 10
368.9284026573867
 20
296.1359113444439
 30
0.0
 10
368.9399951930827
 20
296.1541608401014
 30
0.0
 10
368.9461054472027
 20
296.163185100283
 30
0.0
 10
368.9650673180537
 20
296.1894882599521
 30
0.0
 10
368.9921728938785
 20
296.2227623338015
 30
0.0
 10
369.0228414048564
 20
296.2525209579488
 30
0.0
 10
369.0472028607555
 20
296.273499452783
 30
0.0
 10
369.0555817055351
 20
296.2802914553184
 30
0.0
 10
369.0726419329275
 20
296.2932951236463
 30
0.0
 10
369.0813053162346
 20
296.2994966384779
 30
0.0
 10
369.1252703516562
 20
296.3290552503021
 30
0.0
 10
369.1624880026319
 20
296.3481246016383
 30
0.0
 10
369.2017612400651
 20
296.3627871991526
 30
0.0
  0
SPLINE
  5
1AE
330
1F
100
AcDbEntity
  8
1
100
AcDbSpline
210
0.0
220
0.0
230
1.0
 70
     8
 71
     3
 72
     8
 73
     4
 74
     0
 42
0.000000001
 43
0.0000000001
 40
0.0
 40
0.0
 40
0.0
 40
0.0
 40
1.0
 40
1.0
 40
1.0
 40
1.0
 10
369.2514727652712
 20
297.5247762610814
 30
0.0
 10
369.245686540214
 20
297.5186125836759
 30
0.0
 10
369.2391547859177
 20
297.5132952378213
 30
0.0
 10
369.2318853714913
 20
297.5088176509985
 30
0.0
  0
SPLINE
  5
1AF
330
1F
100
AcDbEntity
  8
1
100
AcDbSpline
210
0.0
220
0.0
230
1.0
 70
     8
 71
     3
 72
    14
 73
    10
 74
     0
 42
0.000000001
 43
0.0000000001
 40
0.0
 40
0.0
 40
0.0
 40
0.0
 40
0.1108813955960239
 40
0.1108813955960239
 40
0.4072542637306826
 40
0.4072542637306826
 40
0.7036271318653414
 40
0.7036271318653414
 40
1.0
 40
1.0
 40
1.0
 40
1.0
 10
369.1903374917414
 20
297.4546997307939
 30
0.0
 10
369.1910952681537
 20
297.4572357258796
 30
0.0
 10
369.1919526060229
 20
297.459725644413
 30
0.0
 10
369.1954435490045
 20
297.4686570755352
 30
0.0
 10
369.1986393021854
 20
297.4747660143594
 30
0.0
 10
369.2063030292259
 20
297.4862307529469
 30
0.0
 10
369.210784404069
 20
297.4915666500143
 30
0.0
 10
369.2206138121334
 20
297.501013449479
 30
0.0
 10
369.2260039808369
 20
297.5051950157009
 30
0.0
 10
369.2318853714913
 20
297.5088176509985
 30
0.0
  0
SPLINE
  5
1B0
330
1F
100
AcDbEntity
  8
1
100
AcDbSpline
210
0.0
220
0.0
230
1.0
 70
     8
 71
     3
 72
    21
 73
    17
 74
     0
 42
0.000000001
 43
0.0000000001
 40
0.0
 40
0.0
 40
0.0
 40
0.0
 40
0.2500000000000373
 40
0.2500000000000373
 40
0.3125000000000279
 40
0.3125000000000279
 40
0.3750000000000184
 40
0.3750000000000184
 40
0.4999999999999999
 40
0.6249999999999812
 40
0.6249999999999812
 40
0.6875000000000114
 40
0.6875000000000114
 40
0.7500000000000416
 40
0.7500000000000416
 40
1.0
 40
1.0
 40
1.0
 40
1.0
 10
368.864413881988
 20
295.7888800089399
 30
0.0
 10
368.8334710072637
 20
295.758993893122
 30
0.0
 10
368.7995593096413
 20
295.7330794422501
 30
0.0
 10
368.7534613382527
 20
295.7056497636391
 30
0.0
 10
368.7440330242202
 20
295.7004058579086
 30
0.0
 10
368.7250109067559
 20
295.6905404514965
 30
0.0
 10
368.7153958501558
 20
295.6859047697718
 30
0.0
 10
368.6862443390983
 20
295.672872547734
 30
0.0
 10
368.6465607151126
 20
295.6578234696979
 30
0.0
 10
368.6052581595851
 20
295.6473971337447
 30
0.0
 10
368.5736539027159
 20
295.6413688679461
 30
0.0
 10
368.5630344148949
 20
295.6396650604045
 30
0.0
 10
368.5418645400907
 20
295.6368984444706
 30
0.0
 10
368.5312809556136
 20
295.6358289294093
 30
0.0
 10
368.478369885097
 20
295.6320221378336
 30
0.0
 10
368.4360624206586
 20
295.6338465389187
 30
0.0
 10
368.3937815590425
 20
295.6406725234832
 30
0.0
  0
SPLINE
  5
1B1
330
1F
100
AcDbEntity
  8
1
100
AcDbSpline
210
0.0
220
0.0
230
1.0
 70
     8
 71
     3
 72
    21
 73
    17
 74
     0
 42
0.000000001
 43
0.0000000001
 40
0.0
 40
0.0
 40
0.0
 40
0.0
 40
0.2499999999999767
 40
0.2499999999999767
 40
0.3124999999999909
 40
0.3124999999999909
 40
0.3750000000000052
 40
0.3750000000000052
 40
0.5000000000000339
 40
0.6250000000000624
 40
0.6250000000000624
 40
0.6875000000000398
 40
0.6875000000000398
 40
0.7500000000000169
 40
0.7500000000000169
 40
1.0
 40
1.0
 40
1.0
 40
1.0
 10
367.7911493814601
 20
295.9185694386496
 30
0.0
 10
367.8323818056107
 20
295.9292591946834
 30
0.0
 10
367.8743113393375
 20
295.9351166249702
 30
0.0
 10
367.9276842914604
 20
295.9362478790478
 30
0.0
 10
367.9384074845722
 20
295.9361605635735
 30
0.0
 10
367.9599556123894
 20
295.9353379236483
 30
0.0
 10
367.9708064419703
 20
295.9345978231088
 30
0.0
 10
368.0030300715318
 20
295.9314237025446
 30
0.0
 10
368.0454087566539
 20
295.9246558972316
 30
0.0
 10
368.0866405746367
 20
295.9129283728816
 30
0.0
 10
368.11712713377
 20
295.9022409961306
 30
0.0
 10
368.12725209761
 20
295.8983469278453
 30
0.0
 10
368.1471637112795
 20
295.8899930206905
 30
0.0
 10
368.1569325816414
 20
295.8855437620157
 30
0.0
 10
368.2048766821421
 20
295.8619801655115
 30
0.0
 10
368.2403872800122
 20
295.8389689810456
 30
0.0
 10
368.273187447151
 20
295.8118938408132
 30
0.0
  0
SPLINE
  5
1B2
330
1F
100
AcDbEntity
  8
1
100
AcDbSpline
210
0.0
220
0.0
230
1.0
 70
     8
 71
     3
 72
    14
 73
    10
 74
     0
 42
0.000000001
 43
0.0000000001
 40
0.0
 40
0.0
 40
0.0
 40
0.0
 40
0.25
 40
0.25
 40
0.5
 40
0.5
 40
0.75
 40
0.75
 40
1.0
 40
1.0
 40
1.0
 40
1.0
 10
367.7260528683435
 20
295.8662100186937
 30
0.0
 10
367.7293360271771
 20
295.872582941278
 30
0.0
 10
367.7332767908018
 20
295.8786059418224
 30
0.0
 10
367.7422810552133
 20
295.8896813615494
 30
0.0
 10
367.747302887885
 20
295.8947007011921
 30
0.0
 10
367.7583991941659
 20
295.9036928084588
 30
0.0
 10
367.764513768774
 20
295.9076666558222
 30
0.0
 10
367.7773072577876
 20
295.914154897423
 30
0.0
 10
367.7840430580055
 20
295.9167270811944
 30
0.0
 10
367.7911493814601
 20
295.9185694386496
 30
0.0
  0
SPLINE
  5
1B3
330
1F
100
AcDbEntity
  8
1
100
AcDbSpline
210
0.0
220
0.0
230
1.0
 70
     8
 71
     3
 72
    22
 73
    18
 74
     0
 42
0.000000001
 43
0.0000000001
 40
0.0
 40
0.0
 40
0.0
 40
0.0
 40
0.125
 40
0.125
 40
0.25
 40
0.25
 40
0.375
 40
0.375
 40
0.5
 40
0.5
 40
0.625
 40
0.625
 40
0.75
 40
0.75
 40
0.875
 40
0.875
 40
1.0
 40
1.0
 40
1.0
 40
1.0
 10
367.7260528683429
 20
295.8662100186928
 30
0.0
 10
367.723428461176
 20
295.8611157955522
 30
0.0
 10
367.7203908678248
 20
295.856258958081
 30
0.0
 10
367.7136195172159
 20
295.8471737828387
 30
0.0
 10
367.709873834945
 20
295.8429203232843
 30
0.0
 10
367.7016420983258
 20
295.8350091735871
 30
0.0
 10
367.6971501992587
 20
295.8313609078373
 30
0.0
 10
367.6877137318443
 20
295.824932447795
 30
0.0
 10
367.6827346151854
 20
295.8221153565823
 30
0.0
 10
367.6722328222876
 20
295.8173115104218
 30
0.0
 10
367.666727346576
 20
295.8153442357948
 30
0.0
 10
367.6555521275188
 20
295.8124136942567
 30
0.0
 10
367.6498366867834
 20
295.8114272061904
 30
0.0
 10
367.6381365606801
 20
295.8104681378474
 30
0.0
 10
367.632240808767
 20
295.8105102839155
 30
0.0
 10
367.6206056884269
 20
295.8116302222446
 30
0.0
 10
367.6148279920616
 20
295.8127040137767
 30
0.0
 10
367.6090930670246
 20
295.8143250209916
 30
0.0
  0
SPLINE
  5
1B4
330
1F
100
AcDbEntity
  8
1
100
AcDbSpline
210
0.0
220
0.0
230
1.0
 70
     8
 71
     3
 72
    14
 73
    10
 74
     0
 42
0.000000001
 43
0.0000000001
 40
0.0
 40
0.0
 40
0.0
 40
0.0
 40
0.25
 40
0.25
 40
0.5
 40
0.5
 40
0.75
 40
0.75
 40
1.0
 40
1.0
 40
1.0
 40
1.0
 10
367.1044500356362
 20
296.8388640030521
 30
0.0
 10
367.1115146937872
 20
296.8393192130199
 30
0.0
 10
367.1186060082468
 20
296.8390310748139
 30
0.0
 10
367.1325131206715
 20
296.836994142796
 30
0.0
 10
367.1392810119781
 20
296.8352640586961
 30
0.0
 10
367.1524439050241
 20
296.830363507813
 30
0.0
 10
367.1588589652968
 20
296.8271594965926
 30
0.0
 10
367.1707226394078
 20
296.8195175760286
 30
0.0
 10
367.176248849008
 20
296.8150604202181
 30
0.0
 10
367.181335863054
 20
296.8099097405384
 30
0.0
  0
SPLINE
  5
1B5
330
1F
100
AcDbEntity
  8
1
100
AcDbSpline
210
0.0
220
0.0
230
1.0
 70
     8
 71
     3
 72
    20
 73
    16
 74
     0
 42
0.000000001
 43
0.0000000001
 40
0.0
 40
0.0
 40
0.0
 40
0.0
 40
0.125
 40
0.125
 40
0.25
 40
0.25
 40
0.3749999999999999
 40
0.3749999999999999
 40
0.5
 40
0.5
 40
0.625
 40
0.625
 40
0.75
 40
0.75
 40
1.0
 40
1.0
 40
1.0
 40
1.0
 10
368.3937815590425
 20
295.6406725234832
 30
0.0
 10
368.3878965854654
 20
295.6416226162028
 30
0.0
 10
368.3821978853704
 20
295.6430890274485
 30
0.0
 10
368.371153434
 20
295.6469983223341
 30
0.0
 10
368.3657577834434
 20
295.6494729028877
 30
0.0
 10
368.3556102730895
 20
295.6552666604514
 30
0.0
 10
368.3508670195783
 20
295.6585660402268
 30
0.0
 10
368.342009409209
 20
295.6659285443024
 30
0.0
 10
368.3378622785539
 20
295.6700327998695
 30
0.0
 10
368.3303882985712
 20
295.6788284828361
 30
0.0
 10
368.3270811710536
 20
295.683480475685
 30
0.0
 10
368.3212824562468
 20
295.6932648352534
 30
0.0
 10
368.3187812857186
 20
295.698423281876
 30
0.0
 10
368.3126055307591
 20
295.7144708464843
 30
0.0
 10
368.3103428661815
 20
295.7255494633658
 30
0.0
 10
368.3099124406599
 20
295.7370012002156
 30
0.0
  0
SPLINE
  5
1B6
330
1F
100
AcDbEntity
  8
1
100
AcDbSpline
210
0.0
220
0.0
230
1.0
 70
     8
 71
     3
 72
    21
 73
    17
 74
     0
 42
0.000000001
 43
0.0000000001
 40
0.0
 40
0.0
 40
0.0
 40
0.0
 40
0.2500000000001593
 40
0.2500000000001593
 40
0.3125000000001469
 40
0.3125000000001469
 40
0.3750000000001346
 40
0.3750000000001346
 40
0.5000000000001068
 40
0.625000000000079
 40
0.625000000000079
 40
0.6875000000000652
 40
0.6875000000000652
 40
0.7500000000000514
 40
0.7500000000000514
 40
1.0
 40
1.0
 40
1.0
 40
1.0
 10
367.6090930670244
 20
295.8143250209916
 30
0.0
 10
367.5678415745788
 20
295.8259849758202
 30
0.0
 10
367.5285044376361
 20
295.8422401647586
 30
0.0
 10
367.4817294182474
 20
295.8682971573325
 30
0.0
 10
367.47247726554
 20
295.8738125348752
 30
0.0
 10
367.454424399138
 20
295.885302901125
 30
0.0
 10
367.4456007626879
 20
295.8912891486991
 30
0.0
 10
367.4197271880368
 20
295.9099578867175
 30
0.0
 10
367.3868181352469
 20
295.9367382725794
 30
0.0
 10
367.3570656962896
 20
295.9672703602873
 30
0.0
 10
367.3359746370048
 20
295.991623400873
 30
0.0
 10
367.3291642735341
 20
295.9999696803258
 30
0.0
 10
367.3161289546295
 20
296.0169279035678
 30
0.0
 10
367.3098815436961
 20
296.0255652166884
 30
0.0
 10
367.2799714628302
 20
296.0695285227676
 30
0.0
 10
367.2602374666226
 20
296.1071542303754
 30
0.0
 10
367.244810969011
 20
296.1473000618286
 30
0.0
  0
SPLINE
  5
1B7
330
1F
100
AcDbEntity
  8
1
100
AcDbSpline
210
0.0
220
0.0
230
1.0
 70
     8
 71
     3
 72
    42
 73
    38
 74
     0
 42
0.000000001
 43
0.0000000001
 40
0.0
 40
0.0
 40
0.0
 40
0.0
 40
0.0605436827525015
 40
0.0605436827525015
 40
0.1210873655050029
 40
0.1210873655050029
 40
0.1816310482575043
 40
0.1816310482575043
 40
0.2421747310100058
 40
0.2421747310100058
 40
0.2724465723862559
 40
0.2724465723862559
 40
0.3027184137625061
 40
0.3027184137625061
 40
0.3632620965150051
 40
0.3632620965150051
 40
0.4238057792675042
 40
0.4238057792675042
 40
0.4843494620200034
 40
0.4843494620200034
 40
0.6054368275250014
 40
0.6054368275250014
 40
0.6659805102775006
 40
0.6659805102775006
 40
0.7265241930299996
 40
0.7265241930299996
 40
0.7870678757824987
 40
0.7870678757824987
 40
0.8476115585349973
 40
0.8476115585349973
 40
0.9081552412874957
 40
0.9081552412874957
 40
0.9686989240399944
 40
0.9686989240399944
 40
0.9989707654162437
 40
0.9989707654162437
 40
1.0
 40
1.0
 40
1.0
 40
1.0
 10
362.9326113024228
 20
300.5474658262165
 30
0.0
 10
362.2822914191696
 20
300.5816766413204
 30
0.0
 10
361.6285214520083
 20
300.606405197781
 30
0.0
 10
360.3140160262443
 20
300.6410632439521
 30
0.0
 10
359.6532818329217
 20
300.6509990603215
 30
0.0
 10
358.3251611300491
 20
300.6597087999582
 30
0.0
 10
357.6577756827139
 20
300.6584868894714
 30
0.0
 10
356.317006734751
 20
300.6478169431209
 30
0.0
 10
355.6436242835895
 20
300.6383714355904
 30
0.0
 10
354.6297753400057
 20
300.6196354739213
 30
0.0
 10
354.2911988077936
 20
300.6126224018003
 30
0.0
 10
353.6129387272831
 20
300.5972475707701
 30
0.0
 10
353.2732096316704
 20
300.5888846236488
 30
0.0
 10
352.2529230671409
 20
300.5619797008462
 30
0.0
 10
351.5715823601979
 20
300.541659622055
 30
0.0
 10
350.2075849553609
 20
300.4966528032739
 30
0.0
 10
349.5249292266927
 20
300.4719666839334
 30
0.0
 10
348.1594503415353
 20
300.4177102105674
 30
0.0
 10
347.4766879240597
 20
300.3880576895792
 30
0.0
 10
345.4285806649974
 20
300.2912679610271
 30
0.0
 10
344.0633964293145
 20
300.2163588131144
 30
0.0
 10
342.01657393358
 20
300.0868618700941
 30
0.0
 10
341.334416987449
 20
300.0408292984849
 30
0.0
 10
339.9706631702674
 20
299.9427122384899
 30
0.0
 10
339.2891310342605
 20
299.8906334904994
 30
0.0
 10
337.9268260970247
 20
299.780060383792
 30
0.0
 10
337.2460521745397
 20
299.7215683208449
 30
0.0
 10
335.8853444720159
 20
299.5977065922452
 30
0.0
 10
335.2054091829442
 20
299.5323411887028
 30
0.0
 10
333.8465117311943
 20
299.3940855742513
 30
0.0
 10
333.1675478420298
 20
299.3212018144794
 30
0.0
 10
331.8108276609369
 20
299.1669169993563
 30
0.0
 10
331.1331102417766
 20
299.0854262398152
 30
0.0
 10
330.1173877326231
 20
298.9564159128978
 30
0.0
 10
329.7789537550802
 20
298.9122881618617
 30
0.0
 10
329.4291428974574
 20
298.8654915233085
 30
0.0
 10
329.4176406221676
 20
298.8639514572568
 30
0.0
 10
329.4061384735353
 20
298.8624100820329
 30
0.0
  0
SPLINE
  5
1B8
330
1F
100
AcDbEntity
  8
1
100
AcDbSpline
210
0.0
220
0.0
230
1.0
 70
     8
 71
     3
 72
    33
 73
    29
 74
     0
 42
0.000000001
 43
0.0000000001
 40
0.0
 40
0.0
 40
0.0
 40
0.0
 40
0.0624999999999991
 40
0.0624999999999991
 40
0.1249999999999983
 40
0.1249999999999983
 40
0.1874999999999981
 40
0.1874999999999981
 40
0.2499999999999979
 40
0.2499999999999979
 40
0.3124999999999977
 40
0.3124999999999977
 40
0.3437499999999974
 40
0.3593749999999974
 40
0.3593749999999974
 40
0.3749999999999974
 40
0.3749999999999974
 40
0.4374999999999977
 40
0.4374999999999977
 40
0.4999999999999981
 40
0.4999999999999981
 40
0.6249999999999984
 40
0.6249999999999984
 40
0.7499999999999991
 40
0.7499999999999991
 40
0.8749999999999994
 40
0.8749999999999994
 40
1.0
 40
1.0
 40
1.0
 40
1.0
 10
291.7822589432653
 20
277.1728223230789
 30
0.0
 10
291.4907685951015
 20
277.1774390666035
 30
0.0
 10
291.2036843420592
 20
277.1755841082473
 30
0.0
 10
290.6372644795372
 20
277.1611431668892
 30
0.0
 10
290.3579307192444
 20
277.1485550931277
 30
0.0
 10
289.8061735545625
 20
277.114456309608
 30
0.0
 10
289.5337512490721
 20
277.0929438222585
 30
0.0
 10
288.9951553617236
 20
277.0424627913861
 30
0.0
 10
288.7289824652853
 20
277.0134925553833
 30
0.0
 10
288.2023748300714
 20
276.949272139
 30
0.0
 10
287.9419405683198
 20
276.9140202831221
 30
0.0
 10
287.5553106234142
 20
276.8571345415097
 30
0.0
 10
287.3630025246792
 20
276.8276871035935
 30
0.0
 10
287.1721647987357
 20
276.7968439753115
 30
0.0
 10
287.0452628215622
 20
276.7759828305742
 30
0.0
 10
286.9820124954518
 20
276.765409067418
 30
0.0
 10
286.6671732788408
 20
276.7119275598868
 30
0.0
 10
286.4193981012286
 20
276.6671201947468
 30
0.0
 10
285.9315048630433
 20
276.5741662120394
 30
0.0
 10
285.6913883823659
 20
276.5260176476695
 30
0.0
 10
284.9820109274449
 20
276.3774212713634
 30
0.0
 10
284.523668386605
 20
276.2728376139661
 30
0.0
 10
283.6350230509028
 20
276.0564452201955
 30
0.0
 10
283.2047436476988
 20
275.9446072020124
 30
0.0
 10
282.3726182435848
 20
275.7173007634692
 30
0.0
 10
281.9707840901121
 20
275.6018075520633
 30
0.0
 10
281.1968569387188
 20
275.3714187669396
 30
0.0
 10
280.8247673119422
 20
275.2564875682569
 30
0.0
 10
280.4685504442805
 20
275.1447061045837
 30
0.0
  0
SPLINE
  5
1BF
330
1F
100
AcDbEntity
  8
1
100
AcDbSpline
210
0.0
220
0.0
230
1.0
 70
     8
 71
     3
 72
    36
 73
    32
 74
     0
 42
0.000000001
 43
0.0000000001
 40
0.0
 40
0.0
 40
0.0
 40
0.0
 40
0.1249999999999639
 40
0.1249999999999639
 40
0.1874999999999522
 40
0.1874999999999522
 40
0.2187499999999484
 40
0.2187499999999484
 40
0.2499999999999445
 40
0.2499999999999445
 40
0.3749999999999668
 40
0.3749999999999668
 40
0.4062499999999776
 40
0.4062499999999776
 40
0.4374999999999882
 40
0.4374999999999882
 40
0.5000000000000096
 40
0.5000000000000096
 40
0.6250000000000268
 40
0.6250000000000268
 40
0.6562500000000301
 40
0.6562500000000301
 40
0.6875000000000331
 40
0.7500000000000064
 40
0.8124999999999797
 40
0.8124999999999797
 40
0.8437499999999831
 40
0.8437499999999831
 40
0.8749999999999864
 40
0.8749999999999864
 40
1.0
 40
1.0
 40
1.0
 40
1.0
 10
372.1719867300408
 20
300.3049244823849
 30
0.0
 10
372.1697267142466
 20
300.3554288473168
 30
0.0
 10
372.1623039815351
 20
300.4048200695502
 30
0.0
 10
372.1439565976309
 20
300.4773516335572
 30
0.0
 10
372.1366282092819
 20
300.5012673720435
 30
0.0
 10
372.1237953306486
 20
300.5367441902122
 30
0.0
 10
372.1191964930497
 20
300.5485353126197
 30
0.0
 10
372.1094549010881
 20
300.5717935596189
 30
0.0
 10
372.1043146338566
 20
300.5832606400181
 30
0.0
 10
372.0772973416684
 20
300.6398047086361
 30
0.0
 10
372.0515119737032
 20
300.6825314646257
 30
0.0
 10
372.0141528683975
 20
300.7328566158034
 30
0.0
 10
372.0064222338859
 20
300.7427660118708
 30
0.0
 10
371.9904355989115
 20
300.7622688818906
 30
0.0
 10
371.9821732836517
 20
300.7718664979128
 30
0.0
 10
371.95685892193
 20
300.7998833671446
 30
0.0
 10
371.9391986847219
 20
300.8176329871819
 30
0.0
 10
371.8839282869383
 20
300.8681707378303
 30
0.0
 10
371.8440516401426
 20
300.8982752289321
 30
0.0
 10
371.7902757769452
 20
300.9312524502672
 30
0.0
 10
371.7793192740947
 20
300.9376121293204
 30
0.0
 10
371.7572475496777
 20
300.9497210593764
 30
0.0
 10
371.7238132878367
 20
300.9670238950777
 30
0.0
 10
371.6664818536088
 20
300.9916268896077
 30
0.0
 10
371.6189078371254
 20
301.0068076173118
 30
0.0
 10
371.5825687455823
 20
301.0164582702483
 30
0.0
 10
371.570345742384
 20
301.0193854539025
 30
0.0
 10
371.545674090365
 20
301.0246454037333
 30
0.0
 10
371.5332123249327
 20
301.0269786615034
 30
0.0
 10
371.4709294753969
 20
301.0370258054303
 30
0.0
 10
371.4207367709561
 20
301.0400428557117
 30
0.0
 10
371.370162960196
 20
301.0378380786449
 30
0.0
  0
SPLINE
  5
1C0
330
1F
100
AcDbEntity
  8
1
100
AcDbSpline
210
0.0
220
0.0
230
1.0
 70
     8
 71
     3
 72
    36
 73
    32
 74
     0
 42
0.000000001
 43
0.0000000001
 40
0.0
 40
0.0
 40
0.0
 40
0.0
 40
0.1249999999999702
 40
0.1249999999999702
 40
0.1874999999999553
 40
0.1874999999999553
 40
0.2187499999999633
 40
0.2187499999999633
 40
0.2499999999999714
 40
0.2499999999999714
 40
0.3749999999999997
 40
0.3749999999999997
 40
0.4062499999999986
 40
0.4062499999999986
 40
0.4374999999999975
 40
0.4374999999999975
 40
0.4999999999999668
 40
0.4999999999999668
 40
0.624999999999929
 40
0.624999999999929
 40
0.6562499999999303
 40
0.6562499999999303
 40
0.6874999999999316
 40
0.7499999999999458
 40
0.8124999999999596
 40
0.8124999999999596
 40
0.8437499999999646
 40
0.8437499999999646
 40
0.8749999999999694
 40
0.8749999999999694
 40
1.0
 40
1.0
 40
1.0
 40
1.0
 10
364.977338051316
 20
300.7591413868416
 30
0.0
 10
364.9267575625965
 20
300.7569363186477
 30
0.0
 10
364.8772972040888
 20
300.7495753988119
 30
0.0
 10
364.804671698538
 20
300.7313303263004
 30
0.0
 10
364.7807262873969
 20
300.7240376542313
 30
0.0
 10
364.7452074510064
 20
300.7112607972058
 30
0.0
 10
364.7334027032727
 20
300.7066810960381
 30
0.0
 10
364.7101182627998
 20
300.6969782896517
 30
0.0
 10
364.6986386117879
 20
300.6918576676654
 30
0.0
 10
364.6420342594217
 20
300.6649398345739
 30
0.0
 10
364.599267421071
 20
300.6392379420424
 30
0.0
 10
364.5489021778331
 20
300.6019879846968
 30
0.0
 10
364.5389852686692
 20
300.5942794222501
 30
0.0
 10
364.5194683981982
 20
300.5783374236012
 30
0.0
 10
364.5098642948215
 20
300.5700976866056
 30
0.0
 10
364.481829705757
 20
300.5448510864156
 30
0.0
 10
364.4640705126134
 20
300.5272362926953
 30
0.0
 10
364.4135105849776
 20
300.4721030113877
 30
0.0
 10
364.3833999660364
 20
300.4323188156289
 30
0.0
 10
364.3504263142661
 20
300.3786598653527
 30
0.0
 10
364.3440679203186
 20
300.3677268168692
 30
0.0
 10
364.3319626700575
 20
300.3457016252985
 30
0.0
 10
364.3146670231376
 20
300.3123367922784
 30
0.0
 10
364.290084223986
 20
300.255119249667
 30
0.0
 10
364.2749283837475
 20
300.2076344086257
 30
0.0
 10
364.2652997613035
 20
300.1713614518376
 30
0.0
 10
364.2623804830328
 20
300.1591603688491
 30
0.0
 10
364.2571374968648
 20
300.1345323013684
 30
0.0
 10
364.2548133099722
 20
300.1220922210885
 30
0.0
 10
364.244814008267
 20
300.059916107734
 30
0.0
 10
364.2418434013815
 20
300.0098042457167
 30
0.0
 10
364.2441031187941
 20
299.9593065486938
 30
0.0
  0
SPLINE
  5
1C1
330
1F
100
AcDbEntity
  8
1
100
AcDbSpline
210
0.0
220
0.0
230
1.0
 70
     8
 71
     3
 72
    36
 73
    32
 74
     0
 42
0.000000001
 43
0.0000000001
 40
0.0
 40
0.0
 40
0.0
 40
0.0
 40
0.1249999999999912
 40
0.1249999999999912
 40
0.1874999999999837
 40
0.1874999999999837
 40
0.2187499999999808
 40
0.2187499999999808
 40
0.249999999999978
 40
0.249999999999978
 40
0.3749999999999351
 40
0.3749999999999351
 40
0.4062499999999297
 40
0.4062499999999297
 40
0.4374999999999239
 40
0.4374999999999239
 40
0.4999999999999143
 40
0.4999999999999143
 40
0.6249999999999222
 40
0.6249999999999222
 40
0.6562499999999245
 40
0.6562499999999245
 40
0.6874999999999268
 40
0.7499999999999614
 40
0.812499999999996
 40
0.812499999999996
 40
0.8437499999999966
 40
0.8437499999999966
 40
0.8749999999999971
 40
0.8749999999999971
 40
1.0
 40
1.0
 40
1.0
 40
1.0
 10
364.5297445910277
 20
293.5761028605075
 30
0.0
 10
364.5320046068219
 20
293.5255984955757
 30
0.0
 10
364.5394273395335
 20
293.4762072733422
 30
0.0
 10
364.5577747234375
 20
293.4036757093352
 30
0.0
 10
364.5651031117866
 20
293.3797599708489
 30
0.0
 10
364.57793599042
 20
293.3442831526802
 30
0.0
 10
364.5825348280189
 20
293.3324920302727
 30
0.0
 10
364.5922764199804
 20
293.3092337832735
 30
0.0
 10
364.5974166872118
 20
293.2977667028743
 30
0.0
 10
364.6244339794001
 20
293.2412226342562
 30
0.0
 10
364.6502193473653
 20
293.1984958782668
 30
0.0
 10
364.6875784526711
 20
293.148170727089
 30
0.0
 10
364.6953090871826
 20
293.1382613310215
 30
0.0
 10
364.711295722157
 20
293.1187584610018
 30
0.0
 10
364.7195580374169
 20
293.1091608449796
 30
0.0
 10
364.7448723991384
 20
293.0811439757479
 30
0.0
 10
364.7625326363466
 20
293.0633943557105
 30
0.0
 10
364.8178030341302
 20
293.012856605062
 30
0.0
 10
364.8576796809259
 20
292.9827521139602
 30
0.0
 10
364.9114555441233
 20
292.9497748926252
 30
0.0
 10
364.9224120469738
 20
292.943415213572
 30
0.0
 10
364.9444837713908
 20
292.931306283516
 30
0.0
 10
364.9779180332318
 20
292.9140034478146
 30
0.0
 10
365.0352494674597
 20
292.8894004532847
 30
0.0
 10
365.0828234839431
 20
292.8742197255806
 30
0.0
 10
365.1191625754863
 20
292.8645690726441
 30
0.0
 10
365.1313855786844
 20
292.8616418889899
 30
0.0
 10
365.1560572307037
 20
292.856381939159
 30
0.0
 10
365.1685189961358
 20
292.854048681389
 30
0.0
 10
365.2308018456716
 20
292.8440015374621
 30
0.0
 10
365.2809945501124
 20
292.8409844871808
 30
0.0
 10
365.3315683608725
 20
292.8431892642475
 30
0.0
  0
SPLINE
  5
1C2
330
1F
100
AcDbEntity
  8
1
100
AcDbSpline
210
0.0
220
0.0
230
1.0
 70
     8
 71
     3
 72
    36
 73
    32
 74
     0
 42
0.000000001
 43
0.0000000001
 40
0.0
 40
0.0
 40
0.0
 40
0.0
 40
0.1249999999999734
 40
0.1249999999999734
 40
0.1874999999999601
 40
0.1874999999999601
 40
0.2187499999999372
 40
0.2187499999999372
 40
0.2499999999999144
 40
0.2499999999999144
 40
0.3749999999998212
 40
0.3749999999998212
 40
0.4062499999998118
 40
0.4062499999998118
 40
0.4374999999998023
 40
0.4374999999998023
 40
0.499999999999809
 40
0.499999999999809
 40
0.6249999999998459
 40
0.6249999999998459
 40
0.6562499999998654
 40
0.6562499999998654
 40
0.6874999999998849
 40
0.7499999999999089
 40
0.8124999999999328
 40
0.8124999999999328
 40
0.8437499999999459
 40
0.8437499999999459
 40
0.8749999999999589
 40
0.8749999999999589
 40
1.0
 40
1.0
 40
1.0
 40
1.0
 10
371.7243932697527
 20
293.1218859560508
 30
0.0
 10
371.7749737584719
 20
293.1240910242447
 30
0.0
 10
371.8244341169797
 20
293.1314519440804
 30
0.0
 10
371.8970596225305
 20
293.149697016592
 30
0.0
 10
371.9210050336718
 20
293.1569896886612
 30
0.0
 10
371.9565238700621
 20
293.1697665456866
 30
0.0
 10
371.9683286177957
 20
293.1743462468543
 30
0.0
 10
371.9916130582687
 20
293.1840490532407
 30
0.0
 10
372.0030927092806
 20
293.189169675227
 30
0.0
 10
372.0596970616468
 20
293.2160875083185
 30
0.0
 10
372.1024638999975
 20
293.2417894008499
 30
0.0
 10
372.1528291432355
 20
293.2790393581957
 30
0.0
 10
372.1627460523994
 20
293.2867479206423
 30
0.0
 10
372.1822629228703
 20
293.3026899192912
 30
0.0
 10
372.1918670262471
 20
293.3109296562868
 30
0.0
 10
372.2199016153116
 20
293.3361762564768
 30
0.0
 10
372.2376608084551
 20
293.3537910501971
 30
0.0
 10
372.2882207360909
 20
293.4089243315047
 30
0.0
 10
372.3183313550321
 20
293.4487085272635
 30
0.0
 10
372.3513050068024
 20
293.5023674775396
 30
0.0
 10
372.3576634007499
 20
293.5133005260232
 30
0.0
 10
372.369768651011
 20
293.5353257175939
 30
0.0
 10
372.3870642979308
 20
293.568690550614
 30
0.0
 10
372.4116470970827
 20
293.6259080932255
 30
0.0
 10
372.426802937321
 20
293.6733929342669
 30
0.0
 10
372.436431559765
 20
293.7096658910548
 30
0.0
 10
372.4393508380358
 20
293.7218669740433
 30
0.0
 10
372.4445938242037
 20
293.746495041524
 30
0.0
 10
372.4469180110963
 20
293.7589351218039
 30
0.0
 10
372.4569173128015
 20
293.8211112351584
 30
0.0
 10
372.4598879196869
 20
293.8712230971756
 30
0.0
 10
372.4576282022744
 20
293.9217207941986
 30
0.0
  0
SPLINE
  5
1C3
330
1F
100
AcDbEntity
  8
1
100
AcDbSpline
210
0.0
220
0.0
230
1.0
 70
     8
 71
     3
 72
    16
 73
    12
 74
     0
 42
0.000000001
 43
0.0000000001
 40
0.0
 40
0.0
 40
0.0
 40
0.0
 40
0.1250000000000032
 40
0.1250000000000032
 40
0.2500000000000063
 40
0.2500000000000063
 40
0.5000000000000043
 40
0.5000000000000043
 40
0.7500000000000022
 40
0.7500000000000022
 40
1.0
 40
1.0
 40
1.0
 40
1.0
 10
358.8726424240751
 20
291.8991554585804
 30
0.0
 10
358.7187364424486
 20
291.9797479680136
 30
0.0
 10
358.5647687911924
 20
292.0612942687851
 30
0.0
 10
358.2567284435791
 20
292.2260115129238
 30
0.0
 10
358.1026556967414
 20
292.309183237031
 30
0.0
 10
357.6403007083287
 20
292.5608133719801
 30
0.0
 10
357.3318827618591
 20
292.731370614183
 30
0.0
 10
356.7147619319225
 20
293.0768919750558
 30
0.0
 10
356.406058562763
 20
293.2518636055158
 30
0.0
 10
355.7884148530783
 20
293.6054718995603
 30
0.0
 10
355.4794742604607
 20
293.7841124620443
 30
0.0
 10
355.1704304012043
 20
293.9643501611748
 30
0.0
  0
SPLINE
  5
1C4
330
1F
100
AcDbEntity
  8
1
100
AcDbSpline
210
0.0
220
0.0
230
1.0
 70
     8
 71
     3
 72
    10
 73
     6
 74
     0
 42
0.000000001
 43
0.0000000001
 40
0.0
 40
0.0
 40
0.0
 40
0.0
 40
0.5
 40
0.5
 40
1.0
 40
1.0
 40
1.0
 40
1.0
 10
365.8372003048125
 20
292.5928575943801
 30
0.0
 10
365.7999366114195
 20
292.5644475897371
 30
0.0
 10
365.7612278526677
 20
292.5385928804045
 30
0.0
 10
365.6809553963486
 20
292.4918619230441
 30
0.0
 10
365.6393917790808
 20
292.470986018095
 30
0.0
 10
365.596339549518
 20
292.4526768120435
 30
0.0
  0
SPLINE
  5
1C5
330
1F
100
AcDbEntity
  8
1
100
AcDbSpline
210
0.0
220
0.0
230
1.0
 70
     8
 71
     3
 72
    16
 73
    12
 74
     0
 42
0.000000001
 43
0.0000000001
 40
0.0
 40
0.0
 40
0.0
 40
0.0
 40
0.2500000000000043
 40
0.2500000000000043
 40
0.5000000000000087
 40
0.5000000000000087
 40
0.6250000000000064
 40
0.6250000000000064
 40
0.7500000000000044
 40
0.7500000000000044
 40
1.0
 40
1.0
 40
1.0
 40
1.0
 10
365.6027841630765
 20
292.0486080276767
 30
0.0
 10
365.2043318814151
 20
292.0311181904278
 30
0.0
 10
364.8073526272683
 20
292.0323307395345
 30
0.0
 10
364.0162774024878
 20
292.071321896931
 30
0.0
 10
363.6221815336162
 20
292.109102123359
 30
0.0
 10
363.0332130529648
 20
292.1933059405588
 30
0.0
 10
362.8372533894199
 20
292.2259702611971
 30
0.0
 10
362.4460700780231
 20
292.3006015101598
 30
0.0
 10
362.2517165566267
 20
292.3424050574425
 30
0.0
 10
361.6728137326899
 20
292.4810344134186
 30
0.0
 10
361.2922020003614
 20
292.5910911874108
 30
0.0
 10
360.9169221085205
 20
292.7187218390622
 30
0.0
  0
SPLINE
  5
1C6
330
1F
100
AcDbEntity
  8
1
100
AcDbSpline
210
0.0
220
0.0
230
1.0
 70
     8
 71
     3
 72
     8
 73
     4
 74
     0
 42
0.000000001
 43
0.0000000001
 40
0.0
 40
0.0
 40
0.0
 40
0.0
 40
1.0
 40
1.0
 40
1.0
 40
1.0
 10
365.6027841630765
 20
292.0486080276767
 30
0.0
 10
365.6062973413979
 20
292.0487622366495
 30
0.0
 10
365.6098112750947
 20
292.0489159533207
 30
0.0
 10
365.6133259651451
 20
292.0490691770525
 30
0.0
  0
SPLINE
  5
1C7
330
1F
100
AcDbEntity
  8
1
100
AcDbSpline
210
0.0
220
0.0
230
1.0
 70
     8
 71
     3
 72
    27
 73
    23
 74
     0
 42
0.000000001
 43
0.0000000001
 40
0.0
 40
0.0
 40
0.0
 40
0.0
 40
0.1249999999999892
 40
0.1249999999999892
 40
0.2499999999999785
 40
0.2499999999999785
 40
0.2812499999999771
 40
0.2812499999999771
 40
0.3124999999999757
 40
0.3749999999999784
 40
0.3749999999999784
 40
0.4999999999999839
 40
0.4999999999999839
 40
0.5312499999999824
 40
0.5312499999999824
 40
0.5624999999999809
 40
0.6249999999999836
 40
0.6249999999999836
 40
0.749999999999989
 40
0.8749999999999944
 40
0.8749999999999944
 40
1.0
 40
1.0
 40
1.0
 40
1.0
 10
358.8841634295056
 20
291.5624224561598
 30
0.0
 10
359.1357736259454
 20
291.4041818879327
 30
0.0
 10
359.3931034927691
 20
291.2558254920194
 30
0.0
 10
359.9190051619308
 20
290.9789887838857
 30
0.0
 10
360.1875765302542
 20
290.8505070498127
 30
0.0
 10
360.5302966733045
 20
290.7025379015884
 30
0.0
 10
360.5992165336004
 20
290.6735668403436
 30
0.0
 10
360.737456106158
 20
290.6170180611215
 30
0.0
 10
360.9455136890116
 20
290.5342410570424
 30
0.0
 10
361.155652132006
 20
290.4575787399029
 30
0.0
 10
361.5786783480224
 20
290.3123735788471
 30
0.0
 10
361.8643573518381
 20
290.2263848448961
 30
0.0
 10
362.2260122581813
 20
290.1324708140151
 30
0.0
 10
362.2985927723156
 20
290.1143623815648
 30
0.0
 10
362.4441198947247
 20
290.0795311201585
 30
0.0
 10
362.662616069918
 20
290.0294439438281
 30
0.0
 10
362.881722503833
 20
289.9857779073118
 30
0.0
 10
363.3207365305262
 20
289.9068920148346
 30
0.0
 10
363.9082223157151
 20
289.8242079362674
 30
0.0
 10
364.4999085675408
 20
289.7859348669237
 30
0.0
 10
365.0937045161618
 20
289.7699963665353
 30
0.0
 10
365.3916572147802
 20
289.7731931302004
 30
0.0
 10
365.690691785441
 20
289.7878407530386
 30
0.0
  0
SPLINE
  5
1C8
330
1F
100
AcDbEntity
  8
1
100
AcDbSpline
210
0.0
220
0.0
230
1.0
 70
     8
 71
     3
 72
    26
 73
    22
 74
     0
 42
0.000000001
 43
0.0000000001
 40
0.0
 40
0.0
 40
0.0
 40
0.0
 40
0.1250000000000047
 40
0.1250000000000047
 40
0.2500000000000093
 40
0.2500000000000093
 40
0.3125000000000085
 40
0.3125000000000085
 40
0.3750000000000078
 40
0.3750000000000078
 40
0.5000000000000061
 40
0.5000000000000061
 40
0.6250000000000043
 40
0.6250000000000043
 40
0.6875000000000035
 40
0.6875000000000035
 40
0.7500000000000027
 40
0.7500000000000027
 40
0.8750000000000014
 40
0.8750000000000014
 40
1.0
 40
1.0
 40
1.0
 40
1.0
 10
364.9678419452958
 20
290.532169855798
 30
0.0
 10
364.699164833687
 20
290.5251678115751
 30
0.0
 10
364.4315208205947
 20
290.5264841666899
 30
0.0
 10
363.8985753969596
 20
290.5450809714704
 30
0.0
 10
363.6332629941141
 20
290.562372623402
 30
0.0
 10
363.2370185031764
 20
290.6002423567427
 30
0.0
 10
363.1052230381608
 20
290.6148579303984
 30
0.0
 10
362.8421906467252
 20
290.648102727708
 30
0.0
 10
362.7112063157459
 20
290.6667017415069
 30
0.0
 10
362.3202802167611
 20
290.7283474620859
 30
0.0
 10
362.0621573522118
 20
290.7772593652635
 30
0.0
 10
361.5506211702607
 20
290.8908447711631
 30
0.0
 10
361.2972073207261
 20
290.9555187233536
 30
0.0
 10
360.9204402515081
 20
291.0646721734691
 30
0.0
 10
360.7953457221544
 20
291.103103307452
 30
0.0
 10
360.5470879524695
 20
291.1838576204937
 30
0.0
 10
360.4238290447024
 20
291.2262011916571
 30
0.0
 10
360.0566077201848
 20
291.3591751495039
 30
0.0
 10
359.8151972609182
 20
291.4557413283374
 30
0.0
 10
359.3389856982362
 20
291.6651089645042
 30
0.0
 10
359.1041852599141
 20
291.7779085909516
 30
0.0
 10
358.872642424075
 20
291.8991554585803
 30
0.0
  0
SPLINE
  5
1C9
330
1F
100
AcDbEntity
  8
1
100
AcDbSpline
210
0.0
220
0.0
230
1.0
 70
     9
 71
     3
 72
   121
 73
   117
 74
     0
 42
0.000000001
 43
0.0000000001
 40
0.0
 40
0.0
 40
0.0
 40
0.0
 40
0.0312500000000217
 40
0.0312500000000217
 40
0.0468750000000357
 40
0.0468750000000357
 40
0.0546875000000427
 40
0.0546875000000427
 40
0.0625000000000497
 40
0.0625000000000497
 40
0.0937500000000893
 40
0.0937500000000893
 40
0.1015625000001018
 40
0.1015625000001018
 40
0.1093750000001143
 40
0.1093750000001143
 40
0.1250000000001346
 40
0.1250000000001346
 40
0.1562500000001709
 40
0.1562500000001709
 40
0.1875000000002073
 40
0.1875000000002073
 40
0.2031250000002256
 40
0.2031250000002256
 40
0.2109375000002346
 40
0.2109375000002346
 40
0.2187500000002435
 40
0.2187500000002435
 40
0.2500000000002799
 40
0.2500000000002799
 40
0.257812500000289
 40
0.257812500000289
 40
0.265625000000298
 40
0.265625000000298
 40
0.2812500000003161
 40
0.2812500000003161
 40
0.3125000000003511
 40
0.3125000000003511
 40
0.3281250000003673
 40
0.3281250000003673
 40
0.3437500000003836
 40
0.3437500000003836
 40
0.3750000000004163
 40
0.3750000000004163
 40
0.3828125000004234
 40
0.3828125000004234
 40
0.3906250000004306
 40
0.4062500000004401
 40
0.4218750000004495
 40
0.4218750000004495
 40
0.4296875000004513
 40
0.4296875000004513
 40
0.4375000000004531
 40
0.4375000000004531
 40
0.4687500000004602
 40
0.4687500000004602
 40
0.4843750000004638
 40
0.4843750000004638
 40
0.4921875000004655
 40
0.4921875000004655
 40
0.5000000000004673
 40
0.5000000000004673
 40
0.531250000000468
 40
0.531250000000468
 40
0.5390625000004636
 40
0.5390625000004636
 40
0.5468750000004591
 40
0.5625000000004502
 40
0.5781250000004413
 40
0.5781250000004413
 40
0.5937500000004324
 40
0.5937500000004324
 40
0.6250000000004095
 40
0.6250000000004095
 40
0.6328125000004037
 40
0.6328125000004037
 40
0.6406250000003979
 40
0.6406250000003979
 40
0.6562500000003827
 40
0.6562500000003827
 40
0.6875000000003523
 40
0.6875000000003523
 40
0.6953125000003441
 40
0.6953125000003441
 40
0.7031250000003359
 40
0.7187500000003193
 40
0.7343750000003026
 40
0.7343750000003026
 40
0.742187500000294
 40
0.742187500000294
 40
0.7500000000002853
 40
0.7500000000002853
 40
0.7812500000002514
 40
0.7812500000002514
 40
0.7968750000002344
 40
0.7968750000002344
 40
0.8125000000002174
 40
0.8125000000002174
 40
0.8437500000001808
 40
0.8437500000001808
 40
0.8593750000001623
 40
0.8593750000001623
 40
0.875000000000144
 40
0.875000000000144
 40
0.906250000000112
 40
0.906250000000112
 40
0.9218750000000934
 40
0.9218750000000934
 40
0.9375000000000747
 40
0.9531250000000557
 40
0.9531250000000557
 40
0.9609375000000465
 40
0.9609375000000465
 40
0.9687500000000371
 40
0.9687500000000371
 40
1.0
 40
1.0
 40
1.0
 40
1.0
 10
368.7962249652845
 20
286.8869886193043
 30
0.0
 10
368.8651935446082
 20
286.8857847682742
 30
0.0
 10
368.9328446552246
 20
286.8777107005802
 30
0.0
 10
369.032427212769
 20
286.8557333303077
 30
0.0
 10
369.0653032468118
 20
286.8467504811674
 30
0.0
 10
369.1141282992808
 20
286.8307324065295
 30
0.0
 10
369.1303678895918
 20
286.824949602807
 30
0.0
 10
369.1624007410683
 20
286.812625642458
 30
0.0
 10
369.1781958178733
 20
286.8060873709124
 30
0.0
 10
369.2560866896923
 20
286.7715542177165
 30
0.0
 10
369.3149605247184
 20
286.7380869730117
 30
0.0
 10
369.3842809598737
 20
286.6890331589225
 30
0.0
 10
369.3979294925248
 20
286.6788581182843
 30
0.0
 10
369.4247881058856
 20
286.657768097343
 30
0.0
 10
369.4379947647714
 20
286.6468517397756
 30
0.0
 10
369.4765130386306
 20
286.6133650423416
 30
0.0
 10
369.5008805978068
 20
286.5899411502703
 30
0.0
 10
369.5701677173458
 20
286.5164839237461
 30
0.0
 10
369.6113072161024
 20
286.4632945884451
 30
0.0
 10
369.6832307930203
 20
286.3483418588423
 30
0.0
 10
369.712856554487
 20
286.288425229926
 30
0.0
 10
369.7482782652641
 20
286.1952243780138
 30
0.0
 10
369.7585743825471
 20
286.1635941128842
 30
0.0
 10
369.7717228909152
 20
286.1152975732571
 30
0.0
 10
369.775730069439
 20
286.0990209812092
 30
0.0
 10
369.7829280825715
 20
286.0663506046415
 30
0.0
 10
369.786111065214
 20
286.0500019358615
 30
0.0
 10
369.7999942492967
 20
285.9681941971052
 30
0.0
 10
369.80465506584
 20
285.9025449754534
 30
0.0
 10
369.8026118805352
 20
285.8202457653868
 30
0.0
 10
369.8018063385613
 20
285.803773852575
 30
0.0
 10
369.7993922393778
 20
285.7708055382124
 30
0.0
 10
369.7977786031136
 20
285.7542702637979
 30
0.0
 10
369.791748662134
 20
285.7049227879057
 30
0.0
 10
369.7861695546722
 20
285.6724847443603
 30
0.0
 10
369.7649100560767
 20
285.5765004486391
 30
0.0
 10
369.7447497282143
 20
285.5142727463746
 30
0.0
 10
369.7053609905887
 20
285.4235830362121
 30
0.0
 10
369.6906280419609
 20
285.3937049271458
 30
0.0
 10
369.6586355506209
 20
285.3360408393248
 30
0.0
 10
369.6413267303208
 20
285.308114379248
 30
0.0
 10
369.5855089023765
 20
285.2270021345848
 30
0.0
 10
369.5431497431676
 20
285.1764562201891
 30
0.0
 10
369.4833343972831
 20
285.1179116876283
 30
0.0
 10
369.4710486113129
 20
285.1064637798972
 30
0.0
 10
369.4460534061436
 20
285.0842890688068
 30
0.0
 10
369.4078312984552
 20
285.0520215217999
 30
0.0
 10
369.3405271728695
 20
285.0031381571355
 30
0.0
 10
369.2828216859171
 20
284.9692539800902
 30
0.0
 10
369.2380422051755
 20
284.9458592706428
 30
0.0
 10
369.222865182665
 20
284.9383980736691
 30
0.0
 10
369.1919952211518
 20
284.9241681243881
 30
0.0
 10
369.1762825090835
 20
284.9173944792287
 30
0.0
 10
369.0973752390592
 20
284.8856881909812
 30
0.0
 10
369.0324371087466
 20
284.8668220995394
 30
0.0
 10
368.9323140237814
 20
284.8482077553722
 30
0.0
 10
368.8984838536907
 20
284.8436287595129
 30
0.0
 10
368.8470244544083
 20
284.8393039628431
 30
0.0
 10
368.8298002662071
 20
284.8382939756406
 30
0.0
 10
368.7955315499986
 20
284.8371455915073
 30
0.0
 10
368.778440159375
 20
284.8370029167353
 30
0.0
 10
368.6931945928534
 20
284.8384123809611
 30
0.0
 10
368.6256685189758
 20
284.8462700506872
 30
0.0
 10
368.5421055284713
 20
284.8645913324281
 30
0.0
 10
368.525386568693
 20
284.8686988643418
 30
0.0
 10
368.4923429158052
 20
284.8777019184419
 30
0.0
 10
368.4433493918342
 20
284.8923876418052
 30
0.0
 10
368.3644688424124
 20
284.9226032303779
 30
0.0
 10
368.3042427452317
 20
284.9527498711945
 30
0.0
 10
368.245457635463
 20
284.9859004473218
 30
0.0
 10
368.2166831748864
 20
285.0040663898264
 30
0.0
 10
368.1342456447068
 20
285.0619680270692
 30
0.0
 10
368.0839022768013
 20
285.1053129940983
 30
0.0
 10
368.026507888495
 20
285.1652554969614
 30
0.0
 10
368.0153083910371
 20
285.1775347863957
 30
0.0
 10
367.9934727862702
 20
285.2026815908604
 30
0.0
 10
367.9828145528174
 20
285.2155793182685
 30
0.0
 10
367.9519780074564
 20
285.2548034213979
 30
0.0
 10
367.9328622448751
 20
285.2817316194777
 30
0.0
 10
367.8796812599159
 20
285.3647848024243
 30
0.0
 10
367.8497431190141
 20
285.4231575209208
 30
0.0
 10
367.8193079645924
 20
285.4999805790104
 30
0.0
 10
367.8135657096438
 20
285.5155677964536
 30
0.0
 10
367.8029001151954
 20
285.5468297987285
 30
0.0
 10
367.7880917510546
 20
285.5939504684774
 30
0.0
 10
367.7692356842036
 20
285.6736057573296
 30
0.0
 10
367.760287261777
 20
285.7385201733283
 30
0.0
 10
367.7559137954933
 20
285.7876613778824
 30
0.0
 10
367.7548462909979
 20
285.8041177931947
 30
0.0
 10
367.753506574013
 20
285.83718562524
 30
0.0
 10
367.7532352781508
 20
285.8538415125319
 30
0.0
 10
367.7539084729045
 20
285.9368964814662
 30
0.0
 10
367.7608414188482
 20
286.0024590356188
 30
0.0
 10
367.7806480324797
 20
286.099490326621
 30
0.0
 10
367.7888288352584
 20
286.1316136203708
 30
0.0
 10
367.8084498086222
 20
286.1953994339606
 30
0.0
 10
367.8199574854834
 20
286.2271867088688
 30
0.0
 10
367.858746453766
 20
286.3198144863859
 30
0.0
 10
367.8903774955714
 20
286.3785253104369
 30
0.0
 10
367.9464978700087
 20
286.4619726854974
 30
0.0
 10
367.9666598932509
 20
286.4890134803308
 30
0.0
 10
368.0100234214273
 20
286.5414666976775
 30
0.0
 10
368.0329217665088
 20
286.5665034224375
 30
0.0
 10
368.1048403736893
 20
286.6377631739185
 30
0.0
 10
368.1571906492898
 20
286.6803389957249
 30
0.0
 10
368.2424775113752
 20
286.7365817454826
 30
0.0
 10
368.2721838537964
 20
286.754108146125
 30
0.0
 10
368.3326164737106
 20
286.7857912041004
 30
0.0
 10
368.3943076317365
 20
286.8142971725001
 30
0.0
 10
368.4584698602075
 20
286.8365528993454
 30
0.0
 10
368.5075287191803
 20
286.8508704155876
 30
0.0
 10
368.5240381568306
 20
286.8552464911288
 30
0.0
 10
368.5573753796203
 20
286.8631916429109
 30
0.0
 10
368.5742417366642
 20
286.8667674939809
 30
0.0
 10
368.6588849830597
 20
286.8824877242042
 30
0.0
 10
368.7272563859608
 20
286.8881924703343
 30
0.0
 10
368.7962249652845
 20
286.8869886193043
 30
0.0
  0
SPLINE
  5
1CA
330
1F
100
AcDbEntity
  8
1
100
AcDbSpline
210
0.0
220
0.0
230
1.0
 70
     8
 71
     3
 72
    47
 73
    43
 74
     0
 42
0.000000001
 43
0.0000000001
 40
0.0
 40
0.0
 40
0.0
 40
0.0
 40
0.1249999999999921
 40
0.1249999999999921
 40
0.2499999999999841
 40
0.2499999999999841
 40
0.3124999999999663
 40
0.3124999999999663
 40
0.3749999999999484
 40
0.3749999999999484
 40
0.4374999999999307
 40
0.4374999999999307
 40
0.4687499999999329
 40
0.4687499999999329
 40
0.4999999999999353
 40
0.4999999999999353
 40
0.5624999999999404
 40
0.5624999999999404
 40
0.5937499999999361
 40
0.5937499999999361
 40
0.624999999999932
 40
0.624999999999932
 40
0.6874999999999233
 40
0.6874999999999233
 40
0.7187499999999191
 40
0.7187499999999191
 40
0.7499999999999147
 40
0.7499999999999147
 40
0.7656249999999201
 40
0.7656249999999201
 40
0.7812499999999255
 40
0.7812499999999255
 40
0.8124999999999362
 40
0.8124999999999362
 40
0.8437499999999468
 40
0.8437499999999468
 40
0.8749999999999577
 40
0.9062499999999687
 40
0.9062499999999687
 40
0.9374999999999795
 40
0.9374999999999795
 40
1.0
 40
1.0
 40
1.0
 40
1.0
 10
360.3334493576267
 20
292.9587496672466
 30
0.0
 10
360.2961008995453
 20
292.9751968969767
 30
0.0
 10
360.2598317160373
 20
292.9928900340223
 30
0.0
 10
360.1898026986097
 20
293.0311991602196
 30
0.0
 10
360.1560356612842
 20
293.0518066792191
 30
0.0
 10
360.1077370736159
 20
293.0854785290535
 30
0.0
 10
360.0920322126086
 20
293.0971657394475
 30
0.0
 10
360.0615466120571
 20
293.1216279994056
 30
0.0
 10
360.0467224403278
 20
293.1344429305761
 30
0.0
 10
360.0184282240676
 20
293.1611793616207
 30
0.0
 10
360.0049721520207
 20
293.1750779714789
 30
0.0
 10
359.9860471683464
 20
293.1968930406818
 30
0.0
 10
359.9799496651215
 20
293.2043266591464
 30
0.0
 10
359.9682300608716
 20
293.2195589687307
 30
0.0
 10
359.962597589911
 20
293.2273744228752
 30
0.0
 10
359.9466487867575
 20
293.251245861086
 30
0.0
 10
359.9372342847451
 20
293.2677557299771
 30
0.0
 10
359.9254728080083
 20
293.293670853261
 30
0.0
 10
359.9219484608821
 20
293.302502262736
 30
0.0
 10
359.9158345304321
 20
293.3206194386967
 30
0.0
 10
359.9132346902206
 20
293.3299572866271
 30
0.0
 10
359.9072284460379
 20
293.3583483726744
 30
0.0
 10
359.9055624953781
 20
293.3777257503166
 30
0.0
 10
359.9077744338107
 20
293.407683477124
 30
0.0
 10
359.9093093233079
 20
293.4177005551693
 30
0.0
 10
359.9140142577414
 20
293.4374152656594
 30
0.0
 10
359.9171874804587
 20
293.4471695982551
 30
0.0
 10
359.9232499991618
 20
293.4616353825427
 30
0.0
 10
359.925488225544
 20
293.4664296538714
 30
0.0
 10
359.930414988659
 20
293.4759605197213
 30
0.0
 10
359.9331007687844
 20
293.4806862439813
 30
0.0
 10
359.9416674174554
 20
293.4944995071509
 30
0.0
 10
359.94810303806
 20
293.5033178665028
 30
0.0
 10
359.9623025144883
 20
293.5202365445397
 30
0.0
 10
359.9701216747998
 20
293.5283857695164
 30
0.0
 10
359.9867290654252
 20
293.5437701280362
 30
0.0
 10
360.0041820550656
 20
293.5581599573944
 30
0.0
 10
360.0230519557067
 20
293.5708814953921
 30
0.0
 10
360.0425306576662
 20
293.5828855028585
 30
0.0
 10
360.0526084615528
 20
293.5885449946273
 30
0.0
 10
360.083362668492
 20
293.6044375250709
 30
0.0
 10
360.1045181269839
 20
293.6135975768478
 30
0.0
 10
360.1261495136342
 20
293.6217111512757
 30
0.0
  0
SPLINE
  5
1CB
330
1F
100
AcDbEntity
  8
1
100
AcDbSpline
210
0.0
220
0.0
230
1.0
 70
     8
 71
     3
 72
    18
 73
    14
 74
     0
 42
0.000000001
 43
0.0000000001
 40
0.0
 40
0.0
 40
0.0
 40
0.0
 40
0.2500000000000022
 40
0.2500000000000022
 40
0.5000000000000045
 40
0.5000000000000045
 40
0.6250000000000034
 40
0.6250000000000034
 40
0.6875000000000028
 40
0.6875000000000028
 40
0.7500000000000023
 40
0.7500000000000023
 40
1.0
 40
1.0
 40
1.0
 40
1.0
 10
295.6673320532622
 20
277.1668208398083
 30
0.0
 10
295.8440961249649
 20
277.1698016075215
 30
0.0
 10
296.0234330967823
 20
277.1731747673792
 30
0.0
 10
296.3873148756398
 20
277.1797482942137
 30
0.0
 10
296.5718592961296
 20
277.1829491343476
 30
0.0
 10
296.8527118537671
 20
277.1870641930763
 30
0.0
 10
296.947002933942
 20
277.188323135425
 30
0.0
 10
297.0894751333717
 20
277.1899875769727
 30
0.0
 10
297.1371385290499
 20
277.190505166236
 30
0.0
 10
297.2328156891515
 20
277.1914580309765
 30
0.0
 10
297.2808637492349
 20
277.191893579987
 30
0.0
 10
297.5216243300279
 20
277.1938451259166
 30
0.0
 10
297.7135594346308
 20
277.1946530454048
 30
0.0
 10
297.9048419452957
 20
277.1946530454048
 30
0.0
  0
SPLINE
  5
1CC
330
1F
100
AcDbEntity
  8
1
100
AcDbSpline
210
0.0
220
0.0
230
1.0
 70
     8
 71
     3
 72
    28
 73
    24
 74
     0
 42
0.000000001
 43
0.0000000001
 40
0.0
 40
0.0
 40
0.0
 40
0.0
 40
0.0169716882575825
 40
0.0169716882575825
 40
0.0747968830659596
 40
0.0747968830659596
 40
0.1326220778743369
 40
0.1326220778743369
 40
0.1904472726827141
 40
0.1904472726827141
 40
0.3060976622994691
 40
0.3060976622994691
 40
0.4217480519162244
 40
0.4217480519162244
 40
0.5373984415329795
 40
0.5373984415329795
 40
0.6530488311497346
 40
0.6530488311497346
 40
0.7686992207664897
 40
0.7686992207664897
 40
0.8843496103832448
 40
0.8843496103832448
 40
1.0
 40
1.0
 40
1.0
 40
1.0
 10
327.169090249797
 20
279.7363364291094
 30
0.0
 10
327.0052382576386
 20
279.7070337944637
 30
0.0
 10
326.8413652418407
 20
279.6780075972169
 30
0.0
 10
326.1190957015585
 20
279.551316244933
 30
0.0
 10
325.560522621756
 20
279.4566055087098
 30
0.0
 10
324.4429728213251
 20
279.273484262599
 30
0.0
 10
323.8840059049652
 20
279.1850516464855
 30
0.0
 10
322.7657092245765
 20
279.0142122114938
 30
0.0
 10
322.2063618640874
 20
278.9318452744654
 30
0.0
 10
320.527474092193
 20
278.6940977232258
 30
0.0
 10
319.4070811754535
 20
278.5481076635983
 30
0.0
 10
317.1627952110782
 20
278.281369211076
 30
0.0
 10
316.0388973208763
 20
278.1606190370683
 30
0.0
 10
313.7866365623744
 20
277.9434241355273
 30
0.0
 10
312.6592665930149
 20
277.8470639529316
 30
0.0
 10
310.4015994505469
 20
277.6768153596004
 30
0.0
 10
309.2712696894345
 20
277.6029096917862
 30
0.0
 10
307.0072508464999
 20
277.4749651988841
 30
0.0
 10
305.8735639518598
 20
277.4209151420855
 30
0.0
 10
303.6027032171116
 20
277.3299259206834
 30
0.0
 10
302.4655317997994
 20
277.2929799246992
 30
0.0
 10
300.1877391488148
 20
277.2335599593229
 30
0.0
 10
299.0471200688575
 20
277.2110830547773
 30
0.0
 10
297.9048419452957
 20
277.1946530454048
 30
0.0
  0
SPLINE
  5
1CD
330
1F
100
AcDbEntity
  8
1
100
AcDbSpline
210
0.0
220
0.0
230
1.0
 70
     8
 71
     3
 72
    14
 73
    10
 74
     0
 42
0.000000001
 43
0.0000000001
 40
0.0
 40
0.0
 40
0.0
 40
0.0
 40
0.25
 40
0.25
 40
0.5
 40
0.5
 40
0.75
 40
0.75
 40
1.0
 40
1.0
 40
1.0
 40
1.0
 10
291.7822589432653
 20
277.1728223230789
 30
0.0
 10
292.102326079488
 20
277.1677529686804
 30
0.0
 10
292.4231632463547
 20
277.1641304051884
 30
0.0
 10
293.0665399383875
 20
277.159343408286
 30
0.0
 10
293.3890801453427
 20
277.1581805198398
 30
0.0
 10
294.0361498848172
 20
277.1578483972561
 30
0.0
 10
294.3606805454644
 20
277.1586797920272
 30
0.0
 10
295.0121146824459
 20
277.1618046676144
 30
0.0
 10
295.3390194069549
 20
277.1640977217839
 30
0.0
 10
295.6673320532623
 20
277.1668208398083
 30
0.0
  0
SPLINE
  5
1CE
330
1F
100
AcDbEntity
  8
1
100
AcDbSpline
210
0.0
220
0.0
230
1.0
 70
     8
 71
     3
 72
    28
 73
    24
 74
     0
 42
0.000000001
 43
0.0000000001
 40
0.0
 40
0.0
 40
0.0
 40
0.0
 40
0.1250000000000274
 40
0.1250000000000274
 40
0.2500000000000548
 40
0.2500000000000548
 40
0.3125000000000686
 40
0.3125000000000686
 40
0.3750000000000823
 40
0.3750000000000823
 40
0.5000000000000732
 40
0.5000000000000732
 40
0.6250000000000641
 40
0.6250000000000641
 40
0.6875000000000419
 40
0.6875000000000419
 40
0.7500000000000198
 40
0.7500000000000198
 40
0.8750000000000095
 40
0.8750000000000095
 40
0.9375000000000047
 40
0.9375000000000047
 40
1.0
 40
1.0
 40
1.0
 40
1.0
 10
365.596339549518
 20
292.4526768120435
 30
0.0
 10
365.5523338146575
 20
292.4339621002808
 30
0.0
 10
365.5075885610589
 20
292.4182722953146
 30
0.0
 10
365.4165985943905
 20
292.3927853467998
 30
0.0
 10
365.370353664629
 20
292.382989187002
 30
0.0
 10
365.2997979337164
 20
292.3728426463679
 30
0.0
 10
365.2760808249541
 20
292.3702208473753
 30
0.0
 10
365.2282331321667
 20
292.3665497327715
 30
0.0
 10
365.204353288422
 20
292.3655212989858
 30
0.0
 10
365.1330477693808
 20
292.3648044696138
 30
0.0
 10
365.085865628162
 20
292.3674688097706
 30
0.0
 10
364.9921775553937
 20
292.3789337030616
 30
0.0
 10
364.9456714427856
 20
292.3877333793596
 30
0.0
 10
364.8763949847329
 20
292.4056409769428
 30
0.0
 10
364.853485553326
 20
292.4123757038917
 30
0.0
 10
364.8084280154257
 20
292.4272208926999
 30
0.0
 10
364.7862156432251
 20
292.4353475166372
 30
0.0
 10
364.7204891222266
 20
292.4618012628802
 30
0.0
 10
364.6778819753315
 20
292.4821919645626
 30
0.0
 10
364.615702034123
 20
292.5169429261907
 30
0.0
 10
364.5952647703218
 20
292.5292232487178
 30
0.0
 10
364.5549655339793
 20
292.5552156509917
 30
0.0
 10
364.5352510055657
 20
292.5688366380683
 30
0.0
 10
364.5160836754837
 20
292.5829794883227
 30
0.0
  0
SPLINE
  5
1CF
330
1F
100
AcDbEntity
  8
1
100
AcDbSpline
210
0.0
220
0.0
230
1.0
 70
    12
 71
     2
 72
     6
 73
     3
 74
     0
 42
0.000000001
 43
0.0000000001
 40
0.0
 40
0.0
 40
0.0
 40
1.0
 40
1.0
 40
1.0
 10
364.0209624004557
 20
300.5826650497497
 30
0.0
 41
0.4999971913008169
 10
364.1331866451026
 20
300.5824434700215
 30
0.0
 41
0.5000028086991833
 10
364.2454088239634
 20
300.582221240623
 30
0.0
 41
0.4999971913008169
  0
SPLINE
  5
1D0
330
1F
100
AcDbEntity
  8
1
100
AcDbSpline
210
0.0
220
0.0
230
1.0
 70
     8
 71
     3
 72
    10
 73
     6
 74
     0
 42
0.000000001
 43
0.0000000001
 40
0.0
 40
0.0
 40
0.0
 40
0.0
 40
0.5
 40
0.5
 40
1.0
 40
1.0
 40
1.0
 40
1.0
 10
363.3962310208978
 20
297.0984443716604
 30
0.0
 10
363.3036874842379
 20
297.671140059348
 30
0.0
 10
363.2201184269987
 20
298.2451877082022
 30
0.0
 10
363.0667590102785
 20
299.3951592812093
 30
0.0
 10
362.9969947858378
 20
299.9709855687659
 30
0.0
 10
362.9326113024193
 20
300.5474658262465
 30
0.0
  0
SPLINE
  5
1D1
330
1F
100
AcDbEntity
  8
1
100
AcDbSpline
210
0.0
220
0.0
230
1.0
 70
    12
 71
     2
 72
     6
 73
     3
 74
     0
 42
0.000000001
 43
0.0000000001
 40
0.0
 40
0.0
 40
0.0
 40
1.0
 40
1.0
 40
1.0
 10
362.9326113022839
 20
300.5474658262169
 30
0.0
 41
0.5000002017875087
 10
363.4746461371266
 20
300.5461683545309
 30
0.0
 41
0.4999997982124915
 10
364.0166110894177
 20
300.5448557256485
 30
0.0
 41
0.5000002017875087
  0
SPLINE
  5
1D2
330
1F
100
AcDbEntity
  8
1
100
AcDbSpline
210
0.0
220
0.0
230
1.0
 70
    28
 71
     4
 72
    13
 73
     8
 74
     0
 42
0.000000001
 43
0.0000000001
 40
0.0
 40
0.0
 40
0.0
 40
0.0
 40
0.0
 40
0.4592697517317312
 40
0.4592697517317312
 40
0.4592697517317312
 40
1.0
 40
1.0
 40
1.0
 40
1.0
 40
1.0
 10
297.9048419452957
 20
284.7589202588405
 30
0.0
 41
0.9970039865930491
 10
297.9048419452957
 20
283.9550497578353
 30
0.0
 41
0.9970039865930489
 10
297.9048419452957
 20
283.0674385585378
 30
0.0
 41
0.9985019932965244
 10
297.9048419452957
 20
282.150687312793
 30
0.0
 41
1.001498006703475
 10
297.9048419452957
 20
280.2457790753944
 30
0.0
 41
1.001498006703475
 10
297.9048419452957
 20
279.1492320687091
 30
0.0
 41
0.9973449353231808
 10
297.9048419452957
 20
278.1040323851298
 30
0.0
 41
0.9963733426066831
 10
297.9048419452957
 20
277.1946530454048
 30
0.0
 41
0.9972823022765368
  0
SPLINE
  5
1D3
330
1F
100
AcDbEntity
  8
1
100
AcDbSpline
210
0.0
220
0.0
230
1.0
 70
     8
 71
     3
 72
     8
 73
     4
 74
     0
 42
0.000000001
 43
0.0000000001
 40
0.0
 40
0.0
 40
0.0
 40
0.0
 40
1.0
 40
1.0
 40
1.0
 40
1.0
 10
360.9169221085212
 20
292.7187218390631
 30
0.0
 10
360.720870686776
 20
292.7937850331042
 30
0.0
 10
360.5264299509816
 20
292.8737663422204
 30
0.0
 10
360.3334493576266
 20
292.9587496672466
 30
0.0
  0
SPLINE
  5
1D4
330
1F
100
AcDbEntity
  8
1
100
AcDbSpline
210
0.0
220
0.0
230
1.0
 70
     8
 71
     3
 72
    45
 73
    41
 74
     0
 42
0.000000001
 43
0.0000000001
 40
0.0
 40
0.0
 40
0.0
 40
0.0
 40
0.1249999999999929
 40
0.1249999999999929
 40
0.2499999999999857
 40
0.2499999999999857
 40
0.3124999999999858
 40
0.3124999999999858
 40
0.3437499999999858
 40
0.3437499999999858
 40
0.3749999999999857
 40
0.3749999999999857
 40
0.4374999999999852
 40
0.4374999999999852
 40
0.4999999999999849
 40
0.4999999999999849
 40
0.5312499999999816
 40
0.5312499999999816
 40
0.5624999999999784
 40
0.5624999999999784
 40
0.6249999999999775
 40
0.6249999999999775
 40
0.6874999999999766
 40
0.6874999999999766
 40
0.7499999999999756
 40
0.7499999999999756
 40
0.7656249999999775
 40
0.7656249999999775
 40
0.7812499999999794
 40
0.8124999999999825
 40
0.8124999999999825
 40
0.874999999999987
 40
0.874999999999987
 40
0.8906249999999888
 40
0.8906249999999888
 40
0.9062499999999905
 40
0.9062499999999905
 40
0.9374999999999939
 40
0.9374999999999939
 40
1.0
 40
1.0
 40
1.0
 40
1.0
 10
360.1261495136342
 20
293.6217111512757
 30
0.0
 10
360.3251944489654
 20
293.6963696058365
 30
0.0
 10
360.5218190332938
 20
293.7766346648524
 30
0.0
 10
360.9093258424185
 20
293.9504666298077
 30
0.0
 10
361.1002164405432
 20
294.0440141394106
 30
0.0
 10
361.3812659521759
 20
294.1965810131379
 30
0.0
 10
361.4740641522132
 20
294.2494866212001
 30
0.0
 10
361.6117594692363
 20
294.3323242909523
 30
0.0
 10
361.6574071438902
 20
294.360517728798
 30
0.0
 10
361.7481655970104
 20
294.4181482937533
 30
0.0
 10
361.7932795485376
 20
294.4475899783001
 30
0.0
 10
361.9271424053446
 20
294.53749527035
 30
0.0
 10
362.0146180713693
 20
294.5996601600528
 30
0.0
 10
362.185596317944
 20
294.7290018033457
 30
0.0
 10
362.2691008119064
 20
294.7961761432545
 30
0.0
 10
362.3909425812894
 20
294.9012454820696
 30
0.0
 10
362.430986062372
 20
294.93698818131
 30
0.0
 10
362.5098400011292
 20
295.0100289818909
 30
0.0
 10
362.5487063008782
 20
295.0473832857759
 30
0.0
 10
362.6628827328552
 20
295.1615720748809
 30
0.0
 10
362.7355467065407
 20
295.2402749684386
 30
0.0
 10
362.8730334610462
 20
295.4035316772392
 30
0.0
 10
362.9378619114896
 20
295.4880812619368
 30
0.0
 10
363.0583818303758
 20
295.6639982417136
 30
0.0
 10
363.1140840181534
 20
295.7553576382664
 30
0.0
 10
363.1768153716723
 20
295.8747028084392
 30
0.0
 10
363.1890358237445
 20
295.8988752885111
 30
0.0
 10
363.2126130784523
 20
295.9474915518819
 30
0.0
 10
363.2466931270851
 20
296.020829792138
 30
0.0
 10
363.2768256358976
 20
296.0954385471976
 30
0.0
 10
363.331538986695
 20
296.2464428600372
 30
0.0
 10
363.3606379275892
 20
296.3494865674476
 30
0.0
 10
363.386506924684
 20
296.4816721302923
 30
0.0
 10
363.3911534920812
 20
296.508278932369
 30
0.0
 10
363.3993512291548
 20
296.5618450900323
 30
0.0
 10
363.4028860872784
 20
296.5887096372065
 30
0.0
 10
363.4117424994794
 20
296.6691940118635
 30
0.0
 10
363.4153395014545
 20
296.7228502749325
 30
0.0
 10
363.4191718213957
 20
296.8838191042449
 30
0.0
 10
363.4124614256317
 20
296.991131710519
 30
0.0
 10
363.3962310208977
 20
297.0984443716604
 30
0.0
  0
SPLINE
  5
1D5
330
1F
100
AcDbEntity
  8
1
100
AcDbSpline
210
0.0
220
0.0
230
1.0
 70
    12
 71
     3
 72
     9
 73
     5
 74
     0
 42
0.000000001
 43
0.0000000001
 40
0.0
 40
0.0
 40
0.0
 40
0.0
 40
0.3352046850566545
 40
1.0
 40
1.0
 40
1.0
 40
1.0
 10
341.0904859364988
 20
296.9519200096505
 30
0.0
 41
1.001173472543435
 10
343.5844672292684
 20
296.9265000089952
 30
0.0
 41
1.00148997963152
 10
351.0032590104607
 20
296.6730856654628
 30
0.0
 41
1.002874914475448
 10
358.5597038467826
 20
296.4216522920927
 30
0.0
 41
1.000298062987852
 10
363.396231020898
 20
297.0984443716605
 30
0.0
 41
1.001129827644984
  0
SPLINE
  5
1D6
330
1F
100
AcDbEntity
  8
1
100
AcDbSpline
210
0.0
220
0.0
230
1.0
 70
     8
 71
     3
 72
     9
 73
     5
 74
     0
 42
0.000000001
 43
0.0000000001
 40
0.0
 40
0.0
 40
0.0
 40
0.0
 40
0.5
 40
1.0
 40
1.0
 40
1.0
 40
1.0
 10
289.6582555692088
 20
286.8867010069405
 30
0.0
 10
290.0117478536239
 20
286.8469701496511
 30
0.0
 10
290.7192512498137
 20
286.7544971764287
 30
0.0
 10
291.4277590294945
 20
286.6368360685918
 30
0.0
 10
291.7822589432653
 20
286.571835676226
 30
0.0
  0
SPLINE
  5
1D7
330
1F
100
AcDbEntity
  8
1
100
AcDbSpline
210
0.0
220
0.0
230
1.0
 70
     8
 71
     3
 72
    10
 73
     6
 74
     0
 42
0.000000001
 43
0.0000000001
 40
0.0
 40
0.0
 40
0.0
 40
0.0
 40
0.5
 40
0.5
 40
1.0
 40
1.0
 40
1.0
 40
1.0
 10
279.4048419452957
 20
274.8878430795824
 30
0.0
 10
279.5784209607526
 20
274.9152257066004
 30
0.0
 10
279.7541251801092
 20
274.9512115637917
 30
0.0
 10
280.1089501840101
 20
275.0376310334705
 30
0.0
 10
280.2880720611926
 20
275.0880716786079
 30
0.0
 10
280.4685504442805
 20
275.1447061045837
 30
0.0
  0
SPLINE
  5
1D8
330
1F
100
AcDbEntity
  8
1
100
AcDbSpline
210
0.0
220
0.0
230
1.0
 70
     8
 71
     3
 72
    35
 73
    31
 74
     0
 42
0.000000001
 43
0.0000000001
 40
0.0
 40
0.0
 40
0.0
 40
0.0
 40
0.124999999999999
 40
0.124999999999999
 40
0.2499999999999981
 40
0.2499999999999981
 40
0.2812499999999982
 40
0.2812499999999982
 40
0.3124999999999983
 40
0.3124999999999983
 40
0.3749999999999991
 40
0.3749999999999991
 40
0.5000000000000011
 40
0.5000000000000011
 40
0.5625000000000022
 40
0.5625000000000022
 40
0.5781250000000022
 40
0.5781250000000022
 40
0.5937500000000022
 40
0.5937500000000022
 40
0.6250000000000022
 40
0.6250000000000022
 40
0.7500000000000015
 40
0.7500000000000015
 40
0.875000000000001
 40
0.875000000000001
 40
0.9062500000000007
 40
0.9062500000000007
 40
0.9375000000000003
 40
1.0
 40
1.0
 40
1.0
 40
1.0
 10
276.9818780344987
 20
279.5020479830677
 30
0.0
 10
276.9350100523865
 20
279.254790545126
 30
0.0
 10
276.9095650881536
 20
279.011972579445
 30
0.0
 10
276.8992424206534
 20
278.5351362910533
 30
0.0
 10
276.9143755005103
 20
278.3011181233597
 30
0.0
 10
276.958561544199
 20
278.0140938876404
 30
0.0
 10
276.9686670998444
 20
277.9569641469153
 30
0.0
 10
276.9914319653514
 20
277.8432555700474
 30
0.0
 10
277.0041085780322
 20
277.786629454762
 30
0.0
 10
277.0456430960792
 20
277.618911167711
 30
0.0
 10
277.0780782285436
 20
277.5095371533282
 30
0.0
 10
277.1890180978046
 20
277.1883360851822
 30
0.0
 10
277.28110508856
 20
276.9834119970837
 30
0.0
 10
277.4451200933631
 20
276.6886679781502
 30
0.0
 10
277.5041196947699
 20
276.5925318993341
 30
0.0
 10
277.5832383169035
 20
276.4749112580365
 30
0.0
 10
277.5993307276396
 20
276.4515146737251
 30
0.0
 10
277.6320528146106
 20
276.4049746077912
 30
0.0
 10
277.6486954589961
 20
276.3818138647281
 30
0.0
 10
277.6992895006185
 20
276.3128969795645
 30
0.0
 10
277.7339274432652
 20
276.2676732514719
 30
0.0
 10
277.9115476287467
 20
276.0450238798363
 30
0.0
 10
278.0677662922378
 20
275.8779656027866
 30
0.0
 10
278.4065273864695
 20
275.5632310317723
 30
0.0
 10
278.5890802190228
 20
275.4155654417004
 30
0.0
 10
278.833284337884
 20
275.241915568712
 30
0.0
 10
278.8829681472752
 20
275.2077076746652
 30
0.0
 10
278.9837305669962
 20
275.1405034963017
 30
0.0
 10
279.1369049508722
 20
275.0415506827279
 30
0.0
 10
279.2960911657309
 20
274.9479750597154
 30
0.0
 10
279.4048419452957
 20
274.8878430795824
 30
0.0
  0
SPLINE
  5
1D9
330
1F
100
AcDbEntity
  8
1
100
AcDbSpline
210
0.0
220
0.0
230
1.0
 70
     8
 71
     3
 72
    61
 73
    57
 74
     0
 42
0.000000001
 43
0.0000000001
 40
0.0
 40
0.0
 40
0.0
 40
0.0
 40
0.0625000000000016
 40
0.0625000000000016
 40
0.1250000000000032
 40
0.1250000000000032
 40
0.1875000000000047
 40
0.1875000000000047
 40
0.2187500000000052
 40
0.2187500000000052
 40
0.2343750000000053
 40
0.2343750000000053
 40
0.2500000000000054
 40
0.2500000000000054
 40
0.312500000000005
 40
0.312500000000005
 40
0.3750000000000046
 40
0.3750000000000046
 40
0.4062500000000043
 40
0.4062500000000043
 40
0.4218750000000043
 40
0.4218750000000043
 40
0.4375000000000041
 40
0.4375000000000041
 40
0.4687500000000038
 40
0.4687500000000038
 40
0.5000000000000036
 40
0.5000000000000036
 40
0.5312500000000034
 40
0.5312500000000034
 40
0.5468750000000035
 40
0.5468750000000035
 40
0.5625000000000035
 40
0.5625000000000035
 40
0.5937500000000034
 40
0.5937500000000034
 40
0.6250000000000031
 40
0.6250000000000031
 40
0.6875000000000029
 40
0.6875000000000029
 40
0.7187500000000029
 40
0.7187500000000029
 40
0.7500000000000028
 40
0.7500000000000028
 40
0.8125000000000024
 40
0.8125000000000024
 40
0.8437500000000021
 40
0.8437500000000021
 40
0.8750000000000017
 40
0.9062500000000012
 40
0.9062500000000012
 40
0.9375000000000007
 40
0.9375000000000007
 40
0.9687500000000005
 40
0.9687500000000005
 40
1.0
 40
1.0
 40
1.0
 40
1.0
 10
297.9048419452957
 20
285.4787790063081
 30
0.0
 10
299.2114198968504
 20
285.2451368790396
 30
0.0
 10
300.5163551441492
 20
285.0072253212975
 30
0.0
 10
303.1226316727091
 20
284.5226665301736
 30
0.0
 10
304.4239698475995
 20
284.276004778982
 30
0.0
 10
307.0228078113621
 20
283.7743283079585
 30
0.0
 10
308.3203032956987
 20
283.5192962766079
 30
0.0
 10
310.2636196071432
 20
283.1315867753957
 30
0.0
 10
310.9109057306961
 20
283.0015002836478
 30
0.0
 10
311.8811216425042
 20
282.8053436883593
 30
0.0
 10
312.2044082363812
 20
282.7397878358633
 30
0.0
 10
312.8507488112543
 20
282.6083871554307
 30
0.0
 10
313.1738310926299
 20
282.5425365251526
 30
0.0
 10
314.7881503801171
 20
282.2128158635097
 30
0.0
 10
316.0763078608732
 20
281.9474282832441
 30
0.0
 10
318.6465401847568
 20
281.4184230602843
 30
0.0
 10
319.9286129582533
 20
281.154817272796
 30
0.0
 10
321.8480129237162
 20
280.7657412719355
 30
0.0
 10
322.4871998449661
 20
280.6371166521036
 30
0.0
 10
323.44521314382
 20
280.4464903666087
 30
0.0
 10
323.7644214064092
 20
280.3833289001385
 30
0.0
 10
324.4026209463809
 20
280.2579227966388
 30
0.0
 10
324.7216194941128
 20
280.1956973288524
 30
0.0
 10
325.6784960237916
 20
280.010965474621
 30
0.0
 10
326.3162607212413
 20
279.8904288438994
 30
0.0
 10
327.5923329585012
 20
279.656695737836
 30
0.0
 10
328.2307583808439
 20
279.5434767003434
 30
0.0
 10
329.5079553446634
 20
279.3258545951725
 30
0.0
 10
330.1467798108578
 20
279.2214347509258
 30
0.0
 10
331.1057448710029
 20
279.0718894161593
 30
0.0
 10
331.4255201656312
 20
279.0232171621481
 30
0.0
 10
332.0653644919147
 20
278.9282617188354
 30
0.0
 10
332.3854390440451
 20
278.8819889018106
 30
0.0
 10
333.3460998185931
 20
278.7466308429796
 30
0.0
 10
333.9871095737933
 20
278.6609745191624
 30
0.0
 10
335.270110259385
 20
278.498026259892
 30
0.0
 10
335.9121020392545
 20
278.4207386728304
 30
0.0
 10
337.8394624905685
 20
278.2006687354157
 30
0.0
 10
339.1261929474315
 20
278.0696448453562
 30
0.0
 10
341.0592659939019
 20
277.894915299149
 30
0.0
 10
341.7041266340982
 20
277.8403187656253
 30
0.0
 10
342.9949549323063
 20
277.7382055045786
 30
0.0
 10
343.6409535778253
 20
277.6906890316706
 30
0.0
 10
345.5794662246871
 20
277.5585178248144
 30
0.0
 10
346.8729255586247
 20
277.4842273934803
 30
0.0
 10
348.8158299065509
 20
277.3918003680704
 30
0.0
 10
349.463945415874
 20
277.3641676350107
 30
0.0
 10
350.7609546314332
 20
277.3146078562682
 30
0.0
 10
352.0587340482288
 20
277.2707457228674
 30
0.0
 10
353.357564093264
 20
277.2372440796533
 30
0.0
 10
354.6566402256037
 20
277.2085764874291
 30
0.0
 10
355.3063011319773
 20
277.1966589963562
 30
0.0
 10
356.6055593812671
 20
277.1775003139571
 30
0.0
 10
357.2551564261552
 20
277.1702583097132
 30
0.0
 10
358.5539546077167
 20
277.1605053450805
 30
0.0
 10
359.2031553718091
 20
277.1579935137005
 30
0.0
 10
359.8519857324208
 20
277.1579935137005
 30
0.0
  0
SPLINE
  5
1DA
330
1F
100
AcDbEntity
  8
1
100
AcDbSpline
210
0.0
220
0.0
230
1.0
 70
     8
 71
     3
 72
    60
 73
    56
 74
     0
 42
0.000000001
 43
0.0000000001
 40
0.0
 40
0.0
 40
0.0
 40
0.0
 40
0.0465326064696086
 40
0.0465326064696086
 40
0.0805850133814087
 40
0.0805850133814087
 40
0.1146374202932089
 40
0.1146374202932089
 40
0.1827422341168087
 40
0.1827422341168087
 40
0.2508470479404086
 40
0.2508470479404086
 40
0.2848994548522084
 40
0.2848994548522084
 40
0.3189518617640081
 40
0.3189518617640081
 40
0.3530042686758079
 40
0.3530042686758079
 40
0.3870566755876076
 40
0.3870566755876076
 40
0.4040828790435074
 40
0.4040828790435074
 40
0.421109082499407
 40
0.421109082499407
 40
0.4551614894112064
 40
0.4551614894112064
 40
0.4892138963230059
 40
0.4892138963230059
 40
0.5232663032348052
 40
0.5232663032348052
 40
0.5573187101466047
 40
0.5573187101466047
 40
0.5913711170584039
 40
0.5913711170584039
 40
0.6254235239702033
 40
0.6254235239702033
 40
0.6594759308820027
 40
0.6594759308820027
 40
0.6935283377938024
 40
0.6935283377938024
 40
0.7275807447056022
 40
0.7275807447056022
 40
0.7956855585292017
 40
0.7956855585292017
 40
0.8297379654410013
 40
0.8297379654410013
 40
0.863790372352801
 40
0.863790372352801
 40
0.8978427792646009
 40
0.8978427792646009
 40
0.9318951861764004
 40
0.9318951861764004
 40
0.9659475930882004
 40
0.9659475930882004
 40
1.0
 40
1.0
 40
1.0
 40
1.0
 10
302.6809607822408
 20
300.6579883714838
 30
0.0
 10
303.504419963779
 20
300.658116193714
 30
0.0
 10
304.3265754335573
 20
300.6548440077422
 30
0.0
 10
305.7483461283382
 20
300.6418877805608
 30
0.0
 10
306.3485106505888
 20
300.6341602253872
 30
0.0
 10
307.5477318337391
 20
300.6136193557195
 30
0.0
 10
308.1468461686535
 20
300.6008029733556
 30
0.0
 10
309.9419493890119
 20
300.5539877790295
 30
0.0
 10
311.1359068655328
 20
300.5115510602777
 30
0.0
 10
313.5202614427762
 20
300.4016472499917
 30
0.0
 10
314.7106707006933
 20
300.3341661677698
 30
0.0
 10
316.4954148810238
 20
300.2140242691528
 30
0.0
 10
317.090186495001
 20
300.1708441302441
 30
0.0
 10
318.2797403054587
 20
300.0784269788901
 30
0.0
 10
318.8743748153872
 20
300.0292025999545
 30
0.0
 10
320.0636158736717
 20
299.9250657799977
 30
0.0
 10
320.6582273275116
 20
299.8701544444812
 30
0.0
 10
321.8476838906667
 20
299.7550711636719
 30
0.0
 10
322.4425293237369
 20
299.6949007518276
 30
0.0
 10
323.3351290757502
 20
299.6010498262074
 30
0.0
 10
323.6327173791543
 20
299.5691673886828
 30
0.0
 10
324.228024365325
 20
299.5042613045888
 30
0.0
 10
324.5257399336364
 20
299.4712334217998
 30
0.0
 10
325.4189824334887
 20
299.3702968693317
 30
0.0
 10
326.0145983123845
 20
299.3005287563428
 30
0.0
 10
327.2057548692227
 20
299.1554609217138
 30
0.0
 10
327.8013387770871
 20
299.0801521878507
 30
0.0
 10
328.9919377591053
 20
298.9237149922377
 30
0.0
 10
329.5869892584493
 20
298.8425814603973
 30
0.0
 10
330.7766529645168
 20
298.6744682832934
 30
0.0
 10
331.3712665610248
 20
298.5874888377198
 30
0.0
 10
332.560248221061
 20
298.407989876623
 30
0.0
 10
333.1546212128164
 20
298.3154779531539
 30
0.0
 10
334.3434863939745
 20
298.1257152773125
 30
0.0
 10
334.9379781074414
 20
298.0284657778334
 30
0.0
 10
336.1273190886285
 20
297.8298681661507
 30
0.0
 10
336.7221677291457
 20
297.7285204572009
 30
0.0
 10
337.912364522043
 20
297.5221985211527
 30
0.0
 10
338.5075687265969
 20
297.4172492937832
 30
0.0
 10
339.6982113511349
 20
297.2040831179219
 30
0.0
 10
340.2936572588845
 20
297.0958646221504
 30
0.0
 10
342.0803819701792
 20
296.7664902469152
 30
0.0
 10
343.272067282792
 20
296.5406973731799
 30
0.0
 10
345.0600251889025
 20
296.1919325987542
 30
0.0
 10
345.6560777193345
 20
296.0739784855072
 30
0.0
 10
346.8481941160562
 20
295.8342839102285
 30
0.0
 10
347.4443001533781
 20
295.7125364097719
 30
0.0
 10
348.6359948073083
 20
295.4647292674733
 30
0.0
 10
349.2316269204004
 20
295.3387048433323
 30
0.0
 10
350.4220795342213
 20
295.0810902957528
 30
0.0
 10
351.0168889380503
 20
294.949463181434
 30
0.0
 10
352.2054233928882
 20
294.6795499459712
 30
0.0
 10
352.7991457764865
 20
294.5412519792224
 30
0.0
 10
353.9855117044107
 20
294.2577535994608
 30
0.0
 10
354.5781520714151
 20
294.1125379961378
 30
0.0
 10
355.1704304011847
 20
293.9643501611796
 30
0.0
  0
LINE
  5
1F4
330
1F
100
AcDbEntity
  8
SK4
100
AcDbLine
 10
214.904842
 20
288.907994
 30
0.0
 11
277.404842
 21
288.907994
 31
0.0
  0
LINE
  5
1F5
330
1F
100
AcDbEntity
  8
4
100
AcDbLine
 10
268.782259
 20
288.907994
 30
0.0
 11
376.79873
 21
288.907994
 31
0.0
  0
MTEXT
  5
1F6
330
1F
100
AcDbEntity
  8
SK6
100
AcDbMText
 10
258.520787
 20
241.27662
 30
0.0
 40
3.5
 41
0.0
 71
     7
 72
     5
  1
\W0.7539;803D-24,5-73,5-S25
  7
cesky
 73
     2
 44
0.8433729999999998
  0
MTEXT
  5
30C
330
1F
100
AcDbEntity
  8
2
100
AcDbMText
 10
319.315342
 20
327.385163
 30
0.0
 40
3.5
 41
0.0
 71
     7
 72
     5
  1
\W0.8459;98,5
  7
cesky
 73
     2
 44
0.8433729999999998
  0
LINE
  5
30D
330
1F
100
AcDbEntity
  8
2
100
AcDbLine
 10
372.904842
 20
301.157994
 30
0.0
 11
372.904842
 21
328.5109970000001
 31
0.0
  0
LINE
  5
30E
330
1F
100
AcDbEntity
  8
2
100
AcDbLine
 10
274.404842
 20
289.907567
 30
0.0
 11
274.404842
 21
328.5109970000001
 31
0.0
  0
LINE
  5
30F
330
1F
100
AcDbEntity
  8
2
100
AcDbLine
 10
372.904842
 20
327.510997
 30
0.0
 11
274.404842
 21
327.510997
 31
0.0
  0
SOLID
  5
310
330
1F
100
AcDbEntity
  8
2
100
AcDbTrace
 10
372.904842
 20
327.510997
 30
0.0
 11
369.4048439999999
 21
326.893852
 31
0.0
 12
369.40484
 22
328.128141
 32
0.0
 13
369.40484
 23
328.128141
 33
0.0
  0
SOLID
  5
311
330
1F
100
AcDbEntity
  8
2
100
AcDbTrace
 10
274.404842
 20
327.510997
 30
0.0
 11
277.90484
 21
328.128141
 31
0.0
 12
277.904844
 22
326.893852
 32
0.0
 13
277.904844
 23
326.893852
 33
0.0
  0
MTEXT
  5
312
330
1F
100
AcDbEntity
  8
2
100
AcDbMText
 10
290.052842
 20
340.562135
 30
0.0
 40
3.5
 41
0.0
 71
     7
 72
     5
  1
\W0.8654;154,5
  7
cesky
 73
     2
 44
0.8433729999999998
  0
LINE
  5
313
330
1F
100
AcDbEntity
  8
2
100
AcDbLine
 10
372.904842
 20
303.157994
 30
0.0
 11
372.904842
 21
341.687968
 31
0.0
  0
LINE
  5
314
330
1F
100
AcDbEntity
  8
2
100
AcDbLine
 10
218.404842
 20
299.407994
 30
0.0
 11
218.404842
 21
341.687968
 31
0.0
  0
LINE
  5
315
330
1F
100
AcDbEntity
  8
2
100
AcDbLine
 10
372.904842
 20
340.687968
 30
0.0
 11
218.404842
 21
340.687968
 31
0.0
  0
SOLID
  5
316
330
1F
100
AcDbEntity
  8
2
100
AcDbTrace
 10
372.904842
 20
340.687968
 30
0.0
 11
369.4048439999999
 21
340.070823
 31
0.0
 12
369.40484
 22
341.305112
 32
0.0
 13
369.40484
 23
341.305112
 33
0.0
  0
SOLID
  5
317
330
1F
100
AcDbEntity
  8
2
100
AcDbTrace
 10
218.404842
 20
340.687968
 30
0.0
 11
221.90484
 21
341.305112
 31
0.0
 12
221.904844
 22
340.070823
 32
0.0
 13
221.904844
 23
340.070823
 33
0.0
  0
MTEXT
  5
318
330
1F
100
AcDbEntity
  8
2
100
AcDbMText
 10
244.590342
 20
327.385163
 30
0.0
 40
3.5
 41
0.0
 71
     7
 72
     5
  1
\W0.7259;56
  7
cesky
 73
     2
 44
0.8433729999999998
  0
LINE
  5
319
330
1F
100
AcDbEntity
  8
2
100
AcDbLine
 10
274.404842
 20
288.907994
 30
0.0
 11
274.404842
 21
328.5109970000001
 31
0.0
  0
LINE
  5
31A
330
1F
100
AcDbEntity
  8
2
100
AcDbLine
 10
218.404842
 20
299.407994
 30
0.0
 11
218.404842
 21
328.5109970000001
 31
0.0
  0
LINE
  5
31B
330
1F
100
AcDbEntity
  8
2
100
AcDbLine
 10
274.404842
 20
327.510997
 30
0.0
 11
218.404842
 21
327.510997
 31
0.0
  0
SOLID
  5
31C
330
1F
100
AcDbEntity
  8
2
100
AcDbTrace
 10
274.404842
 20
327.510997
 30
0.0
 11
270.904844
 21
326.893852
 31
0.0
 12
270.90484
 22
328.128141
 32
0.0
 13
270.90484
 23
328.128141
 33
0.0
  0
SOLID
  5
31D
330
1F
100
AcDbEntity
  8
2
100
AcDbTrace
 10
218.404842
 20
327.510997
 30
0.0
 11
221.90484
 21
328.128141
 31
0.0
 12
221.904844
 22
326.893852
 32
0.0
 13
221.904844
 23
326.893852
 33
0.0
  0
MTEXT
  5
31E
330
1F
100
AcDbEntity
  8
2
100
AcDbMText
 10
329.195526
 20
316.149515
 30
0.0
 40
3.5
 41
0.0
 71
     7
 72
     5
  1
\W0.8459;78,7
  7
cesky
 73
     2
 44
0.8433729999999998
  0
LINE
  5
31F
330
1F
100
AcDbEntity
  8
2
100
AcDbLine
 10
372.904842
 20
303.157994
 30
0.0
 11
372.904842
 21
317.275348
 31
0.0
  0
LINE
  5
320
330
1F
100
AcDbEntity
  8
2
100
AcDbLine
 10
294.16521
 20
301.230388
 30
0.0
 11
294.16521
 21
317.275348
 31
0.0
  0
LINE
  5
321
330
1F
100
AcDbEntity
  8
2
100
AcDbLine
 10
372.904842
 20
316.275348
 30
0.0
 11
294.16521
 21
316.275348
 31
0.0
  0
SOLID
  5
322
330
1F
100
AcDbEntity
  8
2
100
AcDbTrace
 10
372.904842
 20
316.275348
 30
0.0
 11
369.4048439999999
 21
315.658204
 31
0.0
 12
369.40484
 22
316.892492
 32
0.0
 13
369.40484
 23
316.892492
 33
0.0
  0
SOLID
  5
323
330
1F
100
AcDbEntity
  8
2
100
AcDbTrace
 10
294.16521
 20
316.275348
 30
0.0
 11
297.665207
 21
316.892492
 31
0.0
 12
297.665212
 22
315.658204
 32
0.0
 13
297.665212
 23
315.658204
 33
0.0
  0
MTEXT
  5
324
330
1F
100
AcDbEntity
  8
2
100
AcDbMText
 10
386.587439
 20
279.563433
 30
0.0
 40
3.5
 41
0.0
 71
     7
 72
     5
  1
\W0.8459;24,5
  7
cesky
 11
0.0000000000000001
 21
1.0
 31
0.0
 73
     2
 44
0.8433729999999998
  0
MTEXT
  5
325
330
1F
100
AcDbEntity
  8
2
100
AcDbMText
 10
386.587439
 20
272.825933
 30
0.0
 40
3.5
 41
0.0
 71
     7
 72
     5
  1
\W3.0115;\H2.63;%%c\H3.50;
  7
cesky
 11
0.0000000000000001
 21
1.0
 31
0.0
 73
     2
 44
0.8433729999999998
  0
LINE
  5
326
330
1F
100
AcDbEntity
  8
2
100
AcDbLine
 10
374.904842
 20
301.157994
 30
0.0
 11
387.774856
 21
301.157994
 31
0.0
  0
LINE
  5
327
330
1F
100
AcDbEntity
  8
2
100
AcDbLine
 10
386.774856
 20
301.157994
 30
0.0
 11
386.774856
 21
272.668433
 31
0.0
  0
SOLID
  5
328
330
1F
100
AcDbEntity
  8
2
100
AcDbTrace
 10
386.774856
 20
301.157994
 30
0.0
 11
387.392001
 21
297.657996
 31
0.0
 12
386.157712
 22
297.657991
 32
0.0
 13
386.157712
 23
297.657991
 33
0.0
  0
MTEXT
  5
329
330
1F
100
AcDbEntity
  8
SK2
100
AcDbMText
 10
206.117323
 20
290.434244
 30
0.0
 40
3.5
 41
0.0
 71
     7
 72
     5
  1
\W0.7045;25
  7
cesky
 11
0.0000000000000001
 21
1.0
 31
0.0
 73
     2
 44
0.8433729999999998
  0
MTEXT
  5
32A
330
1F
100
AcDbEntity
  8
SK2
100
AcDbMText
 10
206.117323
 20
283.696744
 30
0.0
 40
3.5
 41
0.0
 71
     7
 72
     5
  1
\W3.0115;\H2.63;%%c\H3.50;
  7
cesky
 11
0.0000000000000001
 21
1.0
 31
0.0
 73
     2
 44
0.8433729999999998
  0
LINE
  5
32B
330
1F
100
AcDbEntity
  8
SK2
100
AcDbLine
 10
220.404842
 20
301.407994
 30
0.0
 11
205.304739
 21
301.407994
 31
0.0
  0
LINE
  5
32C
330
1F
100
AcDbEntity
  8
SK2
100
AcDbLine
 10
220.404842
 20
276.407994
 30
0.0
 11
205.304739
 21
276.407994
 31
0.0
  0
LINE
  5
32D
330
1F
100
AcDbEntity
  8
SK2
100
AcDbLine
 10
206.304739
 20
301.407994
 30
0.0
 11
206.304739
 21
276.407994
 31
0.0
  0
SOLID
  5
32E
330
1F
100
AcDbEntity
  8
SK2
100
AcDbTrace
 10
206.304739
 20
301.407994
 30
0.0
 11
206.921884
 21
297.9079959999999
 31
0.0
 12
205.687595
 22
297.907991
 32
0.0
 13
205.687595
 23
297.907991
 33
0.0
  0
SOLID
  5
32F
330
1F
100
AcDbEntity
  8
SK2
100
AcDbTrace
 10
206.304739
 20
276.407994
 30
0.0
 11
205.687595
 21
279.9079910000001
 31
0.0
 12
206.921884
 22
279.907996
 32
0.0
 13
206.921884
 23
279.907996
 33
0.0
  0
MTEXT
  5
330
330
1F
100
AcDbEntity
  8
SK2
100
AcDbMText
 10
193.332501
 20
290.434244
 30
0.0
 40
3.5
 41
0.0
 71
     7
 72
     5
  1
\W0.7045;35
  7
cesky
 11
0.0000000000000001
 21
1.0
 31
0.0
 73
     2
 44
0.8433729999999998
  0
MTEXT
  5
331
330
1F
100
AcDbEntity
  8
SK2
100
AcDbMText
 10
193.332501
 20
283.696744
 30
0.0
 40
3.5
 41
0.0
 71
     7
 72
     5
  1
\W3.0115;\H2.63;%%c\H3.50;
  7
cesky
 11
0.0000000000000001
 21
1.0
 31
0.0
 73
     2
 44
0.8433729999999998
  0
LINE
  5
332
330
1F
100
AcDbEntity
  8
SK2
100
AcDbLine
 10
274.904842
 20
306.407994
 30
0.0
 11
192.519918
 21
306.407994
 31
0.0
  0
LINE
  5
333
330
1F
100
AcDbEntity
  8
SK2
100
AcDbLine
 10
274.904842
 20
271.407994
 30
0.0
 11
192.519918
 21
271.407994
 31
0.0
  0
LINE
  5
334
330
1F
100
AcDbEntity
  8
SK2
100
AcDbLine
 10
193.519918
 20
306.407994
 30
0.0
 11
193.519918
 21
271.407994
 31
0.0
  0
SOLID
  5
335
330
1F
100
AcDbEntity
  8
SK2
100
AcDbTrace
 10
193.519918
 20
306.407994
 30
0.0
 11
194.137062
 21
302.907996
 31
0.0
 12
192.902773
 22
302.907991
 32
0.0
 13
192.902773
 23
302.907991
 33
0.0
  0
SOLID
  5
336
330
1F
100
AcDbEntity
  8
SK2
100
AcDbTrace
 10
193.519918
 20
271.407994
 30
0.0
 11
192.902773
 21
274.907991
 31
0.0
 12
194.137062
 22
274.9079959999999
 32
0.0
 13
194.137062
 23
274.9079959999999
 33
0.0
  0
LINE
  5
338
330
1F
100
AcDbEntity
  8
CUT
100
AcDbLine
 10
372.4079017114025
 20
295.1801839931299
 30
0.0
 11
372.8232220537611
 21
294.4890736042591
 31
0.0
  0
LINE
  5
339
330
1F
100
AcDbEntity
  8
CUT
100
AcDbLine
 10
372.1719867300408
 20
300.4244469277916
 30
0.0
 11
372.4079017114025
 21
295.1801839931299
 31
0.0
  0
LINE
  5
33B
330
1F
100
AcDbEntity
  8
CUT
100
AcDbLine
 10
372.8232220537612
 20
294.4890736042592
 30
0.0
 11
372.9048419452957
 21
289.8176902367194
 31
0.0
  0
LINE
  5
33C
330
1F
100
AcDbEntity
  8
CUT
100
AcDbLine
 10
364.977338051316
 20
300.8608200500323
 30
0.0
 11
371.370162960196
 21
301.1541351378332
 31
0.0
  0
LINE
  5
33D
330
1F
100
AcDbEntity
  8
CUT
100
AcDbLine
 10
372.904842
 20
288.907994
 30
0.0
 11
364.244103
 21
288.907994
 31
0.0
  0
LINE
  5
33E
330
1F
100
AcDbEntity
  8
CUT
100
AcDbLine
 10
364.244103
 20
288.907994
 30
0.0
 11
364.244103
 21
300.060131
 31
0.0
  0
ARC
  5
33F
330
1F
100
AcDbEntity
  8
CUT
100
AcDbCircle
 10
365.0234459403463
 20
300.083082884012
 30
0.0
 40
0.7796807151997629
100
AcDbArc
 50
97.52532596847661
 51
181.6868828898236
  0
ARC
  5
340
330
1F
100
AcDbEntity
  8
CUT
100
AcDbCircle
 10
365.010316910053
 20
300.1427604604775
 30
0.0
 40
0.7188165129400402
100
AcDbArc
 50
92.62961813550457
 51
97.11081335389666
  0
ARC
  5
341
330
1F
100
AcDbEntity
  8
CUT
100
AcDbCircle
 10
371.3961276304773
 20
300.3761006425429
 30
0.0
 40
0.7784676229390245
100
AcDbArc
 50
10.45836096026189
 51
91.91137299242903
  0
ARC
  5
342
330
1F
100
AcDbEntity
  8
CUT
100
AcDbCircle
 10
371.4574359655143
 20
300.3921450719939
 30
0.0
 40
0.7152805078942576
100
AcDbArc
 50
2.588340711376941
 51
10.08595045030374
  0
ENDSEC
  0
SECTION
  2
OBJECTS
  0
DICTIONARY
  5
C
330
0
100
AcDbDictionary
281
     1
  3
ACAD_CIP_PREVIOUS_PRODUCT_INFO
350
309
  3
ACAD_COLOR
350
304
  3
ACAD_DETAILVIEWSTYLE
350
300
  3
ACAD_GROUP
350
D
  3
ACAD_LAYOUT
350
1A
  3
ACAD_MATERIAL
350
43
  3
ACAD_MLEADERSTYLE
350
6B
  3
ACAD_MLINESTYLE
350
17
  3
ACAD_PLOTSETTINGS
350
19
  3
ACAD_PLOTSTYLENAME
350
E
  3
ACAD_SCALELIST
350
47
  3
ACAD_SECTIONVIEWSTYLE
350
301
  3
ACAD_TABLESTYLE
350
69
  3
ACAD_VISUALSTYLE
350
2A
  3
ACDB_RECOMPOSE_DATA
350
370
  3
AcDbVariableDictionary
350
2BD
  0
DICTIONARY
  5
351
330
10
100
AcDbDictionary
280
     1
281
     1
  3
ADSK_XREC_LAYER_RECONCILED
360
352
  0
DICTIONARY
  5
353
330
8C
100
AcDbDictionary
280
     1
281
     1
  3
ADSK_XREC_LAYER_RECONCILED
360
354
  0
DICTIONARY
  5
355
330
343
100
AcDbDictionary
280
     1
281
     1
  3
ADSK_XREC_LAYER_RECONCILED
360
356
  0
DICTIONARY
  5
357
330
344
100
AcDbDictionary
280
     1
281
     1
  3
ADSK_XREC_LAYER_RECONCILED
360
358
  0
DICTIONARY
  5
359
330
345
100
AcDbDictionary
280
     1
281
     1
  3
ADSK_XREC_LAYER_RECONCILED
360
35A
  0
DICTIONARY
  5
35B
330
347
100
AcDbDictionary
280
     1
281
     1
  3
ADSK_XREC_LAYER_RECONCILED
360
35C
  0
DICTIONARY
  5
35D
330
348
100
AcDbDictionary
280
     1
281
     1
  3
ADSK_XREC_LAYER_RECONCILED
360
35E
  0
DICTIONARY
  5
35F
330
34A
100
AcDbDictionary
280
     1
281
     1
  3
ADSK_XREC_LAYER_RECONCILED
360
360
  0
DICTIONARY
  5
361
330
34B
100
AcDbDictionary
280
     1
281
     1
  3
ADSK_XREC_LAYER_RECONCILED
360
362
  0
DICTIONARY
  5
363
330
34C
100
AcDbDictionary
280
     1
281
     1
  3
ADSK_XREC_LAYER_RECONCILED
360
364
  0
DICTIONARY
  5
365
330
34D
100
AcDbDictionary
280
     1
281
     1
  3
ADSK_XREC_LAYER_RECONCILED
360
366
  0
DICTIONARY
  5
367
330
34E
100
AcDbDictionary
280
     1
281
     1
  3
ADSK_XREC_LAYER_RECONCILED
360
368
  0
DICTIONARY
  5
369
330
34F
100
AcDbDictionary
280
     1
281
     1
  3
ADSK_XREC_LAYER_RECONCILED
360
36A
  0
DICTIONARY
  5
30A
330
1F
100
AcDbDictionary
280
     1
281
     1
  3
ACAD_SORTENTS
360
30B
  0
XRECORD
  5
309
102
{ACAD_REACTORS
330
C
102
}
330
C
100
AcDbXrecord
280
     1
300
ACD
300
2019
300
87084ACD_2019_0F
  0
DICTIONARY
  5
304
102
{ACAD_REACTORS
330
C
102
}
330
C
100
AcDbDictionary
281
     1
  0
DICTIONARY
  5
300
102
{ACAD_REACTORS
330
C
102
}
330
C
100
AcDbDictionary
281
     1
  3
Metric50
350
306
  0
DICTIONARY
  5
D
102
{ACAD_REACTORS
330
C
102
}
330
C
100
AcDbDictionary
281
     1
  3
NULOVY_BOD
350
350
  0
DICTIONARY
  5
1A
102
{ACAD_REACTORS
330
C
102
}
330
C
100
AcDbDictionary
281
     1
  3
Layout1
350
1E
  3
Layout2
350
26
  3
Model
350
22
  0
DICTIONARY
  5
43
102
{ACAD_REACTORS
330
C
102
}
330
C
100
AcDbDictionary
281
     1
  3
ByBlock
350
45
  3
ByLayer
350
44
  3
Global
350
46
  0
DICTIONARY
  5
6B
102
{ACAD_REACTORS
330
C
102
}
330
C
100
AcDbDictionary
281
     1
  3
Standard
350
6C
  0
DICTIONARY
  5
17
102
{ACAD_REACTORS
330
C
102
}
330
C
100
AcDbDictionary
281
     1
  3
Standard
350
18
  0
DICTIONARY
  5
19
102
{ACAD_REACTORS
330
C
102
}
330
C
100
AcDbDictionary
281
     1
  0
ACDBDICTIONARYWDFLT
  5
E
102
{ACAD_REACTORS
330
C
102
}
330
C
100
AcDbDictionary
281
     1
  3
Normal
350
F
100
AcDbDictionaryWithDefault
340
F
  0
DICTIONARY
  5
47
102
{ACAD_REACTORS
330
C
102
}
330
C
100
AcDbDictionary
281
     1
  3
A0
350
48
  3
A1
350
49
  3
A2
350
4A
  3
A3
350
4B
  3
A4
350
4C
  3
A5
350
4D
  3
A6
350
4E
  3
A7
350
4F
  3
A8
350
50
  3
A9
350
51
  3
B0
350
52
  3
B1
350
53
  3
B2
350
54
  3
B3
350
55
  3
B4
350
56
  3
B5
350
57
  3
B6
350
58
  3
B7
350
59
  3
B8
350
5A
  3
B9
350
5B
  3
C0
350
5C
  3
C1
350
5D
  3
C2
350
5E
  3
C3
350
5F
  3
C4
350
60
  3
C5
350
61
  3
C6
350
62
  3
C7
350
63
  3
C8
350
64
  3
C9
350
65
  3
D0
350
66
  3
D1
350
67
  3
D2
350
68
  0
DICTIONARY
  5
301
102
{ACAD_REACTORS
330
C
102
}
330
C
100
AcDbDictionary
281
     1
  3
Metric50
350
305
  0
DICTIONARY
  5
69
102
{ACAD_REACTORS
330
C
102
}
330
C
100
AcDbDictionary
281
     1
  3
Standard
350
6A
  0
DICTIONARY
  5
2A
102
{ACAD_REACTORS
330
C
102
}
330
C
100
AcDbDictionary
281
     1
  3
2dWireframe
350
2F
  3
Basic
350
32
  3
Brighten
350
36
  3
ColorChange
350
3A
  3
Conceptual
350
34
  3
Dim
350
35
  3
EdgeColorOff
350
3D
  3
Facepattern
350
39
  3
Flat
350
2B
  3
FlatWithEdges
350
2C
  3
Gouraud
350
2D
  3
GouraudWithEdges
350
2E
  3
Hidden
350
31
  3
JitterOff
350
3B
  3
Linepattern
350
38
  3
OverhangOff
350
3C
  3
Realistic
350
33
  3
Shaded
350
42
  3
Shaded with edges
350
41
  3
Shades of Gray
350
3E
  3
Sketchy
350
3F
  3
Thicken
350
37
  3
Wireframe
350
30
  3
X-Ray
350
40
  0
XRECORD
  5
370
102
{ACAD_REACTORS
330
C
102
}
330
C
100
AcDbXrecord
280
     1
 90
        1
330
6A
  0
DICTIONARY
  5
2BD
102
{ACAD_REACTORS
330
C
102
}
330
C
100
AcDbDictionary
281
     1
  3
CANNOSCALE
350
2BE
  3
CMLEADERSTYLE
350
2FF
  3
CTABLESTYLE
350
2FE
  3
CVIEWDETAILSTYLE
350
36B
  3
CVIEWSECTIONSTYLE
350
36C
  3
MSLTSCALE
350
2BF
  3
XCLIPFRAME
350
36D
  0
XRECORD
  5
352
102
{ACAD_REACTORS
330
351
102
}
330
351
100
AcDbXrecord
280
     1
290
     1
  0
XRECORD
  5
354
102
{ACAD_REACTORS
330
353
102
}
330
353
100
AcDbXrecord
280
     1
290
     1
  0
XRECORD
  5
356
102
{ACAD_REACTORS
330
355
102
}
330
355
100
AcDbXrecord
280
     1
290
     1
  0
XRECORD
  5
358
102
{ACAD_REACTORS
330
357
102
}
330
357
100
AcDbXrecord
280
     1
290
     1
  0
XRECORD
  5
35A
102
{ACAD_REACTORS
330
359
102
}
330
359
100
AcDbXrecord
280
     1
290
     1
  0
XRECORD
  5
35C
102
{ACAD_REACTORS
330
35B
102
}
330
35B
100
AcDbXrecord
280
     1
290
     1
  0
XRECORD
  5
35E
102
{ACAD_REACTORS
330
35D
102
}
330
35D
100
AcDbXrecord
280
     1
290
     1
  0
XRECORD
  5
360
102
{ACAD_REACTORS
330
35F
102
}
330
35F
100
AcDbXrecord
280
     1
290
     1
  0
XRECORD
  5
362
102
{ACAD_REACTORS
330
361
102
}
330
361
100
AcDbXrecord
280
     1
290
     1
  0
XRECORD
  5
364
102
{ACAD_REACTORS
330
363
102
}
330
363
100
AcDbXrecord
280
     1
290
     1
  0
XRECORD
  5
366
102
{ACAD_REACTORS
330
365
102
}
330
365
100
AcDbXrecord
280
     1
290
     1
  0
XRECORD
  5
368
102
{ACAD_REACTORS
330
367
102
}
330
367
100
AcDbXrecord
280
     1
290
     1
  0
XRECORD
  5
36A
102
{ACAD_REACTORS
330
369
102
}
330
369
100
AcDbXrecord
280
     1
290
     1
  0
SORTENTSTABLE
  5
30B
102
{ACAD_REACTORS
330
30A
102
}
330
30A
100
AcDbSortentsTable
330
1F
331
30C
  5
277
331
30D
  5
290
331
30E
  5
30C
331
30F
  5
30D
331
310
  5
30E
331
311
  5
30F
331
312
  5
310
331
313
  5
311
331
314
  5
312
331
315
  5
313
331
316
  5
314
331
317
  5
315
331
318
  5
316
331
319
  5
317
331
31A
  5
318
331
31B
  5
319
331
31C
  5
31A
331
31D
  5
31B
331
31E
  5
31C
331
31F
  5
31D
331
320
  5
31E
331
321
  5
31F
331
322
  5
320
331
323
  5
321
331
324
  5
322
331
325
  5
323
331
326
  5
324
331
327
  5
325
331
328
  5
326
331
338
  5
33B
331
339
  5
33C
331
33B
  5
33F
331
33C
  5
340
331
33D
  5
341
331
33E
  5
342
331
33F
  5
338
331
340
  5
339
331
341
  5
33D
331
342
  5
33E
  0
ACDBDETAILVIEWSTYLE
  5
306
102
{ACAD_XDICTIONARY
360
3A4
102
}
102
{ACAD_REACTORS
330
300
102
}
330
300
100
AcDbModelDocViewStyle
 70
     0
  3
Metric50
290
     0
100
AcDbDetailViewStyle
 70
     0
 71
     0
 90
        3
 71
     1
340
11
 62
   256
 40
5.0
340
0
 62
   256
 40
5.0
300

 40
0.0
280
     1
 71
     2
340
16
 90
       25
 62
   256
 71
     3
340
11
 62
   256
 40
5.0
 90
        0
 40
15.0
 90
        1
300
%<\AcVar ViewDetailId>% (%<\AcVar ViewScale \f "%sn">%)
 71
     4
340
16
 90
       25
 62
   256
340
16
 90
       25
 62
   256
280
     0
  0
GROUP
  5
350
102
{ACAD_REACTORS
330
D
102
}
330
D
100
AcDbGroup
300

 70
     0
 71
     1
340
73
  0
LAYOUT
  5
1E
102
{ACAD_REACTORS
330
1A
102
}
330
1A
100
AcDbPlotSettings
  1

  2
none_device
  4

  6

 40
0.0
 41
0.0
 42
0.0
 43
0.0
 44
0.0
 45
0.0
 46
0.0
 47
0.0
 48
0.0
 49
0.0
140
0.0
141
0.0
142
1.0
143
1.0
 70
   688
 72
     0
 73
     0
 74
     5
  7

 75
    16
147
1.0
 76
     0
 77
     2
 78
   300
148
0.0
149
0.0
100
AcDbLayout
  1
Layout1
 70
     1
 71
     1
 10
-0.5
 20
-0.5
 11
5.0
 21
5.0
 12
0.0
 22
0.0
 32
0.0
 14
-0.5
 24
-0.5
 34
-0.5
 15
5.0
 25
5.0
 35
5.0
146
0.0
 13
0.0
 23
0.0
 33
0.0
 16
1.0
 26
0.0
 36
0.0
 17
0.0
 27
1.0
 37
0.0
 76
     0
330
1B
  0
LAYOUT
  5
26
102
{ACAD_REACTORS
330
1A
102
}
330
1A
100
AcDbPlotSettings
  1

  2
none_device
  4

  6

 40
0.0
 41
0.0
 42
0.0
 43
0.0
 44
0.0
 45
0.0
 46
0.0
 47
0.0
 48
0.0
 49
0.0
140
0.0
141
0.0
142
1.0
143
1.0
 70
   688
 72
     0
 73
     0
 74
     5
  7

 75
    16
147
1.0
 76
     0
 77
     2
 78
   300
148
0.0
149
0.0
100
AcDbLayout
  1
Layout2
 70
     1
 71
     2
 10
0.0
 20
0.0
 11
0.0
 21
0.0
 12
0.0
 22
0.0
 32
0.0
 14
0.0
 24
0.0
 34
0.0
 15
0.0
 25
0.0
 35
0.0
146
0.0
 13
0.0
 23
0.0
 33
0.0
 16
1.0
 26
0.0
 36
0.0
 17
0.0
 27
1.0
 37
0.0
 76
     0
330
23
  0
LAYOUT
  5
22
102
{ACAD_REACTORS
330
1A
102
}
330
1A
100
AcDbPlotSettings
  1

  2
none_device
  4
Letter_(8.50_x_11.00_Inches)
  6

 40
6.349999999999999
 41
6.349999999999999
 42
6.350005
 43
6.350005
 44
215.9
 45
279.4
 46
0.0
 47
0.0
 48
0.0
 49
0.0
140
0.0
141
0.0
142
1.0
143
1.0
 70
  1712
 72
     0
 73
     0
 74
     0
  7

 75
     0
147
1.0
 76
     0
 77
     2
 78
   300
148
0.0
149
0.0
100
AcDbLayout
  1
Model
 70
     1
 71
     0
 10
-0.5
 20
-0.5
 11
5.0
 21
5.0
 12
0.0
 22
0.0
 32
0.0
 14
-0.5
 24
-0.5
 34
-0.5
 15
5.0
 25
5.0
 35
5.0
146
0.0
 13
0.0
 23
0.0
 33
0.0
 16
1.0
 26
0.0
 36
0.0
 17
0.0
 27
1.0
 37
0.0
 76
     0
330
1F
331
29
  0
MATERIAL
  5
45
102
{ACAD_XDICTIONARY
360
2F3
102
}
102
{ACAD_REACTORS
330
43
102
}
330
43
100
AcDbMaterial
  1
ByBlock
  0
MATERIAL
  5
44
102
{ACAD_XDICTIONARY
360
2F1
102
}
102
{ACAD_REACTORS
330
43
102
}
330
43
100
AcDbMaterial
  1
ByLayer
  0
MATERIAL
  5
46
102
{ACAD_XDICTIONARY
360
2F5
102
}
102
{ACAD_REACTORS
330
43
102
}
330
43
100
AcDbMaterial
  1
Global
  0
MLEADERSTYLE
  5
6C
102
{ACAD_REACTORS
330
6B
102
}
330
6B
100
AcDbMLeaderStyle
170
     2
171
     1
172
     0
 90
        2
 40
0.0
 41
0.0
173
     1
 91
-1056964608
340
14
 92
       -2
290
     1
 42
0.09
291
     1
 43
0.36
  3
Standard
 44
0.18
300

342
11
174
     1
178
     6
175
     1
176
     0
 93
-1056964608
 45
0.18
292
     0
297
     0
 46
0.18
 94
-1056964608
 47
1.0
 49
1.0
140
1.0
293
     1
141
0.0
294
     1
177
     0
142
1.0
295
     0
296
     0
143
0.125
1001
ACAD_MLEADERVER
1070
     2
  0
MLINESTYLE
  5
18
102
{ACAD_REACTORS
330
17
102
}
330
17
100
AcDbMlineStyle
  2
STANDARD
 70
     0
  3

 62
   256
 51
90.0
 52
90.0
 71
     2
 49
0.5
 62
   256
  6
BYLAYER
 49
-0.5
 62
   256
  6
BYLAYER
  0
ACDBPLACEHOLDER
  5
F
102
{ACAD_REACTORS
330
E
102
}
330
E
  0
SCALE
  5
48
102
{ACAD_REACTORS
330
47
102
}
330
47
100
AcDbScale
 70
     0
300
1:1
140
1.0
141
1.0
290
     1
  0
SCALE
  5
49
102
{ACAD_REACTORS
330
47
102
}
330
47
100
AcDbScale
 70
     0
300
1:2
140
1.0
141
2.0
290
     0
  0
SCALE
  5
4A
102
{ACAD_REACTORS
330
47
102
}
330
47
100
AcDbScale
 70
     0
300
1:4
140
1.0
141
4.0
290
     0
  0
SCALE
  5
4B
102
{ACAD_REACTORS
330
47
102
}
330
47
100
AcDbScale
 70
     0
300
1:5
140
1.0
141
5.0
290
     0
  0
SCALE
  5
4C
102
{ACAD_REACTORS
330
47
102
}
330
47
100
AcDbScale
 70
     0
300
1:8
140
1.0
141
8.0
290
     0
  0
SCALE
  5
4D
102
{ACAD_REACTORS
330
47
102
}
330
47
100
AcDbScale
 70
     0
300
1:10
140
1.0
141
10.0
290
     0
  0
SCALE
  5
4E
102
{ACAD_REACTORS
330
47
102
}
330
47
100
AcDbScale
 70
     0
300
1:16
140
1.0
141
16.0
290
     0
  0
SCALE
  5
4F
102
{ACAD_REACTORS
330
47
102
}
330
47
100
AcDbScale
 70
     0
300
1:20
140
1.0
141
20.0
290
     0
  0
SCALE
  5
50
102
{ACAD_REACTORS
330
47
102
}
330
47
100
AcDbScale
 70
     0
300
1:30
140
1.0
141
30.0
290
     0
  0
SCALE
  5
51
102
{ACAD_REACTORS
330
47
102
}
330
47
100
AcDbScale
 70
     0
300
1:40
140
1.0
141
40.0
290
     0
  0
SCALE
  5
52
102
{ACAD_REACTORS
330
47
102
}
330
47
100
AcDbScale
 70
     0
300
1:50
140
1.0
141
50.0
290
     0
  0
SCALE
  5
53
102
{ACAD_REACTORS
330
47
102
}
330
47
100
AcDbScale
 70
     0
300
1:100
140
1.0
141
100.0
290
     0
  0
SCALE
  5
54
102
{ACAD_REACTORS
330
47
102
}
330
47
100
AcDbScale
 70
     0
300
2:1
140
2.0
141
1.0
290
     0
  0
SCALE
  5
55
102
{ACAD_REACTORS
330
47
102
}
330
47
100
AcDbScale
 70
     0
300
4:1
140
4.0
141
1.0
290
     0
  0
SCALE
  5
56
102
{ACAD_REACTORS
330
47
102
}
330
47
100
AcDbScale
 70
     0
300
8:1
140
8.0
141
1.0
290
     0
  0
SCALE
  5
57
102
{ACAD_REACTORS
330
47
102
}
330
47
100
AcDbScale
 70
     0
300
10:1
140
10.0
141
1.0
290
     0
  0
SCALE
  5
58
102
{ACAD_REACTORS
330
47
102
}
330
47
100
AcDbScale
 70
     0
300
100:1
140
100.0
141
1.0
290
     0
  0
SCALE
  5
59
102
{ACAD_REACTORS
330
47
102
}
330
47
100
AcDbScale
 70
     0
300
1/128" = 1'-0"
140
0.007812
141
12.0
290
     0
  0
SCALE
  5
5A
102
{ACAD_REACTORS
330
47
102
}
330
47
100
AcDbScale
 70
     0
300
1/64" = 1'-0"
140
0.015625
141
12.0
290
     0
  0
SCALE
  5
5B
102
{ACAD_REACTORS
330
47
102
}
330
47
100
AcDbScale
 70
     0
300
1/32" = 1'-0"
140
0.03125
141
12.0
290
     0
  0
SCALE
  5
5C
102
{ACAD_REACTORS
330
47
102
}
330
47
100
AcDbScale
 70
     0
300
1/16" = 1'-0"
140
0.0625
141
12.0
290
     0
  0
SCALE
  5
5D
102
{ACAD_REACTORS
330
47
102
}
330
47
100
AcDbScale
 70
     0
300
3/32" = 1'-0"
140
0.09375
141
12.0
290
     0
  0
SCALE
  5
5E
102
{ACAD_REACTORS
330
47
102
}
330
47
100
AcDbScale
 70
     0
300
1/8" = 1'-0"
140
0.125
141
12.0
290
     0
  0
SCALE
  5
5F
102
{ACAD_REACTORS
330
47
102
}
330
47
100
AcDbScale
 70
     0
300
3/16" = 1'-0"
140
0.1875
141
12.0
290
     0
  0
SCALE
  5
60
102
{ACAD_REACTORS
330
47
102
}
330
47
100
AcDbScale
 70
     0
300
1/4" = 1'-0"
140
0.25
141
12.0
290
     0
  0
SCALE
  5
61
102
{ACAD_REACTORS
330
47
102
}
330
47
100
AcDbScale
 70
     0
300
3/8" = 1'-0"
140
0.375
141
12.0
290
     0
  0
SCALE
  5
62
102
{ACAD_REACTORS
330
47
102
}
330
47
100
AcDbScale
 70
     0
300
1/2" = 1'-0"
140
0.5
141
12.0
290
     0
  0
SCALE
  5
63
102
{ACAD_REACTORS
330
47
102
}
330
47
100
AcDbScale
 70
     0
300
3/4" = 1'-0"
140
0.75
141
12.0
290
     0
  0
SCALE
  5
64
102
{ACAD_REACTORS
330
47
102
}
330
47
100
AcDbScale
 70
     0
300
1" = 1'-0"
140
1.0
141
12.0
290
     0
  0
SCALE
  5
65
102
{ACAD_REACTORS
330
47
102
}
330
47
100
AcDbScale
 70
     0
300
1-1/2" = 1'-0"
140
1.5
141
12.0
290
     0
  0
SCALE
  5
66
102
{ACAD_REACTORS
330
47
102
}
330
47
100
AcDbScale
 70
     0
300
3" = 1'-0"
140
3.0
141
12.0
290
     0
  0
SCALE
  5
67
102
{ACAD_REACTORS
330
47
102
}
330
47
100
AcDbScale
 70
     0
300
6" = 1'-0"
140
6.0
141
12.0
290
     0
  0
SCALE
  5
68
102
{ACAD_REACTORS
330
47
102
}
330
47
100
AcDbScale
 70
     0
300
1'-0" = 1'-0"
140
12.0
141
12.0
290
     0
  0
ACDBSECTIONVIEWSTYLE
  5
305
102
{ACAD_XDICTIONARY
360
3A2
102
}
102
{ACAD_REACTORS
330
301
102
}
330
301
100
AcDbModelDocViewStyle
 70
     0
  3
Metric50
290
     0
100
AcDbSectionViewStyle
 70
     0
 71
     0
 90
      102
 71
     1
340
11
 62
   256
 40
5.0
340
0
340
0
 62
   256
 40
5.0
300
I, O, Q, S, X, Z
 40
10.0
 90
        0
 40
2.5
 90
        0
 71
     2
340
16
 90
       25
 62
   256
340
16
 90
       50
 62
   256
 40
5.0
 40
2.5
 40
5.0
 71
     3
340
11
 62
   256
 40
5.0
 90
        0
 40
15.0
 90
        1
300
%<\AcVar ViewSectionStartId>%-%<\AcVar ViewSectionEndId>% (%<\AcVar ViewScale \f "%sn">%)
 71
     4
 62
   256
 62
   257
300
ANSI31
 40
1.0
 90
        0
290
     0
290
     0
 90
        6
 40
0.0
 40
1.570796326794896
 40
0.2617993877991494
 40
1.308996938995747
 40
-0.2617993877991494
 40
1.832595714594046
  0
TABLESTYLE
  5
6A
102
{ACAD_XDICTIONARY
360
2F7
102
}
102
{ACAD_REACTORS
330
69
102
}
330
69
100
AcDbTableStyle
  3
Standard
 70
     0
 71
     0
 40
0.06
 41
0.06
280
     0
281
     0
  7
Standard
140
0.18
170
     2
 62
     0
 63
     7
283
     0
274
    -2
284
     1
 64
     0
275
    -2
285
     1
 65
     0
276
    -2
286
     1
 66
     0
277
    -2
287
     1
 67
     0
278
    -2
288
     1
 68
     0
279
    -2
289
     1
 69
     0
  7
Standard
140
0.25
170
     5
 62
     0
 63
     7
283
     0
274
    -2
284
     1
 64
     0
275
    -2
285
     1
 65
     0
276
    -2
286
     1
 66
     0
277
    -2
287
     1
 67
     0
278
    -2
288
     1
 68
     0
279
    -2
289
     1
 69
     0
  7
Standard
140
0.18
170
     5
 62
     0
 63
     7
283
     0
274
    -2
284
     1
 64
     0
275
    -2
285
     1
 65
     0
276
    -2
286
     1
 66
     0
277
    -2
287
     1
 67
     0
278
    -2
288
     1
 68
     0
279
    -2
289
     1
 69
     0
  0
VISUALSTYLE
  5
2F
102
{ACAD_XDICTIONARY
360
379
102
}
102
{ACAD_REACTORS
330
2A
102
}
330
2A
100
AcDbVisualStyle
  2

 70
     4
 71
     0
 72
     2
 73
     0
 90
        0
 40
-0.6
 41
-30.0
 62
     5
 63
     7
421
 16777215
 74
     1
 91
        4
 64
     7
 65
   257
 75
     1
175
     1
 42
1.0
 92
        0
 66
   257
 43
1.0
 76
     1
 77
     6
 78
     2
 67
     7
 79
     5
170
     0
171
     0
290
     0
174
     0
 93
        1
 44
0.0
173
     0
291
     0
 45
0.0
1001
ACAD
1000
AcDbSavedByObjectVersion
1070
     0
  0
VISUALSTYLE
  5
32
102
{ACAD_XDICTIONARY
360
37F
102
}
102
{ACAD_REACTORS
330
2A
102
}
330
2A
100
AcDbVisualStyle
  2

 70
     7
 71
     1
 72
     0
 73
     1
 90
        0
 40
-0.6
 41
-30.0
 62
     5
 63
     7
421
 16777215
 74
     0
 91
        4
 64
     7
 65
   257
 75
     1
175
     1
 42
1.0
 92
        8
 66
     7
 43
1.0
 76
     1
 77
     6
 78
     2
 67
     7
 79
     5
170
     0
171
     0
290
     0
174
     0
 93
        1
 44
0.0
173
     0
291
     1
 45
0.0
1001
ACAD
1000
AcDbSavedByObjectVersion
1070
     0
  0
VISUALSTYLE
  5
36
102
{ACAD_XDICTIONARY
360
387
102
}
102
{ACAD_REACTORS
330
2A
102
}
330
2A
100
AcDbVisualStyle
  2

 70
    12
 71
     2
 72
     2
 73
     0
 90
        0
 40
-0.6
 41
-30.0
 62
     5
 63
     7
421
 16777215
 74
     1
 91
        4
 64
     7
 65
   257
 75
     1
175
     1
 42
1.0
 92
        8
 66
     7
 43
1.0
 76
     1
 77
     6
 78
     2
 67
     7
 79
     5
170
     0
171
     0
290
     0
174
     0
 93
        1
 44
50.0
173
     0
291
     1
 45
0.0
1001
ACAD
1000
AcDbSavedByObjectVersion
1070
     0
  0
VISUALSTYLE
  5
3A
102
{ACAD_XDICTIONARY
360
38F
102
}
102
{ACAD_REACTORS
330
2A
102
}
330
2A
100
AcDbVisualStyle
  2

 70
    16
 71
     2
 72
     2
 73
     3
 90
        0
 40
-0.6
 41
-30.0
 62
     5
 63
     8
421
  8421504
 74
     1
 91
        4
 64
     7
 65
   257
 75
     1
175
     1
 42
1.0
 92
        8
 66
     8
424
  8421504
 43
1.0
 76
     1
 77
     6
 78
     2
 67
     7
 79
     5
170
     0
171
     0
290
     0
174
     0
 93
        1
 44
0.0
173
     0
291
     1
 45
0.0
1001
ACAD
1000
AcDbSavedByObjectVersion
1070
     0
  0
VISUALSTYLE
  5
34
102
{ACAD_XDICTIONARY
360
383
102
}
102
{ACAD_REACTORS
330
2A
102
}
330
2A
100
AcDbVisualStyle
  2

 70
     9
 71
     3
 72
     2
 73
     0
 90
        0
 40
-0.6
 41
-30.0
 62
     5
 63
     7
421
 16777215
 74
     2
 91
        2
 64
     7
 65
   257
 75
     1
175
     1
 42
179.0
 92
        8
 66
     7
 43
1.0
 76
     1
 77
     6
 78
     2
 67
     7
 79
     3
170
     0
171
     0
290
     0
174
     0
 93
        1
 44
0.0
173
     0
291
     0
 45
0.0
1001
ACAD
1000
AcDbSavedByObjectVersion
1070
     0
  0
VISUALSTYLE
  5
35
102
{ACAD_XDICTIONARY
360
385
102
}
102
{ACAD_REACTORS
330
2A
102
}
330
2A
100
AcDbVisualStyle
  2

 70
    11
 71
     2
 72
     2
 73
     0
 90
        0
 40
-0.6
 41
-30.0
 62
     5
 63
     7
421
 16777215
 74
     1
 91
        4
 64
     7
 65
   257
 75
     1
175
     1
 42
1.0
 92
        8
 66
     7
 43
1.0
 76
     1
 77
     6
 78
     2
 67
     7
 79
     5
170
     0
171
     0
290
     0
174
     0
 93
        1
 44
-50.0
173
     0
291
     1
 45
0.0
1001
ACAD
1000
AcDbSavedByObjectVersion
1070
     0
  0
VISUALSTYLE
  5
3D
102
{ACAD_XDICTIONARY
360
395
102
}
102
{ACAD_REACTORS
330
2A
102
}
330
2A
100
AcDbVisualStyle
  2

 70
    22
 71
     2
 72
     2
 73
     0
 90
        0
 40
-0.6
 41
-30.0
 62
     5
 63
     7
421
 16777215
 74
     1
 91
        4
 64
     7
 65
   257
 75
     1
175
     1
 42
1.0
 92
        8
 66
     7
 43
1.0
 76
     1
 77
     6
 78
     2
 67
     7
 79
     5
170
     0
171
     0
290
     0
174
     0
 93
        1
 44
0.0
173
     0
291
     1
 45
0.0
1001
ACAD
1000
AcDbSavedByObjectVersion
1070
     0
  0
VISUALSTYLE
  5
39
102
{ACAD_XDICTIONARY
360
38D
102
}
102
{ACAD_REACTORS
330
2A
102
}
330
2A
100
AcDbVisualStyle
  2

 70
    15
 71
     2
 72
     2
 73
     0
 90
        0
 40
-0.6
 41
-30.0
 62
     5
 63
     7
421
 16777215
 74
     1
 91
        4
 64
     7
 65
   257
 75
     1
175
     1
 42
1.0
 92
        8
 66
     7
 43
1.0
 76
     1
 77
     6
 78
     2
 67
     7
 79
     5
170
     0
171
     0
290
     0
174
     0
 93
        1
 44
0.0
173
     0
291
     1
 45
0.0
1001
ACAD
1000
AcDbSavedByObjectVersion
1070
     0
  0
VISUALSTYLE
  5
2B
102
{ACAD_XDICTIONARY
360
371
102
}
102
{ACAD_REACTORS
330
2A
102
}
330
2A
100
AcDbVisualStyle
  2

 70
     0
 71
     2
 72
     1
 73
     1
 90
        2
 40
-0.6
 41
30.0
 62
     5
 63
     7
421
 16777215
 74
     0
 91
        0
 64
     7
 65
   257
 75
     1
175
     1
 42
1.0
 92
        8
 66
     7
 43
1.0
 76
     1
 77
     6
 78
     2
 67
     7
 79
     5
170
     0
171
     0
290
     0
174
     0
 93
       13
 44
0.0
173
     0
291
     1
 45
0.0
1001
ACAD
1000
AcDbSavedByObjectVersion
1070
     0
  0
VISUALSTYLE
  5
2C
102
{ACAD_XDICTIONARY
360
373
102
}
102
{ACAD_REACTORS
330
2A
102
}
330
2A
100
AcDbVisualStyle
  2

 70
     1
 71
     2
 72
     1
 73
     1
 90
        2
 40
-0.6
 41
30.0
 62
     5
 63
     7
421
 16777215
 74
     1
 91
        0
 64
     7
 65
   257
 75
     1
175
     1
 42
1.0
 92
        0
 66
   257
 43
1.0
 76
     1
 77
     6
 78
     2
 67
     7
 79
     5
170
     0
171
     0
290
     0
174
     0
 93
       13
 44
0.0
173
     0
291
     1
 45
0.0
1001
ACAD
1000
AcDbSavedByObjectVersion
1070
     0
  0
VISUALSTYLE
  5
2D
102
{ACAD_XDICTIONARY
360
375
102
}
102
{ACAD_REACTORS
330
2A
102
}
330
2A
100
AcDbVisualStyle
  2

 70
     2
 71
     2
 72
     2
 73
     1
 90
        2
 40
-0.6
 41
30.0
 62
     5
 63
     7
421
 16777215
 74
     0
 91
        0
 64
     7
 65
   257
 75
     1
175
     1
 42
1.0
 92
        0
 66
     7
 43
1.0
 76
     1
 77
     6
 78
     2
 67
     7
 79
     5
170
     0
171
     0
290
     0
174
     0
 93
       13
 44
0.0
173
     0
291
     1
 45
0.0
1001
ACAD
1000
AcDbSavedByObjectVersion
1070
     0
  0
VISUALSTYLE
  5
2E
102
{ACAD_XDICTIONARY
360
377
102
}
102
{ACAD_REACTORS
330
2A
102
}
330
2A
100
AcDbVisualStyle
  2

 70
     3
 71
     2
 72
     2
 73
     1
 90
        2
 40
-0.6
 41
30.0
 62
     5
 63
     7
421
 16777215
 74
     1
 91
        0
 64
     7
 65
   257
 75
     1
175
     1
 42
1.0
 92
        0
 66
   257
 43
1.0
 76
     1
 77
     6
 78
     2
 67
     7
 79
     5
170
     0
171
     0
290
     0
174
     0
 93
       13
 44
0.0
173
     0
291
     1
 45
0.0
1001
ACAD
1000
AcDbSavedByObjectVersion
1070
     0
  0
VISUALSTYLE
  5
31
102
{ACAD_XDICTIONARY
360
37D
102
}
102
{ACAD_REACTORS
330
2A
102
}
330
2A
100
AcDbVisualStyle
  2

 70
     6
 71
     1
 72
     2
 73
     2
 90
        0
 40
-0.6
 41
-30.0
 62
     5
 63
     7
421
 16777215
 74
     2
 91
        2
 64
     7
 65
   257
 75
     2
175
     1
 42
40.0
 92
        0
 66
   257
 43
1.0
 76
     1
 77
     6
 78
     2
 67
     7
 79
     3
170
     0
171
     0
290
     0
174
     0
 93
        1
 44
0.0
173
     0
291
     0
 45
0.0
1001
ACAD
1000
AcDbSavedByObjectVersion
1070
     0
  0
VISUALSTYLE
  5
3B
102
{ACAD_XDICTIONARY
360
391
102
}
102
{ACAD_REACTORS
330
2A
102
}
330
2A
100
AcDbVisualStyle
  2

 70
    20
 71
     2
 72
     2
 73
     0
 90
        0
 40
-0.6
 41
-30.0
 62
     5
 63
     7
421
 16777215
 74
     1
 91
        4
 64
     7
 65
   257
 75
     1
175
     1
 42
1.0
 92
       10
 66
     7
 43
1.0
 76
     1
 77
     6
 78
     2
 67
     7
 79
     5
170
     0
171
     0
290
     0
174
     0
 93
        1
 44
0.0
173
     0
291
     1
 45
0.0
1001
ACAD
1000
AcDbSavedByObjectVersion
1070
     0
  0
VISUALSTYLE
  5
38
102
{ACAD_XDICTIONARY
360
38B
102
}
102
{ACAD_REACTORS
330
2A
102
}
330
2A
100
AcDbVisualStyle
  2

 70
    14
 71
     2
 72
     2
 73
     0
 90
        0
 40
-0.6
 41
-30.0
 62
     5
 63
     7
421
 16777215
 74
     1
 91
        4
 64
     7
 65
   257
 75
     7
175
     7
 42
1.0
 92
        8
 66
     7
 43
1.0
 76
     1
 77
     6
 78
     2
 67
     7
 79
     5
170
     0
171
     0
290
     0
174
     0
 93
        1
 44
0.0
173
     0
291
     1
 45
0.0
1001
ACAD
1000
AcDbSavedByObjectVersion
1070
     0
  0
VISUALSTYLE
  5
3C
102
{ACAD_XDICTIONARY
360
393
102
}
102
{ACAD_REACTORS
330
2A
102
}
330
2A
100
AcDbVisualStyle
  2

 70
    21
 71
     2
 72
     2
 73
     0
 90
        0
 40
-0.6
 41
-30.0
 62
     5
 63
     7
421
 16777215
 74
     1
 91
        4
 64
     7
 65
   257
 75
     1
175
     1
 42
1.0
 92
        9
 66
     7
 43
1.0
 76
     1
 77
     6
 78
     2
 67
     7
 79
     5
170
     0
171
     0
290
     0
174
     0
 93
        1
 44
0.0
173
     0
291
     1
 45
0.0
1001
ACAD
1000
AcDbSavedByObjectVersion
1070
     0
  0
VISUALSTYLE
  5
33
102
{ACAD_XDICTIONARY
360
381
102
}
102
{ACAD_REACTORS
330
2A
102
}
330
2A
100
AcDbVisualStyle
  2

 70
     8
 71
     2
 72
     3
 73
     0
 90
        2
 40
-0.6
 41
30.0
 62
     5
 63
     7
421
 16777215
 74
     0
 91
        0
 64
     7
 65
   257
 75
     1
175
     1
 42
1.0
 92
        8
 66
   257
 43
1.0
 76
     1
 77
     6
 78
     2
 67
     7
 79
     3
170
     0
171
     0
290
     0
174
     0
 93
       13
 44
0.0
173
     0
291
     0
 45
0.0
1001
ACAD
1000
AcDbSavedByObjectVersion
1070
     0
  0
VISUALSTYLE
  5
42
102
{ACAD_XDICTIONARY
360
39F
102
}
102
{ACAD_REACTORS
330
2A
102
}
330
2A
100
AcDbVisualStyle
  2

 70
    27
 71
     2
 72
     2
 73
     1
 90
        2
 40
-0.6
 41
30.0
 62
     5
 63
     7
421
 16777215
 74
     0
 91
        4
 64
     7
 65
   257
 75
     1
175
     1
 42
1.0
 92
        8
 66
   257
 43
1.0
 76
     1
 77
     6
 78
     2
 67
     8
425
  7895160
 79
     3
170
     0
171
     0
290
     0
174
     0
 93
        5
 44
0.0
173
     0
291
     0
 45
0.0
1001
ACAD
1000
AcDbSavedByObjectVersion
1070
     0
  0
VISUALSTYLE
  5
41
102
{ACAD_XDICTIONARY
360
39D
102
}
102
{ACAD_REACTORS
330
2A
102
}
330
2A
100
AcDbVisualStyle
  2

 70
    26
 71
     2
 72
     2
 73
     1
 90
        2
 40
-0.6
 41
30.0
 62
     5
 63
     7
421
 16777215
 74
     1
 91
       10
 64
     7
 65
   257
 75
     2
175
     1
 42
1.0
 92
        8
 66
   257
 43
1.0
 76
     1
 77
     6
 78
     2
 67
     7
 79
     3
170
     0
171
     0
290
     0
174
     0
 93
        5
 44
0.0
173
     0
291
     0
 45
0.0
1001
ACAD
1000
AcDbSavedByObjectVersion
1070
     0
  0
VISUALSTYLE
  5
3E
102
{ACAD_XDICTIONARY
360
397
102
}
102
{ACAD_REACTORS
330
2A
102
}
330
2A
100
AcDbVisualStyle
  2

 70
    23
 71
     2
 72
     2
 73
     3
 90
        0
 40
-0.6
 41
-30.0
 62
     5
 63
     7
421
 16777215
 74
     2
 91
        2
 64
     7
 65
     7
 75
     1
175
     1
 42
40.0
 92
        8
 66
     7
 43
1.0
 76
     1
 77
     6
 78
     2
 67
     7
 79
     3
170
     0
171
     0
290
     0
174
     0
 93
        1
 44
0.0
173
     0
291
     0
 45
0.0
1001
ACAD
1000
AcDbSavedByObjectVersion
1070
     0
  0
VISUALSTYLE
  5
3F
102
{ACAD_XDICTIONARY
360
399
102
}
102
{ACAD_REACTORS
330
2A
102
}
330
2A
100
AcDbVisualStyle
  2

 70
    24
 71
     1
 72
     2
 73
     2
 90
        0
 40
-0.6
 41
-30.0
 62
     5
 63
     7
421
 16777215
 74
     2
 91
        2
 64
     7
 65
     7
 75
     1
175
     1
 42
40.0
 92
       11
 66
     7
 43
1.0
 76
     1
 77
     6
 78
     2
 67
     7
 79
     6
170
     0
171
     0
290
     0
174
     0
 93
        1
 44
0.0
173
     0
291
     0
 45
0.0
1001
ACAD
1000
AcDbSavedByObjectVersion
1070
     0
  0
VISUALSTYLE
  5
37
102
{ACAD_XDICTIONARY
360
389
102
}
102
{ACAD_REACTORS
330
2A
102
}
330
2A
100
AcDbVisualStyle
  2

 70
    13
 71
     2
 72
     2
 73
     0
 90
        0
 40
-0.6
 41
-30.0
 62
     5
 63
     7
421
 16777215
 74
     1
 91
        4
 64
     7
 65
   257
 75
     1
175
     1
 42
1.0
 92
       12
 66
     7
 43
1.0
 76
     1
 77
     6
 78
     2
 67
     7
 79
     5
170
     0
171
     0
290
     0
174
     0
 93
        1
 44
0.0
173
     0
291
     1
 45
0.0
1001
ACAD
1000
AcDbSavedByObjectVersion
1070
     0
  0
VISUALSTYLE
  5
30
102
{ACAD_XDICTIONARY
360
37B
102
}
102
{ACAD_REACTORS
330
2A
102
}
330
2A
100
AcDbVisualStyle
  2

 70
     5
 71
     0
 72
     2
 73
     0
 90
        0
 40
-0.6
 41
-30.0
 62
     5
 63
     7
421
 16777215
 74
     1
 91
        4
 64
     7
 65
   257
 75
     1
175
     1
 42
1.0
 92
        0
 66
   257
 43
1.0
 76
     1
 77
     6
 78
     2
 67
     7
 79
     3
170
     0
171
     0
290
     0
174
     0
 93
        1
 44
0.0
173
     0
291
     0
 45
0.0
1001
ACAD
1000
AcDbSavedByObjectVersion
1070
     0
  0
VISUALSTYLE
  5
40
102
{ACAD_XDICTIONARY
360
39B
102
}
102
{ACAD_REACTORS
330
2A
102
}
330
2A
100
AcDbVisualStyle
  2

 70
    25
 71
     2
 72
     2
 73
     1
 90
        1
 40
0.5
 41
-30.0
 62
     5
 63
     7
421
 16777215
 74
     1
 91
        0
 64
     7
 65
   257
 75
     1
175
     1
 42
1.0
 92
        8
 66
     7
 43
1.0
 76
     1
 77
     6
 78
     2
 67
     7
 79
     3
170
     0
171
     0
290
     0
174
     0
 93
       13
 44
0.0
173
     0
291
     0
 45
0.0
1001
ACAD
1000
AcDbSavedByObjectVersion
1070
     0
  0
DICTIONARYVAR
  5
2BE
102
{ACAD_REACTORS
330
2BD
102
}
330
2BD
100
DictionaryVariables
280
     0
  1
1:1
  0
DICTIONARYVAR
  5
2FF
102
{ACAD_REACTORS
330
2BD
102
}
330
2BD
100
DictionaryVariables
280
     0
  1
STANDARD
  0
DICTIONARYVAR
  5
2FE
102
{ACAD_REACTORS
330
2BD
102
}
330
2BD
100
DictionaryVariables
280
     0
  1
STANDARD
  0
DICTIONARYVAR
  5
36B
102
{ACAD_REACTORS
330
2BD
102
}
330
2BD
100
DictionaryVariables
280
     0
  1
Metric50
  0
DICTIONARYVAR
  5
36C
102
{ACAD_REACTORS
330
2BD
102
}
330
2BD
100
DictionaryVariables
280
     0
  1
Metric50
  0
DICTIONARYVAR
  5
2BF
102
{ACAD_REACTORS
330
2BD
102
}
330
2BD
100
DictionaryVariables
280
     0
  1
1
  0
DICTIONARYVAR
  5
36D
102
{ACAD_REACTORS
330
2BD
102
}
330
2BD
100
DictionaryVariables
280
     0
  1
2
  0
DICTIONARY
  5
3A4
330
306
100
AcDbDictionary
280
     1
281
     1
  3
ACAD_XREC_ROUNDTRIP
360
3A5
  0
DICTIONARY
  5
2F3
330
45
100
AcDbDictionary
280
     1
281
     1
  3
ACAD_XREC_ROUNDTRIP
360
2F4
  0
DICTIONARY
  5
2F1
330
44
100
AcDbDictionary
280
     1
281
     1
  3
ACAD_XREC_ROUNDTRIP
360
2F2
  0
DICTIONARY
  5
2F5
330
46
100
AcDbDictionary
280
     1
281
     1
  3
ACAD_XREC_ROUNDTRIP
360
2F6
  0
DICTIONARY
  5
3A2
330
305
100
AcDbDictionary
280
     1
281
     1
  3
ACAD_XREC_ROUNDTRIP
360
3A3
  0
DICTIONARY
  5
2F7
330
6A
100
AcDbDictionary
280
     1
281
     1
  3
ACAD_ROUNDTRIP_2008_TABLESTYLE_CELLSTYLEMAP
360
36F
  3
ACAD_XREC_ROUNDTRIP
360
3A1
  0
DICTIONARY
  5
379
330
2F
100
AcDbDictionary
280
     1
281
     1
  3
ACAD_XREC_ROUNDTRIP
360
37A
  0
DICTIONARY
  5
37F
330
32
100
AcDbDictionary
280
     1
281
     1
  3
ACAD_XREC_ROUNDTRIP
360
380
  0
DICTIONARY
  5
387
330
36
100
AcDbDictionary
280
     1
281
     1
  3
ACAD_XREC_ROUNDTRIP
360
388
  0
DICTIONARY
  5
38F
330
3A
100
AcDbDictionary
280
     1
281
     1
  3
ACAD_XREC_ROUNDTRIP
360
390
  0
DICTIONARY
  5
383
330
34
100
AcDbDictionary
280
     1
281
     1
  3
ACAD_XREC_ROUNDTRIP
360
384
  0
DICTIONARY
  5
385
330
35
100
AcDbDictionary
280
     1
281
     1
  3
ACAD_XREC_ROUNDTRIP
360
386
  0
DICTIONARY
  5
395
330
3D
100
AcDbDictionary
280
     1
281
     1
  3
ACAD_XREC_ROUNDTRIP
360
396
  0
DICTIONARY
  5
38D
330
39
100
AcDbDictionary
280
     1
281
     1
  3
ACAD_XREC_ROUNDTRIP
360
38E
  0
DICTIONARY
  5
371
330
2B
100
AcDbDictionary
280
     1
281
     1
  3
ACAD_XREC_ROUNDTRIP
360
372
  0
DICTIONARY
  5
373
330
2C
100
AcDbDictionary
280
     1
281
     1
  3
ACAD_XREC_ROUNDTRIP
360
374
  0
DICTIONARY
  5
375
330
2D
100
AcDbDictionary
280
     1
281
     1
  3
ACAD_XREC_ROUNDTRIP
360
376
  0
DICTIONARY
  5
377
330
2E
100
AcDbDictionary
280
     1
281
     1
  3
ACAD_XREC_ROUNDTRIP
360
378
  0
DICTIONARY
  5
37D
330
31
100
AcDbDictionary
280
     1
281
     1
  3
ACAD_XREC_ROUNDTRIP
360
37E
  0
DICTIONARY
  5
391
330
3B
100
AcDbDictionary
280
     1
281
     1
  3
ACAD_XREC_ROUNDTRIP
360
392
  0
DICTIONARY
  5
38B
330
38
100
AcDbDictionary
280
     1
281
     1
  3
ACAD_XREC_ROUNDTRIP
360
38C
  0
DICTIONARY
  5
393
330
3C
100
AcDbDictionary
280
     1
281
     1
  3
ACAD_XREC_ROUNDTRIP
360
394
  0
DICTIONARY
  5
381
330
33
100
AcDbDictionary
280
     1
281
     1
  3
ACAD_XREC_ROUNDTRIP
360
382
  0
DICTIONARY
  5
39F
330
42
100
AcDbDictionary
280
     1
281
     1
  3
ACAD_XREC_ROUNDTRIP
360
3A0
  0
DICTIONARY
  5
39D
330
41
100
AcDbDictionary
280
     1
281
     1
  3
ACAD_XREC_ROUNDTRIP
360
39E
  0
DICTIONARY
  5
397
330
3E
100
AcDbDictionary
280
     1
281
     1
  3
ACAD_XREC_ROUNDTRIP
360
398
  0
DICTIONARY
  5
399
330
3F
100
AcDbDictionary
280
     1
281
     1
  3
ACAD_XREC_ROUNDTRIP
360
39A
  0
DICTIONARY
  5
389
330
37
100
AcDbDictionary
280
     1
281
     1
  3
ACAD_XREC_ROUNDTRIP
360
38A
  0
DICTIONARY
  5
37B
330
30
100
AcDbDictionary
280
     1
281
     1
  3
ACAD_XREC_ROUNDTRIP
360
37C
  0
DICTIONARY
  5
39B
330
40
100
AcDbDictionary
280
     1
281
     1
  3
ACAD_XREC_ROUNDTRIP
360
39C
  0
XRECORD
  5
3A5
102
{ACAD_REACTORS
330
3A4
102
}
330
3A4
100
AcDbXrecord
280
     1
102
DISPLAYNAME
  1
Metric50
102
FLAGS
 90
        0
  0
XRECORD
  5
2F4
102
{ACAD_REACTORS
330
2F3
102
}
330
2F3
100
AcDbXrecord
280
     1
102
MATERIAL
148
0.0
149
0.0
149
0.0
 93
        0
 94
      127
282
     0
 72
     1
 77
     1
171
     1
175
     1
179
     1
273
     0
  0
XRECORD
  5
2F2
102
{ACAD_REACTORS
330
2F1
102
}
330
2F1
100
AcDbXrecord
280
     1
102
MATERIAL
148
0.0
149
0.0
149
0.0
 93
        0
 94
      127
282
     0
 72
     1
 77
     1
171
     1
175
     1
179
     1
273
     0
  0
XRECORD
  5
2F6
102
{ACAD_REACTORS
330
2F5
102
}
330
2F5
100
AcDbXrecord
280
     1
102
MATERIAL
148
0.0
149
0.0
149
0.0
 93
        0
 94
      127
282
     0
 72
     1
 77
     1
171
     1
175
     1
179
     1
273
     0
  0
XRECORD
  5
3A3
102
{ACAD_REACTORS
330
3A2
102
}
330
3A2
100
AcDbXrecord
280
     1
102
DISPLAYNAME
  1
Metric50
102
FLAGS
 90
        0
  0
CELLSTYLEMAP
  5
36F
102
{ACAD_REACTORS
330
2F7
102
}
330
2F7
100
AcDbCellStyleMap
 90
        3
300
CELLSTYLE
  1
TABLEFORMAT_BEGIN
 90
        5
170
     1
 91
        0
 92
    32768
 62
   257
 93
        1
300
CONTENTFORMAT
  1
CONTENTFORMAT_BEGIN
 90
        0
 91
        0
 92
        4
 93
        0
300

 40
0.0
140
1.0
 94
        5
 62
     0
340
11
144
0.25
309
CONTENTFORMAT_END
171
     1
301
MARGIN
  1
CELLMARGIN_BEGIN
 40
0.06
 40
0.06
 40
0.06
 40
0.06
 40
0.18
 40
0.18
309
CELLMARGIN_END
 94
        6
 95
        1
302
GRIDFORMAT
  1
GRIDFORMAT_BEGIN
 90
        0
 91
        1
 62
     0
 92
       -2
340
14
 93
        0
 40
0.045
309
GRIDFORMAT_END
 95
        2
302
GRIDFORMAT
  1
GRIDFORMAT_BEGIN
 90
        0
 91
        1
 62
     0
 92
       -2
340
14
 93
        0
 40
0.045
309
GRIDFORMAT_END
 95
        4
302
GRIDFORMAT
  1
GRIDFORMAT_BEGIN
 90
        0
 91
        1
 62
     0
 92
       -2
340
14
 93
        0
 40
0.045
309
GRIDFORMAT_END
 95
        8
302
GRIDFORMAT
  1
GRIDFORMAT_BEGIN
 90
        0
 91
        1
 62
     0
 92
       -2
340
14
 93
        0
 40
0.045
309
GRIDFORMAT_END
 95
       16
302
GRIDFORMAT
  1
GRIDFORMAT_BEGIN
 90
        0
 91
        1
 62
     0
 92
       -2
340
14
 93
        0
 40
0.045
309
GRIDFORMAT_END
 95
       32
302
GRIDFORMAT
  1
GRIDFORMAT_BEGIN
 90
        0
 91
        1
 62
     0
 92
       -2
340
14
 93
        0
 40
0.045
309
GRIDFORMAT_END
309
TABLEFORMAT_END
  1
CELLSTYLE_BEGIN
 90
        1
 91
        1
300
_TITLE
309
CELLSTYLE_END
300
CELLSTYLE
  1
TABLEFORMAT_BEGIN
 90
        5
170
     1
 91
        0
 92
        0
 62
   257
 93
        1
300
CONTENTFORMAT
  1
CONTENTFORMAT_BEGIN
 90
        0
 91
        0
 92
        4
 93
        0
300

 40
0.0
140
1.0
 94
        5
 62
     0
340
11
144
0.18
309
CONTENTFORMAT_END
171
     1
301
MARGIN
  1
CELLMARGIN_BEGIN
 40
0.06
 40
0.06
 40
0.06
 40
0.06
 40
0.18
 40
0.18
309
CELLMARGIN_END
 94
        6
 95
        1
302
GRIDFORMAT
  1
GRIDFORMAT_BEGIN
 90
        0
 91
        1
 62
     0
 92
       -2
340
14
 93
        0
 40
0.045
309
GRIDFORMAT_END
 95
        2
302
GRIDFORMAT
  1
GRIDFORMAT_BEGIN
 90
        0
 91
        1
 62
     0
 92
       -2
340
14
 93
        0
 40
0.045
309
GRIDFORMAT_END
 95
        4
302
GRIDFORMAT
  1
GRIDFORMAT_BEGIN
 90
        0
 91
        1
 62
     0
 92
       -2
340
14
 93
        0
 40
0.045
309
GRIDFORMAT_END
 95
        8
302
GRIDFORMAT
  1
GRIDFORMAT_BEGIN
 90
        0
 91
        1
 62
     0
 92
       -2
340
14
 93
        0
 40
0.045
309
GRIDFORMAT_END
 95
       16
302
GRIDFORMAT
  1
GRIDFORMAT_BEGIN
 90
        0
 91
        1
 62
     0
 92
       -2
340
14
 93
        0
 40
0.045
309
GRIDFORMAT_END
 95
       32
302
GRIDFORMAT
  1
GRIDFORMAT_BEGIN
 90
        0
 91
        1
 62
     0
 92
       -2
340
14
 93
        0
 40
0.045
309
GRIDFORMAT_END
309
TABLEFORMAT_END
  1
CELLSTYLE_BEGIN
 90
        2
 91
        1
300
_HEADER
309
CELLSTYLE_END
300
CELLSTYLE
  1
TABLEFORMAT_BEGIN
 90
        5
170
     1
 91
        0
 92
        0
 62
   257
 93
        1
300
CONTENTFORMAT
  1
CONTENTFORMAT_BEGIN
 90
        0
 91
        0
 92
        4
 93
        0
300

 40
0.0
140
1.0
 94
        2
 62
     0
340
11
144
0.18
309
CONTENTFORMAT_END
171
     1
301
MARGIN
  1
CELLMARGIN_BEGIN
 40
0.06
 40
0.06
 40
0.06
 40
0.06
 40
0.18
 40
0.18
309
CELLMARGIN_END
 94
        6
 95
        1
302
GRIDFORMAT
  1
GRIDFORMAT_BEGIN
 90
        0
 91
        1
 62
     0
 92
       -2
340
14
 93
        0
 40
0.045
309
GRIDFORMAT_END
 95
        2
302
GRIDFORMAT
  1
GRIDFORMAT_BEGIN
 90
        0
 91
        1
 62
     0
 92
       -2
340
14
 93
        0
 40
0.045
309
GRIDFORMAT_END
 95
        4
302
GRIDFORMAT
  1
GRIDFORMAT_BEGIN
 90
        0
 91
        1
 62
     0
 92
       -2
340
14
 93
        0
 40
0.045
309
GRIDFORMAT_END
 95
        8
302
GRIDFORMAT
  1
GRIDFORMAT_BEGIN
 90
        0
 91
        1
 62
     0
 92
       -2
340
14
 93
        0
 40
0.045
309
GRIDFORMAT_END
 95
       16
302
GRIDFORMAT
  1
GRIDFORMAT_BEGIN
 90
        0
 91
        1
 62
     0
 92
       -2
340
14
 93
        0
 40
0.045
309
GRIDFORMAT_END
 95
       32
302
GRIDFORMAT
  1
GRIDFORMAT_BEGIN
 90
        0
 91
        1
 62
     0
 92
       -2
340
14
 93
        0
 40
0.045
309
GRIDFORMAT_END
309
TABLEFORMAT_END
  1
CELLSTYLE_BEGIN
 90
        3
 91
        2
300
_DATA
309
CELLSTYLE_END
  0
XRECORD
  5
3A1
102
{ACAD_REACTORS
330
2F7
102
}
330
2F7
100
AcDbXrecord
280
     1
102
ACAD_ROUNDTRIP_PRE2007_TABLESTYLE
 90
        4
 91
        0
  1

 92
        4
 93
        0
  2

 94
        4
 95
        0
  3

  0
XRECORD
  5
37A
102
{ACAD_REACTORS
330
379
102
}
330
379
100
AcDbXrecord
280
     1
102
RTVSPost2010Prop28
280
     1
102
RTVSPost2010PropOp28
 70
     1
102
RTVSPost2010Prop29
280
     1
102
RTVSPost2010PropOp29
 70
     1
102
RTVSPost2010Prop30
280
     0
102
RTVSPost2010PropOp30
 70
     1
102
RTVSPost2010Prop31
280
     0
102
RTVSPost2010PropOp31
 70
     1
102
RTVSPost2010Prop32
280
     0
102
RTVSPost2010PropOp32
 70
     1
102
RTVSPost2010Prop33
280
     0
102
RTVSPost2010PropOp33
 70
     1
102
RTVSPost2010Prop34
280
     0
102
RTVSPost2010PropOp34
 70
     1
102
RTVSPost2010Prop35
280
     0
102
RTVSPost2010PropOp35
 70
     1
102
RTVSPost2010Prop36
280
     0
102
RTVSPost2010PropOp36
 70
     1
102
RTVSPost2010Prop37
 90
       50
102
RTVSPost2010PropOp37
 70
     1
102
RTVSPost2010Prop38
140
0.0
102
RTVSPost2010PropOp38
 70
     1
102
RTVSPost2010Prop39
140
1.0
102
RTVSPost2010PropOp39
 70
     1
102
RTVSPost2010Prop40
 90
        0
102
RTVSPost2010PropOp40
 70
     1
102
RTVSPost2010Prop41ColorIndex
 90
       18
102
RTVSPost2010Prop41ColorRGB
 90
        0
102
RTVSPost2010PropOp41
 70
     1
102
RTVSPost2010Prop42
 90
       50
102
RTVSPost2010PropOp42
 70
     1
102
RTVSPost2010Prop43
 90
        3
102
RTVSPost2010PropOp43
 70
     1
102
RTVSPost2010Prop44ColorIndex
 90
        5
102
RTVSPost2010Prop44ColorRGB
 90
      255
102
RTVSPost2010PropOp44
 70
     1
102
RTVSPost2010Prop45
280
     0
102
RTVSPost2010PropOp45
 70
     1
102
RTVSPost2010Prop46
 90
       50
102
RTVSPost2010PropOp46
 70
     1
102
RTVSPost2010Prop47
 90
       50
102
RTVSPost2010PropOp47
 70
     1
102
RTVSPost2010Prop48
 90
       50
102
RTVSPost2010PropOp48
 70
     1
102
RTVSPost2010Prop49
280
     0
102
RTVSPost2010PropOp49
 70
     1
102
RTVSPost2010Prop50
 90
       50
102
RTVSPost2010PropOp50
 70
     1
102
RTVSPost2010Prop51ColorIndex
 90
      256
102
RTVSPost2010Prop51ColorRGB
 90
-16777216
102
RTVSPost2010PropOp51
 70
     0
102
RTVSPost2010Prop52
140
1.0
102
RTVSPost2010PropOp52
 70
     0
102
RTVSPost2010Prop53
 90
        2
102
RTVSPost2010PropOp53
 70
     1
102
RTVSPost2010Prop54
  1
strokes_ogs.tif
102
RTVSPost2010PropOp54
 70
     1
102
RTVSPost2010Prop55
280
     0
102
RTVSPost2010PropOp55
 70
     1
102
RTVSPost2010Prop56
140
1.0
102
RTVSPost2010PropOp56
 70
     1
102
RTVSPost2010Prop57
140
1.0
102
RTVSPost2010PropOp57
 70
     1
102
RTVSPropertyOp0
 70
     1
102
RTVSPropertyOp1
 70
     1
102
RTVSPropertyOp2
 70
     1
102
RTVSPropertyOp3
 70
     1
102
RTVSPropertyOp4
 70
     1
102
RTVSPropertyOp5
 70
     1
102
RTVSPropertyOp6
 70
     1
102
RTVSPropertyOp7
 70
     1
102
RTVSPropertyOp8
 70
     1
102
RTVSPropertyOp9
 70
     1
102
RTVSPropertyOp10
 70
     1
102
RTVSPropertyOp11
 70
     1
102
RTVSPropertyOp12
 70
     1
102
RTVSPropertyOp13
 70
     1
102
RTVSPropertyOp14
 70
     1
102
RTVSPropertyOp15
 70
     1
102
RTVSPropertyOp16
 70
     1
102
RTVSPropertyOp17
 70
     1
102
RTVSPropertyOp18
 70
     1
102
RTVSPropertyOp19
 70
     1
102
RTVSPropertyOp20
 70
     1
102
RTVSPropertyOp21
 70
     1
102
RTVSPropertyOp22
 70
     1
102
RTVSPropertyOp23
 70
     1
102
RTVSPropertyOp24
 70
     1
102
RTVSPropertyOp25
 70
     1
102
RTVSPropertyOp26
 70
     1
102
RTVSPropertyOp27
 70
     1
102
RTVSPropertyOp28
 70
     1
102
RTVSPropertyOp29
 70
     1
102
RTVSPropertyOp30
 70
     1
102
RTVSPropertyOp31
 70
     1
102
RTVSPropertyOp32
 70
     1
102
RTVSPropertyOp33
 70
     1
102
RTVSPropertyOp34
 70
     1
102
RTVSPropertyOp35
 70
     1
102
RTVSPropertyOp36
 70
     1
102
RTVSPropertyOp37
 70
     1
102
RTVSPropertyOp38
 70
     1
102
RTVSPropertyOp39
 70
     1
102
RTVSPropertyOp40
 70
     1
102
RTVSPropertyOp41
 70
     1
102
RTVSPropertyOp42
 70
     1
102
RTVSPropertyOp43
 70
     1
102
RTVSPropertyOp44
 70
     1
102
RTVSPropertyOp45
 70
     1
102
RTVSPropertyOp46
 70
     1
102
RTVSPropertyOp47
 70
     1
102
RTVSPropertyOp48
 70
     1
102
RTVSPropertyOp49
 70
     1
102
RTVSPropertyOp50
 70
     1
102
RTVSPropertyOp51
 70
     0
102
RTVSPropertyOp52
 70
     0
102
RTVSPropertyOp53
 70
     1
102
RTVSPropertyOp54
 70
     1
102
RTVSPropertyOp55
 70
     1
102
RTVSPropertyOp56
 70
     1
102
RTVSPropertyOp57
 70
     1
102
RTVSPropertyOp58
 70
     1
102
RTVSPropertyOp59
 70
     1
102
RTVSPropertyOp60
 70
     1
102
RTVSPropertyOp61
 70
     1
102
RTVSPropertyOp62
 70
     1
  0
XRECORD
  5
380
102
{ACAD_REACTORS
330
37F
102
}
330
37F
100
AcDbXrecord
280
     1
102
RTVSPost2010Prop28
280
     0
102
RTVSPost2010PropOp28
 70
     1
102
RTVSPost2010Prop29
280
     1
102
RTVSPost2010PropOp29
 70
     1
102
RTVSPost2010Prop30
280
     1
102
RTVSPost2010PropOp30
 70
     1
102
RTVSPost2010Prop31
280
     0
102
RTVSPost2010PropOp31
 70
     1
102
RTVSPost2010Prop32
280
     0
102
RTVSPost2010PropOp32
 70
     1
102
RTVSPost2010Prop33
280
     0
102
RTVSPost2010PropOp33
 70
     1
102
RTVSPost2010Prop34
280
     0
102
RTVSPost2010PropOp34
 70
     1
102
RTVSPost2010Prop35
280
     0
102
RTVSPost2010PropOp35
 70
     1
102
RTVSPost2010Prop36
280
     0
102
RTVSPost2010PropOp36
 70
     1
102
RTVSPost2010Prop37
 90
       50
102
RTVSPost2010PropOp37
 70
     1
102
RTVSPost2010Prop38
140
0.0
102
RTVSPost2010PropOp38
 70
     1
102
RTVSPost2010Prop39
140
1.0
102
RTVSPost2010PropOp39
 70
     1
102
RTVSPost2010Prop40
 90
        0
102
RTVSPost2010PropOp40
 70
     1
102
RTVSPost2010Prop41ColorIndex
 90
       18
102
RTVSPost2010Prop41ColorRGB
 90
        0
102
RTVSPost2010PropOp41
 70
     1
102
RTVSPost2010Prop42
 90
       50
102
RTVSPost2010PropOp42
 70
     1
102
RTVSPost2010Prop43
 90
        3
102
RTVSPost2010PropOp43
 70
     1
102
RTVSPost2010Prop44ColorIndex
 90
        5
102
RTVSPost2010Prop44ColorRGB
 90
      255
102
RTVSPost2010PropOp44
 70
     1
102
RTVSPost2010Prop45
280
     0
102
RTVSPost2010PropOp45
 70
     1
102
RTVSPost2010Prop46
 90
       50
102
RTVSPost2010PropOp46
 70
     1
102
RTVSPost2010Prop47
 90
       50
102
RTVSPost2010PropOp47
 70
     1
102
RTVSPost2010Prop48
 90
       50
102
RTVSPost2010PropOp48
 70
     1
102
RTVSPost2010Prop49
280
     0
102
RTVSPost2010PropOp49
 70
     1
102
RTVSPost2010Prop50
 90
       50
102
RTVSPost2010PropOp50
 70
     1
102
RTVSPost2010Prop51ColorIndex
 90
      256
102
RTVSPost2010Prop51ColorRGB
 90
-16777216
102
RTVSPost2010PropOp51
 70
     0
102
RTVSPost2010Prop52
140
1.0
102
RTVSPost2010PropOp52
 70
     0
102
RTVSPost2010Prop53
 90
        2
102
RTVSPost2010PropOp53
 70
     1
102
RTVSPost2010Prop54
  1
strokes_ogs.tif
102
RTVSPost2010PropOp54
 70
     1
102
RTVSPost2010Prop55
280
     0
102
RTVSPost2010PropOp55
 70
     1
102
RTVSPost2010Prop56
140
1.0
102
RTVSPost2010PropOp56
 70
     1
102
RTVSPost2010Prop57
140
1.0
102
RTVSPost2010PropOp57
 70
     1
102
RTVSPropertyOp0
 70
     1
102
RTVSPropertyOp1
 70
     1
102
RTVSPropertyOp2
 70
     1
102
RTVSPropertyOp3
 70
     1
102
RTVSPropertyOp4
 70
     1
102
RTVSPropertyOp5
 70
     1
102
RTVSPropertyOp6
 70
     1
102
RTVSPropertyOp7
 70
     1
102
RTVSPropertyOp8
 70
     1
102
RTVSPropertyOp9
 70
     1
102
RTVSPropertyOp10
 70
     1
102
RTVSPropertyOp11
 70
     1
102
RTVSPropertyOp12
 70
     1
102
RTVSPropertyOp13
 70
     1
102
RTVSPropertyOp14
 70
     1
102
RTVSPropertyOp15
 70
     1
102
RTVSPropertyOp16
 70
     1
102
RTVSPropertyOp17
 70
     1
102
RTVSPropertyOp18
 70
     1
102
RTVSPropertyOp19
 70
     1
102
RTVSPropertyOp20
 70
     1
102
RTVSPropertyOp21
 70
     1
102
RTVSPropertyOp22
 70
     1
102
RTVSPropertyOp23
 70
     1
102
RTVSPropertyOp24
 70
     1
102
RTVSPropertyOp25
 70
     1
102
RTVSPropertyOp26
 70
     1
102
RTVSPropertyOp27
 70
     1
102
RTVSPropertyOp28
 70
     1
102
RTVSPropertyOp29
 70
     1
102
RTVSPropertyOp30
 70
     1
102
RTVSPropertyOp31
 70
     1
102
RTVSPropertyOp32
 70
     1
102
RTVSPropertyOp33
 70
     1
102
RTVSPropertyOp34
 70
     1
102
RTVSPropertyOp35
 70
     1
102
RTVSPropertyOp36
 70
     1
102
RTVSPropertyOp37
 70
     1
102
RTVSPropertyOp38
 70
     1
102
RTVSPropertyOp39
 70
     1
102
RTVSPropertyOp40
 70
     1
102
RTVSPropertyOp41
 70
     1
102
RTVSPropertyOp42
 70
     1
102
RTVSPropertyOp43
 70
     1
102
RTVSPropertyOp44
 70
     1
102
RTVSPropertyOp45
 70
     1
102
RTVSPropertyOp46
 70
     1
102
RTVSPropertyOp47
 70
     1
102
RTVSPropertyOp48
 70
     1
102
RTVSPropertyOp49
 70
     1
102
RTVSPropertyOp50
 70
     1
102
RTVSPropertyOp51
 70
     0
102
RTVSPropertyOp52
 70
     0
102
RTVSPropertyOp53
 70
     1
102
RTVSPropertyOp54
 70
     1
102
RTVSPropertyOp55
 70
     1
102
RTVSPropertyOp56
 70
     1
102
RTVSPropertyOp57
 70
     1
102
RTVSPropertyOp58
 70
     1
102
RTVSPropertyOp59
 70
     1
102
RTVSPropertyOp60
 70
     1
102
RTVSPropertyOp61
 70
     1
102
RTVSPropertyOp62
 70
     1
  0
XRECORD
  5
388
102
{ACAD_REACTORS
330
387
102
}
330
387
100
AcDbXrecord
280
     1
102
RTVSPost2010Prop28
280
     0
102
RTVSPost2010PropOp28
 70
     1
102
RTVSPost2010Prop29
280
     1
102
RTVSPost2010PropOp29
 70
     1
102
RTVSPost2010Prop30
280
     1
102
RTVSPost2010PropOp30
 70
     1
102
RTVSPost2010Prop31
280
     0
102
RTVSPost2010PropOp31
 70
     1
102
RTVSPost2010Prop32
280
     0
102
RTVSPost2010PropOp32
 70
     1
102
RTVSPost2010Prop33
280
     0
102
RTVSPost2010PropOp33
 70
     1
102
RTVSPost2010Prop34
280
     0
102
RTVSPost2010PropOp34
 70
     1
102
RTVSPost2010Prop35
280
     0
102
RTVSPost2010PropOp35
 70
     1
102
RTVSPost2010Prop36
280
     0
102
RTVSPost2010PropOp36
 70
     1
102
RTVSPost2010Prop37
 90
       50
102
RTVSPost2010PropOp37
 70
     1
102
RTVSPost2010Prop38
140
0.0
102
RTVSPost2010PropOp38
 70
     1
102
RTVSPost2010Prop39
140
1.0
102
RTVSPost2010PropOp39
 70
     1
102
RTVSPost2010Prop40
 90
        0
102
RTVSPost2010PropOp40
 70
     1
102
RTVSPost2010Prop41ColorIndex
 90
       18
102
RTVSPost2010Prop41ColorRGB
 90
        0
102
RTVSPost2010PropOp41
 70
     1
102
RTVSPost2010Prop42
 90
       50
102
RTVSPost2010PropOp42
 70
     1
102
RTVSPost2010Prop43
 90
        3
102
RTVSPost2010PropOp43
 70
     1
102
RTVSPost2010Prop44ColorIndex
 90
        5
102
RTVSPost2010Prop44ColorRGB
 90
      255
102
RTVSPost2010PropOp44
 70
     1
102
RTVSPost2010Prop45
280
     0
102
RTVSPost2010PropOp45
 70
     1
102
RTVSPost2010Prop46
 90
       50
102
RTVSPost2010PropOp46
 70
     1
102
RTVSPost2010Prop47
 90
       50
102
RTVSPost2010PropOp47
 70
     1
102
RTVSPost2010Prop48
 90
       50
102
RTVSPost2010PropOp48
 70
     1
102
RTVSPost2010Prop49
280
     0
102
RTVSPost2010PropOp49
 70
     1
102
RTVSPost2010Prop50
 90
       50
102
RTVSPost2010PropOp50
 70
     1
102
RTVSPost2010Prop51ColorIndex
 90
      256
102
RTVSPost2010Prop51ColorRGB
 90
-16777216
102
RTVSPost2010PropOp51
 70
     0
102
RTVSPost2010Prop52
140
1.0
102
RTVSPost2010PropOp52
 70
     0
102
RTVSPost2010Prop53
 90
        2
102
RTVSPost2010PropOp53
 70
     1
102
RTVSPost2010Prop54
  1
strokes_ogs.tif
102
RTVSPost2010PropOp54
 70
     1
102
RTVSPost2010Prop55
280
     0
102
RTVSPost2010PropOp55
 70
     1
102
RTVSPost2010Prop56
140
1.0
102
RTVSPost2010PropOp56
 70
     1
102
RTVSPost2010Prop57
140
1.0
102
RTVSPost2010PropOp57
 70
     1
102
RTVSPropertyOp0
 70
     1
102
RTVSPropertyOp1
 70
     1
102
RTVSPropertyOp2
 70
     1
102
RTVSPropertyOp3
 70
     1
102
RTVSPropertyOp4
 70
     1
102
RTVSPropertyOp5
 70
     1
102
RTVSPropertyOp6
 70
     1
102
RTVSPropertyOp7
 70
     1
102
RTVSPropertyOp8
 70
     1
102
RTVSPropertyOp9
 70
     1
102
RTVSPropertyOp10
 70
     1
102
RTVSPropertyOp11
 70
     1
102
RTVSPropertyOp12
 70
     1
102
RTVSPropertyOp13
 70
     1
102
RTVSPropertyOp14
 70
     1
102
RTVSPropertyOp15
 70
     1
102
RTVSPropertyOp16
 70
     1
102
RTVSPropertyOp17
 70
     1
102
RTVSPropertyOp18
 70
     1
102
RTVSPropertyOp19
 70
     1
102
RTVSPropertyOp20
 70
     1
102
RTVSPropertyOp21
 70
     1
102
RTVSPropertyOp22
 70
     1
102
RTVSPropertyOp23
 70
     1
102
RTVSPropertyOp24
 70
     1
102
RTVSPropertyOp25
 70
     1
102
RTVSPropertyOp26
 70
     1
102
RTVSPropertyOp27
 70
     1
102
RTVSPropertyOp28
 70
     1
102
RTVSPropertyOp29
 70
     1
102
RTVSPropertyOp30
 70
     1
102
RTVSPropertyOp31
 70
     1
102
RTVSPropertyOp32
 70
     1
102
RTVSPropertyOp33
 70
     1
102
RTVSPropertyOp34
 70
     1
102
RTVSPropertyOp35
 70
     1
102
RTVSPropertyOp36
 70
     1
102
RTVSPropertyOp37
 70
     1
102
RTVSPropertyOp38
 70
     1
102
RTVSPropertyOp39
 70
     1
102
RTVSPropertyOp40
 70
     1
102
RTVSPropertyOp41
 70
     1
102
RTVSPropertyOp42
 70
     1
102
RTVSPropertyOp43
 70
     1
102
RTVSPropertyOp44
 70
     1
102
RTVSPropertyOp45
 70
     1
102
RTVSPropertyOp46
 70
     1
102
RTVSPropertyOp47
 70
     1
102
RTVSPropertyOp48
 70
     1
102
RTVSPropertyOp49
 70
     1
102
RTVSPropertyOp50
 70
     1
102
RTVSPropertyOp51
 70
     0
102
RTVSPropertyOp52
 70
     0
102
RTVSPropertyOp53
 70
     1
102
RTVSPropertyOp54
 70
     1
102
RTVSPropertyOp55
 70
     1
102
RTVSPropertyOp56
 70
     1
102
RTVSPropertyOp57
 70
     1
102
RTVSPropertyOp58
 70
     1
102
RTVSPropertyOp59
 70
     1
102
RTVSPropertyOp60
 70
     1
102
RTVSPropertyOp61
 70
     1
102
RTVSPropertyOp62
 70
     1
  0
XRECORD
  5
390
102
{ACAD_REACTORS
330
38F
102
}
330
38F
100
AcDbXrecord
280
     1
102
RTVSPost2010Prop28
280
     0
102
RTVSPost2010PropOp28
 70
     1
102
RTVSPost2010Prop29
280
     1
102
RTVSPost2010PropOp29
 70
     1
102
RTVSPost2010Prop30
280
     1
102
RTVSPost2010PropOp30
 70
     1
102
RTVSPost2010Prop31
280
     0
102
RTVSPost2010PropOp31
 70
     1
102
RTVSPost2010Prop32
280
     0
102
RTVSPost2010PropOp32
 70
     1
102
RTVSPost2010Prop33
280
     0
102
RTVSPost2010PropOp33
 70
     1
102
RTVSPost2010Prop34
280
     0
102
RTVSPost2010PropOp34
 70
     1
102
RTVSPost2010Prop35
280
     0
102
RTVSPost2010PropOp35
 70
     1
102
RTVSPost2010Prop36
280
     0
102
RTVSPost2010PropOp36
 70
     1
102
RTVSPost2010Prop37
 90
       50
102
RTVSPost2010PropOp37
 70
     1
102
RTVSPost2010Prop38
140
0.0
102
RTVSPost2010PropOp38
 70
     1
102
RTVSPost2010Prop39
140
1.0
102
RTVSPost2010PropOp39
 70
     1
102
RTVSPost2010Prop40
 90
        0
102
RTVSPost2010PropOp40
 70
     1
102
RTVSPost2010Prop41ColorIndex
 90
       18
102
RTVSPost2010Prop41ColorRGB
 90
        0
102
RTVSPost2010PropOp41
 70
     1
102
RTVSPost2010Prop42
 90
       50
102
RTVSPost2010PropOp42
 70
     1
102
RTVSPost2010Prop43
 90
        3
102
RTVSPost2010PropOp43
 70
     1
102
RTVSPost2010Prop44ColorIndex
 90
        5
102
RTVSPost2010Prop44ColorRGB
 90
      255
102
RTVSPost2010PropOp44
 70
     1
102
RTVSPost2010Prop45
280
     0
102
RTVSPost2010PropOp45
 70
     1
102
RTVSPost2010Prop46
 90
       50
102
RTVSPost2010PropOp46
 70
     1
102
RTVSPost2010Prop47
 90
       50
102
RTVSPost2010PropOp47
 70
     1
102
RTVSPost2010Prop48
 90
       50
102
RTVSPost2010PropOp48
 70
     1
102
RTVSPost2010Prop49
280
     0
102
RTVSPost2010PropOp49
 70
     1
102
RTVSPost2010Prop50
 90
       50
102
RTVSPost2010PropOp50
 70
     1
102
RTVSPost2010Prop51ColorIndex
 90
      256
102
RTVSPost2010Prop51ColorRGB
 90
-16777216
102
RTVSPost2010PropOp51
 70
     0
102
RTVSPost2010Prop52
140
1.0
102
RTVSPost2010PropOp52
 70
     0
102
RTVSPost2010Prop53
 90
        2
102
RTVSPost2010PropOp53
 70
     1
102
RTVSPost2010Prop54
  1
strokes_ogs.tif
102
RTVSPost2010PropOp54
 70
     1
102
RTVSPost2010Prop55
280
     0
102
RTVSPost2010PropOp55
 70
     1
102
RTVSPost2010Prop56
140
1.0
102
RTVSPost2010PropOp56
 70
     1
102
RTVSPost2010Prop57
140
1.0
102
RTVSPost2010PropOp57
 70
     1
102
RTVSPropertyOp0
 70
     1
102
RTVSPropertyOp1
 70
     1
102
RTVSPropertyOp2
 70
     1
102
RTVSPropertyOp3
 70
     1
102
RTVSPropertyOp4
 70
     1
102
RTVSPropertyOp5
 70
     1
102
RTVSPropertyOp6
 70
     1
102
RTVSPropertyOp7
 70
     1
102
RTVSPropertyOp8
 70
     1
102
RTVSPropertyOp9
 70
     1
102
RTVSPropertyOp10
 70
     1
102
RTVSPropertyOp11
 70
     1
102
RTVSPropertyOp12
 70
     1
102
RTVSPropertyOp13
 70
     1
102
RTVSPropertyOp14
 70
     1
102
RTVSPropertyOp15
 70
     1
102
RTVSPropertyOp16
 70
     1
102
RTVSPropertyOp17
 70
     1
102
RTVSPropertyOp18
 70
     1
102
RTVSPropertyOp19
 70
     1
102
RTVSPropertyOp20
 70
     1
102
RTVSPropertyOp21
 70
     1
102
RTVSPropertyOp22
 70
     1
102
RTVSPropertyOp23
 70
     1
102
RTVSPropertyOp24
 70
     1
102
RTVSPropertyOp25
 70
     1
102
RTVSPropertyOp26
 70
     1
102
RTVSPropertyOp27
 70
     1
102
RTVSPropertyOp28
 70
     1
102
RTVSPropertyOp29
 70
     1
102
RTVSPropertyOp30
 70
     1
102
RTVSPropertyOp31
 70
     1
102
RTVSPropertyOp32
 70
     1
102
RTVSPropertyOp33
 70
     1
102
RTVSPropertyOp34
 70
     1
102
RTVSPropertyOp35
 70
     1
102
RTVSPropertyOp36
 70
     1
102
RTVSPropertyOp37
 70
     1
102
RTVSPropertyOp38
 70
     1
102
RTVSPropertyOp39
 70
     1
102
RTVSPropertyOp40
 70
     1
102
RTVSPropertyOp41
 70
     1
102
RTVSPropertyOp42
 70
     1
102
RTVSPropertyOp43
 70
     1
102
RTVSPropertyOp44
 70
     1
102
RTVSPropertyOp45
 70
     1
102
RTVSPropertyOp46
 70
     1
102
RTVSPropertyOp47
 70
     1
102
RTVSPropertyOp48
 70
     1
102
RTVSPropertyOp49
 70
     1
102
RTVSPropertyOp50
 70
     1
102
RTVSPropertyOp51
 70
     0
102
RTVSPropertyOp52
 70
     0
102
RTVSPropertyOp53
 70
     1
102
RTVSPropertyOp54
 70
     1
102
RTVSPropertyOp55
 70
     1
102
RTVSPropertyOp56
 70
     1
102
RTVSPropertyOp57
 70
     1
102
RTVSPropertyOp58
 70
     1
102
RTVSPropertyOp59
 70
     1
102
RTVSPropertyOp60
 70
     1
102
RTVSPropertyOp61
 70
     1
102
RTVSPropertyOp62
 70
     1
  0
XRECORD
  5
384
102
{ACAD_REACTORS
330
383
102
}
330
383
100
AcDbXrecord
280
     1
102
RTVSPost2010Prop28
280
     0
102
RTVSPost2010PropOp28
 70
     1
102
RTVSPost2010Prop29
280
     1
102
RTVSPost2010PropOp29
 70
     1
102
RTVSPost2010Prop30
280
     1
102
RTVSPost2010PropOp30
 70
     1
102
RTVSPost2010Prop31
280
     0
102
RTVSPost2010PropOp31
 70
     1
102
RTVSPost2010Prop32
280
     0
102
RTVSPost2010PropOp32
 70
     1
102
RTVSPost2010Prop33
280
     0
102
RTVSPost2010PropOp33
 70
     1
102
RTVSPost2010Prop34
280
     0
102
RTVSPost2010PropOp34
 70
     1
102
RTVSPost2010Prop35
280
     0
102
RTVSPost2010PropOp35
 70
     1
102
RTVSPost2010Prop36
280
     0
102
RTVSPost2010PropOp36
 70
     1
102
RTVSPost2010Prop37
 90
       50
102
RTVSPost2010PropOp37
 70
     1
102
RTVSPost2010Prop38
140
0.0
102
RTVSPost2010PropOp38
 70
     1
102
RTVSPost2010Prop39
140
1.0
102
RTVSPost2010PropOp39
 70
     1
102
RTVSPost2010Prop40
 90
        0
102
RTVSPost2010PropOp40
 70
     1
102
RTVSPost2010Prop41ColorIndex
 90
       18
102
RTVSPost2010Prop41ColorRGB
 90
        0
102
RTVSPost2010PropOp41
 70
     1
102
RTVSPost2010Prop42
 90
       50
102
RTVSPost2010PropOp42
 70
     1
102
RTVSPost2010Prop43
 90
        3
102
RTVSPost2010PropOp43
 70
     1
102
RTVSPost2010Prop44ColorIndex
 90
        5
102
RTVSPost2010Prop44ColorRGB
 90
      255
102
RTVSPost2010PropOp44
 70
     1
102
RTVSPost2010Prop45
280
     0
102
RTVSPost2010PropOp45
 70
     1
102
RTVSPost2010Prop46
 90
       50
102
RTVSPost2010PropOp46
 70
     1
102
RTVSPost2010Prop47
 90
       50
102
RTVSPost2010PropOp47
 70
     1
102
RTVSPost2010Prop48
 90
       50
102
RTVSPost2010PropOp48
 70
     1
102
RTVSPost2010Prop49
280
     0
102
RTVSPost2010PropOp49
 70
     1
102
RTVSPost2010Prop50
 90
       50
102
RTVSPost2010PropOp50
 70
     1
102
RTVSPost2010Prop51ColorIndex
 90
      256
102
RTVSPost2010Prop51ColorRGB
 90
-16777216
102
RTVSPost2010PropOp51
 70
     0
102
RTVSPost2010Prop52
140
1.0
102
RTVSPost2010PropOp52
 70
     0
102
RTVSPost2010Prop53
 90
        2
102
RTVSPost2010PropOp53
 70
     1
102
RTVSPost2010Prop54
  1
strokes_ogs.tif
102
RTVSPost2010PropOp54
 70
     1
102
RTVSPost2010Prop55
280
     0
102
RTVSPost2010PropOp55
 70
     1
102
RTVSPost2010Prop56
140
1.0
102
RTVSPost2010PropOp56
 70
     1
102
RTVSPost2010Prop57
140
1.0
102
RTVSPost2010PropOp57
 70
     1
102
RTVSPropertyOp0
 70
     1
102
RTVSPropertyOp1
 70
     1
102
RTVSPropertyOp2
 70
     1
102
RTVSPropertyOp3
 70
     1
102
RTVSPropertyOp4
 70
     1
102
RTVSPropertyOp5
 70
     1
102
RTVSPropertyOp6
 70
     1
102
RTVSPropertyOp7
 70
     1
102
RTVSPropertyOp8
 70
     1
102
RTVSPropertyOp9
 70
     1
102
RTVSPropertyOp10
 70
     1
102
RTVSPropertyOp11
 70
     1
102
RTVSPropertyOp12
 70
     1
102
RTVSPropertyOp13
 70
     1
102
RTVSPropertyOp14
 70
     1
102
RTVSPropertyOp15
 70
     1
102
RTVSPropertyOp16
 70
     1
102
RTVSPropertyOp17
 70
     1
102
RTVSPropertyOp18
 70
     1
102
RTVSPropertyOp19
 70
     1
102
RTVSPropertyOp20
 70
     1
102
RTVSPropertyOp21
 70
     1
102
RTVSPropertyOp22
 70
     1
102
RTVSPropertyOp23
 70
     1
102
RTVSPropertyOp24
 70
     1
102
RTVSPropertyOp25
 70
     1
102
RTVSPropertyOp26
 70
     1
102
RTVSPropertyOp27
 70
     1
102
RTVSPropertyOp28
 70
     1
102
RTVSPropertyOp29
 70
     1
102
RTVSPropertyOp30
 70
     1
102
RTVSPropertyOp31
 70
     1
102
RTVSPropertyOp32
 70
     1
102
RTVSPropertyOp33
 70
     1
102
RTVSPropertyOp34
 70
     1
102
RTVSPropertyOp35
 70
     1
102
RTVSPropertyOp36
 70
     1
102
RTVSPropertyOp37
 70
     1
102
RTVSPropertyOp38
 70
     1
102
RTVSPropertyOp39
 70
     1
102
RTVSPropertyOp40
 70
     1
102
RTVSPropertyOp41
 70
     1
102
RTVSPropertyOp42
 70
     1
102
RTVSPropertyOp43
 70
     1
102
RTVSPropertyOp44
 70
     1
102
RTVSPropertyOp45
 70
     1
102
RTVSPropertyOp46
 70
     1
102
RTVSPropertyOp47
 70
     1
102
RTVSPropertyOp48
 70
     1
102
RTVSPropertyOp49
 70
     1
102
RTVSPropertyOp50
 70
     1
102
RTVSPropertyOp51
 70
     0
102
RTVSPropertyOp52
 70
     0
102
RTVSPropertyOp53
 70
     1
102
RTVSPropertyOp54
 70
     1
102
RTVSPropertyOp55
 70
     1
102
RTVSPropertyOp56
 70
     1
102
RTVSPropertyOp57
 70
     1
102
RTVSPropertyOp58
 70
     1
102
RTVSPropertyOp59
 70
     1
102
RTVSPropertyOp60
 70
     1
102
RTVSPropertyOp61
 70
     1
102
RTVSPropertyOp62
 70
     1
  0
XRECORD
  5
386
102
{ACAD_REACTORS
330
385
102
}
330
385
100
AcDbXrecord
280
     1
102
RTVSPost2010Prop28
280
     0
102
RTVSPost2010PropOp28
 70
     1
102
RTVSPost2010Prop29
280
     1
102
RTVSPost2010PropOp29
 70
     1
102
RTVSPost2010Prop30
280
     1
102
RTVSPost2010PropOp30
 70
     1
102
RTVSPost2010Prop31
280
     0
102
RTVSPost2010PropOp31
 70
     1
102
RTVSPost2010Prop32
280
     0
102
RTVSPost2010PropOp32
 70
     1
102
RTVSPost2010Prop33
280
     0
102
RTVSPost2010PropOp33
 70
     1
102
RTVSPost2010Prop34
280
     0
102
RTVSPost2010PropOp34
 70
     1
102
RTVSPost2010Prop35
280
     0
102
RTVSPost2010PropOp35
 70
     1
102
RTVSPost2010Prop36
280
     0
102
RTVSPost2010PropOp36
 70
     1
102
RTVSPost2010Prop37
 90
       50
102
RTVSPost2010PropOp37
 70
     1
102
RTVSPost2010Prop38
140
0.0
102
RTVSPost2010PropOp38
 70
     1
102
RTVSPost2010Prop39
140
1.0
102
RTVSPost2010PropOp39
 70
     1
102
RTVSPost2010Prop40
 90
        0
102
RTVSPost2010PropOp40
 70
     1
102
RTVSPost2010Prop41ColorIndex
 90
       18
102
RTVSPost2010Prop41ColorRGB
 90
        0
102
RTVSPost2010PropOp41
 70
     1
102
RTVSPost2010Prop42
 90
       50
102
RTVSPost2010PropOp42
 70
     1
102
RTVSPost2010Prop43
 90
        3
102
RTVSPost2010PropOp43
 70
     1
102
RTVSPost2010Prop44ColorIndex
 90
        5
102
RTVSPost2010Prop44ColorRGB
 90
      255
102
RTVSPost2010PropOp44
 70
     1
102
RTVSPost2010Prop45
280
     0
102
RTVSPost2010PropOp45
 70
     1
102
RTVSPost2010Prop46
 90
       50
102
RTVSPost2010PropOp46
 70
     1
102
RTVSPost2010Prop47
 90
       50
102
RTVSPost2010PropOp47
 70
     1
102
RTVSPost2010Prop48
 90
       50
102
RTVSPost2010PropOp48
 70
     1
102
RTVSPost2010Prop49
280
     0
102
RTVSPost2010PropOp49
 70
     1
102
RTVSPost2010Prop50
 90
       50
102
RTVSPost2010PropOp50
 70
     1
102
RTVSPost2010Prop51ColorIndex
 90
      256
102
RTVSPost2010Prop51ColorRGB
 90
-16777216
102
RTVSPost2010PropOp51
 70
     0
102
RTVSPost2010Prop52
140
1.0
102
RTVSPost2010PropOp52
 70
     0
102
RTVSPost2010Prop53
 90
        2
102
RTVSPost2010PropOp53
 70
     1
102
RTVSPost2010Prop54
  1
strokes_ogs.tif
102
RTVSPost2010PropOp54
 70
     1
102
RTVSPost2010Prop55
280
     0
102
RTVSPost2010PropOp55
 70
     1
102
RTVSPost2010Prop56
140
1.0
102
RTVSPost2010PropOp56
 70
     1
102
RTVSPost2010Prop57
140
1.0
102
RTVSPost2010PropOp57
 70
     1
102
RTVSPropertyOp0
 70
     1
102
RTVSPropertyOp1
 70
     1
102
RTVSPropertyOp2
 70
     1
102
RTVSPropertyOp3
 70
     1
102
RTVSPropertyOp4
 70
     1
102
RTVSPropertyOp5
 70
     1
102
RTVSPropertyOp6
 70
     1
102
RTVSPropertyOp7
 70
     1
102
RTVSPropertyOp8
 70
     1
102
RTVSPropertyOp9
 70
     1
102
RTVSPropertyOp10
 70
     1
102
RTVSPropertyOp11
 70
     1
102
RTVSPropertyOp12
 70
     1
102
RTVSPropertyOp13
 70
     1
102
RTVSPropertyOp14
 70
     1
102
RTVSPropertyOp15
 70
     1
102
RTVSPropertyOp16
 70
     1
102
RTVSPropertyOp17
 70
     1
102
RTVSPropertyOp18
 70
     1
102
RTVSPropertyOp19
 70
     1
102
RTVSPropertyOp20
 70
     1
102
RTVSPropertyOp21
 70
     1
102
RTVSPropertyOp22
 70
     1
102
RTVSPropertyOp23
 70
     1
102
RTVSPropertyOp24
 70
     1
102
RTVSPropertyOp25
 70
     1
102
RTVSPropertyOp26
 70
     1
102
RTVSPropertyOp27
 70
     1
102
RTVSPropertyOp28
 70
     1
102
RTVSPropertyOp29
 70
     1
102
RTVSPropertyOp30
 70
     1
102
RTVSPropertyOp31
 70
     1
102
RTVSPropertyOp32
 70
     1
102
RTVSPropertyOp33
 70
     1
102
RTVSPropertyOp34
 70
     1
102
RTVSPropertyOp35
 70
     1
102
RTVSPropertyOp36
 70
     1
102
RTVSPropertyOp37
 70
     1
102
RTVSPropertyOp38
 70
     1
102
RTVSPropertyOp39
 70
     1
102
RTVSPropertyOp40
 70
     1
102
RTVSPropertyOp41
 70
     1
102
RTVSPropertyOp42
 70
     1
102
RTVSPropertyOp43
 70
     1
102
RTVSPropertyOp44
 70
     1
102
RTVSPropertyOp45
 70
     1
102
RTVSPropertyOp46
 70
     1
102
RTVSPropertyOp47
 70
     1
102
RTVSPropertyOp48
 70
     1
102
RTVSPropertyOp49
 70
     1
102
RTVSPropertyOp50
 70
     1
102
RTVSPropertyOp51
 70
     0
102
RTVSPropertyOp52
 70
     0
102
RTVSPropertyOp53
 70
     1
102
RTVSPropertyOp54
 70
     1
102
RTVSPropertyOp55
 70
     1
102
RTVSPropertyOp56
 70
     1
102
RTVSPropertyOp57
 70
     1
102
RTVSPropertyOp58
 70
     1
102
RTVSPropertyOp59
 70
     1
102
RTVSPropertyOp60
 70
     1
102
RTVSPropertyOp61
 70
     1
102
RTVSPropertyOp62
 70
     1
  0
XRECORD
  5
396
102
{ACAD_REACTORS
330
395
102
}
330
395
100
AcDbXrecord
280
     1
102
RTVSPost2010Prop28
280
     0
102
RTVSPost2010PropOp28
 70
     0
102
RTVSPost2010Prop29
280
     1
102
RTVSPost2010PropOp29
 70
     0
102
RTVSPost2010Prop30
280
     1
102
RTVSPost2010PropOp30
 70
     0
102
RTVSPost2010Prop31
280
     0
102
RTVSPost2010PropOp31
 70
     0
102
RTVSPost2010Prop32
280
     0
102
RTVSPost2010PropOp32
 70
     0
102
RTVSPost2010Prop33
280
     0
102
RTVSPost2010PropOp33
 70
     0
102
RTVSPost2010Prop34
280
     0
102
RTVSPost2010PropOp34
 70
     0
102
RTVSPost2010Prop35
280
     0
102
RTVSPost2010PropOp35
 70
     0
102
RTVSPost2010Prop36
280
     0
102
RTVSPost2010PropOp36
 70
     0
102
RTVSPost2010Prop37
 90
       50
102
RTVSPost2010PropOp37
 70
     0
102
RTVSPost2010Prop38
140
0.0
102
RTVSPost2010PropOp38
 70
     0
102
RTVSPost2010Prop39
140
1.0
102
RTVSPost2010PropOp39
 70
     0
102
RTVSPost2010Prop40
 90
        0
102
RTVSPost2010PropOp40
 70
     0
102
RTVSPost2010Prop41ColorIndex
 90
       18
102
RTVSPost2010Prop41ColorRGB
 90
        0
102
RTVSPost2010PropOp41
 70
     0
102
RTVSPost2010Prop42
 90
       50
102
RTVSPost2010PropOp42
 70
     0
102
RTVSPost2010Prop43
 90
        3
102
RTVSPost2010PropOp43
 70
     0
102
RTVSPost2010Prop44ColorIndex
 90
        5
102
RTVSPost2010Prop44ColorRGB
 90
      255
102
RTVSPost2010PropOp44
 70
     0
102
RTVSPost2010Prop45
280
     0
102
RTVSPost2010PropOp45
 70
     0
102
RTVSPost2010Prop46
 90
       50
102
RTVSPost2010PropOp46
 70
     0
102
RTVSPost2010Prop47
 90
       50
102
RTVSPost2010PropOp47
 70
     0
102
RTVSPost2010Prop48
 90
       50
102
RTVSPost2010PropOp48
 70
     0
102
RTVSPost2010Prop49
280
     0
102
RTVSPost2010PropOp49
 70
     0
102
RTVSPost2010Prop50
 90
       50
102
RTVSPost2010PropOp50
 70
     0
102
RTVSPost2010Prop51ColorIndex
 90
      256
102
RTVSPost2010Prop51ColorRGB
 90
-16777216
102
RTVSPost2010PropOp51
 70
     0
102
RTVSPost2010Prop52
140
1.0
102
RTVSPost2010PropOp52
 70
     0
102
RTVSPost2010Prop53
 90
        2
102
RTVSPost2010PropOp53
 70
     0
102
RTVSPost2010Prop54
  1
strokes_ogs.tif
102
RTVSPost2010PropOp54
 70
     0
102
RTVSPost2010Prop55
280
     0
102
RTVSPost2010PropOp55
 70
     0
102
RTVSPost2010Prop56
140
1.0
102
RTVSPost2010PropOp56
 70
     0
102
RTVSPost2010Prop57
140
1.0
102
RTVSPost2010PropOp57
 70
     0
102
RTVSPropertyOp0
 70
     0
102
RTVSPropertyOp1
 70
     0
102
RTVSPropertyOp2
 70
     0
102
RTVSPropertyOp3
 70
     0
102
RTVSPropertyOp4
 70
     0
102
RTVSPropertyOp5
 70
     0
102
RTVSPropertyOp6
 70
     0
102
RTVSPropertyOp7
 70
     0
102
RTVSPropertyOp8
 70
     0
102
RTVSPropertyOp9
 70
     0
102
RTVSPropertyOp10
 70
     0
102
RTVSPropertyOp11
 70
     0
102
RTVSPropertyOp12
 70
     0
102
RTVSPropertyOp13
 70
     0
102
RTVSPropertyOp14
 70
     2
102
RTVSPropertyOp15
 70
     0
102
RTVSPropertyOp16
 70
     0
102
RTVSPropertyOp17
 70
     0
102
RTVSPropertyOp18
 70
     0
102
RTVSPropertyOp19
 70
     0
102
RTVSPropertyOp20
 70
     0
102
RTVSPropertyOp21
 70
     0
102
RTVSPropertyOp22
 70
     0
102
RTVSPropertyOp23
 70
     0
102
RTVSPropertyOp24
 70
     0
102
RTVSPropertyOp25
 70
     0
102
RTVSPropertyOp26
 70
     0
102
RTVSPropertyOp27
 70
     0
102
RTVSPropertyOp28
 70
     0
102
RTVSPropertyOp29
 70
     0
102
RTVSPropertyOp30
 70
     0
102
RTVSPropertyOp31
 70
     0
102
RTVSPropertyOp32
 70
     0
102
RTVSPropertyOp33
 70
     0
102
RTVSPropertyOp34
 70
     0
102
RTVSPropertyOp35
 70
     0
102
RTVSPropertyOp36
 70
     0
102
RTVSPropertyOp37
 70
     0
102
RTVSPropertyOp38
 70
     0
102
RTVSPropertyOp39
 70
     0
102
RTVSPropertyOp40
 70
     0
102
RTVSPropertyOp41
 70
     0
102
RTVSPropertyOp42
 70
     0
102
RTVSPropertyOp43
 70
     0
102
RTVSPropertyOp44
 70
     0
102
RTVSPropertyOp45
 70
     0
102
RTVSPropertyOp46
 70
     0
102
RTVSPropertyOp47
 70
     0
102
RTVSPropertyOp48
 70
     0
102
RTVSPropertyOp49
 70
     0
102
RTVSPropertyOp50
 70
     0
102
RTVSPropertyOp51
 70
     0
102
RTVSPropertyOp52
 70
     0
102
RTVSPropertyOp53
 70
     0
102
RTVSPropertyOp54
 70
     0
102
RTVSPropertyOp55
 70
     0
102
RTVSPropertyOp56
 70
     0
102
RTVSPropertyOp57
 70
     0
102
RTVSPropertyOp58
 70
     1
102
RTVSPropertyOp59
 70
     1
102
RTVSPropertyOp60
 70
     1
102
RTVSPropertyOp61
 70
     1
102
RTVSPropertyOp62
 70
     1
  0
XRECORD
  5
38E
102
{ACAD_REACTORS
330
38D
102
}
330
38D
100
AcDbXrecord
280
     1
102
RTVSPost2010Prop28
280
     0
102
RTVSPost2010PropOp28
 70
     1
102
RTVSPost2010Prop29
280
     1
102
RTVSPost2010PropOp29
 70
     1
102
RTVSPost2010Prop30
280
     1
102
RTVSPost2010PropOp30
 70
     1
102
RTVSPost2010Prop31
280
     0
102
RTVSPost2010PropOp31
 70
     1
102
RTVSPost2010Prop32
280
     0
102
RTVSPost2010PropOp32
 70
     1
102
RTVSPost2010Prop33
280
     0
102
RTVSPost2010PropOp33
 70
     1
102
RTVSPost2010Prop34
280
     0
102
RTVSPost2010PropOp34
 70
     1
102
RTVSPost2010Prop35
280
     0
102
RTVSPost2010PropOp35
 70
     1
102
RTVSPost2010Prop36
280
     0
102
RTVSPost2010PropOp36
 70
     1
102
RTVSPost2010Prop37
 90
       50
102
RTVSPost2010PropOp37
 70
     1
102
RTVSPost2010Prop38
140
0.0
102
RTVSPost2010PropOp38
 70
     1
102
RTVSPost2010Prop39
140
1.0
102
RTVSPost2010PropOp39
 70
     1
102
RTVSPost2010Prop40
 90
        0
102
RTVSPost2010PropOp40
 70
     1
102
RTVSPost2010Prop41ColorIndex
 90
       18
102
RTVSPost2010Prop41ColorRGB
 90
        0
102
RTVSPost2010PropOp41
 70
     1
102
RTVSPost2010Prop42
 90
       50
102
RTVSPost2010PropOp42
 70
     1
102
RTVSPost2010Prop43
 90
        3
102
RTVSPost2010PropOp43
 70
     1
102
RTVSPost2010Prop44ColorIndex
 90
        5
102
RTVSPost2010Prop44ColorRGB
 90
      255
102
RTVSPost2010PropOp44
 70
     1
102
RTVSPost2010Prop45
280
     0
102
RTVSPost2010PropOp45
 70
     1
102
RTVSPost2010Prop46
 90
       50
102
RTVSPost2010PropOp46
 70
     1
102
RTVSPost2010Prop47
 90
       50
102
RTVSPost2010PropOp47
 70
     1
102
RTVSPost2010Prop48
 90
       50
102
RTVSPost2010PropOp48
 70
     1
102
RTVSPost2010Prop49
280
     0
102
RTVSPost2010PropOp49
 70
     1
102
RTVSPost2010Prop50
 90
       50
102
RTVSPost2010PropOp50
 70
     1
102
RTVSPost2010Prop51ColorIndex
 90
      256
102
RTVSPost2010Prop51ColorRGB
 90
-16777216
102
RTVSPost2010PropOp51
 70
     0
102
RTVSPost2010Prop52
140
1.0
102
RTVSPost2010PropOp52
 70
     0
102
RTVSPost2010Prop53
 90
        2
102
RTVSPost2010PropOp53
 70
     1
102
RTVSPost2010Prop54
  1
strokes_ogs.tif
102
RTVSPost2010PropOp54
 70
     1
102
RTVSPost2010Prop55
280
     0
102
RTVSPost2010PropOp55
 70
     1
102
RTVSPost2010Prop56
140
1.0
102
RTVSPost2010PropOp56
 70
     1
102
RTVSPost2010Prop57
140
1.0
102
RTVSPost2010PropOp57
 70
     1
102
RTVSPropertyOp0
 70
     1
102
RTVSPropertyOp1
 70
     1
102
RTVSPropertyOp2
 70
     1
102
RTVSPropertyOp3
 70
     1
102
RTVSPropertyOp4
 70
     1
102
RTVSPropertyOp5
 70
     1
102
RTVSPropertyOp6
 70
     1
102
RTVSPropertyOp7
 70
     1
102
RTVSPropertyOp8
 70
     1
102
RTVSPropertyOp9
 70
     1
102
RTVSPropertyOp10
 70
     1
102
RTVSPropertyOp11
 70
     1
102
RTVSPropertyOp12
 70
     1
102
RTVSPropertyOp13
 70
     1
102
RTVSPropertyOp14
 70
     1
102
RTVSPropertyOp15
 70
     1
102
RTVSPropertyOp16
 70
     1
102
RTVSPropertyOp17
 70
     1
102
RTVSPropertyOp18
 70
     1
102
RTVSPropertyOp19
 70
     1
102
RTVSPropertyOp20
 70
     1
102
RTVSPropertyOp21
 70
     1
102
RTVSPropertyOp22
 70
     1
102
RTVSPropertyOp23
 70
     1
102
RTVSPropertyOp24
 70
     1
102
RTVSPropertyOp25
 70
     1
102
RTVSPropertyOp26
 70
     1
102
RTVSPropertyOp27
 70
     1
102
RTVSPropertyOp28
 70
     1
102
RTVSPropertyOp29
 70
     1
102
RTVSPropertyOp30
 70
     1
102
RTVSPropertyOp31
 70
     1
102
RTVSPropertyOp32
 70
     1
102
RTVSPropertyOp33
 70
     1
102
RTVSPropertyOp34
 70
     1
102
RTVSPropertyOp35
 70
     1
102
RTVSPropertyOp36
 70
     1
102
RTVSPropertyOp37
 70
     1
102
RTVSPropertyOp38
 70
     1
102
RTVSPropertyOp39
 70
     1
102
RTVSPropertyOp40
 70
     1
102
RTVSPropertyOp41
 70
     1
102
RTVSPropertyOp42
 70
     1
102
RTVSPropertyOp43
 70
     1
102
RTVSPropertyOp44
 70
     1
102
RTVSPropertyOp45
 70
     1
102
RTVSPropertyOp46
 70
     1
102
RTVSPropertyOp47
 70
     1
102
RTVSPropertyOp48
 70
     1
102
RTVSPropertyOp49
 70
     1
102
RTVSPropertyOp50
 70
     1
102
RTVSPropertyOp51
 70
     0
102
RTVSPropertyOp52
 70
     0
102
RTVSPropertyOp53
 70
     1
102
RTVSPropertyOp54
 70
     1
102
RTVSPropertyOp55
 70
     1
102
RTVSPropertyOp56
 70
     1
102
RTVSPropertyOp57
 70
     1
102
RTVSPropertyOp58
 70
     1
102
RTVSPropertyOp59
 70
     1
102
RTVSPropertyOp60
 70
     1
102
RTVSPropertyOp61
 70
     1
102
RTVSPropertyOp62
 70
     1
  0
XRECORD
  5
372
102
{ACAD_REACTORS
330
371
102
}
330
371
100
AcDbXrecord
280
     1
102
RTVSPost2010Prop28
280
     0
102
RTVSPost2010PropOp28
 70
     1
102
RTVSPost2010Prop29
280
     1
102
RTVSPost2010PropOp29
 70
     1
102
RTVSPost2010Prop30
280
     1
102
RTVSPost2010PropOp30
 70
     1
102
RTVSPost2010Prop31
280
     0
102
RTVSPost2010PropOp31
 70
     1
102
RTVSPost2010Prop32
280
     0
102
RTVSPost2010PropOp32
 70
     1
102
RTVSPost2010Prop33
280
     0
102
RTVSPost2010PropOp33
 70
     1
102
RTVSPost2010Prop34
280
     0
102
RTVSPost2010PropOp34
 70
     1
102
RTVSPost2010Prop35
280
     0
102
RTVSPost2010PropOp35
 70
     1
102
RTVSPost2010Prop36
280
     0
102
RTVSPost2010PropOp36
 70
     1
102
RTVSPost2010Prop37
 90
       50
102
RTVSPost2010PropOp37
 70
     1
102
RTVSPost2010Prop38
140
0.0
102
RTVSPost2010PropOp38
 70
     1
102
RTVSPost2010Prop39
140
1.0
102
RTVSPost2010PropOp39
 70
     1
102
RTVSPost2010Prop40
 90
        0
102
RTVSPost2010PropOp40
 70
     1
102
RTVSPost2010Prop41ColorIndex
 90
       18
102
RTVSPost2010Prop41ColorRGB
 90
        0
102
RTVSPost2010PropOp41
 70
     1
102
RTVSPost2010Prop42
 90
       50
102
RTVSPost2010PropOp42
 70
     1
102
RTVSPost2010Prop43
 90
        3
102
RTVSPost2010PropOp43
 70
     1
102
RTVSPost2010Prop44ColorIndex
 90
        5
102
RTVSPost2010Prop44ColorRGB
 90
      255
102
RTVSPost2010PropOp44
 70
     1
102
RTVSPost2010Prop45
280
     0
102
RTVSPost2010PropOp45
 70
     1
102
RTVSPost2010Prop46
 90
       50
102
RTVSPost2010PropOp46
 70
     1
102
RTVSPost2010Prop47
 90
       50
102
RTVSPost2010PropOp47
 70
     1
102
RTVSPost2010Prop48
 90
       50
102
RTVSPost2010PropOp48
 70
     1
102
RTVSPost2010Prop49
280
     0
102
RTVSPost2010PropOp49
 70
     1
102
RTVSPost2010Prop50
 90
       50
102
RTVSPost2010PropOp50
 70
     1
102
RTVSPost2010Prop51ColorIndex
 90
      256
102
RTVSPost2010Prop51ColorRGB
 90
-16777216
102
RTVSPost2010PropOp51
 70
     0
102
RTVSPost2010Prop52
140
1.0
102
RTVSPost2010PropOp52
 70
     0
102
RTVSPost2010Prop53
 90
        2
102
RTVSPost2010PropOp53
 70
     1
102
RTVSPost2010Prop54
  1
strokes_ogs.tif
102
RTVSPost2010PropOp54
 70
     1
102
RTVSPost2010Prop55
280
     0
102
RTVSPost2010PropOp55
 70
     1
102
RTVSPost2010Prop56
140
1.0
102
RTVSPost2010PropOp56
 70
     1
102
RTVSPost2010Prop57
140
1.0
102
RTVSPost2010PropOp57
 70
     1
102
RTVSPropertyOp0
 70
     1
102
RTVSPropertyOp1
 70
     1
102
RTVSPropertyOp2
 70
     1
102
RTVSPropertyOp3
 70
     1
102
RTVSPropertyOp4
 70
     1
102
RTVSPropertyOp5
 70
     1
102
RTVSPropertyOp6
 70
     1
102
RTVSPropertyOp7
 70
     1
102
RTVSPropertyOp8
 70
     1
102
RTVSPropertyOp9
 70
     1
102
RTVSPropertyOp10
 70
     1
102
RTVSPropertyOp11
 70
     1
102
RTVSPropertyOp12
 70
     1
102
RTVSPropertyOp13
 70
     1
102
RTVSPropertyOp14
 70
     1
102
RTVSPropertyOp15
 70
     1
102
RTVSPropertyOp16
 70
     1
102
RTVSPropertyOp17
 70
     1
102
RTVSPropertyOp18
 70
     1
102
RTVSPropertyOp19
 70
     1
102
RTVSPropertyOp20
 70
     1
102
RTVSPropertyOp21
 70
     1
102
RTVSPropertyOp22
 70
     1
102
RTVSPropertyOp23
 70
     1
102
RTVSPropertyOp24
 70
     1
102
RTVSPropertyOp25
 70
     1
102
RTVSPropertyOp26
 70
     1
102
RTVSPropertyOp27
 70
     1
102
RTVSPropertyOp28
 70
     1
102
RTVSPropertyOp29
 70
     1
102
RTVSPropertyOp30
 70
     1
102
RTVSPropertyOp31
 70
     1
102
RTVSPropertyOp32
 70
     1
102
RTVSPropertyOp33
 70
     1
102
RTVSPropertyOp34
 70
     1
102
RTVSPropertyOp35
 70
     1
102
RTVSPropertyOp36
 70
     1
102
RTVSPropertyOp37
 70
     1
102
RTVSPropertyOp38
 70
     1
102
RTVSPropertyOp39
 70
     1
102
RTVSPropertyOp40
 70
     1
102
RTVSPropertyOp41
 70
     1
102
RTVSPropertyOp42
 70
     1
102
RTVSPropertyOp43
 70
     1
102
RTVSPropertyOp44
 70
     1
102
RTVSPropertyOp45
 70
     1
102
RTVSPropertyOp46
 70
     1
102
RTVSPropertyOp47
 70
     1
102
RTVSPropertyOp48
 70
     1
102
RTVSPropertyOp49
 70
     1
102
RTVSPropertyOp50
 70
     1
102
RTVSPropertyOp51
 70
     0
102
RTVSPropertyOp52
 70
     0
102
RTVSPropertyOp53
 70
     1
102
RTVSPropertyOp54
 70
     1
102
RTVSPropertyOp55
 70
     1
102
RTVSPropertyOp56
 70
     1
102
RTVSPropertyOp57
 70
     1
102
RTVSPropertyOp58
 70
     1
102
RTVSPropertyOp59
 70
     1
102
RTVSPropertyOp60
 70
     1
102
RTVSPropertyOp61
 70
     1
102
RTVSPropertyOp62
 70
     1
  0
XRECORD
  5
374
102
{ACAD_REACTORS
330
373
102
}
330
373
100
AcDbXrecord
280
     1
102
RTVSPost2010Prop28
280
     0
102
RTVSPost2010PropOp28
 70
     1
102
RTVSPost2010Prop29
280
     1
102
RTVSPost2010PropOp29
 70
     1
102
RTVSPost2010Prop30
280
     1
102
RTVSPost2010PropOp30
 70
     1
102
RTVSPost2010Prop31
280
     0
102
RTVSPost2010PropOp31
 70
     1
102
RTVSPost2010Prop32
280
     0
102
RTVSPost2010PropOp32
 70
     1
102
RTVSPost2010Prop33
280
     0
102
RTVSPost2010PropOp33
 70
     1
102
RTVSPost2010Prop34
280
     0
102
RTVSPost2010PropOp34
 70
     1
102
RTVSPost2010Prop35
280
     0
102
RTVSPost2010PropOp35
 70
     1
102
RTVSPost2010Prop36
280
     0
102
RTVSPost2010PropOp36
 70
     1
102
RTVSPost2010Prop37
 90
       50
102
RTVSPost2010PropOp37
 70
     1
102
RTVSPost2010Prop38
140
0.0
102
RTVSPost2010PropOp38
 70
     1
102
RTVSPost2010Prop39
140
1.0
102
RTVSPost2010PropOp39
 70
     1
102
RTVSPost2010Prop40
 90
        0
102
RTVSPost2010PropOp40
 70
     1
102
RTVSPost2010Prop41ColorIndex
 90
       18
102
RTVSPost2010Prop41ColorRGB
 90
        0
102
RTVSPost2010PropOp41
 70
     1
102
RTVSPost2010Prop42
 90
       50
102
RTVSPost2010PropOp42
 70
     1
102
RTVSPost2010Prop43
 90
        3
102
RTVSPost2010PropOp43
 70
     1
102
RTVSPost2010Prop44ColorIndex
 90
        5
102
RTVSPost2010Prop44ColorRGB
 90
      255
102
RTVSPost2010PropOp44
 70
     1
102
RTVSPost2010Prop45
280
     0
102
RTVSPost2010PropOp45
 70
     1
102
RTVSPost2010Prop46
 90
       50
102
RTVSPost2010PropOp46
 70
     1
102
RTVSPost2010Prop47
 90
       50
102
RTVSPost2010PropOp47
 70
     1
102
RTVSPost2010Prop48
 90
       50
102
RTVSPost2010PropOp48
 70
     1
102
RTVSPost2010Prop49
280
     0
102
RTVSPost2010PropOp49
 70
     1
102
RTVSPost2010Prop50
 90
       50
102
RTVSPost2010PropOp50
 70
     1
102
RTVSPost2010Prop51ColorIndex
 90
      256
102
RTVSPost2010Prop51ColorRGB
 90
-16777216
102
RTVSPost2010PropOp51
 70
     0
102
RTVSPost2010Prop52
140
1.0
102
RTVSPost2010PropOp52
 70
     0
102
RTVSPost2010Prop53
 90
        2
102
RTVSPost2010PropOp53
 70
     1
102
RTVSPost2010Prop54
  1
strokes_ogs.tif
102
RTVSPost2010PropOp54
 70
     1
102
RTVSPost2010Prop55
280
     0
102
RTVSPost2010PropOp55
 70
     1
102
RTVSPost2010Prop56
140
1.0
102
RTVSPost2010PropOp56
 70
     1
102
RTVSPost2010Prop57
140
1.0
102
RTVSPost2010PropOp57
 70
     1
102
RTVSPropertyOp0
 70
     1
102
RTVSPropertyOp1
 70
     1
102
RTVSPropertyOp2
 70
     1
102
RTVSPropertyOp3
 70
     1
102
RTVSPropertyOp4
 70
     1
102
RTVSPropertyOp5
 70
     1
102
RTVSPropertyOp6
 70
     1
102
RTVSPropertyOp7
 70
     1
102
RTVSPropertyOp8
 70
     1
102
RTVSPropertyOp9
 70
     1
102
RTVSPropertyOp10
 70
     1
102
RTVSPropertyOp11
 70
     1
102
RTVSPropertyOp12
 70
     1
102
RTVSPropertyOp13
 70
     1
102
RTVSPropertyOp14
 70
     1
102
RTVSPropertyOp15
 70
     1
102
RTVSPropertyOp16
 70
     1
102
RTVSPropertyOp17
 70
     1
102
RTVSPropertyOp18
 70
     1
102
RTVSPropertyOp19
 70
     1
102
RTVSPropertyOp20
 70
     1
102
RTVSPropertyOp21
 70
     1
102
RTVSPropertyOp22
 70
     1
102
RTVSPropertyOp23
 70
     1
102
RTVSPropertyOp24
 70
     1
102
RTVSPropertyOp25
 70
     1
102
RTVSPropertyOp26
 70
     1
102
RTVSPropertyOp27
 70
     1
102
RTVSPropertyOp28
 70
     1
102
RTVSPropertyOp29
 70
     1
102
RTVSPropertyOp30
 70
     1
102
RTVSPropertyOp31
 70
     1
102
RTVSPropertyOp32
 70
     1
102
RTVSPropertyOp33
 70
     1
102
RTVSPropertyOp34
 70
     1
102
RTVSPropertyOp35
 70
     1
102
RTVSPropertyOp36
 70
     1
102
RTVSPropertyOp37
 70
     1
102
RTVSPropertyOp38
 70
     1
102
RTVSPropertyOp39
 70
     1
102
RTVSPropertyOp40
 70
     1
102
RTVSPropertyOp41
 70
     1
102
RTVSPropertyOp42
 70
     1
102
RTVSPropertyOp43
 70
     1
102
RTVSPropertyOp44
 70
     1
102
RTVSPropertyOp45
 70
     1
102
RTVSPropertyOp46
 70
     1
102
RTVSPropertyOp47
 70
     1
102
RTVSPropertyOp48
 70
     1
102
RTVSPropertyOp49
 70
     1
102
RTVSPropertyOp50
 70
     1
102
RTVSPropertyOp51
 70
     0
102
RTVSPropertyOp52
 70
     0
102
RTVSPropertyOp53
 70
     1
102
RTVSPropertyOp54
 70
     1
102
RTVSPropertyOp55
 70
     1
102
RTVSPropertyOp56
 70
     1
102
RTVSPropertyOp57
 70
     1
102
RTVSPropertyOp58
 70
     1
102
RTVSPropertyOp59
 70
     1
102
RTVSPropertyOp60
 70
     1
102
RTVSPropertyOp61
 70
     1
102
RTVSPropertyOp62
 70
     1
  0
XRECORD
  5
376
102
{ACAD_REACTORS
330
375
102
}
330
375
100
AcDbXrecord
280
     1
102
RTVSPost2010Prop28
280
     0
102
RTVSPost2010PropOp28
 70
     1
102
RTVSPost2010Prop29
280
     1
102
RTVSPost2010PropOp29
 70
     1
102
RTVSPost2010Prop30
280
     1
102
RTVSPost2010PropOp30
 70
     1
102
RTVSPost2010Prop31
280
     0
102
RTVSPost2010PropOp31
 70
     1
102
RTVSPost2010Prop32
280
     0
102
RTVSPost2010PropOp32
 70
     1
102
RTVSPost2010Prop33
280
     0
102
RTVSPost2010PropOp33
 70
     1
102
RTVSPost2010Prop34
280
     0
102
RTVSPost2010PropOp34
 70
     1
102
RTVSPost2010Prop35
280
     0
102
RTVSPost2010PropOp35
 70
     1
102
RTVSPost2010Prop36
280
     0
102
RTVSPost2010PropOp36
 70
     1
102
RTVSPost2010Prop37
 90
       50
102
RTVSPost2010PropOp37
 70
     1
102
RTVSPost2010Prop38
140
0.0
102
RTVSPost2010PropOp38
 70
     1
102
RTVSPost2010Prop39
140
1.0
102
RTVSPost2010PropOp39
 70
     1
102
RTVSPost2010Prop40
 90
        0
102
RTVSPost2010PropOp40
 70
     1
102
RTVSPost2010Prop41ColorIndex
 90
       18
102
RTVSPost2010Prop41ColorRGB
 90
        0
102
RTVSPost2010PropOp41
 70
     1
102
RTVSPost2010Prop42
 90
       50
102
RTVSPost2010PropOp42
 70
     1
102
RTVSPost2010Prop43
 90
        3
102
RTVSPost2010PropOp43
 70
     1
102
RTVSPost2010Prop44ColorIndex
 90
        5
102
RTVSPost2010Prop44ColorRGB
 90
      255
102
RTVSPost2010PropOp44
 70
     1
102
RTVSPost2010Prop45
280
     0
102
RTVSPost2010PropOp45
 70
     1
102
RTVSPost2010Prop46
 90
       50
102
RTVSPost2010PropOp46
 70
     1
102
RTVSPost2010Prop47
 90
       50
102
RTVSPost2010PropOp47
 70
     1
102
RTVSPost2010Prop48
 90
       50
102
RTVSPost2010PropOp48
 70
     1
102
RTVSPost2010Prop49
280
     0
102
RTVSPost2010PropOp49
 70
     1
102
RTVSPost2010Prop50
 90
       50
102
RTVSPost2010PropOp50
 70
     1
102
RTVSPost2010Prop51ColorIndex
 90
      256
102
RTVSPost2010Prop51ColorRGB
 90
-16777216
102
RTVSPost2010PropOp51
 70
     0
102
RTVSPost2010Prop52
140
1.0
102
RTVSPost2010PropOp52
 70
     0
102
RTVSPost2010Prop53
 90
        2
102
RTVSPost2010PropOp53
 70
     1
102
RTVSPost2010Prop54
  1
strokes_ogs.tif
102
RTVSPost2010PropOp54
 70
     1
102
RTVSPost2010Prop55
280
     0
102
RTVSPost2010PropOp55
 70
     1
102
RTVSPost2010Prop56
140
1.0
102
RTVSPost2010PropOp56
 70
     1
102
RTVSPost2010Prop57
140
1.0
102
RTVSPost2010PropOp57
 70
     1
102
RTVSPropertyOp0
 70
     1
102
RTVSPropertyOp1
 70
     1
102
RTVSPropertyOp2
 70
     1
102
RTVSPropertyOp3
 70
     1
102
RTVSPropertyOp4
 70
     1
102
RTVSPropertyOp5
 70
     1
102
RTVSPropertyOp6
 70
     1
102
RTVSPropertyOp7
 70
     1
102
RTVSPropertyOp8
 70
     1
102
RTVSPropertyOp9
 70
     1
102
RTVSPropertyOp10
 70
     1
102
RTVSPropertyOp11
 70
     1
102
RTVSPropertyOp12
 70
     1
102
RTVSPropertyOp13
 70
     1
102
RTVSPropertyOp14
 70
     1
102
RTVSPropertyOp15
 70
     1
102
RTVSPropertyOp16
 70
     1
102
RTVSPropertyOp17
 70
     1
102
RTVSPropertyOp18
 70
     1
102
RTVSPropertyOp19
 70
     1
102
RTVSPropertyOp20
 70
     1
102
RTVSPropertyOp21
 70
     1
102
RTVSPropertyOp22
 70
     1
102
RTVSPropertyOp23
 70
     1
102
RTVSPropertyOp24
 70
     1
102
RTVSPropertyOp25
 70
     1
102
RTVSPropertyOp26
 70
     1
102
RTVSPropertyOp27
 70
     1
102
RTVSPropertyOp28
 70
     1
102
RTVSPropertyOp29
 70
     1
102
RTVSPropertyOp30
 70
     1
102
RTVSPropertyOp31
 70
     1
102
RTVSPropertyOp32
 70
     1
102
RTVSPropertyOp33
 70
     1
102
RTVSPropertyOp34
 70
     1
102
RTVSPropertyOp35
 70
     1
102
RTVSPropertyOp36
 70
     1
102
RTVSPropertyOp37
 70
     1
102
RTVSPropertyOp38
 70
     1
102
RTVSPropertyOp39
 70
     1
102
RTVSPropertyOp40
 70
     1
102
RTVSPropertyOp41
 70
     1
102
RTVSPropertyOp42
 70
     1
102
RTVSPropertyOp43
 70
     1
102
RTVSPropertyOp44
 70
     1
102
RTVSPropertyOp45
 70
     1
102
RTVSPropertyOp46
 70
     1
102
RTVSPropertyOp47
 70
     1
102
RTVSPropertyOp48
 70
     1
102
RTVSPropertyOp49
 70
     1
102
RTVSPropertyOp50
 70
     1
102
RTVSPropertyOp51
 70
     0
102
RTVSPropertyOp52
 70
     0
102
RTVSPropertyOp53
 70
     1
102
RTVSPropertyOp54
 70
     1
102
RTVSPropertyOp55
 70
     1
102
RTVSPropertyOp56
 70
     1
102
RTVSPropertyOp57
 70
     1
102
RTVSPropertyOp58
 70
     1
102
RTVSPropertyOp59
 70
     1
102
RTVSPropertyOp60
 70
     1
102
RTVSPropertyOp61
 70
     1
102
RTVSPropertyOp62
 70
     1
  0
XRECORD
  5
378
102
{ACAD_REACTORS
330
377
102
}
330
377
100
AcDbXrecord
280
     1
102
RTVSPost2010Prop28
280
     0
102
RTVSPost2010PropOp28
 70
     1
102
RTVSPost2010Prop29
280
     1
102
RTVSPost2010PropOp29
 70
     1
102
RTVSPost2010Prop30
280
     1
102
RTVSPost2010PropOp30
 70
     1
102
RTVSPost2010Prop31
280
     0
102
RTVSPost2010PropOp31
 70
     1
102
RTVSPost2010Prop32
280
     0
102
RTVSPost2010PropOp32
 70
     1
102
RTVSPost2010Prop33
280
     0
102
RTVSPost2010PropOp33
 70
     1
102
RTVSPost2010Prop34
280
     0
102
RTVSPost2010PropOp34
 70
     1
102
RTVSPost2010Prop35
280
     0
102
RTVSPost2010PropOp35
 70
     1
102
RTVSPost2010Prop36
280
     0
102
RTVSPost2010PropOp36
 70
     1
102
RTVSPost2010Prop37
 90
       50
102
RTVSPost2010PropOp37
 70
     1
102
RTVSPost2010Prop38
140
0.0
102
RTVSPost2010PropOp38
 70
     1
102
RTVSPost2010Prop39
140
1.0
102
RTVSPost2010PropOp39
 70
     1
102
RTVSPost2010Prop40
 90
        0
102
RTVSPost2010PropOp40
 70
     1
102
RTVSPost2010Prop41ColorIndex
 90
       18
102
RTVSPost2010Prop41ColorRGB
 90
        0
102
RTVSPost2010PropOp41
 70
     1
102
RTVSPost2010Prop42
 90
       50
102
RTVSPost2010PropOp42
 70
     1
102
RTVSPost2010Prop43
 90
        3
102
RTVSPost2010PropOp43
 70
     1
102
RTVSPost2010Prop44ColorIndex
 90
        5
102
RTVSPost2010Prop44ColorRGB
 90
      255
102
RTVSPost2010PropOp44
 70
     1
102
RTVSPost2010Prop45
280
     0
102
RTVSPost2010PropOp45
 70
     1
102
RTVSPost2010Prop46
 90
       50
102
RTVSPost2010PropOp46
 70
     1
102
RTVSPost2010Prop47
 90
       50
102
RTVSPost2010PropOp47
 70
     1
102
RTVSPost2010Prop48
 90
       50
102
RTVSPost2010PropOp48
 70
     1
102
RTVSPost2010Prop49
280
     0
102
RTVSPost2010PropOp49
 70
     1
102
RTVSPost2010Prop50
 90
       50
102
RTVSPost2010PropOp50
 70
     1
102
RTVSPost2010Prop51ColorIndex
 90
      256
102
RTVSPost2010Prop51ColorRGB
 90
-16777216
102
RTVSPost2010PropOp51
 70
     0
102
RTVSPost2010Prop52
140
1.0
102
RTVSPost2010PropOp52
 70
     0
102
RTVSPost2010Prop53
 90
        2
102
RTVSPost2010PropOp53
 70
     1
102
RTVSPost2010Prop54
  1
strokes_ogs.tif
102
RTVSPost2010PropOp54
 70
     1
102
RTVSPost2010Prop55
280
     0
102
RTVSPost2010PropOp55
 70
     1
102
RTVSPost2010Prop56
140
1.0
102
RTVSPost2010PropOp56
 70
     1
102
RTVSPost2010Prop57
140
1.0
102
RTVSPost2010PropOp57
 70
     1
102
RTVSPropertyOp0
 70
     1
102
RTVSPropertyOp1
 70
     1
102
RTVSPropertyOp2
 70
     1
102
RTVSPropertyOp3
 70
     1
102
RTVSPropertyOp4
 70
     1
102
RTVSPropertyOp5
 70
     1
102
RTVSPropertyOp6
 70
     1
102
RTVSPropertyOp7
 70
     1
102
RTVSPropertyOp8
 70
     1
102
RTVSPropertyOp9
 70
     1
102
RTVSPropertyOp10
 70
     1
102
RTVSPropertyOp11
 70
     1
102
RTVSPropertyOp12
 70
     1
102
RTVSPropertyOp13
 70
     1
102
RTVSPropertyOp14
 70
     1
102
RTVSPropertyOp15
 70
     1
102
RTVSPropertyOp16
 70
     1
102
RTVSPropertyOp17
 70
     1
102
RTVSPropertyOp18
 70
     1
102
RTVSPropertyOp19
 70
     1
102
RTVSPropertyOp20
 70
     1
102
RTVSPropertyOp21
 70
     1
102
RTVSPropertyOp22
 70
     1
102
RTVSPropertyOp23
 70
     1
102
RTVSPropertyOp24
 70
     1
102
RTVSPropertyOp25
 70
     1
102
RTVSPropertyOp26
 70
     1
102
RTVSPropertyOp27
 70
     1
102
RTVSPropertyOp28
 70
     1
102
RTVSPropertyOp29
 70
     1
102
RTVSPropertyOp30
 70
     1
102
RTVSPropertyOp31
 70
     1
102
RTVSPropertyOp32
 70
     1
102
RTVSPropertyOp33
 70
     1
102
RTVSPropertyOp34
 70
     1
102
RTVSPropertyOp35
 70
     1
102
RTVSPropertyOp36
 70
     1
102
RTVSPropertyOp37
 70
     1
102
RTVSPropertyOp38
 70
     1
102
RTVSPropertyOp39
 70
     1
102
RTVSPropertyOp40
 70
     1
102
RTVSPropertyOp41
 70
     1
102
RTVSPropertyOp42
 70
     1
102
RTVSPropertyOp43
 70
     1
102
RTVSPropertyOp44
 70
     1
102
RTVSPropertyOp45
 70
     1
102
RTVSPropertyOp46
 70
     1
102
RTVSPropertyOp47
 70
     1
102
RTVSPropertyOp48
 70
     1
102
RTVSPropertyOp49
 70
     1
102
RTVSPropertyOp50
 70
     1
102
RTVSPropertyOp51
 70
     0
102
RTVSPropertyOp52
 70
     0
102
RTVSPropertyOp53
 70
     1
102
RTVSPropertyOp54
 70
     1
102
RTVSPropertyOp55
 70
     1
102
RTVSPropertyOp56
 70
     1
102
RTVSPropertyOp57
 70
     1
102
RTVSPropertyOp58
 70
     1
102
RTVSPropertyOp59
 70
     1
102
RTVSPropertyOp60
 70
     1
102
RTVSPropertyOp61
 70
     1
102
RTVSPropertyOp62
 70
     1
  0
XRECORD
  5
37E
102
{ACAD_REACTORS
330
37D
102
}
330
37D
100
AcDbXrecord
280
     1
102
RTVSPost2010Prop28
280
     0
102
RTVSPost2010PropOp28
 70
     1
102
RTVSPost2010Prop29
280
     1
102
RTVSPost2010PropOp29
 70
     1
102
RTVSPost2010Prop30
280
     1
102
RTVSPost2010PropOp30
 70
     1
102
RTVSPost2010Prop31
280
     0
102
RTVSPost2010PropOp31
 70
     1
102
RTVSPost2010Prop32
280
     0
102
RTVSPost2010PropOp32
 70
     1
102
RTVSPost2010Prop33
280
     0
102
RTVSPost2010PropOp33
 70
     1
102
RTVSPost2010Prop34
280
     0
102
RTVSPost2010PropOp34
 70
     1
102
RTVSPost2010Prop35
280
     0
102
RTVSPost2010PropOp35
 70
     1
102
RTVSPost2010Prop36
280
     0
102
RTVSPost2010PropOp36
 70
     1
102
RTVSPost2010Prop37
 90
       50
102
RTVSPost2010PropOp37
 70
     1
102
RTVSPost2010Prop38
140
0.0
102
RTVSPost2010PropOp38
 70
     1
102
RTVSPost2010Prop39
140
1.0
102
RTVSPost2010PropOp39
 70
     1
102
RTVSPost2010Prop40
 90
        0
102
RTVSPost2010PropOp40
 70
     1
102
RTVSPost2010Prop41ColorIndex
 90
       18
102
RTVSPost2010Prop41ColorRGB
 90
        0
102
RTVSPost2010PropOp41
 70
     1
102
RTVSPost2010Prop42
 90
       50
102
RTVSPost2010PropOp42
 70
     1
102
RTVSPost2010Prop43
 90
        3
102
RTVSPost2010PropOp43
 70
     1
102
RTVSPost2010Prop44ColorIndex
 90
        5
102
RTVSPost2010Prop44ColorRGB
 90
      255
102
RTVSPost2010PropOp44
 70
     1
102
RTVSPost2010Prop45
280
     0
102
RTVSPost2010PropOp45
 70
     1
102
RTVSPost2010Prop46
 90
       50
102
RTVSPost2010PropOp46
 70
     1
102
RTVSPost2010Prop47
 90
       50
102
RTVSPost2010PropOp47
 70
     1
102
RTVSPost2010Prop48
 90
       50
102
RTVSPost2010PropOp48
 70
     1
102
RTVSPost2010Prop49
280
     0
102
RTVSPost2010PropOp49
 70
     1
102
RTVSPost2010Prop50
 90
       50
102
RTVSPost2010PropOp50
 70
     1
102
RTVSPost2010Prop51ColorIndex
 90
      256
102
RTVSPost2010Prop51ColorRGB
 90
-16777216
102
RTVSPost2010PropOp51
 70
     0
102
RTVSPost2010Prop52
140
1.0
102
RTVSPost2010PropOp52
 70
     0
102
RTVSPost2010Prop53
 90
        2
102
RTVSPost2010PropOp53
 70
     1
102
RTVSPost2010Prop54
  1
strokes_ogs.tif
102
RTVSPost2010PropOp54
 70
     1
102
RTVSPost2010Prop55
280
     0
102
RTVSPost2010PropOp55
 70
     1
102
RTVSPost2010Prop56
140
1.0
102
RTVSPost2010PropOp56
 70
     1
102
RTVSPost2010Prop57
140
1.0
102
RTVSPost2010PropOp57
 70
     1
102
RTVSPropertyOp0
 70
     1
102
RTVSPropertyOp1
 70
     1
102
RTVSPropertyOp2
 70
     1
102
RTVSPropertyOp3
 70
     1
102
RTVSPropertyOp4
 70
     1
102
RTVSPropertyOp5
 70
     1
102
RTVSPropertyOp6
 70
     1
102
RTVSPropertyOp7
 70
     1
102
RTVSPropertyOp8
 70
     1
102
RTVSPropertyOp9
 70
     1
102
RTVSPropertyOp10
 70
     1
102
RTVSPropertyOp11
 70
     1
102
RTVSPropertyOp12
 70
     1
102
RTVSPropertyOp13
 70
     1
102
RTVSPropertyOp14
 70
     1
102
RTVSPropertyOp15
 70
     1
102
RTVSPropertyOp16
 70
     1
102
RTVSPropertyOp17
 70
     1
102
RTVSPropertyOp18
 70
     1
102
RTVSPropertyOp19
 70
     1
102
RTVSPropertyOp20
 70
     1
102
RTVSPropertyOp21
 70
     1
102
RTVSPropertyOp22
 70
     1
102
RTVSPropertyOp23
 70
     1
102
RTVSPropertyOp24
 70
     1
102
RTVSPropertyOp25
 70
     1
102
RTVSPropertyOp26
 70
     1
102
RTVSPropertyOp27
 70
     1
102
RTVSPropertyOp28
 70
     1
102
RTVSPropertyOp29
 70
     1
102
RTVSPropertyOp30
 70
     1
102
RTVSPropertyOp31
 70
     1
102
RTVSPropertyOp32
 70
     1
102
RTVSPropertyOp33
 70
     1
102
RTVSPropertyOp34
 70
     1
102
RTVSPropertyOp35
 70
     1
102
RTVSPropertyOp36
 70
     1
102
RTVSPropertyOp37
 70
     1
102
RTVSPropertyOp38
 70
     1
102
RTVSPropertyOp39
 70
     1
102
RTVSPropertyOp40
 70
     1
102
RTVSPropertyOp41
 70
     1
102
RTVSPropertyOp42
 70
     1
102
RTVSPropertyOp43
 70
     1
102
RTVSPropertyOp44
 70
     1
102
RTVSPropertyOp45
 70
     1
102
RTVSPropertyOp46
 70
     1
102
RTVSPropertyOp47
 70
     1
102
RTVSPropertyOp48
 70
     1
102
RTVSPropertyOp49
 70
     1
102
RTVSPropertyOp50
 70
     1
102
RTVSPropertyOp51
 70
     0
102
RTVSPropertyOp52
 70
     0
102
RTVSPropertyOp53
 70
     1
102
RTVSPropertyOp54
 70
     1
102
RTVSPropertyOp55
 70
     1
102
RTVSPropertyOp56
 70
     1
102
RTVSPropertyOp57
 70
     1
102
RTVSPropertyOp58
 70
     1
102
RTVSPropertyOp59
 70
     1
102
RTVSPropertyOp60
 70
     1
102
RTVSPropertyOp61
 70
     1
102
RTVSPropertyOp62
 70
     1
  0
XRECORD
  5
392
102
{ACAD_REACTORS
330
391
102
}
330
391
100
AcDbXrecord
280
     1
102
RTVSPost2010Prop28
280
     0
102
RTVSPost2010PropOp28
 70
     0
102
RTVSPost2010Prop29
280
     1
102
RTVSPost2010PropOp29
 70
     0
102
RTVSPost2010Prop30
280
     1
102
RTVSPost2010PropOp30
 70
     0
102
RTVSPost2010Prop31
280
     0
102
RTVSPost2010PropOp31
 70
     0
102
RTVSPost2010Prop32
280
     0
102
RTVSPost2010PropOp32
 70
     0
102
RTVSPost2010Prop33
280
     0
102
RTVSPost2010PropOp33
 70
     0
102
RTVSPost2010Prop34
280
     0
102
RTVSPost2010PropOp34
 70
     0
102
RTVSPost2010Prop35
280
     0
102
RTVSPost2010PropOp35
 70
     0
102
RTVSPost2010Prop36
280
     0
102
RTVSPost2010PropOp36
 70
     0
102
RTVSPost2010Prop37
 90
       50
102
RTVSPost2010PropOp37
 70
     0
102
RTVSPost2010Prop38
140
0.0
102
RTVSPost2010PropOp38
 70
     0
102
RTVSPost2010Prop39
140
1.0
102
RTVSPost2010PropOp39
 70
     0
102
RTVSPost2010Prop40
 90
        0
102
RTVSPost2010PropOp40
 70
     0
102
RTVSPost2010Prop41ColorIndex
 90
       18
102
RTVSPost2010Prop41ColorRGB
 90
        0
102
RTVSPost2010PropOp41
 70
     0
102
RTVSPost2010Prop42
 90
       50
102
RTVSPost2010PropOp42
 70
     0
102
RTVSPost2010Prop43
 90
        3
102
RTVSPost2010PropOp43
 70
     0
102
RTVSPost2010Prop44ColorIndex
 90
        5
102
RTVSPost2010Prop44ColorRGB
 90
      255
102
RTVSPost2010PropOp44
 70
     0
102
RTVSPost2010Prop45
280
     0
102
RTVSPost2010PropOp45
 70
     0
102
RTVSPost2010Prop46
 90
       50
102
RTVSPost2010PropOp46
 70
     0
102
RTVSPost2010Prop47
 90
       50
102
RTVSPost2010PropOp47
 70
     0
102
RTVSPost2010Prop48
 90
       50
102
RTVSPost2010PropOp48
 70
     0
102
RTVSPost2010Prop49
280
     0
102
RTVSPost2010PropOp49
 70
     0
102
RTVSPost2010Prop50
 90
       50
102
RTVSPost2010PropOp50
 70
     0
102
RTVSPost2010Prop51ColorIndex
 90
      256
102
RTVSPost2010Prop51ColorRGB
 90
-16777216
102
RTVSPost2010PropOp51
 70
     0
102
RTVSPost2010Prop52
140
1.0
102
RTVSPost2010PropOp52
 70
     0
102
RTVSPost2010Prop53
 90
        2
102
RTVSPost2010PropOp53
 70
     0
102
RTVSPost2010Prop54
  1
strokes_ogs.tif
102
RTVSPost2010PropOp54
 70
     0
102
RTVSPost2010Prop55
280
     0
102
RTVSPost2010PropOp55
 70
     0
102
RTVSPost2010Prop56
140
1.0
102
RTVSPost2010PropOp56
 70
     0
102
RTVSPost2010Prop57
140
1.0
102
RTVSPost2010PropOp57
 70
     0
102
RTVSPropertyOp0
 70
     0
102
RTVSPropertyOp1
 70
     0
102
RTVSPropertyOp2
 70
     0
102
RTVSPropertyOp3
 70
     0
102
RTVSPropertyOp4
 70
     0
102
RTVSPropertyOp5
 70
     0
102
RTVSPropertyOp6
 70
     0
102
RTVSPropertyOp7
 70
     0
102
RTVSPropertyOp8
 70
     0
102
RTVSPropertyOp9
 70
     0
102
RTVSPropertyOp10
 70
     0
102
RTVSPropertyOp11
 70
     0
102
RTVSPropertyOp12
 70
     0
102
RTVSPropertyOp13
 70
     0
102
RTVSPropertyOp14
 70
     2
102
RTVSPropertyOp15
 70
     0
102
RTVSPropertyOp16
 70
     0
102
RTVSPropertyOp17
 70
     0
102
RTVSPropertyOp18
 70
     0
102
RTVSPropertyOp19
 70
     0
102
RTVSPropertyOp20
 70
     0
102
RTVSPropertyOp21
 70
     0
102
RTVSPropertyOp22
 70
     0
102
RTVSPropertyOp23
 70
     0
102
RTVSPropertyOp24
 70
     0
102
RTVSPropertyOp25
 70
     0
102
RTVSPropertyOp26
 70
     0
102
RTVSPropertyOp27
 70
     0
102
RTVSPropertyOp28
 70
     0
102
RTVSPropertyOp29
 70
     0
102
RTVSPropertyOp30
 70
     0
102
RTVSPropertyOp31
 70
     0
102
RTVSPropertyOp32
 70
     0
102
RTVSPropertyOp33
 70
     0
102
RTVSPropertyOp34
 70
     0
102
RTVSPropertyOp35
 70
     0
102
RTVSPropertyOp36
 70
     0
102
RTVSPropertyOp37
 70
     0
102
RTVSPropertyOp38
 70
     0
102
RTVSPropertyOp39
 70
     0
102
RTVSPropertyOp40
 70
     0
102
RTVSPropertyOp41
 70
     0
102
RTVSPropertyOp42
 70
     0
102
RTVSPropertyOp43
 70
     0
102
RTVSPropertyOp44
 70
     0
102
RTVSPropertyOp45
 70
     0
102
RTVSPropertyOp46
 70
     0
102
RTVSPropertyOp47
 70
     0
102
RTVSPropertyOp48
 70
     0
102
RTVSPropertyOp49
 70
     0
102
RTVSPropertyOp50
 70
     0
102
RTVSPropertyOp51
 70
     0
102
RTVSPropertyOp52
 70
     0
102
RTVSPropertyOp53
 70
     0
102
RTVSPropertyOp54
 70
     0
102
RTVSPropertyOp55
 70
     0
102
RTVSPropertyOp56
 70
     0
102
RTVSPropertyOp57
 70
     0
102
RTVSPropertyOp58
 70
     1
102
RTVSPropertyOp59
 70
     1
102
RTVSPropertyOp60
 70
     1
102
RTVSPropertyOp61
 70
     1
102
RTVSPropertyOp62
 70
     1
  0
XRECORD
  5
38C
102
{ACAD_REACTORS
330
38B
102
}
330
38B
100
AcDbXrecord
280
     1
102
RTVSPost2010Prop28
280
     0
102
RTVSPost2010PropOp28
 70
     1
102
RTVSPost2010Prop29
280
     1
102
RTVSPost2010PropOp29
 70
     1
102
RTVSPost2010Prop30
280
     1
102
RTVSPost2010PropOp30
 70
     1
102
RTVSPost2010Prop31
280
     0
102
RTVSPost2010PropOp31
 70
     1
102
RTVSPost2010Prop32
280
     0
102
RTVSPost2010PropOp32
 70
     1
102
RTVSPost2010Prop33
280
     0
102
RTVSPost2010PropOp33
 70
     1
102
RTVSPost2010Prop34
280
     0
102
RTVSPost2010PropOp34
 70
     1
102
RTVSPost2010Prop35
280
     0
102
RTVSPost2010PropOp35
 70
     1
102
RTVSPost2010Prop36
280
     0
102
RTVSPost2010PropOp36
 70
     1
102
RTVSPost2010Prop37
 90
       50
102
RTVSPost2010PropOp37
 70
     1
102
RTVSPost2010Prop38
140
0.0
102
RTVSPost2010PropOp38
 70
     1
102
RTVSPost2010Prop39
140
1.0
102
RTVSPost2010PropOp39
 70
     1
102
RTVSPost2010Prop40
 90
        0
102
RTVSPost2010PropOp40
 70
     1
102
RTVSPost2010Prop41ColorIndex
 90
       18
102
RTVSPost2010Prop41ColorRGB
 90
        0
102
RTVSPost2010PropOp41
 70
     1
102
RTVSPost2010Prop42
 90
       50
102
RTVSPost2010PropOp42
 70
     1
102
RTVSPost2010Prop43
 90
        3
102
RTVSPost2010PropOp43
 70
     1
102
RTVSPost2010Prop44ColorIndex
 90
        5
102
RTVSPost2010Prop44ColorRGB
 90
      255
102
RTVSPost2010PropOp44
 70
     1
102
RTVSPost2010Prop45
280
     0
102
RTVSPost2010PropOp45
 70
     1
102
RTVSPost2010Prop46
 90
       50
102
RTVSPost2010PropOp46
 70
     1
102
RTVSPost2010Prop47
 90
       50
102
RTVSPost2010PropOp47
 70
     1
102
RTVSPost2010Prop48
 90
       50
102
RTVSPost2010PropOp48
 70
     1
102
RTVSPost2010Prop49
280
     0
102
RTVSPost2010PropOp49
 70
     1
102
RTVSPost2010Prop50
 90
       50
102
RTVSPost2010PropOp50
 70
     1
102
RTVSPost2010Prop51ColorIndex
 90
      256
102
RTVSPost2010Prop51ColorRGB
 90
-16777216
102
RTVSPost2010PropOp51
 70
     0
102
RTVSPost2010Prop52
140
1.0
102
RTVSPost2010PropOp52
 70
     0
102
RTVSPost2010Prop53
 90
        2
102
RTVSPost2010PropOp53
 70
     1
102
RTVSPost2010Prop54
  1
strokes_ogs.tif
102
RTVSPost2010PropOp54
 70
     1
102
RTVSPost2010Prop55
280
     0
102
RTVSPost2010PropOp55
 70
     1
102
RTVSPost2010Prop56
140
1.0
102
RTVSPost2010PropOp56
 70
     1
102
RTVSPost2010Prop57
140
1.0
102
RTVSPost2010PropOp57
 70
     1
102
RTVSPropertyOp0
 70
     1
102
RTVSPropertyOp1
 70
     1
102
RTVSPropertyOp2
 70
     1
102
RTVSPropertyOp3
 70
     1
102
RTVSPropertyOp4
 70
     1
102
RTVSPropertyOp5
 70
     1
102
RTVSPropertyOp6
 70
     1
102
RTVSPropertyOp7
 70
     1
102
RTVSPropertyOp8
 70
     1
102
RTVSPropertyOp9
 70
     1
102
RTVSPropertyOp10
 70
     1
102
RTVSPropertyOp11
 70
     1
102
RTVSPropertyOp12
 70
     1
102
RTVSPropertyOp13
 70
     1
102
RTVSPropertyOp14
 70
     1
102
RTVSPropertyOp15
 70
     1
102
RTVSPropertyOp16
 70
     1
102
RTVSPropertyOp17
 70
     1
102
RTVSPropertyOp18
 70
     1
102
RTVSPropertyOp19
 70
     1
102
RTVSPropertyOp20
 70
     1
102
RTVSPropertyOp21
 70
     1
102
RTVSPropertyOp22
 70
     1
102
RTVSPropertyOp23
 70
     1
102
RTVSPropertyOp24
 70
     1
102
RTVSPropertyOp25
 70
     1
102
RTVSPropertyOp26
 70
     1
102
RTVSPropertyOp27
 70
     1
102
RTVSPropertyOp28
 70
     1
102
RTVSPropertyOp29
 70
     1
102
RTVSPropertyOp30
 70
     1
102
RTVSPropertyOp31
 70
     1
102
RTVSPropertyOp32
 70
     1
102
RTVSPropertyOp33
 70
     1
102
RTVSPropertyOp34
 70
     1
102
RTVSPropertyOp35
 70
     1
102
RTVSPropertyOp36
 70
     1
102
RTVSPropertyOp37
 70
     1
102
RTVSPropertyOp38
 70
     1
102
RTVSPropertyOp39
 70
     1
102
RTVSPropertyOp40
 70
     1
102
RTVSPropertyOp41
 70
     1
102
RTVSPropertyOp42
 70
     1
102
RTVSPropertyOp43
 70
     1
102
RTVSPropertyOp44
 70
     1
102
RTVSPropertyOp45
 70
     1
102
RTVSPropertyOp46
 70
     1
102
RTVSPropertyOp47
 70
     1
102
RTVSPropertyOp48
 70
     1
102
RTVSPropertyOp49
 70
     1
102
RTVSPropertyOp50
 70
     1
102
RTVSPropertyOp51
 70
     0
102
RTVSPropertyOp52
 70
     0
102
RTVSPropertyOp53
 70
     1
102
RTVSPropertyOp54
 70
     1
102
RTVSPropertyOp55
 70
     1
102
RTVSPropertyOp56
 70
     1
102
RTVSPropertyOp57
 70
     1
102
RTVSPropertyOp58
 70
     1
102
RTVSPropertyOp59
 70
     1
102
RTVSPropertyOp60
 70
     1
102
RTVSPropertyOp61
 70
     1
102
RTVSPropertyOp62
 70
     1
  0
XRECORD
  5
394
102
{ACAD_REACTORS
330
393
102
}
330
393
100
AcDbXrecord
280
     1
102
RTVSPost2010Prop28
280
     0
102
RTVSPost2010PropOp28
 70
     0
102
RTVSPost2010Prop29
280
     1
102
RTVSPost2010PropOp29
 70
     0
102
RTVSPost2010Prop30
280
     1
102
RTVSPost2010PropOp30
 70
     0
102
RTVSPost2010Prop31
280
     0
102
RTVSPost2010PropOp31
 70
     0
102
RTVSPost2010Prop32
280
     0
102
RTVSPost2010PropOp32
 70
     0
102
RTVSPost2010Prop33
280
     0
102
RTVSPost2010PropOp33
 70
     0
102
RTVSPost2010Prop34
280
     0
102
RTVSPost2010PropOp34
 70
     0
102
RTVSPost2010Prop35
280
     0
102
RTVSPost2010PropOp35
 70
     0
102
RTVSPost2010Prop36
280
     0
102
RTVSPost2010PropOp36
 70
     0
102
RTVSPost2010Prop37
 90
       50
102
RTVSPost2010PropOp37
 70
     0
102
RTVSPost2010Prop38
140
0.0
102
RTVSPost2010PropOp38
 70
     0
102
RTVSPost2010Prop39
140
1.0
102
RTVSPost2010PropOp39
 70
     0
102
RTVSPost2010Prop40
 90
        0
102
RTVSPost2010PropOp40
 70
     0
102
RTVSPost2010Prop41ColorIndex
 90
       18
102
RTVSPost2010Prop41ColorRGB
 90
        0
102
RTVSPost2010PropOp41
 70
     0
102
RTVSPost2010Prop42
 90
       50
102
RTVSPost2010PropOp42
 70
     0
102
RTVSPost2010Prop43
 90
        3
102
RTVSPost2010PropOp43
 70
     0
102
RTVSPost2010Prop44ColorIndex
 90
        5
102
RTVSPost2010Prop44ColorRGB
 90
      255
102
RTVSPost2010PropOp44
 70
     0
102
RTVSPost2010Prop45
280
     0
102
RTVSPost2010PropOp45
 70
     0
102
RTVSPost2010Prop46
 90
       50
102
RTVSPost2010PropOp46
 70
     0
102
RTVSPost2010Prop47
 90
       50
102
RTVSPost2010PropOp47
 70
     0
102
RTVSPost2010Prop48
 90
       50
102
RTVSPost2010PropOp48
 70
     0
102
RTVSPost2010Prop49
280
     0
102
RTVSPost2010PropOp49
 70
     0
102
RTVSPost2010Prop50
 90
       50
102
RTVSPost2010PropOp50
 70
     0
102
RTVSPost2010Prop51ColorIndex
 90
      256
102
RTVSPost2010Prop51ColorRGB
 90
-16777216
102
RTVSPost2010PropOp51
 70
     0
102
RTVSPost2010Prop52
140
1.0
102
RTVSPost2010PropOp52
 70
     0
102
RTVSPost2010Prop53
 90
        2
102
RTVSPost2010PropOp53
 70
     0
102
RTVSPost2010Prop54
  1
strokes_ogs.tif
102
RTVSPost2010PropOp54
 70
     0
102
RTVSPost2010Prop55
280
     0
102
RTVSPost2010PropOp55
 70
     0
102
RTVSPost2010Prop56
140
1.0
102
RTVSPost2010PropOp56
 70
     0
102
RTVSPost2010Prop57
140
1.0
102
RTVSPost2010PropOp57
 70
     0
102
RTVSPropertyOp0
 70
     0
102
RTVSPropertyOp1
 70
     0
102
RTVSPropertyOp2
 70
     0
102
RTVSPropertyOp3
 70
     0
102
RTVSPropertyOp4
 70
     0
102
RTVSPropertyOp5
 70
     0
102
RTVSPropertyOp6
 70
     0
102
RTVSPropertyOp7
 70
     0
102
RTVSPropertyOp8
 70
     0
102
RTVSPropertyOp9
 70
     0
102
RTVSPropertyOp10
 70
     0
102
RTVSPropertyOp11
 70
     0
102
RTVSPropertyOp12
 70
     0
102
RTVSPropertyOp13
 70
     0
102
RTVSPropertyOp14
 70
     2
102
RTVSPropertyOp15
 70
     0
102
RTVSPropertyOp16
 70
     0
102
RTVSPropertyOp17
 70
     0
102
RTVSPropertyOp18
 70
     0
102
RTVSPropertyOp19
 70
     0
102
RTVSPropertyOp20
 70
     0
102
RTVSPropertyOp21
 70
     0
102
RTVSPropertyOp22
 70
     0
102
RTVSPropertyOp23
 70
     0
102
RTVSPropertyOp24
 70
     0
102
RTVSPropertyOp25
 70
     0
102
RTVSPropertyOp26
 70
     0
102
RTVSPropertyOp27
 70
     0
102
RTVSPropertyOp28
 70
     0
102
RTVSPropertyOp29
 70
     0
102
RTVSPropertyOp30
 70
     0
102
RTVSPropertyOp31
 70
     0
102
RTVSPropertyOp32
 70
     0
102
RTVSPropertyOp33
 70
     0
102
RTVSPropertyOp34
 70
     0
102
RTVSPropertyOp35
 70
     0
102
RTVSPropertyOp36
 70
     0
102
RTVSPropertyOp37
 70
     0
102
RTVSPropertyOp38
 70
     0
102
RTVSPropertyOp39
 70
     0
102
RTVSPropertyOp40
 70
     0
102
RTVSPropertyOp41
 70
     0
102
RTVSPropertyOp42
 70
     0
102
RTVSPropertyOp43
 70
     0
102
RTVSPropertyOp44
 70
     0
102
RTVSPropertyOp45
 70
     0
102
RTVSPropertyOp46
 70
     0
102
RTVSPropertyOp47
 70
     0
102
RTVSPropertyOp48
 70
     0
102
RTVSPropertyOp49
 70
     0
102
RTVSPropertyOp50
 70
     0
102
RTVSPropertyOp51
 70
     0
102
RTVSPropertyOp52
 70
     0
102
RTVSPropertyOp53
 70
     0
102
RTVSPropertyOp54
 70
     0
102
RTVSPropertyOp55
 70
     0
102
RTVSPropertyOp56
 70
     0
102
RTVSPropertyOp57
 70
     0
102
RTVSPropertyOp58
 70
     1
102
RTVSPropertyOp59
 70
     1
102
RTVSPropertyOp60
 70
     1
102
RTVSPropertyOp61
 70
     1
102
RTVSPropertyOp62
 70
     1
  0
XRECORD
  5
382
102
{ACAD_REACTORS
330
381
102
}
330
381
100
AcDbXrecord
280
     1
102
RTVSPost2010Prop28
280
     0
102
RTVSPost2010PropOp28
 70
     1
102
RTVSPost2010Prop29
280
     1
102
RTVSPost2010PropOp29
 70
     1
102
RTVSPost2010Prop30
280
     1
102
RTVSPost2010PropOp30
 70
     1
102
RTVSPost2010Prop31
280
     0
102
RTVSPost2010PropOp31
 70
     1
102
RTVSPost2010Prop32
280
     0
102
RTVSPost2010PropOp32
 70
     1
102
RTVSPost2010Prop33
280
     0
102
RTVSPost2010PropOp33
 70
     1
102
RTVSPost2010Prop34
280
     0
102
RTVSPost2010PropOp34
 70
     1
102
RTVSPost2010Prop35
280
     0
102
RTVSPost2010PropOp35
 70
     1
102
RTVSPost2010Prop36
280
     0
102
RTVSPost2010PropOp36
 70
     1
102
RTVSPost2010Prop37
 90
       50
102
RTVSPost2010PropOp37
 70
     1
102
RTVSPost2010Prop38
140
0.0
102
RTVSPost2010PropOp38
 70
     1
102
RTVSPost2010Prop39
140
1.0
102
RTVSPost2010PropOp39
 70
     1
102
RTVSPost2010Prop40
 90
        0
102
RTVSPost2010PropOp40
 70
     1
102
RTVSPost2010Prop41ColorIndex
 90
       18
102
RTVSPost2010Prop41ColorRGB
 90
        0
102
RTVSPost2010PropOp41
 70
     1
102
RTVSPost2010Prop42
 90
       50
102
RTVSPost2010PropOp42
 70
     1
102
RTVSPost2010Prop43
 90
        3
102
RTVSPost2010PropOp43
 70
     1
102
RTVSPost2010Prop44ColorIndex
 90
        5
102
RTVSPost2010Prop44ColorRGB
 90
      255
102
RTVSPost2010PropOp44
 70
     1
102
RTVSPost2010Prop45
280
     0
102
RTVSPost2010PropOp45
 70
     1
102
RTVSPost2010Prop46
 90
       50
102
RTVSPost2010PropOp46
 70
     1
102
RTVSPost2010Prop47
 90
       50
102
RTVSPost2010PropOp47
 70
     1
102
RTVSPost2010Prop48
 90
       50
102
RTVSPost2010PropOp48
 70
     1
102
RTVSPost2010Prop49
280
     0
102
RTVSPost2010PropOp49
 70
     1
102
RTVSPost2010Prop50
 90
       50
102
RTVSPost2010PropOp50
 70
     1
102
RTVSPost2010Prop51ColorIndex
 90
      256
102
RTVSPost2010Prop51ColorRGB
 90
-16777216
102
RTVSPost2010PropOp51
 70
     0
102
RTVSPost2010Prop52
140
1.0
102
RTVSPost2010PropOp52
 70
     0
102
RTVSPost2010Prop53
 90
        2
102
RTVSPost2010PropOp53
 70
     1
102
RTVSPost2010Prop54
  1
strokes_ogs.tif
102
RTVSPost2010PropOp54
 70
     1
102
RTVSPost2010Prop55
280
     0
102
RTVSPost2010PropOp55
 70
     1
102
RTVSPost2010Prop56
140
1.0
102
RTVSPost2010PropOp56
 70
     1
102
RTVSPost2010Prop57
140
1.0
102
RTVSPost2010PropOp57
 70
     1
102
RTVSPropertyOp0
 70
     1
102
RTVSPropertyOp1
 70
     1
102
RTVSPropertyOp2
 70
     1
102
RTVSPropertyOp3
 70
     1
102
RTVSPropertyOp4
 70
     1
102
RTVSPropertyOp5
 70
     1
102
RTVSPropertyOp6
 70
     1
102
RTVSPropertyOp7
 70
     1
102
RTVSPropertyOp8
 70
     1
102
RTVSPropertyOp9
 70
     1
102
RTVSPropertyOp10
 70
     1
102
RTVSPropertyOp11
 70
     1
102
RTVSPropertyOp12
 70
     1
102
RTVSPropertyOp13
 70
     1
102
RTVSPropertyOp14
 70
     1
102
RTVSPropertyOp15
 70
     1
102
RTVSPropertyOp16
 70
     1
102
RTVSPropertyOp17
 70
     1
102
RTVSPropertyOp18
 70
     1
102
RTVSPropertyOp19
 70
     1
102
RTVSPropertyOp20
 70
     1
102
RTVSPropertyOp21
 70
     1
102
RTVSPropertyOp22
 70
     1
102
RTVSPropertyOp23
 70
     1
102
RTVSPropertyOp24
 70
     1
102
RTVSPropertyOp25
 70
     1
102
RTVSPropertyOp26
 70
     1
102
RTVSPropertyOp27
 70
     1
102
RTVSPropertyOp28
 70
     1
102
RTVSPropertyOp29
 70
     1
102
RTVSPropertyOp30
 70
     1
102
RTVSPropertyOp31
 70
     1
102
RTVSPropertyOp32
 70
     1
102
RTVSPropertyOp33
 70
     1
102
RTVSPropertyOp34
 70
     1
102
RTVSPropertyOp35
 70
     1
102
RTVSPropertyOp36
 70
     1
102
RTVSPropertyOp37
 70
     1
102
RTVSPropertyOp38
 70
     1
102
RTVSPropertyOp39
 70
     1
102
RTVSPropertyOp40
 70
     1
102
RTVSPropertyOp41
 70
     1
102
RTVSPropertyOp42
 70
     1
102
RTVSPropertyOp43
 70
     1
102
RTVSPropertyOp44
 70
     1
102
RTVSPropertyOp45
 70
     1
102
RTVSPropertyOp46
 70
     1
102
RTVSPropertyOp47
 70
     1
102
RTVSPropertyOp48
 70
     1
102
RTVSPropertyOp49
 70
     1
102
RTVSPropertyOp50
 70
     1
102
RTVSPropertyOp51
 70
     0
102
RTVSPropertyOp52
 70
     0
102
RTVSPropertyOp53
 70
     1
102
RTVSPropertyOp54
 70
     1
102
RTVSPropertyOp55
 70
     1
102
RTVSPropertyOp56
 70
     1
102
RTVSPropertyOp57
 70
     1
102
RTVSPropertyOp58
 70
     1
102
RTVSPropertyOp59
 70
     1
102
RTVSPropertyOp60
 70
     1
102
RTVSPropertyOp61
 70
     1
102
RTVSPropertyOp62
 70
     1
  0
XRECORD
  5
3A0
102
{ACAD_REACTORS
330
39F
102
}
330
39F
100
AcDbXrecord
280
     1
102
RTVSPost2010Prop28
280
     0
102
RTVSPost2010PropOp28
 70
     1
102
RTVSPost2010Prop29
280
     1
102
RTVSPost2010PropOp29
 70
     1
102
RTVSPost2010Prop30
280
     1
102
RTVSPost2010PropOp30
 70
     1
102
RTVSPost2010Prop31
280
     0
102
RTVSPost2010PropOp31
 70
     1
102
RTVSPost2010Prop32
280
     0
102
RTVSPost2010PropOp32
 70
     1
102
RTVSPost2010Prop33
280
     0
102
RTVSPost2010PropOp33
 70
     1
102
RTVSPost2010Prop34
280
     0
102
RTVSPost2010PropOp34
 70
     1
102
RTVSPost2010Prop35
280
     0
102
RTVSPost2010PropOp35
 70
     1
102
RTVSPost2010Prop36
280
     0
102
RTVSPost2010PropOp36
 70
     1
102
RTVSPost2010Prop37
 90
       50
102
RTVSPost2010PropOp37
 70
     1
102
RTVSPost2010Prop38
140
0.0
102
RTVSPost2010PropOp38
 70
     1
102
RTVSPost2010Prop39
140
1.0
102
RTVSPost2010PropOp39
 70
     1
102
RTVSPost2010Prop40
 90
        0
102
RTVSPost2010PropOp40
 70
     1
102
RTVSPost2010Prop41ColorIndex
 90
       18
102
RTVSPost2010Prop41ColorRGB
 90
        0
102
RTVSPost2010PropOp41
 70
     1
102
RTVSPost2010Prop42
 90
       50
102
RTVSPost2010PropOp42
 70
     1
102
RTVSPost2010Prop43
 90
        3
102
RTVSPost2010PropOp43
 70
     1
102
RTVSPost2010Prop44ColorIndex
 90
        5
102
RTVSPost2010Prop44ColorRGB
 90
      255
102
RTVSPost2010PropOp44
 70
     1
102
RTVSPost2010Prop45
280
     0
102
RTVSPost2010PropOp45
 70
     1
102
RTVSPost2010Prop46
 90
       50
102
RTVSPost2010PropOp46
 70
     1
102
RTVSPost2010Prop47
 90
       50
102
RTVSPost2010PropOp47
 70
     1
102
RTVSPost2010Prop48
 90
       50
102
RTVSPost2010PropOp48
 70
     1
102
RTVSPost2010Prop49
280
     0
102
RTVSPost2010PropOp49
 70
     1
102
RTVSPost2010Prop50
 90
       50
102
RTVSPost2010PropOp50
 70
     1
102
RTVSPost2010Prop51ColorIndex
 90
      256
102
RTVSPost2010Prop51ColorRGB
 90
-16777216
102
RTVSPost2010PropOp51
 70
     0
102
RTVSPost2010Prop52
140
1.0
102
RTVSPost2010PropOp52
 70
     0
102
RTVSPost2010Prop53
 90
        2
102
RTVSPost2010PropOp53
 70
     1
102
RTVSPost2010Prop54
  1
strokes_ogs.tif
102
RTVSPost2010PropOp54
 70
     1
102
RTVSPost2010Prop55
280
     0
102
RTVSPost2010PropOp55
 70
     1
102
RTVSPost2010Prop56
140
1.0
102
RTVSPost2010PropOp56
 70
     1
102
RTVSPost2010Prop57
140
1.0
102
RTVSPost2010PropOp57
 70
     1
102
RTVSPropertyOp0
 70
     1
102
RTVSPropertyOp1
 70
     1
102
RTVSPropertyOp2
 70
     1
102
RTVSPropertyOp3
 70
     1
102
RTVSPropertyOp4
 70
     1
102
RTVSPropertyOp5
 70
     1
102
RTVSPropertyOp6
 70
     1
102
RTVSPropertyOp7
 70
     1
102
RTVSPropertyOp8
 70
     1
102
RTVSPropertyOp9
 70
     1
102
RTVSPropertyOp10
 70
     1
102
RTVSPropertyOp11
 70
     1
102
RTVSPropertyOp12
 70
     1
102
RTVSPropertyOp13
 70
     1
102
RTVSPropertyOp14
 70
     1
102
RTVSPropertyOp15
 70
     1
102
RTVSPropertyOp16
 70
     1
102
RTVSPropertyOp17
 70
     1
102
RTVSPropertyOp18
 70
     1
102
RTVSPropertyOp19
 70
     1
102
RTVSPropertyOp20
 70
     1
102
RTVSPropertyOp21
 70
     1
102
RTVSPropertyOp22
 70
     1
102
RTVSPropertyOp23
 70
     1
102
RTVSPropertyOp24
 70
     1
102
RTVSPropertyOp25
 70
     1
102
RTVSPropertyOp26
 70
     1
102
RTVSPropertyOp27
 70
     1
102
RTVSPropertyOp28
 70
     1
102
RTVSPropertyOp29
 70
     1
102
RTVSPropertyOp30
 70
     1
102
RTVSPropertyOp31
 70
     1
102
RTVSPropertyOp32
 70
     1
102
RTVSPropertyOp33
 70
     1
102
RTVSPropertyOp34
 70
     1
102
RTVSPropertyOp35
 70
     1
102
RTVSPropertyOp36
 70
     1
102
RTVSPropertyOp37
 70
     1
102
RTVSPropertyOp38
 70
     1
102
RTVSPropertyOp39
 70
     1
102
RTVSPropertyOp40
 70
     1
102
RTVSPropertyOp41
 70
     1
102
RTVSPropertyOp42
 70
     1
102
RTVSPropertyOp43
 70
     1
102
RTVSPropertyOp44
 70
     1
102
RTVSPropertyOp45
 70
     1
102
RTVSPropertyOp46
 70
     1
102
RTVSPropertyOp47
 70
     1
102
RTVSPropertyOp48
 70
     1
102
RTVSPropertyOp49
 70
     1
102
RTVSPropertyOp50
 70
     1
102
RTVSPropertyOp51
 70
     0
102
RTVSPropertyOp52
 70
     0
102
RTVSPropertyOp53
 70
     1
102
RTVSPropertyOp54
 70
     1
102
RTVSPropertyOp55
 70
     1
102
RTVSPropertyOp56
 70
     1
102
RTVSPropertyOp57
 70
     1
102
RTVSPropertyOp58
 70
     1
102
RTVSPropertyOp59
 70
     1
102
RTVSPropertyOp60
 70
     1
102
RTVSPropertyOp61
 70
     1
102
RTVSPropertyOp62
 70
     1
  0
XRECORD
  5
39E
102
{ACAD_REACTORS
330
39D
102
}
330
39D
100
AcDbXrecord
280
     1
102
RTVSPost2010Prop28
280
     0
102
RTVSPost2010PropOp28
 70
     1
102
RTVSPost2010Prop29
280
     1
102
RTVSPost2010PropOp29
 70
     1
102
RTVSPost2010Prop30
280
     1
102
RTVSPost2010PropOp30
 70
     1
102
RTVSPost2010Prop31
280
     0
102
RTVSPost2010PropOp31
 70
     1
102
RTVSPost2010Prop32
280
     0
102
RTVSPost2010PropOp32
 70
     1
102
RTVSPost2010Prop33
280
     0
102
RTVSPost2010PropOp33
 70
     1
102
RTVSPost2010Prop34
280
     0
102
RTVSPost2010PropOp34
 70
     1
102
RTVSPost2010Prop35
280
     0
102
RTVSPost2010PropOp35
 70
     1
102
RTVSPost2010Prop36
280
     0
102
RTVSPost2010PropOp36
 70
     1
102
RTVSPost2010Prop37
 90
       50
102
RTVSPost2010PropOp37
 70
     1
102
RTVSPost2010Prop38
140
0.0
102
RTVSPost2010PropOp38
 70
     1
102
RTVSPost2010Prop39
140
1.0
102
RTVSPost2010PropOp39
 70
     1
102
RTVSPost2010Prop40
 90
        0
102
RTVSPost2010PropOp40
 70
     1
102
RTVSPost2010Prop41ColorIndex
 90
       18
102
RTVSPost2010Prop41ColorRGB
 90
        0
102
RTVSPost2010PropOp41
 70
     1
102
RTVSPost2010Prop42
 90
       50
102
RTVSPost2010PropOp42
 70
     1
102
RTVSPost2010Prop43
 90
        3
102
RTVSPost2010PropOp43
 70
     1
102
RTVSPost2010Prop44ColorIndex
 90
        5
102
RTVSPost2010Prop44ColorRGB
 90
      255
102
RTVSPost2010PropOp44
 70
     1
102
RTVSPost2010Prop45
280
     0
102
RTVSPost2010PropOp45
 70
     1
102
RTVSPost2010Prop46
 90
       50
102
RTVSPost2010PropOp46
 70
     1
102
RTVSPost2010Prop47
 90
       50
102
RTVSPost2010PropOp47
 70
     1
102
RTVSPost2010Prop48
 90
       50
102
RTVSPost2010PropOp48
 70
     1
102
RTVSPost2010Prop49
280
     0
102
RTVSPost2010PropOp49
 70
     1
102
RTVSPost2010Prop50
 90
       50
102
RTVSPost2010PropOp50
 70
     1
102
RTVSPost2010Prop51ColorIndex
 90
      256
102
RTVSPost2010Prop51ColorRGB
 90
-16777216
102
RTVSPost2010PropOp51
 70
     0
102
RTVSPost2010Prop52
140
1.0
102
RTVSPost2010PropOp52
 70
     0
102
RTVSPost2010Prop53
 90
        2
102
RTVSPost2010PropOp53
 70
     1
102
RTVSPost2010Prop54
  1
strokes_ogs.tif
102
RTVSPost2010PropOp54
 70
     1
102
RTVSPost2010Prop55
280
     0
102
RTVSPost2010PropOp55
 70
     1
102
RTVSPost2010Prop56
140
1.0
102
RTVSPost2010PropOp56
 70
     1
102
RTVSPost2010Prop57
140
1.0
102
RTVSPost2010PropOp57
 70
     1
102
RTVSPropertyOp0
 70
     1
102
RTVSPropertyOp1
 70
     1
102
RTVSPropertyOp2
 70
     1
102
RTVSPropertyOp3
 70
     1
102
RTVSPropertyOp4
 70
     1
102
RTVSPropertyOp5
 70
     1
102
RTVSPropertyOp6
 70
     1
102
RTVSPropertyOp7
 70
     1
102
RTVSPropertyOp8
 70
     1
102
RTVSPropertyOp9
 70
     1
102
RTVSPropertyOp10
 70
     1
102
RTVSPropertyOp11
 70
     1
102
RTVSPropertyOp12
 70
     1
102
RTVSPropertyOp13
 70
     1
102
RTVSPropertyOp14
 70
     1
102
RTVSPropertyOp15
 70
     1
102
RTVSPropertyOp16
 70
     1
102
RTVSPropertyOp17
 70
     1
102
RTVSPropertyOp18
 70
     1
102
RTVSPropertyOp19
 70
     1
102
RTVSPropertyOp20
 70
     1
102
RTVSPropertyOp21
 70
     1
102
RTVSPropertyOp22
 70
     1
102
RTVSPropertyOp23
 70
     1
102
RTVSPropertyOp24
 70
     1
102
RTVSPropertyOp25
 70
     1
102
RTVSPropertyOp26
 70
     1
102
RTVSPropertyOp27
 70
     1
102
RTVSPropertyOp28
 70
     1
102
RTVSPropertyOp29
 70
     1
102
RTVSPropertyOp30
 70
     1
102
RTVSPropertyOp31
 70
     1
102
RTVSPropertyOp32
 70
     1
102
RTVSPropertyOp33
 70
     1
102
RTVSPropertyOp34
 70
     1
102
RTVSPropertyOp35
 70
     1
102
RTVSPropertyOp36
 70
     1
102
RTVSPropertyOp37
 70
     1
102
RTVSPropertyOp38
 70
     1
102
RTVSPropertyOp39
 70
     1
102
RTVSPropertyOp40
 70
     1
102
RTVSPropertyOp41
 70
     1
102
RTVSPropertyOp42
 70
     1
102
RTVSPropertyOp43
 70
     1
102
RTVSPropertyOp44
 70
     1
102
RTVSPropertyOp45
 70
     1
102
RTVSPropertyOp46
 70
     1
102
RTVSPropertyOp47
 70
     1
102
RTVSPropertyOp48
 70
     1
102
RTVSPropertyOp49
 70
     1
102
RTVSPropertyOp50
 70
     1
102
RTVSPropertyOp51
 70
     0
102
RTVSPropertyOp52
 70
     0
102
RTVSPropertyOp53
 70
     1
102
RTVSPropertyOp54
 70
     1
102
RTVSPropertyOp55
 70
     1
102
RTVSPropertyOp56
 70
     1
102
RTVSPropertyOp57
 70
     1
102
RTVSPropertyOp58
 70
     1
102
RTVSPropertyOp59
 70
     1
102
RTVSPropertyOp60
 70
     1
102
RTVSPropertyOp61
 70
     1
102
RTVSPropertyOp62
 70
     1
  0
XRECORD
  5
398
102
{ACAD_REACTORS
330
397
102
}
330
397
100
AcDbXrecord
280
     1
102
RTVSPost2010Prop28
280
     0
102
RTVSPost2010PropOp28
 70
     1
102
RTVSPost2010Prop29
280
     1
102
RTVSPost2010PropOp29
 70
     1
102
RTVSPost2010Prop30
280
     1
102
RTVSPost2010PropOp30
 70
     1
102
RTVSPost2010Prop31
280
     0
102
RTVSPost2010PropOp31
 70
     1
102
RTVSPost2010Prop32
280
     0
102
RTVSPost2010PropOp32
 70
     1
102
RTVSPost2010Prop33
280
     0
102
RTVSPost2010PropOp33
 70
     1
102
RTVSPost2010Prop34
280
     0
102
RTVSPost2010PropOp34
 70
     1
102
RTVSPost2010Prop35
280
     0
102
RTVSPost2010PropOp35
 70
     1
102
RTVSPost2010Prop36
280
     0
102
RTVSPost2010PropOp36
 70
     1
102
RTVSPost2010Prop37
 90
       50
102
RTVSPost2010PropOp37
 70
     1
102
RTVSPost2010Prop38
140
0.0
102
RTVSPost2010PropOp38
 70
     1
102
RTVSPost2010Prop39
140
1.0
102
RTVSPost2010PropOp39
 70
     1
102
RTVSPost2010Prop40
 90
        0
102
RTVSPost2010PropOp40
 70
     1
102
RTVSPost2010Prop41ColorIndex
 90
       18
102
RTVSPost2010Prop41ColorRGB
 90
        0
102
RTVSPost2010PropOp41
 70
     1
102
RTVSPost2010Prop42
 90
       50
102
RTVSPost2010PropOp42
 70
     1
102
RTVSPost2010Prop43
 90
        3
102
RTVSPost2010PropOp43
 70
     1
102
RTVSPost2010Prop44ColorIndex
 90
        5
102
RTVSPost2010Prop44ColorRGB
 90
      255
102
RTVSPost2010PropOp44
 70
     1
102
RTVSPost2010Prop45
280
     0
102
RTVSPost2010PropOp45
 70
     1
102
RTVSPost2010Prop46
 90
       50
102
RTVSPost2010PropOp46
 70
     1
102
RTVSPost2010Prop47
 90
       50
102
RTVSPost2010PropOp47
 70
     1
102
RTVSPost2010Prop48
 90
       50
102
RTVSPost2010PropOp48
 70
     1
102
RTVSPost2010Prop49
280
     0
102
RTVSPost2010PropOp49
 70
     1
102
RTVSPost2010Prop50
 90
       50
102
RTVSPost2010PropOp50
 70
     1
102
RTVSPost2010Prop51ColorIndex
 90
      256
102
RTVSPost2010Prop51ColorRGB
 90
-16777216
102
RTVSPost2010PropOp51
 70
     0
102
RTVSPost2010Prop52
140
1.0
102
RTVSPost2010PropOp52
 70
     0
102
RTVSPost2010Prop53
 90
        2
102
RTVSPost2010PropOp53
 70
     1
102
RTVSPost2010Prop54
  1
strokes_ogs.tif
102
RTVSPost2010PropOp54
 70
     1
102
RTVSPost2010Prop55
280
     0
102
RTVSPost2010PropOp55
 70
     1
102
RTVSPost2010Prop56
140
1.0
102
RTVSPost2010PropOp56
 70
     1
102
RTVSPost2010Prop57
140
1.0
102
RTVSPost2010PropOp57
 70
     1
102
RTVSPropertyOp0
 70
     1
102
RTVSPropertyOp1
 70
     1
102
RTVSPropertyOp2
 70
     1
102
RTVSPropertyOp3
 70
     1
102
RTVSPropertyOp4
 70
     1
102
RTVSPropertyOp5
 70
     1
102
RTVSPropertyOp6
 70
     1
102
RTVSPropertyOp7
 70
     1
102
RTVSPropertyOp8
 70
     1
102
RTVSPropertyOp9
 70
     1
102
RTVSPropertyOp10
 70
     1
102
RTVSPropertyOp11
 70
     1
102
RTVSPropertyOp12
 70
     1
102
RTVSPropertyOp13
 70
     1
102
RTVSPropertyOp14
 70
     1
102
RTVSPropertyOp15
 70
     1
102
RTVSPropertyOp16
 70
     1
102
RTVSPropertyOp17
 70
     1
102
RTVSPropertyOp18
 70
     1
102
RTVSPropertyOp19
 70
     1
102
RTVSPropertyOp20
 70
     1
102
RTVSPropertyOp21
 70
     1
102
RTVSPropertyOp22
 70
     1
102
RTVSPropertyOp23
 70
     1
102
RTVSPropertyOp24
 70
     1
102
RTVSPropertyOp25
 70
     1
102
RTVSPropertyOp26
 70
     1
102
RTVSPropertyOp27
 70
     1
102
RTVSPropertyOp28
 70
     1
102
RTVSPropertyOp29
 70
     1
102
RTVSPropertyOp30
 70
     1
102
RTVSPropertyOp31
 70
     1
102
RTVSPropertyOp32
 70
     1
102
RTVSPropertyOp33
 70
     1
102
RTVSPropertyOp34
 70
     1
102
RTVSPropertyOp35
 70
     1
102
RTVSPropertyOp36
 70
     1
102
RTVSPropertyOp37
 70
     1
102
RTVSPropertyOp38
 70
     1
102
RTVSPropertyOp39
 70
     1
102
RTVSPropertyOp40
 70
     1
102
RTVSPropertyOp41
 70
     1
102
RTVSPropertyOp42
 70
     1
102
RTVSPropertyOp43
 70
     1
102
RTVSPropertyOp44
 70
     1
102
RTVSPropertyOp45
 70
     1
102
RTVSPropertyOp46
 70
     1
102
RTVSPropertyOp47
 70
     1
102
RTVSPropertyOp48
 70
     1
102
RTVSPropertyOp49
 70
     1
102
RTVSPropertyOp50
 70
     1
102
RTVSPropertyOp51
 70
     0
102
RTVSPropertyOp52
 70
     0
102
RTVSPropertyOp53
 70
     1
102
RTVSPropertyOp54
 70
     1
102
RTVSPropertyOp55
 70
     1
102
RTVSPropertyOp56
 70
     1
102
RTVSPropertyOp57
 70
     1
102
RTVSPropertyOp58
 70
     1
102
RTVSPropertyOp59
 70
     1
102
RTVSPropertyOp60
 70
     1
102
RTVSPropertyOp61
 70
     1
102
RTVSPropertyOp62
 70
     1
  0
XRECORD
  5
39A
102
{ACAD_REACTORS
330
399
102
}
330
399
100
AcDbXrecord
280
     1
102
RTVSPost2010Prop28
280
     0
102
RTVSPost2010PropOp28
 70
     1
102
RTVSPost2010Prop29
280
     1
102
RTVSPost2010PropOp29
 70
     1
102
RTVSPost2010Prop30
280
     1
102
RTVSPost2010PropOp30
 70
     1
102
RTVSPost2010Prop31
280
     0
102
RTVSPost2010PropOp31
 70
     1
102
RTVSPost2010Prop32
280
     0
102
RTVSPost2010PropOp32
 70
     1
102
RTVSPost2010Prop33
280
     0
102
RTVSPost2010PropOp33
 70
     1
102
RTVSPost2010Prop34
280
     0
102
RTVSPost2010PropOp34
 70
     1
102
RTVSPost2010Prop35
280
     0
102
RTVSPost2010PropOp35
 70
     1
102
RTVSPost2010Prop36
280
     0
102
RTVSPost2010PropOp36
 70
     1
102
RTVSPost2010Prop37
 90
       50
102
RTVSPost2010PropOp37
 70
     1
102
RTVSPost2010Prop38
140
0.0
102
RTVSPost2010PropOp38
 70
     1
102
RTVSPost2010Prop39
140
1.0
102
RTVSPost2010PropOp39
 70
     1
102
RTVSPost2010Prop40
 90
        0
102
RTVSPost2010PropOp40
 70
     1
102
RTVSPost2010Prop41ColorIndex
 90
       18
102
RTVSPost2010Prop41ColorRGB
 90
        0
102
RTVSPost2010PropOp41
 70
     1
102
RTVSPost2010Prop42
 90
       50
102
RTVSPost2010PropOp42
 70
     1
102
RTVSPost2010Prop43
 90
        3
102
RTVSPost2010PropOp43
 70
     1
102
RTVSPost2010Prop44ColorIndex
 90
        5
102
RTVSPost2010Prop44ColorRGB
 90
      255
102
RTVSPost2010PropOp44
 70
     1
102
RTVSPost2010Prop45
280
     0
102
RTVSPost2010PropOp45
 70
     1
102
RTVSPost2010Prop46
 90
       50
102
RTVSPost2010PropOp46
 70
     1
102
RTVSPost2010Prop47
 90
       50
102
RTVSPost2010PropOp47
 70
     1
102
RTVSPost2010Prop48
 90
       50
102
RTVSPost2010PropOp48
 70
     1
102
RTVSPost2010Prop49
280
     0
102
RTVSPost2010PropOp49
 70
     1
102
RTVSPost2010Prop50
 90
       50
102
RTVSPost2010PropOp50
 70
     1
102
RTVSPost2010Prop51ColorIndex
 90
      256
102
RTVSPost2010Prop51ColorRGB
 90
-16777216
102
RTVSPost2010PropOp51
 70
     0
102
RTVSPost2010Prop52
140
1.0
102
RTVSPost2010PropOp52
 70
     0
102
RTVSPost2010Prop53
 90
        2
102
RTVSPost2010PropOp53
 70
     1
102
RTVSPost2010Prop54
  1
strokes_ogs.tif
102
RTVSPost2010PropOp54
 70
     1
102
RTVSPost2010Prop55
280
     0
102
RTVSPost2010PropOp55
 70
     1
102
RTVSPost2010Prop56
140
1.0
102
RTVSPost2010PropOp56
 70
     1
102
RTVSPost2010Prop57
140
1.0
102
RTVSPost2010PropOp57
 70
     1
102
RTVSPropertyOp0
 70
     1
102
RTVSPropertyOp1
 70
     1
102
RTVSPropertyOp2
 70
     1
102
RTVSPropertyOp3
 70
     1
102
RTVSPropertyOp4
 70
     1
102
RTVSPropertyOp5
 70
     1
102
RTVSPropertyOp6
 70
     1
102
RTVSPropertyOp7
 70
     1
102
RTVSPropertyOp8
 70
     1
102
RTVSPropertyOp9
 70
     1
102
RTVSPropertyOp10
 70
     1
102
RTVSPropertyOp11
 70
     1
102
RTVSPropertyOp12
 70
     1
102
RTVSPropertyOp13
 70
     1
102
RTVSPropertyOp14
 70
     1
102
RTVSPropertyOp15
 70
     1
102
RTVSPropertyOp16
 70
     1
102
RTVSPropertyOp17
 70
     1
102
RTVSPropertyOp18
 70
     1
102
RTVSPropertyOp19
 70
     1
102
RTVSPropertyOp20
 70
     1
102
RTVSPropertyOp21
 70
     1
102
RTVSPropertyOp22
 70
     1
102
RTVSPropertyOp23
 70
     1
102
RTVSPropertyOp24
 70
     1
102
RTVSPropertyOp25
 70
     1
102
RTVSPropertyOp26
 70
     1
102
RTVSPropertyOp27
 70
     1
102
RTVSPropertyOp28
 70
     1
102
RTVSPropertyOp29
 70
     1
102
RTVSPropertyOp30
 70
     1
102
RTVSPropertyOp31
 70
     1
102
RTVSPropertyOp32
 70
     1
102
RTVSPropertyOp33
 70
     1
102
RTVSPropertyOp34
 70
     1
102
RTVSPropertyOp35
 70
     1
102
RTVSPropertyOp36
 70
     1
102
RTVSPropertyOp37
 70
     1
102
RTVSPropertyOp38
 70
     1
102
RTVSPropertyOp39
 70
     1
102
RTVSPropertyOp40
 70
     1
102
RTVSPropertyOp41
 70
     1
102
RTVSPropertyOp42
 70
     1
102
RTVSPropertyOp43
 70
     1
102
RTVSPropertyOp44
 70
     1
102
RTVSPropertyOp45
 70
     1
102
RTVSPropertyOp46
 70
     1
102
RTVSPropertyOp47
 70
     1
102
RTVSPropertyOp48
 70
     1
102
RTVSPropertyOp49
 70
     1
102
RTVSPropertyOp50
 70
     1
102
RTVSPropertyOp51
 70
     0
102
RTVSPropertyOp52
 70
     0
102
RTVSPropertyOp53
 70
     1
102
RTVSPropertyOp54
 70
     1
102
RTVSPropertyOp55
 70
     1
102
RTVSPropertyOp56
 70
     1
102
RTVSPropertyOp57
 70
     1
102
RTVSPropertyOp58
 70
     1
102
RTVSPropertyOp59
 70
     1
102
RTVSPropertyOp60
 70
     1
102
RTVSPropertyOp61
 70
     1
102
RTVSPropertyOp62
 70
     1
  0
XRECORD
  5
38A
102
{ACAD_REACTORS
330
389
102
}
330
389
100
AcDbXrecord
280
     1
102
RTVSPost2010Prop28
280
     0
102
RTVSPost2010PropOp28
 70
     1
102
RTVSPost2010Prop29
280
     1
102
RTVSPost2010PropOp29
 70
     1
102
RTVSPost2010Prop30
280
     1
102
RTVSPost2010PropOp30
 70
     1
102
RTVSPost2010Prop31
280
     0
102
RTVSPost2010PropOp31
 70
     1
102
RTVSPost2010Prop32
280
     0
102
RTVSPost2010PropOp32
 70
     1
102
RTVSPost2010Prop33
280
     0
102
RTVSPost2010PropOp33
 70
     1
102
RTVSPost2010Prop34
280
     0
102
RTVSPost2010PropOp34
 70
     1
102
RTVSPost2010Prop35
280
     0
102
RTVSPost2010PropOp35
 70
     1
102
RTVSPost2010Prop36
280
     0
102
RTVSPost2010PropOp36
 70
     1
102
RTVSPost2010Prop37
 90
       50
102
RTVSPost2010PropOp37
 70
     1
102
RTVSPost2010Prop38
140
0.0
102
RTVSPost2010PropOp38
 70
     1
102
RTVSPost2010Prop39
140
1.0
102
RTVSPost2010PropOp39
 70
     1
102
RTVSPost2010Prop40
 90
        0
102
RTVSPost2010PropOp40
 70
     1
102
RTVSPost2010Prop41ColorIndex
 90
       18
102
RTVSPost2010Prop41ColorRGB
 90
        0
102
RTVSPost2010PropOp41
 70
     1
102
RTVSPost2010Prop42
 90
       50
102
RTVSPost2010PropOp42
 70
     1
102
RTVSPost2010Prop43
 90
        3
102
RTVSPost2010PropOp43
 70
     1
102
RTVSPost2010Prop44ColorIndex
 90
        5
102
RTVSPost2010Prop44ColorRGB
 90
      255
102
RTVSPost2010PropOp44
 70
     1
102
RTVSPost2010Prop45
280
     0
102
RTVSPost2010PropOp45
 70
     1
102
RTVSPost2010Prop46
 90
       50
102
RTVSPost2010PropOp46
 70
     1
102
RTVSPost2010Prop47
 90
       50
102
RTVSPost2010PropOp47
 70
     1
102
RTVSPost2010Prop48
 90
       50
102
RTVSPost2010PropOp48
 70
     1
102
RTVSPost2010Prop49
280
     0
102
RTVSPost2010PropOp49
 70
     1
102
RTVSPost2010Prop50
 90
       50
102
RTVSPost2010PropOp50
 70
     1
102
RTVSPost2010Prop51ColorIndex
 90
      256
102
RTVSPost2010Prop51ColorRGB
 90
-16777216
102
RTVSPost2010PropOp51
 70
     0
102
RTVSPost2010Prop52
140
1.0
102
RTVSPost2010PropOp52
 70
     0
102
RTVSPost2010Prop53
 90
        2
102
RTVSPost2010PropOp53
 70
     1
102
RTVSPost2010Prop54
  1
strokes_ogs.tif
102
RTVSPost2010PropOp54
 70
     1
102
RTVSPost2010Prop55
280
     0
102
RTVSPost2010PropOp55
 70
     1
102
RTVSPost2010Prop56
140
1.0
102
RTVSPost2010PropOp56
 70
     1
102
RTVSPost2010Prop57
140
1.0
102
RTVSPost2010PropOp57
 70
     1
102
RTVSPropertyOp0
 70
     1
102
RTVSPropertyOp1
 70
     1
102
RTVSPropertyOp2
 70
     1
102
RTVSPropertyOp3
 70
     1
102
RTVSPropertyOp4
 70
     1
102
RTVSPropertyOp5
 70
     1
102
RTVSPropertyOp6
 70
     1
102
RTVSPropertyOp7
 70
     1
102
RTVSPropertyOp8
 70
     1
102
RTVSPropertyOp9
 70
     1
102
RTVSPropertyOp10
 70
     1
102
RTVSPropertyOp11
 70
     1
102
RTVSPropertyOp12
 70
     1
102
RTVSPropertyOp13
 70
     1
102
RTVSPropertyOp14
 70
     1
102
RTVSPropertyOp15
 70
     1
102
RTVSPropertyOp16
 70
     1
102
RTVSPropertyOp17
 70
     1
102
RTVSPropertyOp18
 70
     1
102
RTVSPropertyOp19
 70
     1
102
RTVSPropertyOp20
 70
     1
102
RTVSPropertyOp21
 70
     1
102
RTVSPropertyOp22
 70
     1
102
RTVSPropertyOp23
 70
     1
102
RTVSPropertyOp24
 70
     1
102
RTVSPropertyOp25
 70
     1
102
RTVSPropertyOp26
 70
     1
102
RTVSPropertyOp27
 70
     1
102
RTVSPropertyOp28
 70
     1
102
RTVSPropertyOp29
 70
     1
102
RTVSPropertyOp30
 70
     1
102
RTVSPropertyOp31
 70
     1
102
RTVSPropertyOp32
 70
     1
102
RTVSPropertyOp33
 70
     1
102
RTVSPropertyOp34
 70
     1
102
RTVSPropertyOp35
 70
     1
102
RTVSPropertyOp36
 70
     1
102
RTVSPropertyOp37
 70
     1
102
RTVSPropertyOp38
 70
     1
102
RTVSPropertyOp39
 70
     1
102
RTVSPropertyOp40
 70
     1
102
RTVSPropertyOp41
 70
     1
102
RTVSPropertyOp42
 70
     1
102
RTVSPropertyOp43
 70
     1
102
RTVSPropertyOp44
 70
     1
102
RTVSPropertyOp45
 70
     1
102
RTVSPropertyOp46
 70
     1
102
RTVSPropertyOp47
 70
     1
102
RTVSPropertyOp48
 70
     1
102
RTVSPropertyOp49
 70
     1
102
RTVSPropertyOp50
 70
     1
102
RTVSPropertyOp51
 70
     0
102
RTVSPropertyOp52
 70
     0
102
RTVSPropertyOp53
 70
     1
102
RTVSPropertyOp54
 70
     1
102
RTVSPropertyOp55
 70
     1
102
RTVSPropertyOp56
 70
     1
102
RTVSPropertyOp57
 70
     1
102
RTVSPropertyOp58
 70
     1
102
RTVSPropertyOp59
 70
     1
102
RTVSPropertyOp60
 70
     1
102
RTVSPropertyOp61
 70
     1
102
RTVSPropertyOp62
 70
     1
  0
XRECORD
  5
37C
102
{ACAD_REACTORS
330
37B
102
}
330
37B
100
AcDbXrecord
280
     1
102
RTVSPost2010Prop28
280
     0
102
RTVSPost2010PropOp28
 70
     1
102
RTVSPost2010Prop29
280
     1
102
RTVSPost2010PropOp29
 70
     1
102
RTVSPost2010Prop30
280
     1
102
RTVSPost2010PropOp30
 70
     1
102
RTVSPost2010Prop31
280
     0
102
RTVSPost2010PropOp31
 70
     1
102
RTVSPost2010Prop32
280
     0
102
RTVSPost2010PropOp32
 70
     1
102
RTVSPost2010Prop33
280
     0
102
RTVSPost2010PropOp33
 70
     1
102
RTVSPost2010Prop34
280
     0
102
RTVSPost2010PropOp34
 70
     1
102
RTVSPost2010Prop35
280
     0
102
RTVSPost2010PropOp35
 70
     1
102
RTVSPost2010Prop36
280
     0
102
RTVSPost2010PropOp36
 70
     1
102
RTVSPost2010Prop37
 90
       50
102
RTVSPost2010PropOp37
 70
     1
102
RTVSPost2010Prop38
140
0.0
102
RTVSPost2010PropOp38
 70
     1
102
RTVSPost2010Prop39
140
1.0
102
RTVSPost2010PropOp39
 70
     1
102
RTVSPost2010Prop40
 90
        0
102
RTVSPost2010PropOp40
 70
     1
102
RTVSPost2010Prop41ColorIndex
 90
       18
102
RTVSPost2010Prop41ColorRGB
 90
        0
102
RTVSPost2010PropOp41
 70
     1
102
RTVSPost2010Prop42
 90
       50
102
RTVSPost2010PropOp42
 70
     1
102
RTVSPost2010Prop43
 90
        3
102
RTVSPost2010PropOp43
 70
     1
102
RTVSPost2010Prop44ColorIndex
 90
        5
102
RTVSPost2010Prop44ColorRGB
 90
      255
102
RTVSPost2010PropOp44
 70
     1
102
RTVSPost2010Prop45
280
     0
102
RTVSPost2010PropOp45
 70
     1
102
RTVSPost2010Prop46
 90
       50
102
RTVSPost2010PropOp46
 70
     1
102
RTVSPost2010Prop47
 90
       50
102
RTVSPost2010PropOp47
 70
     1
102
RTVSPost2010Prop48
 90
       50
102
RTVSPost2010PropOp48
 70
     1
102
RTVSPost2010Prop49
280
     0
102
RTVSPost2010PropOp49
 70
     1
102
RTVSPost2010Prop50
 90
       50
102
RTVSPost2010PropOp50
 70
     1
102
RTVSPost2010Prop51ColorIndex
 90
      256
102
RTVSPost2010Prop51ColorRGB
 90
-16777216
102
RTVSPost2010PropOp51
 70
     0
102
RTVSPost2010Prop52
140
1.0
102
RTVSPost2010PropOp52
 70
     0
102
RTVSPost2010Prop53
 90
        2
102
RTVSPost2010PropOp53
 70
     1
102
RTVSPost2010Prop54
  1
strokes_ogs.tif
102
RTVSPost2010PropOp54
 70
     1
102
RTVSPost2010Prop55
280
     0
102
RTVSPost2010PropOp55
 70
     1
102
RTVSPost2010Prop56
140
1.0
102
RTVSPost2010PropOp56
 70
     1
102
RTVSPost2010Prop57
140
1.0
102
RTVSPost2010PropOp57
 70
     1
102
RTVSPropertyOp0
 70
     1
102
RTVSPropertyOp1
 70
     1
102
RTVSPropertyOp2
 70
     1
102
RTVSPropertyOp3
 70
     1
102
RTVSPropertyOp4
 70
     1
102
RTVSPropertyOp5
 70
     1
102
RTVSPropertyOp6
 70
     1
102
RTVSPropertyOp7
 70
     1
102
RTVSPropertyOp8
 70
     1
102
RTVSPropertyOp9
 70
     1
102
RTVSPropertyOp10
 70
     1
102
RTVSPropertyOp11
 70
     1
102
RTVSPropertyOp12
 70
     1
102
RTVSPropertyOp13
 70
     1
102
RTVSPropertyOp14
 70
     1
102
RTVSPropertyOp15
 70
     1
102
RTVSPropertyOp16
 70
     1
102
RTVSPropertyOp17
 70
     1
102
RTVSPropertyOp18
 70
     1
102
RTVSPropertyOp19
 70
     1
102
RTVSPropertyOp20
 70
     1
102
RTVSPropertyOp21
 70
     1
102
RTVSPropertyOp22
 70
     1
102
RTVSPropertyOp23
 70
     1
102
RTVSPropertyOp24
 70
     1
102
RTVSPropertyOp25
 70
     1
102
RTVSPropertyOp26
 70
     1
102
RTVSPropertyOp27
 70
     1
102
RTVSPropertyOp28
 70
     1
102
RTVSPropertyOp29
 70
     1
102
RTVSPropertyOp30
 70
     1
102
RTVSPropertyOp31
 70
     1
102
RTVSPropertyOp32
 70
     1
102
RTVSPropertyOp33
 70
     1
102
RTVSPropertyOp34
 70
     1
102
RTVSPropertyOp35
 70
     1
102
RTVSPropertyOp36
 70
     1
102
RTVSPropertyOp37
 70
     1
102
RTVSPropertyOp38
 70
     1
102
RTVSPropertyOp39
 70
     1
102
RTVSPropertyOp40
 70
     1
102
RTVSPropertyOp41
 70
     1
102
RTVSPropertyOp42
 70
     1
102
RTVSPropertyOp43
 70
     1
102
RTVSPropertyOp44
 70
     1
102
RTVSPropertyOp45
 70
     1
102
RTVSPropertyOp46
 70
     1
102
RTVSPropertyOp47
 70
     1
102
RTVSPropertyOp48
 70
     1
102
RTVSPropertyOp49
 70
     1
102
RTVSPropertyOp50
 70
     1
102
RTVSPropertyOp51
 70
     0
102
RTVSPropertyOp52
 70
     0
102
RTVSPropertyOp53
 70
     1
102
RTVSPropertyOp54
 70
     1
102
RTVSPropertyOp55
 70
     1
102
RTVSPropertyOp56
 70
     1
102
RTVSPropertyOp57
 70
     1
102
RTVSPropertyOp58
 70
     1
102
RTVSPropertyOp59
 70
     1
102
RTVSPropertyOp60
 70
     1
102
RTVSPropertyOp61
 70
     1
102
RTVSPropertyOp62
 70
     1
  0
XRECORD
  5
39C
102
{ACAD_REACTORS
330
39B
102
}
330
39B
100
AcDbXrecord
280
     1
102
RTVSPost2010Prop28
280
     0
102
RTVSPost2010PropOp28
 70
     1
102
RTVSPost2010Prop29
280
     1
102
RTVSPost2010PropOp29
 70
     1
102
RTVSPost2010Prop30
280
     1
102
RTVSPost2010PropOp30
 70
     1
102
RTVSPost2010Prop31
280
     0
102
RTVSPost2010PropOp31
 70
     1
102
RTVSPost2010Prop32
280
     0
102
RTVSPost2010PropOp32
 70
     1
102
RTVSPost2010Prop33
280
     0
102
RTVSPost2010PropOp33
 70
     1
102
RTVSPost2010Prop34
280
     0
102
RTVSPost2010PropOp34
 70
     1
102
RTVSPost2010Prop35
280
     0
102
RTVSPost2010PropOp35
 70
     1
102
RTVSPost2010Prop36
280
     0
102
RTVSPost2010PropOp36
 70
     1
102
RTVSPost2010Prop37
 90
       50
102
RTVSPost2010PropOp37
 70
     1
102
RTVSPost2010Prop38
140
0.0
102
RTVSPost2010PropOp38
 70
     1
102
RTVSPost2010Prop39
140
1.0
102
RTVSPost2010PropOp39
 70
     1
102
RTVSPost2010Prop40
 90
        0
102
RTVSPost2010PropOp40
 70
     1
102
RTVSPost2010Prop41ColorIndex
 90
       18
102
RTVSPost2010Prop41ColorRGB
 90
        0
102
RTVSPost2010PropOp41
 70
     1
102
RTVSPost2010Prop42
 90
       50
102
RTVSPost2010PropOp42
 70
     1
102
RTVSPost2010Prop43
 90
        3
102
RTVSPost2010PropOp43
 70
     1
102
RTVSPost2010Prop44ColorIndex
 90
        5
102
RTVSPost2010Prop44ColorRGB
 90
      255
102
RTVSPost2010PropOp44
 70
     1
102
RTVSPost2010Prop45
280
     0
102
RTVSPost2010PropOp45
 70
     1
102
RTVSPost2010Prop46
 90
       50
102
RTVSPost2010PropOp46
 70
     1
102
RTVSPost2010Prop47
 90
       50
102
RTVSPost2010PropOp47
 70
     1
102
RTVSPost2010Prop48
 90
       50
102
RTVSPost2010PropOp48
 70
     1
102
RTVSPost2010Prop49
280
     0
102
RTVSPost2010PropOp49
 70
     1
102
RTVSPost2010Prop50
 90
       50
102
RTVSPost2010PropOp50
 70
     1
102
RTVSPost2010Prop51ColorIndex
 90
      256
102
RTVSPost2010Prop51ColorRGB
 90
-16777216
102
RTVSPost2010PropOp51
 70
     0
102
RTVSPost2010Prop52
140
1.0
102
RTVSPost2010PropOp52
 70
     0
102
RTVSPost2010Prop53
 90
        2
102
RTVSPost2010PropOp53
 70
     1
102
RTVSPost2010Prop54
  1
strokes_ogs.tif
102
RTVSPost2010PropOp54
 70
     1
102
RTVSPost2010Prop55
280
     0
102
RTVSPost2010PropOp55
 70
     1
102
RTVSPost2010Prop56
140
1.0
102
RTVSPost2010PropOp56
 70
     1
102
RTVSPost2010Prop57
140
1.0
102
RTVSPost2010PropOp57
 70
     1
102
RTVSPropertyOp0
 70
     1
102
RTVSPropertyOp1
 70
     1
102
RTVSPropertyOp2
 70
     1
102
RTVSPropertyOp3
 70
     1
102
RTVSPropertyOp4
 70
     1
102
RTVSPropertyOp5
 70
     1
102
RTVSPropertyOp6
 70
     1
102
RTVSPropertyOp7
 70
     1
102
RTVSPropertyOp8
 70
     1
102
RTVSPropertyOp9
 70
     1
102
RTVSPropertyOp10
 70
     1
102
RTVSPropertyOp11
 70
     1
102
RTVSPropertyOp12
 70
     1
102
RTVSPropertyOp13
 70
     1
102
RTVSPropertyOp14
 70
     1
102
RTVSPropertyOp15
 70
     1
102
RTVSPropertyOp16
 70
     1
102
RTVSPropertyOp17
 70
     1
102
RTVSPropertyOp18
 70
     1
102
RTVSPropertyOp19
 70
     1
102
RTVSPropertyOp20
 70
     1
102
RTVSPropertyOp21
 70
     1
102
RTVSPropertyOp22
 70
     1
102
RTVSPropertyOp23
 70
     1
102
RTVSPropertyOp24
 70
     1
102
RTVSPropertyOp25
 70
     1
102
RTVSPropertyOp26
 70
     1
102
RTVSPropertyOp27
 70
     1
102
RTVSPropertyOp28
 70
     1
102
RTVSPropertyOp29
 70
     1
102
RTVSPropertyOp30
 70
     1
102
RTVSPropertyOp31
 70
     1
102
RTVSPropertyOp32
 70
     1
102
RTVSPropertyOp33
 70
     1
102
RTVSPropertyOp34
 70
     1
102
RTVSPropertyOp35
 70
     1
102
RTVSPropertyOp36
 70
     1
102
RTVSPropertyOp37
 70
     1
102
RTVSPropertyOp38
 70
     1
102
RTVSPropertyOp39
 70
     1
102
RTVSPropertyOp40
 70
     1
102
RTVSPropertyOp41
 70
     1
102
RTVSPropertyOp42
 70
     1
102
RTVSPropertyOp43
 70
     1
102
RTVSPropertyOp44
 70
     1
102
RTVSPropertyOp45
 70
     1
102
RTVSPropertyOp46
 70
     1
102
RTVSPropertyOp47
 70
     1
102
RTVSPropertyOp48
 70
     1
102
RTVSPropertyOp49
 70
     1
102
RTVSPropertyOp50
 70
     1
102
RTVSPropertyOp51
 70
     0
102
RTVSPropertyOp52
 70
     0
102
RTVSPropertyOp53
 70
     1
102
RTVSPropertyOp54
 70
     1
102
RTVSPropertyOp55
 70
     1
102
RTVSPropertyOp56
 70
     1
102
RTVSPropertyOp57
 70
     1
102
RTVSPropertyOp58
 70
     1
102
RTVSPropertyOp59
 70
     1
102
RTVSPropertyOp60
 70
     1
102
RTVSPropertyOp61
 70
     1
102
RTVSPropertyOp62
 70
     1
  0
ENDSEC
  0
EOF
