  0
SECTION
  2
HEADER
  9
$ACADVER
  1
AC1018
  9
$ACADMAINTVER
 70
   104
  9
$DWGCODEPAGE
  3
ANSI_1250
  9
$LASTSAVEDBY
  1
wq7085
  9
$INSBASE
 10
0.0
 20
0.0
 30
0.0
  9
$EXTMIN
 10
188.6658343333333
 20
122.034924
 30
0.0
  9
$EXTMAX
 10
384.942939
 20
345.2288016666667
 30
0.0
  9
$LIMMIN
 10
-0.5
 20
-0.5
  9
$LIMMAX
 10
5.0
 20
5.0
  9
$ORTHOMODE
 70
     0
  9
$REGENMODE
 70
     1
  9
$FILLMODE
 70
     1
  9
$QTEXTMODE
 70
     0
  9
$MIRRTEXT
 70
     1
  9
$LTSCALE
 40
1.0
  9
$ATTMODE
 70
     1
  9
$TEXTSIZE
 40
0.2
  9
$TRACEWID
 40
0.05
  9
$TEXTSTYLE
  7
Standard
  9
$CLAYER
  8
0
  9
$CELTYPE
  6
ByLayer
  9
$CECOLOR
 62
   256
  9
$CELTSCALE
 40
1.0
  9
$DISPSILH
 70
     0
  9
$DIMSCALE
 40
1.0
  9
$DIMASZ
 40
0.18
  9
$DIMEXO
 40
0.0625
  9
$DIMDLI
 40
0.38
  9
$DIMRND
 40
0.0
  9
$DIMDLE
 40
0.0
  9
$DIMEXE
 40
0.18
  9
$DIMTP
 40
0.0
  9
$DIMTM
 40
0.0
  9
$DIMTXT
 40
0.18
  9
$DIMCEN
 40
0.09
  9
$DIMTSZ
 40
0.0
  9
$DIMTOL
 70
     0
  9
$DIMLIM
 70
     0
  9
$DIMTIH
 70
     1
  9
$DIMTOH
 70
     1
  9
$DIMSE1
 70
     0
  9
$DIMSE2
 70
     0
  9
$DIMTAD
 70
     0
  9
$DIMZIN
 70
     0
  9
$DIMBLK
  1

  9
$DIMASO
 70
     1
  9
$DIMSHO
 70
     1
  9
$DIMPOST
  1

  9
$DIMAPOST
  1

  9
$DIMALT
 70
     0
  9
$DIMALTD
 70
     2
  9
$DIMALTF
 40
25.4
  9
$DIMLFAC
 40
1.0
  9
$DIMTOFL
 70
     0
  9
$DIMTVP
 40
0.0
  9
$DIMTIX
 70
     0
  9
$DIMSOXD
 70
     0
  9
$DIMSAH
 70
     0
  9
$DIMBLK1
  1

  9
$DIMBLK2
  1

  9
$DIMSTYLE
  2
Standard
  9
$DIMCLRD
 70
     0
  9
$DIMCLRE
 70
     0
  9
$DIMCLRT
 70
     0
  9
$DIMTFAC
 40
1.0
  9
$DIMGAP
 40
0.09
  9
$DIMJUST
 70
     0
  9
$DIMSD1
 70
     0
  9
$DIMSD2
 70
     0
  9
$DIMTOLJ
 70
     1
  9
$DIMTZIN
 70
     0
  9
$DIMALTZ
 70
     0
  9
$DIMALTTZ
 70
     0
  9
$DIMUPT
 70
     0
  9
$DIMDEC
 70
     4
  9
$DIMTDEC
 70
     4
  9
$DIMALTU
 70
     2
  9
$DIMALTTD
 70
     2
  9
$DIMTXSTY
  7
Standard
  9
$DIMAUNIT
 70
     0
  9
$DIMADEC
 70
     0
  9
$DIMALTRND
 40
0.0
  9
$DIMAZIN
 70
     0
  9
$DIMDSEP
 70
    46
  9
$DIMATFIT
 70
     3
  9
$DIMFRAC
 70
     0
  9
$DIMLDRBLK
  1

  9
$DIMLUNIT
 70
     2
  9
$DIMLWD
 70
    -2
  9
$DIMLWE
 70
    -2
  9
$DIMTMOVE
 70
     0
  9
$LUNITS
 70
     2
  9
$LUPREC
 70
     4
  9
$SKETCHINC
 40
0.1
  9
$FILLETRAD
 40
0.5
  9
$AUNITS
 70
     0
  9
$AUPREC
 70
     0
  9
$MENU
  1
.
  9
$ELEVATION
 40
0.0
  9
$PELEVATION
 40
0.0
  9
$THICKNESS
 40
0.0
  9
$LIMCHECK
 70
     0
  9
$CHAMFERA
 40
0.0
  9
$CHAMFERB
 40
0.0
  9
$CHAMFERC
 40
0.0
  9
$CHAMFERD
 40
0.0
  9
$SKPOLY
 70
     0
  9
$TDCREATE
 40
2459004.444537037
  9
$TDUCREATE
 40
2459004.361204167
  9
$TDUPDATE
 40
2459004.445729167
  9
$TDUUPDATE
 40
2459004.362395833
  9
$TDINDWG
 40
0.0006828819
  9
$TDUSRTIMER
 40
0.0006828819
  9
$USRTIMER
 70
     1
  9
$ANGBASE
 50
0.0
  9
$ANGDIR
 70
     0
  9
$PDMODE
 70
     0
  9
$PDSIZE
 40
0.0
  9
$PLINEWID
 40
0.0
  9
$SPLFRAME
 70
     0
  9
$SPLINETYPE
 70
     6
  9
$SPLINESEGS
 70
     8
  9
$HANDSEED
  5
39B
  9
$SURFTAB1
 70
     6
  9
$SURFTAB2
 70
     6
  9
$SURFTYPE
 70
     6
  9
$SURFU
 70
     6
  9
$SURFV
 70
     6
  9
$UCSBASE
  2

  9
$UCSNAME
  2

  9
$UCSORG
 10
274.404842
 20
288.907994
 30
0.0
  9
$UCSXDIR
 10
1.0
 20
0.0
 30
0.0
  9
$UCSYDIR
 10
0.0
 20
1.0
 30
0.0
  9
$UCSORTHOREF
  2

  9
$UCSORTHOVIEW
 70
     0
  9
$UCSORGTOP
 10
0.0
 20
0.0
 30
0.0
  9
$UCSORGBOTTOM
 10
0.0
 20
0.0
 30
0.0
  9
$UCSORGLEFT
 10
0.0
 20
0.0
 30
0.0
  9
$UCSORGRIGHT
 10
0.0
 20
0.0
 30
0.0
  9
$UCSORGFRONT
 10
0.0
 20
0.0
 30
0.0
  9
$UCSORGBACK
 10
0.0
 20
0.0
 30
0.0
  9
$PUCSBASE
  2

  9
$PUCSNAME
  2

  9
$PUCSORG
 10
0.0
 20
0.0
 30
0.0
  9
$PUCSXDIR
 10
1.0
 20
0.0
 30
0.0
  9
$PUCSYDIR
 10
0.0
 20
1.0
 30
0.0
  9
$PUCSORTHOREF
  2

  9
$PUCSORTHOVIEW
 70
     0
  9
$PUCSORGTOP
 10
0.0
 20
0.0
 30
0.0
  9
$PUCSORGBOTTOM
 10
0.0
 20
0.0
 30
0.0
  9
$PUCSORGLEFT
 10
0.0
 20
0.0
 30
0.0
  9
$PUCSORGRIGHT
 10
0.0
 20
0.0
 30
0.0
  9
$PUCSORGFRONT
 10
0.0
 20
0.0
 30
0.0
  9
$PUCSORGBACK
 10
0.0
 20
0.0
 30
0.0
  9
$USERI1
 70
     0
  9
$USERI2
 70
     0
  9
$USERI3
 70
     0
  9
$USERI4
 70
     0
  9
$USERI5
 70
     0
  9
$USERR1
 40
0.0
  9
$USERR2
 40
0.0
  9
$USERR3
 40
0.0
  9
$USERR4
 40
0.0
  9
$USERR5
 40
0.0
  9
$WORLDVIEW
 70
     1
  9
$SHADEDGE
 70
     3
  9
$SHADEDIF
 70
    70
  9
$TILEMODE
 70
     1
  9
$MAXACTVP
 70
    64
  9
$PINSBASE
 10
0.0
 20
0.0
 30
0.0
  9
$PLIMCHECK
 70
     0
  9
$PEXTMIN
 10
-0.5
 20
-0.5
 30
-0.5
  9
$PEXTMAX
 10
5.0
 20
5.0
 30
5.0
  9
$PLIMMIN
 10
-0.5
 20
-0.5
  9
$PLIMMAX
 10
5.0
 20
5.0
  9
$UNITMODE
 70
     0
  9
$VISRETAIN
 70
     1
  9
$PLINEGEN
 70
     0
  9
$PSLTSCALE
 70
     1
  9
$TREEDEPTH
 70
  3020
  9
$CMLSTYLE
  2
Standard
  9
$CMLJUST
 70
     0
  9
$CMLSCALE
 40
1.0
  9
$PROXYGRAPHICS
 70
     1
  9
$MEASUREMENT
 70
     1
  9
$CELWEIGHT
370
    13
  9
$ENDCAPS
280
     0
  9
$JOINSTYLE
280
     0
  9
$LWDISPLAY
290
     0
  9
$INSUNITS
 70
     4
  9
$HYPERLINKBASE
  1

  9
$STYLESHEET
  1

  9
$XEDIT
290
     1
  9
$CEPSNTYPE
380
     0
  9
$PSTYLEMODE
290
     1
  9
$FINGERPRINTGUID
  2
{071E9311-25D3-4343-8D97-C83055E46A89}
  9
$VERSIONGUID
  2
{7965DEBC-912F-2F4C-8583-B191D61B4806}
  9
$EXTNAMES
290
     1
  9
$PSVPSCALE
 40
0.0
  9
$OLESTARTUP
290
     0
  9
$SORTENTS
280
   127
  9
$INDEXCTL
280
     0
  9
$HIDETEXT
280
     1
  9
$XCLIPFRAME
290
     0
  9
$HALOGAP
280
     0
  9
$OBSCOLOR
 70
   257
  9
$OBSLTYPE
280
     0
  9
$INTERSECTIONDISPLAY
280
     0
  9
$INTERSECTIONCOLOR
 70
   257
  9
$DIMASSOC
280
     2
  9
$PROJECTNAME
  1

  0
ENDSEC
  0
SECTION
  2
CLASSES
  0
CLASS
  1
ACDBDICTIONARYWDFLT
  2
AcDbDictionaryWithDefault
  3
ObjectDBX Classes
 90
        0
 91
        1
280
     0
281
     0
  0
CLASS
  1
VISUALSTYLE
  2
AcDbVisualStyle
  3
ObjectDBX Classes
 90
     4095
 91
       24
280
     0
281
     0
  0
CLASS
  1
MATERIAL
  2
AcDbMaterial
  3
ObjectDBX Classes
 90
     1153
 91
        3
280
     0
281
     0
  0
CLASS
  1
SCALE
  2
AcDbScale
  3
ObjectDBX Classes
 90
     1153
 91
       33
280
     0
281
     0
  0
CLASS
  1
TABLESTYLE
  2
AcDbTableStyle
  3
ObjectDBX Classes
 90
     4095
 91
        1
280
     0
281
     0
  0
CLASS
  1
MLEADERSTYLE
  2
AcDbMLeaderStyle
  3
ACDB_MLEADERSTYLE_CLASS
 90
     4095
 91
        1
280
     0
281
     0
  0
CLASS
  1
SUN
  2
AcDbSun
  3
SCENEOE
 90
     1153
 91
        0
280
     0
281
     0
  0
CLASS
  1
DIMASSOC
  2
AcDbDimAssoc
  3
"AcDbDimAssoc|Product Desc:     AcDim ARX App For Dimension|Company:          Autodesk, Inc.|WEB Address:      www.autodesk.com"
 90
        0
 91
        7
280
     0
281
     0
  0
CLASS
  1
DICTIONARYVAR
  2
AcDbDictionaryVar
  3
ObjectDBX Classes
 90
        0
 91
        8
280
     0
281
     0
  0
CLASS
  1
CELLSTYLEMAP
  2
AcDbCellStyleMap
  3
ObjectDBX Classes
 90
     1152
 91
        2
280
     0
281
     0
  0
CLASS
  1
ACDBSECTIONVIEWSTYLE
  2
AcDbSectionViewStyle
  3
ObjectDBX Classes
 90
     1025
 91
        1
280
     0
281
     0
  0
CLASS
  1
ACDBDETAILVIEWSTYLE
  2
AcDbDetailViewStyle
  3
ObjectDBX Classes
 90
     1025
 91
        1
280
     0
281
     0
  0
CLASS
  1
SORTENTSTABLE
  2
AcDbSortentsTable
  3
ObjectDBX Classes
 90
        0
 91
        1
280
     0
281
     0
  0
ENDSEC
  0
SECTION
  2
TABLES
  0
TABLE
  2
VPORT
  5
8
330
0
100
AcDbSymbolTable
 70
    16
  0
VPORT
  5
29
330
8
100
AcDbSymbolTableRecord
100
AcDbViewportTableRecord
  2
*Active
 70
     0
 10
0.0
 20
0.0
 11
1.0
 21
1.0
 12
306.4833113352234
 22
285.6137585082677
 13
0.0
 23
0.0
 14
0.5
 24
0.5
 15
0.5
 25
0.5
 16
0.0
 26
0.0
 36
1.0
 17
0.0
 27
0.0
 37
0.0
 40
208.1811012735008
 41
2.283154121863799
 42
50.0
 43
382.241299
 44
-382.241299
 50
0.0
 51
0.0
 71
     0
 72
   100
 73
     1
 74
     3
 75
     0
 76
     0
 77
     0
 78
     0
281
     0
 65
     1
110
274.404842
120
288.907994
130
0.0
111
1.0
121
0.0
131
0.0
112
0.0
122
1.0
132
0.0
 79
     0
146
0.0
1001
ACAD_NAV_VCDISPLAY
1070
     3
  0
VPORT
  5
29F
330
8
100
AcDbSymbolTableRecord
100
AcDbViewportTableRecord
  2
L1
 70
     0
 10
0.0
 20
0.0
 11
1.0
 21
1.0
 12
286.300179
 22
233.607903
 13
0.0
 23
0.0
 14
0.5
 24
0.5
 15
0.5
 25
0.5
 16
0.0
 26
0.0
 36
1.0
 17
0.0
 27
0.0
 37
0.0
 40
207.433333
 41
0.085602
 42
50.0
 43
382.241299
 44
-382.241299
 50
0.0
 51
0.0
 71
     0
 72
   100
 73
     1
 74
     3
 75
     0
 76
     0
 77
     0
 78
     0
281
     0
 65
     1
110
0.0
120
0.0
130
0.0
111
1.0
121
0.0
131
0.0
112
0.0
122
1.0
132
0.0
 79
     0
146
0.0
  0
VPORT
  5
2A0
330
8
100
AcDbSymbolTableRecord
100
AcDbViewportTableRecord
  2
L2
 70
     0
 10
0.0
 20
0.0
 11
0.5
 21
1.0
 12
0.0
 22
0.0
 13
0.0
 23
0.0
 14
0.5
 24
0.5
 15
0.5
 25
0.5
 16
0.0
 26
-1.0
 36
0.0
 17
0.0
 27
0.0
 37
0.0
 40
1319.735116
 41
0.013455
 42
50.0
 43
679.920199
 44
-679.920199
 50
0.0
 51
0.0
 71
     0
 72
   100
 73
     1
 74
     3
 75
     0
 76
     0
 77
     0
 78
     0
281
     0
 65
     1
110
0.0
120
0.0
130
0.0
111
1.0
121
0.0
131
0.0
112
0.0
122
1.0
132
0.0
 79
     0
146
0.0
  0
VPORT
  5
2A1
330
8
100
AcDbSymbolTableRecord
100
AcDbViewportTableRecord
  2
L2
 70
     0
 10
0.5
 20
0.0
 11
1.0
 21
1.0
 12
0.0
 22
0.0
 13
0.0
 23
0.0
 14
0.5
 24
0.5
 15
0.5
 25
0.5
 16
1.0
 26
0.0
 36
0.0
 17
0.0
 27
0.0
 37
0.0
 40
1319.735116
 41
0.013455
 42
50.0
 43
667.9688169999999
 44
-667.9688169999999
 50
0.0
 51
0.0
 71
     0
 72
   100
 73
     1
 74
     3
 75
     0
 76
     0
 77
     0
 78
     0
281
     0
 65
     1
110
0.0
120
0.0
130
0.0
111
1.0
121
0.0
131
0.0
112
0.0
122
1.0
132
0.0
 79
     0
146
0.0
  0
VPORT
  5
2A2
330
8
100
AcDbSymbolTableRecord
100
AcDbViewportTableRecord
  2
L3
 70
     0
 10
0.0
 20
0.5
 11
1.0
 21
1.0
 12
286.300179
 22
233.607903
 13
0.0
 23
0.0
 14
0.5
 24
0.5
 15
0.5
 25
0.5
 16
0.0
 26
0.0
 36
1.0
 17
0.0
 27
0.0
 37
0.0
 40
207.433333
 41
0.085602
 42
50.0
 43
382.241299
 44
-382.241299
 50
0.0
 51
0.0
 71
     0
 72
   100
 73
     1
 74
     3
 75
     0
 76
     0
 77
     0
 78
     0
281
     0
 65
     1
110
0.0
120
0.0
130
0.0
111
1.0
121
0.0
131
0.0
112
0.0
122
1.0
132
0.0
 79
     0
146
0.0
  0
VPORT
  5
2A3
330
8
100
AcDbSymbolTableRecord
100
AcDbViewportTableRecord
  2
L3
 70
     0
 10
0.0
 20
0.0
 11
1.0
 21
0.5
 12
0.0
 22
0.0
 13
0.0
 23
0.0
 14
0.5
 24
0.5
 15
0.5
 25
0.5
 16
0.0
 26
-1.0
 36
0.0
 17
0.0
 27
0.0
 37
0.0
 40
1319.735116
 41
0.013455
 42
50.0
 43
679.920199
 44
-679.920199
 50
0.0
 51
0.0
 71
     0
 72
   100
 73
     1
 74
     3
 75
     0
 76
     0
 77
     0
 78
     0
281
     0
 65
     1
110
0.0
120
0.0
130
0.0
111
1.0
121
0.0
131
0.0
112
0.0
122
1.0
132
0.0
 79
     0
146
0.0
  0
VPORT
  5
2A4
330
8
100
AcDbSymbolTableRecord
100
AcDbViewportTableRecord
  2
L4
 70
     0
 10
0.0
 20
0.5
 11
0.5
 21
1.0
 12
286.300179
 22
233.607903
 13
0.0
 23
0.0
 14
0.5
 24
0.5
 15
0.5
 25
0.5
 16
0.0
 26
0.0
 36
1.0
 17
0.0
 27
0.0
 37
0.0
 40
207.433333
 41
0.085602
 42
50.0
 43
382.241299
 44
-382.241299
 50
0.0
 51
0.0
 71
     0
 72
   100
 73
     1
 74
     3
 75
     0
 76
     0
 77
     0
 78
     0
281
     0
 65
     1
110
0.0
120
0.0
130
0.0
111
1.0
121
0.0
131
0.0
112
0.0
122
1.0
132
0.0
 79
     0
146
0.0
  0
VPORT
  5
2A5
330
8
100
AcDbSymbolTableRecord
100
AcDbViewportTableRecord
  2
L4
 70
     0
 10
0.0
 20
0.0
 11
0.5
 21
0.5
 12
0.0
 22
0.0
 13
0.0
 23
0.0
 14
0.5
 24
0.5
 15
0.5
 25
0.5
 16
0.0
 26
-1.0
 36
0.0
 17
0.0
 27
0.0
 37
0.0
 40
1319.735116
 41
0.013455
 42
50.0
 43
679.920199
 44
-679.920199
 50
0.0
 51
0.0
 71
     0
 72
   100
 73
     1
 74
     3
 75
     0
 76
     0
 77
     0
 78
     0
281
     0
 65
     1
110
0.0
120
0.0
130
0.0
111
1.0
121
0.0
131
0.0
112
0.0
122
1.0
132
0.0
 79
     0
146
0.0
  0
VPORT
  5
2A6
330
8
100
AcDbSymbolTableRecord
100
AcDbViewportTableRecord
  2
L4
 70
     0
 10
0.5
 20
0.0
 11
1.0
 21
0.5
 12
0.0
 22
0.0
 13
0.0
 23
0.0
 14
0.5
 24
0.5
 15
0.5
 25
0.5
 16
1.0
 26
0.0
 36
0.0
 17
0.0
 27
0.0
 37
0.0
 40
1319.735116
 41
0.013455
 42
50.0
 43
667.9688169999999
 44
-667.9688169999999
 50
0.0
 51
0.0
 71
     0
 72
   100
 73
     1
 74
     3
 75
     0
 76
     0
 77
     0
 78
     0
281
     0
 65
     1
110
0.0
120
0.0
130
0.0
111
1.0
121
0.0
131
0.0
112
0.0
122
1.0
132
0.0
 79
     0
146
0.0
  0
VPORT
  5
2A7
330
8
100
AcDbSymbolTableRecord
100
AcDbViewportTableRecord
  2
L4
 70
     0
 10
0.5
 20
0.5
 11
1.0
 21
1.0
 12
0.0
 22
0.0
 13
0.0
 23
0.0
 14
0.5
 24
0.5
 15
0.5
 25
0.5
 16
0.5773502691896259
 26
-0.5773502691896259
 36
0.5773502691896259
 17
0.0
 27
0.0
 37
0.0
 40
1296.074958
 41
0.0137
 42
50.0
 43
675.1032679999999
 44
-675.1032679999999
 50
0.0
 51
0.0
 71
     0
 72
   100
 73
     1
 74
     3
 75
     0
 76
     0
 77
     0
 78
     0
281
     0
 65
     1
110
0.0
120
0.0
130
0.0
111
1.0
121
0.0
131
0.0
112
0.0
122
1.0
132
0.0
 79
     0
146
0.0
  0
VPORT
  5
2A8
330
8
100
AcDbSymbolTableRecord
100
AcDbViewportTableRecord
  2
L6
 70
     0
 10
0.0
 20
0.5
 11
0.333333
 21
1.0
 12
0.0
 22
0.0
 13
0.0
 23
0.0
 14
0.5
 24
0.5
 15
0.5
 25
0.5
 16
0.7188730927569434
 26
-0.5850486126764433
 36
0.3754192287502549
 17
0.0
 27
0.0
 37
0.0
 40
1367.812327
 41
0.012982
 42
50.0
 43
708.2012429999999
 44
-708.2012429999999
 50
0.0
 51
0.0
 71
     0
 72
   100
 73
     1
 74
     3
 75
     0
 76
     0
 77
     0
 78
     0
281
     0
 65
     1
110
0.0
120
0.0
130
0.0
111
1.0
121
0.0
131
0.0
112
0.0
122
1.0
132
0.0
 79
     0
146
0.0
  0
VPORT
  5
2A9
330
8
100
AcDbSymbolTableRecord
100
AcDbViewportTableRecord
  2
L6
 70
     0
 10
0.0
 20
0.0
 11
0.333333
 21
0.5
 12
0.0
 22
0.0
 13
0.0
 23
0.0
 14
0.5
 24
0.5
 15
0.5
 25
0.5
 16
-1.0
 26
0.0
 36
0.0
 17
0.0
 27
0.0
 37
0.0
 40
1319.735116
 41
0.013455
 42
50.0
 43
667.9688169999999
 44
-667.9688169999999
 50
0.0
 51
0.0
 71
     0
 72
   100
 73
     1
 74
     3
 75
     0
 76
     0
 77
     0
 78
     0
281
     0
 65
     1
110
0.0
120
0.0
130
0.0
111
1.0
121
0.0
131
0.0
112
0.0
122
1.0
132
0.0
 79
     0
146
0.0
  0
VPORT
  5
2AA
330
8
100
AcDbSymbolTableRecord
100
AcDbViewportTableRecord
  2
L6
 70
     0
 10
0.333333
 20
0.5
 11
0.666667
 21
1.0
 12
286.300179
 22
233.607903
 13
0.0
 23
0.0
 14
0.5
 24
0.5
 15
0.5
 25
0.5
 16
0.0
 26
0.0
 36
1.0
 17
0.0
 27
0.0
 37
0.0
 40
207.433333
 41
0.085602
 42
50.0
 43
382.241299
 44
-382.241299
 50
0.0
 51
0.0
 71
     0
 72
   100
 73
     1
 74
     3
 75
     0
 76
     0
 77
     0
 78
     0
281
     0
 65
     1
110
0.0
120
0.0
130
0.0
111
1.0
121
0.0
131
0.0
112
0.0
122
1.0
132
0.0
 79
     0
146
0.0
  0
VPORT
  5
2AB
330
8
100
AcDbSymbolTableRecord
100
AcDbViewportTableRecord
  2
L6
 70
     0
 10
0.333333
 20
0.0
 11
0.666667
 21
0.5
 12
0.0
 22
0.0
 13
0.0
 23
0.0
 14
0.5
 24
0.5
 15
0.5
 25
0.5
 16
0.0
 26
-1.0
 36
0.0
 17
0.0
 27
0.0
 37
0.0
 40
1319.735116
 41
0.013455
 42
50.0
 43
679.920199
 44
-679.920199
 50
0.0
 51
0.0
 71
     0
 72
   100
 73
     1
 74
     3
 75
     0
 76
     0
 77
     0
 78
     0
281
     0
 65
     1
110
0.0
120
0.0
130
0.0
111
1.0
121
0.0
131
0.0
112
0.0
122
1.0
132
0.0
 79
     0
146
0.0
  0
VPORT
  5
2AC
330
8
100
AcDbSymbolTableRecord
100
AcDbViewportTableRecord
  2
L6
 70
     0
 10
0.666667
 20
0.5
 11
1.0
 21
1.0
 12
0.0
 22
0.0
 13
0.0
 23
0.0
 14
0.5
 24
0.5
 15
0.5
 25
0.5
 16
0.5773502691896259
 26
-0.5773502691896259
 36
0.5773502691896259
 17
0.0
 27
0.0
 37
0.0
 40
1296.074958
 41
0.0137
 42
50.0
 43
675.1032679999999
 44
-675.1032679999999
 50
0.0
 51
0.0
 71
     0
 72
   100
 73
     1
 74
     3
 75
     0
 76
     0
 77
     0
 78
     0
281
     0
 65
     1
110
0.0
120
0.0
130
0.0
111
1.0
121
0.0
131
0.0
112
0.0
122
1.0
132
0.0
 79
     0
146
0.0
  0
VPORT
  5
2AD
330
8
100
AcDbSymbolTableRecord
100
AcDbViewportTableRecord
  2
L6
 70
     0
 10
0.666667
 20
0.0
 11
1.0
 21
0.5
 12
0.0
 22
0.0
 13
0.0
 23
0.0
 14
0.5
 24
0.5
 15
0.5
 25
0.5
 16
1.0
 26
0.0
 36
0.0
 17
0.0
 27
0.0
 37
0.0
 40
1319.735116
 41
0.013455
 42
50.0
 43
667.9688169999999
 44
-667.9688169999999
 50
0.0
 51
0.0
 71
     0
 72
   100
 73
     1
 74
     3
 75
     0
 76
     0
 77
     0
 78
     0
281
     0
 65
     1
110
0.0
120
0.0
130
0.0
111
1.0
121
0.0
131
0.0
112
0.0
122
1.0
132
0.0
 79
     0
146
0.0
  0
ENDTAB
  0
TABLE
  2
LTYPE
  5
5
330
0
100
AcDbSymbolTable
 70
     7
  0
LTYPE
  5
14
330
5
100
AcDbSymbolTableRecord
100
AcDbLinetypeTableRecord
  2
ByBlock
 70
     0
  3

 72
    65
 73
     0
 40
0.0
  0
LTYPE
  5
15
330
5
100
AcDbSymbolTableRecord
100
AcDbLinetypeTableRecord
  2
ByLayer
 70
     0
  3

 72
    65
 73
     0
 40
0.0
  0
LTYPE
  5
16
330
5
100
AcDbSymbolTableRecord
100
AcDbLinetypeTableRecord
  2
Continuous
 70
     0
  3
Solid line
 72
    65
 73
     0
 40
0.0
  0
LTYPE
  5
6E
330
5
100
AcDbSymbolTableRecord
100
AcDbLinetypeTableRecord
  2
CENTER
 70
     0
  3
____ _ ____ _ ____ _ ____
 72
    65
 73
     4
 40
47.4
 49
22.0
 74
     4
 75
     0
340
0
 46
0.0
 50
0.0
 44
0.0
 45
0.0
 49
-8.5
 74
     4
 75
     0
340
0
 46
0.0
 50
0.0
 44
0.0
 45
0.0
 49
8.5
 74
     4
 75
     0
340
0
 46
0.0
 50
0.0
 44
0.0
 45
0.0
 49
-8.5
 74
     4
 75
     0
340
0
 46
0.0
 50
0.0
 44
0.0
 45
0.0
  0
LTYPE
  5
6F
330
5
100
AcDbSymbolTableRecord
100
AcDbLinetypeTableRecord
  2
DASHDOT
 70
     0
  3
_._._._._._._._._._._._._._._._.
 72
    65
 73
     4
 40
70.0
 49
31.0
 74
     4
 75
     0
340
0
 46
0.0
 50
0.0
 44
0.0
 45
0.0
 49
-13.0
 74
     4
 75
     0
340
0
 46
0.0
 50
0.0
 44
0.0
 45
0.0
 49
13.0
 74
     4
 75
     0
340
0
 46
0.0
 50
0.0
 44
0.0
 45
0.0
 49
-13.0
 74
     4
 75
     0
340
0
 46
0.0
 50
0.0
 44
0.0
 45
0.0
  0
LTYPE
  5
70
330
5
100
AcDbSymbolTableRecord
100
AcDbLinetypeTableRecord
  2
DASHED
 70
     0
  3
__ __ __ __ __ __ __ __ __
 72
    65
 73
     2
 40
25.72
 49
12.86
 74
     4
 75
     0
340
0
 46
0.0
 50
0.0
 44
0.0
 45
0.0
 49
-12.86
 74
     4
 75
     0
340
0
 46
0.0
 50
0.0
 44
0.0
 45
0.0
  0
LTYPE
  5
71
330
5
100
AcDbSymbolTableRecord
100
AcDbLinetypeTableRecord
  2
DOT
 70
     0
  3
.........................
 72
    65
 73
     2
 40
10.0
 49
0.0
 74
     4
 75
     0
340
0
 46
0.0
 50
0.0
 44
0.0
 45
0.0
 49
-10.0
 74
     4
 75
     0
340
0
 46
0.0
 50
0.0
 44
0.0
 45
0.0
  0
LTYPE
  5
72
330
5
100
AcDbSymbolTableRecord
100
AcDbLinetypeTableRecord
  2
PHANTOM
 70
     0
  3
____ _ _ ____ _ _ _____ _ _ ____
 72
    65
 73
     6
 40
50.5
 49
18.0
 74
     4
 75
     0
340
0
 46
0.0
 50
0.0
 44
0.0
 45
0.0
 49
-6.5
 74
     4
 75
     0
340
0
 46
0.0
 50
0.0
 44
0.0
 45
0.0
 49
6.5
 74
     4
 75
     0
340
0
 46
0.0
 50
0.0
 44
0.0
 45
0.0
 49
-6.5
 74
     4
 75
     0
340
0
 46
0.0
 50
0.0
 44
0.0
 45
0.0
 49
6.5
 74
     4
 75
     0
340
0
 46
0.0
 50
0.0
 44
0.0
 45
0.0
 49
-6.5
 74
     4
 75
     0
340
0
 46
0.0
 50
0.0
 44
0.0
 45
0.0
  0
LTYPE
  5
33D
330
5
100
AcDbSymbolTableRecord
100
AcDbLinetypeTableRecord
  2
CENTER2
 70
     0
  3
Center (.5x) ___ _ ___ _ ___ _ ___ _ ___ _ ___
 72
    65
 73
     4
 40
1.125
 49
0.75
 74
     0
 49
-0.125
 74
     0
 49
0.125
 74
     0
 49
-0.125
 74
     0
  0
ENDTAB
  0
TABLE
  2
LAYER
  5
2
330
0
100
AcDbSymbolTable
 70
    22
  0
LAYER
  5
10
102
{ACAD_XDICTIONARY
360
348
102
}
330
2
100
AcDbSymbolTableRecord
100
AcDbLayerTableRecord
  2
0
 70
     0
 62
     7
  6
Continuous
370
    -3
390
F
  0
LAYER
  5
1F9
330
2
100
AcDbSymbolTableRecord
100
AcDbLayerTableRecord
  2
Defpoints
 70
     0
 62
     7
  6
Continuous
290
     0
370
    -3
390
F
  0
LAYER
  5
33A
102
{ACAD_XDICTIONARY
360
34A
102
}
330
2
100
AcDbSymbolTableRecord
100
AcDbLayerTableRecord
  2
1
 70
     0
 62
     4
  6
Continuous
370
    -3
390
F
  0
LAYER
  5
33B
102
{ACAD_XDICTIONARY
360
34C
102
}
330
2
100
AcDbSymbolTableRecord
100
AcDbLayerTableRecord
  2
2
 70
     0
 62
     7
  6
Continuous
370
    -3
390
F
  0
LAYER
  5
33C
102
{ACAD_XDICTIONARY
360
34E
102
}
330
2
100
AcDbSymbolTableRecord
100
AcDbLayerTableRecord
  2
4
 70
     0
 62
     2
  6
CENTER2
370
    -3
390
F
  0
LAYER
  5
33E
102
{ACAD_XDICTIONARY
360
350
102
}
330
2
100
AcDbSymbolTableRecord
100
AcDbLayerTableRecord
  2
SK1
 70
     0
 62
     4
  6
Continuous
370
    -3
390
F
  0
LAYER
  5
33F
102
{ACAD_XDICTIONARY
360
352
102
}
330
2
100
AcDbSymbolTableRecord
100
AcDbLayerTableRecord
  2
SK2
 70
     0
 62
     7
  6
Continuous
370
    -3
390
F
  0
LAYER
  5
341
102
{ACAD_XDICTIONARY
360
354
102
}
330
2
100
AcDbSymbolTableRecord
100
AcDbLayerTableRecord
  2
SK4
 70
     0
 62
     2
  6
CENTER2
370
    -3
390
F
  0
LAYER
  5
342
102
{ACAD_XDICTIONARY
360
356
102
}
330
2
100
AcDbSymbolTableRecord
100
AcDbLayerTableRecord
  2
SK6
 70
     0
 62
     5
  6
Continuous
370
    -3
390
F
  0
LAYER
  5
343
102
{ACAD_XDICTIONARY
360
358
102
}
330
2
100
AcDbSymbolTableRecord
100
AcDbLayerTableRecord
  2
CUT
 70
     0
 62
     1
  6
Continuous
370
    -3
390
F
  0
LAYER
  5
344
102
{ACAD_XDICTIONARY
360
35A
102
}
330
2
100
AcDbSymbolTableRecord
100
AcDbLayerTableRecord
  2
NOCUT
 70
     0
 62
     7
  6
Continuous
370
    -3
390
F
  0
LAYER
  5
345
102
{ACAD_XDICTIONARY
360
35C
102
}
330
2
100
AcDbSymbolTableRecord
100
AcDbLayerTableRecord
  2
80
 70
     0
 62
     6
  6
Continuous
370
    -3
390
F
  0
LAYER
  5
346
102
{ACAD_XDICTIONARY
360
35E
102
}
330
2
100
AcDbSymbolTableRecord
100
AcDbLayerTableRecord
  2
81
 70
     0
 62
     3
  6
Continuous
370
    -3
390
F
  0
ENDTAB
  0
TABLE
  2
STYLE
  5
3
330
0
100
AcDbSymbolTable
 70
     3
  0
STYLE
  5
11
330
3
100
AcDbSymbolTableRecord
100
AcDbTextStyleTableRecord
  2
Standard
 70
     0
 40
0.0
 41
1.0
 50
0.0
 71
     0
 42
0.2
  3
txt
  4

  0
STYLE
  5
1F2
330
3
100
AcDbSymbolTableRecord
100
AcDbTextStyleTableRecord
  2
cesky
 70
     0
 40
0.0
 41
1.0
 50
0.0
 71
     0
 42
0.2
  3
simplex.shx
  4

  0
STYLE
  5
1F3
330
3
100
AcDbSymbolTableRecord
100
AcDbTextStyleTableRecord
  2
DWGDirectTextStyle
 70
     0
 40
0.0
 41
1.0
 50
0.0
 71
     0
 42
0.2
  3
simplex
  4

  0
ENDTAB
  0
TABLE
  2
VIEW
  5
6
330
0
100
AcDbSymbolTable
 70
     0
  0
ENDTAB
  0
TABLE
  2
UCS
  5
7
330
0
100
AcDbSymbolTable
 70
     0
  0
ENDTAB
  0
TABLE
  2
APPID
  5
9
330
0
100
AcDbSymbolTable
 70
     7
  0
APPID
  5
12
330
9
100
AcDbSymbolTableRecord
100
AcDbRegAppTableRecord
  2
ACAD
 70
     0
  0
APPID
  5
1F5
330
9
100
AcDbSymbolTableRecord
100
AcDbRegAppTableRecord
  2
ACAD_DSTYLE_DIMBREAK
 70
     0
  0
APPID
  5
2AE
330
9
100
AcDbSymbolTableRecord
100
AcDbRegAppTableRecord
  2
ACAD_DSTYLE_DIM_LINETYPE
 70
     0
  0
APPID
  5
2AF
330
9
100
AcDbSymbolTableRecord
100
AcDbRegAppTableRecord
  2
ACAD_DSTYLE_DIM_EXT1_LINETYPE
 70
     0
  0
APPID
  5
2B0
330
9
100
AcDbSymbolTableRecord
100
AcDbRegAppTableRecord
  2
ACAD_DSTYLE_DIM_EXT2_LINETYPE
 70
     0
  0
APPID
  5
2F0
330
9
100
AcDbSymbolTableRecord
100
AcDbRegAppTableRecord
  2
ACAD_MLEADERVER
 70
     0
  0
APPID
  5
363
330
9
100
AcDbSymbolTableRecord
100
AcDbRegAppTableRecord
  2
ACAD_NAV_VCDISPLAY
 70
     0
  0
ENDTAB
  0
TABLE
  2
DIMSTYLE
  5
A
330
0
100
AcDbSymbolTable
 70
     1
100
AcDbDimStyleTable
 71
     0
  0
DIMSTYLE
105
27
330
A
100
AcDbSymbolTableRecord
100
AcDbDimStyleTableRecord
  2
Standard
 70
     0
340
11
1001
ACAD_DSTYLE_DIMBREAK
1070
   391
1040
6.349999999999999
  0
ENDTAB
  0
TABLE
  2
BLOCK_RECORD
  5
1
330
0
100
AcDbSymbolTable
 70
    16
  0
BLOCK_RECORD
  5
1F
102
{ACAD_XDICTIONARY
360
300
102
}
330
1
100
AcDbSymbolTableRecord
100
AcDbBlockTableRecord
  2
*Model_Space
340
22
  0
BLOCK_RECORD
  5
1B
330
1
100
AcDbSymbolTableRecord
100
AcDbBlockTableRecord
  2
*Paper_Space
340
1E
  0
BLOCK_RECORD
  5
23
330
1
100
AcDbSymbolTableRecord
100
AcDbBlockTableRecord
  2
*Paper_Space0
340
26
  0
BLOCK_RECORD
  5
1EC
330
1
100
AcDbSymbolTableRecord
100
AcDbBlockTableRecord
  2
ASSORTED_DRAFT1
340
0
  0
BLOCK_RECORD
  5
1FA
330
1
100
AcDbSymbolTableRecord
100
AcDbBlockTableRecord
  2
*D2
340
0
  0
BLOCK_RECORD
  5
206
330
1
100
AcDbSymbolTableRecord
100
AcDbBlockTableRecord
  2
_U0
340
0
  0
BLOCK_RECORD
  5
212
330
1
100
AcDbSymbolTableRecord
100
AcDbBlockTableRecord
  2
*D4
340
0
  0
BLOCK_RECORD
  5
21E
330
1
100
AcDbSymbolTableRecord
100
AcDbBlockTableRecord
  2
_U1
340
0
  0
BLOCK_RECORD
  5
22A
330
1
100
AcDbSymbolTableRecord
100
AcDbBlockTableRecord
  2
*D6
340
0
  0
BLOCK_RECORD
  5
236
330
1
100
AcDbSymbolTableRecord
100
AcDbBlockTableRecord
  2
_U2
340
0
  0
BLOCK_RECORD
  5
242
330
1
100
AcDbSymbolTableRecord
100
AcDbBlockTableRecord
  2
*D8
340
0
  0
BLOCK_RECORD
  5
24E
330
1
100
AcDbSymbolTableRecord
100
AcDbBlockTableRecord
  2
_U3
340
0
  0
BLOCK_RECORD
  5
25A
330
1
100
AcDbSymbolTableRecord
100
AcDbBlockTableRecord
  2
*D10
340
0
  0
BLOCK_RECORD
  5
265
330
1
100
AcDbSymbolTableRecord
100
AcDbBlockTableRecord
  2
_U4
340
0
  0
BLOCK_RECORD
  5
270
330
1
100
AcDbSymbolTableRecord
100
AcDbBlockTableRecord
  2
*D12
340
0
  0
BLOCK_RECORD
  5
27C
330
1
100
AcDbSymbolTableRecord
100
AcDbBlockTableRecord
  2
_U5
340
0
  0
BLOCK_RECORD
  5
289
330
1
100
AcDbSymbolTableRecord
100
AcDbBlockTableRecord
  2
*D14
340
0
  0
BLOCK_RECORD
  5
295
330
1
100
AcDbSymbolTableRecord
100
AcDbBlockTableRecord
  2
_U6
340
0
  0
ENDTAB
  0
ENDSEC
  0
SECTION
  2
BLOCKS
  0
BLOCK
  5
20
330
1F
100
AcDbEntity
  8
0
100
AcDbBlockBegin
  2
*Model_Space
 70
     0
 10
0.0
 20
0.0
 30
0.0
  3
*Model_Space
  1

  0
ENDBLK
  5
21
330
1F
100
AcDbEntity
  8
0
100
AcDbBlockEnd
  0
BLOCK
  5
1C
330
1B
100
AcDbEntity
 67
     1
  8
0
100
AcDbBlockBegin
  2
*Paper_Space
 70
     0
 10
0.0
 20
0.0
 30
0.0
  3
*Paper_Space
  1

  0
ENDBLK
  5
1D
330
1B
100
AcDbEntity
 67
     1
  8
0
100
AcDbBlockEnd
  0
BLOCK
  5
24
330
23
100
AcDbEntity
 67
     1
  8
0
100
AcDbBlockBegin
  2
*Paper_Space0
 70
     0
 10
0.0
 20
0.0
 30
0.0
  3
*Paper_Space0
  1

  0
ENDBLK
  5
25
330
23
100
AcDbEntity
 67
     1
  8
0
100
AcDbBlockEnd
  0
BLOCK
  5
1EF
330
1EC
100
AcDbEntity
  8
0
100
AcDbBlockBegin
  2
ASSORTED_DRAFT1
 70
     0
 10
0.0
 20
0.0
 30
0.0
  3
ASSORTED_DRAFT1
  1

  0
SOLID
  5
1ED
330
1EC
100
AcDbEntity
  8
0
 62
   254
370
    13
100
AcDbTrace
 10
270.185042
 20
161.034924
 30
0.0
 11
265.185046
 21
159.92645
 31
0.0
 12
265.1850379999999
 22
162.143397
 32
0.0
 13
270.185042
 23
161.034924
 33
0.0
  0
ENDBLK
  5
1F0
330
1EC
100
AcDbEntity
  8
0
100
AcDbBlockEnd
  0
BLOCK
  5
1FB
330
1FA
100
AcDbEntity
  8
0
100
AcDbBlockBegin
  2
*D2
 70
     1
 10
0.0
 20
0.0
 30
0.0
  3
*D2
  1

  0
LINE
  5
1FD
330
1FA
100
AcDbEntity
  8
0
 62
   254
370
    -2
100
AcDbLine
 10
368.404842
 20
300.407994
 30
0.0
 11
368.404842
 21
328.5109970000001
 31
0.0
  0
LINE
  5
1FE
330
1FA
100
AcDbEntity
  8
0
 62
   254
370
    -2
100
AcDbLine
 10
274.404842
 20
288.907994
 30
0.0
 11
274.404842
 21
328.5109970000001
 31
0.0
  0
LINE
  5
1FF
330
1FA
100
AcDbEntity
  8
0
 62
   254
370
    -2
100
AcDbLine
 10
364.904842
 20
327.510997
 30
0.0
 11
277.904842
 21
327.510997
 31
0.0
  0
SOLID
  5
200
330
1FA
100
AcDbEntity
  8
0
 62
   254
100
AcDbTrace
 10
364.904842
 20
326.927663
 30
0.0
 11
364.904842
 21
328.09433
 31
0.0
 12
368.404842
 22
327.510997
 32
0.0
 13
368.404842
 23
327.510997
 33
0.0
  0
SOLID
  5
201
330
1FA
100
AcDbEntity
  8
0
 62
   254
100
AcDbTrace
 10
277.904842
 20
328.09433
 30
0.0
 11
277.904842
 21
326.927663
 31
0.0
 12
274.404842
 22
327.510997
 32
0.0
 13
274.404842
 23
327.510997
 33
0.0
  0
MTEXT
  5
202
330
1FA
100
AcDbEntity
  8
0
 62
   254
370
    13
100
AcDbMText
 10
321.404842
 20
332.7609970000001
 30
0.0
 40
3.5
 41
0.0
 71
     5
 72
     1
  1
\A1;94
  7
cesky
 73
     1
 44
1.0
  0
POINT
  5
203
330
1FA
100
AcDbEntity
  8
Defpoints
 62
     0
100
AcDbPoint
 10
368.404842
 20
300.407994
 30
0.0
  0
POINT
  5
204
330
1FA
100
AcDbEntity
  8
Defpoints
 62
     0
100
AcDbPoint
 10
274.404842
 20
288.907994
 30
0.0
  0
POINT
  5
205
330
1FA
100
AcDbEntity
  8
Defpoints
 62
     0
100
AcDbPoint
 10
274.404842
 20
327.510997
 30
0.0
  0
ENDBLK
  5
1FC
330
1FA
100
AcDbEntity
  8
0
100
AcDbBlockEnd
  0
BLOCK
  5
20D
330
206
100
AcDbEntity
  8
0
100
AcDbBlockBegin
  2
_U0
 70
     0
 10
0.0
 20
0.0
 30
0.0
  3
_U0
  1

  0
ENDBLK
  5
20E
330
206
100
AcDbEntity
  8
0
100
AcDbBlockEnd
  0
BLOCK
  5
213
330
212
100
AcDbEntity
  8
0
100
AcDbBlockBegin
  2
*D4
 70
     1
 10
0.0
 20
0.0
 30
0.0
  3
*D4
  1

  0
LINE
  5
215
330
212
100
AcDbEntity
  8
0
 62
   254
370
    -2
100
AcDbLine
 10
368.404842
 20
302.407994
 30
0.0
 11
368.404842
 21
341.687968
 31
0.0
  0
LINE
  5
216
330
212
100
AcDbEntity
  8
0
 62
   254
370
    -2
100
AcDbLine
 10
218.404842
 20
299.407994
 30
0.0
 11
218.404842
 21
341.687968
 31
0.0
  0
LINE
  5
217
330
212
100
AcDbEntity
  8
0
 62
   254
370
    -2
100
AcDbLine
 10
364.904842
 20
340.687968
 30
0.0
 11
221.904842
 21
340.687968
 31
0.0
  0
SOLID
  5
218
330
212
100
AcDbEntity
  8
0
 62
   254
100
AcDbTrace
 10
364.904842
 20
340.104634
 30
0.0
 11
364.904842
 21
341.271301
 31
0.0
 12
368.404842
 22
340.687968
 32
0.0
 13
368.404842
 23
340.687968
 33
0.0
  0
SOLID
  5
219
330
212
100
AcDbEntity
  8
0
 62
   254
100
AcDbTrace
 10
221.904842
 20
341.271301
 30
0.0
 11
221.904842
 21
340.104634
 31
0.0
 12
218.404842
 22
340.687968
 32
0.0
 13
218.404842
 23
340.687968
 33
0.0
  0
MTEXT
  5
21A
330
212
100
AcDbEntity
  8
0
 62
   254
370
    13
100
AcDbMText
 10
293.404842
 20
345.937968
 30
0.0
 40
3.5
 41
0.0
 71
     5
 72
     1
  1
\A1;150
  7
cesky
 73
     1
 44
1.0
  0
POINT
  5
21B
330
212
100
AcDbEntity
  8
Defpoints
 62
     0
100
AcDbPoint
 10
368.404842
 20
302.407994
 30
0.0
  0
POINT
  5
21C
330
212
100
AcDbEntity
  8
Defpoints
 62
     0
100
AcDbPoint
 10
218.404842
 20
299.407994
 30
0.0
  0
POINT
  5
21D
330
212
100
AcDbEntity
  8
Defpoints
 62
     0
100
AcDbPoint
 10
218.404842
 20
340.687968
 30
0.0
  0
ENDBLK
  5
214
330
212
100
AcDbEntity
  8
0
100
AcDbBlockEnd
  0
BLOCK
  5
225
330
21E
100
AcDbEntity
  8
0
100
AcDbBlockBegin
  2
_U1
 70
     0
 10
0.0
 20
0.0
 30
0.0
  3
_U1
  1

  0
ENDBLK
  5
226
330
21E
100
AcDbEntity
  8
0
100
AcDbBlockEnd
  0
BLOCK
  5
22B
330
22A
100
AcDbEntity
  8
0
100
AcDbBlockBegin
  2
*D6
 70
     1
 10
0.0
 20
0.0
 30
0.0
  3
*D6
  1

  0
LINE
  5
22D
330
22A
100
AcDbEntity
  8
0
 62
   254
370
    -2
100
AcDbLine
 10
274.404842
 20
288.907994
 30
0.0
 11
274.404842
 21
328.5109970000001
 31
0.0
  0
LINE
  5
22E
330
22A
100
AcDbEntity
  8
0
 62
   254
370
    -2
100
AcDbLine
 10
218.404842
 20
294.157994
 30
0.0
 11
218.404842
 21
328.5109970000001
 31
0.0
  0
LINE
  5
22F
330
22A
100
AcDbEntity
  8
0
 62
   254
370
    -2
100
AcDbLine
 10
270.904842
 20
327.510997
 30
0.0
 11
221.904842
 21
327.510997
 31
0.0
  0
SOLID
  5
230
330
22A
100
AcDbEntity
  8
0
 62
   254
100
AcDbTrace
 10
270.904842
 20
326.927663
 30
0.0
 11
270.904842
 21
328.09433
 31
0.0
 12
274.404842
 22
327.510997
 32
0.0
 13
274.404842
 23
327.510997
 33
0.0
  0
SOLID
  5
231
330
22A
100
AcDbEntity
  8
0
 62
   254
100
AcDbTrace
 10
221.904842
 20
328.09433
 30
0.0
 11
221.904842
 21
326.927663
 31
0.0
 12
218.404842
 22
327.510997
 32
0.0
 13
218.404842
 23
327.510997
 33
0.0
  0
MTEXT
  5
232
330
22A
100
AcDbEntity
  8
0
 62
   254
370
    13
100
AcDbMText
 10
246.404842
 20
332.7609970000001
 30
0.0
 40
3.5
 41
0.0
 71
     5
 72
     1
  1
\A1;56
  7
cesky
 73
     1
 44
1.0
  0
POINT
  5
233
330
22A
100
AcDbEntity
  8
Defpoints
 62
     0
100
AcDbPoint
 10
274.404842
 20
288.907994
 30
0.0
  0
POINT
  5
234
330
22A
100
AcDbEntity
  8
Defpoints
 62
     0
100
AcDbPoint
 10
218.404842
 20
294.157994
 30
0.0
  0
POINT
  5
235
330
22A
100
AcDbEntity
  8
Defpoints
 62
     0
100
AcDbPoint
 10
218.404842
 20
327.510997
 30
0.0
  0
ENDBLK
  5
22C
330
22A
100
AcDbEntity
  8
0
100
AcDbBlockEnd
  0
BLOCK
  5
23D
330
236
100
AcDbEntity
  8
0
100
AcDbBlockBegin
  2
_U2
 70
     0
 10
0.0
 20
0.0
 30
0.0
  3
_U2
  1

  0
ENDBLK
  5
23E
330
236
100
AcDbEntity
  8
0
100
AcDbBlockEnd
  0
BLOCK
  5
243
330
242
100
AcDbEntity
  8
0
100
AcDbBlockBegin
  2
*D8
 70
     1
 10
0.0
 20
0.0
 30
0.0
  3
*D8
  1

  0
LINE
  5
245
330
242
100
AcDbEntity
  8
0
 62
   254
370
    -2
100
AcDbLine
 10
368.404842
 20
300.407994
 30
0.0
 11
368.404842
 21
315.35906
 31
0.0
  0
LINE
  5
246
330
242
100
AcDbEntity
  8
0
 62
   254
370
    -2
100
AcDbLine
 10
290.923601
 20
300.479622
 30
0.0
 11
290.923601
 21
315.35906
 31
0.0
  0
LINE
  5
247
330
242
100
AcDbEntity
  8
0
 62
   254
370
    -2
100
AcDbLine
 10
364.904842
 20
314.35906
 30
0.0
 11
294.423601
 21
314.35906
 31
0.0
  0
SOLID
  5
248
330
242
100
AcDbEntity
  8
0
 62
   254
100
AcDbTrace
 10
364.904842
 20
313.775727
 30
0.0
 11
364.904842
 21
314.9423930000001
 31
0.0
 12
368.404842
 22
314.35906
 32
0.0
 13
368.404842
 23
314.35906
 33
0.0
  0
SOLID
  5
249
330
242
100
AcDbEntity
  8
0
 62
   254
100
AcDbTrace
 10
294.423601
 20
314.9423930000001
 30
0.0
 11
294.423601
 21
313.775727
 31
0.0
 12
290.923601
 22
314.35906
 32
0.0
 13
290.923601
 23
314.35906
 33
0.0
  0
MTEXT
  5
24A
330
242
100
AcDbEntity
  8
0
 62
   254
370
    13
100
AcDbMText
 10
329.664222
 20
319.60906
 30
0.0
 40
3.5
 41
0.0
 71
     5
 72
     1
  1
\A1;77.5
  7
cesky
 73
     1
 44
1.0
  0
POINT
  5
24B
330
242
100
AcDbEntity
  8
Defpoints
 62
     0
100
AcDbPoint
 10
368.404842
 20
300.407994
 30
0.0
  0
POINT
  5
24C
330
242
100
AcDbEntity
  8
Defpoints
 62
     0
100
AcDbPoint
 10
290.923601
 20
300.479622
 30
0.0
  0
POINT
  5
24D
330
242
100
AcDbEntity
  8
Defpoints
 62
     0
100
AcDbPoint
 10
290.923601
 20
314.35906
 30
0.0
  0
ENDBLK
  5
244
330
242
100
AcDbEntity
  8
0
100
AcDbBlockEnd
  0
BLOCK
  5
255
330
24E
100
AcDbEntity
  8
0
100
AcDbBlockBegin
  2
_U3
 70
     0
 10
0.0
 20
0.0
 30
0.0
  3
_U3
  1

  0
ENDBLK
  5
256
330
24E
100
AcDbEntity
  8
0
100
AcDbBlockEnd
  0
BLOCK
  5
25B
330
25A
100
AcDbEntity
  8
0
100
AcDbBlockBegin
  2
*D10
 70
     1
 10
0.0
 20
0.0
 30
0.0
  3
*D10
  1

  0
LINE
  5
25D
330
25A
100
AcDbEntity
  8
0
 62
   254
370
    -2
100
AcDbLine
 10
292.532259
 20
288.907994
 30
0.0
 11
384.942939
 21
288.907994
 31
0.0
  0
LINE
  5
25E
330
25A
100
AcDbEntity
  8
0
 62
   254
370
    -2
100
AcDbLine
 10
330.83929
 20
300.407994
 30
0.0
 11
384.942939
 21
300.407994
 31
0.0
  0
LINE
  5
25F
330
25A
100
AcDbEntity
  8
0
 62
   254
370
    -2
100
AcDbLine
 10
383.942939
 20
303.907994
 30
0.0
 11
383.942939
 21
307.407994
 31
0.0
  0
SOLID
  5
260
330
25A
100
AcDbEntity
  8
0
 62
   254
100
AcDbTrace
 10
383.359606
 20
303.907994
 30
0.0
 11
384.526273
 21
303.907994
 31
0.0
 12
383.942939
 22
300.407994
 32
0.0
 13
383.942939
 23
300.407994
 33
0.0
  0
MTEXT
  5
261
330
25A
100
AcDbEntity
  8
0
 62
   254
370
    13
100
AcDbMText
 10
378.692939
 20
275.57466
 30
0.0
 40
3.5
 41
0.0
 71
     5
 72
     1
  1
\A1;23
  7
cesky
 11
0.0
 21
1.0
 31
0.0
 73
     1
 44
1.0
  0
POINT
  5
262
330
25A
100
AcDbEntity
  8
Defpoints
 62
     0
100
AcDbPoint
 10
292.532259
 20
288.907994
 30
0.0
  0
POINT
  5
263
330
25A
100
AcDbEntity
  8
Defpoints
 62
     0
100
AcDbPoint
 10
330.83929
 20
300.407994
 30
0.0
  0
POINT
  5
264
330
25A
100
AcDbEntity
  8
Defpoints
 62
     0
100
AcDbPoint
 10
383.942939
 20
300.407994
 30
0.0
  0
ENDBLK
  5
25C
330
25A
100
AcDbEntity
  8
0
100
AcDbBlockEnd
  0
BLOCK
  5
26B
330
265
100
AcDbEntity
  8
0
100
AcDbBlockBegin
  2
_U4
 70
     0
 10
0.0
 20
0.0
 30
0.0
  3
_U4
  1

  0
ENDBLK
  5
26C
330
265
100
AcDbEntity
  8
0
100
AcDbBlockEnd
  0
BLOCK
  5
271
330
270
100
AcDbEntity
  8
0
100
AcDbBlockBegin
  2
*D12
 70
     1
 10
0.0
 20
0.0
 30
0.0
  3
*D12
  1

  0
LINE
  5
273
330
270
100
AcDbEntity
  8
0
 62
    95
370
    -2
100
AcDbLine
 10
220.404842
 20
301.407994
 30
0.0
 11
205.304739
 21
301.407994
 31
0.0
  0
LINE
  5
274
330
270
100
AcDbEntity
  8
0
 62
    95
370
    -2
100
AcDbLine
 10
220.404842
 20
276.407994
 30
0.0
 11
205.304739
 21
276.407994
 31
0.0
  0
LINE
  5
275
330
270
100
AcDbEntity
  8
0
 62
    95
370
    -2
100
AcDbLine
 10
206.304739
 20
297.907994
 30
0.0
 11
206.304739
 21
279.907994
 31
0.0
  0
SOLID
  5
276
330
270
100
AcDbEntity
  8
0
 62
    95
100
AcDbTrace
 10
206.888073
 20
297.907994
 30
0.0
 11
205.721406
 21
297.907994
 31
0.0
 12
206.304739
 22
301.407994
 32
0.0
 13
206.304739
 23
301.407994
 33
0.0
  0
SOLID
  5
277
330
270
100
AcDbEntity
  8
0
 62
    95
100
AcDbTrace
 10
205.721406
 20
279.907994
 30
0.0
 11
206.888073
 21
279.907994
 31
0.0
 12
206.304739
 22
276.407994
 32
0.0
 13
206.304739
 23
276.407994
 33
0.0
  0
MTEXT
  5
278
330
270
100
AcDbEntity
  8
0
 62
    95
370
    13
100
AcDbMText
 10
201.054739
 20
288.907994
 30
0.0
 40
3.5
 41
0.0
 71
     5
 72
     1
  1
\A1;25
  7
cesky
 11
0.0
 21
1.0
 31
0.0
 73
     1
 44
1.0
  0
POINT
  5
279
330
270
100
AcDbEntity
  8
Defpoints
 62
     0
100
AcDbPoint
 10
220.404842
 20
301.407994
 30
0.0
  0
POINT
  5
27A
330
270
100
AcDbEntity
  8
Defpoints
 62
     0
100
AcDbPoint
 10
220.404842
 20
276.407994
 30
0.0
  0
POINT
  5
27B
330
270
100
AcDbEntity
  8
Defpoints
 62
     0
100
AcDbPoint
 10
206.304739
 20
276.407994
 30
0.0
  0
ENDBLK
  5
272
330
270
100
AcDbEntity
  8
0
100
AcDbBlockEnd
  0
BLOCK
  5
284
330
27C
100
AcDbEntity
  8
0
100
AcDbBlockBegin
  2
_U5
 70
     0
 10
0.0
 20
0.0
 30
0.0
  3
_U5
  1

  0
ENDBLK
  5
285
330
27C
100
AcDbEntity
  8
0
100
AcDbBlockEnd
  0
BLOCK
  5
28A
330
289
100
AcDbEntity
  8
0
100
AcDbBlockBegin
  2
*D14
 70
     1
 10
0.0
 20
0.0
 30
0.0
  3
*D14
  1

  0
LINE
  5
28C
330
289
100
AcDbEntity
  8
0
 62
    95
370
    -2
100
AcDbLine
 10
277.154842
 20
306.407994
 30
0.0
 11
192.519918
 21
306.407994
 31
0.0
  0
LINE
  5
28D
330
289
100
AcDbEntity
  8
0
 62
    95
370
    -2
100
AcDbLine
 10
277.154842
 20
271.407994
 30
0.0
 11
192.519918
 21
271.407994
 31
0.0
  0
LINE
  5
28E
330
289
100
AcDbEntity
  8
0
 62
    95
370
    -2
100
AcDbLine
 10
193.519918
 20
302.907994
 30
0.0
 11
193.519918
 21
274.907994
 31
0.0
  0
SOLID
  5
28F
330
289
100
AcDbEntity
  8
0
 62
    95
100
AcDbTrace
 10
194.103251
 20
302.907994
 30
0.0
 11
192.936584
 21
302.907994
 31
0.0
 12
193.519918
 22
306.407994
 32
0.0
 13
193.519918
 23
306.407994
 33
0.0
  0
SOLID
  5
290
330
289
100
AcDbEntity
  8
0
 62
    95
100
AcDbTrace
 10
192.936584
 20
274.907994
 30
0.0
 11
194.103251
 21
274.907994
 31
0.0
 12
193.519918
 22
271.407994
 32
0.0
 13
193.519918
 23
271.407994
 33
0.0
  0
MTEXT
  5
291
330
289
100
AcDbEntity
  8
0
 62
    95
370
    13
100
AcDbMText
 10
188.269918
 20
288.907994
 30
0.0
 40
3.5
 41
0.0
 71
     5
 72
     1
  1
\A1;35
  7
cesky
 11
0.0
 21
1.0
 31
0.0
 73
     1
 44
1.0
  0
POINT
  5
292
330
289
100
AcDbEntity
  8
Defpoints
 62
     0
100
AcDbPoint
 10
277.154842
 20
306.407994
 30
0.0
  0
POINT
  5
293
330
289
100
AcDbEntity
  8
Defpoints
 62
     0
100
AcDbPoint
 10
277.154842
 20
271.407994
 30
0.0
  0
POINT
  5
294
330
289
100
AcDbEntity
  8
Defpoints
 62
     0
100
AcDbPoint
 10
193.519918
 20
271.407994
 30
0.0
  0
ENDBLK
  5
28B
330
289
100
AcDbEntity
  8
0
100
AcDbBlockEnd
  0
BLOCK
  5
29D
330
295
100
AcDbEntity
  8
0
100
AcDbBlockBegin
  2
_U6
 70
     0
 10
0.0
 20
0.0
 30
0.0
  3
_U6
  1

  0
ENDBLK
  5
29E
330
295
100
AcDbEntity
  8
0
100
AcDbBlockEnd
  0
ENDSEC
  0
SECTION
  2
ENTITIES
  0
POINT
  5
73
102
{ACAD_REACTORS
330
347
102
}
330
1F
100
AcDbEntity
  8
80
100
AcDbPoint
 10
274.404842
 20
288.907994
 30
0.0
  0
POINT
  5
76
330
1F
100
AcDbEntity
  8
4
 60
     1
100
AcDbPoint
 10
292.532259
 20
288.907994
 30
0.0
  0
POINT
  5
78
330
1F
100
AcDbEntity
  8
4
 60
     1
100
AcDbPoint
 10
367.633556
 20
288.907994
 30
0.0
  0
POINT
  5
79
330
1F
100
AcDbEntity
  8
SK4
 60
     1
100
AcDbPoint
 10
220.404842
 20
288.907994
 30
0.0
  0
POINT
  5
7A
330
1F
100
AcDbEntity
  8
SK4
 60
     1
100
AcDbPoint
 10
274.404842
 20
288.907994
 30
0.0
  0
POINT
  5
7B
330
1F
100
AcDbEntity
  8
SK6
 60
     1
100
AcDbPoint
 10
274.404842
 20
288.907994
 30
0.0
  0
POINT
  5
7C
330
1F
100
AcDbEntity
  8
SK6
 60
     1
100
AcDbPoint
 10
290.923601
 20
300.479622
 30
0.0
  0
LINE
  5
7D
330
1F
100
AcDbEntity
  8
1
100
AcDbLine
 10
292.532259
 20
277.907994
 30
0.0
 11
296.944027
 21
277.907994
 31
0.0
  0
LINE
  5
7F
330
1F
100
AcDbEntity
  8
1
100
AcDbLine
 10
360.095523
 20
299.907994
 30
0.0
 11
353.287507
 21
299.907994
 31
0.0
  0
LINE
  5
80
330
1F
100
AcDbEntity
  8
1
100
AcDbLine
 10
359.959608
 20
293.390715
 30
0.0
 11
359.954377
 21
293.371131
 31
0.0
  0
LINE
  5
81
330
1F
100
AcDbEntity
  8
1
100
AcDbLine
 10
359.959608
 20
293.390715
 30
0.0
 11
359.6802390000001
 21
299.823155
 31
0.0
  0
LINE
  5
82
330
1F
100
AcDbEntity
  8
1
100
AcDbLine
 10
359.675954
 20
299.781796
 30
0.0
 11
359.954377
 21
293.371131
 31
0.0
  0
LINE
  5
83
330
1F
100
AcDbEntity
  8
1
100
AcDbLine
 10
366.958539
 20
277.907994
 30
0.0
 11
354.685484
 21
277.907994
 31
0.0
  0
LINE
  5
84
330
1F
100
AcDbEntity
  8
1
100
AcDbLine
 10
274.904842
 20
271.407994
 30
0.0
 11
274.904842
 21
288.907994
 31
0.0
  0
LINE
  5
85
330
1F
100
AcDbEntity
  8
1
100
AcDbLine
 10
274.904842
 20
288.907994
 30
0.0
 11
274.904842
 21
306.407994
 31
0.0
  0
LINE
  5
86
330
1F
100
AcDbEntity
  8
1
100
AcDbLine
 10
279.404842
 20
271.407994
 30
0.0
 11
279.404842
 21
275.457951
 31
0.0
  0
LINE
  5
87
330
1F
100
AcDbEntity
  8
1
100
AcDbLine
 10
279.404842
 20
306.407994
 30
0.0
 11
279.404842
 21
283.263343
 31
0.0
  0
LINE
  5
88
330
1F
100
AcDbEntity
  8
1
100
AcDbLine
 10
362.963097
 20
295.484084
 30
0.0
 11
362.987911
 21
295.576986
 31
0.0
  0
LINE
  5
8A
330
1F
100
AcDbEntity
  8
1
100
AcDbLine
 10
364.528033
 20
295.245318
 30
0.0
 11
364.5031830000001
 21
295.152277
 31
0.0
  0
LINE
  5
8B
330
1F
100
AcDbEntity
  8
1
100
AcDbLine
 10
363.284413
 20
296.938054
 30
0.0
 11
363.309263
 21
297.031095
 31
0.0
  0
LINE
  5
8C
330
1F
100
AcDbEntity
  8
1
100
AcDbLine
 10
364.849311
 20
296.699149
 30
0.0
 11
364.824498
 21
296.606247
 31
0.0
  0
LINE
  5
8D
330
1F
100
AcDbEntity
  8
1
100
AcDbLine
 10
365.925463
 20
295.5137029999999
 30
0.0
 11
365.940112
 21
295.56855
 31
0.0
  0
LINE
  5
8E
330
1F
100
AcDbEntity
  8
SK1
100
AcDbLine
 10
218.404842
 20
278.407994
 30
0.0
 11
220.404842
 21
276.407994
 31
0.0
  0
LINE
  5
8F
330
1F
100
AcDbEntity
  8
SK1
100
AcDbLine
 10
220.404842
 20
301.407994
 30
0.0
 11
218.404842
 21
299.407994
 31
0.0
  0
LINE
  5
90
330
1F
100
AcDbEntity
  8
1
100
AcDbLine
 10
279.404842
 20
271.407994
 30
0.0
 11
281.21855
 21
273.221702
 31
0.0
  0
LINE
  5
91
330
1F
100
AcDbEntity
  8
1
100
AcDbLine
 10
281.21855
 20
304.594285
 30
0.0
 11
279.404842
 21
306.407994
 31
0.0
  0
LINE
  5
92
330
1F
100
AcDbEntity
  8
SK1
100
AcDbLine
 10
274.404842
 20
301.407994
 30
0.0
 11
220.404842
 21
301.407994
 31
0.0
  0
LINE
  5
93
330
1F
100
AcDbEntity
  8
1
100
AcDbLine
 10
274.904842
 20
271.407994
 30
0.0
 11
274.404842
 21
271.907994
 31
0.0
  0
LINE
  5
94
330
1F
100
AcDbEntity
  8
1
100
AcDbLine
 10
274.404842
 20
305.907994
 30
0.0
 11
274.904842
 21
306.407994
 31
0.0
  0
LINE
  5
95
330
1F
100
AcDbEntity
  8
1
100
AcDbLine
 10
279.404842
 20
306.407994
 30
0.0
 11
274.904842
 21
306.407994
 31
0.0
  0
LINE
  5
96
330
1F
100
AcDbEntity
  8
1
100
AcDbLine
 10
361.399071
 20
298.552662
 30
0.0
 11
366.3933
 21
298.7702930000001
 31
0.0
  0
LINE
  5
98
330
1F
100
AcDbEntity
  8
1
100
AcDbLine
 10
361.622832
 20
293.568076
 30
0.0
 11
361.399071
 21
298.552662
 31
0.0
  0
LINE
  5
99
330
1F
100
AcDbEntity
  8
1
100
AcDbLine
 10
366.617062
 20
293.785707
 30
0.0
 11
361.622832
 21
293.568076
 31
0.0
  0
LINE
  5
9A
330
1F
100
AcDbEntity
  8
1
100
AcDbLine
 10
366.3933
 20
298.7702930000001
 30
0.0
 11
366.617062
 21
293.785707
 31
0.0
  0
LINE
  5
9B
330
1F
100
AcDbEntity
  8
1
100
AcDbLine
 10
367.83139
 20
299.541934
 30
0.0
 11
368.117813
 21
293.161488
 31
0.0
  0
LINE
  5
9C
330
1F
100
AcDbEntity
  8
1
100
AcDbLine
 10
360.636687
 20
299.995954
 30
0.0
 11
367.029477
 21
300.274531
 31
0.0
  0
LINE
  5
9D
330
1F
100
AcDbEntity
  8
1
100
AcDbLine
 10
360.189973
 20
292.816019
 30
0.0
 11
359.90355
 21
299.196465
 31
0.0
  0
LINE
  5
9E
330
1F
100
AcDbEntity
  8
1
100
AcDbLine
 10
367.3846759999999
 20
292.361999
 30
0.0
 11
360.991886
 21
292.0834220000001
 31
0.0
  0
LINE
  5
9F
330
1F
100
AcDbEntity
  8
1
100
AcDbLine
 10
368.3232220000001
 20
283.547809
 30
0.0
 11
367.715638
 21
282.53662
 31
0.0
  0
LINE
  5
A0
330
1F
100
AcDbEntity
  8
1
100
AcDbLine
 10
367.801122
 20
283.697519
 30
0.0
 11
368.3232220000001
 21
283.547809
 31
0.0
  0
LINE
  5
A1
330
1F
100
AcDbEntity
  8
1
100
AcDbLine
 10
367.877836
 20
288.092412
 30
0.0
 11
368.404842
 21
288.22381
 31
0.0
  0
LINE
  5
A2
330
1F
100
AcDbEntity
  8
1
100
AcDbLine
 10
367.819673
 20
289.279483
 30
0.0
 11
368.404842
 21
288.22381
 31
0.0
  0
LINE
  5
A3
330
1F
100
AcDbEntity
  8
1
100
AcDbLine
 10
367.338341
 20
282.927322
 30
0.0
 11
367.715638
 21
282.53662
 31
0.0
  0
LINE
  5
A4
330
1F
100
AcDbEntity
  8
1
100
AcDbLine
 10
367.715638
 20
282.53662
 30
0.0
 11
367.050531
 21
282.167945
 31
0.0
  0
LINE
  5
A5
330
1F
100
AcDbEntity
  8
1
100
AcDbLine
 10
367.428971
 20
288.902186
 30
0.0
 11
367.819673
 21
289.279483
 31
0.0
  0
LINE
  5
A6
330
1F
100
AcDbEntity
  8
1
100
AcDbLine
 10
367.427616
 20
289.515055
 30
0.0
 11
367.819673
 21
289.279483
 31
0.0
  0
LINE
  5
A7
330
1F
100
AcDbEntity
  8
1
100
AcDbLine
 10
367.338341
 20
282.927322
 30
0.0
 11
367.011041
 21
282.745896
 31
0.0
  0
LINE
  5
A8
330
1F
100
AcDbEntity
  8
1
100
AcDbLine
 10
367.243858
 20
289.013413
 30
0.0
 11
367.428971
 21
288.902186
 31
0.0
  0
LINE
  5
A9
330
1F
100
AcDbEntity
  8
1
100
AcDbLine
 10
367.220443
 20
283.864026
 30
0.0
 11
367.238301
 21
284.887075
 31
0.0
  0
LINE
  5
AA
330
1F
100
AcDbEntity
  8
1
100
AcDbLine
 10
367.243869
 20
285.206064
 30
0.0
 11
367.291699
 21
287.946272
 31
0.0
  0
LINE
  5
AB
330
1F
100
AcDbEntity
  8
1
100
AcDbLine
 10
367.877836
 20
288.092412
 30
0.0
 11
367.801122
 21
283.697519
 31
0.0
  0
LINE
  5
AC
330
1F
100
AcDbEntity
  8
1
100
AcDbLine
 10
367.801122
 20
283.697519
 30
0.0
 11
367.220443
 21
283.864026
 31
0.0
  0
LINE
  5
AD
330
1F
100
AcDbEntity
  8
1
100
AcDbLine
 10
367.110255
 20
283.680642
 30
0.0
 11
367.220443
 21
283.864026
 31
0.0
  0
LINE
  5
AE
330
1F
100
AcDbEntity
  8
1
100
AcDbLine
 10
367.338341
 20
282.927322
 30
0.0
 11
367.060809
 21
283.214715
 31
0.0
  0
LINE
  5
AF
330
1F
100
AcDbEntity
  8
1
100
AcDbLine
 10
367.801122
 20
283.697519
 30
0.0
 11
367.338341
 21
282.927322
 31
0.0
  0
LINE
  5
B0
330
1F
100
AcDbEntity
  8
1
100
AcDbLine
 10
367.428971
 20
288.902186
 30
0.0
 11
367.243864
 21
288.723431
 31
0.0
  0
LINE
  5
B1
330
1F
100
AcDbEntity
  8
1
100
AcDbLine
 10
367.291699
 20
287.946272
 30
0.0
 11
367.243867
 21
288.032564
 31
0.0
  0
LINE
  5
B2
330
1F
100
AcDbEntity
  8
1
100
AcDbLine
 10
367.877836
 20
288.092412
 30
0.0
 11
367.291699
 21
287.946272
 31
0.0
  0
LINE
  5
B3
330
1F
100
AcDbEntity
  8
1
100
AcDbLine
 10
367.428971
 20
288.902186
 30
0.0
 11
367.877836
 21
288.092412
 31
0.0
  0
LINE
  5
B4
330
1F
100
AcDbEntity
  8
1
100
AcDbLine
 10
368.404842
 20
288.22381
 30
0.0
 11
368.3232220000001
 21
283.547809
 31
0.0
  0
LINE
  5
B5
330
1F
100
AcDbEntity
  8
1
100
AcDbLine
 10
305.624935
 20
299.907994
 30
0.0
 11
292.532259
 21
299.907994
 31
0.0
  0
LINE
  5
B6
330
1F
100
AcDbEntity
  8
1
100
AcDbLine
 10
360.150568
 20
299.781955
 30
0.0
 11
360.145336
 21
299.902418
 31
0.0
  0
LINE
  5
BB
330
1F
100
AcDbEntity
  8
80
100
AcDbLine
 10
275.404416
 20
288.907994
 30
0.0
 11
273.405268
 21
288.907994
 31
0.0
  0
LINE
  5
BC
330
1F
100
AcDbEntity
  8
1
100
AcDbLine
 10
364.5014549999999
 20
295.139019
 30
0.0
 11
364.500078
 21
295.1338620000001
 31
0.0
  0
LINE
  5
BD
330
1F
100
AcDbEntity
  8
1
100
AcDbLine
 10
363.388667
 20
295.118809
 30
0.0
 11
363.364247
 21
295.027377
 31
0.0
  0
LINE
  5
BE
330
1F
100
AcDbEntity
  8
1
100
AcDbLine
 10
363.287517
 20
296.956468
 30
0.0
 11
363.312275
 21
297.049162
 31
0.0
  0
LINE
  5
BF
330
1F
100
AcDbEntity
  8
1
100
AcDbLine
 10
362.710141
 20
296.097896
 30
0.0
 11
362.686091
 21
296.007853
 31
0.0
  0
LINE
  5
C0
330
1F
100
AcDbEntity
  8
1
100
AcDbLine
 10
362.796544
 20
296.083116
 30
0.0
 11
362.771959
 21
295.9910680000001
 31
0.0
  0
LINE
  5
C1
330
1F
100
AcDbEntity
  8
1
100
AcDbLine
 10
364.977086
 20
295.502335
 30
0.0
 11
365.001114
 21
295.592298
 31
0.0
  0
LINE
  5
C2
330
1F
100
AcDbEntity
  8
1
100
AcDbLine
 10
364.887211
 20
295.5231
 30
0.0
 11
364.911807
 21
295.615191
 31
0.0
  0
LINE
  5
C3
330
1F
100
AcDbEntity
  8
1
100
AcDbLine
 10
363.944179
 20
294.905783
 30
0.0
 11
363.968647
 21
294.997392
 31
0.0
  0
LINE
  5
C4
330
1F
100
AcDbEntity
  8
1
100
AcDbLine
 10
357.456449
 20
291.645938
 30
0.0
 11
357.466193
 21
291.361167
 31
0.0
  0
LINE
  5
C5
330
1F
100
AcDbEntity
  8
1
100
AcDbLine
 10
357.493669
 20
290.5580819999999
 30
0.0
 11
357.527269
 21
289.576048
 31
0.0
  0
LINE
  5
C6
330
1F
100
AcDbEntity
  8
1
100
AcDbLine
 10
365.97936
 20
291.535311
 30
0.0
 11
361.106056
 21
291.322949
 31
0.0
  0
LINE
  5
C7
330
1F
100
AcDbEntity
  8
1
100
AcDbLine
 10
285.904842
 20
299.8450660000001
 30
0.0
 11
285.904842
 21
288.070879
 31
0.0
  0
LINE
  5
C8
330
1F
100
AcDbEntity
  8
1
100
AcDbLine
 10
366.263007
 20
284.939494
 30
0.0
 11
366.548164
 21
284.939494
 31
0.0
  0
LINE
  5
C9
330
1F
100
AcDbEntity
  8
1
100
AcDbLine
 10
361.580927
 20
291.9028649999999
 30
0.0
 11
367.522141
 21
292.161763
 31
0.0
  0
LINE
  5
CA
330
1F
100
AcDbEntity
  8
1
100
AcDbLine
 10
367.522689
 20
292.1019970000001
 30
0.0
 11
367.522141
 21
292.161763
 31
0.0
  0
LINE
  5
CB
330
1F
100
AcDbEntity
  8
1
100
AcDbLine
 10
367.439979
 20
291.558694
 30
0.0
 11
361.113506
 21
291.283008
 31
0.0
  0
LINE
  5
CC
330
1F
100
AcDbEntity
  8
1
100
AcDbLine
 10
367.439979
 20
291.558694
 30
0.0
 11
366.160614
 21
289.426994
 31
0.0
  0
LINE
  5
CD
330
1F
100
AcDbEntity
  8
1
100
AcDbLine
 10
367.564101
 20
292.182948
 30
0.0
 11
361.586158
 21
291.922449
 31
0.0
  0
LINE
  5
CE
330
1F
100
AcDbEntity
  8
1
100
AcDbLine
 10
361.580927
 20
291.9028649999999
 30
0.0
 11
361.586158
 21
291.922449
 31
0.0
  0
LINE
  5
CF
330
1F
100
AcDbEntity
  8
1
100
AcDbLine
 10
367.28603
 20
289.509353
 30
0.0
 11
367.421672
 21
289.506985
 31
0.0
  0
LINE
  5
D0
330
1F
100
AcDbEntity
  8
1
100
AcDbLine
 10
367.421672
 20
289.506985
 30
0.0
 11
367.66268
 21
289.833577
 31
0.0
  0
LINE
  5
D1
330
1F
100
AcDbEntity
  8
1
100
AcDbLine
 10
367.66268
 20
290.072187
 30
0.0
 11
367.66268
 21
289.833577
 31
0.0
  0
LINE
  5
D2
330
1F
100
AcDbEntity
  8
1
100
AcDbLine
 10
367.66268
 20
290.072187
 30
0.0
 11
367.704842
 21
290.071452
 31
0.0
  0
LINE
  5
D3
330
1F
100
AcDbEntity
  8
1
100
AcDbLine
 10
367.704842
 20
292.460331
 30
0.0
 11
367.704842
 21
290.071452
 31
0.0
  0
LINE
  5
D4
330
1F
100
AcDbEntity
  8
1
100
AcDbLine
 10
367.564101
 20
292.182948
 30
0.0
 11
367.562047
 21
292.4068660000001
 31
0.0
  0
LINE
  5
D5
330
1F
100
AcDbEntity
  8
1
100
AcDbLine
 10
367.564101
 20
292.182948
 30
0.0
 11
367.522141
 21
292.161763
 31
0.0
  0
LINE
  5
D6
330
1F
100
AcDbEntity
  8
1
100
AcDbLine
 10
367.439979
 20
291.558694
 30
0.0
 11
367.457333
 21
291.567455
 31
0.0
  0
LINE
  5
D7
330
1F
100
AcDbEntity
  8
1
100
AcDbLine
 10
366.958539
 20
277.907994
 30
0.0
 11
367.349735
 21
281.593757
 31
0.0
  0
LINE
  5
D8
330
1F
100
AcDbEntity
  8
1
100
AcDbLine
 10
367.349735
 20
281.593757
 30
0.0
 11
367.307644
 21
281.594431
 31
0.0
  0
LINE
  5
D9
330
1F
100
AcDbEntity
  8
1
100
AcDbLine
 10
367.332926
 20
281.832631
 30
0.0
 11
367.307644
 21
281.594431
 31
0.0
  0
LINE
  5
DA
330
1F
100
AcDbEntity
  8
1
100
AcDbLine
 10
367.332926
 20
281.832631
 30
0.0
 11
367.127377
 21
282.1667109999999
 31
0.0
  0
LINE
  5
DB
330
1F
100
AcDbEntity
  8
1
100
AcDbLine
 10
367.127377
 20
282.1667109999999
 30
0.0
 11
366.991965
 21
282.168877
 31
0.0
  0
LINE
  5
DC
330
1F
100
AcDbEntity
  8
1
100
AcDbLine
 10
366.981665
 20
282.469081
 30
0.0
 11
367.243868
 21
284.939494
 31
0.0
  0
LINE
  5
DD
330
1F
100
AcDbEntity
  8
1
100
AcDbLine
 10
366.863748
 20
284.939494
 30
0.0
 11
367.243868
 21
284.939494
 31
0.0
  0
LINE
  5
DE
330
1F
100
AcDbEntity
  8
1
100
AcDbLine
 10
367.243868
 20
284.939494
 30
0.0
 11
367.243868
 21
289.2100430000001
 31
0.0
  0
LINE
  5
DF
330
1F
100
AcDbEntity
  8
1
100
AcDbLine
 10
359.923556
 20
299.388211
 30
0.0
 11
359.904687
 21
299.822668
 31
0.0
  0
LINE
  5
E0
330
1F
100
AcDbEntity
  8
SK1
100
AcDbLine
 10
220.404842
 20
301.407994
 30
0.0
 11
220.404842
 21
276.407994
 31
0.0
  0
LINE
  5
E1
330
1F
100
AcDbEntity
  8
SK1
100
AcDbLine
 10
218.404842
 20
299.407994
 30
0.0
 11
218.404842
 21
278.407994
 31
0.0
  0
LINE
  5
E2
330
1F
100
AcDbEntity
  8
81
100
AcDbLine
 10
366.404842
 20
300.407994
 30
0.0
 11
370.404842
 21
300.407994
 31
0.0
  0
LINE
  5
E3
330
1F
100
AcDbEntity
  8
SK1
100
AcDbLine
 10
220.404842
 20
276.407994
 30
0.0
 11
274.404842
 21
276.407994
 31
0.0
  0
LINE
  5
E4
330
1F
100
AcDbEntity
  8
81
100
AcDbLine
 10
368.404842
 20
302.407994
 30
0.0
 11
368.404842
 21
298.407994
 31
0.0
  0
LINE
  5
E5
330
1F
100
AcDbEntity
  8
80
100
AcDbLine
 10
274.404842
 20
287.90842
 30
0.0
 11
274.404842
 21
289.907567
 31
0.0
  0
LINE
  5
E6
330
1F
100
AcDbEntity
  8
1
100
AcDbLine
 10
274.904842
 20
271.407994
 30
0.0
 11
279.404842
 21
271.407994
 31
0.0
  0
LINE
  5
E7
330
1F
100
AcDbEntity
  8
1
100
AcDbLine
 10
274.404842
 20
305.907994
 30
0.0
 11
274.404842
 21
288.907994
 31
0.0
  0
LINE
  5
E8
330
1F
100
AcDbEntity
  8
1
100
AcDbLine
 10
274.404842
 20
288.907994
 30
0.0
 11
274.404842
 21
271.907994
 31
0.0
  0
LINE
  5
11E
330
1F
100
AcDbEntity
  8
NOCUT
100
AcDbLine
 10
292.532259
 20
299.907994
 30
0.0
 11
367.387182
 21
299.907994
 31
0.0
  0
LINE
  5
11F
330
1F
100
AcDbEntity
  8
NOCUT
100
AcDbLine
 10
218.404842
 20
299.407994
 30
0.0
 11
220.404842
 21
301.407994
 31
0.0
  0
LINE
  5
120
330
1F
100
AcDbEntity
  8
NOCUT
100
AcDbLine
 10
274.404842
 20
301.407994
 30
0.0
 11
274.404842
 21
305.907994
 31
0.0
  0
LINE
  5
121
330
1F
100
AcDbEntity
  8
NOCUT
100
AcDbLine
 10
274.404842
 20
305.907994
 30
0.0
 11
274.904842
 21
306.407994
 31
0.0
  0
LINE
  5
122
330
1F
100
AcDbEntity
  8
NOCUT
100
AcDbLine
 10
279.404842
 20
306.407994
 30
0.0
 11
281.21855
 21
304.594285
 31
0.0
  0
LINE
  5
123
330
1F
100
AcDbEntity
  8
NOCUT
100
AcDbLine
 10
367.387182
 20
299.907994
 30
0.0
 11
367.704842
 21
292.688634
 31
0.0
  0
LINE
  5
124
330
1F
100
AcDbEntity
  8
NOCUT
100
AcDbLine
 10
367.704842
 20
292.688634
 30
0.0
 11
367.704842
 21
288.907994
 31
0.0
  0
LINE
  5
125
330
1F
100
AcDbEntity
  8
NOCUT
100
AcDbLine
 10
367.704842
 20
288.907994
 30
0.0
 11
218.404842
 21
288.907994
 31
0.0
  0
LINE
  5
126
330
1F
100
AcDbEntity
  8
NOCUT
100
AcDbLine
 10
274.404842
 20
301.407994
 30
0.0
 11
220.404842
 21
301.407994
 31
0.0
  0
LINE
  5
127
330
1F
100
AcDbEntity
  8
NOCUT
100
AcDbLine
 10
279.404842
 20
306.407994
 30
0.0
 11
274.904842
 21
306.407994
 31
0.0
  0
LINE
  5
128
330
1F
100
AcDbEntity
  8
NOCUT
100
AcDbLine
 10
218.404842
 20
299.407994
 30
0.0
 11
218.404842
 21
288.907994
 31
0.0
  0
CIRCLE
  5
131
330
1F
100
AcDbEntity
  8
1
100
AcDbCircle
 10
364.278336
 20
286.082145
 30
0.0
 40
0.8499999999999991
  0
ARC
  5
132
330
1F
100
AcDbEntity
  8
1
100
AcDbCircle
 10
292.532259
 20
261.907994
 30
0.0
 40
16.0
100
AcDbArc
 50
90.0
 51
135.0
  0
ARC
  5
133
330
1F
100
AcDbEntity
  8
1
100
AcDbCircle
 10
364.278336
 20
286.082145
 30
0.0
 40
1.25
100
AcDbArc
 50
75.0
 51
345.0
  0
ARC
  5
134
330
1F
100
AcDbEntity
  8
1
100
AcDbCircle
 10
292.532259
 20
315.907994
 30
0.0
 40
16.0
100
AcDbArc
 50
225.0
 51
270.0
  0
ARC
  5
143
330
1F
100
AcDbEntity
  8
NOCUT
100
AcDbCircle
 10
292.532259
 20
315.907994
 30
0.0
 40
16.0
100
AcDbArc
 50
225.0
 51
270.0
  0
ELLIPSE
  5
144
330
1F
100
AcDbEntity
  8
1
100
AcDbEllipse
 10
360.888335
 20
292.925798
 30
0.0
 11
-1.062746035967131
 21
0.2838500714041645
 31
0.0
210
0.0
220
0.0
230
1.0
 40
0.9977149999999998
 41
0.104141094233968
 42
1.875999615090898
  0
ELLIPSE
  5
145
330
1F
100
AcDbEntity
  8
1
100
AcDbEllipse
 10
360.888335
 20
292.925798
 30
0.0
 11
-1.062746035967131
 21
0.2838500714041645
 31
0.0
210
0.0
220
0.0
230
1.0
 40
0.9977149999999998
 41
1.8759996150909
 42
2.566757373474152
  0
ELLIPSE
  5
146
330
1F
100
AcDbEntity
  8
1
100
AcDbEllipse
 10
360.834633
 20
292.724734
 30
0.0
 11
-1.062746035967131
 21
0.2838500714041648
 31
0.0
210
0.0
220
0.0
230
0.9999999999999998
 40
0.9977149999999998
 41
5.638610566998326
 42
5.892812182635312
  0
ELLIPSE
  5
147
330
1F
100
AcDbEntity
  8
1
100
AcDbEllipse
 10
360.829402
 20
292.70515
 30
0.0
 11
1.062746035967131
 21
-0.2838500714041658
 31
0.0
210
0.0
220
0.0
230
1.0
 40
0.9977149999999998
 41
2.751219529045529
 42
4.347216513210575
  0
ELLIPSE
  5
148
330
1F
100
AcDbEntity
  8
1
100
AcDbEllipse
 10
360.167604
 20
288.907973
 30
0.0
 11
0.4635413574256115
 21
-11.00001611126939
 31
0.0
210
0.0
220
0.0
230
1.0
 40
0.020196
 41
3.265019623450982
 42
3.292362580984426
  0
ELLIPSE
  5
149
330
1F
100
AcDbEntity
  8
1
100
AcDbEllipse
 10
311.302684
 20
288.907994
 30
0.0
 11
62.37830585761325
 21
-9.466295792259073
 31
0.0
210
0.0
220
0.0
230
0.9999999999999998
 40
0.089817
 41
4.420398092030061
 42
4.509568454501186
  0
ELLIPSE
  5
14A
330
1F
100
AcDbEntity
  8
1
100
AcDbEllipse
 10
297.904842
 20
282.083531
 30
0.0
 11
-1.780079476997646
 21
-5.729861870549039
 31
0.0
210
0.0
220
0.0
230
1.0
 40
0.178196
 41
4.191614377505721
 42
5.58083121984499
  0
ELLIPSE
  5
14B
330
1F
100
AcDbEntity
  8
1
100
AcDbEllipse
 10
363.450278
 20
294.976616
 30
0.0
 11
-0.0965221760105446
 21
0.0257802199447826
 31
0.0
210
0.0
220
0.0
230
1.0
 40
0.9977149999999999
 41
5.215854252080137
 42
6.064789404490766
  0
ELLIPSE
  5
14C
330
1F
100
AcDbEntity
  8
1
100
AcDbEllipse
 10
363.272965
 20
295.0686819999999
 30
0.0
 11
-0.0965221760105447
 21
0.0257802199447826
 31
0.0
210
0.0
220
0.0
230
1.0
 40
0.9977149999999999
 41
1.550662822891835
 42
2.92319675090097
  0
ELLIPSE
  5
14D
330
1F
100
AcDbEntity
  8
1
100
AcDbEllipse
 10
363.399228
 20
295.505835
 30
0.0
 11
-0.5371411886095511
 21
0.1434656630849616
 31
0.0
210
0.0
220
0.0
230
0.9999999999999998
 40
0.9977149999999999
 41
0.6305392497220025
 42
1.550662822891813
  0
ELLIPSE
  5
14E
330
1F
100
AcDbEntity
  8
1
100
AcDbEllipse
 10
362.97411
 20
295.341704
 30
0.0
 11
-0.0965221760105445
 21
0.0257802199447826
 31
0.0
210
0.0
220
0.0
230
1.0
 40
0.9977149999999999
 41
5.541190628892436
 42
6.913724556901718
  0
ELLIPSE
  5
14F
330
1F
100
AcDbEntity
  8
1
100
AcDbEllipse
 10
362.866575
 20
295.509864
 30
0.0
 11
-0.0965221760105446
 21
0.0257802199447826
 31
0.0
210
0.0
220
0.0
230
1.0
 40
0.9977149999999999
 41
2.399597975302661
 42
3.248533127713478
  0
ELLIPSE
  5
150
330
1F
100
AcDbEntity
  8
1
100
AcDbEllipse
 10
362.415941
 20
295.579954
 30
0.0
 11
-0.5371411886095507
 21
0.1434656630849615
 31
0.0
210
0.0
220
0.0
230
1.0
 40
0.9977149999999999
 41
3.248533127713455
 42
4.168656700883304
  0
ELLIPSE
  5
151
330
1F
100
AcDbEntity
  8
1
100
AcDbEllipse
 10
362.744371
 20
295.895285
 30
0.0
 11
-0.0965221760105446
 21
0.0257802199447826
 31
0.0
210
0.0
220
0.0
230
1.0
 40
0.9977149999999999
 41
4.16865670088314
 42
5.017591853294019
  0
ELLIPSE
  5
152
330
1F
100
AcDbEntity
  8
1
100
AcDbEllipse
 10
362.735429
 20
296.09448
 30
0.0
 11
-0.0965221760105447
 21
0.0257802199447826
 31
0.0
210
0.0
220
0.0
230
1.0
 40
0.9977149999999999
 41
0.503465271695243
 42
1.875999199704215
  0
ELLIPSE
  5
153
330
1F
100
AcDbEntity
  8
1
100
AcDbEllipse
 10
363.178023
 20
296.203494
 30
0.0
 11
-0.5371411886095511
 21
0.1434656630849616
 31
0.0
210
0.0
220
0.0
230
0.9999999999999998
 40
0.9977149999999999
 41
5.866527005704945
 42
6.786650578874817
  0
ELLIPSE
  5
154
330
1F
100
AcDbEntity
  8
1
100
AcDbEllipse
 10
362.82262
 20
296.489025
 30
0.0
 11
-0.0965221760105445
 21
0.0257802199447826
 31
0.0
210
0.0
220
0.0
230
1.0
 40
0.9977149999999999
 41
4.493993077695681
 42
5.866527005704781
  0
ELLIPSE
  5
155
330
1F
100
AcDbEntity
  8
1
100
AcDbEllipse
 10
362.914666
 20
296.665882
 30
0.0
 11
-0.0965221760105446
 21
0.0257802199447826
 31
0.0
210
0.0
220
0.0
230
1.0
 40
0.9977149999999999
 41
1.352400424106059
 42
2.201335576516872
  0
ELLIPSE
  5
156
330
1F
100
AcDbEntity
  8
1
100
AcDbEllipse
 10
362.749725
 20
297.090346
 30
0.0
 11
-0.5371411886095507
 21
0.1434656630849615
 31
0.0
210
0.0
220
0.0
230
1.0
 40
0.9977149999999999
 41
2.201335576516865
 42
3.121459149686713
  0
ELLIPSE
  5
157
330
1F
100
AcDbEntity
  8
1
100
AcDbEllipse
 10
363.18789
 20
296.9638339999999
 30
0.0
 11
-0.0965221760105446
 21
0.0257802199447826
 31
0.0
210
0.0
220
0.0
230
1.0
 40
0.9977149999999999
 41
3.121459149686733
 42
3.970394302097709
  0
ELLIPSE
  5
158
330
1F
100
AcDbEntity
  8
1
100
AcDbEllipse
 10
363.356261
 20
297.070964
 30
0.0
 11
-0.0965221760105447
 21
0.0257802199447826
 31
0.0
210
0.0
220
0.0
230
1.0
 40
0.9977149999999999
 41
5.739453027678334
 42
7.111986955687171
  0
ELLIPSE
  5
159
330
1F
100
AcDbEntity
  8
1
100
AcDbEllipse
 10
363.672593
 20
296.742825
 30
0.0
 11
-0.5371411886095511
 21
0.1434656630849616
 31
0.0
210
0.0
220
0.0
230
0.9999999999999998
 40
0.9977149999999999
 41
4.819329454508376
 42
5.739453027678207
  0
ELLIPSE
  5
15A
330
1F
100
AcDbEntity
  8
1
100
AcDbEllipse
 10
363.742308
 20
297.192487
 30
0.0
 11
-0.0965221760105445
 21
0.0257802199447826
 31
0.0
210
0.0
220
0.0
230
1.0
 40
0.9977149999999999
 41
3.446795526499336
 42
4.819329454508443
  0
ELLIPSE
  5
15B
330
1F
100
AcDbEntity
  8
1
100
AcDbEllipse
 10
363.941889
 20
297.201184
 30
0.0
 11
-0.0965221760105446
 21
0.0257802199447826
 31
0.0
210
0.0
220
0.0
230
1.0
 40
0.9977149999999999
 41
0.3052028729094756
 42
1.154138025320124
  0
ELLIPSE
  5
15C
330
1F
100
AcDbEntity
  8
1
100
AcDbEllipse
 10
364.227582
 20
297.555557
 30
0.0
 11
-0.5371411886095507
 21
0.1434656630849615
 31
0.0
210
0.0
220
0.0
230
1.0
 40
0.9977149999999999
 41
1.154138025320274
 42
2.074261598490139
  0
ELLIPSE
  5
15D
330
1F
100
AcDbEntity
  8
1
100
AcDbEllipse
 10
364.337317
 20
297.113715
 30
0.0
 11
-0.0965221760105446
 21
0.0257802199447826
 31
0.0
210
0.0
220
0.0
230
1.0
 40
0.9977149999999999
 41
2.074261598490151
 42
2.923196750901004
  0
ELLIPSE
  5
15E
330
1F
100
AcDbEntity
  8
1
100
AcDbEllipse
 10
364.5146299999999
 20
297.021649
 30
0.0
 11
-0.0965221760105447
 21
0.0257802199447826
 31
0.0
210
0.0
220
0.0
230
1.0
 40
0.9977149999999999
 41
4.692255476481488
 42
6.064789404490766
  0
ELLIPSE
  5
15F
330
1F
100
AcDbEntity
  8
1
100
AcDbEllipse
 10
364.388367
 20
296.584495
 30
0.0
 11
-0.5371411886095511
 21
0.1434656630849616
 31
0.0
210
0.0
220
0.0
230
0.9999999999999998
 40
0.9977149999999999
 41
3.772131903311779
 42
4.692255476481657
  0
ELLIPSE
  5
160
330
1F
100
AcDbEntity
  8
1
100
AcDbEllipse
 10
364.813486
 20
296.748626
 30
0.0
 11
-0.0965221760105445
 21
0.0257802199447826
 31
0.0
210
0.0
220
0.0
230
1.0
 40
0.9977149999999999
 41
2.399597975302643
 42
3.772131903311842
  0
ELLIPSE
  5
161
330
1F
100
AcDbEntity
  8
1
100
AcDbEllipse
 10
364.92102
 20
296.580467
 30
0.0
 11
-0.0965221760105446
 21
0.0257802199447826
 31
0.0
210
0.0
220
0.0
230
1.0
 40
0.9977149999999999
 41
5.541190628892383
 42
6.390125781303411
  0
ELLIPSE
  5
162
330
1F
100
AcDbEntity
  8
1
100
AcDbEllipse
 10
365.371655
 20
296.5103759999999
 30
0.0
 11
-0.5371411886095507
 21
0.1434656630849615
 31
0.0
210
0.0
220
0.0
230
1.0
 40
0.9977149999999999
 41
0.1069404741236843
 42
1.02706404729353
  0
ELLIPSE
  5
163
330
1F
100
AcDbEntity
  8
1
100
AcDbEllipse
 10
365.043225
 20
296.195046
 30
0.0
 11
-0.0965221760105446
 21
0.0257802199447826
 31
0.0
210
0.0
220
0.0
230
1.0
 40
0.9977149999999999
 41
1.027064047293469
 42
1.875999199704363
  0
ELLIPSE
  5
164
330
1F
100
AcDbEntity
  8
1
100
AcDbEllipse
 10
365.052167
 20
295.9958509999999
 30
0.0
 11
-0.0965221760105447
 21
0.0257802199447826
 31
0.0
210
0.0
220
0.0
230
1.0
 40
0.9977149999999999
 41
3.645057925284941
 42
5.017591853294144
  0
ELLIPSE
  5
165
330
1F
100
AcDbEntity
  8
1
100
AcDbEllipse
 10
364.609572
 20
295.886836
 30
0.0
 11
-0.5371411886095511
 21
0.1434656630849616
 31
0.0
210
0.0
220
0.0
230
0.9999999999999998
 40
0.9977149999999999
 41
2.724934352115202
 42
3.645057925285
  0
ELLIPSE
  5
166
330
1F
100
AcDbEntity
  8
1
100
AcDbEllipse
 10
364.964975
 20
295.601305
 30
0.0
 11
-0.0965221760105445
 21
0.0257802199447826
 31
0.0
210
0.0
220
0.0
230
1.0
 40
0.9977149999999999
 41
1.352400424105889
 42
2.724934352115167
  0
ELLIPSE
  5
167
330
1F
100
AcDbEntity
  8
1
100
AcDbEllipse
 10
364.872929
 20
295.424448
 30
0.0
 11
-0.0965221760105446
 21
0.0257802199447826
 31
0.0
210
0.0
220
0.0
230
1.0
 40
0.9977149999999999
 41
4.493993077695821
 42
5.342928230106436
  0
ELLIPSE
  5
168
330
1F
100
AcDbEntity
  8
1
100
AcDbEllipse
 10
365.037871
 20
294.999985
 30
0.0
 11
-0.5371411886095507
 21
0.1434656630849615
 31
0.0
210
0.0
220
0.0
230
1.0
 40
0.9977149999999999
 41
5.342928230106641
 42
6.263051803276507
  0
ELLIPSE
  5
169
330
1F
100
AcDbEntity
  8
1
100
AcDbEllipse
 10
364.599705
 20
295.1264959999999
 30
0.0
 11
-0.0965221760105446
 21
0.0257802199447826
 31
0.0
210
0.0
220
0.0
230
1.0
 40
0.9977149999999999
 41
6.263051803276384
 42
7.111986955687512
  0
ELLIPSE
  5
16A
330
1F
100
AcDbEntity
  8
1
100
AcDbEllipse
 10
364.431334
 20
295.019367
 30
0.0
 11
-0.0965221760105447
 21
0.0257802199447826
 31
0.0
210
0.0
220
0.0
230
1.0
 40
0.9977149999999999
 41
2.597860374088529
 42
3.97039430209746
  0
ELLIPSE
  5
16B
330
1F
100
AcDbEntity
  8
1
100
AcDbEllipse
 10
364.115003
 20
295.347506
 30
0.0
 11
-0.5371411886095511
 21
0.1434656630849616
 31
0.0
210
0.0
220
0.0
230
0.9999999999999998
 40
0.9977149999999999
 41
1.677736800918605
 42
2.597860374088431
  0
ELLIPSE
  5
16C
330
1F
100
AcDbEntity
  8
1
100
AcDbEllipse
 10
364.045287
 20
294.897844
 30
0.0
 11
-0.0965221760105445
 21
0.0257802199447826
 31
0.0
210
0.0
220
0.0
230
1.0
 40
0.9977149999999999
 41
0.3052028729094416
 42
1.677736800918516
  0
ELLIPSE
  5
16D
330
1F
100
AcDbEntity
  8
1
100
AcDbEllipse
 10
363.845707
 20
294.889147
 30
0.0
 11
-0.0965221760105446
 21
0.0257802199447826
 31
0.0
210
0.0
220
0.0
230
1.0
 40
0.9977149999999999
 41
3.446795526499268
 42
4.295730678910076
  0
ELLIPSE
  5
16E
330
1F
100
AcDbEntity
  8
1
100
AcDbEllipse
 10
363.560014
 20
294.534774
 30
0.0
 11
-0.5371411886095507
 21
0.1434656630849615
 31
0.0
210
0.0
220
0.0
230
1.0
 40
0.9977149999999999
 41
4.295730678910043
 42
5.215854252079928
  0
ELLIPSE
  5
16F
330
1F
100
AcDbEntity
  8
1
100
AcDbEllipse
 10
363.893798
 20
296.045165
 30
0.0
 11
1.449199139955178
 21
-0.3870682791874988
 31
0.0
210
0.0
220
0.0
230
1.0
 40
0.9977149999999999
 41
0.0
 42
6.283185307179585
  0
ELLIPSE
  5
170
330
1F
100
AcDbEntity
  8
1
100
AcDbEllipse
 10
363.896584
 20
296.0555990000001
 30
0.0
 11
2.02887879593725
 21
-0.5418955908624986
 31
0.0
210
0.0
220
0.0
230
0.9999999999999998
 40
0.9977149999999998
 41
0.0000758553927787
 42
3.141570205207873
  0
ELLIPSE
  5
171
330
1F
100
AcDbEntity
  8
1
100
AcDbEllipse
 10
364.030733
 20
296.254049
 30
0.0
 11
2.024293893218509
 21
-0.5406710038774138
 31
0.0
210
0.0
220
0.0
230
1.0
 40
0.9977149999999999
 41
2.268305516979778
 42
2.728745374265054
  0
ELLIPSE
  5
172
330
1F
100
AcDbEntity
  8
1
100
AcDbEllipse
 10
364.030733
 20
296.254049
 30
0.0
 11
2.024293893218509
 21
-0.5406710038774138
 31
0.0
210
0.0
220
0.0
230
1.0
 40
0.9977149999999999
 41
5.912945781682338
 42
6.283185307179585
  0
ELLIPSE
  5
173
330
1F
100
AcDbEntity
  8
1
100
AcDbEllipse
 10
364.030733
 20
296.254049
 30
0.0
 11
2.024293893218509
 21
-0.5406710038774138
 31
0.0
210
0.0
220
0.0
230
1.0
 40
0.9977149999999999
 41
0.0
 42
0.873340249577242
  0
ELLIPSE
  5
174
330
1F
100
AcDbEntity
  8
1
100
AcDbEllipse
 10
361.105412
 20
292.964499
 30
0.0
 11
0.9539746236411144
 21
1.042276062326646
 31
0.0
210
0.0
220
0.0
230
1.0
 40
0.022111
 41
0.9735594950053032
 42
1.528370528259507
  0
ELLIPSE
  5
175
330
1F
100
AcDbEntity
  8
1
100
AcDbEllipse
 10
364.010943
 20
296.179956
 30
0.0
 11
2.081762203440895
 21
-0.5560202815110453
 31
0.0
210
0.0
220
0.0
230
1.0
 40
0.9977149999999999
 41
0.0
 42
6.283185307179585
  0
ELLIPSE
  5
176
330
1F
100
AcDbEntity
  8
1
100
AcDbEllipse
 10
360.834501
 20
298.999403
 30
0.0
 11
1.042958969819723
 21
-0.9545996753465791
 31
0.0
210
0.0
220
0.0
230
1.0
 40
0.042396
 41
1.0380638239013
 42
1.592874857209608
  0
ELLIPSE
  5
177
330
1F
100
AcDbEntity
  8
1
100
AcDbEllipse
 10
364.0080660000001
 20
296.169184
 30
0.0
 11
-2.17379870993277
 21
0.5806024187812464
 31
0.0
210
0.0
220
0.0
230
1.0
 40
0.9977149999999999
 41
0.0
 42
6.283185307179585
  0
ELLIPSE
  5
178
330
1F
100
AcDbEntity
  8
1
100
AcDbEllipse
 10
366.88108
 20
299.2628919999999
 30
0.0
 11
0.953974625690572
 21
1.042276064546569
 31
0.0
210
0.0
220
0.0
230
1.0
 40
0.022111
 41
1.528370528761813
 42
2.083181560870424
  0
ELLIPSE
  5
179
330
1F
100
AcDbEntity
  8
1
100
AcDbEllipse
 10
367.151991
 20
293.227989
 30
0.0
 11
1.042958970291028
 21
-0.9545996757465788
 31
0.0
210
0.0
220
0.0
230
1.0
 40
0.042396
 41
1.592874856808994
 42
2.147685889880281
  0
ELLIPSE
  5
17A
330
1F
100
AcDbEntity
  8
1
100
AcDbEllipse
 10
360.601367
 20
288.907994
 30
0.0
 11
0.4635404545705847
 21
-10.99999599967847
 31
0.0
210
0.0
220
0.0
230
0.9999999999999996
 40
0.020196
 41
3.021031045145798
 42
3.108899858933308
  0
ELLIPSE
  5
17B
330
1F
100
AcDbEntity
  8
1
100
AcDbEllipse
 10
360.549314
 20
303.884416
 30
0.0
 11
-12.1732727756235
 21
3.251373545174976
 31
0.0
210
0.0
220
0.0
230
1.0
 40
0.9977149999999999
 41
1.522663386081553
 42
1.875432128371013
  0
ELLIPSE
  5
17C
330
1F
100
AcDbEntity
  8
1
100
AcDbEllipse
 10
363.911234
 20
296.1104460000001
 30
0.0
 11
-2.028878795937251
 21
0.5418955908624966
 31
0.0
210
0.0
220
0.0
230
0.9999999999999998
 40
0.9977149999999998
 41
3.141668525145667
 42
6.283162874960758
  0
ELLIPSE
  5
17D
330
1F
100
AcDbEntity
  8
1
100
AcDbEllipse
 10
296.878782
 20
274.527015
 30
0.0
 11
-20.39543189848695
 21
4.213299241690626
 31
0.0
210
0.0
220
0.0
230
1.0
 40
0.5130939999999999
 41
4.767940993461091
 42
6.173974677929884
  0
ELLIPSE
  5
17E
330
1F
100
AcDbEntity
  8
1
100
AcDbEllipse
 10
360.829402
 20
292.70515
 30
0.0
 11
1.062746035967131
 21
-0.2838500714041658
 31
0.0
210
0.0
220
0.0
230
1.0
 40
0.9977149999999998
 41
5.636696925084077
 42
5.725102597328642
  0
ELLIPSE
  5
17F
330
1F
100
AcDbEntity
  8
1
100
AcDbEllipse
 10
360.472467
 20
288.907994
 30
0.0
 11
0.3846530380633856
 21
-10.99986529149714
 31
0.0
210
0.0
220
0.0
230
1.0
 40
0.141526
 41
3.104801947568814
 42
3.261278269465408
  0
ELLIPSE
  5
180
330
1F
100
AcDbEntity
  8
1
100
AcDbEllipse
 10
361.818532
 20
288.907994
 30
0.0
 11
18.86928000164436
 21
-10.85220596933279
 31
0.0
210
0.0
220
0.0
230
1.0
 40
0.09524
 41
3.918659672261481
 42
4.362488518365669
  0
ELLIPSE
  5
181
330
1F
100
AcDbEntity
  8
1
100
AcDbEllipse
 10
303.553698
 20
288.907994
 30
0.0
 11
234.0468920622082
 21
10.72733117721355
 31
0.0
210
0.0
220
0.0
230
1.0
 40
0.0104
 41
4.960710624424551
 42
4.98270705279725
  0
ELLIPSE
  5
182
330
1F
100
AcDbEntity
  8
1
100
AcDbEllipse
 10
360.834633
 20
292.724734
 30
0.0
 11
-1.062746035967131
 21
0.2838500714041648
 31
0.0
210
0.0
220
0.0
230
0.9999999999999998
 40
0.9977149999999998
 41
2.583509943738848
 42
2.81584766245376
  0
ELLIPSE
  5
183
330
1F
100
AcDbEntity
  8
1
100
AcDbEllipse
 10
367.28603
 20
289.2093069999999
 30
0.0
 11
0.0001054973293689
 21
-0.3000466005998807
 31
0.0
210
0.0
220
0.0
230
1.0
 40
0.140519
 41
3.139090475970026
 42
4.709886802762991
  0
ELLIPSE
  5
184
330
1F
100
AcDbEntity
  8
1
100
AcDbEllipse
 10
367.452754
 20
292.06669
 30
0.0
 11
0.0003729802237822
 21
0.5004811191546197
 31
0.0
210
0.0
220
0.0
230
1.0
 40
0.140033
 41
3.212303616811488
 42
4.78309994360992
  0
ELLIPSE
  5
185
330
1F
100
AcDbEntity
  8
1
100
AcDbEllipse
 10
367.023756
 20
282.4684069999999
 30
0.0
 11
0.0323262014611158
 21
0.2994966855051205
 31
0.0
210
0.0
220
0.0
230
0.9999999999999998
 40
0.139171
 41
1.583568179246922
 42
3.154364506043115
  0
ELLIPSE
  5
186
330
1F
100
AcDbEntity
  8
1
100
AcDbEllipse
 10
368.126047
 20
288.907994
 30
0.0
 11
1.190626463624651
 21
10.99875595732881
 31
0.0
210
0.0
220
0.0
230
0.9999999999999998
 40
0.138944
 41
1.954932354999523
 42
3.156632395651062
  0
ELLIPSE
  5
187
330
1F
100
AcDbEntity
  8
1
100
AcDbEllipse
 10
367.704842
 20
288.907994
 30
0.0
 11
0.0
 21
10.99999999983531
 31
0.0
210
0.0
220
0.0
230
1.0
 40
0.140541
 41
1.52359692957345
 42
1.939892612943433
  0
SPLINE
  5
18E
330
1F
100
AcDbEntity
  8
1
100
AcDbSpline
210
0.0
220
0.0
230
1.0
 70
     8
 71
     3
 72
    26
 73
    22
 74
     0
 42
0.000000001
 43
0.0000000001
 40
0.0
 40
0.0
 40
0.0
 40
0.0
 40
0.039385209521696
 40
0.039385209521696
 40
0.1766158938757403
 40
0.1766158938757403
 40
0.2452312360527622
 40
0.2452312360527622
 40
0.3138465782297844
 40
0.3138465782297844
 40
0.3824619204068063
 40
0.3824619204068063
 40
0.4510772625838286
 40
0.4510772625838286
 40
0.5883079469378714
 40
0.5883079469378714
 40
0.7255386312919142
 40
0.7255386312919142
 40
0.8627693156459573
 40
0.8627693156459573
 40
1.0
 40
1.0
 40
1.0
 40
1.0
 10
325.7393712435835
 20
280.0343397786642
 30
0.0
 10
325.5203392887808
 20
279.9976101277929
 30
0.0
 10
325.3012847155465
 20
279.9613192212398
 30
0.0
 10
324.3188545446577
 20
279.8005818653154
 30
0.0
 10
323.5551842533263
 20
279.6811158291537
 30
0.0
 10
322.4087069025635
 20
279.5108861343333
 30
0.0
 10
322.0263751962671
 20
279.4556552642013
 30
0.0
 10
321.2613119882585
 20
279.3482730427154
 30
0.0
 10
320.8785915220326
 20
279.2961002367735
 30
0.0
 10
320.1128067976412
 20
279.1946904557668
 30
0.0
 10
319.7297263177105
 20
279.1454514776234
 30
0.0
 10
318.9633119402878
 20
279.0498508214831
 30
0.0
 10
318.580145724242
 20
279.0035100149305
 30
0.0
 10
317.4307791311028
 20
278.8687992855273
 30
0.0
 10
316.6647169717653
 20
278.784730542773
 30
0.0
 10
315.1328657068448
 20
278.6280295604791
 30
0.0
 10
314.3670759792395
 20
278.5554053102895
 30
0.0
 10
312.8354895742027
 20
278.4218040189027
 30
0.0
 10
312.0696910423939
 20
278.3608346543058
 30
0.0
 10
310.5376555913271
 20
278.2507485739168
 30
0.0
 10
309.7714162772688
 20
278.2016372587817
 30
0.0
 10
309.0046995751373
 20
278.1584509414162
 30
0.0
  0
SPLINE
  5
18F
330
1F
100
AcDbEntity
  8
1
100
AcDbSpline
210
0.0
220
0.0
230
1.0
 70
     8
 71
     3
 72
    14
 73
    10
 74
     0
 42
0.000000001
 43
0.0000000001
 40
0.0
 40
0.0
 40
0.0
 40
0.0
 40
0.25
 40
0.25
 40
0.5
 40
0.5
 40
0.75
 40
0.75
 40
1.0
 40
1.0
 40
1.0
 40
1.0
 10
309.0046995751373
 20
278.1584509414162
 30
0.0
 10
308.0856280954768
 20
278.1132517656326
 30
0.0
 10
307.1653321454646
 20
278.0753303337585
 30
0.0
 10
305.3218494500717
 20
278.012391095627
 30
0.0
 10
304.3986621556376
 20
277.9873693239991
 30
0.0
 10
302.5490595264334
 20
277.9483227617553
 30
0.0
 10
301.6226442918559
 20
277.9342936393519
 30
0.0
 10
299.7663617703479
 20
277.9152050361976
 30
0.0
 10
298.8364949343944
 20
277.9101417929541
 30
0.0
 10
297.9048419452957
 20
277.9085515790435
 30
0.0
  0
SPLINE
  5
190
330
1F
100
AcDbEntity
  8
1
100
AcDbSpline
210
0.0
220
0.0
230
1.0
 70
     8
 71
     3
 72
    14
 73
    10
 74
     0
 42
0.000000001
 43
0.0000000001
 40
0.0
 40
0.0
 40
0.0
 40
0.0
 40
0.25
 40
0.25
 40
0.5
 40
0.5
 40
0.75
 40
0.75
 40
1.0
 40
1.0
 40
1.0
 40
1.0
 10
292.5322589432653
 20
277.9847451092719
 30
0.0
 10
292.8108903092553
 20
277.9753580862964
 30
0.0
 10
293.0896347057597
 20
277.9668831940141
 30
0.0
 10
293.6474340413272
 20
277.95172397049
 30
0.0
 10
293.9264893420205
 20
277.945041584386
 30
0.0
 10
294.4851394018871
 20
277.9334431149106
 30
0.0
 10
294.7647352523846
 20
277.9285287035545
 30
0.0
 10
295.3248182743398
 20
277.9203916033527
 30
0.0
 10
295.6053069305876
 20
277.9171698266658
 30
0.0
 10
295.8864585858815
 20
277.9147112214614
 30
0.0
  0
SPLINE
  5
191
330
1F
100
AcDbEntity
  8
1
100
AcDbSpline
210
0.0
220
0.0
230
1.0
 70
     8
 71
     3
 72
    25
 73
    21
 74
     0
 42
0.000000001
 43
0.0000000001
 40
0.0
 40
0.0
 40
0.0
 40
0.0
 40
0.1250000000000267
 40
0.2500000000000534
 40
0.2500000000000534
 40
0.3125000000000667
 40
0.3125000000000667
 40
0.3750000000000801
 40
0.3750000000000801
 40
0.5000000000000643
 40
0.5000000000000643
 40
0.6250000000000484
 40
0.6250000000000484
 40
0.6875000000000405
 40
0.6875000000000405
 40
0.7500000000000324
 40
0.7500000000000324
 40
0.8750000000000161
 40
0.8750000000000161
 40
1.0
 40
1.0
 40
1.0
 40
1.0
 10
361.0983488784005
 20
291.6384347240903
 30
0.0
 10
361.0592064254219
 20
291.6284114439645
 30
0.0
 10
360.9804850947443
 20
291.6128729134964
 30
0.0
 10
360.9009067255366
 20
291.6061550382897
 30
0.0
 10
360.8408978468798
 20
291.6044580929757
 30
0.0
 10
360.8208406080578
 20
291.604450421306
 30
0.0
 10
360.7806157788028
 20
291.6055697644698
 30
0.0
 10
360.760382191418
 20
291.6067033506841
 30
0.0
 10
360.7000705386832
 20
291.6117950190841
 30
0.0
 10
360.6604335733333
 20
291.6174149505138
 30
0.0
 10
360.5822133022817
 20
291.632918972498
 30
0.0
 10
360.5436299481922
 20
291.6428031595163
 30
0.0
 10
360.486495696437
 20
291.6608116420524
 30
0.0
 10
360.4675745866804
 20
291.6673461091441
 30
0.0
 10
360.4299736137792
 20
291.6814917848695
 30
0.0
 10
360.4112537407505
 20
291.6891233383717
 30
0.0
 10
360.3560786172034
 20
291.7133776729743
 30
0.0
 10
360.3204264592259
 20
291.7314127039991
 30
0.0
 10
360.2512795778836
 20
291.7710719976438
 30
0.0
 10
360.2177851943431
 20
291.7926966178148
 30
0.0
 10
360.1853567688287
 20
291.8161133749003
 30
0.0
  0
SPLINE
  5
192
330
1F
100
AcDbEntity
  8
1
100
AcDbSpline
210
0.0
220
0.0
230
1.0
 70
    12
 71
     2
 72
     6
 73
     3
 74
     0
 42
0.000000001
 43
0.0000000001
 40
0.0
 40
0.0
 40
0.0
 40
1.0
 40
1.0
 40
1.0
 10
359.6802389213984
 20
299.8231549775066
 30
0.0
 41
0.4999990667260299
 10
359.7924642652988
 20
299.8229119633828
 30
0.0
 41
0.5000009332739701
 10
359.9046872416249
 20
299.8226682558719
 30
0.0
 41
0.4999990667260299
  0
SPLINE
  5
193
330
1F
100
AcDbEntity
  8
1
100
AcDbSpline
210
0.0
220
0.0
230
1.0
 70
     8
 71
     3
 72
    12
 73
     8
 74
     0
 42
0.000000001
 43
0.0000000001
 40
0.0
 40
0.0
 40
0.0
 40
0.0
 40
0.2499999999999992
 40
0.2499999999999992
 40
0.4999999999999984
 40
0.4999999999999984
 40
1.0
 40
1.0
 40
1.0
 40
1.0
 10
359.165045991633
 20
296.1794021105692
 30
0.0
 10
359.0983323847852
 20
296.47724394446
 30
0.0
 10
359.0359714147347
 20
296.7759666723448
 30
0.0
 10
358.9185031770148
 20
297.3748801446665
 30
0.0
 10
358.863397006979
 20
297.6750867733798
 30
0.0
 10
358.7073203550983
 20
298.5770100443286
 30
0.0
 10
358.6154668311382
 20
299.1802144752334
 30
0.0
 10
358.5323854044841
 20
299.7848013254522
 30
0.0
  0
SPLINE
  5
194
330
1F
100
AcDbEntity
  8
1
100
AcDbSpline
210
0.0
220
0.0
230
1.0
 70
    12
 71
     2
 72
     6
 73
     3
 74
     0
 42
0.000000001
 43
0.0000000001
 40
0.0
 40
0.0
 40
0.0
 40
1.0
 40
1.0
 40
1.0
 10
358.5323854043512
 20
299.7848013254251
 30
0.0
 41
0.5000002748741041
 10
359.1042141510605
 20
299.7833077835386
 30
0.0
 41
0.4999997251258958
 10
359.6759538587786
 20
299.7817962388898
 30
0.0
 41
0.5000002748741041
  0
SPLINE
  5
195
330
1F
100
AcDbEntity
  8
1
100
AcDbSpline
210
0.0
220
0.0
230
1.0
 70
    28
 71
     4
 72
    13
 73
     8
 74
     0
 42
0.000000001
 43
0.0000000001
 40
0.0
 40
0.0
 40
0.0
 40
0.0
 40
0.0
 40
0.4020810224924189
 40
0.4020810224924189
 40
0.4020810224924189
 40
1.0
 40
1.0
 40
1.0
 40
1.0
 40
1.0
 10
297.9048419452957
 20
285.2095892449225
 30
0.0
 41
1.005405995360787
 10
297.9048419452957
 20
284.6060376880818
 30
0.0
 41
1.005405995360787
 10
297.9048419452957
 20
283.8969714850221
 30
0.0
 41
0.9990170917525842
 10
297.9048419452957
 20
283.1146226932503
 30
0.0
 41
0.9926281881443815
 10
297.9048419452957
 20
281.0898982401191
 30
0.0
 41
0.9820351264631
 10
297.9048419452957
 20
279.8335464683459
 30
0.0
 41
0.9804107016041776
 10
297.9048419452957
 20
278.7387697113692
 30
0.0
 41
0.9904987612615149
 10
297.9048419452957
 20
277.9085515790435
 30
0.0
 41
0.998474299599599
  0
SPLINE
  5
196
330
1F
100
AcDbEntity
  8
1
100
AcDbSpline
210
0.0
220
0.0
230
1.0
 70
     8
 71
     3
 72
     8
 73
     4
 74
     0
 42
0.000000001
 43
0.0000000001
 40
0.0
 40
0.0
 40
0.0
 40
0.0
 40
1.0
 40
1.0
 40
1.0
 40
1.0
 10
356.1625245938202
 20
292.0393879984884
 30
0.0
 10
355.9514014857443
 20
292.1270334808692
 30
0.0
 10
355.7415828569951
 20
292.2206033517583
 30
0.0
 10
355.5330030784991
 20
292.3202964139596
 30
0.0
  0
SPLINE
  5
197
330
1F
100
AcDbEntity
  8
1
100
AcDbSpline
210
0.0
220
0.0
230
1.0
 70
     8
 71
     3
 72
    46
 73
    42
 74
     0
 42
0.000000001
 43
0.0000000001
 40
0.0
 40
0.0
 40
0.0
 40
0.0
 40
0.1249999999999919
 40
0.1249999999999919
 40
0.2499999999999838
 40
0.2499999999999838
 40
0.2812499999999817
 40
0.2812499999999817
 40
0.3124999999999795
 40
0.3124999999999795
 40
0.3749999999999822
 40
0.3749999999999822
 40
0.437499999999985
 40
0.437499999999985
 40
0.4687499999999896
 40
0.4687499999999896
 40
0.4999999999999944
 40
0.4999999999999944
 40
0.5624999999999975
 40
0.5624999999999975
 40
0.6250000000000007
 40
0.6250000000000007
 40
0.6875000000000038
 40
0.6875000000000038
 40
0.7187500000000053
 40
0.7187500000000053
 40
0.7500000000000067
 40
0.7500000000000067
 40
0.8125000000000094
 40
0.8125000000000094
 40
0.8281250000000085
 40
0.8281250000000085
 40
0.8437500000000074
 40
0.875000000000006
 40
0.9062500000000046
 40
0.9062500000000046
 40
0.9218750000000035
 40
0.9218750000000035
 40
0.9375000000000024
 40
0.9375000000000024
 40
1.0
 40
1.0
 40
1.0
 40
1.0
 10
355.4620006045852
 20
292.9354100430233
 30
0.0
 10
355.6776265280907
 20
292.9924591657023
 30
0.0
 10
355.891858451565
 20
293.0548548808805
 30
0.0
 10
356.3168449380881
 20
293.1929834911159
 30
0.0
 10
356.5276055006399
 20
293.2686933754865
 30
0.0
 10
356.7882621260172
 20
293.3740472267467
 30
0.0
 10
356.8402184125303
 20
293.3956449739273
 30
0.0
 10
356.9435401025641
 20
293.4398686831285
 30
0.0
 10
356.9949362780592
 20
293.4625069384222
 30
0.0
 10
357.1482815234251
 20
293.5320989044641
 30
0.0
 10
357.2493896561747
 20
293.5807251534029
 30
0.0
 10
357.44905083092
 20
293.6830594662658
 30
0.0
 10
357.5476051130968
 20
293.7367650635962
 30
0.0
 10
357.6932211796123
 20
293.8217295782824
 30
0.0
 10
357.7414472450668
 20
293.8508233961286
 30
0.0
 10
357.8368023871926
 20
293.9104209720343
 30
0.0
 10
357.8838920196973
 20
293.9408973750933
 30
0.0
 10
358.0232832562391
 20
294.0344906393773
 30
0.0
 10
358.1137151999649
 20
294.09976233473
 30
0.0
 10
358.2888241321406
 20
294.2369384672009
 30
0.0
 10
358.3735072106943
 20
294.3088358853099
 30
0.0
 10
358.5360364794425
 20
294.4605104204638
 30
0.0
 10
358.6138955335526
 20
294.5402727114977
 30
0.0
 10
358.7243029555248
 20
294.667270606783
 30
0.0
 10
358.7600362823895
 20
294.7108354595536
 30
0.0
 10
358.8290520457077
 20
294.8007898826494
 30
0.0
 10
358.8620150943407
 20
294.8467722354482
 30
0.0
 10
358.9555586220142
 20
294.9876469408457
 30
0.0
 10
359.0109718840365
 20
295.085580810915
 30
0.0
 10
359.0693427344779
 20
295.2142971737525
 30
0.0
 10
359.0804749389016
 20
295.2403777719652
 30
0.0
 10
359.1015290697609
 20
295.2931385706079
 30
0.0
 10
359.1311002406692
 20
295.3726901823277
 30
0.0
 10
359.1700771316049
 20
295.5073810044663
 30
0.0
 10
359.1895493562394
 20
295.6175245040825
 30
0.0
 10
359.1994165886003
 20
295.7010993323731
 30
0.0
 10
359.2019153126948
 20
295.7291189854822
 30
0.0
 10
359.2052628513105
 20
295.7854951757969
 30
0.0
 10
359.2061115579427
 20
295.8138928237324
 30
0.0
 10
359.2060367586585
 20
295.9563219199688
 30
0.0
 10
359.1922271349987
 20
296.0686482480988
 30
0.0
 10
359.165045991633
 20
296.1794021105692
 30
0.0
  0
SPLINE
  5
198
330
1F
100
AcDbEntity
  8
1
100
AcDbSpline
210
0.0
220
0.0
230
1.0
 70
    12
 71
     3
 72
     9
 73
     5
 74
     0
 42
0.000000001
 43
0.0000000001
 40
0.0
 40
0.0
 40
0.0
 40
0.0
 40
0.0052255451292633
 40
1.0
 40
1.0
 40
1.0
 40
1.0
 10
345.152699803496
 20
295.867123165856
 30
0.0
 41
1.000054458588998
 10
345.177371942945
 20
295.8662570012627
 30
0.0
 41
1.000053888123745
 10
349.8988122578746
 20
295.7004718814344
 30
0.0
 41
0.9999720288936135
 10
354.4950269165962
 20
295.5355565229465
 30
0.0
 41
1.005171791492625
 10
359.165045991633
 20
296.1794021105692
 30
0.0
 41
1.002461219916821
  0
SPLINE
  5
199
330
1F
100
AcDbEntity
  8
1
100
AcDbSpline
210
0.0
220
0.0
230
1.0
 70
     8
 71
     3
 72
    12
 73
     8
 74
     0
 42
0.000000001
 43
0.0000000001
 40
0.0
 40
0.0
 40
0.0
 40
0.0
 40
0.25
 40
0.5
 40
0.75
 40
0.75
 40
1.0
 40
1.0
 40
1.0
 40
1.0
 10
288.2573511497239
 20
286.7258504734237
 30
0.0
 10
288.6078369369592
 20
286.7151037431726
 30
0.0
 10
289.3118014994162
 20
286.6793381888807
 30
0.0
 10
290.3764135417774
 20
286.5843697690365
 30
0.0
 10
291.091788452022
 20
286.4941938547547
 30
0.0
 10
291.8099412988775
 20
286.3907713213649
 30
0.0
 10
292.1704065560324
 20
286.3324373868545
 30
0.0
 10
292.5322589432653
 20
286.2674889083964
 30
0.0
  0
SPLINE
  5
19A
330
1F
100
AcDbEntity
  8
1
100
AcDbSpline
210
0.0
220
0.0
230
1.0
 70
     8
 71
     3
 72
    14
 73
    10
 74
     0
 42
0.000000001
 43
0.0000000001
 40
0.0
 40
0.0
 40
0.0
 40
0.0
 40
0.25
 40
0.25
 40
0.5
 40
0.5
 40
0.75
 40
0.75
 40
1.0
 40
1.0
 40
1.0
 40
1.0
 10
279.4048419452957
 20
275.4579513824418
 30
0.0
 10
279.5526265577274
 20
275.4864591476452
 30
0.0
 10
279.7015280567819
 20
275.5201500296336
 30
0.0
 10
280.0011277278032
 20
275.5962355356215
 30
0.0
 10
280.151826375844
 20
275.638633311499
 30
0.0
 10
280.4546229828501
 20
275.730793334827
 30
0.0
 10
280.6067211074215
 20
275.78055730341
 30
0.0
 10
280.9119480811911
 20
275.8863528221721
 30
0.0
 10
281.06507687687
 20
275.9423852222412
 30
0.0
 10
281.2185504442805
 20
276.0011058345934
 30
0.0
  0
SPLINE
  5
19B
330
1F
100
AcDbEntity
  8
1
100
AcDbSpline
210
0.0
220
0.0
230
1.0
 70
     8
 71
     3
 72
    35
 73
    31
 74
     0
 42
0.000000001
 43
0.0000000001
 40
0.0
 40
0.0
 40
0.0
 40
0.0
 40
0.1249999999999993
 40
0.1249999999999993
 40
0.2499999999999986
 40
0.2499999999999986
 40
0.2812499999999986
 40
0.2812499999999986
 40
0.3124999999999985
 40
0.3124999999999985
 40
0.3749999999999983
 40
0.3749999999999983
 40
0.4999999999999992
 40
0.4999999999999992
 40
0.5312499999999996
 40
0.5312499999999996
 40
0.5468749999999996
 40
0.5468749999999996
 40
0.5624999999999995
 40
0.6249999999999996
 40
0.6249999999999996
 40
0.7499999999999997
 40
0.7499999999999997
 40
0.8124999999999996
 40
0.8124999999999996
 40
0.8437499999999998
 40
0.8437499999999998
 40
0.8749999999999998
 40
0.8749999999999998
 40
1.0
 40
1.0
 40
1.0
 40
1.0
 10
276.8404812245433
 20
279.8558081973578
 30
0.0
 10
276.7938430177326
 20
279.6182230266769
 30
0.0
 10
276.7695784920246
 20
279.3843361395498
 30
0.0
 10
276.7635621658456
 20
278.9239316343255
 30
0.0
 10
276.7818202702467
 20
278.6974140144675
 30
0.0
 10
276.8314816213928
 20
278.4188866930568
 30
0.0
 10
276.8427912570507
 20
278.3632997221469
 30
0.0
 10
276.8679303697521
 20
278.253439765213
 30
0.0
 10
276.8817646860633
 20
278.1991049831602
 30
0.0
 10
276.9269707676802
 20
278.0378332004276
 30
0.0
 10
276.9620407311604
 20
277.9326270690023
 30
0.0
 10
277.0815139571139
 20
277.6235779548922
 30
0.0
 10
277.1801163489133
 20
277.426284451849
 30
0.0
 10
277.3263660347785
 20
277.1897635619246
 30
0.0
 10
277.3567709629361
 20
277.1429657847595
 30
0.0
 10
277.4041129610611
 20
277.0735177400078
 30
0.0
 10
277.4201742278552
 20
277.0505068244167
 30
0.0
 10
277.4527563187141
 20
277.0048940993758
 30
0.0
 10
277.5354279638434
 20
276.891787879578
 30
0.0
 10
277.624087851034
 20
276.7832091852841
 30
0.0
 10
277.8478795600944
 20
276.5307101017008
 30
0.0
 10
278.0117033827179
 20
276.3731322740626
 30
0.0
 10
278.2784283559075
 20
276.1511833400274
 30
0.0
 10
278.3708474996462
 20
276.0796118495432
 30
0.0
 10
278.5147299549769
 20
275.9757253674867
 30
0.0
 10
278.5634602130996
 20
275.9417540872655
 30
0.0
 10
278.6622484731255
 20
275.8752136833418
 30
0.0
 10
278.7123359577359
 20
275.8426232104741
 30
0.0
 10
278.9661936284356
 20
275.6829613647448
 30
0.0
 10
279.180179671238
 20
275.5657172813916
 30
0.0
 10
279.4048419452957
 20
275.4579513824418
 30
0.0
  0
SPLINE
  5
19C
330
1F
100
AcDbEntity
  8
1
100
AcDbSpline
210
0.0
220
0.0
230
1.0
 70
     8
 71
     3
 72
    58
 73
    54
 74
     0
 42
0.000000001
 43
0.0000000001
 40
0.0
 40
0.0
 40
0.0
 40
0.0
 40
0.0624999999999987
 40
0.0624999999999987
 40
0.1249999999999974
 40
0.1249999999999974
 40
0.1874999999999961
 40
0.1874999999999961
 40
0.2187499999999954
 40
0.2187499999999954
 40
0.2499999999999947
 40
0.2499999999999947
 40
0.3124999999999937
 40
0.3124999999999937
 40
0.3749999999999927
 40
0.3749999999999927
 40
0.4062499999999923
 40
0.4062499999999923
 40
0.4218749999999922
 40
0.4218749999999922
 40
0.4374999999999922
 40
0.4374999999999922
 40
0.4531249999999921
 40
0.4531249999999921
 40
0.4687499999999921
 40
0.4687499999999921
 40
0.499999999999992
 40
0.499999999999992
 40
0.5312499999999919
 40
0.5312499999999919
 40
0.5624999999999917
 40
0.5624999999999917
 40
0.5937499999999916
 40
0.5937499999999916
 40
0.6249999999999915
 40
0.6249999999999915
 40
0.6874999999999912
 40
0.6874999999999912
 40
0.7031249999999912
 40
0.7031249999999912
 40
0.7187499999999913
 40
0.7499999999999922
 40
0.7499999999999922
 40
0.8124999999999948
 40
0.8124999999999948
 40
0.8437499999999957
 40
0.8437499999999957
 40
0.8749999999999966
 40
0.9062499999999975
 40
0.9374999999999984
 40
0.9687499999999992
 40
0.9687499999999992
 40
1.0
 40
1.0
 40
1.0
 40
1.0
 10
297.9048419452957
 20
285.3270463703911
 30
0.0
 10
299.1030241073932
 20
285.1204844831592
 30
0.0
 10
300.2996758681752
 20
284.9097378597416
 30
0.0
 10
302.6897040296565
 20
284.4800496302231
 30
0.0
 10
303.883078668634
 20
284.2610988359313
 30
0.0
 10
306.2663662896268
 20
283.8155506840409
 30
0.0
 10
307.4562761549857
 20
283.5889395425924
 30
0.0
 10
309.2384813664363
 20
283.2442457674039
 30
0.0
 10
309.8321076053764
 20
283.1285587258273
 30
0.0
 10
311.0184844975537
 20
282.8958747080668
 30
0.0
 10
311.6112558664447
 20
282.7788728803383
 30
0.0
 10
313.3870698770869
 20
282.4266826210716
 30
0.0
 10
314.5679890081057
 20
282.1901779961226
 30
0.0
 10
316.9242386349129
 20
281.7179075486828
 30
0.0
 10
318.0995644010322
 20
281.4821442607757
 30
0.0
 10
319.8590419204268
 20
281.1334607066275
 30
0.0
 10
320.4449543576894
 20
281.0180730668678
 30
0.0
 10
321.3230863879827
 20
280.8469058850269
 30
0.0
 10
321.6156746310958
 20
280.7901698305476
 30
0.0
 10
322.2006324937022
 20
280.6774524980992
 30
0.0
 10
322.4929955367888
 20
280.6214553009795
 30
0.0
 10
323.077587915034
 20
280.5104716337609
 30
0.0
 10
323.3698204304542
 20
280.4554931615
 30
0.0
 10
323.9542684165185
 20
280.3468578290369
 30
0.0
 10
324.2465020764505
 20
280.2931977314849
 30
0.0
 10
325.123024240199
 20
280.1346262158336
 30
0.0
 10
325.707224451284
 20
280.0321281145079
 30
0.0
 10
326.8760434062499
 20
279.8349940660665
 30
0.0
 10
327.4606619286124
 20
279.740353864043
 30
0.0
 10
328.6309002972164
 20
279.5597400380595
 30
0.0
 10
329.216519085164
 20
279.4737611802362
 30
0.0
 10
330.3892267289654
 20
279.3107988541914
 30
0.0
 10
330.9763065046707
 20
279.233782906386
 30
0.0
 10
332.1517157820399
 20
279.0877646716077
 30
0.0
 10
332.7400458543636
 20
279.018765810566
 30
0.0
 10
334.506738036166
 20
278.8228422361245
 30
0.0
 10
335.6867786332986
 20
278.7069430980864
 30
0.0
 10
337.1645265893207
 20
278.5784962940095
 30
0.0
 10
337.4601912617757
 20
278.5536344140743
 30
0.0
 10
338.0515759030411
 20
278.5055421037991
 30
0.0
 10
338.9388136844664
 20
278.4358442557496
 30
0.0
 10
339.826569060304
 20
278.3733017465865
 30
0.0
 10
341.6028924856703
 20
278.257340247267
 30
0.0
 10
342.7881821828249
 20
278.1922068717661
 30
0.0
 10
344.568388791911
 20
278.1110715744145
 30
0.0
 10
345.1621859860514
 20
278.0867961300445
 30
0.0
 10
346.350613514638
 20
278.0433906003167
 30
0.0
 10
347.5398293628997
 20
278.0050841053398
 30
0.0
 10
349.3254248552302
 20
277.9614851198187
 30
0.0
 10
351.1121162397366
 20
277.9307207754411
 30
0.0
 10
352.3034720765407
 20
277.91838208182
 30
0.0
 10
353.4946693245104
 20
277.9101034760512
 30
0.0
 10
354.0901884371278
 20
277.9079935137005
 30
0.0
 10
354.6854837130944
 20
277.9079935137005
 30
0.0
  0
SPLINE
  5
19D
330
1F
100
AcDbEntity
  8
1
100
AcDbSpline
210
0.0
220
0.0
230
1.0
 70
     8
 71
     3
 72
    50
 73
    46
 74
     0
 42
0.000000001
 43
0.0000000001
 40
0.0
 40
0.0
 40
0.0
 40
0.0
 40
0.0031382633575526
 40
0.0031382633575526
 40
0.0400590684183837
 40
0.0400590684183837
 40
0.1139006785400464
 40
0.1139006785400464
 40
0.187742288661709
 40
0.187742288661709
 40
0.2615838987833716
 40
0.2615838987833716
 40
0.3354255089050342
 40
0.3354255089050342
 40
0.3723463139658655
 40
0.3723463139658655
 40
0.3908067164962812
 40
0.3908067164962812
 40
0.4092671190266969
 40
0.4092671190266969
 40
0.4461879240875282
 40
0.4461879240875282
 40
0.4831087291483594
 40
0.4831087291483594
 40
0.5200295342091906
 40
0.5200295342091906
 40
0.5569503392700219
 40
0.5569503392700219
 40
0.5938711443308531
 40
0.5938711443308531
 40
0.6307919493916843
 40
0.6307919493916843
 40
0.7046335595133475
 40
0.7046335595133475
 40
0.7784751696350107
 40
0.7784751696350107
 40
0.8523167797566737
 40
0.8523167797566737
 40
0.9261583898783367
 40
0.9261583898783367
 40
0.9446187924087524
 40
0.9446187924087524
 40
0.9630791949391683
 40
0.9630791949391683
 40
1.0
 40
1.0
 40
1.0
 40
1.0
 10
305.6264600229234
 20
299.9079924922659
 30
0.0
 10
305.670785835517
 20
299.9079964948297
 30
0.0
 10
305.7151085830058
 20
299.9079887476706
 30
0.0
 10
306.2808373114416
 20
299.9077382307148
 30
0.0
 10
306.8018587575517
 20
299.9058618860792
 30
0.0
 10
308.3629459437446
 20
299.8946879816177
 30
0.0
 10
309.4012692480529
 20
299.8798190209622
 30
0.0
 10
311.4740150862107
 20
299.83243085586
 30
0.0
 10
312.5084404708966
 20
299.7998897726888
 30
0.0
 10
314.5747818968592
 20
299.715449009025
 30
0.0
 10
315.6067039185093
 20
299.6635352893491
 30
0.0
 10
317.6697850023878
 20
299.540354287011
 30
0.0
 10
318.7009519939978
 20
299.4690861575966
 30
0.0
 10
320.2485465905403
 20
299.3491392287744
 30
0.0
 10
320.7645524953671
 20
299.3069981505056
 30
0.0
 10
321.5389428847928
 20
299.240858017794
 30
0.0
 10
321.7971365171379
 20
299.218324023318
 30
0.0
 10
322.3136776585935
 20
299.1723416942403
 30
0.0
 10
322.5720289770203
 20
299.1488996925328
 30
0.0
 10
323.347277184515
 20
299.0771812585432
 30
0.0
 10
323.8643557884083
 20
299.027506738656
 30
0.0
 10
324.898399196745
 20
298.9241707484297
 30
0.0
 10
325.4154110816807
 20
298.8705024650143
 30
0.0
 10
326.4492700533204
 20
298.7589098379124
 30
0.0
 10
326.9661172289165
 20
298.7009836361239
 30
0.0
 10
327.999599809649
 20
298.5807243151959
 30
0.0
 10
328.5162361394621
 20
298.5183912193879
 30
0.0
 10
329.5493351329241
 20
298.389309240291
 30
0.0
 10
330.0657889648324
 20
298.3225401530388
 30
0.0
 10
331.0986672137192
 20
298.1848140080428
 30
0.0
 10
331.6151391235792
 20
298.1138824203052
 30
0.0
 10
333.1645732888504
 20
297.8955362010237
 30
0.0
 10
334.1975035183951
 20
297.7426238850324
 30
0.0
 10
336.2640213053544
 20
297.4241294604718
 30
0.0
 10
337.2975925880278
 20
297.2585247801883
 30
0.0
 10
339.365583579252
 20
296.9156027138541
 30
0.0
 10
340.4001242245353
 20
296.7382607513953
 30
0.0
 10
342.4691653590249
 20
296.3723784370376
 30
0.0
 10
343.5037259939692
 20
296.1838459041434
 30
0.0
 10
344.7968606068272
 20
295.9408834813536
 30
0.0
 10
345.0554839771389
 20
295.8919247196868
 30
0.0
 10
345.5727147413649
 20
295.7932449456872
 30
0.0
 10
345.8313188723072
 20
295.7435140879993
 30
0.0
 10
346.6070031409992
 20
295.5928371452955
 30
0.0
 10
347.1239513369778
 20
295.490399610887
 30
0.0
 10
347.6405127045206
 20
295.3852032981036
 30
0.0
  0
SPLINE
  5
19E
330
1F
100
AcDbEntity
  8
1
100
AcDbSpline
210
0.0
220
0.0
230
1.0
 70
     8
 71
     3
 72
    42
 73
    38
 74
     0
 42
0.000000001
 43
0.0000000001
 40
0.0
 40
0.0
 40
0.0
 40
0.0
 40
0.06189650824262
 40
0.06189650824262
 40
0.12379301648524
 40
0.12379301648524
 40
0.18568952472786
 40
0.18568952472786
 40
0.24758603297048
 40
0.24758603297048
 40
0.2785342870917906
 40
0.2785342870917906
 40
0.3094825412131013
 40
0.3094825412131013
 40
0.3713790494557238
 40
0.3713790494557238
 40
0.4332755576983465
 40
0.4332755576983465
 40
0.495172065940969
 40
0.495172065940969
 40
0.5570685741835916
 40
0.5570685741835916
 40
0.6189650824262142
 40
0.6189650824262142
 40
0.7427580989114593
 40
0.7427580989114593
 40
0.8046546071540817
 40
0.8046546071540817
 40
0.8665511153967038
 40
0.8665511153967038
 40
0.8974993695180151
 40
0.8974993695180151
 40
0.928447623639326
 40
0.928447623639326
 40
0.9903441318819483
 40
0.9903441318819483
 40
1.0
 40
1.0
 40
1.0
 40
1.0
 10
358.5323854044879
 20
299.7848013254247
 30
0.0
 10
357.9232019109488
 20
299.8178176853722
 30
0.0
 10
357.3114300057824
 20
299.8429099373911
 30
0.0
 10
356.0820827417956
 20
299.8801707869225
 30
0.0
 10
355.4645087164634
 20
299.8923545454758
 30
0.0
 10
354.2234745105909
 20
299.9067725196397
 30
0.0
 10
353.600016564053
 20
299.9090172844827
 30
0.0
 10
352.3476210545307
 20
299.9061552760435
 30
0.0
 10
351.7186863984747
 20
299.9010545446911
 30
0.0
 10
350.7717879436258
 20
299.8893703933727
 30
0.0
 10
350.4555209893732
 20
299.8847970445757
 30
0.0
 10
349.8224589771309
 20
299.8744808907555
 30
0.0
 10
349.505613427572
 20
299.8687377142805
 30
0.0
 10
348.5542757842172
 20
299.8499499172424
 30
0.0
 10
347.9189788095442
 20
299.8353712153539
 30
0.0
 10
346.6471161761521
 20
299.8025674663763
 30
0.0
 10
346.0105523576149
 20
299.7843412215916
 30
0.0
 10
344.7371372941959
 20
299.7439430786857
 30
0.0
 10
344.1003166428136
 20
299.7217240552691
 30
0.0
 10
342.8266280893554
 20
299.6731471931685
 30
0.0
 10
342.1897584607322
 20
299.646790494546
 30
0.0
 10
340.9161281110591
 20
299.5897348932398
 30
0.0
 10
340.2793420514997
 20
299.5590339553476
 30
0.0
 10
338.3696664720008
 20
299.4599770442458
 30
0.0
 10
337.0974021290647
 20
299.3847105773866
 30
0.0
 10
335.1910776945918
 20
299.2553802124073
 30
0.0
 10
334.5559801170052
 20
299.2095216371672
 30
0.0
 10
333.2866148770387
 20
299.111697117911
 30
0.0
 10
332.6523461974075
 20
299.0597345234701
 30
0.0
 10
331.7017003068937
 20
298.9766005038779
 30
0.0
 10
331.384944936579
 20
298.948022211449
 30
0.0
 10
330.7517163355813
 20
298.8890001636724
 30
0.0
 10
330.4352181615906
 20
298.8585540637842
 30
0.0
 10
329.4864106369739
 20
298.7642035741511
 30
0.0
 10
328.8548468362463
 20
298.6972165484819
 30
0.0
 10
328.1257409079601
 20
298.6149490820915
 30
0.0
 10
328.0273699210978
 20
298.6037456499323
 30
0.0
 10
327.9290188550726
 20
298.5924408894638
 30
0.0
  0
SPLINE
  5
19F
330
1F
100
AcDbEntity
  8
1
100
AcDbSpline
210
0.0
220
0.0
230
1.0
 70
     8
 71
     3
 72
    33
 73
    29
 74
     0
 42
0.000000001
 43
0.0000000001
 40
0.0
 40
0.0
 40
0.0
 40
0.0
 40
0.0625000000000003
 40
0.0625000000000003
 40
0.1250000000000006
 40
0.1250000000000006
 40
0.187500000000001
 40
0.187500000000001
 40
0.2500000000000017
 40
0.2500000000000017
 40
0.3125000000000024
 40
0.3125000000000024
 40
0.3437500000000027
 40
0.3593750000000027
 40
0.3593750000000027
 40
0.3750000000000027
 40
0.3750000000000027
 40
0.4375000000000026
 40
0.4375000000000026
 40
0.5000000000000023
 40
0.5000000000000023
 40
0.6250000000000018
 40
0.6250000000000018
 40
0.7500000000000011
 40
0.7500000000000011
 40
0.8750000000000005
 40
0.8750000000000005
 40
1.0
 40
1.0
 40
1.0
 40
1.0
 10
292.5322589432653
 20
277.9847451092719
 30
0.0
 10
292.2478861636702
 20
277.9943255590758
 30
0.0
 10
291.9672948770549
 20
277.9981193417731
 30
0.0
 10
291.4127086314194
 20
277.995853354308
 30
0.0
 10
291.1387150005793
 20
277.9897921225455
 30
0.0
 10
290.5965619350044
 20
277.9691917668767
 30
0.0
 10
290.3284033331147
 20
277.9546511524392
 30
0.0
 10
289.7973272754524
 20
277.9181705024385
 30
0.0
 10
289.5344104098961
 20
277.8962289099662
 30
0.0
 10
289.0133733845753
 20
277.8457732737446
 30
0.0
 10
288.755253715426
 20
277.8172576698714
 30
0.0
 10
288.3714380660454
 20
277.77002181992
 30
0.0
 10
288.1803726953762
 20
277.7452861100705
 30
0.0
 10
287.9905398703107
 20
277.7189441888258
 30
0.0
 10
287.8642559262953
 20
277.7010327602986
 30
0.0
 10
287.8012226078661
 20
277.6918979099443
 30
0.0
 10
287.4873000312066
 20
277.6454506822634
 30
0.0
 10
287.2398136943455
 20
277.6057815839272
 30
0.0
 10
286.7517271636963
 20
277.5219181384412
 30
0.0
 10
286.5111285708109
 20
277.4777222799351
 30
0.0
 10
285.799298341739
 20
277.3389370904083
 30
0.0
 10
285.3379872518074
 20
277.2381650108983
 30
0.0
 10
284.441323975144
 20
277.022638394881
 30
0.0
 10
284.0059928200141
 20
276.9078680110585
 30
0.0
 10
283.1620227082842
 20
276.6665069069183
 30
0.0
 10
282.7533927175473
 20
276.5399072331357
 30
0.0
 10
281.9643109813283
 20
276.2770971938421
 30
0.0
 10
281.5838602183547
 20
276.1408772232034
 30
0.0
 10
281.2185504442805
 20
276.0011058345934
 30
0.0
  0
SPLINE
  5
1A0
330
1F
100
AcDbEntity
  8
1
100
AcDbSpline
210
0.0
220
0.0
230
1.0
 70
     8
 71
     3
 72
    14
 73
    10
 74
     0
 42
0.000000001
 43
0.0000000001
 40
0.0
 40
0.0
 40
0.0
 40
0.0
 40
0.25
 40
0.25
 40
0.5
 40
0.5
 40
0.75
 40
0.75
 40
1.0
 40
1.0
 40
1.0
 40
1.0
 10
363.3860093358298
 20
295.113956998869
 30
0.0
 10
363.3892917326262
 20
295.1203450539512
 30
0.0
 10
363.3932317769322
 20
295.1263833215799
 30
0.0
 10
363.4022347204391
 20
295.1374888193953
 30
0.0
 10
363.4072559554551
 20
295.1425228633362
 30
0.0
 10
363.4183511931472
 20
295.1515436438813
 30
0.0
 10
363.4244652967325
 20
295.1555315062197
 30
0.0
 10
363.4372580194071
 20
295.1620456493716
 30
0.0
 10
363.4439935174279
 20
295.1646298889057
 30
0.0
 10
363.4510996265717
 20
295.1664832694771
 30
0.0
  0
SPLINE
  5
1A1
330
1F
100
AcDbEntity
  8
1
100
AcDbSpline
210
0.0
220
0.0
230
1.0
 70
     8
 71
     3
 72
    22
 73
    18
 74
     0
 42
0.000000001
 43
0.0000000001
 40
0.0
 40
0.0
 40
0.0
 40
0.0
 40
0.125
 40
0.125
 40
0.25
 40
0.25
 40
0.375
 40
0.375
 40
0.5
 40
0.5
 40
0.625
 40
0.625
 40
0.75
 40
0.75
 40
0.875
 40
0.875
 40
1.0
 40
1.0
 40
1.0
 40
1.0
 10
363.3860093358294
 20
295.1139569988681
 30
0.0
 10
363.3833855378003
 20
295.1088506795001
 30
0.0
 10
363.3803485246432
 20
295.1039816942508
 30
0.0
 10
363.3735782581978
 20
295.0948725358484
 30
0.0
 10
363.3698330829012
 20
295.0906071824483
 30
0.0
 10
363.3616022878671
 20
295.082672424708
 30
0.0
 10
363.3571108222719
 20
295.0790124542833
 30
0.0
 10
363.3476751169967
 20
295.0725615464289
 30
0.0
 10
363.3426963334005
 20
295.0697336066839
 30
0.0
 10
363.3321951062118
 20
295.0649088056493
 30
0.0
 10
363.3266898608242
 20
295.0629314783177
 30
0.0
 10
363.315514981496
 20
295.0599822815433
 30
0.0
 10
363.3097996529061
 20
295.0589870961202
 30
0.0
 10
363.2980996288153
 20
295.0580119202761
 30
0.0
 10
363.2922038650987
 20
295.0580467901228
 30
0.0
 10
363.2805685966998
 20
295.0591539852122
 30
0.0
 10
363.274790764517
 20
295.0602222558103
 30
0.0
 10
363.2690556378421
 20
295.0618386318603
 30
0.0
  0
SPLINE
  5
1A2
330
1F
100
AcDbEntity
  8
1
100
AcDbSpline
210
0.0
220
0.0
230
1.0
 70
     8
 71
     3
 72
    14
 73
    10
 74
     0
 42
0.000000001
 43
0.0000000001
 40
0.0
 40
0.0
 40
0.0
 40
0.0
 40
0.25
 40
0.25
 40
0.5
 40
0.5
 40
0.75
 40
0.75
 40
1.0
 40
1.0
 40
1.0
 40
1.0
 10
362.7642875544763
 20
296.0861907211897
 30
0.0
 10
362.7713521742828
 20
296.0866636196251
 30
0.0
 10
362.7784435413486
 20
296.0863934761995
 30
0.0
 10
362.7923509368738
 20
296.0843922862347
 30
0.0
 10
362.7991190562705
 20
296.0826798226727
 30
0.0
 10
362.8122825806024
 20
296.0778139489629
 30
0.0
 10
362.8186980482192
 20
296.0746270536422
 30
0.0
 10
362.8305626853255
 20
296.0670171396527
 30
0.0
 10
362.8360894531209
 20
296.0625750773245
 30
0.0
 10
362.8411771089131
 20
296.057438443152
 30
0.0
  0
SPLINE
  5
1A3
330
1F
100
AcDbEntity
  8
1
100
AcDbSpline
210
0.0
220
0.0
230
1.0
 70
     8
 71
     3
 72
    36
 73
    32
 74
     0
 42
0.000000001
 43
0.0000000001
 40
0.0
 40
0.0
 40
0.0
 40
0.0
 40
0.1249999999999928
 40
0.1249999999999928
 40
0.1874999999999914
 40
0.1874999999999914
 40
0.2187499999999985
 40
0.2187499999999985
 40
0.2500000000000057
 40
0.2500000000000057
 40
0.3749999999999967
 40
0.3749999999999967
 40
0.406249999999986
 40
0.406249999999986
 40
0.4374999999999751
 40
0.4374999999999751
 40
0.4999999999999537
 40
0.4999999999999537
 40
0.6249999999998851
 40
0.6249999999998851
 40
0.6562499999998908
 40
0.6562499999998908
 40
0.6874999999998967
 40
0.7499999999999104
 40
0.8124999999999241
 40
0.8124999999999241
 40
0.8437499999999308
 40
0.8437499999999308
 40
0.874999999999938
 40
0.874999999999938
 40
1.0
 40
1.0
 40
1.0
 40
1.0
 10
367.8313903887458
 20
299.5419335805877
 30
0.0
 10
367.8291241926603
 20
299.5924161237128
 30
0.0
 10
367.8216954165637
 20
299.6417860051035
 30
0.0
 10
367.8033391588647
 20
299.7142862298435
 30
0.0
 10
367.7960078447398
 20
299.7381916348739
 30
0.0
 10
367.783170626244
 20
299.7736531243028
 30
0.0
 10
367.7785703462869
 20
299.7854391520299
 30
0.0
 10
367.7688259093305
 20
299.8086873496607
 30
0.0
 10
367.7636842394676
 20
299.8201494753908
 30
0.0
 10
367.7366600311377
 20
299.8766691125812
 30
0.0
 10
367.7108694377938
 20
299.9193774072947
 30
0.0
 10
367.673504178768
 20
299.9696808141
 30
0.0
 10
367.6657723325927
 20
299.9795859285391
 30
0.0
 10
367.649783313022
 20
299.9990803718047
 30
0.0
 10
367.6415198243237
 20
300.0086738409116
 30
0.0
 10
367.616202037318
 20
300.0366786046806
 30
0.0
 10
367.5985396302928
 20
300.054420555504
 30
0.0
 10
367.5432630551392
 20
300.1049364699205
 30
0.0
 10
367.5033827295066
 20
300.1350279535448
 30
0.0
 10
367.4496028377524
 20
300.1679909261599
 30
0.0
 10
367.4386455580695
 20
300.174347857338
 30
0.0
 10
367.4165723547113
 20
300.186451555396
 30
0.0
 10
367.3831359798144
 20
300.2037469149289
 30
0.0
 10
367.3258015423155
 20
300.2283392790551
 30
0.0
 10
367.2782256743432
 20
300.2435134475062
 30
0.0
 10
367.2418854065819
 20
300.2531599306114
 30
0.0
 10
367.2296620467784
 20
300.2560858494951
 30
0.0
 10
367.2049897543216
 20
300.2613435266192
 30
0.0
 10
367.1925277049987
 20
300.2636757762407
 30
0.0
 10
367.1302436341524
 20
300.2737185790213
 30
0.0
 10
367.0800505671274
 20
300.2767343257027
 30
0.0
 10
367.0294770328666
 20
300.2745305012708
 30
0.0
  0
SPLINE
  5
1A4
330
1F
100
AcDbEntity
  8
1
100
AcDbSpline
210
0.0
220
0.0
230
1.0
 70
     8
 71
     3
 72
    36
 73
    32
 74
     0
 42
0.000000001
 43
0.0000000001
 40
0.0
 40
0.0
 40
0.0
 40
0.0
 40
0.1249999999999171
 40
0.1249999999999171
 40
0.1874999999998931
 40
0.1874999999998931
 40
0.2187499999998972
 40
0.2187499999998972
 40
0.2499999999999014
 40
0.2499999999999014
 40
0.3749999999999199
 40
0.3749999999999199
 40
0.4062499999999245
 40
0.4062499999999245
 40
0.4374999999999292
 40
0.4374999999999292
 40
0.4999999999999413
 40
0.4999999999999413
 40
0.6249999999999655
 40
0.6249999999999655
 40
0.6562499999999733
 40
0.6562499999999733
 40
0.6874999999999812
 40
0.7499999999999854
 40
0.8124999999999896
 40
0.8124999999999896
 40
0.8437499999999918
 40
0.8437499999999918
 40
0.8749999999999939
 40
0.8749999999999939
 40
1.0
 40
1.0
 40
1.0
 40
1.0
 10
360.6366870751281
 20
299.9959542280763
 30
0.0
 10
360.5861068629446
 20
299.9937501126431
 30
0.0
 10
360.5366474117842
 20
299.9863923732962
 30
0.0
 10
360.4640241486163
 20
299.9681551840726
 30
0.0
 10
360.4400796330978
 20
299.960865663004
 30
0.0
 10
360.4045623650002
 20
299.9480943265727
 30
0.0
 10
360.3927581792784
 20
299.9435166041915
 30
0.0
 10
360.3694749292866
 20
299.9338179901709
 30
0.0
 10
360.3579959064402
 20
299.9286995806907
 30
0.0
 10
360.3013948556886
 20
299.901793378193
 30
0.0
 10
360.25863116832
 20
299.8761025908747
 30
0.0
 10
360.2082704902898
 20
299.8388687284026
 30
0.0
 10
360.1983545257901
 20
299.8311634966534
 30
0.0
 10
360.1788396088382
 20
299.8152283861857
 30
0.0
 10
360.169236515088
 20
299.8069922093962
 30
0.0
 10
360.1412050193408
 20
299.7817565176977
 30
0.0
 10
360.1234479841961
 20
299.7641493349358
 30
0.0
 10
360.0728948103076
 20
299.7090398754863
 30
0.0
 10
360.0427890640303
 20
299.6692728695889
 30
0.0
 10
360.0098219832581
 20
299.6156371041453
 30
0.0
 10
360.0034649281083
 20
299.6047087795876
 30
0.0
 10
359.9913623748316
 20
299.5826931046097
 30
0.0
 10
359.9740708132974
 20
299.5493426877879
 30
0.0
 10
359.9494950195257
 20
299.4921498675972
 30
0.0
 10
359.934344992359
 20
299.4446855436938
 30
0.0
 10
359.9247208101757
 20
299.4084282596394
 30
0.0
 10
359.9218030254269
 20
299.3962324484661
 30
0.0
 10
359.9165630538693
 20
299.3716150222227
 30
0.0
 10
359.9142403896678
 20
299.3591803170233
 30
0.0
 10
359.9042486982318
 20
299.297031068577
 30
0.0
 10
359.9012842242954
 20
299.2469408587748
 30
0.0
 10
359.903550121183
 20
299.1964649806777
 30
0.0
  0
SPLINE
  5
1A5
330
1F
100
AcDbEntity
  8
1
100
AcDbSpline
210
0.0
220
0.0
230
1.0
 70
     8
 71
     3
 72
    36
 73
    32
 74
     0
 42
0.000000001
 43
0.0000000001
 40
0.0
 40
0.0
 40
0.0
 40
0.0
 40
0.12499999999993
 40
0.12499999999993
 40
0.1874999999998954
 40
0.1874999999998954
 40
0.2187499999998841
 40
0.2187499999998841
 40
0.2499999999998727
 40
0.2499999999998727
 40
0.3749999999998579
 40
0.3749999999998579
 40
0.4062499999998647
 40
0.4062499999998647
 40
0.4374999999998713
 40
0.4374999999998713
 40
0.4999999999998845
 40
0.4999999999998845
 40
0.6249999999999368
 40
0.6249999999999368
 40
0.6562499999999424
 40
0.6562499999999424
 40
0.687499999999948
 40
0.7499999999999586
 40
0.8124999999999694
 40
0.8124999999999694
 40
0.8437499999999744
 40
0.8437499999999744
 40
0.8749999999999797
 40
0.8749999999999797
 40
1.0
 40
1.0
 40
1.0
 40
1.0
 10
360.1899727151525
 20
292.8160193320759
 30
0.0
 10
360.192238911238
 20
292.7655367889508
 30
0.0
 10
360.1996676873349
 20
292.7161669075601
 30
0.0
 10
360.2180239450337
 20
292.6436666828201
 30
0.0
 10
360.2253552591585
 20
292.6197612777897
 30
0.0
 10
360.2381924776544
 20
292.5842997883608
 30
0.0
 10
360.2427927576116
 20
292.5725137606337
 30
0.0
 10
360.2525371945679
 20
292.549265563003
 30
0.0
 10
360.2576788644307
 20
292.5378034372728
 30
0.0
 10
360.2847030727606
 20
292.4812838000825
 30
0.0
 10
360.3104936661045
 20
292.4385755053689
 30
0.0
 10
360.3478589251303
 20
292.3882720985636
 30
0.0
 10
360.3555907713056
 20
292.3783669841246
 30
0.0
 10
360.3715797908764
 20
292.358872540859
 30
0.0
 10
360.3798432795748
 20
292.3492790717521
 30
0.0
 10
360.4051610665804
 20
292.321274307983
 30
0.0
 10
360.4228234736055
 20
292.3035323571596
 30
0.0
 10
360.4781000487593
 20
292.2530164427432
 30
0.0
 10
360.5179803743918
 20
292.2229249591188
 30
0.0
 10
360.5717602661459
 20
292.1899619865037
 30
0.0
 10
360.5827175458288
 20
292.1836050553256
 30
0.0
 10
360.604790749187
 20
292.1715013572676
 30
0.0
 10
360.6382271240839
 20
292.1542059977347
 30
0.0
 10
360.6955615615829
 20
292.1296136336085
 30
0.0
 10
360.7431374295552
 20
292.1144394651573
 30
0.0
 10
360.7794776973165
 20
292.1047929820522
 30
0.0
 10
360.7917010571201
 20
292.1018670631686
 30
0.0
 10
360.8163733495768
 20
292.0966093860444
 30
0.0
 10
360.8288353988998
 20
292.0942771364229
 30
0.0
 10
360.8911194697459
 20
292.0842343336424
 30
0.0
 10
360.941312536771
 20
292.081218586961
 30
0.0
 10
360.9918860710317
 20
292.0834224113928
 30
0.0
  0
SPLINE
  5
1A6
330
1F
100
AcDbEntity
  8
1
100
AcDbSpline
210
0.0
220
0.0
230
1.0
 70
     8
 71
     3
 72
    36
 73
    32
 74
     0
 42
0.000000001
 43
0.0000000001
 40
0.0
 40
0.0
 40
0.0
 40
0.0
 40
0.1250000000001379
 40
0.1250000000001379
 40
0.18750000000019
 40
0.18750000000019
 40
0.2187500000002001
 40
0.2187500000002001
 40
0.2500000000002102
 40
0.2500000000002102
 40
0.3750000000001563
 40
0.3750000000001563
 40
0.4062500000001427
 40
0.4062500000001427
 40
0.4375000000001288
 40
0.4375000000001288
 40
0.5000000000001013
 40
0.5000000000001013
 40
0.6250000000000462
 40
0.6250000000000462
 40
0.656250000000037
 40
0.656250000000037
 40
0.6875000000000277
 40
0.7500000000000224
 40
0.8125000000000174
 40
0.8125000000000174
 40
0.8437500000000156
 40
0.8437500000000156
 40
0.875000000000014
 40
0.875000000000014
 40
1.0
 40
1.0
 40
1.0
 40
1.0
 10
367.3846760287702
 20
292.3619986845873
 30
0.0
 10
367.4352562409537
 20
292.3642028000206
 30
0.0
 10
367.4847156921142
 20
292.3715605393674
 30
0.0
 10
367.557338955282
 20
292.3897977285911
 30
0.0
 10
367.5812834708005
 20
292.3970872496596
 30
0.0
 10
367.6168007388983
 20
292.4098585860909
 30
0.0
 10
367.6286049246201
 20
292.4144363084721
 30
0.0
 10
367.6518881746117
 20
292.4241349224928
 30
0.0
 10
367.6633671974581
 20
292.4292533319729
 30
0.0
 10
367.7199682482097
 20
292.4561595344707
 30
0.0
 10
367.7627319355784
 20
292.481850321789
 30
0.0
 10
367.8130926136085
 20
292.5190841842609
 30
0.0
 10
367.8230085781083
 20
292.5267894160104
 30
0.0
 10
367.8425234950602
 20
292.542724526478
 30
0.0
 10
367.8521265888103
 20
292.5509607032674
 30
0.0
 10
367.8801580845576
 20
292.576196394966
 30
0.0
 10
367.8979151197022
 20
292.5938035777278
 30
0.0
 10
367.9484682935908
 20
292.6489130371774
 30
0.0
 10
367.9785740398681
 20
292.6886800430748
 30
0.0
 10
368.0115411206403
 20
292.7423158085183
 30
0.0
 10
368.01789817579
 20
292.753244133076
 30
0.0
 10
368.0300007290667
 20
292.7752598080539
 30
0.0
 10
368.047292290601
 20
292.8086102248757
 30
0.0
 10
368.0718680843727
 20
292.8658030450665
 30
0.0
 10
368.0870181115394
 20
292.9132673689698
 30
0.0
 10
368.0966422937227
 20
292.9495246530242
 30
0.0
 10
368.0995600784715
 20
292.9617204641975
 30
0.0
 10
368.104800050029
 20
292.986337890441
 30
0.0
 10
368.1071227142305
 20
292.9987725956403
 30
0.0
 10
368.1171144056667
 20
293.0609218440866
 30
0.0
 10
368.1200788796031
 20
293.1110120538887
 30
0.0
 10
368.1178129827153
 20
293.1614879319859
 30
0.0
  0
SPLINE
  5
1A7
330
1F
100
AcDbEntity
  8
1
100
AcDbSpline
210
0.0
220
0.0
230
1.0
 70
     8
 71
     3
 72
    24
 73
    20
 74
     0
 42
0.000000001
 43
0.0000000001
 40
0.0
 40
0.0
 40
0.0
 40
0.0
 40
0.1457301047846291
 40
0.1457301047846291
 40
0.2914602095692582
 40
0.2914602095692582
 40
0.4371903143538872
 40
0.4371903143538872
 40
0.5829204191385164
 40
0.5829204191385164
 40
0.7286505239231454
 40
0.7286505239231454
 40
0.8015155763154593
 40
0.8015155763154593
 40
0.8743806287077731
 40
0.8743806287077731
 40
0.9472456811000872
 40
0.9472456811000872
 40
1.0
 40
1.0
 40
1.0
 40
1.0
 10
309.0046995751373
 20
278.1584509414162
 30
0.0
 10
309.7801256734961
 20
278.2357855807735
 30
0.0
 10
310.5553454482593
 20
278.3171215272203
 30
0.0
 10
312.1059740324021
 20
278.4859603160411
 30
0.0
 10
312.8813865832303
 20
278.5734386544899
 30
0.0
 10
314.4327742127156
 20
278.7530485076397
 30
0.0
 10
315.2087505418374
 20
278.845157926954
 30
0.0
 10
316.7613205780613
 20
279.0336141804323
 30
0.0
 10
317.5379559265363
 20
279.1299585857149
 30
0.0
 10
319.0913466915055
 20
279.3280303820247
 30
0.0
 10
319.8680861901698
 20
279.4297668633092
 30
0.0
 10
321.0328702257498
 20
279.5884463495577
 30
0.0
 10
321.4210759474192
 20
279.6423628281967
 30
0.0
 10
322.1973015206542
 20
279.7526823632169
 30
0.0
 10
322.5853064682012
 20
279.8091846761364
 30
0.0
 10
323.3612023254924
 20
279.9242146352226
 30
0.0
 10
323.7490992042692
 20
279.9826995304707
 30
0.0
 10
324.4178148589633
 20
280.0847164872727
 30
0.0
 10
324.6986384947359
 20
280.1279208983269
 30
0.0
 10
324.9794621679898
 20
280.1714515564963
 30
0.0
  0
SPLINE
  5
1A8
330
1F
100
AcDbEntity
  8
1
100
AcDbSpline
210
0.0
220
0.0
230
1.0
 70
     8
 71
     3
 72
   109
 73
   105
 74
     0
 42
0.000000001
 43
0.0000000001
 40
0.0
 40
0.0
 40
0.0
 40
0.0
 40
0.0156249999999993
 40
0.0156249999999993
 40
0.0312499999999985
 40
0.0312499999999985
 40
0.0624999999999986
 40
0.0624999999999986
 40
0.0937499999999986
 40
0.0937499999999986
 40
0.1093749999999982
 40
0.1093749999999982
 40
0.1249999999999978
 40
0.1249999999999978
 40
0.1406249999999975
 40
0.1406249999999975
 40
0.1562499999999971
 40
0.1718749999999967
 40
0.1718749999999967
 40
0.1874999999999964
 40
0.1874999999999964
 40
0.203124999999996
 40
0.203124999999996
 40
0.2187499999999956
 40
0.2187499999999956
 40
0.2499999999999946
 40
0.2499999999999946
 40
0.2812499999999935
 40
0.2812499999999935
 40
0.296874999999993
 40
0.296874999999993
 40
0.3124999999999925
 40
0.3124999999999925
 40
0.328124999999992
 40
0.328124999999992
 40
0.3437499999999915
 40
0.3593749999999911
 40
0.3593749999999911
 40
0.3749999999999905
 40
0.3749999999999905
 40
0.39062499999999
 40
0.39062499999999
 40
0.4062499999999896
 40
0.4062499999999896
 40
0.4374999999999888
 40
0.4687499999999881
 40
0.4687499999999881
 40
0.4843749999999877
 40
0.4843749999999877
 40
0.4999999999999871
 40
0.4999999999999871
 40
0.5312499999999864
 40
0.5312499999999864
 40
0.5468749999999865
 40
0.5468749999999865
 40
0.5624999999999867
 40
0.5624999999999867
 40
0.5781249999999868
 40
0.5781249999999868
 40
0.5937499999999871
 40
0.6093749999999872
 40
0.6093749999999872
 40
0.6249999999999872
 40
0.6249999999999872
 40
0.6406249999999875
 40
0.6406249999999875
 40
0.6562499999999876
 40
0.6562499999999876
 40
0.6874999999999874
 40
0.6874999999999874
 40
0.7031249999999872
 40
0.7031249999999872
 40
0.7187499999999868
 40
0.7187499999999868
 40
0.7343749999999866
 40
0.7343749999999866
 40
0.7499999999999863
 40
0.7499999999999863
 40
0.7812499999999872
 40
0.7812499999999872
 40
0.7968749999999885
 40
0.7968749999999885
 40
0.8124999999999896
 40
0.8124999999999896
 40
0.8281249999999909
 40
0.8281249999999909
 40
0.8437499999999923
 40
0.8437499999999923
 40
0.8749999999999943
 40
0.8749999999999943
 40
0.890624999999995
 40
0.890624999999995
 40
0.9062499999999957
 40
0.9062499999999957
 40
0.9218749999999966
 40
0.9218749999999966
 40
0.9374999999999971
 40
0.9374999999999971
 40
0.9531249999999978
 40
0.9531249999999978
 40
0.9687499999999987
 40
0.9843749999999994
 40
0.9843749999999994
 40
1.0
 40
1.0
 40
1.0
 40
1.0
 10
366.5481636084984
 20
284.9394935137007
 30
0.0
 10
366.5432449534089
 20
284.9145167895495
 30
0.0
 10
366.5383931214298
 20
284.8889969731655
 30
0.0
 10
366.5288234910288
 20
284.8368680079243
 30
0.0
 10
366.5240968290766
 20
284.8102060340058
 30
0.0
 10
366.5101984024533
 20
284.7290154522992
 30
0.0
 10
366.5013094482092
 20
284.6733214445858
 30
0.0
 10
366.4842892611006
 20
284.5587812417084
 30
0.0
 10
366.4762428705102
 20
284.5004990719133
 30
0.0
 10
366.4648953977732
 20
284.4117863838829
 30
0.0
 10
366.4612280645026
 20
284.3819512285176
 30
0.0
 10
366.4541863409987
 20
284.3222664618589
 30
0.0
 10
366.4508053833523
 20
284.2923683466008
 30
0.0
 10
366.4443221428926
 20
284.2324611037172
 30
0.0
 10
366.4412159288203
 20
284.2024116998894
 30
0.0
 10
366.4353029514185
 20
284.1423853943398
 30
0.0
 10
366.4297043685483
 20
284.0825920109126
 30
0.0
 10
366.4247278593513
 20
284.0232594965705
 30
0.0
 10
366.4200633517747
 20
283.9641581315401
 30
0.0
 10
366.4178906946984
 20
283.9347610360247
 30
0.0
 10
366.4138881206806
 20
283.8766285168888
 30
0.0
 10
366.4120540679387
 20
283.8478417885631
 30
0.0
 10
366.4087193533093
 20
283.7908255930597
 30
0.0
 10
366.4072165421192
 20
283.7625459762472
 30
0.0
 10
366.4032357917765
 20
283.6790508267646
 30
0.0
 10
366.401277154611
 20
283.6251142793123
 30
0.0
 10
366.3987441670316
 20
283.5206797879185
 30
0.0
 10
366.3981833969752
 20
283.470736384006
 30
0.0
 10
366.3983856884181
 20
283.3992047615197
 30
0.0
 10
366.3986285123003
 20
283.3759143459882
 30
0.0
 10
366.3994590527076
 20
283.3307849738901
 30
0.0
 10
366.4000466032174
 20
283.3089040994307
 30
0.0
 10
366.4015643979329
 20
283.2665025635627
 30
0.0
 10
366.4024964106716
 20
283.2459519632308
 30
0.0
 10
366.4046971523949
 20
283.2063712616383
 30
0.0
 10
366.4072303484098
 20
283.168360811656
 30
0.0
 10
366.4104220245377
 20
283.1334605018765
 30
0.0
 10
366.4139441457968
 20
283.100120954021
 30
0.0
 10
366.4158671264403
 20
283.0842694295746
 30
0.0
 10
366.4200179078218
 20
283.0543230590918
 30
0.0
 10
366.42224792352
 20
283.0402066505379
 30
0.0
 10
366.4270171022903
 20
283.0136868180714
 30
0.0
 10
366.4295627631855
 20
283.001260254657
 30
0.0
 10
366.4375932342892
 20
282.966881801713
 30
0.0
 10
366.4493691497465
 20
282.9285651074229
 30
0.0
 10
366.4632276916874
 20
282.904906505097
 30
0.0
 10
366.4744235460096
 20
282.8928068806817
 30
0.0
 10
366.4782938435739
 20
282.8897198548962
 30
0.0
 10
366.4862405702414
 20
282.8855163875553
 30
0.0
 10
366.4903300153529
 20
282.884389955405
 30
0.0
 10
366.5028863800165
 20
282.8839552339657
 30
0.0
 10
366.5116310209078
 20
282.8875658897696
 30
0.0
 10
366.5253120437183
 20
282.8988687392456
 30
0.0
 10
366.5299616630059
 20
282.903620184319
 30
0.0
 10
366.5393842265321
 20
282.9150312465316
 30
0.0
 10
366.5441647424519
 20
282.9216965664892
 30
0.0
 10
366.5538647805784
 20
282.9369542419961
 30
0.0
 10
366.5587928060509
 20
282.9455634057448
 30
0.0
 10
366.5687467496426
 20
282.9646567600525
 30
0.0
 10
366.5787863939947
 20
282.9855950222135
 30
0.0
 10
366.588997048134
 20
283.0102146670985
 30
0.0
 10
366.5992941686172
 20
283.0366957007981
 30
0.0
 10
366.6044811567224
 20
283.0508580629734
 30
0.0
 10
366.6148659475869
 20
283.0808460104572
 30
0.0
 10
366.6200728238522
 20
283.0966943328558
 30
0.0
 10
366.6305156801363
 20
283.1301080579527
 30
0.0
 10
366.6357612802502
 20
283.1477079140998
 30
0.0
 10
366.6514643279102
 20
283.2028523470548
 30
0.0
 10
366.6618737222815
 20
283.2426656022717
 30
0.0
 10
366.6773979220658
 20
283.3070090610704
 30
0.0
 10
366.6825448130432
 20
283.3291796299565
 30
0.0
 10
366.6927352928683
 20
283.3747564365298
 30
0.0
 10
366.6977861630335
 20
283.3981926066688
 30
0.0
 10
366.7077986828103
 20
283.4463675037625
 30
0.0
 10
366.7127689893405
 20
283.4711527594391
 30
0.0
 10
366.7225536464091
 20
283.5217079350171
 30
0.0
 10
366.7273727151506
 20
283.5474972302522
 30
0.0
 10
366.7416104563392
 20
283.6263980426667
 30
0.0
 10
366.7508331526839
 20
283.6812023626134
 30
0.0
 10
366.7640235723768
 20
283.7653067954544
 30
0.0
 10
366.7683205251223
 20
283.7936971920662
 30
0.0
 10
366.7767136245142
 20
283.8511930683072
 30
0.0
 10
366.7808105780848
 20
283.8803096942165
 30
0.0
 10
366.7887401428856
 20
283.9388113880436
 30
0.0
 10
366.7925810212056
 20
283.9682515139535
 30
0.0
 10
366.8000153401625
 20
284.0275097578151
 30
0.0
 10
366.803614955241
 20
284.0573821856262
 30
0.0
 10
366.8139897683757
 20
284.1471505601592
 30
0.0
 10
366.820330103106
 20
284.2070644069378
 30
0.0
 10
366.8289788151944
 20
284.2970372740721
 30
0.0
 10
366.8317088491729
 20
284.3269584987098
 30
0.0
 10
366.8368440669043
 20
284.3864193350692
 30
0.0
 10
366.8392529129679
 20
284.4159967670456
 30
0.0
 10
366.8437534504261
 20
284.4748460160312
 30
0.0
 10
366.8458477028839
 20
284.5041621101399
 30
0.0
 10
366.8496901397773
 20
284.5620867347652
 30
0.0
 10
366.8514416734744
 20
284.5907331370861
 30
0.0
 10
366.8546078596687
 20
284.6473987543272
 30
0.0
 10
366.8560235372795
 20
284.6754410739475
 30
0.0
 10
366.8585114540667
 20
284.7307951750049
 30
0.0
 10
366.8606472797362
 20
284.7852139195957
 30
0.0
 10
366.8620880172102
 20
284.8377861102516
 30
0.0
 10
366.863180998024
 20
284.8894344592531
 30
0.0
 10
366.8635526112975
 20
284.9147845238233
 30
0.0
 10
366.8637483082863
 20
284.9394935137008
 30
0.0
  0
SPLINE
  5
1A9
330
1F
100
AcDbEntity
  8
1
100
AcDbSpline
210
0.0
220
0.0
230
1.0
 70
     8
 71
     3
 72
    56
 73
    52
 74
     0
 42
0.000000001
 43
0.0000000001
 40
0.0
 40
0.0
 40
0.0
 40
0.0
 40
0.0312500000000004
 40
0.0312500000000004
 40
0.0625000000000004
 40
0.0625000000000004
 40
0.1250000000000021
 40
0.1250000000000021
 40
0.156250000000004
 40
0.156250000000004
 40
0.1875000000000059
 40
0.1875000000000059
 40
0.250000000000008
 40
0.250000000000008
 40
0.2812500000000095
 40
0.2812500000000095
 40
0.3125000000000109
 40
0.3125000000000109
 40
0.3750000000000127
 40
0.3750000000000127
 40
0.4062500000000126
 40
0.4062500000000126
 40
0.4375000000000124
 40
0.4375000000000124
 40
0.5000000000000112
 40
0.5000000000000112
 40
0.5312500000000121
 40
0.5312500000000121
 40
0.5625000000000132
 40
0.5625000000000132
 40
0.6250000000000138
 40
0.6250000000000138
 40
0.6562500000000142
 40
0.6562500000000142
 40
0.6875000000000146
 40
0.6875000000000146
 40
0.7500000000000161
 40
0.7500000000000161
 40
0.7812500000000162
 40
0.7812500000000162
 40
0.8125000000000156
 40
0.8125000000000156
 40
0.8750000000000126
 40
0.8750000000000126
 40
0.9062500000000095
 40
0.9062500000000095
 40
0.9375000000000063
 40
0.9375000000000063
 40
0.9687500000000033
 40
0.9687500000000033
 40
1.0
 40
1.0
 40
1.0
 40
1.0
 10
366.8637483082863
 20
284.9394935137008
 30
0.0
 10
366.8615437379024
 20
284.9624040426306
 30
0.0
 10
366.8592452623155
 20
284.98482380849
 30
0.0
 10
366.8544608249721
 20
285.0286835085751
 30
0.0
 10
366.8519708659801
 20
285.0501550501996
 30
0.0
 10
366.8442489362766
 20
285.1128324799861
 30
0.0
 10
366.8387743460842
 20
285.152257362653
 30
0.0
 10
366.8300747455128
 20
285.2078707678623
 30
0.0
 10
366.8270913529186
 20
285.2258274254186
 30
0.0
 10
366.8209984202156
 20
285.2603376789712
 30
0.0
 10
366.817884587015
 20
285.2769203841732
 30
0.0
 10
366.8083415298552
 20
285.3246566548943
 30
0.0
 10
366.8016921957246
 20
285.3538645444553
 30
0.0
 10
366.7914264637649
 20
285.3931305342804
 30
0.0
 10
366.7879528676479
 20
285.4054794690102
 30
0.0
 10
366.7809020473924
 20
285.428694201823
 30
0.0
 10
366.7773192679567
 20
285.4395749052443
 30
0.0
 10
366.7664576283824
 20
285.4698418686555
 30
0.0
 10
366.7590768960005
 20
285.4868443808808
 30
0.0
 10
366.7477955188459
 20
285.5075663164405
 30
0.0
 10
366.7439975238893
 20
285.5136747943542
 30
0.0
 10
366.7363791784014
 20
285.5242066823633
 30
0.0
 10
366.7325530496524
 20
285.528642051743
 30
0.0
 10
366.7210237378912
 20
285.5394536194167
 30
0.0
 10
366.7132479071009
 20
285.5433319889066
 30
0.0
 10
366.7016197215147
 20
285.5440265187791
 30
0.0
 10
366.6977455918178
 20
285.5434103193703
 30
0.0
 10
366.6900012183838
 20
285.5404730122667
 30
0.0
 10
366.6861247544954
 20
285.5381462106631
 30
0.0
 10
366.6745507385557
 20
285.52860893549
 30
0.0
 10
366.6669203964444
 20
285.5188747143277
 30
0.0
 10
366.65560439621
 20
285.4991695174778
 30
0.0
 10
366.6518516515687
 20
285.4917394228658
 30
0.0
 10
366.6444407773878
 20
285.4752618827951
 30
0.0
 10
366.640776383945
 20
285.4662050430109
 30
0.0
 10
366.6299065514927
 20
285.4365759905345
 30
0.0
 10
366.6228046472968
 20
285.4134630915977
 30
0.0
 10
366.6125371768123
 20
285.3742509143748
 30
0.0
 10
366.6091746382775
 20
285.3604141881353
 30
0.0
 10
366.6025700835823
 20
285.3312008241717
 30
0.0
 10
366.5993225322686
 20
285.3157949842225
 30
0.0
 10
366.5898117000173
 20
285.2674787850911
 30
0.0
 10
366.5837810560362
 20
285.232506344178
 30
0.0
 10
366.5752024103101
 20
285.1758833530725
 30
0.0
 10
366.5724226336845
 20
285.1563185090134
 30
0.0
 10
366.5670590104638
 20
285.1160697474338
 30
0.0
 10
366.5644700548755
 20
285.095353202418
 30
0.0
 10
366.5594778559478
 20
285.0527357826258
 30
0.0
 10
366.5570722975444
 20
285.0308121780735
 30
0.0
 10
366.5524592906348
 20
284.9858668978722
 30
0.0
 10
366.5502588629141
 20
284.9629168693357
 30
0.0
 10
366.5481636084984
 20
284.9394935137007
 30
0.0
  0
SPLINE
  5
1B0
330
1F
100
AcDbEntity
  8
1
100
AcDbSpline
210
0.0
220
0.0
230
1.0
 70
     8
 71
     3
 72
    20
 73
    16
 74
     0
 42
0.000000001
 43
0.0000000001
 40
0.0
 40
0.0
 40
0.0
 40
0.0
 40
0.125000000000002
 40
0.125000000000002
 40
0.2500000000000041
 40
0.2500000000000041
 40
0.3750000000000061
 40
0.3750000000000061
 40
0.5000000000000081
 40
0.5000000000000081
 40
0.6250000000000103
 40
0.6250000000000103
 40
0.7500000000000123
 40
0.7500000000000123
 40
1.0
 40
1.0
 40
1.0
 40
1.0
 10
364.0537652772734
 20
294.8882611657132
 30
0.0
 10
364.0478801922303
 20
294.889214783123
 30
0.0
 10
364.0421813186187
 20
294.8906856297435
 30
0.0
 10
364.0311364028959
 20
294.8946055490317
 30
0.0
 10
364.0257404577217
 20
294.8970863933835
 30
0.0
 10
364.0155922565563
 20
294.9028941396754
 30
0.0
 10
364.0108486092225
 20
294.9062012040532
 30
0.0
 10
364.0019901193847
 20
294.9135804330134
 30
0.0
 10
363.9978424981638
 20
294.917693818228
 30
0.0
 10
363.9903674663754
 20
294.9265087684205
 30
0.0
 10
363.9870597823387
 20
294.9311708157771
 30
0.0
 10
363.9812598966683
 20
294.9409761219939
 30
0.0
 10
363.9787581086726
 20
294.9461455154674
 30
0.0
 10
363.9725804323733
 20
294.9622269099028
 30
0.0
 10
363.9703164408336
 20
294.9733286088722
 30
0.0
 10
363.9698846432053
 20
294.9848040086324
 30
0.0
  0
SPLINE
  5
1B1
330
1F
100
AcDbEntity
  8
1
100
AcDbSpline
210
0.0
220
0.0
230
1.0
 70
     8
 71
     3
 72
    21
 73
    17
 74
     0
 42
0.000000001
 43
0.0000000001
 40
0.0
 40
0.0
 40
0.0
 40
0.0
 40
0.2500000000001945
 40
0.2500000000001945
 40
0.3125000000001884
 40
0.3125000000001884
 40
0.3750000000001824
 40
0.3750000000001824
 40
0.5000000000001701
 40
0.625000000000158
 40
0.625000000000158
 40
0.6875000000001253
 40
0.6875000000001253
 40
0.7500000000000928
 40
0.7500000000000928
 40
1.0
 40
1.0
 40
1.0
 40
1.0
 10
363.2690556378421
 20
295.0618386318603
 30
0.0
 10
363.2278026950097
 20
295.0734652745778
 30
0.0
 10
363.1884635524736
 20
295.0896923985385
 30
0.0
 10
363.1416853322958
 20
295.1157203555251
 30
0.0
 10
363.1324325026562
 20
295.1212302240106
 30
0.0
 10
363.1143782270378
 20
295.1327103058447
 30
0.0
 10
363.1055538569182
 20
295.1386917628635
 30
0.0
 10
363.0796779956573
 20
295.15734715705
 30
0.0
 10
363.0467656663363
 20
295.1841124833613
 30
0.0
 10
363.0170094984837
 20
295.2146349054475
 30
0.0
 10
362.9959154672268
 20
295.238982800209
 30
0.0
 10
362.9891040855612
 20
295.2473277222512
 30
0.0
 10
362.9760666985547
 20
295.2642839723932
 30
0.0
 10
362.9698182346177
 20
295.2729206639922
 30
0.0
 10
362.9399027956992
 20
295.3168826732993
 30
0.0
 10
362.9201642189672
 20
295.3545130434829
 30
0.0
 10
362.9047328393783
 20
295.3946698016275
 30
0.0
  0
SPLINE
  5
1B2
330
1F
100
AcDbEntity
  8
1
100
AcDbSpline
210
0.0
220
0.0
230
1.0
 70
     8
 71
     3
 72
    14
 73
    10
 74
     0
 42
0.000000001
 43
0.0000000001
 40
0.0
 40
0.0
 40
0.0
 40
0.0
 40
0.25
 40
0.25
 40
0.5
 40
0.5
 40
0.75
 40
0.75
 40
1.0
 40
1.0
 40
1.0
 40
1.0
 10
363.9331506832245
 20
295.0598537637813
 30
0.0
 10
363.9388084023511
 20
295.0551742076559
 30
0.0
 10
363.943918384885
 20
295.0498804304061
 30
0.0
 10
363.9527604317847
 20
295.0385277720694
 30
0.0
 10
363.9565185046513
 20
295.0324657482245
 30
0.0
 10
363.9627525708735
 20
295.0195918830747
 30
0.0
 10
363.9652052814223
 20
295.0127767260072
 30
0.0
 10
363.968615761311
 20
294.9990085060166
 30
0.0
 10
363.9696146005124
 20
294.991980629465
 30
0.0
 10
363.9698846432053
 20
294.9848040086324
 30
0.0
  0
SPLINE
  5
1B3
330
1F
100
AcDbEntity
  8
1
100
AcDbSpline
210
0.0
220
0.0
230
1.0
 70
     8
 71
     3
 72
     8
 73
     4
 74
     0
 42
0.000000001
 43
0.0000000001
 40
0.0
 40
0.0
 40
0.0
 40
0.0
 40
1.0
 40
1.0
 40
1.0
 40
1.0
 10
362.9047328393783
 20
295.3946698016276
 30
0.0
 10
362.903016727517
 20
295.3991356038305
 30
0.0
 10
362.9016416951358
 20
295.4036684716469
 30
0.0
 10
362.9005929970219
 20
295.4082654106901
 30
0.0
  0
SPLINE
  5
1B4
330
1F
100
AcDbEntity
  8
1
100
AcDbSpline
210
0.0
220
0.0
230
1.0
 70
     8
 71
     3
 72
     8
 73
     4
 74
     0
 42
0.000000001
 43
0.0000000001
 40
0.0
 40
0.0
 40
0.0
 40
0.0
 40
1.0
 40
1.0
 40
1.0
 40
1.0
 10
362.9901516495553
 20
295.5875874524684
 30
0.0
 10
362.989589707675
 20
295.584002120987
 30
0.0
 10
362.9888359823839
 20
295.5804542586285
 30
0.0
 10
362.9879053789009
 20
295.5769725699939
 30
0.0
  0
SPLINE
  5
1B5
330
1F
100
AcDbEntity
  8
1
100
AcDbSpline
210
0.0
220
0.0
230
1.0
 70
     8
 71
     3
 72
    21
 73
    17
 74
     0
 42
0.000000001
 43
0.0000000001
 40
0.0
 40
0.0
 40
0.0
 40
0.0
 40
0.2500000000000078
 40
0.2500000000000078
 40
0.3125000000000085
 40
0.3125000000000085
 40
0.3750000000000094
 40
0.3750000000000094
 40
0.5000000000000157
 40
0.6250000000000221
 40
0.6250000000000221
 40
0.68750000000002
 40
0.68750000000002
 40
0.7500000000000179
 40
0.7500000000000179
 40
1.0
 40
1.0
 40
1.0
 40
1.0
 10
362.8411771089131
 20
296.057438443152
 30
0.0
 10
362.8706950303917
 20
296.0276363554402
 30
0.0
 10
362.8964531418713
 20
295.9947201799221
 30
0.0
 10
362.9238888477979
 20
295.9495021923049
 30
0.0
 10
362.9291347240526
 20
295.9402523924986
 30
0.0
 10
362.9391289311754
 20
295.9213250667156
 30
0.0
 10
362.9438861483923
 20
295.9116226543195
 30
0.0
 10
362.9571885588705
 20
295.8822957960986
 30
0.0
 10
362.9724912225975
 20
295.8423628044694
 30
0.0
 10
362.9830349779846
 20
295.8008032316083
 30
0.0
 10
362.9891270893546
 20
295.7690139768666
 30
0.0
 10
362.990859049133
 20
295.7582751859153
 30
0.0
 10
362.9936767257358
 20
295.7367901371207
 30
0.0
 10
362.9947625092388
 20
295.7260650568697
 30
0.0
 10
362.9986297023227
 20
295.6725217193878
 30
0.0
 10
362.9967908266136
 20
295.6299470831491
 30
0.0
 10
362.9901516495553
 20
295.5875874524684
 30
0.0
  0
SPLINE
  5
1B6
330
1F
100
AcDbEntity
  8
1
100
AcDbSpline
210
0.0
220
0.0
230
1.0
 70
     8
 71
     3
 72
    22
 73
    18
 74
     0
 42
0.000000001
 43
0.0000000001
 40
0.0
 40
0.0
 40
0.0
 40
0.0
 40
0.125
 40
0.125
 40
0.25
 40
0.25
 40
0.375
 40
0.375
 40
0.5
 40
0.5
 40
0.625
 40
0.625
 40
0.75
 40
0.75
 40
0.875
 40
0.875
 40
1.0
 40
1.0
 40
1.0
 40
1.0
 10
362.7642875544761
 20
296.0861907211897
 30
0.0
 10
362.7586402122214
 20
296.0858126938662
 30
0.0
 10
362.7529911308125
 20
296.0859105852138
 30
0.0
 10
362.7418861642749
 20
296.0870259466664
 30
0.0
 10
362.7364028324275
 20
296.0880406647298
 30
0.0
 10
362.725579503557
 20
296.0910103668971
 30
0.0
 10
362.7202443506897
 20
296.0929753117193
 30
0.0
 10
362.7100923318101
 20
296.0977393037085
 30
0.0
 10
362.7052268675847
 20
296.1005489002029
 30
0.0
 10
362.6959373106359
 20
296.1070600900469
 30
0.0
 10
362.6915380463472
 20
296.1107572421824
 30
0.0
 10
362.6835169912985
 20
296.1188080645996
 30
0.0
 10
362.6798527278274
 20
296.1231889073875
 30
0.0
 10
362.6732584227391
 20
296.1327016006531
 30
0.0
 10
362.6703845828373
 20
296.1377654507111
 30
0.0
 10
362.6656002972938
 20
296.1482907086408
 30
0.0
 10
362.6636673867046
 20
296.1537830097656
 30
0.0
 10
362.6622237597725
 20
296.1595194921271
 30
0.0
  0
SPLINE
  5
1B7
330
1F
100
AcDbEntity
  8
1
100
AcDbSpline
210
0.0
220
0.0
230
1.0
 70
     8
 71
     3
 72
    14
 73
    10
 74
     0
 42
0.000000001
 43
0.0000000001
 40
0.0
 40
0.0
 40
0.0
 40
0.0
 40
0.5999466392203387
 40
0.5999466392203387
 40
0.7499332990254285
 40
0.7499332990254285
 40
0.8999199588305184
 40
0.8999199588305184
 40
1.0
 40
1.0
 40
1.0
 40
1.0
 10
362.6622237597725
 20
296.1595194921271
 30
0.0
 10
362.651839429942
 20
296.200783286522
 30
0.0
 10
362.6463562525404
 20
296.2427382503957
 30
0.0
 10
362.6456284648619
 20
296.2960361567366
 30
0.0
 10
362.6457955096668
 20
296.306761584861
 30
0.0
 10
362.6467487937353
 20
296.3280582990803
 30
0.0
 10
362.6475333788169
 20
296.3386550000689
 30
0.0
 10
362.6493455802414
 20
296.3562378438119
 30
0.0
 10
362.6502051389926
 20
296.3632521923373
 30
0.0
 10
362.6511986870166
 20
296.3702440472788
 30
0.0
  0
SPLINE
  5
1B8
330
1F
100
AcDbEntity
  8
1
100
AcDbSpline
210
0.0
220
0.0
230
1.0
 70
     8
 71
     3
 72
    14
 73
    10
 74
     0
 42
0.000000001
 43
0.0000000001
 40
0.0
 40
0.0
 40
0.0
 40
0.0
 40
0.25
 40
0.25
 40
0.5
 40
0.5
 40
0.75
 40
0.75
 40
1.0
 40
1.0
 40
1.0
 40
1.0
 10
363.2964636169538
 20
297.1087074284209
 30
0.0
 10
363.3002908121912
 20
297.1029593002243
 30
0.0
 10
363.303486438263
 20
297.0968175860117
 30
0.0
 10
363.3084783568432
 20
297.0840365563161
 30
0.0
 10
363.3102673584029
 20
297.0774475323017
 30
0.0
 10
363.3124164069252
 20
297.0638648020421
 30
0.0
 10
363.3127571843072
 20
297.0568369401256
 30
0.0
 10
363.3119008545934
 20
297.0429808310626
 30
0.0
 10
363.3107247902655
 20
297.0360774449048
 30
0.0
 10
363.3087353852111
 20
297.0291979557808
 30
0.0
  0
SPLINE
  5
1B9
330
1F
100
AcDbEntity
  8
1
100
AcDbSpline
210
0.0
220
0.0
230
1.0
 70
     8
 71
     3
 72
    12
 73
     8
 74
     0
 42
0.000000001
 43
0.0000000001
 40
0.0
 40
0.0
 40
0.0
 40
0.0
 40
0.4923026066093687
 40
0.4923026066093687
 40
0.9846052132187372
 40
0.9846052132187372
 40
1.0
 40
1.0
 40
1.0
 40
1.0
 10
363.2964636169532
 20
297.1087074284221
 30
0.0
 10
363.2934043276069
 20
297.1133022259859
 30
0.0
 10
363.2907570684933
 20
297.1181358912703
 30
0.0
 10
363.2863528914281
 20
297.1280996744347
 30
0.0
 10
363.284580419336
 20
297.1332515447921
 30
0.0
 10
363.283208707721
 20
297.1387443214207
 30
0.0
 10
363.2831675570831
 20
297.1389110481847
 30
0.0
 10
363.2831268509179
 20
297.1390779398841
 30
0.0
  0
SPLINE
  5
1BA
330
1F
100
AcDbEntity
  8
1
100
AcDbSpline
210
0.0
220
0.0
230
1.0
 70
     8
 71
     3
 72
    14
 73
    10
 74
     0
 42
0.000000001
 43
0.0000000001
 40
0.0
 40
0.0
 40
0.0
 40
0.0
 40
0.0316729252398259
 40
0.0316729252398259
 40
0.193060771033186
 40
0.193060771033186
 40
0.3544486168265464
 40
0.3544486168265464
 40
1.0
 40
1.0
 40
1.0
 40
1.0
 10
365.160599191395
 20
295.799320752597
 30
0.0
 10
365.1599361827323
 20
295.7973327511271
 30
0.0
 10
365.1592613748139
 20
295.7953470711335
 30
0.0
 10
365.1550759655631
 20
295.7832576514526
 30
0.0
 10
365.1512737939697
 20
295.7732330211133
 30
0.0
 10
365.1431551308241
 20
295.7535668042133
 30
0.0
 10
365.1388279533921
 20
295.7438932488225
 30
0.0
 10
365.115877134935
 20
295.6963091541363
 30
0.0
 10
365.0933601524094
 20
295.660718501592
 30
0.0
 10
365.0665799606001
 20
295.6276768383818
 30
0.0
  0
SPLINE
  5
1BB
330
1F
100
AcDbEntity
  8
1
100
AcDbSpline
210
0.0
220
0.0
230
1.0
 70
     8
 71
     3
 72
    20
 73
    16
 74
     0
 42
0.000000001
 43
0.0000000001
 40
0.0
 40
0.0
 40
0.0
 40
0.0
 40
0.1249999999999658
 40
0.1249999999999658
 40
0.2499999999999317
 40
0.2499999999999317
 40
0.3749999999998975
 40
0.3749999999998975
 40
0.4999999999998633
 40
0.4999999999998633
 40
0.6249999999998293
 40
0.6249999999998293
 40
0.7499999999997952
 40
0.7499999999997952
 40
1.0
 40
1.0
 40
1.0
 40
1.0
 10
365.0665799606001
 20
295.6276768383818
 30
0.0
 10
365.0628523645814
 20
295.6230776938682
 30
0.0
 10
365.0587793804207
 20
295.6189014262142
 30
0.0
 10
365.0499807460607
 20
295.6113493844391
 30
0.0
 10
365.0452033205393
 20
295.607946624344
 30
0.0
 10
365.0352548882483
 20
295.6021271593857
 30
0.0
 10
365.0301035025427
 20
295.5997068975271
 30
0.0
 10
365.0194656935737
 20
295.5957971724229
 30
0.0
 10
365.0139276625878
 20
295.5943002676127
 30
0.0
 10
365.0027654340533
 20
295.592313805437
 30
0.0
 10
364.9971825318855
 20
295.5918207704958
 30
0.0
 10
364.9860152254834
 20
295.5917832318078
 30
0.0
 10
364.9804030430811
 20
295.5922438792014
 30
0.0
 10
364.9637490744035
 20
295.5950628190481
 30
0.0
 10
364.9532464901855
 20
295.5987371968865
 30
0.0
 10
364.9433398668864
 20
295.604185199677
 30
0.0
  0
SPLINE
  5
1BC
330
1F
100
AcDbEntity
  8
1
100
AcDbSpline
210
0.0
220
0.0
230
1.0
 70
     8
 71
     3
 72
    14
 73
    10
 74
     0
 42
0.000000001
 43
0.0000000001
 40
0.0
 40
0.0
 40
0.0
 40
0.0
 40
0.25
 40
0.25
 40
0.5
 40
0.5
 40
0.75
 40
0.75
 40
1.0
 40
1.0
 40
1.0
 40
1.0
 10
364.8616569365389
 20
295.6105090934187
 30
0.0
 10
364.8684301405892
 20
295.6130250568468
 30
0.0
 10
364.8754479799327
 20
295.6147558559712
 30
0.0
 10
364.889440722957
 20
295.6166383087089
 30
0.0
 10
364.8964323299525
 20
295.6168110385468
 30
0.0
 10
364.9104105417778
 20
295.6156679040893
 30
0.0
 10
364.9173866093997
 20
295.6143305108303
 30
0.0
 10
364.9307116921262
 20
295.6102940343791
 30
0.0
 10
364.9371442429392
 20
295.6075923925756
 30
0.0
 10
364.9433398668864
 20
295.604185199677
 30
0.0
  0
SPLINE
  5
1BD
330
1F
100
AcDbEntity
  8
1
100
AcDbSpline
210
0.0
220
0.0
230
1.0
 70
     8
 71
     3
 72
    21
 73
    17
 74
     0
 42
0.000000001
 43
0.0000000001
 40
0.0
 40
0.0
 40
0.0
 40
0.0
 40
0.2499999999998512
 40
0.2499999999998512
 40
0.312499999999813
 40
0.312499999999813
 40
0.3749999999997747
 40
0.3749999999997747
 40
0.4999999999997451
 40
0.6249999999997155
 40
0.6249999999997155
 40
0.6874999999997309
 40
0.6874999999997309
 40
0.7499999999997462
 40
0.7499999999997462
 40
1.0
 40
1.0
 40
1.0
 40
1.0
 10
364.5285804205284
 20
295.2472876084308
 30
0.0
 10
364.5404651450613
 20
295.2884835549533
 30
0.0
 10
364.5567726876903
 20
295.327821073935
 30
0.0
 10
364.5828280292183
 20
295.3746608259562
 30
0.0
 10
364.5883263379101
 20
295.3839105927934
 30
0.0
 10
364.599916653704
 20
295.4021668215146
 30
0.0
 10
364.6060258089777
 20
295.4111933664157
 30
0.0
 10
364.6249844735132
 20
295.4374999228617
 30
0.0
 10
364.6520859838105
 20
295.470769441401
 30
0.0
 10
364.6827508389354
 20
295.5005054149417
 30
0.0
 10
364.7071097092825
 20
295.5214601443633
 30
0.0
 10
364.7154877154707
 20
295.5282430571426
 30
0.0
 10
364.7325463342926
 20
295.5412264823912
 30
0.0
 10
364.7412089488907
 20
295.5474168731258
 30
0.0
 10
364.7851703125655
 20
295.5769151762998
 30
0.0
 10
364.8223855688287
 20
295.5959214146484
 30
0.0
 10
364.8616569365389
 20
295.6105090934187
 30
0.0
  0
SPLINE
  5
1BE
330
1F
100
AcDbEntity
  8
1
100
AcDbSpline
210
0.0
220
0.0
230
1.0
 70
     8
 71
     3
 72
     8
 73
     4
 74
     0
 42
0.000000001
 43
0.0000000001
 40
0.0
 40
0.0
 40
0.0
 40
0.0
 40
1.0
 40
1.0
 40
1.0
 40
1.0
 10
364.9098579549962
 20
296.7703196607109
 30
0.0
 10
364.9044167332887
 20
296.7647807723245
 30
0.0
 10
364.8983422331012
 20
296.7599608947056
 30
0.0
 10
364.8916406219885
 20
296.7558548971449
 30
0.0
  0
SPLINE
  5
1BF
330
1F
100
AcDbEntity
  8
1
100
AcDbSpline
210
0.0
220
0.0
230
1.0
 70
     8
 71
     3
 72
    14
 73
    10
 74
     0
 42
0.000000001
 43
0.0000000001
 40
0.0
 40
0.0
 40
0.0
 40
0.0
 40
0.1451158453623468
 40
0.1451158453623468
 40
0.4300772302415645
 40
0.4300772302415645
 40
0.7150386151207823
 40
0.7150386151207823
 40
1.0
 40
1.0
 40
1.0
 40
1.0
 10
364.8493181146808
 20
296.6991673737799
 30
0.0
 10
364.8502501034671
 20
296.7026541493956
 30
0.0
 10
364.8513708698971
 20
296.7060633614815
 30
0.0
 10
364.8552038575297
 20
296.7158470249931
 30
0.0
 10
364.8583988469367
 20
296.7219379230609
 30
0.0
 10
364.8660611365782
 20
296.7333650967493
 30
0.0
 10
364.8705418402274
 20
296.7386814758905
 30
0.0
 10
364.8803700554946
 20
296.7480895671027
 30
0.0
 10
364.8857596937471
 20
296.7522517222354
 30
0.0
 10
364.8916406219885
 20
296.7558548971449
 30
0.0
  0
SPLINE
  5
1C0
330
1F
100
AcDbEntity
  8
1
100
AcDbSpline
210
0.0
220
0.0
230
1.0
 70
     8
 71
     3
 72
    21
 73
    17
 74
     0
 42
0.000000001
 43
0.0000000001
 40
0.0
 40
0.0
 40
0.0
 40
0.0
 40
0.2499999999998979
 40
0.2499999999998979
 40
0.3124999999998556
 40
0.3124999999998556
 40
0.3749999999998133
 40
0.3749999999998133
 40
0.4999999999998032
 40
0.624999999999793
 40
0.624999999999793
 40
0.6874999999998276
 40
0.6874999999998276
 40
0.7499999999998622
 40
0.7499999999998622
 40
1.0
 40
1.0
 40
1.0
 40
1.0
 10
364.5243794007746
 20
295.0364046140293
 30
0.0
 10
364.4934401585983
 20
295.006503137078
 30
0.0
 10
364.459531615274
 20
294.9805788418323
 30
0.0
 10
364.4134369885636
 20
294.9531432381041
 30
0.0
 10
364.4040093143145
 20
294.9478984721606
 30
0.0
 10
364.3849884012245
 20
294.9380320086715
 30
0.0
 10
364.3753739109428
 20
294.9333961258892
 30
0.0
 10
364.3462239931882
 20
294.9203642573046
 30
0.0
 10
364.3065422125453
 20
294.9053181933346
 30
0.0
 10
364.2652409420321
 20
294.8948998890003
 30
0.0
 10
364.2336374325638
 20
294.8888796044402
 30
0.0
 10
364.2230181569545
 20
294.8871787819214
 30
0.0
 10
364.2018486289969
 20
294.8844187155767
 30
0.0
 10
364.1912651799853
 20
294.8833527731116
 30
0.0
 10
364.1383546004337
 20
294.8795653252183
 30
0.0
 10
364.0960469397234
 20
294.8814098578509
 30
0.0
 10
364.0537652772734
 20
294.8882611657132
 30
0.0
  0
SPLINE
  5
1C1
330
1F
100
AcDbEntity
  8
1
100
AcDbSpline
210
0.0
220
0.0
230
1.0
 70
     8
 71
     3
 72
    21
 73
    17
 74
     0
 42
0.000000001
 43
0.0000000001
 40
0.0
 40
0.0
 40
0.0
 40
0.0
 40
0.2500000000001117
 40
0.2500000000001117
 40
0.3125000000001597
 40
0.3125000000001597
 40
0.3750000000002076
 40
0.3750000000002076
 40
0.5000000000002246
 40
0.6250000000002414
 40
0.6250000000002414
 40
0.6875000000002128
 40
0.6875000000002128
 40
0.7500000000001841
 40
0.7500000000001841
 40
1.0
 40
1.0
 40
1.0
 40
1.0
 10
363.4510996265717
 20
295.1664832694771
 30
0.0
 10
363.4923308072445
 20
295.1772369840139
 30
0.0
 10
363.5342596746896
 20
295.1831466985715
 30
0.0
 10
363.5876325299069
 20
295.1843249594261
 30
0.0
 10
363.598355740919
 20
295.1842461197077
 30
0.0
 10
363.6199039815153
 20
295.1834384535752
 30
0.0
 10
363.63075490656
 20
295.1827048566929
 30
0.0
 10
363.6629789354042
 20
295.1795468693023
 30
0.0
 10
363.7053584531987
 20
295.1727918099537
 30
0.0
 10
363.746591690897
 20
295.1610595603198
 30
0.0
 10
363.7770795388539
 20
295.1503621002139
 30
0.0
 10
363.7872049716044
 20
295.1464635593103
 30
0.0
 10
363.80711759001
 20
295.1380986373088
 30
0.0
 10
363.8168869949301
 20
295.133642856554
 30
0.0
 10
363.8648339241129
 20
295.1100419045707
 30
0.0
 10
363.9003472772001
 20
295.0869857892777
 30
0.0
 10
363.9331506832245
 20
295.0598537637813
 30
0.0
  0
SPLINE
  5
1C2
330
1F
100
AcDbEntity
  8
1
100
AcDbSpline
210
0.0
220
0.0
230
1.0
 70
     8
 71
     3
 72
    30
 73
    26
 74
     0
 42
0.000000001
 43
0.0000000001
 40
0.0
 40
0.0
 40
0.0
 40
0.0
 40
0.1250000000000006
 40
0.1250000000000006
 40
0.2500000000000011
 40
0.2500000000000011
 40
0.3750000000000017
 40
0.3750000000000017
 40
0.4062500000000018
 40
0.4062500000000018
 40
0.4375000000000019
 40
0.4375000000000019
 40
0.5000000000000019
 40
0.5000000000000019
 40
0.6250000000000015
 40
0.6250000000000015
 40
0.750000000000001
 40
0.750000000000001
 40
0.8125000000000003
 40
0.8125000000000003
 40
0.8437500000000005
 40
0.8437500000000005
 40
0.8750000000000005
 40
0.8750000000000005
 40
1.0
 40
1.0
 40
1.0
 40
1.0
 10
279.4048419452972
 20
283.2633425858686
 30
0.0
 10
279.2411638574638
 20
283.1603362168767
 30
0.0
 10
279.0836686012868
 20
283.051360646702
 30
0.0
 10
278.7808692672997
 20
282.8219310498068
 30
0.0
 10
278.635565094971
 20
282.7014766022188
 30
0.0
 10
278.3573269318669
 20
282.4492219939299
 30
0.0
 10
278.2243910078026
 20
282.3174230340828
 30
0.0
 10
278.0663016806245
 20
282.145457218344
 30
0.0
 10
278.0350888768714
 20
282.1107023111396
 30
0.0
 10
277.9734865409364
 20
282.0404621023123
 30
0.0
 10
277.9430574364584
 20
282.0049290737037
 30
0.0
 10
277.8533263837039
 20
281.8975812291606
 30
0.0
 10
277.7957065070063
 20
281.8251805764966
 30
0.0
 10
277.6293842516712
 20
281.6055647648444
 30
0.0
 10
277.5272033168588
 20
281.4559425615856
 30
0.0
 10
277.3402832405698
 20
281.1505953787945
 30
0.0
 10
277.2555424870427
 20
280.9948704300038
 30
0.0
 10
277.1419398960606
 20
280.756781612372
 30
0.0
 10
277.1063280600056
 20
280.676666735032
 30
0.0
 10
277.0563899060405
 20
280.5553596640653
 30
0.0
 10
277.0403241038726
 20
280.5147347293655
 30
0.0
 10
277.0093730516652
 20
280.4331037343861
 30
0.0
 10
276.9944717981955
 20
280.3920496372469
 30
0.0
 10
276.9232402792667
 20
280.1866028823122
 30
0.0
 10
276.8766160684064
 20
280.0215186130715
 30
0.0
 10
276.8404812245433
 20
279.8558081973578
 30
0.0
  0
SPLINE
  5
1C3
330
1F
100
AcDbEntity
  8
1
100
AcDbSpline
210
0.0
220
0.0
230
1.0
 70
    28
 71
     3
 72
     8
 73
     4
 74
     0
 42
0.000000001
 43
0.0000000001
 40
0.0
 40
0.0
 40
0.0
 40
0.0
 40
1.0
 40
1.0
 40
1.0
 40
1.0
 10
297.9048419452959
 20
285.2095892449224
 30
0.0
 41
1.0
 10
297.9048419452959
 20
285.2503878718666
 30
0.0
 41
0.9967110406312004
 10
297.9048419452959
 20
285.2909525716023
 30
0.0
 41
0.9934774798839875
 10
297.9048419452959
 20
285.3312742449224
 30
0.0
 41
0.9902993177583615
  0
SPLINE
  5
1C4
330
1F
100
AcDbEntity
  8
1
100
AcDbSpline
210
0.0
220
0.0
230
1.0
 70
     8
 71
     3
 72
    26
 73
    22
 74
     0
 42
0.000000001
 43
0.0000000001
 40
0.0
 40
0.0
 40
0.0
 40
0.0
 40
0.1249999999999992
 40
0.1249999999999992
 40
0.2499999999999983
 40
0.2499999999999983
 40
0.3749999999999975
 40
0.3749999999999975
 40
0.4999999999999968
 40
0.4999999999999968
 40
0.5624999999999967
 40
0.5624999999999967
 40
0.5937499999999967
 40
0.5937499999999967
 40
0.6249999999999967
 40
0.6249999999999967
 40
0.7499999999999978
 40
0.7499999999999978
 40
0.8749999999999987
 40
0.8749999999999987
 40
1.0
 40
1.0
 40
1.0
 40
1.0
 10
281.2185504442805
 20
284.723504442945
 30
0.0
 10
281.4560996706426
 20
284.8859472240161
 30
0.0
 10
281.7007205139445
 20
285.0391356803717
 30
0.0
 10
282.204271953723
 20
285.3273596625199
 30
0.0
 10
282.4632017197553
 20
285.4623957405874
 30
0.0
 10
282.9957928858672
 20
285.7142100928943
 30
0.0
 10
283.2694527662645
 20
285.830990746979
 30
0.0
 10
283.8322166977323
 20
286.0456877858673
 30
0.0
 10
284.1213183748443
 20
286.1436088005608
 30
0.0
 10
284.5673496714556
 20
286.2754337619193
 30
0.0
 10
284.7180928450173
 20
286.3168608341744
 30
0.0
 10
284.9474362160466
 20
286.3750620022868
 30
0.0
 10
285.0244978211417
 20
286.3938217605562
 30
0.0
 10
285.1790584221363
 20
286.4298444522816
 30
0.0
 10
285.2566148775819
 20
286.4471235140212
 30
0.0
 10
285.6457798460648
 20
286.5298367853302
 30
0.0
 10
285.9615336746856
 20
286.5842514163007
 30
0.0
 10
286.6019828949021
 20
286.6686189034904
 30
0.0
 10
286.9266798314366
 20
286.6985725778
 30
0.0
 10
287.5851623235527
 20
286.7323765880045
 30
0.0
 10
287.9189501906865
 20
286.7362266540164
 30
0.0
 10
288.2573511497239
 20
286.7258504734237
 30
0.0
  0
SPLINE
  5
1C5
330
1F
100
AcDbEntity
  8
1
100
AcDbSpline
210
0.0
220
0.0
230
1.0
 70
     8
 71
     3
 72
    12
 73
     8
 74
     0
 42
0.000000001
 43
0.0000000001
 40
0.0
 40
0.0
 40
0.0
 40
0.0
 40
0.5000000000000007
 40
0.5000000000000007
 40
0.7500000000000004
 40
0.7500000000000004
 40
1.0
 40
1.0
 40
1.0
 40
1.0
 10
281.2185504442805
 20
284.723504442945
 30
0.0
 10
280.9084987706411
 20
284.5114824679083
 30
0.0
 10
280.6019718029445
 20
284.2860572779612
 30
0.0
 10
280.1482599709565
 20
283.9229395415314
 30
0.0
 10
279.9980364464004
 20
283.7977239321725
 30
0.0
 10
279.6997652285948
 20
283.53789755662
 30
0.0
 10
279.551717120122
 20
283.4032901886656
 30
0.0
 10
279.4048419452966
 20
283.2633425858672
 30
0.0
  0
SPLINE
  5
1C6
330
1F
100
AcDbEntity
  8
1
100
AcDbSpline
210
0.0
220
0.0
230
1.0
 70
     8
 71
     3
 72
    28
 73
    24
 74
     0
 42
0.000000001
 43
0.0000000001
 40
0.0
 40
0.0
 40
0.0
 40
0.0
 40
0.0625000000000034
 40
0.0625000000000034
 40
0.1250000000000068
 40
0.1250000000000068
 40
0.2500000000000091
 40
0.2500000000000091
 40
0.3750000000000114
 40
0.3750000000000114
 40
0.4062500000000109
 40
0.4062500000000109
 40
0.4375000000000103
 40
0.4375000000000103
 40
0.500000000000009
 40
0.500000000000009
 40
0.6250000000000068
 40
0.6250000000000068
 40
0.7500000000000046
 40
0.7500000000000046
 40
0.8750000000000023
 40
0.8750000000000023
 40
1.0
 40
1.0
 40
1.0
 40
1.0
 10
354.3580655995486
 20
291.5553595698333
 30
0.0
 10
354.2203857769274
 20
291.6250445381406
 30
0.0
 10
354.0822372717189
 20
291.6959072743011
 30
0.0
 10
353.8051395186995
 20
291.8396449589831
 30
0.0
 10
353.6661897706328
 20
291.9125211646142
 30
0.0
 10
353.2482887876692
 20
292.1337927303586
 30
0.0
 10
352.9682933941572
 20
292.2848119909188
 30
0.0
 10
352.4060523868399
 20
292.5925051644542
 30
0.0
 10
352.1238027791966
 20
292.7491891136759
 30
0.0
 10
351.7697871599653
 20
292.9480686404561
 30
0.0
 10
351.6989234928104
 20
292.9879966870794
 30
0.0
 10
351.5570789462237
 20
293.0681473269024
 30
0.0
 10
351.4860622754596
 20
293.1083903406547
 30
0.0
 10
351.2732882830817
 20
293.2292939220063
 30
0.0
 10
351.1317047691087
 20
293.3101858679512
 30
0.0
 10
350.7076962546388
 20
293.5536700155012
 30
0.0
 10
350.4260102747116
 20
293.7170672513492
 30
0.0
 10
349.8644035708121
 20
294.0457846620678
 30
0.0
 10
349.5844837404948
 20
294.21110581042
 30
0.0
 10
349.026290838767
 20
294.5435419642436
 30
0.0
 10
348.7480182267481
 20
294.7106574701424
 30
0.0
 10
348.1930678460664
 20
295.0466257861057
 30
0.0
 10
347.9163903009256
 20
295.2154788396585
 30
0.0
 10
347.6405127045359
 20
295.3852032981005
 30
0.0
  0
SPLINE
  5
1C7
330
1F
100
AcDbEntity
  8
1
100
AcDbSpline
210
0.0
220
0.0
230
1.0
 70
     8
 71
     3
 72
    14
 73
    10
 74
     0
 42
0.000000001
 43
0.0000000001
 40
0.0
 40
0.0
 40
0.0
 40
0.0
 40
0.25
 40
0.25
 40
0.5
 40
0.5
 40
0.75
 40
0.75
 40
1.0
 40
1.0
 40
1.0
 40
1.0
 10
361.5070934610404
 20
291.8398580537159
 30
0.0
 10
361.4766975775746
 20
291.8161598957512
 30
0.0
 10
361.4453608955644
 20
291.7942157620804
 30
0.0
 10
361.3808424081891
 20
291.7537099147942
 30
0.0
 10
361.3476604807807
 20
291.7351487548914
 30
0.0
 10
361.2794184942088
 20
291.7014210090333
 30
0.0
 10
361.2443492541852
 20
291.6862506677246
 30
0.0
 10
361.1722674400929
 20
291.6594618669908
 30
0.0
 10
361.1356239362703
 20
291.6479798169065
 30
0.0
 10
361.0983488784005
 20
291.6384347240903
 30
0.0
  0
SPLINE
  5
1C8
330
1F
100
AcDbEntity
  8
1
100
AcDbSpline
210
0.0
220
0.0
230
1.0
 70
     8
 71
     3
 72
    18
 73
    14
 74
     0
 42
0.000000001
 43
0.0000000001
 40
0.0
 40
0.0
 40
0.0
 40
0.0
 40
0.2499999999999959
 40
0.2499999999999959
 40
0.499999999999992
 40
0.499999999999992
 40
0.5624999999999929
 40
0.5624999999999929
 40
0.624999999999994
 40
0.624999999999994
 40
0.749999999999996
 40
0.749999999999996
 40
1.0
 40
1.0
 40
1.0
 40
1.0
 10
361.1023110151058
 20
291.2825176055018
 30
0.0
 10
360.6813018774623
 20
291.2640149748274
 30
0.0
 10
360.2619417327502
 20
291.2663415493875
 30
0.0
 10
359.426447954556
 20
291.3116918063652
 30
0.0
 10
359.0103144268578
 20
291.3547173496453
 30
0.0
 10
358.4921819260774
 20
291.4340962000764
 30
0.0
 10
358.388657389588
 20
291.4512547527365
 30
0.0
 10
358.1818136765273
 20
291.488153298739
 30
0.0
 10
358.078419769259
 20
291.5079100818979
 30
0.0
 10
357.7695464321235
 20
291.5708711295905
 30
0.0
 10
357.5651313970105
 20
291.6177995154266
 30
0.0
 10
356.9563527937761
 20
291.7732962970053
 30
0.0
 10
356.5564442401284
 20
291.8965420258608
 30
0.0
 10
356.1625245938202
 20
292.0393879984882
 30
0.0
  0
SPLINE
  5
1C9
330
1F
100
AcDbEntity
  8
1
100
AcDbSpline
210
0.0
220
0.0
230
1.0
 70
     8
 71
     3
 72
     8
 73
     4
 74
     0
 42
0.000000001
 43
0.0000000001
 40
0.0
 40
0.0
 40
0.0
 40
0.0
 40
1.0
 40
1.0
 40
1.0
 40
1.0
 10
361.1023110151057
 20
291.2825176055018
 30
0.0
 10
361.106041653994
 20
291.2826815606926
 30
0.0
 10
361.1097731925704
 20
291.282844862339
 30
0.0
 10
361.1135056321368
 20
291.2830075094948
 30
0.0
  0
SPLINE
  5
1CA
330
1F
100
AcDbEntity
  8
1
100
AcDbSpline
210
0.0
220
0.0
230
1.0
 70
     8
 71
     3
 72
    29
 73
    25
 74
     0
 42
0.000000001
 43
0.0000000001
 40
0.0
 40
0.0
 40
0.0
 40
0.0
 40
0.1250000000000173
 40
0.1250000000000173
 40
0.2500000000000346
 40
0.2500000000000346
 40
0.2812500000000349
 40
0.2812500000000349
 40
0.3125000000000352
 40
0.3750000000000304
 40
0.3750000000000304
 40
0.5000000000000209
 40
0.5000000000000209
 40
0.5312500000000186
 40
0.5312500000000186
 40
0.5625000000000162
 40
0.5625000000000162
 40
0.6250000000000115
 40
0.6250000000000115
 40
0.7500000000000076
 40
0.7500000000000076
 40
0.8750000000000037
 40
0.8750000000000037
 40
1.0
 40
1.0
 40
1.0
 40
1.0
 10
354.3791211462371
 20
290.9399534321741
 30
0.0
 10
354.631682953245
 20
290.7827793221981
 30
0.0
 10
354.889791712458
 20
290.6356131337203
 30
0.0
 10
355.4168927290222
 20
290.3612742926528
 30
0.0
 10
355.685884666863
 20
290.2341005091309
 30
0.0
 10
356.0288959973827
 20
290.0877681895912
 30
0.0
 10
356.0978726273523
 20
290.059120306993
 30
0.0
 10
356.2362337965301
 20
290.0032031521553
 30
0.0
 10
356.4444447330298
 20
289.9213687506139
 30
0.0
 10
356.6546497398634
 20
289.8456279608402
 30
0.0
 10
357.0776936436828
 20
289.7022212258112
 30
0.0
 10
357.3632307846419
 20
289.6173718232103
 30
0.0
 10
357.7245135802207
 20
289.5247557085823
 30
0.0
 10
357.796988519968
 20
289.5069056584441
 30
0.0
 10
357.9423758403339
 20
289.472555574465
 30
0.0
 10
358.0152070999933
 20
289.4560753992801
 30
0.0
 10
358.2337961628801
 20
289.4087755803584
 30
0.0
 10
358.3797788936323
 20
289.3800649229159
 30
0.0
 10
358.8184855690964
 20
289.3022806752812
 30
0.0
 10
359.1119667710099
 20
289.2615417897368
 30
0.0
 10
359.7009179349166
 20
289.2019809763032
 30
0.0
 10
359.9963879001237
 20
289.1831590510329
 30
0.0
 10
360.5893245241539
 20
289.1675326701269
 30
0.0
 10
360.8867910764621
 20
289.1707270582301
 30
0.0
 10
361.1852802654387
 20
289.185196870061
 30
0.0
  0
SPLINE
  5
1CB
330
1F
100
AcDbEntity
  8
1
100
AcDbSpline
210
0.0
220
0.0
230
1.0
 70
     8
 71
     3
 72
    82
 73
    78
 74
     0
 42
0.000000001
 43
0.0000000001
 40
0.0
 40
0.0
 40
0.0
 40
0.0
 40
0.0624999999999959
 40
0.0624999999999959
 40
0.1249999999999917
 40
0.1249999999999917
 40
0.1562499999999911
 40
0.1562499999999911
 40
0.1874999999999904
 40
0.1874999999999904
 40
0.2187499999999898
 40
0.2187499999999898
 40
0.2343749999999881
 40
0.2343749999999881
 40
0.2499999999999865
 40
0.2499999999999865
 40
0.2812499999999832
 40
0.2812499999999832
 40
0.3124999999999799
 40
0.3124999999999799
 40
0.3437499999999765
 40
0.3437499999999765
 40
0.3593749999999749
 40
0.3593749999999749
 40
0.3749999999999734
 40
0.3749999999999734
 40
0.4062499999999686
 40
0.4062499999999686
 40
0.4140624999999674
 40
0.4140624999999674
 40
0.4218749999999662
 40
0.437499999999964
 40
0.437499999999964
 40
0.4531249999999617
 40
0.4531249999999617
 40
0.4609374999999604
 40
0.4609374999999604
 40
0.4687499999999593
 40
0.4687499999999593
 40
0.484374999999958
 40
0.484374999999958
 40
0.4921874999999572
 40
0.4921874999999572
 40
0.4999999999999565
 40
0.4999999999999565
 40
0.5078124999999557
 40
0.5078124999999557
 40
0.5156249999999551
 40
0.5156249999999551
 40
0.5312499999999535
 40
0.5312499999999535
 40
0.5624999999999531
 40
0.5624999999999531
 40
0.5703124999999544
 40
0.5703124999999544
 40
0.5781249999999557
 40
0.5937499999999585
 40
0.5937499999999585
 40
0.6249999999999605
 40
0.6249999999999605
 40
0.6562499999999626
 40
0.6562499999999626
 40
0.6874999999999646
 40
0.6874999999999646
 40
0.7031249999999658
 40
0.7031249999999658
 40
0.7187499999999667
 40
0.7187499999999667
 40
0.7499999999999688
 40
0.7499999999999688
 40
0.8124999999999765
 40
0.8124999999999765
 40
0.8749999999999843
 40
0.8749999999999843
 40
0.9374999999999921
 40
0.9374999999999921
 40
1.0
 40
1.0
 40
1.0
 40
1.0
 10
356.1625245938202
 20
292.0393879984882
 30
0.0
 10
356.3137841995362
 20
291.9550004968494
 30
0.0
 10
356.4637591796737
 20
291.8737991786269
 30
0.0
 10
356.7600148552941
 20
291.7172795091591
 30
0.0
 10
356.906309596902
 20
291.6419640344117
 30
0.0
 10
357.1216117037487
 20
291.5329766846609
 30
0.0
 10
357.1926823763811
 20
291.4973109842277
 30
0.0
 10
357.3330827388063
 20
291.4272179899852
 30
0.0
 10
357.4023598910313
 20
291.3927909200569
 30
0.0
 10
357.5391238729257
 20
291.3250669746512
 30
0.0
 10
357.6065919989422
 20
291.2917715936257
 30
0.0
 10
357.7061017699363
 20
291.2425947280338
 30
0.0
 10
357.7390121288028
 20
291.2263183368715
 30
0.0
 10
357.8040803202751
 20
291.1940628528066
 30
0.0
 10
357.8362182211179
 20
291.1780937019387
 30
0.0
 10
357.9313172338335
 20
291.1306391691768
 30
0.0
 10
357.9929748105983
 20
291.0996072732103
 30
0.0
 10
358.1119174392613
 20
291.0386187364697
 30
0.0
 10
358.169211289122
 20
291.0086623468334
 30
0.0
 10
358.2780907547918
 20
290.9496704484679
 30
0.0
 10
358.3296946332346
 20
290.920635268216
 30
0.0
 10
358.4011908008524
 20
290.877634983543
 30
0.0
 10
358.4240557042178
 20
290.8633763960704
 30
0.0
 10
358.4672702215872
 20
290.8350896716907
 30
0.0
 10
358.4875177241747
 20
290.8211292736072
 30
0.0
 10
358.5434628140013
 20
290.7797975861111
 30
0.0
 10
358.5744570283965
 20
290.7529672298242
 30
0.0
 10
358.6018183481287
 20
290.7204260453834
 30
0.0
 10
358.6067141967748
 20
290.713963017567
 30
0.0
 10
358.6151565967768
 20
290.7012774617421
 30
0.0
 10
358.6258409192167
 20
290.6825613717868
 30
0.0
 10
358.6302743105284
 20
290.6648124912051
 30
0.0
 10
358.6300526542102
 20
290.6420847025879
 30
0.0
 10
358.6268745629612
 20
290.6311893375036
 30
0.0
 10
358.6170714608302
 20
290.6156289751725
 30
0.0
 10
358.6129644834601
 20
290.6105728748517
 30
0.0
 10
358.6030012843112
 20
290.6007384465194
 30
0.0
 10
358.5971807291359
 20
290.5960003083423
 30
0.0
 10
358.5774054538596
 20
290.5824191953515
 30
0.0
 10
358.5610917730893
 20
290.574163472411
 30
0.0
 10
358.532321661999
 20
290.5629345570898
 30
0.0
 10
358.5220284842084
 20
290.5593806942753
 30
0.0
 10
358.4998981790324
 20
290.5526977317122
 30
0.0
 10
358.4880809405447
 20
290.5495636593245
 30
0.0
 10
358.4630065271863
 20
290.5437071868481
 30
0.0
 10
358.4497193529605
 20
290.5409794884997
 30
0.0
 10
358.4219034588127
 20
290.535957608472
 30
0.0
 10
358.4074491550392
 20
290.533675054868
 30
0.0
 10
358.3626077490538
 20
290.5274702819115
 30
0.0
 10
358.3307478361911
 20
290.5241891740582
 30
0.0
 10
358.2303108149938
 20
290.5166524493967
 30
0.0
 10
358.1569276803614
 20
290.5146886915375
 30
0.0
 10
358.0595302071287
 20
290.5155308020554
 30
0.0
 10
358.0397828796546
 20
290.5158656808785
 30
0.0
 10
358.0000084954082
 20
290.5168491202835
 30
0.0
 10
357.9398360276284
 20
290.5187957818938
 30
0.0
 10
357.8782941749392
 20
290.5220857252295
 30
0.0
 10
357.7537230072313
 20
290.5303124571916
 30
0.0
 10
357.6687083358415
 20
290.5379854916894
 30
0.0
 10
357.4959811777969
 20
290.5572023635908
 30
0.0
 10
357.4082598774744
 20
290.5687503738326
 30
0.0
 10
357.2309052121449
 20
290.5954137766857
 30
0.0
 10
357.141267668783
 20
290.6105310604827
 30
0.0
 10
357.0057888686885
 20
290.6357321710292
 30
0.0
 10
356.960457328167
 20
290.644554065274
 30
0.0
 10
356.8695047263357
 20
290.6630219875982
 30
0.0
 10
356.8238810820682
 20
290.6726694109514
 30
0.0
 10
356.6871076571483
 20
290.7027182331144
 30
0.0
 10
356.5958972828726
 20
290.7242561944242
 30
0.0
 10
356.3224849099706
 20
290.7931609825821
 30
0.0
 10
356.1405185946364
 20
290.844804017725
 30
0.0
 10
355.7782183555076
 20
290.9587823925613
 30
0.0
 10
355.5978749394994
 20
291.0211235106867
 30
0.0
 10
355.2393599923413
 20
291.1562106514282
 30
0.0
 10
355.0612672869763
 20
291.2288589347242
 30
0.0
 10
354.7077023768876
 20
291.3843532293545
 30
0.0
 10
354.5322142856344
 20
291.4672163296721
 30
0.0
 10
354.3580655995486
 20
291.5553595698332
 30
0.0
  0
SPLINE
  5
1CC
330
1F
100
AcDbEntity
  8
1
100
AcDbSpline
210
0.0
220
0.0
230
1.0
 70
     9
 71
     3
 72
   121
 73
   117
 74
     0
 42
0.000000001
 43
0.0000000001
 40
0.0
 40
0.0
 40
0.0
 40
0.0
 40
0.0312499999999952
 40
0.0312499999999952
 40
0.0468749999999928
 40
0.0468749999999928
 40
0.0546874999999917
 40
0.0546874999999917
 40
0.0624999999999905
 40
0.0624999999999905
 40
0.0937499999999801
 40
0.0937499999999801
 40
0.1015624999999775
 40
0.1015624999999775
 40
0.1093749999999749
 40
0.1093749999999749
 40
0.1249999999999745
 40
0.1249999999999745
 40
0.1562499999999696
 40
0.1562499999999696
 40
0.1874999999999646
 40
0.1874999999999646
 40
0.2031249999999619
 40
0.2031249999999619
 40
0.2109374999999607
 40
0.2109374999999607
 40
0.2187499999999595
 40
0.2187499999999595
 40
0.2499999999999544
 40
0.2499999999999544
 40
0.2578124999999532
 40
0.2578124999999532
 40
0.2656249999999521
 40
0.2656249999999521
 40
0.28124999999995
 40
0.28124999999995
 40
0.3124999999999462
 40
0.3124999999999462
 40
0.3281249999999443
 40
0.3281249999999443
 40
0.3437499999999424
 40
0.3437499999999424
 40
0.3749999999999388
 40
0.3749999999999388
 40
0.3828124999999367
 40
0.3828124999999367
 40
0.3906249999999348
 40
0.4062499999999309
 40
0.4218749999999271
 40
0.4218749999999271
 40
0.4296874999999252
 40
0.4296874999999252
 40
0.4374999999999231
 40
0.4374999999999231
 40
0.468749999999915
 40
0.468749999999915
 40
0.4843749999999141
 40
0.4843749999999141
 40
0.4921874999999167
 40
0.4921874999999167
 40
0.4999999999999193
 40
0.4999999999999193
 40
0.5312499999999236
 40
0.5312499999999236
 40
0.5390624999999261
 40
0.5390624999999261
 40
0.5468749999999286
 40
0.5624999999999277
 40
0.5781249999999268
 40
0.5781249999999268
 40
0.5937499999999259
 40
0.5937499999999259
 40
0.6249999999999292
 40
0.6249999999999292
 40
0.6328124999999302
 40
0.6328124999999302
 40
0.6406249999999311
 40
0.6406249999999311
 40
0.656249999999933
 40
0.656249999999933
 40
0.687499999999937
 40
0.687499999999937
 40
0.6953124999999389
 40
0.6953124999999389
 40
0.703124999999941
 40
0.7187499999999451
 40
0.7343749999999494
 40
0.7343749999999494
 40
0.742187499999951
 40
0.742187499999951
 40
0.7499999999999528
 40
0.7499999999999528
 40
0.7812499999999585
 40
0.7812499999999585
 40
0.7968749999999618
 40
0.7968749999999618
 40
0.8124999999999651
 40
0.8124999999999651
 40
0.8437499999999722
 40
0.8437499999999722
 40
0.8593749999999756
 40
0.8593749999999756
 40
0.874999999999979
 40
0.874999999999979
 40
0.906249999999982
 40
0.906249999999982
 40
0.9218749999999859
 40
0.9218749999999859
 40
0.93749999999999
 40
0.9531249999999939
 40
0.9531249999999939
 40
0.960937499999996
 40
0.960937499999996
 40
0.968749999999998
 40
0.968749999999998
 40
1.0
 40
1.0
 40
1.0
 40
1.0
 10
364.2962249652845
 20
287.1069886193043
 30
0.0
 10
364.3651756377439
 20
287.1057850808396
 30
0.0
 10
364.4328119946627
 20
287.0977148007522
 30
0.0
 10
364.5323765328045
 20
287.0757460674779
 30
0.0
 10
364.5652472525839
 20
287.0667666050163
 30
0.0
 10
364.614065348007
 20
287.0507541789808
 30
0.0
 10
364.6303027450441
 20
287.0449734185939
 30
0.0
 10
364.6623363675007
 20
287.0326516509871
 30
0.0
 10
364.6781320831635
 20
287.0261143747008
 30
0.0
 10
364.756027280709
 20
286.9915855570009
 30
0.0
 10
364.8149081652334
 20
286.9581197352327
 30
0.0
 10
364.8842401737677
 20
286.9090630910047
 30
0.0
 10
364.8978911607283
 20
286.8988872529802
 30
0.0
 10
364.9247549225038
 20
286.8777951154992
 30
0.0
 10
364.937968042118
 20
286.8668743704049
 30
0.0
 10
364.9765046640789
 20
286.8333735240732
 30
0.0
 10
365.0008834483102
 20
286.809939034628
 30
0.0
 10
365.0702009955115
 20
286.7364468290974
 30
0.0
 10
365.1113564837788
 20
286.6832299534607
 30
0.0
 10
365.1833015660688
 20
286.5682146137248
 30
0.0
 10
365.2129489889232
 20
286.5082292000492
 30
0.0
 10
365.2483699242962
 20
286.4149594779316
 30
0.0
 10
365.2586632174622
 20
286.3833071727455
 30
0.0
 10
365.2718040836947
 20
286.3349793737673
 30
0.0
 10
365.2758078311631
 20
286.318694192445
 30
0.0
 10
365.2830000592041
 20
286.285997210368
 30
0.0
 10
365.2861793927332
 20
286.2696359841077
 30
0.0
 10
365.3000411155343
 20
286.1877692003081
 30
0.0
 10
365.3046746024283
 20
286.1220846885969
 30
0.0
 10
365.3025918587456
 20
286.0397568349823
 30
0.0
 10
365.3017781287135
 20
286.0232799688432
 30
0.0
 10
365.2993472659025
 20
285.9903033204598
 30
0.0
 10
365.2977250314345
 20
285.9737646464193
 30
0.0
 10
365.2916691381131
 20
285.9244095474279
 30
0.0
 10
365.2860725868815
 20
285.891969759595
 30
0.0
 10
365.2647621841081
 20
285.7959890689398
 30
0.0
 10
365.2445698540067
 20
285.7337755310577
 30
0.0
 10
365.2051419932121
 20
285.6431208350076
 30
0.0
 10
365.1903993495113
 20
285.6132608446607
 30
0.0
 10
365.1583938452086
 20
285.5556375368706
 30
0.0
 10
365.1410803993414
 20
285.5277317784952
 30
0.0
 10
365.0852540105613
 20
285.4466815191769
 30
0.0
 10
365.0428963048617
 20
285.3961767571036
 30
0.0
 10
364.9830898062123
 20
285.3376802467097
 30
0.0
 10
364.9708103708316
 20
285.3262457201087
 30
0.0
 10
364.9458260295855
 20
285.3040941965817
 30
0.0
 10
364.9076210784705
 20
285.2718593047986
 30
0.0
 10
364.8403469217377
 20
285.2230224433471
 30
0.0
 10
364.7826657193946
 20
285.1891664750411
 30
0.0
 10
364.7379036221915
 20
285.1657899016333
 30
0.0
 10
364.7227322547451
 20
285.1583342471355
 30
0.0
 10
364.6918731601839
 20
285.1441144313263
 30
0.0
 10
364.6761671687754
 20
285.1373460533396
 30
0.0
 10
364.5972947739879
 20
285.1056642153275
 30
0.0
 10
364.5323820827743
 20
285.0868095624409
 30
0.0
 10
364.432291009036
 20
285.0682046309517
 30
0.0
 10
364.398470487065
 20
285.0636274686607
 30
0.0
 10
364.3470237081518
 20
285.0593039838848
 30
0.0
 10
364.3298035762827
 20
285.0582942117707
 30
0.0
 10
364.295543195031
 20
285.0571458565948
 30
0.0
 10
364.2784560015817
 20
285.0570029888464
 30
0.0
 10
364.1932315644885
 20
285.0584104344538
 30
0.0
 10
364.1257228694623
 20
285.0662631750927
 30
0.0
 10
364.0421819601132
 20
285.0845733178927
 30
0.0
 10
364.0254675145953
 20
285.0886783653845
 30
0.0
 10
363.9924351504767
 20
285.0976752364455
 30
0.0
 10
363.9434587076931
 20
285.1123509271936
 30
0.0
 10
363.8646060663382
 20
285.1425443105386
 30
0.0
 10
363.8044011154651
 20
285.1726678843318
 30
0.0
 10
363.7456359888795
 20
285.205792588092
 30
0.0
 10
363.7168739868997
 20
285.2239423382889
 30
0.0
 10
363.6344735126558
 20
285.2817881515543
 30
0.0
 10
363.5841461413916
 20
285.3250923071175
 30
0.0
 10
363.5267601583302
 20
285.3849836418289
 30
0.0
 10
363.5155617620682
 20
285.3972526932965
 30
0.0
 10
363.4937271828305
 20
285.4223791403841
 30
0.0
 10
363.483069672568
 20
285.4352658125149
 30
0.0
 10
363.4522362008159
 20
285.4744533923756
 30
0.0
 10
363.4331191228192
 20
285.5013584945135
 30
0.0
 10
363.3799255281183
 20
285.5843478352878
 30
0.0
 10
363.3499673738431
 20
285.6426851607312
 30
0.0
 10
363.3194974674497
 20
285.7194792912539
 30
0.0
 10
363.3137480074154
 20
285.7350608777018
 30
0.0
 10
363.3030676306883
 20
285.7663121922342
 30
0.0
 10
363.288235981989
 20
285.8134191461521
 30
0.0
 10
363.2693369242022
 20
285.8930635382683
 30
0.0
 10
363.2603523983667
 20
285.9579829044387
 30
0.0
 10
363.2559523367963
 20
286.0071333564442
 30
0.0
 10
363.2548760487904
 20
286.023593777495
 30
0.0
 10
363.2535191372494
 20
286.0566715473684
 30
0.0
 10
363.2532394046111
 20
286.0733334754452
 30
0.0
 10
363.2538722786987
 20
286.1564240810512
 30
0.0
 10
363.2607788777677
 20
286.2220231872409
 30
0.0
 10
363.2805592539203
 20
286.3191195512536
 30
0.0
 10
363.2887335346733
 20
286.3512662446674
 30
0.0
 10
363.3083468646822
 20
286.4151019590611
 30
0.0
 10
363.3198533658799
 20
286.4469153104192
 30
0.0
 10
363.3586442783093
 20
286.539615743256
 30
0.0
 10
363.3902853827851
 20
286.5983728481362
 30
0.0
 10
363.4464334426162
 20
286.6818846115436
 30
0.0
 10
363.4666068064108
 20
286.7089460222358
 30
0.0
 10
363.5099973120406
 20
286.7614383528358
 30
0.0
 10
363.5328976701239
 20
286.7864785430966
 30
0.0
 10
363.6048424512948
 20
286.8577672389384
 30
0.0
 10
363.6572138303226
 20
286.9003588226695
 30
0.0
 10
363.7425373520514
 20
286.9566189347335
 30
0.0
 10
363.772248402695
 20
286.9741446373606
 30
0.0
 10
363.8326769733737
 20
287.0058202707907
 30
0.0
 10
363.8943657735437
 20
287.0343205013782
 30
0.0
 10
363.9585293972804
 20
287.0565724837928
 30
0.0
 10
364.007590893596
 20
287.0708874532224
 30
0.0
 10
364.0241014760339
 20
287.0752627235654
 30
0.0
 10
364.057441558636
 20
287.0832062689198
 30
0.0
 10
364.0743111773367
 20
287.0867814882216
 30
0.0
 10
364.1589237078252
 20
287.1024905160809
 30
0.0
 10
364.227274292825
 20
287.1081921577689
 30
0.0
 10
364.2962249652845
 20
287.1069886193043
 30
0.0
  0
SPLINE
  5
1CD
330
1F
100
AcDbEntity
  8
1
100
AcDbSpline
210
0.0
220
0.0
230
1.0
 70
     8
 71
     3
 72
    48
 73
    44
 74
     0
 42
0.000000001
 43
0.0000000001
 40
0.0
 40
0.0
 40
0.0
 40
0.0
 40
0.1249999999999842
 40
0.1249999999999842
 40
0.2499999999999685
 40
0.2499999999999685
 40
0.3124999999999478
 40
0.3124999999999478
 40
0.3749999999999272
 40
0.3749999999999272
 40
0.4374999999999066
 40
0.4374999999999066
 40
0.4687499999998965
 40
0.4687499999998965
 40
0.4999999999998864
 40
0.4999999999998864
 40
0.5624999999998667
 40
0.5624999999998667
 40
0.5937499999998546
 40
0.5937499999998546
 40
0.6249999999998424
 40
0.6249999999998424
 40
0.6406249999998363
 40
0.6406249999998363
 40
0.6562499999998303
 40
0.6562499999998303
 40
0.6874999999998174
 40
0.7187499999998046
 40
0.7187499999998046
 40
0.7343749999998082
 40
0.7343749999998082
 40
0.7499999999998117
 40
0.7812499999998434
 40
0.7812499999998434
 40
0.8124999999998749
 40
0.8124999999998749
 40
0.8749999999999056
 40
0.8749999999999056
 40
0.9062499999999383
 40
0.9062499999999383
 40
0.9374999999999708
 40
0.9374999999999708
 40
1.0
 40
1.0
 40
1.0
 40
1.0
 10
355.5330030784992
 20
292.3202964139596
 30
0.0
 10
355.497663629987
 20
292.3371873027317
 30
0.0
 10
355.463555779904
 20
292.355295737121
 30
0.0
 10
355.3982970299303
 20
292.3944763154093
 30
0.0
 10
355.3671335904075
 20
292.4155357421069
 30
0.0
 10
355.3232922698843
 20
292.4500675805475
 30
0.0
 10
355.3091665338397
 20
292.4620728015492
 30
0.0
 10
355.282101288373
 20
292.487289898289
 30
0.0
 10
355.2692185916037
 20
292.5004552865607
 30
0.0
 10
355.2452933097673
 20
292.5278737388484
 30
0.0
 10
355.2342099950029
 20
292.5421571107108
 30
0.0
 10
355.2192727265634
 20
292.5646840444349
 30
0.0
 10
355.214580105863
 20
292.5723783032844
 30
0.0
 10
355.205949186688
 20
292.5880039204505
 30
0.0
 10
355.2019963815058
 20
292.59595559355
 30
0.0
 10
355.1913670854186
 20
292.6202801029107
 30
0.0
 10
355.1858920790555
 20
292.6371123519372
 30
0.0
 10
355.1810180078297
 20
292.6636264539586
 30
0.0
 10
355.1799664665596
 20
292.6726879485889
 30
0.0
 10
355.1792296659901
 20
292.6908197841385
 30
0.0
 10
355.1795310805384
 20
292.6999446606992
 30
0.0
 10
355.181113378986
 20
292.7137290518661
 30
0.0
 10
355.1818295790464
 20
292.7183400553484
 30
0.0
 10
355.1836663372667
 20
292.7275963106969
 30
0.0
 10
355.1847925262153
 20
292.7322561277044
 30
0.0
 10
355.188749120746
 20
292.7460551530712
 30
0.0
 10
355.195580127079
 20
292.7641023764479
 30
0.0
 10
355.205537672907
 20
292.7814355127158
 30
0.0
 10
355.2142019996502
 20
292.7941591267641
 30
0.0
 10
355.2172913499926
 20
292.7983528502443
 30
0.0
 10
355.2237523315633
 20
292.8065051626877
 30
0.0
 10
355.2339050196081
 20
292.8184383377864
 30
0.0
 10
355.2453599615589
 20
292.8295359070062
 30
0.0
 10
355.2616784645682
 20
292.8436591721914
 30
0.0
 10
355.2703662855412
 20
292.8503774827938
 30
0.0
 10
355.2971712273201
 20
292.8691738941105
 30
0.0
 10
355.3162315088159
 20
292.8801045067228
 30
0.0
 10
355.3461247016703
 20
292.8947424438492
 30
0.0
 10
355.3563393121893
 20
292.8993364267654
 30
0.0
 10
355.3769826444239
 20
292.9079303909358
 30
0.0
 10
355.3874089642727
 20
292.9119322054539
 30
0.0
 10
355.4189558709952
 20
292.9231817578303
 30
0.0
 10
355.4403422098248
 20
292.9296797838798
 30
0.0
 10
355.4620006045852
 20
292.9354100430233
 30
0.0
  0
SPLINE
  5
1CE
330
1F
100
AcDbEntity
  8
1
100
AcDbSpline
210
0.0
220
0.0
230
1.0
 70
     8
 71
     3
 72
    18
 73
    14
 74
     0
 42
0.000000001
 43
0.0000000001
 40
0.0
 40
0.0
 40
0.0
 40
0.0
 40
0.2500000000000049
 40
0.2500000000000049
 40
0.5000000000000098
 40
0.5000000000000098
 40
0.6250000000000098
 40
0.6250000000000098
 40
0.6875000000000098
 40
0.6875000000000098
 40
0.7500000000000098
 40
0.7500000000000098
 40
1.0
 40
1.0
 40
1.0
 40
1.0
 10
295.8864585858813
 20
277.914711221461
 30
0.0
 10
296.043343783678
 20
277.9119152155538
 30
0.0
 10
296.2032835304352
 20
277.9103051615415
 30
0.0
 10
296.5293734937123
 20
277.9083833744364
 30
0.0
 10
296.695522882616
 20
277.9080722150015
 30
0.0
 10
296.9496137438519
 20
277.907974108496
 30
0.0
 10
297.0351232882487
 20
277.9080048516236
 30
0.0
 10
297.164647545076
 20
277.9080889962118
 30
0.0
 10
297.2080323990513
 20
277.9081235151524
 30
0.0
 10
297.295230594254
 20
277.9081976209495
 30
0.0
 10
297.3388619567634
 20
277.9082370365055
 30
0.0
 10
297.5568275319286
 20
277.9084289693616
 30
0.0
 10
297.7309546834656
 20
277.9085515790435
 30
0.0
 10
297.9048419452957
 20
277.9085515790435
 30
0.0
  0
LINE
  5
1EA
330
1F
100
AcDbEntity
  8
4
100
AcDbLine
 10
269.532259
 20
288.907994
 30
0.0
 11
372.433556
 21
288.907994
 31
0.0
  0
LINE
  5
1EB
330
1F
100
AcDbEntity
  8
SK4
100
AcDbLine
 10
214.904842
 20
288.907994
 30
0.0
 11
277.404842
 21
288.907994
 31
0.0
  0
MTEXT
  5
1F1
330
1F
100
AcDbEntity
  8
SK6
100
AcDbMText
 10
258.520787
 20
241.27662
 30
0.0
 40
3.5
 41
0.0
 71
     7
 72
     5
  1
\W0.7022;803D-23-69-S25
  7
cesky
 73
     2
 44
0.8433729999999998
  0
MTEXT
  5
302
330
1F
100
AcDbEntity
  8
2
100
AcDbMText
 10
319.590342
 20
327.385163
 30
0.0
 40
3.5
 41
0.0
 71
     7
 72
     5
  1
\W0.6844;94
  7
cesky
 73
     2
 44
0.8433729999999998
  0
LINE
  5
303
330
1F
100
AcDbEntity
  8
2
100
AcDbLine
 10
368.404842
 20
300.407994
 30
0.0
 11
368.404842
 21
328.5109970000001
 31
0.0
  0
LINE
  5
304
330
1F
100
AcDbEntity
  8
2
100
AcDbLine
 10
274.404842
 20
289.907567
 30
0.0
 11
274.404842
 21
328.5109970000001
 31
0.0
  0
LINE
  5
305
330
1F
100
AcDbEntity
  8
2
100
AcDbLine
 10
368.404842
 20
327.510997
 30
0.0
 11
274.404842
 21
327.510997
 31
0.0
  0
SOLID
  5
306
330
1F
100
AcDbEntity
  8
2
100
AcDbTrace
 10
368.404842
 20
327.510997
 30
0.0
 11
364.904844
 21
326.893852
 31
0.0
 12
364.90484
 22
328.128141
 32
0.0
 13
364.90484
 23
328.128141
 33
0.0
  0
SOLID
  5
307
330
1F
100
AcDbEntity
  8
2
100
AcDbTrace
 10
274.404842
 20
327.510997
 30
0.0
 11
277.90484
 21
328.128141
 31
0.0
 12
277.904844
 22
326.893852
 32
0.0
 13
277.904844
 23
326.893852
 33
0.0
  0
MTEXT
  5
308
330
1F
100
AcDbEntity
  8
2
100
AcDbMText
 10
290.327842
 20
340.562135
 30
0.0
 40
3.5
 41
0.0
 71
     7
 72
     5
  1
\W0.7809;150
  7
cesky
 73
     2
 44
0.8433729999999998
  0
LINE
  5
309
330
1F
100
AcDbEntity
  8
2
100
AcDbLine
 10
368.404842
 20
302.407994
 30
0.0
 11
368.404842
 21
341.687968
 31
0.0
  0
LINE
  5
30A
330
1F
100
AcDbEntity
  8
2
100
AcDbLine
 10
218.404842
 20
299.407994
 30
0.0
 11
218.404842
 21
341.687968
 31
0.0
  0
LINE
  5
30B
330
1F
100
AcDbEntity
  8
2
100
AcDbLine
 10
368.404842
 20
340.687968
 30
0.0
 11
218.404842
 21
340.687968
 31
0.0
  0
SOLID
  5
30C
330
1F
100
AcDbEntity
  8
2
100
AcDbTrace
 10
368.404842
 20
340.687968
 30
0.0
 11
364.904844
 21
340.070823
 31
0.0
 12
364.90484
 22
341.305112
 32
0.0
 13
364.90484
 23
341.305112
 33
0.0
  0
SOLID
  5
30D
330
1F
100
AcDbEntity
  8
2
100
AcDbTrace
 10
218.404842
 20
340.687968
 30
0.0
 11
221.90484
 21
341.305112
 31
0.0
 12
221.904844
 22
340.070823
 32
0.0
 13
221.904844
 23
340.070823
 33
0.0
  0
MTEXT
  5
30E
330
1F
100
AcDbEntity
  8
2
100
AcDbMText
 10
244.590342
 20
327.385163
 30
0.0
 40
3.5
 41
0.0
 71
     7
 72
     5
  1
\W0.7259;56
  7
cesky
 73
     2
 44
0.8433729999999998
  0
LINE
  5
30F
330
1F
100
AcDbEntity
  8
2
100
AcDbLine
 10
274.404842
 20
288.907994
 30
0.0
 11
274.404842
 21
328.5109970000001
 31
0.0
  0
LINE
  5
310
330
1F
100
AcDbEntity
  8
2
100
AcDbLine
 10
218.404842
 20
299.407994
 30
0.0
 11
218.404842
 21
328.5109970000001
 31
0.0
  0
LINE
  5
311
330
1F
100
AcDbEntity
  8
2
100
AcDbLine
 10
274.404842
 20
327.510997
 30
0.0
 11
218.404842
 21
327.510997
 31
0.0
  0
SOLID
  5
312
330
1F
100
AcDbEntity
  8
2
100
AcDbTrace
 10
274.404842
 20
327.510997
 30
0.0
 11
270.904844
 21
326.893852
 31
0.0
 12
270.90484
 22
328.128141
 32
0.0
 13
270.90484
 23
328.128141
 33
0.0
  0
SOLID
  5
313
330
1F
100
AcDbEntity
  8
2
100
AcDbTrace
 10
218.404842
 20
327.510997
 30
0.0
 11
221.90484
 21
328.128141
 31
0.0
 12
221.904844
 22
326.893852
 32
0.0
 13
221.904844
 23
326.893852
 33
0.0
  0
MTEXT
  5
314
330
1F
100
AcDbEntity
  8
2
100
AcDbMText
 10
325.324722
 20
314.233227
 30
0.0
 40
3.5
 41
0.0
 71
     7
 72
     5
  1
\W0.8459;77,5
  7
cesky
 73
     2
 44
0.8433729999999998
  0
LINE
  5
315
330
1F
100
AcDbEntity
  8
2
100
AcDbLine
 10
368.404842
 20
302.407994
 30
0.0
 11
368.404842
 21
315.35906
 31
0.0
  0
LINE
  5
316
330
1F
100
AcDbEntity
  8
2
100
AcDbLine
 10
290.923601
 20
300.479622
 30
0.0
 11
290.923601
 21
315.35906
 31
0.0
  0
LINE
  5
317
330
1F
100
AcDbEntity
  8
2
100
AcDbLine
 10
368.404842
 20
314.35906
 30
0.0
 11
290.923601
 21
314.35906
 31
0.0
  0
SOLID
  5
318
330
1F
100
AcDbEntity
  8
2
100
AcDbTrace
 10
368.404842
 20
314.35906
 30
0.0
 11
364.904844
 21
313.741916
 31
0.0
 12
364.90484
 22
314.976205
 32
0.0
 13
364.90484
 23
314.976205
 33
0.0
  0
SOLID
  5
319
330
1F
100
AcDbEntity
  8
2
100
AcDbTrace
 10
290.923601
 20
314.35906
 30
0.0
 11
294.423599
 21
314.976205
 31
0.0
 12
294.423604
 22
313.741916
 32
0.0
 13
294.423604
 23
313.741916
 33
0.0
  0
MTEXT
  5
31A
330
1F
100
AcDbEntity
  8
2
100
AcDbMText
 10
383.755523
 20
282.724273
 30
0.0
 40
3.5
 41
0.0
 71
     7
 72
     5
  1
\W0.7045;23
  7
cesky
 11
0.0000000000000001
 21
1.0
 31
0.0
 73
     2
 44
0.8433729999999998
  0
MTEXT
  5
31B
330
1F
100
AcDbEntity
  8
2
100
AcDbMText
 10
383.755523
 20
275.986773
 30
0.0
 40
3.5
 41
0.0
 71
     7
 72
     5
  1
\W3.0115;\H2.63;%%c\H3.50;
  7
cesky
 11
0.0000000000000001
 21
1.0
 31
0.0
 73
     2
 44
0.8433729999999998
  0
LINE
  5
31C
330
1F
100
AcDbEntity
  8
2
100
AcDbLine
 10
370.404842
 20
300.407994
 30
0.0
 11
384.942939
 21
300.407994
 31
0.0
  0
LINE
  5
31D
330
1F
100
AcDbEntity
  8
2
100
AcDbLine
 10
383.942939
 20
300.407994
 30
0.0
 11
383.942939
 21
275.829273
 31
0.0
  0
SOLID
  5
31E
330
1F
100
AcDbEntity
  8
2
100
AcDbTrace
 10
383.942939
 20
300.407994
 30
0.0
 11
384.560084
 21
296.907996
 31
0.0
 12
383.325795
 22
296.9079910000001
 32
0.0
 13
383.325795
 23
296.9079910000001
 33
0.0
  0
MTEXT
  5
31F
330
1F
100
AcDbEntity
  8
SK2
100
AcDbMText
 10
206.117323
 20
290.434244
 30
0.0
 40
3.5
 41
0.0
 71
     7
 72
     5
  1
\W0.7045;25
  7
cesky
 11
0.0000000000000001
 21
1.0
 31
0.0
 73
     2
 44
0.8433729999999998
  0
MTEXT
  5
320
330
1F
100
AcDbEntity
  8
SK2
100
AcDbMText
 10
206.117323
 20
283.696744
 30
0.0
 40
3.5
 41
0.0
 71
     7
 72
     5
  1
\W3.0115;\H2.63;%%c\H3.50;
  7
cesky
 11
0.0000000000000001
 21
1.0
 31
0.0
 73
     2
 44
0.8433729999999998
  0
LINE
  5
321
330
1F
100
AcDbEntity
  8
SK2
100
AcDbLine
 10
220.404842
 20
301.407994
 30
0.0
 11
205.304739
 21
301.407994
 31
0.0
  0
LINE
  5
322
330
1F
100
AcDbEntity
  8
SK2
100
AcDbLine
 10
220.404842
 20
276.407994
 30
0.0
 11
205.304739
 21
276.407994
 31
0.0
  0
LINE
  5
323
330
1F
100
AcDbEntity
  8
SK2
100
AcDbLine
 10
206.304739
 20
301.407994
 30
0.0
 11
206.304739
 21
276.407994
 31
0.0
  0
SOLID
  5
324
330
1F
100
AcDbEntity
  8
SK2
100
AcDbTrace
 10
206.304739
 20
301.407994
 30
0.0
 11
206.921884
 21
297.9079959999999
 31
0.0
 12
205.687595
 22
297.907991
 32
0.0
 13
205.687595
 23
297.907991
 33
0.0
  0
SOLID
  5
325
330
1F
100
AcDbEntity
  8
SK2
100
AcDbTrace
 10
206.304739
 20
276.407994
 30
0.0
 11
205.687595
 21
279.9079910000001
 31
0.0
 12
206.921884
 22
279.907996
 32
0.0
 13
206.921884
 23
279.907996
 33
0.0
  0
MTEXT
  5
326
330
1F
100
AcDbEntity
  8
SK2
100
AcDbMText
 10
193.332501
 20
290.434244
 30
0.0
 40
3.5
 41
0.0
 71
     7
 72
     5
  1
\W0.7045;35
  7
cesky
 11
0.0000000000000001
 21
1.0
 31
0.0
 73
     2
 44
0.8433729999999998
  0
MTEXT
  5
327
330
1F
100
AcDbEntity
  8
SK2
100
AcDbMText
 10
193.332501
 20
283.696744
 30
0.0
 40
3.5
 41
0.0
 71
     7
 72
     5
  1
\W3.0115;\H2.63;%%c\H3.50;
  7
cesky
 11
0.0000000000000001
 21
1.0
 31
0.0
 73
     2
 44
0.8433729999999998
  0
LINE
  5
328
330
1F
100
AcDbEntity
  8
SK2
100
AcDbLine
 10
274.904842
 20
306.407994
 30
0.0
 11
192.519918
 21
306.407994
 31
0.0
  0
LINE
  5
329
330
1F
100
AcDbEntity
  8
SK2
100
AcDbLine
 10
274.904842
 20
271.407994
 30
0.0
 11
192.519918
 21
271.407994
 31
0.0
  0
LINE
  5
32A
330
1F
100
AcDbEntity
  8
SK2
100
AcDbLine
 10
193.519918
 20
306.407994
 30
0.0
 11
193.519918
 21
271.407994
 31
0.0
  0
SOLID
  5
32B
330
1F
100
AcDbEntity
  8
SK2
100
AcDbTrace
 10
193.519918
 20
306.407994
 30
0.0
 11
194.137062
 21
302.907996
 31
0.0
 12
192.902773
 22
302.907991
 32
0.0
 13
192.902773
 23
302.907991
 33
0.0
  0
SOLID
  5
32C
330
1F
100
AcDbEntity
  8
SK2
100
AcDbTrace
 10
193.519918
 20
271.407994
 30
0.0
 11
192.902773
 21
274.907991
 31
0.0
 12
194.137062
 22
274.9079959999999
 32
0.0
 13
194.137062
 23
274.9079959999999
 33
0.0
  0
LINE
  5
32D
330
1F
100
AcDbEntity
  8
CUT
100
AcDbLine
 10
368.0553941367716
 20
294.7147792808624
 30
0.0
 11
368.3232220537612
 21
294.2691103710316
 31
0.0
  0
LINE
  5
32F
330
1F
100
AcDbEntity
  8
CUT
100
AcDbLine
 10
368.3232220537612
 20
294.2691103710316
 30
0.0
 11
368.4048419452957
 21
289.5994465551304
 31
0.0
  0
LINE
  5
330
330
1F
100
AcDbEntity
  8
CUT
100
AcDbLine
 10
367.8313903887458
 20
299.6750818221569
 30
0.0
 11
368.0553941367714
 21
294.7147792808624
 31
0.0
  0
LINE
  5
332
330
1F
100
AcDbEntity
  8
CUT
100
AcDbLine
 10
360.6366870751281
 20
300.1096633889446
 30
0.0
 11
367.0294770328666
 21
300.4042250510508
 31
0.0
  0
LINE
  5
333
330
1F
100
AcDbEntity
  8
CUT
100
AcDbLine
 10
368.404842
 20
288.907994
 30
0.0
 11
359.90355
 21
288.907994
 31
0.0
  0
LINE
  5
334
330
1F
100
AcDbEntity
  8
CUT
100
AcDbLine
 10
359.90355
 20
288.907994
 30
0.0
 11
359.90355
 21
299.309151
 31
0.0
  0
LINE
  5
335
330
1F
100
AcDbEntity
  8
CUT
100
AcDbLine
 10
368.404842
 20
289.599447
 30
0.0
 11
368.404842
 21
288.907994
 31
0.0
  0
ARC
  5
336
330
1F
100
AcDbEntity
  8
CUT
100
AcDbCircle
 10
360.6827638808561
 20
299.332043900678
 30
0.0
 40
0.7795499917368604
100
AcDbArc
 50
97.52347643227926
 51
181.6828709702009
  0
ARC
  5
337
330
1F
100
AcDbEntity
  8
CUT
100
AcDbCircle
 10
360.6698201304173
 20
299.3912890586349
 30
0.0
 40
0.7191380102599939
100
AcDbArc
 50
92.64073999382288
 51
97.11911661304419
  0
ARC
  5
338
330
1F
100
AcDbEntity
  8
CUT
100
AcDbCircle
 10
367.0557444808063
 20
299.6263640047406
 30
0.0
 40
0.7783044302765179
100
AcDbArc
 50
10.48618633856337
 51
91.93407579848406
  0
ARC
  5
339
330
1F
100
AcDbEntity
  8
CUT
100
AcDbCircle
 10
367.1176741263976
 20
299.6427119181755
 30
0.0
 40
0.7144499379411718
100
AcDbArc
 50
2.596814555497669
 51
10.10094087450187
  0
ENDSEC
  0
SECTION
  2
OBJECTS
  0
DICTIONARY
  5
C
330
0
100
AcDbDictionary
281
     1
  3
ACAD_CIP_PREVIOUS_PRODUCT_INFO
350
2FF
  3
ACAD_COLOR
350
2FA
  3
ACAD_DETAILVIEWSTYLE
350
2F6
  3
ACAD_GROUP
350
D
  3
ACAD_LAYOUT
350
1A
  3
ACAD_MATERIAL
350
43
  3
ACAD_MLEADERSTYLE
350
6B
  3
ACAD_MLINESTYLE
350
17
  3
ACAD_PLOTSETTINGS
350
19
  3
ACAD_PLOTSTYLENAME
350
E
  3
ACAD_SCALELIST
350
47
  3
ACAD_SECTIONVIEWSTYLE
350
2F7
  3
ACAD_TABLESTYLE
350
69
  3
ACAD_VISUALSTYLE
350
2A
  3
ACDB_RECOMPOSE_DATA
350
365
  3
AcDbVariableDictionary
350
2B3
  0
DICTIONARY
  5
348
330
10
100
AcDbDictionary
280
     1
281
     1
  3
ADSK_XREC_LAYER_RECONCILED
360
349
  0
DICTIONARY
  5
34A
330
33A
100
AcDbDictionary
280
     1
281
     1
  3
ADSK_XREC_LAYER_RECONCILED
360
34B
  0
DICTIONARY
  5
34C
330
33B
100
AcDbDictionary
280
     1
281
     1
  3
ADSK_XREC_LAYER_RECONCILED
360
34D
  0
DICTIONARY
  5
34E
330
33C
100
AcDbDictionary
280
     1
281
     1
  3
ADSK_XREC_LAYER_RECONCILED
360
34F
  0
DICTIONARY
  5
350
330
33E
100
AcDbDictionary
280
     1
281
     1
  3
ADSK_XREC_LAYER_RECONCILED
360
351
  0
DICTIONARY
  5
352
330
33F
100
AcDbDictionary
280
     1
281
     1
  3
ADSK_XREC_LAYER_RECONCILED
360
353
  0
DICTIONARY
  5
354
330
341
100
AcDbDictionary
280
     1
281
     1
  3
ADSK_XREC_LAYER_RECONCILED
360
355
  0
DICTIONARY
  5
356
330
342
100
AcDbDictionary
280
     1
281
     1
  3
ADSK_XREC_LAYER_RECONCILED
360
357
  0
DICTIONARY
  5
358
330
343
100
AcDbDictionary
280
     1
281
     1
  3
ADSK_XREC_LAYER_RECONCILED
360
359
  0
DICTIONARY
  5
35A
330
344
100
AcDbDictionary
280
     1
281
     1
  3
ADSK_XREC_LAYER_RECONCILED
360
35B
  0
DICTIONARY
  5
35C
330
345
100
AcDbDictionary
280
     1
281
     1
  3
ADSK_XREC_LAYER_RECONCILED
360
35D
  0
DICTIONARY
  5
35E
330
346
100
AcDbDictionary
280
     1
281
     1
  3
ADSK_XREC_LAYER_RECONCILED
360
35F
  0
DICTIONARY
  5
300
330
1F
100
AcDbDictionary
280
     1
281
     1
  3
ACAD_SORTENTS
360
301
  0
XRECORD
  5
2FF
102
{ACAD_REACTORS
330
C
102
}
330
C
100
AcDbXrecord
280
     1
300
ACD
300
2019
300
87084ACD_2019_0F
  0
DICTIONARY
  5
2FA
102
{ACAD_REACTORS
330
C
102
}
330
C
100
AcDbDictionary
281
     1
  0
DICTIONARY
  5
2F6
102
{ACAD_REACTORS
330
C
102
}
330
C
100
AcDbDictionary
281
     1
  3
Metric50
350
2FC
  0
DICTIONARY
  5
D
102
{ACAD_REACTORS
330
C
102
}
330
C
100
AcDbDictionary
281
     1
  3
NULOVY_BOD
350
347
  0
DICTIONARY
  5
1A
102
{ACAD_REACTORS
330
C
102
}
330
C
100
AcDbDictionary
281
     1
  3
Layout1
350
1E
  3
Layout2
350
26
  3
Model
350
22
  0
DICTIONARY
  5
43
102
{ACAD_REACTORS
330
C
102
}
330
C
100
AcDbDictionary
281
     1
  3
ByBlock
350
45
  3
ByLayer
350
44
  3
Global
350
46
  0
DICTIONARY
  5
6B
102
{ACAD_REACTORS
330
C
102
}
330
C
100
AcDbDictionary
281
     1
  3
Standard
350
6C
  0
DICTIONARY
  5
17
102
{ACAD_REACTORS
330
C
102
}
330
C
100
AcDbDictionary
281
     1
  3
Standard
350
18
  0
DICTIONARY
  5
19
102
{ACAD_REACTORS
330
C
102
}
330
C
100
AcDbDictionary
281
     1
  0
ACDBDICTIONARYWDFLT
  5
E
102
{ACAD_REACTORS
330
C
102
}
330
C
100
AcDbDictionary
281
     1
  3
Normal
350
F
100
AcDbDictionaryWithDefault
340
F
  0
DICTIONARY
  5
47
102
{ACAD_REACTORS
330
C
102
}
330
C
100
AcDbDictionary
281
     1
  3
A0
350
48
  3
A1
350
49
  3
A2
350
4A
  3
A3
350
4B
  3
A4
350
4C
  3
A5
350
4D
  3
A6
350
4E
  3
A7
350
4F
  3
A8
350
50
  3
A9
350
51
  3
B0
350
52
  3
B1
350
53
  3
B2
350
54
  3
B3
350
55
  3
B4
350
56
  3
B5
350
57
  3
B6
350
58
  3
B7
350
59
  3
B8
350
5A
  3
B9
350
5B
  3
C0
350
5C
  3
C1
350
5D
  3
C2
350
5E
  3
C3
350
5F
  3
C4
350
60
  3
C5
350
61
  3
C6
350
62
  3
C7
350
63
  3
C8
350
64
  3
C9
350
65
  3
D0
350
66
  3
D1
350
67
  3
D2
350
68
  0
DICTIONARY
  5
2F7
102
{ACAD_REACTORS
330
C
102
}
330
C
100
AcDbDictionary
281
     1
  3
Metric50
350
2FB
  0
DICTIONARY
  5
69
102
{ACAD_REACTORS
330
C
102
}
330
C
100
AcDbDictionary
281
     1
  3
Standard
350
6A
  0
DICTIONARY
  5
2A
102
{ACAD_REACTORS
330
C
102
}
330
C
100
AcDbDictionary
281
     1
  3
2dWireframe
350
2F
  3
Basic
350
32
  3
Brighten
350
36
  3
ColorChange
350
3A
  3
Conceptual
350
34
  3
Dim
350
35
  3
EdgeColorOff
350
3D
  3
Facepattern
350
39
  3
Flat
350
2B
  3
FlatWithEdges
350
2C
  3
Gouraud
350
2D
  3
GouraudWithEdges
350
2E
  3
Hidden
350
31
  3
JitterOff
350
3B
  3
Linepattern
350
38
  3
OverhangOff
350
3C
  3
Realistic
350
33
  3
Shaded
350
42
  3
Shaded with edges
350
41
  3
Shades of Gray
350
3E
  3
Sketchy
350
3F
  3
Thicken
350
37
  3
Wireframe
350
30
  3
X-Ray
350
40
  0
XRECORD
  5
365
102
{ACAD_REACTORS
330
C
102
}
330
C
100
AcDbXrecord
280
     1
 90
        1
330
6A
  0
DICTIONARY
  5
2B3
102
{ACAD_REACTORS
330
C
102
}
330
C
100
AcDbDictionary
281
     1
  3
CANNOSCALE
350
2B4
  3
CMLEADERSTYLE
350
2F5
  3
CTABLESTYLE
350
2F4
  3
CVIEWDETAILSTYLE
350
360
  3
CVIEWSECTIONSTYLE
350
361
  3
MSLTSCALE
350
2B5
  3
XCLIPFRAME
350
362
  0
XRECORD
  5
349
102
{ACAD_REACTORS
330
348
102
}
330
348
100
AcDbXrecord
280
     1
290
     1
  0
XRECORD
  5
34B
102
{ACAD_REACTORS
330
34A
102
}
330
34A
100
AcDbXrecord
280
     1
290
     1
  0
XRECORD
  5
34D
102
{ACAD_REACTORS
330
34C
102
}
330
34C
100
AcDbXrecord
280
     1
290
     1
  0
XRECORD
  5
34F
102
{ACAD_REACTORS
330
34E
102
}
330
34E
100
AcDbXrecord
280
     1
290
     1
  0
XRECORD
  5
351
102
{ACAD_REACTORS
330
350
102
}
330
350
100
AcDbXrecord
280
     1
290
     1
  0
XRECORD
  5
353
102
{ACAD_REACTORS
330
352
102
}
330
352
100
AcDbXrecord
280
     1
290
     1
  0
XRECORD
  5
355
102
{ACAD_REACTORS
330
354
102
}
330
354
100
AcDbXrecord
280
     1
290
     1
  0
XRECORD
  5
357
102
{ACAD_REACTORS
330
356
102
}
330
356
100
AcDbXrecord
280
     1
290
     1
  0
XRECORD
  5
359
102
{ACAD_REACTORS
330
358
102
}
330
358
100
AcDbXrecord
280
     1
290
     1
  0
XRECORD
  5
35B
102
{ACAD_REACTORS
330
35A
102
}
330
35A
100
AcDbXrecord
280
     1
290
     1
  0
XRECORD
  5
35D
102
{ACAD_REACTORS
330
35C
102
}
330
35C
100
AcDbXrecord
280
     1
290
     1
  0
XRECORD
  5
35F
102
{ACAD_REACTORS
330
35E
102
}
330
35E
100
AcDbXrecord
280
     1
290
     1
  0
SORTENTSTABLE
  5
301
102
{ACAD_REACTORS
330
300
102
}
330
300
100
AcDbSortentsTable
330
1F
331
302
  5
26D
331
303
  5
286
331
304
  5
302
331
305
  5
303
331
306
  5
304
331
307
  5
305
331
308
  5
306
331
309
  5
307
331
30A
  5
308
331
30B
  5
309
331
30C
  5
30A
331
30D
  5
30B
331
30E
  5
30C
331
30F
  5
30D
331
310
  5
30E
331
311
  5
30F
331
312
  5
310
331
313
  5
311
331
314
  5
312
331
315
  5
313
331
316
  5
314
331
317
  5
315
331
318
  5
316
331
319
  5
317
331
31A
  5
318
331
31B
  5
319
331
31C
  5
31A
331
31D
  5
31B
331
31E
  5
31C
331
32F
  5
332
331
330
  5
333
331
332
  5
336
331
333
  5
337
331
334
  5
338
331
335
  5
339
331
336
  5
32F
331
337
  5
330
331
338
  5
334
331
339
  5
335
  0
ACDBDETAILVIEWSTYLE
  5
2FC
102
{ACAD_XDICTIONARY
360
399
102
}
102
{ACAD_REACTORS
330
2F6
102
}
330
2F6
100
AcDbModelDocViewStyle
 70
     0
  3
Metric50
290
     0
100
AcDbDetailViewStyle
 70
     0
 71
     0
 90
        3
 71
     1
340
11
 62
   256
 40
5.0
340
0
 62
   256
 40
5.0
300

 40
0.0
280
     1
 71
     2
340
16
 90
       25
 62
   256
 71
     3
340
11
 62
   256
 40
5.0
 90
        0
 40
15.0
 90
        1
300
%<\AcVar ViewDetailId>% (%<\AcVar ViewScale \f "%sn">%)
 71
     4
340
16
 90
       25
 62
   256
340
16
 90
       25
 62
   256
280
     0
  0
GROUP
  5
347
102
{ACAD_REACTORS
330
D
102
}
330
D
100
AcDbGroup
300

 70
     0
 71
     1
340
73
  0
LAYOUT
  5
1E
102
{ACAD_REACTORS
330
1A
102
}
330
1A
100
AcDbPlotSettings
  1

  2
none_device
  4

  6

 40
0.0
 41
0.0
 42
0.0
 43
0.0
 44
0.0
 45
0.0
 46
0.0
 47
0.0
 48
0.0
 49
0.0
140
0.0
141
0.0
142
1.0
143
1.0
 70
   688
 72
     0
 73
     0
 74
     5
  7

 75
    16
147
1.0
 76
     0
 77
     2
 78
   300
148
0.0
149
0.0
100
AcDbLayout
  1
Layout1
 70
     1
 71
     1
 10
-0.5
 20
-0.5
 11
5.0
 21
5.0
 12
0.0
 22
0.0
 32
0.0
 14
-0.5
 24
-0.5
 34
-0.5
 15
5.0
 25
5.0
 35
5.0
146
0.0
 13
0.0
 23
0.0
 33
0.0
 16
1.0
 26
0.0
 36
0.0
 17
0.0
 27
1.0
 37
0.0
 76
     0
330
1B
  0
LAYOUT
  5
26
102
{ACAD_REACTORS
330
1A
102
}
330
1A
100
AcDbPlotSettings
  1

  2
none_device
  4

  6

 40
0.0
 41
0.0
 42
0.0
 43
0.0
 44
0.0
 45
0.0
 46
0.0
 47
0.0
 48
0.0
 49
0.0
140
0.0
141
0.0
142
1.0
143
1.0
 70
   688
 72
     0
 73
     0
 74
     5
  7

 75
    16
147
1.0
 76
     0
 77
     2
 78
   300
148
0.0
149
0.0
100
AcDbLayout
  1
Layout2
 70
     1
 71
     2
 10
0.0
 20
0.0
 11
0.0
 21
0.0
 12
0.0
 22
0.0
 32
0.0
 14
0.0
 24
0.0
 34
0.0
 15
0.0
 25
0.0
 35
0.0
146
0.0
 13
0.0
 23
0.0
 33
0.0
 16
1.0
 26
0.0
 36
0.0
 17
0.0
 27
1.0
 37
0.0
 76
     0
330
23
  0
LAYOUT
  5
22
102
{ACAD_REACTORS
330
1A
102
}
330
1A
100
AcDbPlotSettings
  1

  2
none_device
  4
Letter_(8.50_x_11.00_Inches)
  6

 40
6.349999999999999
 41
6.349999999999999
 42
6.350005
 43
6.350005
 44
215.9
 45
279.4
 46
0.0
 47
0.0
 48
0.0
 49
0.0
140
0.0
141
0.0
142
1.0
143
1.0
 70
  1712
 72
     0
 73
     0
 74
     0
  7

 75
     0
147
1.0
 76
     0
 77
     2
 78
   300
148
0.0
149
0.0
100
AcDbLayout
  1
Model
 70
     1
 71
     0
 10
-0.5
 20
-0.5
 11
5.0
 21
5.0
 12
0.0
 22
0.0
 32
0.0
 14
-0.5
 24
-0.5
 34
-0.5
 15
5.0
 25
5.0
 35
5.0
146
0.0
 13
0.0
 23
0.0
 33
0.0
 16
1.0
 26
0.0
 36
0.0
 17
0.0
 27
1.0
 37
0.0
 76
     0
330
1F
331
29
  0
MATERIAL
  5
45
102
{ACAD_XDICTIONARY
360
2E9
102
}
102
{ACAD_REACTORS
330
43
102
}
330
43
100
AcDbMaterial
  1
ByBlock
  0
MATERIAL
  5
44
102
{ACAD_XDICTIONARY
360
2E7
102
}
102
{ACAD_REACTORS
330
43
102
}
330
43
100
AcDbMaterial
  1
ByLayer
  0
MATERIAL
  5
46
102
{ACAD_XDICTIONARY
360
2EB
102
}
102
{ACAD_REACTORS
330
43
102
}
330
43
100
AcDbMaterial
  1
Global
  0
MLEADERSTYLE
  5
6C
102
{ACAD_REACTORS
330
6B
102
}
330
6B
100
AcDbMLeaderStyle
170
     2
171
     1
172
     0
 90
        2
 40
0.0
 41
0.0
173
     1
 91
-1056964608
340
14
 92
       -2
290
     1
 42
0.09
291
     1
 43
0.36
  3
Standard
 44
0.18
300

342
11
174
     1
178
     6
175
     1
176
     0
 93
-1056964608
 45
0.18
292
     0
297
     0
 46
0.18
 94
-1056964608
 47
1.0
 49
1.0
140
1.0
293
     1
141
0.0
294
     1
177
     0
142
1.0
295
     0
296
     0
143
0.125
1001
ACAD_MLEADERVER
1070
     2
  0
MLINESTYLE
  5
18
102
{ACAD_REACTORS
330
17
102
}
330
17
100
AcDbMlineStyle
  2
STANDARD
 70
     0
  3

 62
   256
 51
90.0
 52
90.0
 71
     2
 49
0.5
 62
   256
  6
BYLAYER
 49
-0.5
 62
   256
  6
BYLAYER
  0
ACDBPLACEHOLDER
  5
F
102
{ACAD_REACTORS
330
E
102
}
330
E
  0
SCALE
  5
48
102
{ACAD_REACTORS
330
47
102
}
330
47
100
AcDbScale
 70
     0
300
1:1
140
1.0
141
1.0
290
     1
  0
SCALE
  5
49
102
{ACAD_REACTORS
330
47
102
}
330
47
100
AcDbScale
 70
     0
300
1:2
140
1.0
141
2.0
290
     0
  0
SCALE
  5
4A
102
{ACAD_REACTORS
330
47
102
}
330
47
100
AcDbScale
 70
     0
300
1:4
140
1.0
141
4.0
290
     0
  0
SCALE
  5
4B
102
{ACAD_REACTORS
330
47
102
}
330
47
100
AcDbScale
 70
     0
300
1:5
140
1.0
141
5.0
290
     0
  0
SCALE
  5
4C
102
{ACAD_REACTORS
330
47
102
}
330
47
100
AcDbScale
 70
     0
300
1:8
140
1.0
141
8.0
290
     0
  0
SCALE
  5
4D
102
{ACAD_REACTORS
330
47
102
}
330
47
100
AcDbScale
 70
     0
300
1:10
140
1.0
141
10.0
290
     0
  0
SCALE
  5
4E
102
{ACAD_REACTORS
330
47
102
}
330
47
100
AcDbScale
 70
     0
300
1:16
140
1.0
141
16.0
290
     0
  0
SCALE
  5
4F
102
{ACAD_REACTORS
330
47
102
}
330
47
100
AcDbScale
 70
     0
300
1:20
140
1.0
141
20.0
290
     0
  0
SCALE
  5
50
102
{ACAD_REACTORS
330
47
102
}
330
47
100
AcDbScale
 70
     0
300
1:30
140
1.0
141
30.0
290
     0
  0
SCALE
  5
51
102
{ACAD_REACTORS
330
47
102
}
330
47
100
AcDbScale
 70
     0
300
1:40
140
1.0
141
40.0
290
     0
  0
SCALE
  5
52
102
{ACAD_REACTORS
330
47
102
}
330
47
100
AcDbScale
 70
     0
300
1:50
140
1.0
141
50.0
290
     0
  0
SCALE
  5
53
102
{ACAD_REACTORS
330
47
102
}
330
47
100
AcDbScale
 70
     0
300
1:100
140
1.0
141
100.0
290
     0
  0
SCALE
  5
54
102
{ACAD_REACTORS
330
47
102
}
330
47
100
AcDbScale
 70
     0
300
2:1
140
2.0
141
1.0
290
     0
  0
SCALE
  5
55
102
{ACAD_REACTORS
330
47
102
}
330
47
100
AcDbScale
 70
     0
300
4:1
140
4.0
141
1.0
290
     0
  0
SCALE
  5
56
102
{ACAD_REACTORS
330
47
102
}
330
47
100
AcDbScale
 70
     0
300
8:1
140
8.0
141
1.0
290
     0
  0
SCALE
  5
57
102
{ACAD_REACTORS
330
47
102
}
330
47
100
AcDbScale
 70
     0
300
10:1
140
10.0
141
1.0
290
     0
  0
SCALE
  5
58
102
{ACAD_REACTORS
330
47
102
}
330
47
100
AcDbScale
 70
     0
300
100:1
140
100.0
141
1.0
290
     0
  0
SCALE
  5
59
102
{ACAD_REACTORS
330
47
102
}
330
47
100
AcDbScale
 70
     0
300
1/128" = 1'-0"
140
0.007812
141
12.0
290
     0
  0
SCALE
  5
5A
102
{ACAD_REACTORS
330
47
102
}
330
47
100
AcDbScale
 70
     0
300
1/64" = 1'-0"
140
0.015625
141
12.0
290
     0
  0
SCALE
  5
5B
102
{ACAD_REACTORS
330
47
102
}
330
47
100
AcDbScale
 70
     0
300
1/32" = 1'-0"
140
0.03125
141
12.0
290
     0
  0
SCALE
  5
5C
102
{ACAD_REACTORS
330
47
102
}
330
47
100
AcDbScale
 70
     0
300
1/16" = 1'-0"
140
0.0625
141
12.0
290
     0
  0
SCALE
  5
5D
102
{ACAD_REACTORS
330
47
102
}
330
47
100
AcDbScale
 70
     0
300
3/32" = 1'-0"
140
0.09375
141
12.0
290
     0
  0
SCALE
  5
5E
102
{ACAD_REACTORS
330
47
102
}
330
47
100
AcDbScale
 70
     0
300
1/8" = 1'-0"
140
0.125
141
12.0
290
     0
  0
SCALE
  5
5F
102
{ACAD_REACTORS
330
47
102
}
330
47
100
AcDbScale
 70
     0
300
3/16" = 1'-0"
140
0.1875
141
12.0
290
     0
  0
SCALE
  5
60
102
{ACAD_REACTORS
330
47
102
}
330
47
100
AcDbScale
 70
     0
300
1/4" = 1'-0"
140
0.25
141
12.0
290
     0
  0
SCALE
  5
61
102
{ACAD_REACTORS
330
47
102
}
330
47
100
AcDbScale
 70
     0
300
3/8" = 1'-0"
140
0.375
141
12.0
290
     0
  0
SCALE
  5
62
102
{ACAD_REACTORS
330
47
102
}
330
47
100
AcDbScale
 70
     0
300
1/2" = 1'-0"
140
0.5
141
12.0
290
     0
  0
SCALE
  5
63
102
{ACAD_REACTORS
330
47
102
}
330
47
100
AcDbScale
 70
     0
300
3/4" = 1'-0"
140
0.75
141
12.0
290
     0
  0
SCALE
  5
64
102
{ACAD_REACTORS
330
47
102
}
330
47
100
AcDbScale
 70
     0
300
1" = 1'-0"
140
1.0
141
12.0
290
     0
  0
SCALE
  5
65
102
{ACAD_REACTORS
330
47
102
}
330
47
100
AcDbScale
 70
     0
300
1-1/2" = 1'-0"
140
1.5
141
12.0
290
     0
  0
SCALE
  5
66
102
{ACAD_REACTORS
330
47
102
}
330
47
100
AcDbScale
 70
     0
300
3" = 1'-0"
140
3.0
141
12.0
290
     0
  0
SCALE
  5
67
102
{ACAD_REACTORS
330
47
102
}
330
47
100
AcDbScale
 70
     0
300
6" = 1'-0"
140
6.0
141
12.0
290
     0
  0
SCALE
  5
68
102
{ACAD_REACTORS
330
47
102
}
330
47
100
AcDbScale
 70
     0
300
1'-0" = 1'-0"
140
12.0
141
12.0
290
     0
  0
ACDBSECTIONVIEWSTYLE
  5
2FB
102
{ACAD_XDICTIONARY
360
397
102
}
102
{ACAD_REACTORS
330
2F7
102
}
330
2F7
100
AcDbModelDocViewStyle
 70
     0
  3
Metric50
290
     0
100
AcDbSectionViewStyle
 70
     0
 71
     0
 90
      102
 71
     1
340
11
 62
   256
 40
5.0
340
0
340
0
 62
   256
 40
5.0
300
I, O, Q, S, X, Z
 40
10.0
 90
        0
 40
2.5
 90
        0
 71
     2
340
16
 90
       25
 62
   256
340
16
 90
       50
 62
   256
 40
5.0
 40
2.5
 40
5.0
 71
     3
340
11
 62
   256
 40
5.0
 90
        0
 40
15.0
 90
        1
300
%<\AcVar ViewSectionStartId>%-%<\AcVar ViewSectionEndId>% (%<\AcVar ViewScale \f "%sn">%)
 71
     4
 62
   256
 62
   257
300
ANSI31
 40
1.0
 90
        0
290
     0
290
     0
 90
        6
 40
0.0
 40
1.570796326794896
 40
0.2617993877991494
 40
1.308996938995747
 40
-0.2617993877991494
 40
1.832595714594046
  0
TABLESTYLE
  5
6A
102
{ACAD_XDICTIONARY
360
2ED
102
}
102
{ACAD_REACTORS
330
69
102
}
330
69
100
AcDbTableStyle
  3
Standard
 70
     0
 71
     0
 40
0.06
 41
0.06
280
     0
281
     0
  7
Standard
140
0.18
170
     2
 62
     0
 63
     7
283
     0
274
    -2
284
     1
 64
     0
275
    -2
285
     1
 65
     0
276
    -2
286
     1
 66
     0
277
    -2
287
     1
 67
     0
278
    -2
288
     1
 68
     0
279
    -2
289
     1
 69
     0
  7
Standard
140
0.25
170
     5
 62
     0
 63
     7
283
     0
274
    -2
284
     1
 64
     0
275
    -2
285
     1
 65
     0
276
    -2
286
     1
 66
     0
277
    -2
287
     1
 67
     0
278
    -2
288
     1
 68
     0
279
    -2
289
     1
 69
     0
  7
Standard
140
0.18
170
     5
 62
     0
 63
     7
283
     0
274
    -2
284
     1
 64
     0
275
    -2
285
     1
 65
     0
276
    -2
286
     1
 66
     0
277
    -2
287
     1
 67
     0
278
    -2
288
     1
 68
     0
279
    -2
289
     1
 69
     0
  0
VISUALSTYLE
  5
2F
102
{ACAD_XDICTIONARY
360
36E
102
}
102
{ACAD_REACTORS
330
2A
102
}
330
2A
100
AcDbVisualStyle
  2

 70
     4
 71
     0
 72
     2
 73
     0
 90
        0
 40
-0.6
 41
-30.0
 62
     5
 63
     7
421
 16777215
 74
     1
 91
        4
 64
     7
 65
   257
 75
     1
175
     1
 42
1.0
 92
        0
 66
   257
 43
1.0
 76
     1
 77
     6
 78
     2
 67
     7
 79
     5
170
     0
171
     0
290
     0
174
     0
 93
        1
 44
0.0
173
     0
291
     0
 45
0.0
1001
ACAD
1000
AcDbSavedByObjectVersion
1070
     0
  0
VISUALSTYLE
  5
32
102
{ACAD_XDICTIONARY
360
374
102
}
102
{ACAD_REACTORS
330
2A
102
}
330
2A
100
AcDbVisualStyle
  2

 70
     7
 71
     1
 72
     0
 73
     1
 90
        0
 40
-0.6
 41
-30.0
 62
     5
 63
     7
421
 16777215
 74
     0
 91
        4
 64
     7
 65
   257
 75
     1
175
     1
 42
1.0
 92
        8
 66
     7
 43
1.0
 76
     1
 77
     6
 78
     2
 67
     7
 79
     5
170
     0
171
     0
290
     0
174
     0
 93
        1
 44
0.0
173
     0
291
     1
 45
0.0
1001
ACAD
1000
AcDbSavedByObjectVersion
1070
     0
  0
VISUALSTYLE
  5
36
102
{ACAD_XDICTIONARY
360
37C
102
}
102
{ACAD_REACTORS
330
2A
102
}
330
2A
100
AcDbVisualStyle
  2

 70
    12
 71
     2
 72
     2
 73
     0
 90
        0
 40
-0.6
 41
-30.0
 62
     5
 63
     7
421
 16777215
 74
     1
 91
        4
 64
     7
 65
   257
 75
     1
175
     1
 42
1.0
 92
        8
 66
     7
 43
1.0
 76
     1
 77
     6
 78
     2
 67
     7
 79
     5
170
     0
171
     0
290
     0
174
     0
 93
        1
 44
50.0
173
     0
291
     1
 45
0.0
1001
ACAD
1000
AcDbSavedByObjectVersion
1070
     0
  0
VISUALSTYLE
  5
3A
102
{ACAD_XDICTIONARY
360
384
102
}
102
{ACAD_REACTORS
330
2A
102
}
330
2A
100
AcDbVisualStyle
  2

 70
    16
 71
     2
 72
     2
 73
     3
 90
        0
 40
-0.6
 41
-30.0
 62
     5
 63
     8
421
  8421504
 74
     1
 91
        4
 64
     7
 65
   257
 75
     1
175
     1
 42
1.0
 92
        8
 66
     8
424
  8421504
 43
1.0
 76
     1
 77
     6
 78
     2
 67
     7
 79
     5
170
     0
171
     0
290
     0
174
     0
 93
        1
 44
0.0
173
     0
291
     1
 45
0.0
1001
ACAD
1000
AcDbSavedByObjectVersion
1070
     0
  0
VISUALSTYLE
  5
34
102
{ACAD_XDICTIONARY
360
378
102
}
102
{ACAD_REACTORS
330
2A
102
}
330
2A
100
AcDbVisualStyle
  2

 70
     9
 71
     3
 72
     2
 73
     0
 90
        0
 40
-0.6
 41
-30.0
 62
     5
 63
     7
421
 16777215
 74
     2
 91
        2
 64
     7
 65
   257
 75
     1
175
     1
 42
179.0
 92
        8
 66
     7
 43
1.0
 76
     1
 77
     6
 78
     2
 67
     7
 79
     3
170
     0
171
     0
290
     0
174
     0
 93
        1
 44
0.0
173
     0
291
     0
 45
0.0
1001
ACAD
1000
AcDbSavedByObjectVersion
1070
     0
  0
VISUALSTYLE
  5
35
102
{ACAD_XDICTIONARY
360
37A
102
}
102
{ACAD_REACTORS
330
2A
102
}
330
2A
100
AcDbVisualStyle
  2

 70
    11
 71
     2
 72
     2
 73
     0
 90
        0
 40
-0.6
 41
-30.0
 62
     5
 63
     7
421
 16777215
 74
     1
 91
        4
 64
     7
 65
   257
 75
     1
175
     1
 42
1.0
 92
        8
 66
     7
 43
1.0
 76
     1
 77
     6
 78
     2
 67
     7
 79
     5
170
     0
171
     0
290
     0
174
     0
 93
        1
 44
-50.0
173
     0
291
     1
 45
0.0
1001
ACAD
1000
AcDbSavedByObjectVersion
1070
     0
  0
VISUALSTYLE
  5
3D
102
{ACAD_XDICTIONARY
360
38A
102
}
102
{ACAD_REACTORS
330
2A
102
}
330
2A
100
AcDbVisualStyle
  2

 70
    22
 71
     2
 72
     2
 73
     0
 90
        0
 40
-0.6
 41
-30.0
 62
     5
 63
     7
421
 16777215
 74
     1
 91
        4
 64
     7
 65
   257
 75
     1
175
     1
 42
1.0
 92
        8
 66
     7
 43
1.0
 76
     1
 77
     6
 78
     2
 67
     7
 79
     5
170
     0
171
     0
290
     0
174
     0
 93
        1
 44
0.0
173
     0
291
     1
 45
0.0
1001
ACAD
1000
AcDbSavedByObjectVersion
1070
     0
  0
VISUALSTYLE
  5
39
102
{ACAD_XDICTIONARY
360
382
102
}
102
{ACAD_REACTORS
330
2A
102
}
330
2A
100
AcDbVisualStyle
  2

 70
    15
 71
     2
 72
     2
 73
     0
 90
        0
 40
-0.6
 41
-30.0
 62
     5
 63
     7
421
 16777215
 74
     1
 91
        4
 64
     7
 65
   257
 75
     1
175
     1
 42
1.0
 92
        8
 66
     7
 43
1.0
 76
     1
 77
     6
 78
     2
 67
     7
 79
     5
170
     0
171
     0
290
     0
174
     0
 93
        1
 44
0.0
173
     0
291
     1
 45
0.0
1001
ACAD
1000
AcDbSavedByObjectVersion
1070
     0
  0
VISUALSTYLE
  5
2B
102
{ACAD_XDICTIONARY
360
366
102
}
102
{ACAD_REACTORS
330
2A
102
}
330
2A
100
AcDbVisualStyle
  2

 70
     0
 71
     2
 72
     1
 73
     1
 90
        2
 40
-0.6
 41
30.0
 62
     5
 63
     7
421
 16777215
 74
     0
 91
        0
 64
     7
 65
   257
 75
     1
175
     1
 42
1.0
 92
        8
 66
     7
 43
1.0
 76
     1
 77
     6
 78
     2
 67
     7
 79
     5
170
     0
171
     0
290
     0
174
     0
 93
       13
 44
0.0
173
     0
291
     1
 45
0.0
1001
ACAD
1000
AcDbSavedByObjectVersion
1070
     0
  0
VISUALSTYLE
  5
2C
102
{ACAD_XDICTIONARY
360
368
102
}
102
{ACAD_REACTORS
330
2A
102
}
330
2A
100
AcDbVisualStyle
  2

 70
     1
 71
     2
 72
     1
 73
     1
 90
        2
 40
-0.6
 41
30.0
 62
     5
 63
     7
421
 16777215
 74
     1
 91
        0
 64
     7
 65
   257
 75
     1
175
     1
 42
1.0
 92
        0
 66
   257
 43
1.0
 76
     1
 77
     6
 78
     2
 67
     7
 79
     5
170
     0
171
     0
290
     0
174
     0
 93
       13
 44
0.0
173
     0
291
     1
 45
0.0
1001
ACAD
1000
AcDbSavedByObjectVersion
1070
     0
  0
VISUALSTYLE
  5
2D
102
{ACAD_XDICTIONARY
360
36A
102
}
102
{ACAD_REACTORS
330
2A
102
}
330
2A
100
AcDbVisualStyle
  2

 70
     2
 71
     2
 72
     2
 73
     1
 90
        2
 40
-0.6
 41
30.0
 62
     5
 63
     7
421
 16777215
 74
     0
 91
        0
 64
     7
 65
   257
 75
     1
175
     1
 42
1.0
 92
        0
 66
     7
 43
1.0
 76
     1
 77
     6
 78
     2
 67
     7
 79
     5
170
     0
171
     0
290
     0
174
     0
 93
       13
 44
0.0
173
     0
291
     1
 45
0.0
1001
ACAD
1000
AcDbSavedByObjectVersion
1070
     0
  0
VISUALSTYLE
  5
2E
102
{ACAD_XDICTIONARY
360
36C
102
}
102
{ACAD_REACTORS
330
2A
102
}
330
2A
100
AcDbVisualStyle
  2

 70
     3
 71
     2
 72
     2
 73
     1
 90
        2
 40
-0.6
 41
30.0
 62
     5
 63
     7
421
 16777215
 74
     1
 91
        0
 64
     7
 65
   257
 75
     1
175
     1
 42
1.0
 92
        0
 66
   257
 43
1.0
 76
     1
 77
     6
 78
     2
 67
     7
 79
     5
170
     0
171
     0
290
     0
174
     0
 93
       13
 44
0.0
173
     0
291
     1
 45
0.0
1001
ACAD
1000
AcDbSavedByObjectVersion
1070
     0
  0
VISUALSTYLE
  5
31
102
{ACAD_XDICTIONARY
360
372
102
}
102
{ACAD_REACTORS
330
2A
102
}
330
2A
100
AcDbVisualStyle
  2

 70
     6
 71
     1
 72
     2
 73
     2
 90
        0
 40
-0.6
 41
-30.0
 62
     5
 63
     7
421
 16777215
 74
     2
 91
        2
 64
     7
 65
   257
 75
     2
175
     1
 42
40.0
 92
        0
 66
   257
 43
1.0
 76
     1
 77
     6
 78
     2
 67
     7
 79
     3
170
     0
171
     0
290
     0
174
     0
 93
        1
 44
0.0
173
     0
291
     0
 45
0.0
1001
ACAD
1000
AcDbSavedByObjectVersion
1070
     0
  0
VISUALSTYLE
  5
3B
102
{ACAD_XDICTIONARY
360
386
102
}
102
{ACAD_REACTORS
330
2A
102
}
330
2A
100
AcDbVisualStyle
  2

 70
    20
 71
     2
 72
     2
 73
     0
 90
        0
 40
-0.6
 41
-30.0
 62
     5
 63
     7
421
 16777215
 74
     1
 91
        4
 64
     7
 65
   257
 75
     1
175
     1
 42
1.0
 92
       10
 66
     7
 43
1.0
 76
     1
 77
     6
 78
     2
 67
     7
 79
     5
170
     0
171
     0
290
     0
174
     0
 93
        1
 44
0.0
173
     0
291
     1
 45
0.0
1001
ACAD
1000
AcDbSavedByObjectVersion
1070
     0
  0
VISUALSTYLE
  5
38
102
{ACAD_XDICTIONARY
360
380
102
}
102
{ACAD_REACTORS
330
2A
102
}
330
2A
100
AcDbVisualStyle
  2

 70
    14
 71
     2
 72
     2
 73
     0
 90
        0
 40
-0.6
 41
-30.0
 62
     5
 63
     7
421
 16777215
 74
     1
 91
        4
 64
     7
 65
   257
 75
     7
175
     7
 42
1.0
 92
        8
 66
     7
 43
1.0
 76
     1
 77
     6
 78
     2
 67
     7
 79
     5
170
     0
171
     0
290
     0
174
     0
 93
        1
 44
0.0
173
     0
291
     1
 45
0.0
1001
ACAD
1000
AcDbSavedByObjectVersion
1070
     0
  0
VISUALSTYLE
  5
3C
102
{ACAD_XDICTIONARY
360
388
102
}
102
{ACAD_REACTORS
330
2A
102
}
330
2A
100
AcDbVisualStyle
  2

 70
    21
 71
     2
 72
     2
 73
     0
 90
        0
 40
-0.6
 41
-30.0
 62
     5
 63
     7
421
 16777215
 74
     1
 91
        4
 64
     7
 65
   257
 75
     1
175
     1
 42
1.0
 92
        9
 66
     7
 43
1.0
 76
     1
 77
     6
 78
     2
 67
     7
 79
     5
170
     0
171
     0
290
     0
174
     0
 93
        1
 44
0.0
173
     0
291
     1
 45
0.0
1001
ACAD
1000
AcDbSavedByObjectVersion
1070
     0
  0
VISUALSTYLE
  5
33
102
{ACAD_XDICTIONARY
360
376
102
}
102
{ACAD_REACTORS
330
2A
102
}
330
2A
100
AcDbVisualStyle
  2

 70
     8
 71
     2
 72
     3
 73
     0
 90
        2
 40
-0.6
 41
30.0
 62
     5
 63
     7
421
 16777215
 74
     0
 91
        0
 64
     7
 65
   257
 75
     1
175
     1
 42
1.0
 92
        8
 66
   257
 43
1.0
 76
     1
 77
     6
 78
     2
 67
     7
 79
     3
170
     0
171
     0
290
     0
174
     0
 93
       13
 44
0.0
173
     0
291
     0
 45
0.0
1001
ACAD
1000
AcDbSavedByObjectVersion
1070
     0
  0
VISUALSTYLE
  5
42
102
{ACAD_XDICTIONARY
360
394
102
}
102
{ACAD_REACTORS
330
2A
102
}
330
2A
100
AcDbVisualStyle
  2

 70
    27
 71
     2
 72
     2
 73
     1
 90
        2
 40
-0.6
 41
30.0
 62
     5
 63
     7
421
 16777215
 74
     0
 91
        4
 64
     7
 65
   257
 75
     1
175
     1
 42
1.0
 92
        8
 66
   257
 43
1.0
 76
     1
 77
     6
 78
     2
 67
     8
425
  7895160
 79
     3
170
     0
171
     0
290
     0
174
     0
 93
        5
 44
0.0
173
     0
291
     0
 45
0.0
1001
ACAD
1000
AcDbSavedByObjectVersion
1070
     0
  0
VISUALSTYLE
  5
41
102
{ACAD_XDICTIONARY
360
392
102
}
102
{ACAD_REACTORS
330
2A
102
}
330
2A
100
AcDbVisualStyle
  2

 70
    26
 71
     2
 72
     2
 73
     1
 90
        2
 40
-0.6
 41
30.0
 62
     5
 63
     7
421
 16777215
 74
     1
 91
       10
 64
     7
 65
   257
 75
     2
175
     1
 42
1.0
 92
        8
 66
   257
 43
1.0
 76
     1
 77
     6
 78
     2
 67
     7
 79
     3
170
     0
171
     0
290
     0
174
     0
 93
        5
 44
0.0
173
     0
291
     0
 45
0.0
1001
ACAD
1000
AcDbSavedByObjectVersion
1070
     0
  0
VISUALSTYLE
  5
3E
102
{ACAD_XDICTIONARY
360
38C
102
}
102
{ACAD_REACTORS
330
2A
102
}
330
2A
100
AcDbVisualStyle
  2

 70
    23
 71
     2
 72
     2
 73
     3
 90
        0
 40
-0.6
 41
-30.0
 62
     5
 63
     7
421
 16777215
 74
     2
 91
        2
 64
     7
 65
     7
 75
     1
175
     1
 42
40.0
 92
        8
 66
     7
 43
1.0
 76
     1
 77
     6
 78
     2
 67
     7
 79
     3
170
     0
171
     0
290
     0
174
     0
 93
        1
 44
0.0
173
     0
291
     0
 45
0.0
1001
ACAD
1000
AcDbSavedByObjectVersion
1070
     0
  0
VISUALSTYLE
  5
3F
102
{ACAD_XDICTIONARY
360
38E
102
}
102
{ACAD_REACTORS
330
2A
102
}
330
2A
100
AcDbVisualStyle
  2

 70
    24
 71
     1
 72
     2
 73
     2
 90
        0
 40
-0.6
 41
-30.0
 62
     5
 63
     7
421
 16777215
 74
     2
 91
        2
 64
     7
 65
     7
 75
     1
175
     1
 42
40.0
 92
       11
 66
     7
 43
1.0
 76
     1
 77
     6
 78
     2
 67
     7
 79
     6
170
     0
171
     0
290
     0
174
     0
 93
        1
 44
0.0
173
     0
291
     0
 45
0.0
1001
ACAD
1000
AcDbSavedByObjectVersion
1070
     0
  0
VISUALSTYLE
  5
37
102
{ACAD_XDICTIONARY
360
37E
102
}
102
{ACAD_REACTORS
330
2A
102
}
330
2A
100
AcDbVisualStyle
  2

 70
    13
 71
     2
 72
     2
 73
     0
 90
        0
 40
-0.6
 41
-30.0
 62
     5
 63
     7
421
 16777215
 74
     1
 91
        4
 64
     7
 65
   257
 75
     1
175
     1
 42
1.0
 92
       12
 66
     7
 43
1.0
 76
     1
 77
     6
 78
     2
 67
     7
 79
     5
170
     0
171
     0
290
     0
174
     0
 93
        1
 44
0.0
173
     0
291
     1
 45
0.0
1001
ACAD
1000
AcDbSavedByObjectVersion
1070
     0
  0
VISUALSTYLE
  5
30
102
{ACAD_XDICTIONARY
360
370
102
}
102
{ACAD_REACTORS
330
2A
102
}
330
2A
100
AcDbVisualStyle
  2

 70
     5
 71
     0
 72
     2
 73
     0
 90
        0
 40
-0.6
 41
-30.0
 62
     5
 63
     7
421
 16777215
 74
     1
 91
        4
 64
     7
 65
   257
 75
     1
175
     1
 42
1.0
 92
        0
 66
   257
 43
1.0
 76
     1
 77
     6
 78
     2
 67
     7
 79
     3
170
     0
171
     0
290
     0
174
     0
 93
        1
 44
0.0
173
     0
291
     0
 45
0.0
1001
ACAD
1000
AcDbSavedByObjectVersion
1070
     0
  0
VISUALSTYLE
  5
40
102
{ACAD_XDICTIONARY
360
390
102
}
102
{ACAD_REACTORS
330
2A
102
}
330
2A
100
AcDbVisualStyle
  2

 70
    25
 71
     2
 72
     2
 73
     1
 90
        1
 40
0.5
 41
-30.0
 62
     5
 63
     7
421
 16777215
 74
     1
 91
        0
 64
     7
 65
   257
 75
     1
175
     1
 42
1.0
 92
        8
 66
     7
 43
1.0
 76
     1
 77
     6
 78
     2
 67
     7
 79
     3
170
     0
171
     0
290
     0
174
     0
 93
       13
 44
0.0
173
     0
291
     0
 45
0.0
1001
ACAD
1000
AcDbSavedByObjectVersion
1070
     0
  0
DICTIONARYVAR
  5
2B4
102
{ACAD_REACTORS
330
2B3
102
}
330
2B3
100
DictionaryVariables
280
     0
  1
1:1
  0
DICTIONARYVAR
  5
2F5
102
{ACAD_REACTORS
330
2B3
102
}
330
2B3
100
DictionaryVariables
280
     0
  1
STANDARD
  0
DICTIONARYVAR
  5
2F4
102
{ACAD_REACTORS
330
2B3
102
}
330
2B3
100
DictionaryVariables
280
     0
  1
STANDARD
  0
DICTIONARYVAR
  5
360
102
{ACAD_REACTORS
330
2B3
102
}
330
2B3
100
DictionaryVariables
280
     0
  1
Metric50
  0
DICTIONARYVAR
  5
361
102
{ACAD_REACTORS
330
2B3
102
}
330
2B3
100
DictionaryVariables
280
     0
  1
Metric50
  0
DICTIONARYVAR
  5
2B5
102
{ACAD_REACTORS
330
2B3
102
}
330
2B3
100
DictionaryVariables
280
     0
  1
1
  0
DICTIONARYVAR
  5
362
102
{ACAD_REACTORS
330
2B3
102
}
330
2B3
100
DictionaryVariables
280
     0
  1
2
  0
DICTIONARY
  5
399
330
2FC
100
AcDbDictionary
280
     1
281
     1
  3
ACAD_XREC_ROUNDTRIP
360
39A
  0
DICTIONARY
  5
2E9
330
45
100
AcDbDictionary
280
     1
281
     1
  3
ACAD_XREC_ROUNDTRIP
360
2EA
  0
DICTIONARY
  5
2E7
330
44
100
AcDbDictionary
280
     1
281
     1
  3
ACAD_XREC_ROUNDTRIP
360
2E8
  0
DICTIONARY
  5
2EB
330
46
100
AcDbDictionary
280
     1
281
     1
  3
ACAD_XREC_ROUNDTRIP
360
2EC
  0
DICTIONARY
  5
397
330
2FB
100
AcDbDictionary
280
     1
281
     1
  3
ACAD_XREC_ROUNDTRIP
360
398
  0
DICTIONARY
  5
2ED
330
6A
100
AcDbDictionary
280
     1
281
     1
  3
ACAD_ROUNDTRIP_2008_TABLESTYLE_CELLSTYLEMAP
360
364
  3
ACAD_XREC_ROUNDTRIP
360
396
  0
DICTIONARY
  5
36E
330
2F
100
AcDbDictionary
280
     1
281
     1
  3
ACAD_XREC_ROUNDTRIP
360
36F
  0
DICTIONARY
  5
374
330
32
100
AcDbDictionary
280
     1
281
     1
  3
ACAD_XREC_ROUNDTRIP
360
375
  0
DICTIONARY
  5
37C
330
36
100
AcDbDictionary
280
     1
281
     1
  3
ACAD_XREC_ROUNDTRIP
360
37D
  0
DICTIONARY
  5
384
330
3A
100
AcDbDictionary
280
     1
281
     1
  3
ACAD_XREC_ROUNDTRIP
360
385
  0
DICTIONARY
  5
378
330
34
100
AcDbDictionary
280
     1
281
     1
  3
ACAD_XREC_ROUNDTRIP
360
379
  0
DICTIONARY
  5
37A
330
35
100
AcDbDictionary
280
     1
281
     1
  3
ACAD_XREC_ROUNDTRIP
360
37B
  0
DICTIONARY
  5
38A
330
3D
100
AcDbDictionary
280
     1
281
     1
  3
ACAD_XREC_ROUNDTRIP
360
38B
  0
DICTIONARY
  5
382
330
39
100
AcDbDictionary
280
     1
281
     1
  3
ACAD_XREC_ROUNDTRIP
360
383
  0
DICTIONARY
  5
366
330
2B
100
AcDbDictionary
280
     1
281
     1
  3
ACAD_XREC_ROUNDTRIP
360
367
  0
DICTIONARY
  5
368
330
2C
100
AcDbDictionary
280
     1
281
     1
  3
ACAD_XREC_ROUNDTRIP
360
369
  0
DICTIONARY
  5
36A
330
2D
100
AcDbDictionary
280
     1
281
     1
  3
ACAD_XREC_ROUNDTRIP
360
36B
  0
DICTIONARY
  5
36C
330
2E
100
AcDbDictionary
280
     1
281
     1
  3
ACAD_XREC_ROUNDTRIP
360
36D
  0
DICTIONARY
  5
372
330
31
100
AcDbDictionary
280
     1
281
     1
  3
ACAD_XREC_ROUNDTRIP
360
373
  0
DICTIONARY
  5
386
330
3B
100
AcDbDictionary
280
     1
281
     1
  3
ACAD_XREC_ROUNDTRIP
360
387
  0
DICTIONARY
  5
380
330
38
100
AcDbDictionary
280
     1
281
     1
  3
ACAD_XREC_ROUNDTRIP
360
381
  0
DICTIONARY
  5
388
330
3C
100
AcDbDictionary
280
     1
281
     1
  3
ACAD_XREC_ROUNDTRIP
360
389
  0
DICTIONARY
  5
376
330
33
100
AcDbDictionary
280
     1
281
     1
  3
ACAD_XREC_ROUNDTRIP
360
377
  0
DICTIONARY
  5
394
330
42
100
AcDbDictionary
280
     1
281
     1
  3
ACAD_XREC_ROUNDTRIP
360
395
  0
DICTIONARY
  5
392
330
41
100
AcDbDictionary
280
     1
281
     1
  3
ACAD_XREC_ROUNDTRIP
360
393
  0
DICTIONARY
  5
38C
330
3E
100
AcDbDictionary
280
     1
281
     1
  3
ACAD_XREC_ROUNDTRIP
360
38D
  0
DICTIONARY
  5
38E
330
3F
100
AcDbDictionary
280
     1
281
     1
  3
ACAD_XREC_ROUNDTRIP
360
38F
  0
DICTIONARY
  5
37E
330
37
100
AcDbDictionary
280
     1
281
     1
  3
ACAD_XREC_ROUNDTRIP
360
37F
  0
DICTIONARY
  5
370
330
30
100
AcDbDictionary
280
     1
281
     1
  3
ACAD_XREC_ROUNDTRIP
360
371
  0
DICTIONARY
  5
390
330
40
100
AcDbDictionary
280
     1
281
     1
  3
ACAD_XREC_ROUNDTRIP
360
391
  0
XRECORD
  5
39A
102
{ACAD_REACTORS
330
399
102
}
330
399
100
AcDbXrecord
280
     1
102
DISPLAYNAME
  1
Metric50
102
FLAGS
 90
        0
  0
XRECORD
  5
2EA
102
{ACAD_REACTORS
330
2E9
102
}
330
2E9
100
AcDbXrecord
280
     1
102
MATERIAL
148
0.0
149
0.0
149
0.0
 93
        0
 94
      127
282
     0
 72
     1
 77
     1
171
     1
175
     1
179
     1
273
     0
  0
XRECORD
  5
2E8
102
{ACAD_REACTORS
330
2E7
102
}
330
2E7
100
AcDbXrecord
280
     1
102
MATERIAL
148
0.0
149
0.0
149
0.0
 93
        0
 94
      127
282
     0
 72
     1
 77
     1
171
     1
175
     1
179
     1
273
     0
  0
XRECORD
  5
2EC
102
{ACAD_REACTORS
330
2EB
102
}
330
2EB
100
AcDbXrecord
280
     1
102
MATERIAL
148
0.0
149
0.0
149
0.0
 93
        0
 94
      127
282
     0
 72
     1
 77
     1
171
     1
175
     1
179
     1
273
     0
  0
XRECORD
  5
398
102
{ACAD_REACTORS
330
397
102
}
330
397
100
AcDbXrecord
280
     1
102
DISPLAYNAME
  1
Metric50
102
FLAGS
 90
        0
  0
CELLSTYLEMAP
  5
364
102
{ACAD_REACTORS
330
2ED
102
}
330
2ED
100
AcDbCellStyleMap
 90
        3
300
CELLSTYLE
  1
TABLEFORMAT_BEGIN
 90
        5
170
     1
 91
        0
 92
    32768
 62
   257
 93
        1
300
CONTENTFORMAT
  1
CONTENTFORMAT_BEGIN
 90
        0
 91
        0
 92
        4
 93
        0
300

 40
0.0
140
1.0
 94
        5
 62
     0
340
11
144
0.25
309
CONTENTFORMAT_END
171
     1
301
MARGIN
  1
CELLMARGIN_BEGIN
 40
0.06
 40
0.06
 40
0.06
 40
0.06
 40
0.18
 40
0.18
309
CELLMARGIN_END
 94
        6
 95
        1
302
GRIDFORMAT
  1
GRIDFORMAT_BEGIN
 90
        0
 91
        1
 62
     0
 92
       -2
340
14
 93
        0
 40
0.045
309
GRIDFORMAT_END
 95
        2
302
GRIDFORMAT
  1
GRIDFORMAT_BEGIN
 90
        0
 91
        1
 62
     0
 92
       -2
340
14
 93
        0
 40
0.045
309
GRIDFORMAT_END
 95
        4
302
GRIDFORMAT
  1
GRIDFORMAT_BEGIN
 90
        0
 91
        1
 62
     0
 92
       -2
340
14
 93
        0
 40
0.045
309
GRIDFORMAT_END
 95
        8
302
GRIDFORMAT
  1
GRIDFORMAT_BEGIN
 90
        0
 91
        1
 62
     0
 92
       -2
340
14
 93
        0
 40
0.045
309
GRIDFORMAT_END
 95
       16
302
GRIDFORMAT
  1
GRIDFORMAT_BEGIN
 90
        0
 91
        1
 62
     0
 92
       -2
340
14
 93
        0
 40
0.045
309
GRIDFORMAT_END
 95
       32
302
GRIDFORMAT
  1
GRIDFORMAT_BEGIN
 90
        0
 91
        1
 62
     0
 92
       -2
340
14
 93
        0
 40
0.045
309
GRIDFORMAT_END
309
TABLEFORMAT_END
  1
CELLSTYLE_BEGIN
 90
        1
 91
        1
300
_TITLE
309
CELLSTYLE_END
300
CELLSTYLE
  1
TABLEFORMAT_BEGIN
 90
        5
170
     1
 91
        0
 92
        0
 62
   257
 93
        1
300
CONTENTFORMAT
  1
CONTENTFORMAT_BEGIN
 90
        0
 91
        0
 92
        4
 93
        0
300

 40
0.0
140
1.0
 94
        5
 62
     0
340
11
144
0.18
309
CONTENTFORMAT_END
171
     1
301
MARGIN
  1
CELLMARGIN_BEGIN
 40
0.06
 40
0.06
 40
0.06
 40
0.06
 40
0.18
 40
0.18
309
CELLMARGIN_END
 94
        6
 95
        1
302
GRIDFORMAT
  1
GRIDFORMAT_BEGIN
 90
        0
 91
        1
 62
     0
 92
       -2
340
14
 93
        0
 40
0.045
309
GRIDFORMAT_END
 95
        2
302
GRIDFORMAT
  1
GRIDFORMAT_BEGIN
 90
        0
 91
        1
 62
     0
 92
       -2
340
14
 93
        0
 40
0.045
309
GRIDFORMAT_END
 95
        4
302
GRIDFORMAT
  1
GRIDFORMAT_BEGIN
 90
        0
 91
        1
 62
     0
 92
       -2
340
14
 93
        0
 40
0.045
309
GRIDFORMAT_END
 95
        8
302
GRIDFORMAT
  1
GRIDFORMAT_BEGIN
 90
        0
 91
        1
 62
     0
 92
       -2
340
14
 93
        0
 40
0.045
309
GRIDFORMAT_END
 95
       16
302
GRIDFORMAT
  1
GRIDFORMAT_BEGIN
 90
        0
 91
        1
 62
     0
 92
       -2
340
14
 93
        0
 40
0.045
309
GRIDFORMAT_END
 95
       32
302
GRIDFORMAT
  1
GRIDFORMAT_BEGIN
 90
        0
 91
        1
 62
     0
 92
       -2
340
14
 93
        0
 40
0.045
309
GRIDFORMAT_END
309
TABLEFORMAT_END
  1
CELLSTYLE_BEGIN
 90
        2
 91
        1
300
_HEADER
309
CELLSTYLE_END
300
CELLSTYLE
  1
TABLEFORMAT_BEGIN
 90
        5
170
     1
 91
        0
 92
        0
 62
   257
 93
        1
300
CONTENTFORMAT
  1
CONTENTFORMAT_BEGIN
 90
        0
 91
        0
 92
        4
 93
        0
300

 40
0.0
140
1.0
 94
        2
 62
     0
340
11
144
0.18
309
CONTENTFORMAT_END
171
     1
301
MARGIN
  1
CELLMARGIN_BEGIN
 40
0.06
 40
0.06
 40
0.06
 40
0.06
 40
0.18
 40
0.18
309
CELLMARGIN_END
 94
        6
 95
        1
302
GRIDFORMAT
  1
GRIDFORMAT_BEGIN
 90
        0
 91
        1
 62
     0
 92
       -2
340
14
 93
        0
 40
0.045
309
GRIDFORMAT_END
 95
        2
302
GRIDFORMAT
  1
GRIDFORMAT_BEGIN
 90
        0
 91
        1
 62
     0
 92
       -2
340
14
 93
        0
 40
0.045
309
GRIDFORMAT_END
 95
        4
302
GRIDFORMAT
  1
GRIDFORMAT_BEGIN
 90
        0
 91
        1
 62
     0
 92
       -2
340
14
 93
        0
 40
0.045
309
GRIDFORMAT_END
 95
        8
302
GRIDFORMAT
  1
GRIDFORMAT_BEGIN
 90
        0
 91
        1
 62
     0
 92
       -2
340
14
 93
        0
 40
0.045
309
GRIDFORMAT_END
 95
       16
302
GRIDFORMAT
  1
GRIDFORMAT_BEGIN
 90
        0
 91
        1
 62
     0
 92
       -2
340
14
 93
        0
 40
0.045
309
GRIDFORMAT_END
 95
       32
302
GRIDFORMAT
  1
GRIDFORMAT_BEGIN
 90
        0
 91
        1
 62
     0
 92
       -2
340
14
 93
        0
 40
0.045
309
GRIDFORMAT_END
309
TABLEFORMAT_END
  1
CELLSTYLE_BEGIN
 90
        3
 91
        2
300
_DATA
309
CELLSTYLE_END
  0
XRECORD
  5
396
102
{ACAD_REACTORS
330
2ED
102
}
330
2ED
100
AcDbXrecord
280
     1
102
ACAD_ROUNDTRIP_PRE2007_TABLESTYLE
 90
        4
 91
        0
  1

 92
        4
 93
        0
  2

 94
        4
 95
        0
  3

  0
XRECORD
  5
36F
102
{ACAD_REACTORS
330
36E
102
}
330
36E
100
AcDbXrecord
280
     1
102
RTVSPost2010Prop28
280
     1
102
RTVSPost2010PropOp28
 70
     1
102
RTVSPost2010Prop29
280
     1
102
RTVSPost2010PropOp29
 70
     1
102
RTVSPost2010Prop30
280
     0
102
RTVSPost2010PropOp30
 70
     1
102
RTVSPost2010Prop31
280
     0
102
RTVSPost2010PropOp31
 70
     1
102
RTVSPost2010Prop32
280
     0
102
RTVSPost2010PropOp32
 70
     1
102
RTVSPost2010Prop33
280
     0
102
RTVSPost2010PropOp33
 70
     1
102
RTVSPost2010Prop34
280
     0
102
RTVSPost2010PropOp34
 70
     1
102
RTVSPost2010Prop35
280
     0
102
RTVSPost2010PropOp35
 70
     1
102
RTVSPost2010Prop36
280
     0
102
RTVSPost2010PropOp36
 70
     1
102
RTVSPost2010Prop37
 90
       50
102
RTVSPost2010PropOp37
 70
     1
102
RTVSPost2010Prop38
140
0.0
102
RTVSPost2010PropOp38
 70
     1
102
RTVSPost2010Prop39
140
1.0
102
RTVSPost2010PropOp39
 70
     1
102
RTVSPost2010Prop40
 90
        0
102
RTVSPost2010PropOp40
 70
     1
102
RTVSPost2010Prop41ColorIndex
 90
       18
102
RTVSPost2010Prop41ColorRGB
 90
        0
102
RTVSPost2010PropOp41
 70
     1
102
RTVSPost2010Prop42
 90
       50
102
RTVSPost2010PropOp42
 70
     1
102
RTVSPost2010Prop43
 90
        3
102
RTVSPost2010PropOp43
 70
     1
102
RTVSPost2010Prop44ColorIndex
 90
        5
102
RTVSPost2010Prop44ColorRGB
 90
      255
102
RTVSPost2010PropOp44
 70
     1
102
RTVSPost2010Prop45
280
     0
102
RTVSPost2010PropOp45
 70
     1
102
RTVSPost2010Prop46
 90
       50
102
RTVSPost2010PropOp46
 70
     1
102
RTVSPost2010Prop47
 90
       50
102
RTVSPost2010PropOp47
 70
     1
102
RTVSPost2010Prop48
 90
       50
102
RTVSPost2010PropOp48
 70
     1
102
RTVSPost2010Prop49
280
     0
102
RTVSPost2010PropOp49
 70
     1
102
RTVSPost2010Prop50
 90
       50
102
RTVSPost2010PropOp50
 70
     1
102
RTVSPost2010Prop51ColorIndex
 90
      256
102
RTVSPost2010Prop51ColorRGB
 90
-16777216
102
RTVSPost2010PropOp51
 70
     0
102
RTVSPost2010Prop52
140
1.0
102
RTVSPost2010PropOp52
 70
     0
102
RTVSPost2010Prop53
 90
        2
102
RTVSPost2010PropOp53
 70
     1
102
RTVSPost2010Prop54
  1
strokes_ogs.tif
102
RTVSPost2010PropOp54
 70
     1
102
RTVSPost2010Prop55
280
     0
102
RTVSPost2010PropOp55
 70
     1
102
RTVSPost2010Prop56
140
1.0
102
RTVSPost2010PropOp56
 70
     1
102
RTVSPost2010Prop57
140
1.0
102
RTVSPost2010PropOp57
 70
     1
102
RTVSPropertyOp0
 70
     1
102
RTVSPropertyOp1
 70
     1
102
RTVSPropertyOp2
 70
     1
102
RTVSPropertyOp3
 70
     1
102
RTVSPropertyOp4
 70
     1
102
RTVSPropertyOp5
 70
     1
102
RTVSPropertyOp6
 70
     1
102
RTVSPropertyOp7
 70
     1
102
RTVSPropertyOp8
 70
     1
102
RTVSPropertyOp9
 70
     1
102
RTVSPropertyOp10
 70
     1
102
RTVSPropertyOp11
 70
     1
102
RTVSPropertyOp12
 70
     1
102
RTVSPropertyOp13
 70
     1
102
RTVSPropertyOp14
 70
     1
102
RTVSPropertyOp15
 70
     1
102
RTVSPropertyOp16
 70
     1
102
RTVSPropertyOp17
 70
     1
102
RTVSPropertyOp18
 70
     1
102
RTVSPropertyOp19
 70
     1
102
RTVSPropertyOp20
 70
     1
102
RTVSPropertyOp21
 70
     1
102
RTVSPropertyOp22
 70
     1
102
RTVSPropertyOp23
 70
     1
102
RTVSPropertyOp24
 70
     1
102
RTVSPropertyOp25
 70
     1
102
RTVSPropertyOp26
 70
     1
102
RTVSPropertyOp27
 70
     1
102
RTVSPropertyOp28
 70
     1
102
RTVSPropertyOp29
 70
     1
102
RTVSPropertyOp30
 70
     1
102
RTVSPropertyOp31
 70
     1
102
RTVSPropertyOp32
 70
     1
102
RTVSPropertyOp33
 70
     1
102
RTVSPropertyOp34
 70
     1
102
RTVSPropertyOp35
 70
     1
102
RTVSPropertyOp36
 70
     1
102
RTVSPropertyOp37
 70
     1
102
RTVSPropertyOp38
 70
     1
102
RTVSPropertyOp39
 70
     1
102
RTVSPropertyOp40
 70
     1
102
RTVSPropertyOp41
 70
     1
102
RTVSPropertyOp42
 70
     1
102
RTVSPropertyOp43
 70
     1
102
RTVSPropertyOp44
 70
     1
102
RTVSPropertyOp45
 70
     1
102
RTVSPropertyOp46
 70
     1
102
RTVSPropertyOp47
 70
     1
102
RTVSPropertyOp48
 70
     1
102
RTVSPropertyOp49
 70
     1
102
RTVSPropertyOp50
 70
     1
102
RTVSPropertyOp51
 70
     0
102
RTVSPropertyOp52
 70
     0
102
RTVSPropertyOp53
 70
     1
102
RTVSPropertyOp54
 70
     1
102
RTVSPropertyOp55
 70
     1
102
RTVSPropertyOp56
 70
     1
102
RTVSPropertyOp57
 70
     1
102
RTVSPropertyOp58
 70
     1
102
RTVSPropertyOp59
 70
     1
102
RTVSPropertyOp60
 70
     1
102
RTVSPropertyOp61
 70
     1
102
RTVSPropertyOp62
 70
     1
  0
XRECORD
  5
375
102
{ACAD_REACTORS
330
374
102
}
330
374
100
AcDbXrecord
280
     1
102
RTVSPost2010Prop28
280
     0
102
RTVSPost2010PropOp28
 70
     1
102
RTVSPost2010Prop29
280
     1
102
RTVSPost2010PropOp29
 70
     1
102
RTVSPost2010Prop30
280
     1
102
RTVSPost2010PropOp30
 70
     1
102
RTVSPost2010Prop31
280
     0
102
RTVSPost2010PropOp31
 70
     1
102
RTVSPost2010Prop32
280
     0
102
RTVSPost2010PropOp32
 70
     1
102
RTVSPost2010Prop33
280
     0
102
RTVSPost2010PropOp33
 70
     1
102
RTVSPost2010Prop34
280
     0
102
RTVSPost2010PropOp34
 70
     1
102
RTVSPost2010Prop35
280
     0
102
RTVSPost2010PropOp35
 70
     1
102
RTVSPost2010Prop36
280
     0
102
RTVSPost2010PropOp36
 70
     1
102
RTVSPost2010Prop37
 90
       50
102
RTVSPost2010PropOp37
 70
     1
102
RTVSPost2010Prop38
140
0.0
102
RTVSPost2010PropOp38
 70
     1
102
RTVSPost2010Prop39
140
1.0
102
RTVSPost2010PropOp39
 70
     1
102
RTVSPost2010Prop40
 90
        0
102
RTVSPost2010PropOp40
 70
     1
102
RTVSPost2010Prop41ColorIndex
 90
       18
102
RTVSPost2010Prop41ColorRGB
 90
        0
102
RTVSPost2010PropOp41
 70
     1
102
RTVSPost2010Prop42
 90
       50
102
RTVSPost2010PropOp42
 70
     1
102
RTVSPost2010Prop43
 90
        3
102
RTVSPost2010PropOp43
 70
     1
102
RTVSPost2010Prop44ColorIndex
 90
        5
102
RTVSPost2010Prop44ColorRGB
 90
      255
102
RTVSPost2010PropOp44
 70
     1
102
RTVSPost2010Prop45
280
     0
102
RTVSPost2010PropOp45
 70
     1
102
RTVSPost2010Prop46
 90
       50
102
RTVSPost2010PropOp46
 70
     1
102
RTVSPost2010Prop47
 90
       50
102
RTVSPost2010PropOp47
 70
     1
102
RTVSPost2010Prop48
 90
       50
102
RTVSPost2010PropOp48
 70
     1
102
RTVSPost2010Prop49
280
     0
102
RTVSPost2010PropOp49
 70
     1
102
RTVSPost2010Prop50
 90
       50
102
RTVSPost2010PropOp50
 70
     1
102
RTVSPost2010Prop51ColorIndex
 90
      256
102
RTVSPost2010Prop51ColorRGB
 90
-16777216
102
RTVSPost2010PropOp51
 70
     0
102
RTVSPost2010Prop52
140
1.0
102
RTVSPost2010PropOp52
 70
     0
102
RTVSPost2010Prop53
 90
        2
102
RTVSPost2010PropOp53
 70
     1
102
RTVSPost2010Prop54
  1
strokes_ogs.tif
102
RTVSPost2010PropOp54
 70
     1
102
RTVSPost2010Prop55
280
     0
102
RTVSPost2010PropOp55
 70
     1
102
RTVSPost2010Prop56
140
1.0
102
RTVSPost2010PropOp56
 70
     1
102
RTVSPost2010Prop57
140
1.0
102
RTVSPost2010PropOp57
 70
     1
102
RTVSPropertyOp0
 70
     1
102
RTVSPropertyOp1
 70
     1
102
RTVSPropertyOp2
 70
     1
102
RTVSPropertyOp3
 70
     1
102
RTVSPropertyOp4
 70
     1
102
RTVSPropertyOp5
 70
     1
102
RTVSPropertyOp6
 70
     1
102
RTVSPropertyOp7
 70
     1
102
RTVSPropertyOp8
 70
     1
102
RTVSPropertyOp9
 70
     1
102
RTVSPropertyOp10
 70
     1
102
RTVSPropertyOp11
 70
     1
102
RTVSPropertyOp12
 70
     1
102
RTVSPropertyOp13
 70
     1
102
RTVSPropertyOp14
 70
     1
102
RTVSPropertyOp15
 70
     1
102
RTVSPropertyOp16
 70
     1
102
RTVSPropertyOp17
 70
     1
102
RTVSPropertyOp18
 70
     1
102
RTVSPropertyOp19
 70
     1
102
RTVSPropertyOp20
 70
     1
102
RTVSPropertyOp21
 70
     1
102
RTVSPropertyOp22
 70
     1
102
RTVSPropertyOp23
 70
     1
102
RTVSPropertyOp24
 70
     1
102
RTVSPropertyOp25
 70
     1
102
RTVSPropertyOp26
 70
     1
102
RTVSPropertyOp27
 70
     1
102
RTVSPropertyOp28
 70
     1
102
RTVSPropertyOp29
 70
     1
102
RTVSPropertyOp30
 70
     1
102
RTVSPropertyOp31
 70
     1
102
RTVSPropertyOp32
 70
     1
102
RTVSPropertyOp33
 70
     1
102
RTVSPropertyOp34
 70
     1
102
RTVSPropertyOp35
 70
     1
102
RTVSPropertyOp36
 70
     1
102
RTVSPropertyOp37
 70
     1
102
RTVSPropertyOp38
 70
     1
102
RTVSPropertyOp39
 70
     1
102
RTVSPropertyOp40
 70
     1
102
RTVSPropertyOp41
 70
     1
102
RTVSPropertyOp42
 70
     1
102
RTVSPropertyOp43
 70
     1
102
RTVSPropertyOp44
 70
     1
102
RTVSPropertyOp45
 70
     1
102
RTVSPropertyOp46
 70
     1
102
RTVSPropertyOp47
 70
     1
102
RTVSPropertyOp48
 70
     1
102
RTVSPropertyOp49
 70
     1
102
RTVSPropertyOp50
 70
     1
102
RTVSPropertyOp51
 70
     0
102
RTVSPropertyOp52
 70
     0
102
RTVSPropertyOp53
 70
     1
102
RTVSPropertyOp54
 70
     1
102
RTVSPropertyOp55
 70
     1
102
RTVSPropertyOp56
 70
     1
102
RTVSPropertyOp57
 70
     1
102
RTVSPropertyOp58
 70
     1
102
RTVSPropertyOp59
 70
     1
102
RTVSPropertyOp60
 70
     1
102
RTVSPropertyOp61
 70
     1
102
RTVSPropertyOp62
 70
     1
  0
XRECORD
  5
37D
102
{ACAD_REACTORS
330
37C
102
}
330
37C
100
AcDbXrecord
280
     1
102
RTVSPost2010Prop28
280
     0
102
RTVSPost2010PropOp28
 70
     1
102
RTVSPost2010Prop29
280
     1
102
RTVSPost2010PropOp29
 70
     1
102
RTVSPost2010Prop30
280
     1
102
RTVSPost2010PropOp30
 70
     1
102
RTVSPost2010Prop31
280
     0
102
RTVSPost2010PropOp31
 70
     1
102
RTVSPost2010Prop32
280
     0
102
RTVSPost2010PropOp32
 70
     1
102
RTVSPost2010Prop33
280
     0
102
RTVSPost2010PropOp33
 70
     1
102
RTVSPost2010Prop34
280
     0
102
RTVSPost2010PropOp34
 70
     1
102
RTVSPost2010Prop35
280
     0
102
RTVSPost2010PropOp35
 70
     1
102
RTVSPost2010Prop36
280
     0
102
RTVSPost2010PropOp36
 70
     1
102
RTVSPost2010Prop37
 90
       50
102
RTVSPost2010PropOp37
 70
     1
102
RTVSPost2010Prop38
140
0.0
102
RTVSPost2010PropOp38
 70
     1
102
RTVSPost2010Prop39
140
1.0
102
RTVSPost2010PropOp39
 70
     1
102
RTVSPost2010Prop40
 90
        0
102
RTVSPost2010PropOp40
 70
     1
102
RTVSPost2010Prop41ColorIndex
 90
       18
102
RTVSPost2010Prop41ColorRGB
 90
        0
102
RTVSPost2010PropOp41
 70
     1
102
RTVSPost2010Prop42
 90
       50
102
RTVSPost2010PropOp42
 70
     1
102
RTVSPost2010Prop43
 90
        3
102
RTVSPost2010PropOp43
 70
     1
102
RTVSPost2010Prop44ColorIndex
 90
        5
102
RTVSPost2010Prop44ColorRGB
 90
      255
102
RTVSPost2010PropOp44
 70
     1
102
RTVSPost2010Prop45
280
     0
102
RTVSPost2010PropOp45
 70
     1
102
RTVSPost2010Prop46
 90
       50
102
RTVSPost2010PropOp46
 70
     1
102
RTVSPost2010Prop47
 90
       50
102
RTVSPost2010PropOp47
 70
     1
102
RTVSPost2010Prop48
 90
       50
102
RTVSPost2010PropOp48
 70
     1
102
RTVSPost2010Prop49
280
     0
102
RTVSPost2010PropOp49
 70
     1
102
RTVSPost2010Prop50
 90
       50
102
RTVSPost2010PropOp50
 70
     1
102
RTVSPost2010Prop51ColorIndex
 90
      256
102
RTVSPost2010Prop51ColorRGB
 90
-16777216
102
RTVSPost2010PropOp51
 70
     0
102
RTVSPost2010Prop52
140
1.0
102
RTVSPost2010PropOp52
 70
     0
102
RTVSPost2010Prop53
 90
        2
102
RTVSPost2010PropOp53
 70
     1
102
RTVSPost2010Prop54
  1
strokes_ogs.tif
102
RTVSPost2010PropOp54
 70
     1
102
RTVSPost2010Prop55
280
     0
102
RTVSPost2010PropOp55
 70
     1
102
RTVSPost2010Prop56
140
1.0
102
RTVSPost2010PropOp56
 70
     1
102
RTVSPost2010Prop57
140
1.0
102
RTVSPost2010PropOp57
 70
     1
102
RTVSPropertyOp0
 70
     1
102
RTVSPropertyOp1
 70
     1
102
RTVSPropertyOp2
 70
     1
102
RTVSPropertyOp3
 70
     1
102
RTVSPropertyOp4
 70
     1
102
RTVSPropertyOp5
 70
     1
102
RTVSPropertyOp6
 70
     1
102
RTVSPropertyOp7
 70
     1
102
RTVSPropertyOp8
 70
     1
102
RTVSPropertyOp9
 70
     1
102
RTVSPropertyOp10
 70
     1
102
RTVSPropertyOp11
 70
     1
102
RTVSPropertyOp12
 70
     1
102
RTVSPropertyOp13
 70
     1
102
RTVSPropertyOp14
 70
     1
102
RTVSPropertyOp15
 70
     1
102
RTVSPropertyOp16
 70
     1
102
RTVSPropertyOp17
 70
     1
102
RTVSPropertyOp18
 70
     1
102
RTVSPropertyOp19
 70
     1
102
RTVSPropertyOp20
 70
     1
102
RTVSPropertyOp21
 70
     1
102
RTVSPropertyOp22
 70
     1
102
RTVSPropertyOp23
 70
     1
102
RTVSPropertyOp24
 70
     1
102
RTVSPropertyOp25
 70
     1
102
RTVSPropertyOp26
 70
     1
102
RTVSPropertyOp27
 70
     1
102
RTVSPropertyOp28
 70
     1
102
RTVSPropertyOp29
 70
     1
102
RTVSPropertyOp30
 70
     1
102
RTVSPropertyOp31
 70
     1
102
RTVSPropertyOp32
 70
     1
102
RTVSPropertyOp33
 70
     1
102
RTVSPropertyOp34
 70
     1
102
RTVSPropertyOp35
 70
     1
102
RTVSPropertyOp36
 70
     1
102
RTVSPropertyOp37
 70
     1
102
RTVSPropertyOp38
 70
     1
102
RTVSPropertyOp39
 70
     1
102
RTVSPropertyOp40
 70
     1
102
RTVSPropertyOp41
 70
     1
102
RTVSPropertyOp42
 70
     1
102
RTVSPropertyOp43
 70
     1
102
RTVSPropertyOp44
 70
     1
102
RTVSPropertyOp45
 70
     1
102
RTVSPropertyOp46
 70
     1
102
RTVSPropertyOp47
 70
     1
102
RTVSPropertyOp48
 70
     1
102
RTVSPropertyOp49
 70
     1
102
RTVSPropertyOp50
 70
     1
102
RTVSPropertyOp51
 70
     0
102
RTVSPropertyOp52
 70
     0
102
RTVSPropertyOp53
 70
     1
102
RTVSPropertyOp54
 70
     1
102
RTVSPropertyOp55
 70
     1
102
RTVSPropertyOp56
 70
     1
102
RTVSPropertyOp57
 70
     1
102
RTVSPropertyOp58
 70
     1
102
RTVSPropertyOp59
 70
     1
102
RTVSPropertyOp60
 70
     1
102
RTVSPropertyOp61
 70
     1
102
RTVSPropertyOp62
 70
     1
  0
XRECORD
  5
385
102
{ACAD_REACTORS
330
384
102
}
330
384
100
AcDbXrecord
280
     1
102
RTVSPost2010Prop28
280
     0
102
RTVSPost2010PropOp28
 70
     1
102
RTVSPost2010Prop29
280
     1
102
RTVSPost2010PropOp29
 70
     1
102
RTVSPost2010Prop30
280
     1
102
RTVSPost2010PropOp30
 70
     1
102
RTVSPost2010Prop31
280
     0
102
RTVSPost2010PropOp31
 70
     1
102
RTVSPost2010Prop32
280
     0
102
RTVSPost2010PropOp32
 70
     1
102
RTVSPost2010Prop33
280
     0
102
RTVSPost2010PropOp33
 70
     1
102
RTVSPost2010Prop34
280
     0
102
RTVSPost2010PropOp34
 70
     1
102
RTVSPost2010Prop35
280
     0
102
RTVSPost2010PropOp35
 70
     1
102
RTVSPost2010Prop36
280
     0
102
RTVSPost2010PropOp36
 70
     1
102
RTVSPost2010Prop37
 90
       50
102
RTVSPost2010PropOp37
 70
     1
102
RTVSPost2010Prop38
140
0.0
102
RTVSPost2010PropOp38
 70
     1
102
RTVSPost2010Prop39
140
1.0
102
RTVSPost2010PropOp39
 70
     1
102
RTVSPost2010Prop40
 90
        0
102
RTVSPost2010PropOp40
 70
     1
102
RTVSPost2010Prop41ColorIndex
 90
       18
102
RTVSPost2010Prop41ColorRGB
 90
        0
102
RTVSPost2010PropOp41
 70
     1
102
RTVSPost2010Prop42
 90
       50
102
RTVSPost2010PropOp42
 70
     1
102
RTVSPost2010Prop43
 90
        3
102
RTVSPost2010PropOp43
 70
     1
102
RTVSPost2010Prop44ColorIndex
 90
        5
102
RTVSPost2010Prop44ColorRGB
 90
      255
102
RTVSPost2010PropOp44
 70
     1
102
RTVSPost2010Prop45
280
     0
102
RTVSPost2010PropOp45
 70
     1
102
RTVSPost2010Prop46
 90
       50
102
RTVSPost2010PropOp46
 70
     1
102
RTVSPost2010Prop47
 90
       50
102
RTVSPost2010PropOp47
 70
     1
102
RTVSPost2010Prop48
 90
       50
102
RTVSPost2010PropOp48
 70
     1
102
RTVSPost2010Prop49
280
     0
102
RTVSPost2010PropOp49
 70
     1
102
RTVSPost2010Prop50
 90
       50
102
RTVSPost2010PropOp50
 70
     1
102
RTVSPost2010Prop51ColorIndex
 90
      256
102
RTVSPost2010Prop51ColorRGB
 90
-16777216
102
RTVSPost2010PropOp51
 70
     0
102
RTVSPost2010Prop52
140
1.0
102
RTVSPost2010PropOp52
 70
     0
102
RTVSPost2010Prop53
 90
        2
102
RTVSPost2010PropOp53
 70
     1
102
RTVSPost2010Prop54
  1
strokes_ogs.tif
102
RTVSPost2010PropOp54
 70
     1
102
RTVSPost2010Prop55
280
     0
102
RTVSPost2010PropOp55
 70
     1
102
RTVSPost2010Prop56
140
1.0
102
RTVSPost2010PropOp56
 70
     1
102
RTVSPost2010Prop57
140
1.0
102
RTVSPost2010PropOp57
 70
     1
102
RTVSPropertyOp0
 70
     1
102
RTVSPropertyOp1
 70
     1
102
RTVSPropertyOp2
 70
     1
102
RTVSPropertyOp3
 70
     1
102
RTVSPropertyOp4
 70
     1
102
RTVSPropertyOp5
 70
     1
102
RTVSPropertyOp6
 70
     1
102
RTVSPropertyOp7
 70
     1
102
RTVSPropertyOp8
 70
     1
102
RTVSPropertyOp9
 70
     1
102
RTVSPropertyOp10
 70
     1
102
RTVSPropertyOp11
 70
     1
102
RTVSPropertyOp12
 70
     1
102
RTVSPropertyOp13
 70
     1
102
RTVSPropertyOp14
 70
     1
102
RTVSPropertyOp15
 70
     1
102
RTVSPropertyOp16
 70
     1
102
RTVSPropertyOp17
 70
     1
102
RTVSPropertyOp18
 70
     1
102
RTVSPropertyOp19
 70
     1
102
RTVSPropertyOp20
 70
     1
102
RTVSPropertyOp21
 70
     1
102
RTVSPropertyOp22
 70
     1
102
RTVSPropertyOp23
 70
     1
102
RTVSPropertyOp24
 70
     1
102
RTVSPropertyOp25
 70
     1
102
RTVSPropertyOp26
 70
     1
102
RTVSPropertyOp27
 70
     1
102
RTVSPropertyOp28
 70
     1
102
RTVSPropertyOp29
 70
     1
102
RTVSPropertyOp30
 70
     1
102
RTVSPropertyOp31
 70
     1
102
RTVSPropertyOp32
 70
     1
102
RTVSPropertyOp33
 70
     1
102
RTVSPropertyOp34
 70
     1
102
RTVSPropertyOp35
 70
     1
102
RTVSPropertyOp36
 70
     1
102
RTVSPropertyOp37
 70
     1
102
RTVSPropertyOp38
 70
     1
102
RTVSPropertyOp39
 70
     1
102
RTVSPropertyOp40
 70
     1
102
RTVSPropertyOp41
 70
     1
102
RTVSPropertyOp42
 70
     1
102
RTVSPropertyOp43
 70
     1
102
RTVSPropertyOp44
 70
     1
102
RTVSPropertyOp45
 70
     1
102
RTVSPropertyOp46
 70
     1
102
RTVSPropertyOp47
 70
     1
102
RTVSPropertyOp48
 70
     1
102
RTVSPropertyOp49
 70
     1
102
RTVSPropertyOp50
 70
     1
102
RTVSPropertyOp51
 70
     0
102
RTVSPropertyOp52
 70
     0
102
RTVSPropertyOp53
 70
     1
102
RTVSPropertyOp54
 70
     1
102
RTVSPropertyOp55
 70
     1
102
RTVSPropertyOp56
 70
     1
102
RTVSPropertyOp57
 70
     1
102
RTVSPropertyOp58
 70
     1
102
RTVSPropertyOp59
 70
     1
102
RTVSPropertyOp60
 70
     1
102
RTVSPropertyOp61
 70
     1
102
RTVSPropertyOp62
 70
     1
  0
XRECORD
  5
379
102
{ACAD_REACTORS
330
378
102
}
330
378
100
AcDbXrecord
280
     1
102
RTVSPost2010Prop28
280
     0
102
RTVSPost2010PropOp28
 70
     1
102
RTVSPost2010Prop29
280
     1
102
RTVSPost2010PropOp29
 70
     1
102
RTVSPost2010Prop30
280
     1
102
RTVSPost2010PropOp30
 70
     1
102
RTVSPost2010Prop31
280
     0
102
RTVSPost2010PropOp31
 70
     1
102
RTVSPost2010Prop32
280
     0
102
RTVSPost2010PropOp32
 70
     1
102
RTVSPost2010Prop33
280
     0
102
RTVSPost2010PropOp33
 70
     1
102
RTVSPost2010Prop34
280
     0
102
RTVSPost2010PropOp34
 70
     1
102
RTVSPost2010Prop35
280
     0
102
RTVSPost2010PropOp35
 70
     1
102
RTVSPost2010Prop36
280
     0
102
RTVSPost2010PropOp36
 70
     1
102
RTVSPost2010Prop37
 90
       50
102
RTVSPost2010PropOp37
 70
     1
102
RTVSPost2010Prop38
140
0.0
102
RTVSPost2010PropOp38
 70
     1
102
RTVSPost2010Prop39
140
1.0
102
RTVSPost2010PropOp39
 70
     1
102
RTVSPost2010Prop40
 90
        0
102
RTVSPost2010PropOp40
 70
     1
102
RTVSPost2010Prop41ColorIndex
 90
       18
102
RTVSPost2010Prop41ColorRGB
 90
        0
102
RTVSPost2010PropOp41
 70
     1
102
RTVSPost2010Prop42
 90
       50
102
RTVSPost2010PropOp42
 70
     1
102
RTVSPost2010Prop43
 90
        3
102
RTVSPost2010PropOp43
 70
     1
102
RTVSPost2010Prop44ColorIndex
 90
        5
102
RTVSPost2010Prop44ColorRGB
 90
      255
102
RTVSPost2010PropOp44
 70
     1
102
RTVSPost2010Prop45
280
     0
102
RTVSPost2010PropOp45
 70
     1
102
RTVSPost2010Prop46
 90
       50
102
RTVSPost2010PropOp46
 70
     1
102
RTVSPost2010Prop47
 90
       50
102
RTVSPost2010PropOp47
 70
     1
102
RTVSPost2010Prop48
 90
       50
102
RTVSPost2010PropOp48
 70
     1
102
RTVSPost2010Prop49
280
     0
102
RTVSPost2010PropOp49
 70
     1
102
RTVSPost2010Prop50
 90
       50
102
RTVSPost2010PropOp50
 70
     1
102
RTVSPost2010Prop51ColorIndex
 90
      256
102
RTVSPost2010Prop51ColorRGB
 90
-16777216
102
RTVSPost2010PropOp51
 70
     0
102
RTVSPost2010Prop52
140
1.0
102
RTVSPost2010PropOp52
 70
     0
102
RTVSPost2010Prop53
 90
        2
102
RTVSPost2010PropOp53
 70
     1
102
RTVSPost2010Prop54
  1
strokes_ogs.tif
102
RTVSPost2010PropOp54
 70
     1
102
RTVSPost2010Prop55
280
     0
102
RTVSPost2010PropOp55
 70
     1
102
RTVSPost2010Prop56
140
1.0
102
RTVSPost2010PropOp56
 70
     1
102
RTVSPost2010Prop57
140
1.0
102
RTVSPost2010PropOp57
 70
     1
102
RTVSPropertyOp0
 70
     1
102
RTVSPropertyOp1
 70
     1
102
RTVSPropertyOp2
 70
     1
102
RTVSPropertyOp3
 70
     1
102
RTVSPropertyOp4
 70
     1
102
RTVSPropertyOp5
 70
     1
102
RTVSPropertyOp6
 70
     1
102
RTVSPropertyOp7
 70
     1
102
RTVSPropertyOp8
 70
     1
102
RTVSPropertyOp9
 70
     1
102
RTVSPropertyOp10
 70
     1
102
RTVSPropertyOp11
 70
     1
102
RTVSPropertyOp12
 70
     1
102
RTVSPropertyOp13
 70
     1
102
RTVSPropertyOp14
 70
     1
102
RTVSPropertyOp15
 70
     1
102
RTVSPropertyOp16
 70
     1
102
RTVSPropertyOp17
 70
     1
102
RTVSPropertyOp18
 70
     1
102
RTVSPropertyOp19
 70
     1
102
RTVSPropertyOp20
 70
     1
102
RTVSPropertyOp21
 70
     1
102
RTVSPropertyOp22
 70
     1
102
RTVSPropertyOp23
 70
     1
102
RTVSPropertyOp24
 70
     1
102
RTVSPropertyOp25
 70
     1
102
RTVSPropertyOp26
 70
     1
102
RTVSPropertyOp27
 70
     1
102
RTVSPropertyOp28
 70
     1
102
RTVSPropertyOp29
 70
     1
102
RTVSPropertyOp30
 70
     1
102
RTVSPropertyOp31
 70
     1
102
RTVSPropertyOp32
 70
     1
102
RTVSPropertyOp33
 70
     1
102
RTVSPropertyOp34
 70
     1
102
RTVSPropertyOp35
 70
     1
102
RTVSPropertyOp36
 70
     1
102
RTVSPropertyOp37
 70
     1
102
RTVSPropertyOp38
 70
     1
102
RTVSPropertyOp39
 70
     1
102
RTVSPropertyOp40
 70
     1
102
RTVSPropertyOp41
 70
     1
102
RTVSPropertyOp42
 70
     1
102
RTVSPropertyOp43
 70
     1
102
RTVSPropertyOp44
 70
     1
102
RTVSPropertyOp45
 70
     1
102
RTVSPropertyOp46
 70
     1
102
RTVSPropertyOp47
 70
     1
102
RTVSPropertyOp48
 70
     1
102
RTVSPropertyOp49
 70
     1
102
RTVSPropertyOp50
 70
     1
102
RTVSPropertyOp51
 70
     0
102
RTVSPropertyOp52
 70
     0
102
RTVSPropertyOp53
 70
     1
102
RTVSPropertyOp54
 70
     1
102
RTVSPropertyOp55
 70
     1
102
RTVSPropertyOp56
 70
     1
102
RTVSPropertyOp57
 70
     1
102
RTVSPropertyOp58
 70
     1
102
RTVSPropertyOp59
 70
     1
102
RTVSPropertyOp60
 70
     1
102
RTVSPropertyOp61
 70
     1
102
RTVSPropertyOp62
 70
     1
  0
XRECORD
  5
37B
102
{ACAD_REACTORS
330
37A
102
}
330
37A
100
AcDbXrecord
280
     1
102
RTVSPost2010Prop28
280
     0
102
RTVSPost2010PropOp28
 70
     1
102
RTVSPost2010Prop29
280
     1
102
RTVSPost2010PropOp29
 70
     1
102
RTVSPost2010Prop30
280
     1
102
RTVSPost2010PropOp30
 70
     1
102
RTVSPost2010Prop31
280
     0
102
RTVSPost2010PropOp31
 70
     1
102
RTVSPost2010Prop32
280
     0
102
RTVSPost2010PropOp32
 70
     1
102
RTVSPost2010Prop33
280
     0
102
RTVSPost2010PropOp33
 70
     1
102
RTVSPost2010Prop34
280
     0
102
RTVSPost2010PropOp34
 70
     1
102
RTVSPost2010Prop35
280
     0
102
RTVSPost2010PropOp35
 70
     1
102
RTVSPost2010Prop36
280
     0
102
RTVSPost2010PropOp36
 70
     1
102
RTVSPost2010Prop37
 90
       50
102
RTVSPost2010PropOp37
 70
     1
102
RTVSPost2010Prop38
140
0.0
102
RTVSPost2010PropOp38
 70
     1
102
RTVSPost2010Prop39
140
1.0
102
RTVSPost2010PropOp39
 70
     1
102
RTVSPost2010Prop40
 90
        0
102
RTVSPost2010PropOp40
 70
     1
102
RTVSPost2010Prop41ColorIndex
 90
       18
102
RTVSPost2010Prop41ColorRGB
 90
        0
102
RTVSPost2010PropOp41
 70
     1
102
RTVSPost2010Prop42
 90
       50
102
RTVSPost2010PropOp42
 70
     1
102
RTVSPost2010Prop43
 90
        3
102
RTVSPost2010PropOp43
 70
     1
102
RTVSPost2010Prop44ColorIndex
 90
        5
102
RTVSPost2010Prop44ColorRGB
 90
      255
102
RTVSPost2010PropOp44
 70
     1
102
RTVSPost2010Prop45
280
     0
102
RTVSPost2010PropOp45
 70
     1
102
RTVSPost2010Prop46
 90
       50
102
RTVSPost2010PropOp46
 70
     1
102
RTVSPost2010Prop47
 90
       50
102
RTVSPost2010PropOp47
 70
     1
102
RTVSPost2010Prop48
 90
       50
102
RTVSPost2010PropOp48
 70
     1
102
RTVSPost2010Prop49
280
     0
102
RTVSPost2010PropOp49
 70
     1
102
RTVSPost2010Prop50
 90
       50
102
RTVSPost2010PropOp50
 70
     1
102
RTVSPost2010Prop51ColorIndex
 90
      256
102
RTVSPost2010Prop51ColorRGB
 90
-16777216
102
RTVSPost2010PropOp51
 70
     0
102
RTVSPost2010Prop52
140
1.0
102
RTVSPost2010PropOp52
 70
     0
102
RTVSPost2010Prop53
 90
        2
102
RTVSPost2010PropOp53
 70
     1
102
RTVSPost2010Prop54
  1
strokes_ogs.tif
102
RTVSPost2010PropOp54
 70
     1
102
RTVSPost2010Prop55
280
     0
102
RTVSPost2010PropOp55
 70
     1
102
RTVSPost2010Prop56
140
1.0
102
RTVSPost2010PropOp56
 70
     1
102
RTVSPost2010Prop57
140
1.0
102
RTVSPost2010PropOp57
 70
     1
102
RTVSPropertyOp0
 70
     1
102
RTVSPropertyOp1
 70
     1
102
RTVSPropertyOp2
 70
     1
102
RTVSPropertyOp3
 70
     1
102
RTVSPropertyOp4
 70
     1
102
RTVSPropertyOp5
 70
     1
102
RTVSPropertyOp6
 70
     1
102
RTVSPropertyOp7
 70
     1
102
RTVSPropertyOp8
 70
     1
102
RTVSPropertyOp9
 70
     1
102
RTVSPropertyOp10
 70
     1
102
RTVSPropertyOp11
 70
     1
102
RTVSPropertyOp12
 70
     1
102
RTVSPropertyOp13
 70
     1
102
RTVSPropertyOp14
 70
     1
102
RTVSPropertyOp15
 70
     1
102
RTVSPropertyOp16
 70
     1
102
RTVSPropertyOp17
 70
     1
102
RTVSPropertyOp18
 70
     1
102
RTVSPropertyOp19
 70
     1
102
RTVSPropertyOp20
 70
     1
102
RTVSPropertyOp21
 70
     1
102
RTVSPropertyOp22
 70
     1
102
RTVSPropertyOp23
 70
     1
102
RTVSPropertyOp24
 70
     1
102
RTVSPropertyOp25
 70
     1
102
RTVSPropertyOp26
 70
     1
102
RTVSPropertyOp27
 70
     1
102
RTVSPropertyOp28
 70
     1
102
RTVSPropertyOp29
 70
     1
102
RTVSPropertyOp30
 70
     1
102
RTVSPropertyOp31
 70
     1
102
RTVSPropertyOp32
 70
     1
102
RTVSPropertyOp33
 70
     1
102
RTVSPropertyOp34
 70
     1
102
RTVSPropertyOp35
 70
     1
102
RTVSPropertyOp36
 70
     1
102
RTVSPropertyOp37
 70
     1
102
RTVSPropertyOp38
 70
     1
102
RTVSPropertyOp39
 70
     1
102
RTVSPropertyOp40
 70
     1
102
RTVSPropertyOp41
 70
     1
102
RTVSPropertyOp42
 70
     1
102
RTVSPropertyOp43
 70
     1
102
RTVSPropertyOp44
 70
     1
102
RTVSPropertyOp45
 70
     1
102
RTVSPropertyOp46
 70
     1
102
RTVSPropertyOp47
 70
     1
102
RTVSPropertyOp48
 70
     1
102
RTVSPropertyOp49
 70
     1
102
RTVSPropertyOp50
 70
     1
102
RTVSPropertyOp51
 70
     0
102
RTVSPropertyOp52
 70
     0
102
RTVSPropertyOp53
 70
     1
102
RTVSPropertyOp54
 70
     1
102
RTVSPropertyOp55
 70
     1
102
RTVSPropertyOp56
 70
     1
102
RTVSPropertyOp57
 70
     1
102
RTVSPropertyOp58
 70
     1
102
RTVSPropertyOp59
 70
     1
102
RTVSPropertyOp60
 70
     1
102
RTVSPropertyOp61
 70
     1
102
RTVSPropertyOp62
 70
     1
  0
XRECORD
  5
38B
102
{ACAD_REACTORS
330
38A
102
}
330
38A
100
AcDbXrecord
280
     1
102
RTVSPost2010Prop28
280
     0
102
RTVSPost2010PropOp28
 70
     0
102
RTVSPost2010Prop29
280
     1
102
RTVSPost2010PropOp29
 70
     0
102
RTVSPost2010Prop30
280
     1
102
RTVSPost2010PropOp30
 70
     0
102
RTVSPost2010Prop31
280
     0
102
RTVSPost2010PropOp31
 70
     0
102
RTVSPost2010Prop32
280
     0
102
RTVSPost2010PropOp32
 70
     0
102
RTVSPost2010Prop33
280
     0
102
RTVSPost2010PropOp33
 70
     0
102
RTVSPost2010Prop34
280
     0
102
RTVSPost2010PropOp34
 70
     0
102
RTVSPost2010Prop35
280
     0
102
RTVSPost2010PropOp35
 70
     0
102
RTVSPost2010Prop36
280
     0
102
RTVSPost2010PropOp36
 70
     0
102
RTVSPost2010Prop37
 90
       50
102
RTVSPost2010PropOp37
 70
     0
102
RTVSPost2010Prop38
140
0.0
102
RTVSPost2010PropOp38
 70
     0
102
RTVSPost2010Prop39
140
1.0
102
RTVSPost2010PropOp39
 70
     0
102
RTVSPost2010Prop40
 90
        0
102
RTVSPost2010PropOp40
 70
     0
102
RTVSPost2010Prop41ColorIndex
 90
       18
102
RTVSPost2010Prop41ColorRGB
 90
        0
102
RTVSPost2010PropOp41
 70
     0
102
RTVSPost2010Prop42
 90
       50
102
RTVSPost2010PropOp42
 70
     0
102
RTVSPost2010Prop43
 90
        3
102
RTVSPost2010PropOp43
 70
     0
102
RTVSPost2010Prop44ColorIndex
 90
        5
102
RTVSPost2010Prop44ColorRGB
 90
      255
102
RTVSPost2010PropOp44
 70
     0
102
RTVSPost2010Prop45
280
     0
102
RTVSPost2010PropOp45
 70
     0
102
RTVSPost2010Prop46
 90
       50
102
RTVSPost2010PropOp46
 70
     0
102
RTVSPost2010Prop47
 90
       50
102
RTVSPost2010PropOp47
 70
     0
102
RTVSPost2010Prop48
 90
       50
102
RTVSPost2010PropOp48
 70
     0
102
RTVSPost2010Prop49
280
     0
102
RTVSPost2010PropOp49
 70
     0
102
RTVSPost2010Prop50
 90
       50
102
RTVSPost2010PropOp50
 70
     0
102
RTVSPost2010Prop51ColorIndex
 90
      256
102
RTVSPost2010Prop51ColorRGB
 90
-16777216
102
RTVSPost2010PropOp51
 70
     0
102
RTVSPost2010Prop52
140
1.0
102
RTVSPost2010PropOp52
 70
     0
102
RTVSPost2010Prop53
 90
        2
102
RTVSPost2010PropOp53
 70
     0
102
RTVSPost2010Prop54
  1
strokes_ogs.tif
102
RTVSPost2010PropOp54
 70
     0
102
RTVSPost2010Prop55
280
     0
102
RTVSPost2010PropOp55
 70
     0
102
RTVSPost2010Prop56
140
1.0
102
RTVSPost2010PropOp56
 70
     0
102
RTVSPost2010Prop57
140
1.0
102
RTVSPost2010PropOp57
 70
     0
102
RTVSPropertyOp0
 70
     0
102
RTVSPropertyOp1
 70
     0
102
RTVSPropertyOp2
 70
     0
102
RTVSPropertyOp3
 70
     0
102
RTVSPropertyOp4
 70
     0
102
RTVSPropertyOp5
 70
     0
102
RTVSPropertyOp6
 70
     0
102
RTVSPropertyOp7
 70
     0
102
RTVSPropertyOp8
 70
     0
102
RTVSPropertyOp9
 70
     0
102
RTVSPropertyOp10
 70
     0
102
RTVSPropertyOp11
 70
     0
102
RTVSPropertyOp12
 70
     0
102
RTVSPropertyOp13
 70
     0
102
RTVSPropertyOp14
 70
     2
102
RTVSPropertyOp15
 70
     0
102
RTVSPropertyOp16
 70
     0
102
RTVSPropertyOp17
 70
     0
102
RTVSPropertyOp18
 70
     0
102
RTVSPropertyOp19
 70
     0
102
RTVSPropertyOp20
 70
     0
102
RTVSPropertyOp21
 70
     0
102
RTVSPropertyOp22
 70
     0
102
RTVSPropertyOp23
 70
     0
102
RTVSPropertyOp24
 70
     0
102
RTVSPropertyOp25
 70
     0
102
RTVSPropertyOp26
 70
     0
102
RTVSPropertyOp27
 70
     0
102
RTVSPropertyOp28
 70
     0
102
RTVSPropertyOp29
 70
     0
102
RTVSPropertyOp30
 70
     0
102
RTVSPropertyOp31
 70
     0
102
RTVSPropertyOp32
 70
     0
102
RTVSPropertyOp33
 70
     0
102
RTVSPropertyOp34
 70
     0
102
RTVSPropertyOp35
 70
     0
102
RTVSPropertyOp36
 70
     0
102
RTVSPropertyOp37
 70
     0
102
RTVSPropertyOp38
 70
     0
102
RTVSPropertyOp39
 70
     0
102
RTVSPropertyOp40
 70
     0
102
RTVSPropertyOp41
 70
     0
102
RTVSPropertyOp42
 70
     0
102
RTVSPropertyOp43
 70
     0
102
RTVSPropertyOp44
 70
     0
102
RTVSPropertyOp45
 70
     0
102
RTVSPropertyOp46
 70
     0
102
RTVSPropertyOp47
 70
     0
102
RTVSPropertyOp48
 70
     0
102
RTVSPropertyOp49
 70
     0
102
RTVSPropertyOp50
 70
     0
102
RTVSPropertyOp51
 70
     0
102
RTVSPropertyOp52
 70
     0
102
RTVSPropertyOp53
 70
     0
102
RTVSPropertyOp54
 70
     0
102
RTVSPropertyOp55
 70
     0
102
RTVSPropertyOp56
 70
     0
102
RTVSPropertyOp57
 70
     0
102
RTVSPropertyOp58
 70
     1
102
RTVSPropertyOp59
 70
     1
102
RTVSPropertyOp60
 70
     1
102
RTVSPropertyOp61
 70
     1
102
RTVSPropertyOp62
 70
     1
  0
XRECORD
  5
383
102
{ACAD_REACTORS
330
382
102
}
330
382
100
AcDbXrecord
280
     1
102
RTVSPost2010Prop28
280
     0
102
RTVSPost2010PropOp28
 70
     1
102
RTVSPost2010Prop29
280
     1
102
RTVSPost2010PropOp29
 70
     1
102
RTVSPost2010Prop30
280
     1
102
RTVSPost2010PropOp30
 70
     1
102
RTVSPost2010Prop31
280
     0
102
RTVSPost2010PropOp31
 70
     1
102
RTVSPost2010Prop32
280
     0
102
RTVSPost2010PropOp32
 70
     1
102
RTVSPost2010Prop33
280
     0
102
RTVSPost2010PropOp33
 70
     1
102
RTVSPost2010Prop34
280
     0
102
RTVSPost2010PropOp34
 70
     1
102
RTVSPost2010Prop35
280
     0
102
RTVSPost2010PropOp35
 70
     1
102
RTVSPost2010Prop36
280
     0
102
RTVSPost2010PropOp36
 70
     1
102
RTVSPost2010Prop37
 90
       50
102
RTVSPost2010PropOp37
 70
     1
102
RTVSPost2010Prop38
140
0.0
102
RTVSPost2010PropOp38
 70
     1
102
RTVSPost2010Prop39
140
1.0
102
RTVSPost2010PropOp39
 70
     1
102
RTVSPost2010Prop40
 90
        0
102
RTVSPost2010PropOp40
 70
     1
102
RTVSPost2010Prop41ColorIndex
 90
       18
102
RTVSPost2010Prop41ColorRGB
 90
        0
102
RTVSPost2010PropOp41
 70
     1
102
RTVSPost2010Prop42
 90
       50
102
RTVSPost2010PropOp42
 70
     1
102
RTVSPost2010Prop43
 90
        3
102
RTVSPost2010PropOp43
 70
     1
102
RTVSPost2010Prop44ColorIndex
 90
        5
102
RTVSPost2010Prop44ColorRGB
 90
      255
102
RTVSPost2010PropOp44
 70
     1
102
RTVSPost2010Prop45
280
     0
102
RTVSPost2010PropOp45
 70
     1
102
RTVSPost2010Prop46
 90
       50
102
RTVSPost2010PropOp46
 70
     1
102
RTVSPost2010Prop47
 90
       50
102
RTVSPost2010PropOp47
 70
     1
102
RTVSPost2010Prop48
 90
       50
102
RTVSPost2010PropOp48
 70
     1
102
RTVSPost2010Prop49
280
     0
102
RTVSPost2010PropOp49
 70
     1
102
RTVSPost2010Prop50
 90
       50
102
RTVSPost2010PropOp50
 70
     1
102
RTVSPost2010Prop51ColorIndex
 90
      256
102
RTVSPost2010Prop51ColorRGB
 90
-16777216
102
RTVSPost2010PropOp51
 70
     0
102
RTVSPost2010Prop52
140
1.0
102
RTVSPost2010PropOp52
 70
     0
102
RTVSPost2010Prop53
 90
        2
102
RTVSPost2010PropOp53
 70
     1
102
RTVSPost2010Prop54
  1
strokes_ogs.tif
102
RTVSPost2010PropOp54
 70
     1
102
RTVSPost2010Prop55
280
     0
102
RTVSPost2010PropOp55
 70
     1
102
RTVSPost2010Prop56
140
1.0
102
RTVSPost2010PropOp56
 70
     1
102
RTVSPost2010Prop57
140
1.0
102
RTVSPost2010PropOp57
 70
     1
102
RTVSPropertyOp0
 70
     1
102
RTVSPropertyOp1
 70
     1
102
RTVSPropertyOp2
 70
     1
102
RTVSPropertyOp3
 70
     1
102
RTVSPropertyOp4
 70
     1
102
RTVSPropertyOp5
 70
     1
102
RTVSPropertyOp6
 70
     1
102
RTVSPropertyOp7
 70
     1
102
RTVSPropertyOp8
 70
     1
102
RTVSPropertyOp9
 70
     1
102
RTVSPropertyOp10
 70
     1
102
RTVSPropertyOp11
 70
     1
102
RTVSPropertyOp12
 70
     1
102
RTVSPropertyOp13
 70
     1
102
RTVSPropertyOp14
 70
     1
102
RTVSPropertyOp15
 70
     1
102
RTVSPropertyOp16
 70
     1
102
RTVSPropertyOp17
 70
     1
102
RTVSPropertyOp18
 70
     1
102
RTVSPropertyOp19
 70
     1
102
RTVSPropertyOp20
 70
     1
102
RTVSPropertyOp21
 70
     1
102
RTVSPropertyOp22
 70
     1
102
RTVSPropertyOp23
 70
     1
102
RTVSPropertyOp24
 70
     1
102
RTVSPropertyOp25
 70
     1
102
RTVSPropertyOp26
 70
     1
102
RTVSPropertyOp27
 70
     1
102
RTVSPropertyOp28
 70
     1
102
RTVSPropertyOp29
 70
     1
102
RTVSPropertyOp30
 70
     1
102
RTVSPropertyOp31
 70
     1
102
RTVSPropertyOp32
 70
     1
102
RTVSPropertyOp33
 70
     1
102
RTVSPropertyOp34
 70
     1
102
RTVSPropertyOp35
 70
     1
102
RTVSPropertyOp36
 70
     1
102
RTVSPropertyOp37
 70
     1
102
RTVSPropertyOp38
 70
     1
102
RTVSPropertyOp39
 70
     1
102
RTVSPropertyOp40
 70
     1
102
RTVSPropertyOp41
 70
     1
102
RTVSPropertyOp42
 70
     1
102
RTVSPropertyOp43
 70
     1
102
RTVSPropertyOp44
 70
     1
102
RTVSPropertyOp45
 70
     1
102
RTVSPropertyOp46
 70
     1
102
RTVSPropertyOp47
 70
     1
102
RTVSPropertyOp48
 70
     1
102
RTVSPropertyOp49
 70
     1
102
RTVSPropertyOp50
 70
     1
102
RTVSPropertyOp51
 70
     0
102
RTVSPropertyOp52
 70
     0
102
RTVSPropertyOp53
 70
     1
102
RTVSPropertyOp54
 70
     1
102
RTVSPropertyOp55
 70
     1
102
RTVSPropertyOp56
 70
     1
102
RTVSPropertyOp57
 70
     1
102
RTVSPropertyOp58
 70
     1
102
RTVSPropertyOp59
 70
     1
102
RTVSPropertyOp60
 70
     1
102
RTVSPropertyOp61
 70
     1
102
RTVSPropertyOp62
 70
     1
  0
XRECORD
  5
367
102
{ACAD_REACTORS
330
366
102
}
330
366
100
AcDbXrecord
280
     1
102
RTVSPost2010Prop28
280
     0
102
RTVSPost2010PropOp28
 70
     1
102
RTVSPost2010Prop29
280
     1
102
RTVSPost2010PropOp29
 70
     1
102
RTVSPost2010Prop30
280
     1
102
RTVSPost2010PropOp30
 70
     1
102
RTVSPost2010Prop31
280
     0
102
RTVSPost2010PropOp31
 70
     1
102
RTVSPost2010Prop32
280
     0
102
RTVSPost2010PropOp32
 70
     1
102
RTVSPost2010Prop33
280
     0
102
RTVSPost2010PropOp33
 70
     1
102
RTVSPost2010Prop34
280
     0
102
RTVSPost2010PropOp34
 70
     1
102
RTVSPost2010Prop35
280
     0
102
RTVSPost2010PropOp35
 70
     1
102
RTVSPost2010Prop36
280
     0
102
RTVSPost2010PropOp36
 70
     1
102
RTVSPost2010Prop37
 90
       50
102
RTVSPost2010PropOp37
 70
     1
102
RTVSPost2010Prop38
140
0.0
102
RTVSPost2010PropOp38
 70
     1
102
RTVSPost2010Prop39
140
1.0
102
RTVSPost2010PropOp39
 70
     1
102
RTVSPost2010Prop40
 90
        0
102
RTVSPost2010PropOp40
 70
     1
102
RTVSPost2010Prop41ColorIndex
 90
       18
102
RTVSPost2010Prop41ColorRGB
 90
        0
102
RTVSPost2010PropOp41
 70
     1
102
RTVSPost2010Prop42
 90
       50
102
RTVSPost2010PropOp42
 70
     1
102
RTVSPost2010Prop43
 90
        3
102
RTVSPost2010PropOp43
 70
     1
102
RTVSPost2010Prop44ColorIndex
 90
        5
102
RTVSPost2010Prop44ColorRGB
 90
      255
102
RTVSPost2010PropOp44
 70
     1
102
RTVSPost2010Prop45
280
     0
102
RTVSPost2010PropOp45
 70
     1
102
RTVSPost2010Prop46
 90
       50
102
RTVSPost2010PropOp46
 70
     1
102
RTVSPost2010Prop47
 90
       50
102
RTVSPost2010PropOp47
 70
     1
102
RTVSPost2010Prop48
 90
       50
102
RTVSPost2010PropOp48
 70
     1
102
RTVSPost2010Prop49
280
     0
102
RTVSPost2010PropOp49
 70
     1
102
RTVSPost2010Prop50
 90
       50
102
RTVSPost2010PropOp50
 70
     1
102
RTVSPost2010Prop51ColorIndex
 90
      256
102
RTVSPost2010Prop51ColorRGB
 90
-16777216
102
RTVSPost2010PropOp51
 70
     0
102
RTVSPost2010Prop52
140
1.0
102
RTVSPost2010PropOp52
 70
     0
102
RTVSPost2010Prop53
 90
        2
102
RTVSPost2010PropOp53
 70
     1
102
RTVSPost2010Prop54
  1
strokes_ogs.tif
102
RTVSPost2010PropOp54
 70
     1
102
RTVSPost2010Prop55
280
     0
102
RTVSPost2010PropOp55
 70
     1
102
RTVSPost2010Prop56
140
1.0
102
RTVSPost2010PropOp56
 70
     1
102
RTVSPost2010Prop57
140
1.0
102
RTVSPost2010PropOp57
 70
     1
102
RTVSPropertyOp0
 70
     1
102
RTVSPropertyOp1
 70
     1
102
RTVSPropertyOp2
 70
     1
102
RTVSPropertyOp3
 70
     1
102
RTVSPropertyOp4
 70
     1
102
RTVSPropertyOp5
 70
     1
102
RTVSPropertyOp6
 70
     1
102
RTVSPropertyOp7
 70
     1
102
RTVSPropertyOp8
 70
     1
102
RTVSPropertyOp9
 70
     1
102
RTVSPropertyOp10
 70
     1
102
RTVSPropertyOp11
 70
     1
102
RTVSPropertyOp12
 70
     1
102
RTVSPropertyOp13
 70
     1
102
RTVSPropertyOp14
 70
     1
102
RTVSPropertyOp15
 70
     1
102
RTVSPropertyOp16
 70
     1
102
RTVSPropertyOp17
 70
     1
102
RTVSPropertyOp18
 70
     1
102
RTVSPropertyOp19
 70
     1
102
RTVSPropertyOp20
 70
     1
102
RTVSPropertyOp21
 70
     1
102
RTVSPropertyOp22
 70
     1
102
RTVSPropertyOp23
 70
     1
102
RTVSPropertyOp24
 70
     1
102
RTVSPropertyOp25
 70
     1
102
RTVSPropertyOp26
 70
     1
102
RTVSPropertyOp27
 70
     1
102
RTVSPropertyOp28
 70
     1
102
RTVSPropertyOp29
 70
     1
102
RTVSPropertyOp30
 70
     1
102
RTVSPropertyOp31
 70
     1
102
RTVSPropertyOp32
 70
     1
102
RTVSPropertyOp33
 70
     1
102
RTVSPropertyOp34
 70
     1
102
RTVSPropertyOp35
 70
     1
102
RTVSPropertyOp36
 70
     1
102
RTVSPropertyOp37
 70
     1
102
RTVSPropertyOp38
 70
     1
102
RTVSPropertyOp39
 70
     1
102
RTVSPropertyOp40
 70
     1
102
RTVSPropertyOp41
 70
     1
102
RTVSPropertyOp42
 70
     1
102
RTVSPropertyOp43
 70
     1
102
RTVSPropertyOp44
 70
     1
102
RTVSPropertyOp45
 70
     1
102
RTVSPropertyOp46
 70
     1
102
RTVSPropertyOp47
 70
     1
102
RTVSPropertyOp48
 70
     1
102
RTVSPropertyOp49
 70
     1
102
RTVSPropertyOp50
 70
     1
102
RTVSPropertyOp51
 70
     0
102
RTVSPropertyOp52
 70
     0
102
RTVSPropertyOp53
 70
     1
102
RTVSPropertyOp54
 70
     1
102
RTVSPropertyOp55
 70
     1
102
RTVSPropertyOp56
 70
     1
102
RTVSPropertyOp57
 70
     1
102
RTVSPropertyOp58
 70
     1
102
RTVSPropertyOp59
 70
     1
102
RTVSPropertyOp60
 70
     1
102
RTVSPropertyOp61
 70
     1
102
RTVSPropertyOp62
 70
     1
  0
XRECORD
  5
369
102
{ACAD_REACTORS
330
368
102
}
330
368
100
AcDbXrecord
280
     1
102
RTVSPost2010Prop28
280
     0
102
RTVSPost2010PropOp28
 70
     1
102
RTVSPost2010Prop29
280
     1
102
RTVSPost2010PropOp29
 70
     1
102
RTVSPost2010Prop30
280
     1
102
RTVSPost2010PropOp30
 70
     1
102
RTVSPost2010Prop31
280
     0
102
RTVSPost2010PropOp31
 70
     1
102
RTVSPost2010Prop32
280
     0
102
RTVSPost2010PropOp32
 70
     1
102
RTVSPost2010Prop33
280
     0
102
RTVSPost2010PropOp33
 70
     1
102
RTVSPost2010Prop34
280
     0
102
RTVSPost2010PropOp34
 70
     1
102
RTVSPost2010Prop35
280
     0
102
RTVSPost2010PropOp35
 70
     1
102
RTVSPost2010Prop36
280
     0
102
RTVSPost2010PropOp36
 70
     1
102
RTVSPost2010Prop37
 90
       50
102
RTVSPost2010PropOp37
 70
     1
102
RTVSPost2010Prop38
140
0.0
102
RTVSPost2010PropOp38
 70
     1
102
RTVSPost2010Prop39
140
1.0
102
RTVSPost2010PropOp39
 70
     1
102
RTVSPost2010Prop40
 90
        0
102
RTVSPost2010PropOp40
 70
     1
102
RTVSPost2010Prop41ColorIndex
 90
       18
102
RTVSPost2010Prop41ColorRGB
 90
        0
102
RTVSPost2010PropOp41
 70
     1
102
RTVSPost2010Prop42
 90
       50
102
RTVSPost2010PropOp42
 70
     1
102
RTVSPost2010Prop43
 90
        3
102
RTVSPost2010PropOp43
 70
     1
102
RTVSPost2010Prop44ColorIndex
 90
        5
102
RTVSPost2010Prop44ColorRGB
 90
      255
102
RTVSPost2010PropOp44
 70
     1
102
RTVSPost2010Prop45
280
     0
102
RTVSPost2010PropOp45
 70
     1
102
RTVSPost2010Prop46
 90
       50
102
RTVSPost2010PropOp46
 70
     1
102
RTVSPost2010Prop47
 90
       50
102
RTVSPost2010PropOp47
 70
     1
102
RTVSPost2010Prop48
 90
       50
102
RTVSPost2010PropOp48
 70
     1
102
RTVSPost2010Prop49
280
     0
102
RTVSPost2010PropOp49
 70
     1
102
RTVSPost2010Prop50
 90
       50
102
RTVSPost2010PropOp50
 70
     1
102
RTVSPost2010Prop51ColorIndex
 90
      256
102
RTVSPost2010Prop51ColorRGB
 90
-16777216
102
RTVSPost2010PropOp51
 70
     0
102
RTVSPost2010Prop52
140
1.0
102
RTVSPost2010PropOp52
 70
     0
102
RTVSPost2010Prop53
 90
        2
102
RTVSPost2010PropOp53
 70
     1
102
RTVSPost2010Prop54
  1
strokes_ogs.tif
102
RTVSPost2010PropOp54
 70
     1
102
RTVSPost2010Prop55
280
     0
102
RTVSPost2010PropOp55
 70
     1
102
RTVSPost2010Prop56
140
1.0
102
RTVSPost2010PropOp56
 70
     1
102
RTVSPost2010Prop57
140
1.0
102
RTVSPost2010PropOp57
 70
     1
102
RTVSPropertyOp0
 70
     1
102
RTVSPropertyOp1
 70
     1
102
RTVSPropertyOp2
 70
     1
102
RTVSPropertyOp3
 70
     1
102
RTVSPropertyOp4
 70
     1
102
RTVSPropertyOp5
 70
     1
102
RTVSPropertyOp6
 70
     1
102
RTVSPropertyOp7
 70
     1
102
RTVSPropertyOp8
 70
     1
102
RTVSPropertyOp9
 70
     1
102
RTVSPropertyOp10
 70
     1
102
RTVSPropertyOp11
 70
     1
102
RTVSPropertyOp12
 70
     1
102
RTVSPropertyOp13
 70
     1
102
RTVSPropertyOp14
 70
     1
102
RTVSPropertyOp15
 70
     1
102
RTVSPropertyOp16
 70
     1
102
RTVSPropertyOp17
 70
     1
102
RTVSPropertyOp18
 70
     1
102
RTVSPropertyOp19
 70
     1
102
RTVSPropertyOp20
 70
     1
102
RTVSPropertyOp21
 70
     1
102
RTVSPropertyOp22
 70
     1
102
RTVSPropertyOp23
 70
     1
102
RTVSPropertyOp24
 70
     1
102
RTVSPropertyOp25
 70
     1
102
RTVSPropertyOp26
 70
     1
102
RTVSPropertyOp27
 70
     1
102
RTVSPropertyOp28
 70
     1
102
RTVSPropertyOp29
 70
     1
102
RTVSPropertyOp30
 70
     1
102
RTVSPropertyOp31
 70
     1
102
RTVSPropertyOp32
 70
     1
102
RTVSPropertyOp33
 70
     1
102
RTVSPropertyOp34
 70
     1
102
RTVSPropertyOp35
 70
     1
102
RTVSPropertyOp36
 70
     1
102
RTVSPropertyOp37
 70
     1
102
RTVSPropertyOp38
 70
     1
102
RTVSPropertyOp39
 70
     1
102
RTVSPropertyOp40
 70
     1
102
RTVSPropertyOp41
 70
     1
102
RTVSPropertyOp42
 70
     1
102
RTVSPropertyOp43
 70
     1
102
RTVSPropertyOp44
 70
     1
102
RTVSPropertyOp45
 70
     1
102
RTVSPropertyOp46
 70
     1
102
RTVSPropertyOp47
 70
     1
102
RTVSPropertyOp48
 70
     1
102
RTVSPropertyOp49
 70
     1
102
RTVSPropertyOp50
 70
     1
102
RTVSPropertyOp51
 70
     0
102
RTVSPropertyOp52
 70
     0
102
RTVSPropertyOp53
 70
     1
102
RTVSPropertyOp54
 70
     1
102
RTVSPropertyOp55
 70
     1
102
RTVSPropertyOp56
 70
     1
102
RTVSPropertyOp57
 70
     1
102
RTVSPropertyOp58
 70
     1
102
RTVSPropertyOp59
 70
     1
102
RTVSPropertyOp60
 70
     1
102
RTVSPropertyOp61
 70
     1
102
RTVSPropertyOp62
 70
     1
  0
XRECORD
  5
36B
102
{ACAD_REACTORS
330
36A
102
}
330
36A
100
AcDbXrecord
280
     1
102
RTVSPost2010Prop28
280
     0
102
RTVSPost2010PropOp28
 70
     1
102
RTVSPost2010Prop29
280
     1
102
RTVSPost2010PropOp29
 70
     1
102
RTVSPost2010Prop30
280
     1
102
RTVSPost2010PropOp30
 70
     1
102
RTVSPost2010Prop31
280
     0
102
RTVSPost2010PropOp31
 70
     1
102
RTVSPost2010Prop32
280
     0
102
RTVSPost2010PropOp32
 70
     1
102
RTVSPost2010Prop33
280
     0
102
RTVSPost2010PropOp33
 70
     1
102
RTVSPost2010Prop34
280
     0
102
RTVSPost2010PropOp34
 70
     1
102
RTVSPost2010Prop35
280
     0
102
RTVSPost2010PropOp35
 70
     1
102
RTVSPost2010Prop36
280
     0
102
RTVSPost2010PropOp36
 70
     1
102
RTVSPost2010Prop37
 90
       50
102
RTVSPost2010PropOp37
 70
     1
102
RTVSPost2010Prop38
140
0.0
102
RTVSPost2010PropOp38
 70
     1
102
RTVSPost2010Prop39
140
1.0
102
RTVSPost2010PropOp39
 70
     1
102
RTVSPost2010Prop40
 90
        0
102
RTVSPost2010PropOp40
 70
     1
102
RTVSPost2010Prop41ColorIndex
 90
       18
102
RTVSPost2010Prop41ColorRGB
 90
        0
102
RTVSPost2010PropOp41
 70
     1
102
RTVSPost2010Prop42
 90
       50
102
RTVSPost2010PropOp42
 70
     1
102
RTVSPost2010Prop43
 90
        3
102
RTVSPost2010PropOp43
 70
     1
102
RTVSPost2010Prop44ColorIndex
 90
        5
102
RTVSPost2010Prop44ColorRGB
 90
      255
102
RTVSPost2010PropOp44
 70
     1
102
RTVSPost2010Prop45
280
     0
102
RTVSPost2010PropOp45
 70
     1
102
RTVSPost2010Prop46
 90
       50
102
RTVSPost2010PropOp46
 70
     1
102
RTVSPost2010Prop47
 90
       50
102
RTVSPost2010PropOp47
 70
     1
102
RTVSPost2010Prop48
 90
       50
102
RTVSPost2010PropOp48
 70
     1
102
RTVSPost2010Prop49
280
     0
102
RTVSPost2010PropOp49
 70
     1
102
RTVSPost2010Prop50
 90
       50
102
RTVSPost2010PropOp50
 70
     1
102
RTVSPost2010Prop51ColorIndex
 90
      256
102
RTVSPost2010Prop51ColorRGB
 90
-16777216
102
RTVSPost2010PropOp51
 70
     0
102
RTVSPost2010Prop52
140
1.0
102
RTVSPost2010PropOp52
 70
     0
102
RTVSPost2010Prop53
 90
        2
102
RTVSPost2010PropOp53
 70
     1
102
RTVSPost2010Prop54
  1
strokes_ogs.tif
102
RTVSPost2010PropOp54
 70
     1
102
RTVSPost2010Prop55
280
     0
102
RTVSPost2010PropOp55
 70
     1
102
RTVSPost2010Prop56
140
1.0
102
RTVSPost2010PropOp56
 70
     1
102
RTVSPost2010Prop57
140
1.0
102
RTVSPost2010PropOp57
 70
     1
102
RTVSPropertyOp0
 70
     1
102
RTVSPropertyOp1
 70
     1
102
RTVSPropertyOp2
 70
     1
102
RTVSPropertyOp3
 70
     1
102
RTVSPropertyOp4
 70
     1
102
RTVSPropertyOp5
 70
     1
102
RTVSPropertyOp6
 70
     1
102
RTVSPropertyOp7
 70
     1
102
RTVSPropertyOp8
 70
     1
102
RTVSPropertyOp9
 70
     1
102
RTVSPropertyOp10
 70
     1
102
RTVSPropertyOp11
 70
     1
102
RTVSPropertyOp12
 70
     1
102
RTVSPropertyOp13
 70
     1
102
RTVSPropertyOp14
 70
     1
102
RTVSPropertyOp15
 70
     1
102
RTVSPropertyOp16
 70
     1
102
RTVSPropertyOp17
 70
     1
102
RTVSPropertyOp18
 70
     1
102
RTVSPropertyOp19
 70
     1
102
RTVSPropertyOp20
 70
     1
102
RTVSPropertyOp21
 70
     1
102
RTVSPropertyOp22
 70
     1
102
RTVSPropertyOp23
 70
     1
102
RTVSPropertyOp24
 70
     1
102
RTVSPropertyOp25
 70
     1
102
RTVSPropertyOp26
 70
     1
102
RTVSPropertyOp27
 70
     1
102
RTVSPropertyOp28
 70
     1
102
RTVSPropertyOp29
 70
     1
102
RTVSPropertyOp30
 70
     1
102
RTVSPropertyOp31
 70
     1
102
RTVSPropertyOp32
 70
     1
102
RTVSPropertyOp33
 70
     1
102
RTVSPropertyOp34
 70
     1
102
RTVSPropertyOp35
 70
     1
102
RTVSPropertyOp36
 70
     1
102
RTVSPropertyOp37
 70
     1
102
RTVSPropertyOp38
 70
     1
102
RTVSPropertyOp39
 70
     1
102
RTVSPropertyOp40
 70
     1
102
RTVSPropertyOp41
 70
     1
102
RTVSPropertyOp42
 70
     1
102
RTVSPropertyOp43
 70
     1
102
RTVSPropertyOp44
 70
     1
102
RTVSPropertyOp45
 70
     1
102
RTVSPropertyOp46
 70
     1
102
RTVSPropertyOp47
 70
     1
102
RTVSPropertyOp48
 70
     1
102
RTVSPropertyOp49
 70
     1
102
RTVSPropertyOp50
 70
     1
102
RTVSPropertyOp51
 70
     0
102
RTVSPropertyOp52
 70
     0
102
RTVSPropertyOp53
 70
     1
102
RTVSPropertyOp54
 70
     1
102
RTVSPropertyOp55
 70
     1
102
RTVSPropertyOp56
 70
     1
102
RTVSPropertyOp57
 70
     1
102
RTVSPropertyOp58
 70
     1
102
RTVSPropertyOp59
 70
     1
102
RTVSPropertyOp60
 70
     1
102
RTVSPropertyOp61
 70
     1
102
RTVSPropertyOp62
 70
     1
  0
XRECORD
  5
36D
102
{ACAD_REACTORS
330
36C
102
}
330
36C
100
AcDbXrecord
280
     1
102
RTVSPost2010Prop28
280
     0
102
RTVSPost2010PropOp28
 70
     1
102
RTVSPost2010Prop29
280
     1
102
RTVSPost2010PropOp29
 70
     1
102
RTVSPost2010Prop30
280
     1
102
RTVSPost2010PropOp30
 70
     1
102
RTVSPost2010Prop31
280
     0
102
RTVSPost2010PropOp31
 70
     1
102
RTVSPost2010Prop32
280
     0
102
RTVSPost2010PropOp32
 70
     1
102
RTVSPost2010Prop33
280
     0
102
RTVSPost2010PropOp33
 70
     1
102
RTVSPost2010Prop34
280
     0
102
RTVSPost2010PropOp34
 70
     1
102
RTVSPost2010Prop35
280
     0
102
RTVSPost2010PropOp35
 70
     1
102
RTVSPost2010Prop36
280
     0
102
RTVSPost2010PropOp36
 70
     1
102
RTVSPost2010Prop37
 90
       50
102
RTVSPost2010PropOp37
 70
     1
102
RTVSPost2010Prop38
140
0.0
102
RTVSPost2010PropOp38
 70
     1
102
RTVSPost2010Prop39
140
1.0
102
RTVSPost2010PropOp39
 70
     1
102
RTVSPost2010Prop40
 90
        0
102
RTVSPost2010PropOp40
 70
     1
102
RTVSPost2010Prop41ColorIndex
 90
       18
102
RTVSPost2010Prop41ColorRGB
 90
        0
102
RTVSPost2010PropOp41
 70
     1
102
RTVSPost2010Prop42
 90
       50
102
RTVSPost2010PropOp42
 70
     1
102
RTVSPost2010Prop43
 90
        3
102
RTVSPost2010PropOp43
 70
     1
102
RTVSPost2010Prop44ColorIndex
 90
        5
102
RTVSPost2010Prop44ColorRGB
 90
      255
102
RTVSPost2010PropOp44
 70
     1
102
RTVSPost2010Prop45
280
     0
102
RTVSPost2010PropOp45
 70
     1
102
RTVSPost2010Prop46
 90
       50
102
RTVSPost2010PropOp46
 70
     1
102
RTVSPost2010Prop47
 90
       50
102
RTVSPost2010PropOp47
 70
     1
102
RTVSPost2010Prop48
 90
       50
102
RTVSPost2010PropOp48
 70
     1
102
RTVSPost2010Prop49
280
     0
102
RTVSPost2010PropOp49
 70
     1
102
RTVSPost2010Prop50
 90
       50
102
RTVSPost2010PropOp50
 70
     1
102
RTVSPost2010Prop51ColorIndex
 90
      256
102
RTVSPost2010Prop51ColorRGB
 90
-16777216
102
RTVSPost2010PropOp51
 70
     0
102
RTVSPost2010Prop52
140
1.0
102
RTVSPost2010PropOp52
 70
     0
102
RTVSPost2010Prop53
 90
        2
102
RTVSPost2010PropOp53
 70
     1
102
RTVSPost2010Prop54
  1
strokes_ogs.tif
102
RTVSPost2010PropOp54
 70
     1
102
RTVSPost2010Prop55
280
     0
102
RTVSPost2010PropOp55
 70
     1
102
RTVSPost2010Prop56
140
1.0
102
RTVSPost2010PropOp56
 70
     1
102
RTVSPost2010Prop57
140
1.0
102
RTVSPost2010PropOp57
 70
     1
102
RTVSPropertyOp0
 70
     1
102
RTVSPropertyOp1
 70
     1
102
RTVSPropertyOp2
 70
     1
102
RTVSPropertyOp3
 70
     1
102
RTVSPropertyOp4
 70
     1
102
RTVSPropertyOp5
 70
     1
102
RTVSPropertyOp6
 70
     1
102
RTVSPropertyOp7
 70
     1
102
RTVSPropertyOp8
 70
     1
102
RTVSPropertyOp9
 70
     1
102
RTVSPropertyOp10
 70
     1
102
RTVSPropertyOp11
 70
     1
102
RTVSPropertyOp12
 70
     1
102
RTVSPropertyOp13
 70
     1
102
RTVSPropertyOp14
 70
     1
102
RTVSPropertyOp15
 70
     1
102
RTVSPropertyOp16
 70
     1
102
RTVSPropertyOp17
 70
     1
102
RTVSPropertyOp18
 70
     1
102
RTVSPropertyOp19
 70
     1
102
RTVSPropertyOp20
 70
     1
102
RTVSPropertyOp21
 70
     1
102
RTVSPropertyOp22
 70
     1
102
RTVSPropertyOp23
 70
     1
102
RTVSPropertyOp24
 70
     1
102
RTVSPropertyOp25
 70
     1
102
RTVSPropertyOp26
 70
     1
102
RTVSPropertyOp27
 70
     1
102
RTVSPropertyOp28
 70
     1
102
RTVSPropertyOp29
 70
     1
102
RTVSPropertyOp30
 70
     1
102
RTVSPropertyOp31
 70
     1
102
RTVSPropertyOp32
 70
     1
102
RTVSPropertyOp33
 70
     1
102
RTVSPropertyOp34
 70
     1
102
RTVSPropertyOp35
 70
     1
102
RTVSPropertyOp36
 70
     1
102
RTVSPropertyOp37
 70
     1
102
RTVSPropertyOp38
 70
     1
102
RTVSPropertyOp39
 70
     1
102
RTVSPropertyOp40
 70
     1
102
RTVSPropertyOp41
 70
     1
102
RTVSPropertyOp42
 70
     1
102
RTVSPropertyOp43
 70
     1
102
RTVSPropertyOp44
 70
     1
102
RTVSPropertyOp45
 70
     1
102
RTVSPropertyOp46
 70
     1
102
RTVSPropertyOp47
 70
     1
102
RTVSPropertyOp48
 70
     1
102
RTVSPropertyOp49
 70
     1
102
RTVSPropertyOp50
 70
     1
102
RTVSPropertyOp51
 70
     0
102
RTVSPropertyOp52
 70
     0
102
RTVSPropertyOp53
 70
     1
102
RTVSPropertyOp54
 70
     1
102
RTVSPropertyOp55
 70
     1
102
RTVSPropertyOp56
 70
     1
102
RTVSPropertyOp57
 70
     1
102
RTVSPropertyOp58
 70
     1
102
RTVSPropertyOp59
 70
     1
102
RTVSPropertyOp60
 70
     1
102
RTVSPropertyOp61
 70
     1
102
RTVSPropertyOp62
 70
     1
  0
XRECORD
  5
373
102
{ACAD_REACTORS
330
372
102
}
330
372
100
AcDbXrecord
280
     1
102
RTVSPost2010Prop28
280
     0
102
RTVSPost2010PropOp28
 70
     1
102
RTVSPost2010Prop29
280
     1
102
RTVSPost2010PropOp29
 70
     1
102
RTVSPost2010Prop30
280
     1
102
RTVSPost2010PropOp30
 70
     1
102
RTVSPost2010Prop31
280
     0
102
RTVSPost2010PropOp31
 70
     1
102
RTVSPost2010Prop32
280
     0
102
RTVSPost2010PropOp32
 70
     1
102
RTVSPost2010Prop33
280
     0
102
RTVSPost2010PropOp33
 70
     1
102
RTVSPost2010Prop34
280
     0
102
RTVSPost2010PropOp34
 70
     1
102
RTVSPost2010Prop35
280
     0
102
RTVSPost2010PropOp35
 70
     1
102
RTVSPost2010Prop36
280
     0
102
RTVSPost2010PropOp36
 70
     1
102
RTVSPost2010Prop37
 90
       50
102
RTVSPost2010PropOp37
 70
     1
102
RTVSPost2010Prop38
140
0.0
102
RTVSPost2010PropOp38
 70
     1
102
RTVSPost2010Prop39
140
1.0
102
RTVSPost2010PropOp39
 70
     1
102
RTVSPost2010Prop40
 90
        0
102
RTVSPost2010PropOp40
 70
     1
102
RTVSPost2010Prop41ColorIndex
 90
       18
102
RTVSPost2010Prop41ColorRGB
 90
        0
102
RTVSPost2010PropOp41
 70
     1
102
RTVSPost2010Prop42
 90
       50
102
RTVSPost2010PropOp42
 70
     1
102
RTVSPost2010Prop43
 90
        3
102
RTVSPost2010PropOp43
 70
     1
102
RTVSPost2010Prop44ColorIndex
 90
        5
102
RTVSPost2010Prop44ColorRGB
 90
      255
102
RTVSPost2010PropOp44
 70
     1
102
RTVSPost2010Prop45
280
     0
102
RTVSPost2010PropOp45
 70
     1
102
RTVSPost2010Prop46
 90
       50
102
RTVSPost2010PropOp46
 70
     1
102
RTVSPost2010Prop47
 90
       50
102
RTVSPost2010PropOp47
 70
     1
102
RTVSPost2010Prop48
 90
       50
102
RTVSPost2010PropOp48
 70
     1
102
RTVSPost2010Prop49
280
     0
102
RTVSPost2010PropOp49
 70
     1
102
RTVSPost2010Prop50
 90
       50
102
RTVSPost2010PropOp50
 70
     1
102
RTVSPost2010Prop51ColorIndex
 90
      256
102
RTVSPost2010Prop51ColorRGB
 90
-16777216
102
RTVSPost2010PropOp51
 70
     0
102
RTVSPost2010Prop52
140
1.0
102
RTVSPost2010PropOp52
 70
     0
102
RTVSPost2010Prop53
 90
        2
102
RTVSPost2010PropOp53
 70
     1
102
RTVSPost2010Prop54
  1
strokes_ogs.tif
102
RTVSPost2010PropOp54
 70
     1
102
RTVSPost2010Prop55
280
     0
102
RTVSPost2010PropOp55
 70
     1
102
RTVSPost2010Prop56
140
1.0
102
RTVSPost2010PropOp56
 70
     1
102
RTVSPost2010Prop57
140
1.0
102
RTVSPost2010PropOp57
 70
     1
102
RTVSPropertyOp0
 70
     1
102
RTVSPropertyOp1
 70
     1
102
RTVSPropertyOp2
 70
     1
102
RTVSPropertyOp3
 70
     1
102
RTVSPropertyOp4
 70
     1
102
RTVSPropertyOp5
 70
     1
102
RTVSPropertyOp6
 70
     1
102
RTVSPropertyOp7
 70
     1
102
RTVSPropertyOp8
 70
     1
102
RTVSPropertyOp9
 70
     1
102
RTVSPropertyOp10
 70
     1
102
RTVSPropertyOp11
 70
     1
102
RTVSPropertyOp12
 70
     1
102
RTVSPropertyOp13
 70
     1
102
RTVSPropertyOp14
 70
     1
102
RTVSPropertyOp15
 70
     1
102
RTVSPropertyOp16
 70
     1
102
RTVSPropertyOp17
 70
     1
102
RTVSPropertyOp18
 70
     1
102
RTVSPropertyOp19
 70
     1
102
RTVSPropertyOp20
 70
     1
102
RTVSPropertyOp21
 70
     1
102
RTVSPropertyOp22
 70
     1
102
RTVSPropertyOp23
 70
     1
102
RTVSPropertyOp24
 70
     1
102
RTVSPropertyOp25
 70
     1
102
RTVSPropertyOp26
 70
     1
102
RTVSPropertyOp27
 70
     1
102
RTVSPropertyOp28
 70
     1
102
RTVSPropertyOp29
 70
     1
102
RTVSPropertyOp30
 70
     1
102
RTVSPropertyOp31
 70
     1
102
RTVSPropertyOp32
 70
     1
102
RTVSPropertyOp33
 70
     1
102
RTVSPropertyOp34
 70
     1
102
RTVSPropertyOp35
 70
     1
102
RTVSPropertyOp36
 70
     1
102
RTVSPropertyOp37
 70
     1
102
RTVSPropertyOp38
 70
     1
102
RTVSPropertyOp39
 70
     1
102
RTVSPropertyOp40
 70
     1
102
RTVSPropertyOp41
 70
     1
102
RTVSPropertyOp42
 70
     1
102
RTVSPropertyOp43
 70
     1
102
RTVSPropertyOp44
 70
     1
102
RTVSPropertyOp45
 70
     1
102
RTVSPropertyOp46
 70
     1
102
RTVSPropertyOp47
 70
     1
102
RTVSPropertyOp48
 70
     1
102
RTVSPropertyOp49
 70
     1
102
RTVSPropertyOp50
 70
     1
102
RTVSPropertyOp51
 70
     0
102
RTVSPropertyOp52
 70
     0
102
RTVSPropertyOp53
 70
     1
102
RTVSPropertyOp54
 70
     1
102
RTVSPropertyOp55
 70
     1
102
RTVSPropertyOp56
 70
     1
102
RTVSPropertyOp57
 70
     1
102
RTVSPropertyOp58
 70
     1
102
RTVSPropertyOp59
 70
     1
102
RTVSPropertyOp60
 70
     1
102
RTVSPropertyOp61
 70
     1
102
RTVSPropertyOp62
 70
     1
  0
XRECORD
  5
387
102
{ACAD_REACTORS
330
386
102
}
330
386
100
AcDbXrecord
280
     1
102
RTVSPost2010Prop28
280
     0
102
RTVSPost2010PropOp28
 70
     0
102
RTVSPost2010Prop29
280
     1
102
RTVSPost2010PropOp29
 70
     0
102
RTVSPost2010Prop30
280
     1
102
RTVSPost2010PropOp30
 70
     0
102
RTVSPost2010Prop31
280
     0
102
RTVSPost2010PropOp31
 70
     0
102
RTVSPost2010Prop32
280
     0
102
RTVSPost2010PropOp32
 70
     0
102
RTVSPost2010Prop33
280
     0
102
RTVSPost2010PropOp33
 70
     0
102
RTVSPost2010Prop34
280
     0
102
RTVSPost2010PropOp34
 70
     0
102
RTVSPost2010Prop35
280
     0
102
RTVSPost2010PropOp35
 70
     0
102
RTVSPost2010Prop36
280
     0
102
RTVSPost2010PropOp36
 70
     0
102
RTVSPost2010Prop37
 90
       50
102
RTVSPost2010PropOp37
 70
     0
102
RTVSPost2010Prop38
140
0.0
102
RTVSPost2010PropOp38
 70
     0
102
RTVSPost2010Prop39
140
1.0
102
RTVSPost2010PropOp39
 70
     0
102
RTVSPost2010Prop40
 90
        0
102
RTVSPost2010PropOp40
 70
     0
102
RTVSPost2010Prop41ColorIndex
 90
       18
102
RTVSPost2010Prop41ColorRGB
 90
        0
102
RTVSPost2010PropOp41
 70
     0
102
RTVSPost2010Prop42
 90
       50
102
RTVSPost2010PropOp42
 70
     0
102
RTVSPost2010Prop43
 90
        3
102
RTVSPost2010PropOp43
 70
     0
102
RTVSPost2010Prop44ColorIndex
 90
        5
102
RTVSPost2010Prop44ColorRGB
 90
      255
102
RTVSPost2010PropOp44
 70
     0
102
RTVSPost2010Prop45
280
     0
102
RTVSPost2010PropOp45
 70
     0
102
RTVSPost2010Prop46
 90
       50
102
RTVSPost2010PropOp46
 70
     0
102
RTVSPost2010Prop47
 90
       50
102
RTVSPost2010PropOp47
 70
     0
102
RTVSPost2010Prop48
 90
       50
102
RTVSPost2010PropOp48
 70
     0
102
RTVSPost2010Prop49
280
     0
102
RTVSPost2010PropOp49
 70
     0
102
RTVSPost2010Prop50
 90
       50
102
RTVSPost2010PropOp50
 70
     0
102
RTVSPost2010Prop51ColorIndex
 90
      256
102
RTVSPost2010Prop51ColorRGB
 90
-16777216
102
RTVSPost2010PropOp51
 70
     0
102
RTVSPost2010Prop52
140
1.0
102
RTVSPost2010PropOp52
 70
     0
102
RTVSPost2010Prop53
 90
        2
102
RTVSPost2010PropOp53
 70
     0
102
RTVSPost2010Prop54
  1
strokes_ogs.tif
102
RTVSPost2010PropOp54
 70
     0
102
RTVSPost2010Prop55
280
     0
102
RTVSPost2010PropOp55
 70
     0
102
RTVSPost2010Prop56
140
1.0
102
RTVSPost2010PropOp56
 70
     0
102
RTVSPost2010Prop57
140
1.0
102
RTVSPost2010PropOp57
 70
     0
102
RTVSPropertyOp0
 70
     0
102
RTVSPropertyOp1
 70
     0
102
RTVSPropertyOp2
 70
     0
102
RTVSPropertyOp3
 70
     0
102
RTVSPropertyOp4
 70
     0
102
RTVSPropertyOp5
 70
     0
102
RTVSPropertyOp6
 70
     0
102
RTVSPropertyOp7
 70
     0
102
RTVSPropertyOp8
 70
     0
102
RTVSPropertyOp9
 70
     0
102
RTVSPropertyOp10
 70
     0
102
RTVSPropertyOp11
 70
     0
102
RTVSPropertyOp12
 70
     0
102
RTVSPropertyOp13
 70
     0
102
RTVSPropertyOp14
 70
     2
102
RTVSPropertyOp15
 70
     0
102
RTVSPropertyOp16
 70
     0
102
RTVSPropertyOp17
 70
     0
102
RTVSPropertyOp18
 70
     0
102
RTVSPropertyOp19
 70
     0
102
RTVSPropertyOp20
 70
     0
102
RTVSPropertyOp21
 70
     0
102
RTVSPropertyOp22
 70
     0
102
RTVSPropertyOp23
 70
     0
102
RTVSPropertyOp24
 70
     0
102
RTVSPropertyOp25
 70
     0
102
RTVSPropertyOp26
 70
     0
102
RTVSPropertyOp27
 70
     0
102
RTVSPropertyOp28
 70
     0
102
RTVSPropertyOp29
 70
     0
102
RTVSPropertyOp30
 70
     0
102
RTVSPropertyOp31
 70
     0
102
RTVSPropertyOp32
 70
     0
102
RTVSPropertyOp33
 70
     0
102
RTVSPropertyOp34
 70
     0
102
RTVSPropertyOp35
 70
     0
102
RTVSPropertyOp36
 70
     0
102
RTVSPropertyOp37
 70
     0
102
RTVSPropertyOp38
 70
     0
102
RTVSPropertyOp39
 70
     0
102
RTVSPropertyOp40
 70
     0
102
RTVSPropertyOp41
 70
     0
102
RTVSPropertyOp42
 70
     0
102
RTVSPropertyOp43
 70
     0
102
RTVSPropertyOp44
 70
     0
102
RTVSPropertyOp45
 70
     0
102
RTVSPropertyOp46
 70
     0
102
RTVSPropertyOp47
 70
     0
102
RTVSPropertyOp48
 70
     0
102
RTVSPropertyOp49
 70
     0
102
RTVSPropertyOp50
 70
     0
102
RTVSPropertyOp51
 70
     0
102
RTVSPropertyOp52
 70
     0
102
RTVSPropertyOp53
 70
     0
102
RTVSPropertyOp54
 70
     0
102
RTVSPropertyOp55
 70
     0
102
RTVSPropertyOp56
 70
     0
102
RTVSPropertyOp57
 70
     0
102
RTVSPropertyOp58
 70
     1
102
RTVSPropertyOp59
 70
     1
102
RTVSPropertyOp60
 70
     1
102
RTVSPropertyOp61
 70
     1
102
RTVSPropertyOp62
 70
     1
  0
XRECORD
  5
381
102
{ACAD_REACTORS
330
380
102
}
330
380
100
AcDbXrecord
280
     1
102
RTVSPost2010Prop28
280
     0
102
RTVSPost2010PropOp28
 70
     1
102
RTVSPost2010Prop29
280
     1
102
RTVSPost2010PropOp29
 70
     1
102
RTVSPost2010Prop30
280
     1
102
RTVSPost2010PropOp30
 70
     1
102
RTVSPost2010Prop31
280
     0
102
RTVSPost2010PropOp31
 70
     1
102
RTVSPost2010Prop32
280
     0
102
RTVSPost2010PropOp32
 70
     1
102
RTVSPost2010Prop33
280
     0
102
RTVSPost2010PropOp33
 70
     1
102
RTVSPost2010Prop34
280
     0
102
RTVSPost2010PropOp34
 70
     1
102
RTVSPost2010Prop35
280
     0
102
RTVSPost2010PropOp35
 70
     1
102
RTVSPost2010Prop36
280
     0
102
RTVSPost2010PropOp36
 70
     1
102
RTVSPost2010Prop37
 90
       50
102
RTVSPost2010PropOp37
 70
     1
102
RTVSPost2010Prop38
140
0.0
102
RTVSPost2010PropOp38
 70
     1
102
RTVSPost2010Prop39
140
1.0
102
RTVSPost2010PropOp39
 70
     1
102
RTVSPost2010Prop40
 90
        0
102
RTVSPost2010PropOp40
 70
     1
102
RTVSPost2010Prop41ColorIndex
 90
       18
102
RTVSPost2010Prop41ColorRGB
 90
        0
102
RTVSPost2010PropOp41
 70
     1
102
RTVSPost2010Prop42
 90
       50
102
RTVSPost2010PropOp42
 70
     1
102
RTVSPost2010Prop43
 90
        3
102
RTVSPost2010PropOp43
 70
     1
102
RTVSPost2010Prop44ColorIndex
 90
        5
102
RTVSPost2010Prop44ColorRGB
 90
      255
102
RTVSPost2010PropOp44
 70
     1
102
RTVSPost2010Prop45
280
     0
102
RTVSPost2010PropOp45
 70
     1
102
RTVSPost2010Prop46
 90
       50
102
RTVSPost2010PropOp46
 70
     1
102
RTVSPost2010Prop47
 90
       50
102
RTVSPost2010PropOp47
 70
     1
102
RTVSPost2010Prop48
 90
       50
102
RTVSPost2010PropOp48
 70
     1
102
RTVSPost2010Prop49
280
     0
102
RTVSPost2010PropOp49
 70
     1
102
RTVSPost2010Prop50
 90
       50
102
RTVSPost2010PropOp50
 70
     1
102
RTVSPost2010Prop51ColorIndex
 90
      256
102
RTVSPost2010Prop51ColorRGB
 90
-16777216
102
RTVSPost2010PropOp51
 70
     0
102
RTVSPost2010Prop52
140
1.0
102
RTVSPost2010PropOp52
 70
     0
102
RTVSPost2010Prop53
 90
        2
102
RTVSPost2010PropOp53
 70
     1
102
RTVSPost2010Prop54
  1
strokes_ogs.tif
102
RTVSPost2010PropOp54
 70
     1
102
RTVSPost2010Prop55
280
     0
102
RTVSPost2010PropOp55
 70
     1
102
RTVSPost2010Prop56
140
1.0
102
RTVSPost2010PropOp56
 70
     1
102
RTVSPost2010Prop57
140
1.0
102
RTVSPost2010PropOp57
 70
     1
102
RTVSPropertyOp0
 70
     1
102
RTVSPropertyOp1
 70
     1
102
RTVSPropertyOp2
 70
     1
102
RTVSPropertyOp3
 70
     1
102
RTVSPropertyOp4
 70
     1
102
RTVSPropertyOp5
 70
     1
102
RTVSPropertyOp6
 70
     1
102
RTVSPropertyOp7
 70
     1
102
RTVSPropertyOp8
 70
     1
102
RTVSPropertyOp9
 70
     1
102
RTVSPropertyOp10
 70
     1
102
RTVSPropertyOp11
 70
     1
102
RTVSPropertyOp12
 70
     1
102
RTVSPropertyOp13
 70
     1
102
RTVSPropertyOp14
 70
     1
102
RTVSPropertyOp15
 70
     1
102
RTVSPropertyOp16
 70
     1
102
RTVSPropertyOp17
 70
     1
102
RTVSPropertyOp18
 70
     1
102
RTVSPropertyOp19
 70
     1
102
RTVSPropertyOp20
 70
     1
102
RTVSPropertyOp21
 70
     1
102
RTVSPropertyOp22
 70
     1
102
RTVSPropertyOp23
 70
     1
102
RTVSPropertyOp24
 70
     1
102
RTVSPropertyOp25
 70
     1
102
RTVSPropertyOp26
 70
     1
102
RTVSPropertyOp27
 70
     1
102
RTVSPropertyOp28
 70
     1
102
RTVSPropertyOp29
 70
     1
102
RTVSPropertyOp30
 70
     1
102
RTVSPropertyOp31
 70
     1
102
RTVSPropertyOp32
 70
     1
102
RTVSPropertyOp33
 70
     1
102
RTVSPropertyOp34
 70
     1
102
RTVSPropertyOp35
 70
     1
102
RTVSPropertyOp36
 70
     1
102
RTVSPropertyOp37
 70
     1
102
RTVSPropertyOp38
 70
     1
102
RTVSPropertyOp39
 70
     1
102
RTVSPropertyOp40
 70
     1
102
RTVSPropertyOp41
 70
     1
102
RTVSPropertyOp42
 70
     1
102
RTVSPropertyOp43
 70
     1
102
RTVSPropertyOp44
 70
     1
102
RTVSPropertyOp45
 70
     1
102
RTVSPropertyOp46
 70
     1
102
RTVSPropertyOp47
 70
     1
102
RTVSPropertyOp48
 70
     1
102
RTVSPropertyOp49
 70
     1
102
RTVSPropertyOp50
 70
     1
102
RTVSPropertyOp51
 70
     0
102
RTVSPropertyOp52
 70
     0
102
RTVSPropertyOp53
 70
     1
102
RTVSPropertyOp54
 70
     1
102
RTVSPropertyOp55
 70
     1
102
RTVSPropertyOp56
 70
     1
102
RTVSPropertyOp57
 70
     1
102
RTVSPropertyOp58
 70
     1
102
RTVSPropertyOp59
 70
     1
102
RTVSPropertyOp60
 70
     1
102
RTVSPropertyOp61
 70
     1
102
RTVSPropertyOp62
 70
     1
  0
XRECORD
  5
389
102
{ACAD_REACTORS
330
388
102
}
330
388
100
AcDbXrecord
280
     1
102
RTVSPost2010Prop28
280
     0
102
RTVSPost2010PropOp28
 70
     0
102
RTVSPost2010Prop29
280
     1
102
RTVSPost2010PropOp29
 70
     0
102
RTVSPost2010Prop30
280
     1
102
RTVSPost2010PropOp30
 70
     0
102
RTVSPost2010Prop31
280
     0
102
RTVSPost2010PropOp31
 70
     0
102
RTVSPost2010Prop32
280
     0
102
RTVSPost2010PropOp32
 70
     0
102
RTVSPost2010Prop33
280
     0
102
RTVSPost2010PropOp33
 70
     0
102
RTVSPost2010Prop34
280
     0
102
RTVSPost2010PropOp34
 70
     0
102
RTVSPost2010Prop35
280
     0
102
RTVSPost2010PropOp35
 70
     0
102
RTVSPost2010Prop36
280
     0
102
RTVSPost2010PropOp36
 70
     0
102
RTVSPost2010Prop37
 90
       50
102
RTVSPost2010PropOp37
 70
     0
102
RTVSPost2010Prop38
140
0.0
102
RTVSPost2010PropOp38
 70
     0
102
RTVSPost2010Prop39
140
1.0
102
RTVSPost2010PropOp39
 70
     0
102
RTVSPost2010Prop40
 90
        0
102
RTVSPost2010PropOp40
 70
     0
102
RTVSPost2010Prop41ColorIndex
 90
       18
102
RTVSPost2010Prop41ColorRGB
 90
        0
102
RTVSPost2010PropOp41
 70
     0
102
RTVSPost2010Prop42
 90
       50
102
RTVSPost2010PropOp42
 70
     0
102
RTVSPost2010Prop43
 90
        3
102
RTVSPost2010PropOp43
 70
     0
102
RTVSPost2010Prop44ColorIndex
 90
        5
102
RTVSPost2010Prop44ColorRGB
 90
      255
102
RTVSPost2010PropOp44
 70
     0
102
RTVSPost2010Prop45
280
     0
102
RTVSPost2010PropOp45
 70
     0
102
RTVSPost2010Prop46
 90
       50
102
RTVSPost2010PropOp46
 70
     0
102
RTVSPost2010Prop47
 90
       50
102
RTVSPost2010PropOp47
 70
     0
102
RTVSPost2010Prop48
 90
       50
102
RTVSPost2010PropOp48
 70
     0
102
RTVSPost2010Prop49
280
     0
102
RTVSPost2010PropOp49
 70
     0
102
RTVSPost2010Prop50
 90
       50
102
RTVSPost2010PropOp50
 70
     0
102
RTVSPost2010Prop51ColorIndex
 90
      256
102
RTVSPost2010Prop51ColorRGB
 90
-16777216
102
RTVSPost2010PropOp51
 70
     0
102
RTVSPost2010Prop52
140
1.0
102
RTVSPost2010PropOp52
 70
     0
102
RTVSPost2010Prop53
 90
        2
102
RTVSPost2010PropOp53
 70
     0
102
RTVSPost2010Prop54
  1
strokes_ogs.tif
102
RTVSPost2010PropOp54
 70
     0
102
RTVSPost2010Prop55
280
     0
102
RTVSPost2010PropOp55
 70
     0
102
RTVSPost2010Prop56
140
1.0
102
RTVSPost2010PropOp56
 70
     0
102
RTVSPost2010Prop57
140
1.0
102
RTVSPost2010PropOp57
 70
     0
102
RTVSPropertyOp0
 70
     0
102
RTVSPropertyOp1
 70
     0
102
RTVSPropertyOp2
 70
     0
102
RTVSPropertyOp3
 70
     0
102
RTVSPropertyOp4
 70
     0
102
RTVSPropertyOp5
 70
     0
102
RTVSPropertyOp6
 70
     0
102
RTVSPropertyOp7
 70
     0
102
RTVSPropertyOp8
 70
     0
102
RTVSPropertyOp9
 70
     0
102
RTVSPropertyOp10
 70
     0
102
RTVSPropertyOp11
 70
     0
102
RTVSPropertyOp12
 70
     0
102
RTVSPropertyOp13
 70
     0
102
RTVSPropertyOp14
 70
     2
102
RTVSPropertyOp15
 70
     0
102
RTVSPropertyOp16
 70
     0
102
RTVSPropertyOp17
 70
     0
102
RTVSPropertyOp18
 70
     0
102
RTVSPropertyOp19
 70
     0
102
RTVSPropertyOp20
 70
     0
102
RTVSPropertyOp21
 70
     0
102
RTVSPropertyOp22
 70
     0
102
RTVSPropertyOp23
 70
     0
102
RTVSPropertyOp24
 70
     0
102
RTVSPropertyOp25
 70
     0
102
RTVSPropertyOp26
 70
     0
102
RTVSPropertyOp27
 70
     0
102
RTVSPropertyOp28
 70
     0
102
RTVSPropertyOp29
 70
     0
102
RTVSPropertyOp30
 70
     0
102
RTVSPropertyOp31
 70
     0
102
RTVSPropertyOp32
 70
     0
102
RTVSPropertyOp33
 70
     0
102
RTVSPropertyOp34
 70
     0
102
RTVSPropertyOp35
 70
     0
102
RTVSPropertyOp36
 70
     0
102
RTVSPropertyOp37
 70
     0
102
RTVSPropertyOp38
 70
     0
102
RTVSPropertyOp39
 70
     0
102
RTVSPropertyOp40
 70
     0
102
RTVSPropertyOp41
 70
     0
102
RTVSPropertyOp42
 70
     0
102
RTVSPropertyOp43
 70
     0
102
RTVSPropertyOp44
 70
     0
102
RTVSPropertyOp45
 70
     0
102
RTVSPropertyOp46
 70
     0
102
RTVSPropertyOp47
 70
     0
102
RTVSPropertyOp48
 70
     0
102
RTVSPropertyOp49
 70
     0
102
RTVSPropertyOp50
 70
     0
102
RTVSPropertyOp51
 70
     0
102
RTVSPropertyOp52
 70
     0
102
RTVSPropertyOp53
 70
     0
102
RTVSPropertyOp54
 70
     0
102
RTVSPropertyOp55
 70
     0
102
RTVSPropertyOp56
 70
     0
102
RTVSPropertyOp57
 70
     0
102
RTVSPropertyOp58
 70
     1
102
RTVSPropertyOp59
 70
     1
102
RTVSPropertyOp60
 70
     1
102
RTVSPropertyOp61
 70
     1
102
RTVSPropertyOp62
 70
     1
  0
XRECORD
  5
377
102
{ACAD_REACTORS
330
376
102
}
330
376
100
AcDbXrecord
280
     1
102
RTVSPost2010Prop28
280
     0
102
RTVSPost2010PropOp28
 70
     1
102
RTVSPost2010Prop29
280
     1
102
RTVSPost2010PropOp29
 70
     1
102
RTVSPost2010Prop30
280
     1
102
RTVSPost2010PropOp30
 70
     1
102
RTVSPost2010Prop31
280
     0
102
RTVSPost2010PropOp31
 70
     1
102
RTVSPost2010Prop32
280
     0
102
RTVSPost2010PropOp32
 70
     1
102
RTVSPost2010Prop33
280
     0
102
RTVSPost2010PropOp33
 70
     1
102
RTVSPost2010Prop34
280
     0
102
RTVSPost2010PropOp34
 70
     1
102
RTVSPost2010Prop35
280
     0
102
RTVSPost2010PropOp35
 70
     1
102
RTVSPost2010Prop36
280
     0
102
RTVSPost2010PropOp36
 70
     1
102
RTVSPost2010Prop37
 90
       50
102
RTVSPost2010PropOp37
 70
     1
102
RTVSPost2010Prop38
140
0.0
102
RTVSPost2010PropOp38
 70
     1
102
RTVSPost2010Prop39
140
1.0
102
RTVSPost2010PropOp39
 70
     1
102
RTVSPost2010Prop40
 90
        0
102
RTVSPost2010PropOp40
 70
     1
102
RTVSPost2010Prop41ColorIndex
 90
       18
102
RTVSPost2010Prop41ColorRGB
 90
        0
102
RTVSPost2010PropOp41
 70
     1
102
RTVSPost2010Prop42
 90
       50
102
RTVSPost2010PropOp42
 70
     1
102
RTVSPost2010Prop43
 90
        3
102
RTVSPost2010PropOp43
 70
     1
102
RTVSPost2010Prop44ColorIndex
 90
        5
102
RTVSPost2010Prop44ColorRGB
 90
      255
102
RTVSPost2010PropOp44
 70
     1
102
RTVSPost2010Prop45
280
     0
102
RTVSPost2010PropOp45
 70
     1
102
RTVSPost2010Prop46
 90
       50
102
RTVSPost2010PropOp46
 70
     1
102
RTVSPost2010Prop47
 90
       50
102
RTVSPost2010PropOp47
 70
     1
102
RTVSPost2010Prop48
 90
       50
102
RTVSPost2010PropOp48
 70
     1
102
RTVSPost2010Prop49
280
     0
102
RTVSPost2010PropOp49
 70
     1
102
RTVSPost2010Prop50
 90
       50
102
RTVSPost2010PropOp50
 70
     1
102
RTVSPost2010Prop51ColorIndex
 90
      256
102
RTVSPost2010Prop51ColorRGB
 90
-16777216
102
RTVSPost2010PropOp51
 70
     0
102
RTVSPost2010Prop52
140
1.0
102
RTVSPost2010PropOp52
 70
     0
102
RTVSPost2010Prop53
 90
        2
102
RTVSPost2010PropOp53
 70
     1
102
RTVSPost2010Prop54
  1
strokes_ogs.tif
102
RTVSPost2010PropOp54
 70
     1
102
RTVSPost2010Prop55
280
     0
102
RTVSPost2010PropOp55
 70
     1
102
RTVSPost2010Prop56
140
1.0
102
RTVSPost2010PropOp56
 70
     1
102
RTVSPost2010Prop57
140
1.0
102
RTVSPost2010PropOp57
 70
     1
102
RTVSPropertyOp0
 70
     1
102
RTVSPropertyOp1
 70
     1
102
RTVSPropertyOp2
 70
     1
102
RTVSPropertyOp3
 70
     1
102
RTVSPropertyOp4
 70
     1
102
RTVSPropertyOp5
 70
     1
102
RTVSPropertyOp6
 70
     1
102
RTVSPropertyOp7
 70
     1
102
RTVSPropertyOp8
 70
     1
102
RTVSPropertyOp9
 70
     1
102
RTVSPropertyOp10
 70
     1
102
RTVSPropertyOp11
 70
     1
102
RTVSPropertyOp12
 70
     1
102
RTVSPropertyOp13
 70
     1
102
RTVSPropertyOp14
 70
     1
102
RTVSPropertyOp15
 70
     1
102
RTVSPropertyOp16
 70
     1
102
RTVSPropertyOp17
 70
     1
102
RTVSPropertyOp18
 70
     1
102
RTVSPropertyOp19
 70
     1
102
RTVSPropertyOp20
 70
     1
102
RTVSPropertyOp21
 70
     1
102
RTVSPropertyOp22
 70
     1
102
RTVSPropertyOp23
 70
     1
102
RTVSPropertyOp24
 70
     1
102
RTVSPropertyOp25
 70
     1
102
RTVSPropertyOp26
 70
     1
102
RTVSPropertyOp27
 70
     1
102
RTVSPropertyOp28
 70
     1
102
RTVSPropertyOp29
 70
     1
102
RTVSPropertyOp30
 70
     1
102
RTVSPropertyOp31
 70
     1
102
RTVSPropertyOp32
 70
     1
102
RTVSPropertyOp33
 70
     1
102
RTVSPropertyOp34
 70
     1
102
RTVSPropertyOp35
 70
     1
102
RTVSPropertyOp36
 70
     1
102
RTVSPropertyOp37
 70
     1
102
RTVSPropertyOp38
 70
     1
102
RTVSPropertyOp39
 70
     1
102
RTVSPropertyOp40
 70
     1
102
RTVSPropertyOp41
 70
     1
102
RTVSPropertyOp42
 70
     1
102
RTVSPropertyOp43
 70
     1
102
RTVSPropertyOp44
 70
     1
102
RTVSPropertyOp45
 70
     1
102
RTVSPropertyOp46
 70
     1
102
RTVSPropertyOp47
 70
     1
102
RTVSPropertyOp48
 70
     1
102
RTVSPropertyOp49
 70
     1
102
RTVSPropertyOp50
 70
     1
102
RTVSPropertyOp51
 70
     0
102
RTVSPropertyOp52
 70
     0
102
RTVSPropertyOp53
 70
     1
102
RTVSPropertyOp54
 70
     1
102
RTVSPropertyOp55
 70
     1
102
RTVSPropertyOp56
 70
     1
102
RTVSPropertyOp57
 70
     1
102
RTVSPropertyOp58
 70
     1
102
RTVSPropertyOp59
 70
     1
102
RTVSPropertyOp60
 70
     1
102
RTVSPropertyOp61
 70
     1
102
RTVSPropertyOp62
 70
     1
  0
XRECORD
  5
395
102
{ACAD_REACTORS
330
394
102
}
330
394
100
AcDbXrecord
280
     1
102
RTVSPost2010Prop28
280
     0
102
RTVSPost2010PropOp28
 70
     1
102
RTVSPost2010Prop29
280
     1
102
RTVSPost2010PropOp29
 70
     1
102
RTVSPost2010Prop30
280
     1
102
RTVSPost2010PropOp30
 70
     1
102
RTVSPost2010Prop31
280
     0
102
RTVSPost2010PropOp31
 70
     1
102
RTVSPost2010Prop32
280
     0
102
RTVSPost2010PropOp32
 70
     1
102
RTVSPost2010Prop33
280
     0
102
RTVSPost2010PropOp33
 70
     1
102
RTVSPost2010Prop34
280
     0
102
RTVSPost2010PropOp34
 70
     1
102
RTVSPost2010Prop35
280
     0
102
RTVSPost2010PropOp35
 70
     1
102
RTVSPost2010Prop36
280
     0
102
RTVSPost2010PropOp36
 70
     1
102
RTVSPost2010Prop37
 90
       50
102
RTVSPost2010PropOp37
 70
     1
102
RTVSPost2010Prop38
140
0.0
102
RTVSPost2010PropOp38
 70
     1
102
RTVSPost2010Prop39
140
1.0
102
RTVSPost2010PropOp39
 70
     1
102
RTVSPost2010Prop40
 90
        0
102
RTVSPost2010PropOp40
 70
     1
102
RTVSPost2010Prop41ColorIndex
 90
       18
102
RTVSPost2010Prop41ColorRGB
 90
        0
102
RTVSPost2010PropOp41
 70
     1
102
RTVSPost2010Prop42
 90
       50
102
RTVSPost2010PropOp42
 70
     1
102
RTVSPost2010Prop43
 90
        3
102
RTVSPost2010PropOp43
 70
     1
102
RTVSPost2010Prop44ColorIndex
 90
        5
102
RTVSPost2010Prop44ColorRGB
 90
      255
102
RTVSPost2010PropOp44
 70
     1
102
RTVSPost2010Prop45
280
     0
102
RTVSPost2010PropOp45
 70
     1
102
RTVSPost2010Prop46
 90
       50
102
RTVSPost2010PropOp46
 70
     1
102
RTVSPost2010Prop47
 90
       50
102
RTVSPost2010PropOp47
 70
     1
102
RTVSPost2010Prop48
 90
       50
102
RTVSPost2010PropOp48
 70
     1
102
RTVSPost2010Prop49
280
     0
102
RTVSPost2010PropOp49
 70
     1
102
RTVSPost2010Prop50
 90
       50
102
RTVSPost2010PropOp50
 70
     1
102
RTVSPost2010Prop51ColorIndex
 90
      256
102
RTVSPost2010Prop51ColorRGB
 90
-16777216
102
RTVSPost2010PropOp51
 70
     0
102
RTVSPost2010Prop52
140
1.0
102
RTVSPost2010PropOp52
 70
     0
102
RTVSPost2010Prop53
 90
        2
102
RTVSPost2010PropOp53
 70
     1
102
RTVSPost2010Prop54
  1
strokes_ogs.tif
102
RTVSPost2010PropOp54
 70
     1
102
RTVSPost2010Prop55
280
     0
102
RTVSPost2010PropOp55
 70
     1
102
RTVSPost2010Prop56
140
1.0
102
RTVSPost2010PropOp56
 70
     1
102
RTVSPost2010Prop57
140
1.0
102
RTVSPost2010PropOp57
 70
     1
102
RTVSPropertyOp0
 70
     1
102
RTVSPropertyOp1
 70
     1
102
RTVSPropertyOp2
 70
     1
102
RTVSPropertyOp3
 70
     1
102
RTVSPropertyOp4
 70
     1
102
RTVSPropertyOp5
 70
     1
102
RTVSPropertyOp6
 70
     1
102
RTVSPropertyOp7
 70
     1
102
RTVSPropertyOp8
 70
     1
102
RTVSPropertyOp9
 70
     1
102
RTVSPropertyOp10
 70
     1
102
RTVSPropertyOp11
 70
     1
102
RTVSPropertyOp12
 70
     1
102
RTVSPropertyOp13
 70
     1
102
RTVSPropertyOp14
 70
     1
102
RTVSPropertyOp15
 70
     1
102
RTVSPropertyOp16
 70
     1
102
RTVSPropertyOp17
 70
     1
102
RTVSPropertyOp18
 70
     1
102
RTVSPropertyOp19
 70
     1
102
RTVSPropertyOp20
 70
     1
102
RTVSPropertyOp21
 70
     1
102
RTVSPropertyOp22
 70
     1
102
RTVSPropertyOp23
 70
     1
102
RTVSPropertyOp24
 70
     1
102
RTVSPropertyOp25
 70
     1
102
RTVSPropertyOp26
 70
     1
102
RTVSPropertyOp27
 70
     1
102
RTVSPropertyOp28
 70
     1
102
RTVSPropertyOp29
 70
     1
102
RTVSPropertyOp30
 70
     1
102
RTVSPropertyOp31
 70
     1
102
RTVSPropertyOp32
 70
     1
102
RTVSPropertyOp33
 70
     1
102
RTVSPropertyOp34
 70
     1
102
RTVSPropertyOp35
 70
     1
102
RTVSPropertyOp36
 70
     1
102
RTVSPropertyOp37
 70
     1
102
RTVSPropertyOp38
 70
     1
102
RTVSPropertyOp39
 70
     1
102
RTVSPropertyOp40
 70
     1
102
RTVSPropertyOp41
 70
     1
102
RTVSPropertyOp42
 70
     1
102
RTVSPropertyOp43
 70
     1
102
RTVSPropertyOp44
 70
     1
102
RTVSPropertyOp45
 70
     1
102
RTVSPropertyOp46
 70
     1
102
RTVSPropertyOp47
 70
     1
102
RTVSPropertyOp48
 70
     1
102
RTVSPropertyOp49
 70
     1
102
RTVSPropertyOp50
 70
     1
102
RTVSPropertyOp51
 70
     0
102
RTVSPropertyOp52
 70
     0
102
RTVSPropertyOp53
 70
     1
102
RTVSPropertyOp54
 70
     1
102
RTVSPropertyOp55
 70
     1
102
RTVSPropertyOp56
 70
     1
102
RTVSPropertyOp57
 70
     1
102
RTVSPropertyOp58
 70
     1
102
RTVSPropertyOp59
 70
     1
102
RTVSPropertyOp60
 70
     1
102
RTVSPropertyOp61
 70
     1
102
RTVSPropertyOp62
 70
     1
  0
XRECORD
  5
393
102
{ACAD_REACTORS
330
392
102
}
330
392
100
AcDbXrecord
280
     1
102
RTVSPost2010Prop28
280
     0
102
RTVSPost2010PropOp28
 70
     1
102
RTVSPost2010Prop29
280
     1
102
RTVSPost2010PropOp29
 70
     1
102
RTVSPost2010Prop30
280
     1
102
RTVSPost2010PropOp30
 70
     1
102
RTVSPost2010Prop31
280
     0
102
RTVSPost2010PropOp31
 70
     1
102
RTVSPost2010Prop32
280
     0
102
RTVSPost2010PropOp32
 70
     1
102
RTVSPost2010Prop33
280
     0
102
RTVSPost2010PropOp33
 70
     1
102
RTVSPost2010Prop34
280
     0
102
RTVSPost2010PropOp34
 70
     1
102
RTVSPost2010Prop35
280
     0
102
RTVSPost2010PropOp35
 70
     1
102
RTVSPost2010Prop36
280
     0
102
RTVSPost2010PropOp36
 70
     1
102
RTVSPost2010Prop37
 90
       50
102
RTVSPost2010PropOp37
 70
     1
102
RTVSPost2010Prop38
140
0.0
102
RTVSPost2010PropOp38
 70
     1
102
RTVSPost2010Prop39
140
1.0
102
RTVSPost2010PropOp39
 70
     1
102
RTVSPost2010Prop40
 90
        0
102
RTVSPost2010PropOp40
 70
     1
102
RTVSPost2010Prop41ColorIndex
 90
       18
102
RTVSPost2010Prop41ColorRGB
 90
        0
102
RTVSPost2010PropOp41
 70
     1
102
RTVSPost2010Prop42
 90
       50
102
RTVSPost2010PropOp42
 70
     1
102
RTVSPost2010Prop43
 90
        3
102
RTVSPost2010PropOp43
 70
     1
102
RTVSPost2010Prop44ColorIndex
 90
        5
102
RTVSPost2010Prop44ColorRGB
 90
      255
102
RTVSPost2010PropOp44
 70
     1
102
RTVSPost2010Prop45
280
     0
102
RTVSPost2010PropOp45
 70
     1
102
RTVSPost2010Prop46
 90
       50
102
RTVSPost2010PropOp46
 70
     1
102
RTVSPost2010Prop47
 90
       50
102
RTVSPost2010PropOp47
 70
     1
102
RTVSPost2010Prop48
 90
       50
102
RTVSPost2010PropOp48
 70
     1
102
RTVSPost2010Prop49
280
     0
102
RTVSPost2010PropOp49
 70
     1
102
RTVSPost2010Prop50
 90
       50
102
RTVSPost2010PropOp50
 70
     1
102
RTVSPost2010Prop51ColorIndex
 90
      256
102
RTVSPost2010Prop51ColorRGB
 90
-16777216
102
RTVSPost2010PropOp51
 70
     0
102
RTVSPost2010Prop52
140
1.0
102
RTVSPost2010PropOp52
 70
     0
102
RTVSPost2010Prop53
 90
        2
102
RTVSPost2010PropOp53
 70
     1
102
RTVSPost2010Prop54
  1
strokes_ogs.tif
102
RTVSPost2010PropOp54
 70
     1
102
RTVSPost2010Prop55
280
     0
102
RTVSPost2010PropOp55
 70
     1
102
RTVSPost2010Prop56
140
1.0
102
RTVSPost2010PropOp56
 70
     1
102
RTVSPost2010Prop57
140
1.0
102
RTVSPost2010PropOp57
 70
     1
102
RTVSPropertyOp0
 70
     1
102
RTVSPropertyOp1
 70
     1
102
RTVSPropertyOp2
 70
     1
102
RTVSPropertyOp3
 70
     1
102
RTVSPropertyOp4
 70
     1
102
RTVSPropertyOp5
 70
     1
102
RTVSPropertyOp6
 70
     1
102
RTVSPropertyOp7
 70
     1
102
RTVSPropertyOp8
 70
     1
102
RTVSPropertyOp9
 70
     1
102
RTVSPropertyOp10
 70
     1
102
RTVSPropertyOp11
 70
     1
102
RTVSPropertyOp12
 70
     1
102
RTVSPropertyOp13
 70
     1
102
RTVSPropertyOp14
 70
     1
102
RTVSPropertyOp15
 70
     1
102
RTVSPropertyOp16
 70
     1
102
RTVSPropertyOp17
 70
     1
102
RTVSPropertyOp18
 70
     1
102
RTVSPropertyOp19
 70
     1
102
RTVSPropertyOp20
 70
     1
102
RTVSPropertyOp21
 70
     1
102
RTVSPropertyOp22
 70
     1
102
RTVSPropertyOp23
 70
     1
102
RTVSPropertyOp24
 70
     1
102
RTVSPropertyOp25
 70
     1
102
RTVSPropertyOp26
 70
     1
102
RTVSPropertyOp27
 70
     1
102
RTVSPropertyOp28
 70
     1
102
RTVSPropertyOp29
 70
     1
102
RTVSPropertyOp30
 70
     1
102
RTVSPropertyOp31
 70
     1
102
RTVSPropertyOp32
 70
     1
102
RTVSPropertyOp33
 70
     1
102
RTVSPropertyOp34
 70
     1
102
RTVSPropertyOp35
 70
     1
102
RTVSPropertyOp36
 70
     1
102
RTVSPropertyOp37
 70
     1
102
RTVSPropertyOp38
 70
     1
102
RTVSPropertyOp39
 70
     1
102
RTVSPropertyOp40
 70
     1
102
RTVSPropertyOp41
 70
     1
102
RTVSPropertyOp42
 70
     1
102
RTVSPropertyOp43
 70
     1
102
RTVSPropertyOp44
 70
     1
102
RTVSPropertyOp45
 70
     1
102
RTVSPropertyOp46
 70
     1
102
RTVSPropertyOp47
 70
     1
102
RTVSPropertyOp48
 70
     1
102
RTVSPropertyOp49
 70
     1
102
RTVSPropertyOp50
 70
     1
102
RTVSPropertyOp51
 70
     0
102
RTVSPropertyOp52
 70
     0
102
RTVSPropertyOp53
 70
     1
102
RTVSPropertyOp54
 70
     1
102
RTVSPropertyOp55
 70
     1
102
RTVSPropertyOp56
 70
     1
102
RTVSPropertyOp57
 70
     1
102
RTVSPropertyOp58
 70
     1
102
RTVSPropertyOp59
 70
     1
102
RTVSPropertyOp60
 70
     1
102
RTVSPropertyOp61
 70
     1
102
RTVSPropertyOp62
 70
     1
  0
XRECORD
  5
38D
102
{ACAD_REACTORS
330
38C
102
}
330
38C
100
AcDbXrecord
280
     1
102
RTVSPost2010Prop28
280
     0
102
RTVSPost2010PropOp28
 70
     1
102
RTVSPost2010Prop29
280
     1
102
RTVSPost2010PropOp29
 70
     1
102
RTVSPost2010Prop30
280
     1
102
RTVSPost2010PropOp30
 70
     1
102
RTVSPost2010Prop31
280
     0
102
RTVSPost2010PropOp31
 70
     1
102
RTVSPost2010Prop32
280
     0
102
RTVSPost2010PropOp32
 70
     1
102
RTVSPost2010Prop33
280
     0
102
RTVSPost2010PropOp33
 70
     1
102
RTVSPost2010Prop34
280
     0
102
RTVSPost2010PropOp34
 70
     1
102
RTVSPost2010Prop35
280
     0
102
RTVSPost2010PropOp35
 70
     1
102
RTVSPost2010Prop36
280
     0
102
RTVSPost2010PropOp36
 70
     1
102
RTVSPost2010Prop37
 90
       50
102
RTVSPost2010PropOp37
 70
     1
102
RTVSPost2010Prop38
140
0.0
102
RTVSPost2010PropOp38
 70
     1
102
RTVSPost2010Prop39
140
1.0
102
RTVSPost2010PropOp39
 70
     1
102
RTVSPost2010Prop40
 90
        0
102
RTVSPost2010PropOp40
 70
     1
102
RTVSPost2010Prop41ColorIndex
 90
       18
102
RTVSPost2010Prop41ColorRGB
 90
        0
102
RTVSPost2010PropOp41
 70
     1
102
RTVSPost2010Prop42
 90
       50
102
RTVSPost2010PropOp42
 70
     1
102
RTVSPost2010Prop43
 90
        3
102
RTVSPost2010PropOp43
 70
     1
102
RTVSPost2010Prop44ColorIndex
 90
        5
102
RTVSPost2010Prop44ColorRGB
 90
      255
102
RTVSPost2010PropOp44
 70
     1
102
RTVSPost2010Prop45
280
     0
102
RTVSPost2010PropOp45
 70
     1
102
RTVSPost2010Prop46
 90
       50
102
RTVSPost2010PropOp46
 70
     1
102
RTVSPost2010Prop47
 90
       50
102
RTVSPost2010PropOp47
 70
     1
102
RTVSPost2010Prop48
 90
       50
102
RTVSPost2010PropOp48
 70
     1
102
RTVSPost2010Prop49
280
     0
102
RTVSPost2010PropOp49
 70
     1
102
RTVSPost2010Prop50
 90
       50
102
RTVSPost2010PropOp50
 70
     1
102
RTVSPost2010Prop51ColorIndex
 90
      256
102
RTVSPost2010Prop51ColorRGB
 90
-16777216
102
RTVSPost2010PropOp51
 70
     0
102
RTVSPost2010Prop52
140
1.0
102
RTVSPost2010PropOp52
 70
     0
102
RTVSPost2010Prop53
 90
        2
102
RTVSPost2010PropOp53
 70
     1
102
RTVSPost2010Prop54
  1
strokes_ogs.tif
102
RTVSPost2010PropOp54
 70
     1
102
RTVSPost2010Prop55
280
     0
102
RTVSPost2010PropOp55
 70
     1
102
RTVSPost2010Prop56
140
1.0
102
RTVSPost2010PropOp56
 70
     1
102
RTVSPost2010Prop57
140
1.0
102
RTVSPost2010PropOp57
 70
     1
102
RTVSPropertyOp0
 70
     1
102
RTVSPropertyOp1
 70
     1
102
RTVSPropertyOp2
 70
     1
102
RTVSPropertyOp3
 70
     1
102
RTVSPropertyOp4
 70
     1
102
RTVSPropertyOp5
 70
     1
102
RTVSPropertyOp6
 70
     1
102
RTVSPropertyOp7
 70
     1
102
RTVSPropertyOp8
 70
     1
102
RTVSPropertyOp9
 70
     1
102
RTVSPropertyOp10
 70
     1
102
RTVSPropertyOp11
 70
     1
102
RTVSPropertyOp12
 70
     1
102
RTVSPropertyOp13
 70
     1
102
RTVSPropertyOp14
 70
     1
102
RTVSPropertyOp15
 70
     1
102
RTVSPropertyOp16
 70
     1
102
RTVSPropertyOp17
 70
     1
102
RTVSPropertyOp18
 70
     1
102
RTVSPropertyOp19
 70
     1
102
RTVSPropertyOp20
 70
     1
102
RTVSPropertyOp21
 70
     1
102
RTVSPropertyOp22
 70
     1
102
RTVSPropertyOp23
 70
     1
102
RTVSPropertyOp24
 70
     1
102
RTVSPropertyOp25
 70
     1
102
RTVSPropertyOp26
 70
     1
102
RTVSPropertyOp27
 70
     1
102
RTVSPropertyOp28
 70
     1
102
RTVSPropertyOp29
 70
     1
102
RTVSPropertyOp30
 70
     1
102
RTVSPropertyOp31
 70
     1
102
RTVSPropertyOp32
 70
     1
102
RTVSPropertyOp33
 70
     1
102
RTVSPropertyOp34
 70
     1
102
RTVSPropertyOp35
 70
     1
102
RTVSPropertyOp36
 70
     1
102
RTVSPropertyOp37
 70
     1
102
RTVSPropertyOp38
 70
     1
102
RTVSPropertyOp39
 70
     1
102
RTVSPropertyOp40
 70
     1
102
RTVSPropertyOp41
 70
     1
102
RTVSPropertyOp42
 70
     1
102
RTVSPropertyOp43
 70
     1
102
RTVSPropertyOp44
 70
     1
102
RTVSPropertyOp45
 70
     1
102
RTVSPropertyOp46
 70
     1
102
RTVSPropertyOp47
 70
     1
102
RTVSPropertyOp48
 70
     1
102
RTVSPropertyOp49
 70
     1
102
RTVSPropertyOp50
 70
     1
102
RTVSPropertyOp51
 70
     0
102
RTVSPropertyOp52
 70
     0
102
RTVSPropertyOp53
 70
     1
102
RTVSPropertyOp54
 70
     1
102
RTVSPropertyOp55
 70
     1
102
RTVSPropertyOp56
 70
     1
102
RTVSPropertyOp57
 70
     1
102
RTVSPropertyOp58
 70
     1
102
RTVSPropertyOp59
 70
     1
102
RTVSPropertyOp60
 70
     1
102
RTVSPropertyOp61
 70
     1
102
RTVSPropertyOp62
 70
     1
  0
XRECORD
  5
38F
102
{ACAD_REACTORS
330
38E
102
}
330
38E
100
AcDbXrecord
280
     1
102
RTVSPost2010Prop28
280
     0
102
RTVSPost2010PropOp28
 70
     1
102
RTVSPost2010Prop29
280
     1
102
RTVSPost2010PropOp29
 70
     1
102
RTVSPost2010Prop30
280
     1
102
RTVSPost2010PropOp30
 70
     1
102
RTVSPost2010Prop31
280
     0
102
RTVSPost2010PropOp31
 70
     1
102
RTVSPost2010Prop32
280
     0
102
RTVSPost2010PropOp32
 70
     1
102
RTVSPost2010Prop33
280
     0
102
RTVSPost2010PropOp33
 70
     1
102
RTVSPost2010Prop34
280
     0
102
RTVSPost2010PropOp34
 70
     1
102
RTVSPost2010Prop35
280
     0
102
RTVSPost2010PropOp35
 70
     1
102
RTVSPost2010Prop36
280
     0
102
RTVSPost2010PropOp36
 70
     1
102
RTVSPost2010Prop37
 90
       50
102
RTVSPost2010PropOp37
 70
     1
102
RTVSPost2010Prop38
140
0.0
102
RTVSPost2010PropOp38
 70
     1
102
RTVSPost2010Prop39
140
1.0
102
RTVSPost2010PropOp39
 70
     1
102
RTVSPost2010Prop40
 90
        0
102
RTVSPost2010PropOp40
 70
     1
102
RTVSPost2010Prop41ColorIndex
 90
       18
102
RTVSPost2010Prop41ColorRGB
 90
        0
102
RTVSPost2010PropOp41
 70
     1
102
RTVSPost2010Prop42
 90
       50
102
RTVSPost2010PropOp42
 70
     1
102
RTVSPost2010Prop43
 90
        3
102
RTVSPost2010PropOp43
 70
     1
102
RTVSPost2010Prop44ColorIndex
 90
        5
102
RTVSPost2010Prop44ColorRGB
 90
      255
102
RTVSPost2010PropOp44
 70
     1
102
RTVSPost2010Prop45
280
     0
102
RTVSPost2010PropOp45
 70
     1
102
RTVSPost2010Prop46
 90
       50
102
RTVSPost2010PropOp46
 70
     1
102
RTVSPost2010Prop47
 90
       50
102
RTVSPost2010PropOp47
 70
     1
102
RTVSPost2010Prop48
 90
       50
102
RTVSPost2010PropOp48
 70
     1
102
RTVSPost2010Prop49
280
     0
102
RTVSPost2010PropOp49
 70
     1
102
RTVSPost2010Prop50
 90
       50
102
RTVSPost2010PropOp50
 70
     1
102
RTVSPost2010Prop51ColorIndex
 90
      256
102
RTVSPost2010Prop51ColorRGB
 90
-16777216
102
RTVSPost2010PropOp51
 70
     0
102
RTVSPost2010Prop52
140
1.0
102
RTVSPost2010PropOp52
 70
     0
102
RTVSPost2010Prop53
 90
        2
102
RTVSPost2010PropOp53
 70
     1
102
RTVSPost2010Prop54
  1
strokes_ogs.tif
102
RTVSPost2010PropOp54
 70
     1
102
RTVSPost2010Prop55
280
     0
102
RTVSPost2010PropOp55
 70
     1
102
RTVSPost2010Prop56
140
1.0
102
RTVSPost2010PropOp56
 70
     1
102
RTVSPost2010Prop57
140
1.0
102
RTVSPost2010PropOp57
 70
     1
102
RTVSPropertyOp0
 70
     1
102
RTVSPropertyOp1
 70
     1
102
RTVSPropertyOp2
 70
     1
102
RTVSPropertyOp3
 70
     1
102
RTVSPropertyOp4
 70
     1
102
RTVSPropertyOp5
 70
     1
102
RTVSPropertyOp6
 70
     1
102
RTVSPropertyOp7
 70
     1
102
RTVSPropertyOp8
 70
     1
102
RTVSPropertyOp9
 70
     1
102
RTVSPropertyOp10
 70
     1
102
RTVSPropertyOp11
 70
     1
102
RTVSPropertyOp12
 70
     1
102
RTVSPropertyOp13
 70
     1
102
RTVSPropertyOp14
 70
     1
102
RTVSPropertyOp15
 70
     1
102
RTVSPropertyOp16
 70
     1
102
RTVSPropertyOp17
 70
     1
102
RTVSPropertyOp18
 70
     1
102
RTVSPropertyOp19
 70
     1
102
RTVSPropertyOp20
 70
     1
102
RTVSPropertyOp21
 70
     1
102
RTVSPropertyOp22
 70
     1
102
RTVSPropertyOp23
 70
     1
102
RTVSPropertyOp24
 70
     1
102
RTVSPropertyOp25
 70
     1
102
RTVSPropertyOp26
 70
     1
102
RTVSPropertyOp27
 70
     1
102
RTVSPropertyOp28
 70
     1
102
RTVSPropertyOp29
 70
     1
102
RTVSPropertyOp30
 70
     1
102
RTVSPropertyOp31
 70
     1
102
RTVSPropertyOp32
 70
     1
102
RTVSPropertyOp33
 70
     1
102
RTVSPropertyOp34
 70
     1
102
RTVSPropertyOp35
 70
     1
102
RTVSPropertyOp36
 70
     1
102
RTVSPropertyOp37
 70
     1
102
RTVSPropertyOp38
 70
     1
102
RTVSPropertyOp39
 70
     1
102
RTVSPropertyOp40
 70
     1
102
RTVSPropertyOp41
 70
     1
102
RTVSPropertyOp42
 70
     1
102
RTVSPropertyOp43
 70
     1
102
RTVSPropertyOp44
 70
     1
102
RTVSPropertyOp45
 70
     1
102
RTVSPropertyOp46
 70
     1
102
RTVSPropertyOp47
 70
     1
102
RTVSPropertyOp48
 70
     1
102
RTVSPropertyOp49
 70
     1
102
RTVSPropertyOp50
 70
     1
102
RTVSPropertyOp51
 70
     0
102
RTVSPropertyOp52
 70
     0
102
RTVSPropertyOp53
 70
     1
102
RTVSPropertyOp54
 70
     1
102
RTVSPropertyOp55
 70
     1
102
RTVSPropertyOp56
 70
     1
102
RTVSPropertyOp57
 70
     1
102
RTVSPropertyOp58
 70
     1
102
RTVSPropertyOp59
 70
     1
102
RTVSPropertyOp60
 70
     1
102
RTVSPropertyOp61
 70
     1
102
RTVSPropertyOp62
 70
     1
  0
XRECORD
  5
37F
102
{ACAD_REACTORS
330
37E
102
}
330
37E
100
AcDbXrecord
280
     1
102
RTVSPost2010Prop28
280
     0
102
RTVSPost2010PropOp28
 70
     1
102
RTVSPost2010Prop29
280
     1
102
RTVSPost2010PropOp29
 70
     1
102
RTVSPost2010Prop30
280
     1
102
RTVSPost2010PropOp30
 70
     1
102
RTVSPost2010Prop31
280
     0
102
RTVSPost2010PropOp31
 70
     1
102
RTVSPost2010Prop32
280
     0
102
RTVSPost2010PropOp32
 70
     1
102
RTVSPost2010Prop33
280
     0
102
RTVSPost2010PropOp33
 70
     1
102
RTVSPost2010Prop34
280
     0
102
RTVSPost2010PropOp34
 70
     1
102
RTVSPost2010Prop35
280
     0
102
RTVSPost2010PropOp35
 70
     1
102
RTVSPost2010Prop36
280
     0
102
RTVSPost2010PropOp36
 70
     1
102
RTVSPost2010Prop37
 90
       50
102
RTVSPost2010PropOp37
 70
     1
102
RTVSPost2010Prop38
140
0.0
102
RTVSPost2010PropOp38
 70
     1
102
RTVSPost2010Prop39
140
1.0
102
RTVSPost2010PropOp39
 70
     1
102
RTVSPost2010Prop40
 90
        0
102
RTVSPost2010PropOp40
 70
     1
102
RTVSPost2010Prop41ColorIndex
 90
       18
102
RTVSPost2010Prop41ColorRGB
 90
        0
102
RTVSPost2010PropOp41
 70
     1
102
RTVSPost2010Prop42
 90
       50
102
RTVSPost2010PropOp42
 70
     1
102
RTVSPost2010Prop43
 90
        3
102
RTVSPost2010PropOp43
 70
     1
102
RTVSPost2010Prop44ColorIndex
 90
        5
102
RTVSPost2010Prop44ColorRGB
 90
      255
102
RTVSPost2010PropOp44
 70
     1
102
RTVSPost2010Prop45
280
     0
102
RTVSPost2010PropOp45
 70
     1
102
RTVSPost2010Prop46
 90
       50
102
RTVSPost2010PropOp46
 70
     1
102
RTVSPost2010Prop47
 90
       50
102
RTVSPost2010PropOp47
 70
     1
102
RTVSPost2010Prop48
 90
       50
102
RTVSPost2010PropOp48
 70
     1
102
RTVSPost2010Prop49
280
     0
102
RTVSPost2010PropOp49
 70
     1
102
RTVSPost2010Prop50
 90
       50
102
RTVSPost2010PropOp50
 70
     1
102
RTVSPost2010Prop51ColorIndex
 90
      256
102
RTVSPost2010Prop51ColorRGB
 90
-16777216
102
RTVSPost2010PropOp51
 70
     0
102
RTVSPost2010Prop52
140
1.0
102
RTVSPost2010PropOp52
 70
     0
102
RTVSPost2010Prop53
 90
        2
102
RTVSPost2010PropOp53
 70
     1
102
RTVSPost2010Prop54
  1
strokes_ogs.tif
102
RTVSPost2010PropOp54
 70
     1
102
RTVSPost2010Prop55
280
     0
102
RTVSPost2010PropOp55
 70
     1
102
RTVSPost2010Prop56
140
1.0
102
RTVSPost2010PropOp56
 70
     1
102
RTVSPost2010Prop57
140
1.0
102
RTVSPost2010PropOp57
 70
     1
102
RTVSPropertyOp0
 70
     1
102
RTVSPropertyOp1
 70
     1
102
RTVSPropertyOp2
 70
     1
102
RTVSPropertyOp3
 70
     1
102
RTVSPropertyOp4
 70
     1
102
RTVSPropertyOp5
 70
     1
102
RTVSPropertyOp6
 70
     1
102
RTVSPropertyOp7
 70
     1
102
RTVSPropertyOp8
 70
     1
102
RTVSPropertyOp9
 70
     1
102
RTVSPropertyOp10
 70
     1
102
RTVSPropertyOp11
 70
     1
102
RTVSPropertyOp12
 70
     1
102
RTVSPropertyOp13
 70
     1
102
RTVSPropertyOp14
 70
     1
102
RTVSPropertyOp15
 70
     1
102
RTVSPropertyOp16
 70
     1
102
RTVSPropertyOp17
 70
     1
102
RTVSPropertyOp18
 70
     1
102
RTVSPropertyOp19
 70
     1
102
RTVSPropertyOp20
 70
     1
102
RTVSPropertyOp21
 70
     1
102
RTVSPropertyOp22
 70
     1
102
RTVSPropertyOp23
 70
     1
102
RTVSPropertyOp24
 70
     1
102
RTVSPropertyOp25
 70
     1
102
RTVSPropertyOp26
 70
     1
102
RTVSPropertyOp27
 70
     1
102
RTVSPropertyOp28
 70
     1
102
RTVSPropertyOp29
 70
     1
102
RTVSPropertyOp30
 70
     1
102
RTVSPropertyOp31
 70
     1
102
RTVSPropertyOp32
 70
     1
102
RTVSPropertyOp33
 70
     1
102
RTVSPropertyOp34
 70
     1
102
RTVSPropertyOp35
 70
     1
102
RTVSPropertyOp36
 70
     1
102
RTVSPropertyOp37
 70
     1
102
RTVSPropertyOp38
 70
     1
102
RTVSPropertyOp39
 70
     1
102
RTVSPropertyOp40
 70
     1
102
RTVSPropertyOp41
 70
     1
102
RTVSPropertyOp42
 70
     1
102
RTVSPropertyOp43
 70
     1
102
RTVSPropertyOp44
 70
     1
102
RTVSPropertyOp45
 70
     1
102
RTVSPropertyOp46
 70
     1
102
RTVSPropertyOp47
 70
     1
102
RTVSPropertyOp48
 70
     1
102
RTVSPropertyOp49
 70
     1
102
RTVSPropertyOp50
 70
     1
102
RTVSPropertyOp51
 70
     0
102
RTVSPropertyOp52
 70
     0
102
RTVSPropertyOp53
 70
     1
102
RTVSPropertyOp54
 70
     1
102
RTVSPropertyOp55
 70
     1
102
RTVSPropertyOp56
 70
     1
102
RTVSPropertyOp57
 70
     1
102
RTVSPropertyOp58
 70
     1
102
RTVSPropertyOp59
 70
     1
102
RTVSPropertyOp60
 70
     1
102
RTVSPropertyOp61
 70
     1
102
RTVSPropertyOp62
 70
     1
  0
XRECORD
  5
371
102
{ACAD_REACTORS
330
370
102
}
330
370
100
AcDbXrecord
280
     1
102
RTVSPost2010Prop28
280
     0
102
RTVSPost2010PropOp28
 70
     1
102
RTVSPost2010Prop29
280
     1
102
RTVSPost2010PropOp29
 70
     1
102
RTVSPost2010Prop30
280
     1
102
RTVSPost2010PropOp30
 70
     1
102
RTVSPost2010Prop31
280
     0
102
RTVSPost2010PropOp31
 70
     1
102
RTVSPost2010Prop32
280
     0
102
RTVSPost2010PropOp32
 70
     1
102
RTVSPost2010Prop33
280
     0
102
RTVSPost2010PropOp33
 70
     1
102
RTVSPost2010Prop34
280
     0
102
RTVSPost2010PropOp34
 70
     1
102
RTVSPost2010Prop35
280
     0
102
RTVSPost2010PropOp35
 70
     1
102
RTVSPost2010Prop36
280
     0
102
RTVSPost2010PropOp36
 70
     1
102
RTVSPost2010Prop37
 90
       50
102
RTVSPost2010PropOp37
 70
     1
102
RTVSPost2010Prop38
140
0.0
102
RTVSPost2010PropOp38
 70
     1
102
RTVSPost2010Prop39
140
1.0
102
RTVSPost2010PropOp39
 70
     1
102
RTVSPost2010Prop40
 90
        0
102
RTVSPost2010PropOp40
 70
     1
102
RTVSPost2010Prop41ColorIndex
 90
       18
102
RTVSPost2010Prop41ColorRGB
 90
        0
102
RTVSPost2010PropOp41
 70
     1
102
RTVSPost2010Prop42
 90
       50
102
RTVSPost2010PropOp42
 70
     1
102
RTVSPost2010Prop43
 90
        3
102
RTVSPost2010PropOp43
 70
     1
102
RTVSPost2010Prop44ColorIndex
 90
        5
102
RTVSPost2010Prop44ColorRGB
 90
      255
102
RTVSPost2010PropOp44
 70
     1
102
RTVSPost2010Prop45
280
     0
102
RTVSPost2010PropOp45
 70
     1
102
RTVSPost2010Prop46
 90
       50
102
RTVSPost2010PropOp46
 70
     1
102
RTVSPost2010Prop47
 90
       50
102
RTVSPost2010PropOp47
 70
     1
102
RTVSPost2010Prop48
 90
       50
102
RTVSPost2010PropOp48
 70
     1
102
RTVSPost2010Prop49
280
     0
102
RTVSPost2010PropOp49
 70
     1
102
RTVSPost2010Prop50
 90
       50
102
RTVSPost2010PropOp50
 70
     1
102
RTVSPost2010Prop51ColorIndex
 90
      256
102
RTVSPost2010Prop51ColorRGB
 90
-16777216
102
RTVSPost2010PropOp51
 70
     0
102
RTVSPost2010Prop52
140
1.0
102
RTVSPost2010PropOp52
 70
     0
102
RTVSPost2010Prop53
 90
        2
102
RTVSPost2010PropOp53
 70
     1
102
RTVSPost2010Prop54
  1
strokes_ogs.tif
102
RTVSPost2010PropOp54
 70
     1
102
RTVSPost2010Prop55
280
     0
102
RTVSPost2010PropOp55
 70
     1
102
RTVSPost2010Prop56
140
1.0
102
RTVSPost2010PropOp56
 70
     1
102
RTVSPost2010Prop57
140
1.0
102
RTVSPost2010PropOp57
 70
     1
102
RTVSPropertyOp0
 70
     1
102
RTVSPropertyOp1
 70
     1
102
RTVSPropertyOp2
 70
     1
102
RTVSPropertyOp3
 70
     1
102
RTVSPropertyOp4
 70
     1
102
RTVSPropertyOp5
 70
     1
102
RTVSPropertyOp6
 70
     1
102
RTVSPropertyOp7
 70
     1
102
RTVSPropertyOp8
 70
     1
102
RTVSPropertyOp9
 70
     1
102
RTVSPropertyOp10
 70
     1
102
RTVSPropertyOp11
 70
     1
102
RTVSPropertyOp12
 70
     1
102
RTVSPropertyOp13
 70
     1
102
RTVSPropertyOp14
 70
     1
102
RTVSPropertyOp15
 70
     1
102
RTVSPropertyOp16
 70
     1
102
RTVSPropertyOp17
 70
     1
102
RTVSPropertyOp18
 70
     1
102
RTVSPropertyOp19
 70
     1
102
RTVSPropertyOp20
 70
     1
102
RTVSPropertyOp21
 70
     1
102
RTVSPropertyOp22
 70
     1
102
RTVSPropertyOp23
 70
     1
102
RTVSPropertyOp24
 70
     1
102
RTVSPropertyOp25
 70
     1
102
RTVSPropertyOp26
 70
     1
102
RTVSPropertyOp27
 70
     1
102
RTVSPropertyOp28
 70
     1
102
RTVSPropertyOp29
 70
     1
102
RTVSPropertyOp30
 70
     1
102
RTVSPropertyOp31
 70
     1
102
RTVSPropertyOp32
 70
     1
102
RTVSPropertyOp33
 70
     1
102
RTVSPropertyOp34
 70
     1
102
RTVSPropertyOp35
 70
     1
102
RTVSPropertyOp36
 70
     1
102
RTVSPropertyOp37
 70
     1
102
RTVSPropertyOp38
 70
     1
102
RTVSPropertyOp39
 70
     1
102
RTVSPropertyOp40
 70
     1
102
RTVSPropertyOp41
 70
     1
102
RTVSPropertyOp42
 70
     1
102
RTVSPropertyOp43
 70
     1
102
RTVSPropertyOp44
 70
     1
102
RTVSPropertyOp45
 70
     1
102
RTVSPropertyOp46
 70
     1
102
RTVSPropertyOp47
 70
     1
102
RTVSPropertyOp48
 70
     1
102
RTVSPropertyOp49
 70
     1
102
RTVSPropertyOp50
 70
     1
102
RTVSPropertyOp51
 70
     0
102
RTVSPropertyOp52
 70
     0
102
RTVSPropertyOp53
 70
     1
102
RTVSPropertyOp54
 70
     1
102
RTVSPropertyOp55
 70
     1
102
RTVSPropertyOp56
 70
     1
102
RTVSPropertyOp57
 70
     1
102
RTVSPropertyOp58
 70
     1
102
RTVSPropertyOp59
 70
     1
102
RTVSPropertyOp60
 70
     1
102
RTVSPropertyOp61
 70
     1
102
RTVSPropertyOp62
 70
     1
  0
XRECORD
  5
391
102
{ACAD_REACTORS
330
390
102
}
330
390
100
AcDbXrecord
280
     1
102
RTVSPost2010Prop28
280
     0
102
RTVSPost2010PropOp28
 70
     1
102
RTVSPost2010Prop29
280
     1
102
RTVSPost2010PropOp29
 70
     1
102
RTVSPost2010Prop30
280
     1
102
RTVSPost2010PropOp30
 70
     1
102
RTVSPost2010Prop31
280
     0
102
RTVSPost2010PropOp31
 70
     1
102
RTVSPost2010Prop32
280
     0
102
RTVSPost2010PropOp32
 70
     1
102
RTVSPost2010Prop33
280
     0
102
RTVSPost2010PropOp33
 70
     1
102
RTVSPost2010Prop34
280
     0
102
RTVSPost2010PropOp34
 70
     1
102
RTVSPost2010Prop35
280
     0
102
RTVSPost2010PropOp35
 70
     1
102
RTVSPost2010Prop36
280
     0
102
RTVSPost2010PropOp36
 70
     1
102
RTVSPost2010Prop37
 90
       50
102
RTVSPost2010PropOp37
 70
     1
102
RTVSPost2010Prop38
140
0.0
102
RTVSPost2010PropOp38
 70
     1
102
RTVSPost2010Prop39
140
1.0
102
RTVSPost2010PropOp39
 70
     1
102
RTVSPost2010Prop40
 90
        0
102
RTVSPost2010PropOp40
 70
     1
102
RTVSPost2010Prop41ColorIndex
 90
       18
102
RTVSPost2010Prop41ColorRGB
 90
        0
102
RTVSPost2010PropOp41
 70
     1
102
RTVSPost2010Prop42
 90
       50
102
RTVSPost2010PropOp42
 70
     1
102
RTVSPost2010Prop43
 90
        3
102
RTVSPost2010PropOp43
 70
     1
102
RTVSPost2010Prop44ColorIndex
 90
        5
102
RTVSPost2010Prop44ColorRGB
 90
      255
102
RTVSPost2010PropOp44
 70
     1
102
RTVSPost2010Prop45
280
     0
102
RTVSPost2010PropOp45
 70
     1
102
RTVSPost2010Prop46
 90
       50
102
RTVSPost2010PropOp46
 70
     1
102
RTVSPost2010Prop47
 90
       50
102
RTVSPost2010PropOp47
 70
     1
102
RTVSPost2010Prop48
 90
       50
102
RTVSPost2010PropOp48
 70
     1
102
RTVSPost2010Prop49
280
     0
102
RTVSPost2010PropOp49
 70
     1
102
RTVSPost2010Prop50
 90
       50
102
RTVSPost2010PropOp50
 70
     1
102
RTVSPost2010Prop51ColorIndex
 90
      256
102
RTVSPost2010Prop51ColorRGB
 90
-16777216
102
RTVSPost2010PropOp51
 70
     0
102
RTVSPost2010Prop52
140
1.0
102
RTVSPost2010PropOp52
 70
     0
102
RTVSPost2010Prop53
 90
        2
102
RTVSPost2010PropOp53
 70
     1
102
RTVSPost2010Prop54
  1
strokes_ogs.tif
102
RTVSPost2010PropOp54
 70
     1
102
RTVSPost2010Prop55
280
     0
102
RTVSPost2010PropOp55
 70
     1
102
RTVSPost2010Prop56
140
1.0
102
RTVSPost2010PropOp56
 70
     1
102
RTVSPost2010Prop57
140
1.0
102
RTVSPost2010PropOp57
 70
     1
102
RTVSPropertyOp0
 70
     1
102
RTVSPropertyOp1
 70
     1
102
RTVSPropertyOp2
 70
     1
102
RTVSPropertyOp3
 70
     1
102
RTVSPropertyOp4
 70
     1
102
RTVSPropertyOp5
 70
     1
102
RTVSPropertyOp6
 70
     1
102
RTVSPropertyOp7
 70
     1
102
RTVSPropertyOp8
 70
     1
102
RTVSPropertyOp9
 70
     1
102
RTVSPropertyOp10
 70
     1
102
RTVSPropertyOp11
 70
     1
102
RTVSPropertyOp12
 70
     1
102
RTVSPropertyOp13
 70
     1
102
RTVSPropertyOp14
 70
     1
102
RTVSPropertyOp15
 70
     1
102
RTVSPropertyOp16
 70
     1
102
RTVSPropertyOp17
 70
     1
102
RTVSPropertyOp18
 70
     1
102
RTVSPropertyOp19
 70
     1
102
RTVSPropertyOp20
 70
     1
102
RTVSPropertyOp21
 70
     1
102
RTVSPropertyOp22
 70
     1
102
RTVSPropertyOp23
 70
     1
102
RTVSPropertyOp24
 70
     1
102
RTVSPropertyOp25
 70
     1
102
RTVSPropertyOp26
 70
     1
102
RTVSPropertyOp27
 70
     1
102
RTVSPropertyOp28
 70
     1
102
RTVSPropertyOp29
 70
     1
102
RTVSPropertyOp30
 70
     1
102
RTVSPropertyOp31
 70
     1
102
RTVSPropertyOp32
 70
     1
102
RTVSPropertyOp33
 70
     1
102
RTVSPropertyOp34
 70
     1
102
RTVSPropertyOp35
 70
     1
102
RTVSPropertyOp36
 70
     1
102
RTVSPropertyOp37
 70
     1
102
RTVSPropertyOp38
 70
     1
102
RTVSPropertyOp39
 70
     1
102
RTVSPropertyOp40
 70
     1
102
RTVSPropertyOp41
 70
     1
102
RTVSPropertyOp42
 70
     1
102
RTVSPropertyOp43
 70
     1
102
RTVSPropertyOp44
 70
     1
102
RTVSPropertyOp45
 70
     1
102
RTVSPropertyOp46
 70
     1
102
RTVSPropertyOp47
 70
     1
102
RTVSPropertyOp48
 70
     1
102
RTVSPropertyOp49
 70
     1
102
RTVSPropertyOp50
 70
     1
102
RTVSPropertyOp51
 70
     0
102
RTVSPropertyOp52
 70
     0
102
RTVSPropertyOp53
 70
     1
102
RTVSPropertyOp54
 70
     1
102
RTVSPropertyOp55
 70
     1
102
RTVSPropertyOp56
 70
     1
102
RTVSPropertyOp57
 70
     1
102
RTVSPropertyOp58
 70
     1
102
RTVSPropertyOp59
 70
     1
102
RTVSPropertyOp60
 70
     1
102
RTVSPropertyOp61
 70
     1
102
RTVSPropertyOp62
 70
     1
  0
ENDSEC
  0
EOF
