  0
SECTION
  2
HEADER
  9
$ACADVER
  1
AC1018
  9
$ACADMAINTVER
 70
   104
  9
$DWGCODEPAGE
  3
ANSI_1250
  9
$LASTSAVEDBY
  1
wq7085
  9
$INSBASE
 10
0.0
 20
0.0
 30
0.0
  9
$EXTMIN
 10
188.6658343333333
 20
122.034924
 30
0.0
  9
$EXTMAX
 10
380.274632
 20
345.2288016666668
 30
0.0
  9
$LIMMIN
 10
-0.5
 20
-0.5
  9
$LIMMAX
 10
5.0
 20
5.0
  9
$ORTHOMODE
 70
     0
  9
$REGENMODE
 70
     1
  9
$FILLMODE
 70
     1
  9
$QTEXTMODE
 70
     0
  9
$MIRRTEXT
 70
     1
  9
$LTSCALE
 40
1.0
  9
$ATTMODE
 70
     1
  9
$TEXTSIZE
 40
0.2
  9
$TRACEWID
 40
0.05
  9
$TEXTSTYLE
  7
Standard
  9
$CLAYER
  8
0
  9
$CELTYPE
  6
ByLayer
  9
$CECOLOR
 62
   256
  9
$CELTSCALE
 40
1.0
  9
$DISPSILH
 70
     0
  9
$DIMSCALE
 40
1.0
  9
$DIMASZ
 40
0.18
  9
$DIMEXO
 40
0.0625
  9
$DIMDLI
 40
0.38
  9
$DIMRND
 40
0.0
  9
$DIMDLE
 40
0.0
  9
$DIMEXE
 40
0.18
  9
$DIMTP
 40
0.0
  9
$DIMTM
 40
0.0
  9
$DIMTXT
 40
0.18
  9
$DIMCEN
 40
0.09
  9
$DIMTSZ
 40
0.0
  9
$DIMTOL
 70
     0
  9
$DIMLIM
 70
     0
  9
$DIMTIH
 70
     1
  9
$DIMTOH
 70
     1
  9
$DIMSE1
 70
     0
  9
$DIMSE2
 70
     0
  9
$DIMTAD
 70
     0
  9
$DIMZIN
 70
     0
  9
$DIMBLK
  1

  9
$DIMASO
 70
     1
  9
$DIMSHO
 70
     1
  9
$DIMPOST
  1

  9
$DIMAPOST
  1

  9
$DIMALT
 70
     0
  9
$DIMALTD
 70
     2
  9
$DIMALTF
 40
25.4
  9
$DIMLFAC
 40
1.0
  9
$DIMTOFL
 70
     0
  9
$DIMTVP
 40
0.0
  9
$DIMTIX
 70
     0
  9
$DIMSOXD
 70
     0
  9
$DIMSAH
 70
     0
  9
$DIMBLK1
  1

  9
$DIMBLK2
  1

  9
$DIMSTYLE
  2
Standard
  9
$DIMCLRD
 70
     0
  9
$DIMCLRE
 70
     0
  9
$DIMCLRT
 70
     0
  9
$DIMTFAC
 40
1.0
  9
$DIMGAP
 40
0.09
  9
$DIMJUST
 70
     0
  9
$DIMSD1
 70
     0
  9
$DIMSD2
 70
     0
  9
$DIMTOLJ
 70
     1
  9
$DIMTZIN
 70
     0
  9
$DIMALTZ
 70
     0
  9
$DIMALTTZ
 70
     0
  9
$DIMUPT
 70
     0
  9
$DIMDEC
 70
     4
  9
$DIMTDEC
 70
     4
  9
$DIMALTU
 70
     2
  9
$DIMALTTD
 70
     2
  9
$DIMTXSTY
  7
Standard
  9
$DIMAUNIT
 70
     0
  9
$DIMADEC
 70
     0
  9
$DIMALTRND
 40
0.0
  9
$DIMAZIN
 70
     0
  9
$DIMDSEP
 70
    46
  9
$DIMATFIT
 70
     3
  9
$DIMFRAC
 70
     0
  9
$DIMLDRBLK
  1

  9
$DIMLUNIT
 70
     2
  9
$DIMLWD
 70
    -2
  9
$DIMLWE
 70
    -2
  9
$DIMTMOVE
 70
     0
  9
$LUNITS
 70
     2
  9
$LUPREC
 70
     4
  9
$SKETCHINC
 40
0.1
  9
$FILLETRAD
 40
0.5
  9
$AUNITS
 70
     0
  9
$AUPREC
 70
     0
  9
$MENU
  1
.
  9
$ELEVATION
 40
0.0
  9
$PELEVATION
 40
0.0
  9
$THICKNESS
 40
0.0
  9
$LIMCHECK
 70
     0
  9
$CHAMFERA
 40
0.0
  9
$CHAMFERB
 40
0.0
  9
$CHAMFERC
 40
0.0
  9
$CHAMFERD
 40
0.0
  9
$SKPOLY
 70
     0
  9
$TDCREATE
 40
2459004.342511574
  9
$TDUCREATE
 40
2459004.259189422
  9
$TDUPDATE
 40
2459004.343854167
  9
$TDUUPDATE
 40
2459004.260520833
  9
$TDINDWG
 40
0.0003472338
  9
$TDUSRTIMER
 40
0.0003472338
  9
$USRTIMER
 70
     1
  9
$ANGBASE
 50
0.0
  9
$ANGDIR
 70
     0
  9
$PDMODE
 70
     0
  9
$PDSIZE
 40
0.0
  9
$PLINEWID
 40
0.0
  9
$SPLFRAME
 70
     0
  9
$SPLINETYPE
 70
     6
  9
$SPLINESEGS
 70
     8
  9
$HANDSEED
  5
3B4
  9
$SURFTAB1
 70
     6
  9
$SURFTAB2
 70
     6
  9
$SURFTYPE
 70
     6
  9
$SURFU
 70
     6
  9
$SURFV
 70
     6
  9
$UCSBASE
  2

  9
$UCSNAME
  2

  9
$UCSORG
 10
274.404842
 20
288.907994
 30
0.0
  9
$UCSXDIR
 10
1.0
 20
0.0
 30
0.0
  9
$UCSYDIR
 10
0.0
 20
1.0
 30
0.0
  9
$UCSORTHOREF
  2

  9
$UCSORTHOVIEW
 70
     0
  9
$UCSORGTOP
 10
0.0
 20
0.0
 30
0.0
  9
$UCSORGBOTTOM
 10
0.0
 20
0.0
 30
0.0
  9
$UCSORGLEFT
 10
0.0
 20
0.0
 30
0.0
  9
$UCSORGRIGHT
 10
0.0
 20
0.0
 30
0.0
  9
$UCSORGFRONT
 10
0.0
 20
0.0
 30
0.0
  9
$UCSORGBACK
 10
0.0
 20
0.0
 30
0.0
  9
$PUCSBASE
  2

  9
$PUCSNAME
  2

  9
$PUCSORG
 10
0.0
 20
0.0
 30
0.0
  9
$PUCSXDIR
 10
1.0
 20
0.0
 30
0.0
  9
$PUCSYDIR
 10
0.0
 20
1.0
 30
0.0
  9
$PUCSORTHOREF
  2

  9
$PUCSORTHOVIEW
 70
     0
  9
$PUCSORGTOP
 10
0.0
 20
0.0
 30
0.0
  9
$PUCSORGBOTTOM
 10
0.0
 20
0.0
 30
0.0
  9
$PUCSORGLEFT
 10
0.0
 20
0.0
 30
0.0
  9
$PUCSORGRIGHT
 10
0.0
 20
0.0
 30
0.0
  9
$PUCSORGFRONT
 10
0.0
 20
0.0
 30
0.0
  9
$PUCSORGBACK
 10
0.0
 20
0.0
 30
0.0
  9
$USERI1
 70
     0
  9
$USERI2
 70
     0
  9
$USERI3
 70
     0
  9
$USERI4
 70
     0
  9
$USERI5
 70
     0
  9
$USERR1
 40
0.0
  9
$USERR2
 40
0.0
  9
$USERR3
 40
0.0
  9
$USERR4
 40
0.0
  9
$USERR5
 40
0.0
  9
$WORLDVIEW
 70
     1
  9
$SHADEDGE
 70
     3
  9
$SHADEDIF
 70
    70
  9
$TILEMODE
 70
     1
  9
$MAXACTVP
 70
    64
  9
$PINSBASE
 10
0.0
 20
0.0
 30
0.0
  9
$PLIMCHECK
 70
     0
  9
$PEXTMIN
 10
-0.5
 20
-0.5
 30
-0.5
  9
$PEXTMAX
 10
5.0
 20
5.0
 30
5.0
  9
$PLIMMIN
 10
-0.5
 20
-0.5
  9
$PLIMMAX
 10
5.0
 20
5.0
  9
$UNITMODE
 70
     0
  9
$VISRETAIN
 70
     1
  9
$PLINEGEN
 70
     0
  9
$PSLTSCALE
 70
     1
  9
$TREEDEPTH
 70
  3020
  9
$CMLSTYLE
  2
Standard
  9
$CMLJUST
 70
     0
  9
$CMLSCALE
 40
1.0
  9
$PROXYGRAPHICS
 70
     1
  9
$MEASUREMENT
 70
     1
  9
$CELWEIGHT
370
    13
  9
$ENDCAPS
280
     0
  9
$JOINSTYLE
280
     0
  9
$LWDISPLAY
290
     0
  9
$INSUNITS
 70
     4
  9
$HYPERLINKBASE
  1

  9
$STYLESHEET
  1

  9
$XEDIT
290
     1
  9
$CEPSNTYPE
380
     0
  9
$PSTYLEMODE
290
     1
  9
$FINGERPRINTGUID
  2
{84A27AB7-335B-4655-B5D2-7D2F97A1E0B7}
  9
$VERSIONGUID
  2
{FB9E1773-C9CC-F541-AAEB-57CF38EB1FDF}
  9
$EXTNAMES
290
     1
  9
$PSVPSCALE
 40
0.0
  9
$OLESTARTUP
290
     0
  9
$SORTENTS
280
   127
  9
$INDEXCTL
280
     0
  9
$HIDETEXT
280
     1
  9
$XCLIPFRAME
290
     0
  9
$HALOGAP
280
     0
  9
$OBSCOLOR
 70
   257
  9
$OBSLTYPE
280
     0
  9
$INTERSECTIONDISPLAY
280
     0
  9
$INTERSECTIONCOLOR
 70
   257
  9
$DIMASSOC
280
     2
  9
$PROJECTNAME
  1

  0
ENDSEC
  0
SECTION
  2
CLASSES
  0
CLASS
  1
ACDBDICTIONARYWDFLT
  2
AcDbDictionaryWithDefault
  3
ObjectDBX Classes
 90
        0
 91
        1
280
     0
281
     0
  0
CLASS
  1
VISUALSTYLE
  2
AcDbVisualStyle
  3
ObjectDBX Classes
 90
     4095
 91
       24
280
     0
281
     0
  0
CLASS
  1
MATERIAL
  2
AcDbMaterial
  3
ObjectDBX Classes
 90
     1153
 91
        3
280
     0
281
     0
  0
CLASS
  1
SCALE
  2
AcDbScale
  3
ObjectDBX Classes
 90
     1153
 91
       33
280
     0
281
     0
  0
CLASS
  1
TABLESTYLE
  2
AcDbTableStyle
  3
ObjectDBX Classes
 90
     4095
 91
        1
280
     0
281
     0
  0
CLASS
  1
MLEADERSTYLE
  2
AcDbMLeaderStyle
  3
ACDB_MLEADERSTYLE_CLASS
 90
     4095
 91
        1
280
     0
281
     0
  0
CLASS
  1
SUN
  2
AcDbSun
  3
SCENEOE
 90
     1153
 91
        0
280
     0
281
     0
  0
CLASS
  1
DIMASSOC
  2
AcDbDimAssoc
  3
"AcDbDimAssoc|Product Desc:     AcDim ARX App For Dimension|Company:          Autodesk, Inc.|WEB Address:      www.autodesk.com"
 90
        0
 91
        7
280
     0
281
     0
  0
CLASS
  1
DICTIONARYVAR
  2
AcDbDictionaryVar
  3
ObjectDBX Classes
 90
        0
 91
        8
280
     0
281
     0
  0
CLASS
  1
CELLSTYLEMAP
  2
AcDbCellStyleMap
  3
ObjectDBX Classes
 90
     1152
 91
        2
280
     0
281
     0
  0
CLASS
  1
ACDBSECTIONVIEWSTYLE
  2
AcDbSectionViewStyle
  3
ObjectDBX Classes
 90
     1025
 91
        1
280
     0
281
     0
  0
CLASS
  1
ACDBDETAILVIEWSTYLE
  2
AcDbDetailViewStyle
  3
ObjectDBX Classes
 90
     1025
 91
        1
280
     0
281
     0
  0
CLASS
  1
SORTENTSTABLE
  2
AcDbSortentsTable
  3
ObjectDBX Classes
 90
        0
 91
        1
280
     0
281
     0
  0
ENDSEC
  0
SECTION
  2
TABLES
  0
TABLE
  2
VPORT
  5
8
330
0
100
AcDbSymbolTable
 70
    16
  0
VPORT
  5
29
330
8
100
AcDbSymbolTableRecord
100
AcDbViewportTableRecord
  2
*Active
 70
     0
 10
0.0
 20
0.0
 11
1.0
 21
1.0
 12
304.0483368074256
 22
300.5402458079848
 13
0.0
 23
0.0
 14
0.5
 24
0.5
 15
0.5
 25
0.5
 16
0.0
 26
0.0
 36
1.0
 17
0.0
 27
0.0
 37
0.0
 40
202.5582746851418
 41
2.283154121863799
 42
50.0
 43
377.8283009999999
 44
-377.8283009999999
 50
0.0
 51
0.0
 71
     0
 72
   100
 73
     1
 74
     3
 75
     0
 76
     0
 77
     0
 78
     0
281
     0
 65
     1
110
274.404842
120
288.907994
130
0.0
111
1.0
121
0.0
131
0.0
112
0.0
122
1.0
132
0.0
 79
     0
146
0.0
1001
ACAD_NAV_VCDISPLAY
1070
     3
  0
VPORT
  5
2B5
330
8
100
AcDbSymbolTableRecord
100
AcDbViewportTableRecord
  2
L1
 70
     0
 10
0.0
 20
0.0
 11
1.0
 21
1.0
 12
283.966026
 22
233.570768
 13
0.0
 23
0.0
 14
0.5
 24
0.5
 15
0.5
 25
0.5
 16
0.0
 26
0.0
 36
1.0
 17
0.0
 27
0.0
 37
0.0
 40
207.433333
 41
0.085602
 42
50.0
 43
377.8283009999999
 44
-377.8283009999999
 50
0.0
 51
0.0
 71
     0
 72
   100
 73
     1
 74
     3
 75
     0
 76
     0
 77
     0
 78
     0
281
     0
 65
     1
110
0.0
120
0.0
130
0.0
111
1.0
121
0.0
131
0.0
112
0.0
122
1.0
132
0.0
 79
     0
146
0.0
  0
VPORT
  5
2B6
330
8
100
AcDbSymbolTableRecord
100
AcDbViewportTableRecord
  2
L2
 70
     0
 10
0.0
 20
0.0
 11
0.5
 21
1.0
 12
0.0
 22
0.0
 13
0.0
 23
0.0
 14
0.5
 24
0.5
 15
0.5
 25
0.5
 16
0.0
 26
-1.0
 36
0.0
 17
0.0
 27
0.0
 37
0.0
 40
1319.735116
 41
0.013455
 42
50.0
 43
679.920199
 44
-679.920199
 50
0.0
 51
0.0
 71
     0
 72
   100
 73
     1
 74
     3
 75
     0
 76
     0
 77
     0
 78
     0
281
     0
 65
     1
110
0.0
120
0.0
130
0.0
111
1.0
121
0.0
131
0.0
112
0.0
122
1.0
132
0.0
 79
     0
146
0.0
  0
VPORT
  5
2B7
330
8
100
AcDbSymbolTableRecord
100
AcDbViewportTableRecord
  2
L2
 70
     0
 10
0.5
 20
0.0
 11
1.0
 21
1.0
 12
0.0
 22
0.0
 13
0.0
 23
0.0
 14
0.5
 24
0.5
 15
0.5
 25
0.5
 16
1.0
 26
0.0
 36
0.0
 17
0.0
 27
0.0
 37
0.0
 40
1319.735116
 41
0.013455
 42
50.0
 43
667.9688169999999
 44
-667.9688169999999
 50
0.0
 51
0.0
 71
     0
 72
   100
 73
     1
 74
     3
 75
     0
 76
     0
 77
     0
 78
     0
281
     0
 65
     1
110
0.0
120
0.0
130
0.0
111
1.0
121
0.0
131
0.0
112
0.0
122
1.0
132
0.0
 79
     0
146
0.0
  0
VPORT
  5
2B8
330
8
100
AcDbSymbolTableRecord
100
AcDbViewportTableRecord
  2
L3
 70
     0
 10
0.0
 20
0.5
 11
1.0
 21
1.0
 12
283.966026
 22
233.570768
 13
0.0
 23
0.0
 14
0.5
 24
0.5
 15
0.5
 25
0.5
 16
0.0
 26
0.0
 36
1.0
 17
0.0
 27
0.0
 37
0.0
 40
207.433333
 41
0.085602
 42
50.0
 43
377.8283009999999
 44
-377.8283009999999
 50
0.0
 51
0.0
 71
     0
 72
   100
 73
     1
 74
     3
 75
     0
 76
     0
 77
     0
 78
     0
281
     0
 65
     1
110
0.0
120
0.0
130
0.0
111
1.0
121
0.0
131
0.0
112
0.0
122
1.0
132
0.0
 79
     0
146
0.0
  0
VPORT
  5
2B9
330
8
100
AcDbSymbolTableRecord
100
AcDbViewportTableRecord
  2
L3
 70
     0
 10
0.0
 20
0.0
 11
1.0
 21
0.5
 12
0.0
 22
0.0
 13
0.0
 23
0.0
 14
0.5
 24
0.5
 15
0.5
 25
0.5
 16
0.0
 26
-1.0
 36
0.0
 17
0.0
 27
0.0
 37
0.0
 40
1319.735116
 41
0.013455
 42
50.0
 43
679.920199
 44
-679.920199
 50
0.0
 51
0.0
 71
     0
 72
   100
 73
     1
 74
     3
 75
     0
 76
     0
 77
     0
 78
     0
281
     0
 65
     1
110
0.0
120
0.0
130
0.0
111
1.0
121
0.0
131
0.0
112
0.0
122
1.0
132
0.0
 79
     0
146
0.0
  0
VPORT
  5
2BA
330
8
100
AcDbSymbolTableRecord
100
AcDbViewportTableRecord
  2
L4
 70
     0
 10
0.0
 20
0.5
 11
0.5
 21
1.0
 12
283.966026
 22
233.570768
 13
0.0
 23
0.0
 14
0.5
 24
0.5
 15
0.5
 25
0.5
 16
0.0
 26
0.0
 36
1.0
 17
0.0
 27
0.0
 37
0.0
 40
207.433333
 41
0.085602
 42
50.0
 43
377.8283009999999
 44
-377.8283009999999
 50
0.0
 51
0.0
 71
     0
 72
   100
 73
     1
 74
     3
 75
     0
 76
     0
 77
     0
 78
     0
281
     0
 65
     1
110
0.0
120
0.0
130
0.0
111
1.0
121
0.0
131
0.0
112
0.0
122
1.0
132
0.0
 79
     0
146
0.0
  0
VPORT
  5
2BB
330
8
100
AcDbSymbolTableRecord
100
AcDbViewportTableRecord
  2
L4
 70
     0
 10
0.0
 20
0.0
 11
0.5
 21
0.5
 12
0.0
 22
0.0
 13
0.0
 23
0.0
 14
0.5
 24
0.5
 15
0.5
 25
0.5
 16
0.0
 26
-1.0
 36
0.0
 17
0.0
 27
0.0
 37
0.0
 40
1319.735116
 41
0.013455
 42
50.0
 43
679.920199
 44
-679.920199
 50
0.0
 51
0.0
 71
     0
 72
   100
 73
     1
 74
     3
 75
     0
 76
     0
 77
     0
 78
     0
281
     0
 65
     1
110
0.0
120
0.0
130
0.0
111
1.0
121
0.0
131
0.0
112
0.0
122
1.0
132
0.0
 79
     0
146
0.0
  0
VPORT
  5
2BC
330
8
100
AcDbSymbolTableRecord
100
AcDbViewportTableRecord
  2
L4
 70
     0
 10
0.5
 20
0.0
 11
1.0
 21
0.5
 12
0.0
 22
0.0
 13
0.0
 23
0.0
 14
0.5
 24
0.5
 15
0.5
 25
0.5
 16
1.0
 26
0.0
 36
0.0
 17
0.0
 27
0.0
 37
0.0
 40
1319.735116
 41
0.013455
 42
50.0
 43
667.9688169999999
 44
-667.9688169999999
 50
0.0
 51
0.0
 71
     0
 72
   100
 73
     1
 74
     3
 75
     0
 76
     0
 77
     0
 78
     0
281
     0
 65
     1
110
0.0
120
0.0
130
0.0
111
1.0
121
0.0
131
0.0
112
0.0
122
1.0
132
0.0
 79
     0
146
0.0
  0
VPORT
  5
2BD
330
8
100
AcDbSymbolTableRecord
100
AcDbViewportTableRecord
  2
L4
 70
     0
 10
0.5
 20
0.5
 11
1.0
 21
1.0
 12
0.0
 22
0.0
 13
0.0
 23
0.0
 14
0.5
 24
0.5
 15
0.5
 25
0.5
 16
0.5773502691896259
 26
-0.5773502691896259
 36
0.5773502691896259
 17
0.0
 27
0.0
 37
0.0
 40
1296.074958
 41
0.0137
 42
50.0
 43
675.1032679999999
 44
-675.1032679999999
 50
0.0
 51
0.0
 71
     0
 72
   100
 73
     1
 74
     3
 75
     0
 76
     0
 77
     0
 78
     0
281
     0
 65
     1
110
0.0
120
0.0
130
0.0
111
1.0
121
0.0
131
0.0
112
0.0
122
1.0
132
0.0
 79
     0
146
0.0
  0
VPORT
  5
2BE
330
8
100
AcDbSymbolTableRecord
100
AcDbViewportTableRecord
  2
L6
 70
     0
 10
0.0
 20
0.5
 11
0.333333
 21
1.0
 12
0.0
 22
0.0
 13
0.0
 23
0.0
 14
0.5
 24
0.5
 15
0.5
 25
0.5
 16
0.7188730927569434
 26
-0.5850486126764433
 36
0.3754192287502549
 17
0.0
 27
0.0
 37
0.0
 40
1367.812327
 41
0.012982
 42
50.0
 43
708.2012429999999
 44
-708.2012429999999
 50
0.0
 51
0.0
 71
     0
 72
   100
 73
     1
 74
     3
 75
     0
 76
     0
 77
     0
 78
     0
281
     0
 65
     1
110
0.0
120
0.0
130
0.0
111
1.0
121
0.0
131
0.0
112
0.0
122
1.0
132
0.0
 79
     0
146
0.0
  0
VPORT
  5
2BF
330
8
100
AcDbSymbolTableRecord
100
AcDbViewportTableRecord
  2
L6
 70
     0
 10
0.0
 20
0.0
 11
0.333333
 21
0.5
 12
0.0
 22
0.0
 13
0.0
 23
0.0
 14
0.5
 24
0.5
 15
0.5
 25
0.5
 16
-1.0
 26
0.0
 36
0.0
 17
0.0
 27
0.0
 37
0.0
 40
1319.735116
 41
0.013455
 42
50.0
 43
667.9688169999999
 44
-667.9688169999999
 50
0.0
 51
0.0
 71
     0
 72
   100
 73
     1
 74
     3
 75
     0
 76
     0
 77
     0
 78
     0
281
     0
 65
     1
110
0.0
120
0.0
130
0.0
111
1.0
121
0.0
131
0.0
112
0.0
122
1.0
132
0.0
 79
     0
146
0.0
  0
VPORT
  5
2C0
330
8
100
AcDbSymbolTableRecord
100
AcDbViewportTableRecord
  2
L6
 70
     0
 10
0.333333
 20
0.5
 11
0.666667
 21
1.0
 12
283.966026
 22
233.570768
 13
0.0
 23
0.0
 14
0.5
 24
0.5
 15
0.5
 25
0.5
 16
0.0
 26
0.0
 36
1.0
 17
0.0
 27
0.0
 37
0.0
 40
207.433333
 41
0.085602
 42
50.0
 43
377.8283009999999
 44
-377.8283009999999
 50
0.0
 51
0.0
 71
     0
 72
   100
 73
     1
 74
     3
 75
     0
 76
     0
 77
     0
 78
     0
281
     0
 65
     1
110
0.0
120
0.0
130
0.0
111
1.0
121
0.0
131
0.0
112
0.0
122
1.0
132
0.0
 79
     0
146
0.0
  0
VPORT
  5
2C1
330
8
100
AcDbSymbolTableRecord
100
AcDbViewportTableRecord
  2
L6
 70
     0
 10
0.333333
 20
0.0
 11
0.666667
 21
0.5
 12
0.0
 22
0.0
 13
0.0
 23
0.0
 14
0.5
 24
0.5
 15
0.5
 25
0.5
 16
0.0
 26
-1.0
 36
0.0
 17
0.0
 27
0.0
 37
0.0
 40
1319.735116
 41
0.013455
 42
50.0
 43
679.920199
 44
-679.920199
 50
0.0
 51
0.0
 71
     0
 72
   100
 73
     1
 74
     3
 75
     0
 76
     0
 77
     0
 78
     0
281
     0
 65
     1
110
0.0
120
0.0
130
0.0
111
1.0
121
0.0
131
0.0
112
0.0
122
1.0
132
0.0
 79
     0
146
0.0
  0
VPORT
  5
2C2
330
8
100
AcDbSymbolTableRecord
100
AcDbViewportTableRecord
  2
L6
 70
     0
 10
0.666667
 20
0.5
 11
1.0
 21
1.0
 12
0.0
 22
0.0
 13
0.0
 23
0.0
 14
0.5
 24
0.5
 15
0.5
 25
0.5
 16
0.5773502691896259
 26
-0.5773502691896259
 36
0.5773502691896259
 17
0.0
 27
0.0
 37
0.0
 40
1296.074958
 41
0.0137
 42
50.0
 43
675.1032679999999
 44
-675.1032679999999
 50
0.0
 51
0.0
 71
     0
 72
   100
 73
     1
 74
     3
 75
     0
 76
     0
 77
     0
 78
     0
281
     0
 65
     1
110
0.0
120
0.0
130
0.0
111
1.0
121
0.0
131
0.0
112
0.0
122
1.0
132
0.0
 79
     0
146
0.0
  0
VPORT
  5
2C3
330
8
100
AcDbSymbolTableRecord
100
AcDbViewportTableRecord
  2
L6
 70
     0
 10
0.666667
 20
0.0
 11
1.0
 21
0.5
 12
0.0
 22
0.0
 13
0.0
 23
0.0
 14
0.5
 24
0.5
 15
0.5
 25
0.5
 16
1.0
 26
0.0
 36
0.0
 17
0.0
 27
0.0
 37
0.0
 40
1319.735116
 41
0.013455
 42
50.0
 43
667.9688169999999
 44
-667.9688169999999
 50
0.0
 51
0.0
 71
     0
 72
   100
 73
     1
 74
     3
 75
     0
 76
     0
 77
     0
 78
     0
281
     0
 65
     1
110
0.0
120
0.0
130
0.0
111
1.0
121
0.0
131
0.0
112
0.0
122
1.0
132
0.0
 79
     0
146
0.0
  0
ENDTAB
  0
TABLE
  2
LTYPE
  5
5
330
0
100
AcDbSymbolTable
 70
     7
  0
LTYPE
  5
14
330
5
100
AcDbSymbolTableRecord
100
AcDbLinetypeTableRecord
  2
ByBlock
 70
     0
  3

 72
    65
 73
     0
 40
0.0
  0
LTYPE
  5
15
330
5
100
AcDbSymbolTableRecord
100
AcDbLinetypeTableRecord
  2
ByLayer
 70
     0
  3

 72
    65
 73
     0
 40
0.0
  0
LTYPE
  5
16
330
5
100
AcDbSymbolTableRecord
100
AcDbLinetypeTableRecord
  2
Continuous
 70
     0
  3
Solid line
 72
    65
 73
     0
 40
0.0
  0
LTYPE
  5
6E
330
5
100
AcDbSymbolTableRecord
100
AcDbLinetypeTableRecord
  2
CENTER
 70
     0
  3
____ _ ____ _ ____ _ ____
 72
    65
 73
     4
 40
47.4
 49
22.0
 74
     4
 75
     0
340
0
 46
0.0
 50
0.0
 44
0.0
 45
0.0
 49
-8.5
 74
     4
 75
     0
340
0
 46
0.0
 50
0.0
 44
0.0
 45
0.0
 49
8.5
 74
     4
 75
     0
340
0
 46
0.0
 50
0.0
 44
0.0
 45
0.0
 49
-8.5
 74
     4
 75
     0
340
0
 46
0.0
 50
0.0
 44
0.0
 45
0.0
  0
LTYPE
  5
6F
330
5
100
AcDbSymbolTableRecord
100
AcDbLinetypeTableRecord
  2
DASHDOT
 70
     0
  3
_._._._._._._._._._._._._._._._.
 72
    65
 73
     4
 40
70.0
 49
31.0
 74
     4
 75
     0
340
0
 46
0.0
 50
0.0
 44
0.0
 45
0.0
 49
-13.0
 74
     4
 75
     0
340
0
 46
0.0
 50
0.0
 44
0.0
 45
0.0
 49
13.0
 74
     4
 75
     0
340
0
 46
0.0
 50
0.0
 44
0.0
 45
0.0
 49
-13.0
 74
     4
 75
     0
340
0
 46
0.0
 50
0.0
 44
0.0
 45
0.0
  0
LTYPE
  5
70
330
5
100
AcDbSymbolTableRecord
100
AcDbLinetypeTableRecord
  2
DASHED
 70
     0
  3
__ __ __ __ __ __ __ __ __
 72
    65
 73
     2
 40
25.72
 49
12.86
 74
     4
 75
     0
340
0
 46
0.0
 50
0.0
 44
0.0
 45
0.0
 49
-12.86
 74
     4
 75
     0
340
0
 46
0.0
 50
0.0
 44
0.0
 45
0.0
  0
LTYPE
  5
71
330
5
100
AcDbSymbolTableRecord
100
AcDbLinetypeTableRecord
  2
DOT
 70
     0
  3
.........................
 72
    65
 73
     2
 40
10.0
 49
0.0
 74
     4
 75
     0
340
0
 46
0.0
 50
0.0
 44
0.0
 45
0.0
 49
-10.0
 74
     4
 75
     0
340
0
 46
0.0
 50
0.0
 44
0.0
 45
0.0
  0
LTYPE
  5
72
330
5
100
AcDbSymbolTableRecord
100
AcDbLinetypeTableRecord
  2
PHANTOM
 70
     0
  3
____ _ _ ____ _ _ _____ _ _ ____
 72
    65
 73
     6
 40
50.5
 49
18.0
 74
     4
 75
     0
340
0
 46
0.0
 50
0.0
 44
0.0
 45
0.0
 49
-6.5
 74
     4
 75
     0
340
0
 46
0.0
 50
0.0
 44
0.0
 45
0.0
 49
6.5
 74
     4
 75
     0
340
0
 46
0.0
 50
0.0
 44
0.0
 45
0.0
 49
-6.5
 74
     4
 75
     0
340
0
 46
0.0
 50
0.0
 44
0.0
 45
0.0
 49
6.5
 74
     4
 75
     0
340
0
 46
0.0
 50
0.0
 44
0.0
 45
0.0
 49
-6.5
 74
     4
 75
     0
340
0
 46
0.0
 50
0.0
 44
0.0
 45
0.0
  0
LTYPE
  5
356
330
5
100
AcDbSymbolTableRecord
100
AcDbLinetypeTableRecord
  2
CENTER2
 70
     0
  3
Center (.5x) ___ _ ___ _ ___ _ ___ _ ___ _ ___
 72
    65
 73
     4
 40
1.125
 49
0.75
 74
     0
 49
-0.125
 74
     0
 49
0.125
 74
     0
 49
-0.125
 74
     0
  0
ENDTAB
  0
TABLE
  2
LAYER
  5
2
330
0
100
AcDbSymbolTable
 70
    22
  0
LAYER
  5
10
102
{ACAD_XDICTIONARY
360
361
102
}
330
2
100
AcDbSymbolTableRecord
100
AcDbLayerTableRecord
  2
0
 70
     0
 62
     7
  6
Continuous
370
    -3
390
F
  0
LAYER
  5
20F
330
2
100
AcDbSymbolTableRecord
100
AcDbLayerTableRecord
  2
Defpoints
 70
     0
 62
     7
  6
Continuous
290
     0
370
    -3
390
F
  0
LAYER
  5
353
102
{ACAD_XDICTIONARY
360
363
102
}
330
2
100
AcDbSymbolTableRecord
100
AcDbLayerTableRecord
  2
1
 70
     0
 62
     4
  6
Continuous
370
    -3
390
F
  0
LAYER
  5
354
102
{ACAD_XDICTIONARY
360
365
102
}
330
2
100
AcDbSymbolTableRecord
100
AcDbLayerTableRecord
  2
2
 70
     0
 62
     7
  6
Continuous
370
    -3
390
F
  0
LAYER
  5
355
102
{ACAD_XDICTIONARY
360
367
102
}
330
2
100
AcDbSymbolTableRecord
100
AcDbLayerTableRecord
  2
4
 70
     0
 62
     2
  6
CENTER2
370
    -3
390
F
  0
LAYER
  5
357
102
{ACAD_XDICTIONARY
360
369
102
}
330
2
100
AcDbSymbolTableRecord
100
AcDbLayerTableRecord
  2
SK1
 70
     0
 62
     4
  6
Continuous
370
    -3
390
F
  0
LAYER
  5
358
102
{ACAD_XDICTIONARY
360
36B
102
}
330
2
100
AcDbSymbolTableRecord
100
AcDbLayerTableRecord
  2
SK2
 70
     0
 62
     7
  6
Continuous
370
    -3
390
F
  0
LAYER
  5
35A
102
{ACAD_XDICTIONARY
360
36D
102
}
330
2
100
AcDbSymbolTableRecord
100
AcDbLayerTableRecord
  2
SK4
 70
     0
 62
     2
  6
CENTER2
370
    -3
390
F
  0
LAYER
  5
35B
102
{ACAD_XDICTIONARY
360
36F
102
}
330
2
100
AcDbSymbolTableRecord
100
AcDbLayerTableRecord
  2
SK6
 70
     0
 62
     5
  6
Continuous
370
    -3
390
F
  0
LAYER
  5
35C
102
{ACAD_XDICTIONARY
360
371
102
}
330
2
100
AcDbSymbolTableRecord
100
AcDbLayerTableRecord
  2
CUT
 70
     0
 62
     1
  6
Continuous
370
    -3
390
F
  0
LAYER
  5
35D
102
{ACAD_XDICTIONARY
360
373
102
}
330
2
100
AcDbSymbolTableRecord
100
AcDbLayerTableRecord
  2
NOCUT
 70
     0
 62
     7
  6
Continuous
370
    -3
390
F
  0
LAYER
  5
35E
102
{ACAD_XDICTIONARY
360
375
102
}
330
2
100
AcDbSymbolTableRecord
100
AcDbLayerTableRecord
  2
80
 70
     0
 62
     6
  6
Continuous
370
    -3
390
F
  0
LAYER
  5
35F
102
{ACAD_XDICTIONARY
360
377
102
}
330
2
100
AcDbSymbolTableRecord
100
AcDbLayerTableRecord
  2
81
 70
     0
 62
     3
  6
Continuous
370
    -3
390
F
  0
ENDTAB
  0
TABLE
  2
STYLE
  5
3
330
0
100
AcDbSymbolTable
 70
     3
  0
STYLE
  5
11
330
3
100
AcDbSymbolTableRecord
100
AcDbTextStyleTableRecord
  2
Standard
 70
     0
 40
0.0
 41
1.0
 50
0.0
 71
     0
 42
0.2
  3
txt
  4

  0
STYLE
  5
208
330
3
100
AcDbSymbolTableRecord
100
AcDbTextStyleTableRecord
  2
cesky
 70
     0
 40
0.0
 41
1.0
 50
0.0
 71
     0
 42
0.2
  3
simplex.shx
  4

  0
STYLE
  5
209
330
3
100
AcDbSymbolTableRecord
100
AcDbTextStyleTableRecord
  2
DWGDirectTextStyle
 70
     0
 40
0.0
 41
1.0
 50
0.0
 71
     0
 42
0.2
  3
simplex
  4

  0
ENDTAB
  0
TABLE
  2
VIEW
  5
6
330
0
100
AcDbSymbolTable
 70
     0
  0
ENDTAB
  0
TABLE
  2
UCS
  5
7
330
0
100
AcDbSymbolTable
 70
     0
  0
ENDTAB
  0
TABLE
  2
APPID
  5
9
330
0
100
AcDbSymbolTable
 70
     7
  0
APPID
  5
12
330
9
100
AcDbSymbolTableRecord
100
AcDbRegAppTableRecord
  2
ACAD
 70
     0
  0
APPID
  5
20B
330
9
100
AcDbSymbolTableRecord
100
AcDbRegAppTableRecord
  2
ACAD_DSTYLE_DIMBREAK
 70
     0
  0
APPID
  5
2C4
330
9
100
AcDbSymbolTableRecord
100
AcDbRegAppTableRecord
  2
ACAD_DSTYLE_DIM_LINETYPE
 70
     0
  0
APPID
  5
2C5
330
9
100
AcDbSymbolTableRecord
100
AcDbRegAppTableRecord
  2
ACAD_DSTYLE_DIM_EXT1_LINETYPE
 70
     0
  0
APPID
  5
2C6
330
9
100
AcDbSymbolTableRecord
100
AcDbRegAppTableRecord
  2
ACAD_DSTYLE_DIM_EXT2_LINETYPE
 70
     0
  0
APPID
  5
306
330
9
100
AcDbSymbolTableRecord
100
AcDbRegAppTableRecord
  2
ACAD_MLEADERVER
 70
     0
  0
APPID
  5
37C
330
9
100
AcDbSymbolTableRecord
100
AcDbRegAppTableRecord
  2
ACAD_NAV_VCDISPLAY
 70
     0
  0
ENDTAB
  0
TABLE
  2
DIMSTYLE
  5
A
330
0
100
AcDbSymbolTable
 70
     1
100
AcDbDimStyleTable
 71
     0
  0
DIMSTYLE
105
27
330
A
100
AcDbSymbolTableRecord
100
AcDbDimStyleTableRecord
  2
Standard
 70
     0
340
11
1001
ACAD_DSTYLE_DIMBREAK
1070
   391
1040
6.349999999999999
  0
ENDTAB
  0
TABLE
  2
BLOCK_RECORD
  5
1
330
0
100
AcDbSymbolTable
 70
    16
  0
BLOCK_RECORD
  5
1F
102
{ACAD_XDICTIONARY
360
316
102
}
330
1
100
AcDbSymbolTableRecord
100
AcDbBlockTableRecord
  2
*Model_Space
340
22
  0
BLOCK_RECORD
  5
1B
330
1
100
AcDbSymbolTableRecord
100
AcDbBlockTableRecord
  2
*Paper_Space
340
1E
  0
BLOCK_RECORD
  5
23
330
1
100
AcDbSymbolTableRecord
100
AcDbBlockTableRecord
  2
*Paper_Space0
340
26
  0
BLOCK_RECORD
  5
202
330
1
100
AcDbSymbolTableRecord
100
AcDbBlockTableRecord
  2
ASSORTED_DRAFT1
340
0
  0
BLOCK_RECORD
  5
210
330
1
100
AcDbSymbolTableRecord
100
AcDbBlockTableRecord
  2
*D2
340
0
  0
BLOCK_RECORD
  5
21C
330
1
100
AcDbSymbolTableRecord
100
AcDbBlockTableRecord
  2
_U0
340
0
  0
BLOCK_RECORD
  5
228
330
1
100
AcDbSymbolTableRecord
100
AcDbBlockTableRecord
  2
*D4
340
0
  0
BLOCK_RECORD
  5
234
330
1
100
AcDbSymbolTableRecord
100
AcDbBlockTableRecord
  2
_U1
340
0
  0
BLOCK_RECORD
  5
240
330
1
100
AcDbSymbolTableRecord
100
AcDbBlockTableRecord
  2
*D6
340
0
  0
BLOCK_RECORD
  5
24C
330
1
100
AcDbSymbolTableRecord
100
AcDbBlockTableRecord
  2
_U2
340
0
  0
BLOCK_RECORD
  5
258
330
1
100
AcDbSymbolTableRecord
100
AcDbBlockTableRecord
  2
*D8
340
0
  0
BLOCK_RECORD
  5
264
330
1
100
AcDbSymbolTableRecord
100
AcDbBlockTableRecord
  2
_U3
340
0
  0
BLOCK_RECORD
  5
270
330
1
100
AcDbSymbolTableRecord
100
AcDbBlockTableRecord
  2
*D10
340
0
  0
BLOCK_RECORD
  5
27B
330
1
100
AcDbSymbolTableRecord
100
AcDbBlockTableRecord
  2
_U4
340
0
  0
BLOCK_RECORD
  5
286
330
1
100
AcDbSymbolTableRecord
100
AcDbBlockTableRecord
  2
*D12
340
0
  0
BLOCK_RECORD
  5
292
330
1
100
AcDbSymbolTableRecord
100
AcDbBlockTableRecord
  2
_U5
340
0
  0
BLOCK_RECORD
  5
29F
330
1
100
AcDbSymbolTableRecord
100
AcDbBlockTableRecord
  2
*D14
340
0
  0
BLOCK_RECORD
  5
2AB
330
1
100
AcDbSymbolTableRecord
100
AcDbBlockTableRecord
  2
_U6
340
0
  0
ENDTAB
  0
ENDSEC
  0
SECTION
  2
BLOCKS
  0
BLOCK
  5
20
330
1F
100
AcDbEntity
  8
0
100
AcDbBlockBegin
  2
*Model_Space
 70
     0
 10
0.0
 20
0.0
 30
0.0
  3
*Model_Space
  1

  0
ENDBLK
  5
21
330
1F
100
AcDbEntity
  8
0
100
AcDbBlockEnd
  0
BLOCK
  5
1C
330
1B
100
AcDbEntity
 67
     1
  8
0
100
AcDbBlockBegin
  2
*Paper_Space
 70
     0
 10
0.0
 20
0.0
 30
0.0
  3
*Paper_Space
  1

  0
ENDBLK
  5
1D
330
1B
100
AcDbEntity
 67
     1
  8
0
100
AcDbBlockEnd
  0
BLOCK
  5
24
330
23
100
AcDbEntity
 67
     1
  8
0
100
AcDbBlockBegin
  2
*Paper_Space0
 70
     0
 10
0.0
 20
0.0
 30
0.0
  3
*Paper_Space0
  1

  0
ENDBLK
  5
25
330
23
100
AcDbEntity
 67
     1
  8
0
100
AcDbBlockEnd
  0
BLOCK
  5
205
330
202
100
AcDbEntity
  8
0
100
AcDbBlockBegin
  2
ASSORTED_DRAFT1
 70
     0
 10
0.0
 20
0.0
 30
0.0
  3
ASSORTED_DRAFT1
  1

  0
SOLID
  5
203
330
202
100
AcDbEntity
  8
0
 62
   254
370
    13
100
AcDbTrace
 10
270.185042
 20
161.034924
 30
0.0
 11
265.185046
 21
159.92645
 31
0.0
 12
265.1850379999999
 22
162.143397
 32
0.0
 13
270.185042
 23
161.034924
 33
0.0
  0
ENDBLK
  5
206
330
202
100
AcDbEntity
  8
0
100
AcDbBlockEnd
  0
BLOCK
  5
211
330
210
100
AcDbEntity
  8
0
100
AcDbBlockBegin
  2
*D2
 70
     1
 10
0.0
 20
0.0
 30
0.0
  3
*D2
  1

  0
LINE
  5
213
330
210
100
AcDbEntity
  8
0
 62
   254
370
    -2
100
AcDbLine
 10
363.904842
 20
299.657994
 30
0.0
 11
363.904842
 21
328.5109970000001
 31
0.0
  0
LINE
  5
214
330
210
100
AcDbEntity
  8
0
 62
   254
370
    -2
100
AcDbLine
 10
274.404842
 20
288.907994
 30
0.0
 11
274.404842
 21
328.5109970000001
 31
0.0
  0
LINE
  5
215
330
210
100
AcDbEntity
  8
0
 62
   254
370
    -2
100
AcDbLine
 10
360.404842
 20
327.510997
 30
0.0
 11
277.904842
 21
327.510997
 31
0.0
  0
SOLID
  5
216
330
210
100
AcDbEntity
  8
0
 62
   254
100
AcDbTrace
 10
360.404842
 20
326.927663
 30
0.0
 11
360.404842
 21
328.09433
 31
0.0
 12
363.904842
 22
327.510997
 32
0.0
 13
363.904842
 23
327.510997
 33
0.0
  0
SOLID
  5
217
330
210
100
AcDbEntity
  8
0
 62
   254
100
AcDbTrace
 10
277.904842
 20
328.09433
 30
0.0
 11
277.904842
 21
326.927663
 31
0.0
 12
274.404842
 22
327.510997
 32
0.0
 13
274.404842
 23
327.510997
 33
0.0
  0
MTEXT
  5
218
330
210
100
AcDbEntity
  8
0
 62
   254
370
    13
100
AcDbMText
 10
319.154842
 20
332.7609970000001
 30
0.0
 40
3.5
 41
0.0
 71
     5
 72
     1
  1
\A1;89.5
  7
cesky
 73
     1
 44
1.0
  0
POINT
  5
219
330
210
100
AcDbEntity
  8
Defpoints
 62
     0
100
AcDbPoint
 10
363.904842
 20
299.657994
 30
0.0
  0
POINT
  5
21A
330
210
100
AcDbEntity
  8
Defpoints
 62
     0
100
AcDbPoint
 10
274.404842
 20
288.907994
 30
0.0
  0
POINT
  5
21B
330
210
100
AcDbEntity
  8
Defpoints
 62
     0
100
AcDbPoint
 10
274.404842
 20
327.510997
 30
0.0
  0
ENDBLK
  5
212
330
210
100
AcDbEntity
  8
0
100
AcDbBlockEnd
  0
BLOCK
  5
223
330
21C
100
AcDbEntity
  8
0
100
AcDbBlockBegin
  2
_U0
 70
     0
 10
0.0
 20
0.0
 30
0.0
  3
_U0
  1

  0
ENDBLK
  5
224
330
21C
100
AcDbEntity
  8
0
100
AcDbBlockEnd
  0
BLOCK
  5
229
330
228
100
AcDbEntity
  8
0
100
AcDbBlockBegin
  2
*D4
 70
     1
 10
0.0
 20
0.0
 30
0.0
  3
*D4
  1

  0
LINE
  5
22B
330
228
100
AcDbEntity
  8
0
 62
   254
370
    -2
100
AcDbLine
 10
363.904842
 20
301.657994
 30
0.0
 11
363.904842
 21
341.687968
 31
0.0
  0
LINE
  5
22C
330
228
100
AcDbEntity
  8
0
 62
   254
370
    -2
100
AcDbLine
 10
218.404842
 20
299.407994
 30
0.0
 11
218.404842
 21
341.687968
 31
0.0
  0
LINE
  5
22D
330
228
100
AcDbEntity
  8
0
 62
   254
370
    -2
100
AcDbLine
 10
360.404842
 20
340.687968
 30
0.0
 11
221.904842
 21
340.687968
 31
0.0
  0
SOLID
  5
22E
330
228
100
AcDbEntity
  8
0
 62
   254
100
AcDbTrace
 10
360.404842
 20
340.104634
 30
0.0
 11
360.404842
 21
341.271301
 31
0.0
 12
363.904842
 22
340.687968
 32
0.0
 13
363.904842
 23
340.687968
 33
0.0
  0
SOLID
  5
22F
330
228
100
AcDbEntity
  8
0
 62
   254
100
AcDbTrace
 10
221.904842
 20
341.271301
 30
0.0
 11
221.904842
 21
340.104634
 31
0.0
 12
218.404842
 22
340.687968
 32
0.0
 13
218.404842
 23
340.687968
 33
0.0
  0
MTEXT
  5
230
330
228
100
AcDbEntity
  8
0
 62
   254
370
    13
100
AcDbMText
 10
291.154842
 20
345.937968
 30
0.0
 40
3.5
 41
0.0
 71
     5
 72
     1
  1
\A1;145.5
  7
cesky
 73
     1
 44
1.0
  0
POINT
  5
231
330
228
100
AcDbEntity
  8
Defpoints
 62
     0
100
AcDbPoint
 10
363.904842
 20
301.657994
 30
0.0
  0
POINT
  5
232
330
228
100
AcDbEntity
  8
Defpoints
 62
     0
100
AcDbPoint
 10
218.404842
 20
299.407994
 30
0.0
  0
POINT
  5
233
330
228
100
AcDbEntity
  8
Defpoints
 62
     0
100
AcDbPoint
 10
218.404842
 20
340.687968
 30
0.0
  0
ENDBLK
  5
22A
330
228
100
AcDbEntity
  8
0
100
AcDbBlockEnd
  0
BLOCK
  5
23B
330
234
100
AcDbEntity
  8
0
100
AcDbBlockBegin
  2
_U1
 70
     0
 10
0.0
 20
0.0
 30
0.0
  3
_U1
  1

  0
ENDBLK
  5
23C
330
234
100
AcDbEntity
  8
0
100
AcDbBlockEnd
  0
BLOCK
  5
241
330
240
100
AcDbEntity
  8
0
100
AcDbBlockBegin
  2
*D6
 70
     1
 10
0.0
 20
0.0
 30
0.0
  3
*D6
  1

  0
LINE
  5
243
330
240
100
AcDbEntity
  8
0
 62
   254
370
    -2
100
AcDbLine
 10
274.404842
 20
288.907994
 30
0.0
 11
274.404842
 21
328.5109970000001
 31
0.0
  0
LINE
  5
244
330
240
100
AcDbEntity
  8
0
 62
   254
370
    -2
100
AcDbLine
 10
218.404842
 20
294.157994
 30
0.0
 11
218.404842
 21
328.5109970000001
 31
0.0
  0
LINE
  5
245
330
240
100
AcDbEntity
  8
0
 62
   254
370
    -2
100
AcDbLine
 10
270.904842
 20
327.510997
 30
0.0
 11
221.904842
 21
327.510997
 31
0.0
  0
SOLID
  5
246
330
240
100
AcDbEntity
  8
0
 62
   254
100
AcDbTrace
 10
270.904842
 20
326.927663
 30
0.0
 11
270.904842
 21
328.09433
 31
0.0
 12
274.404842
 22
327.510997
 32
0.0
 13
274.404842
 23
327.510997
 33
0.0
  0
SOLID
  5
247
330
240
100
AcDbEntity
  8
0
 62
   254
100
AcDbTrace
 10
221.904842
 20
328.09433
 30
0.0
 11
221.904842
 21
326.927663
 31
0.0
 12
218.404842
 22
327.510997
 32
0.0
 13
218.404842
 23
327.510997
 33
0.0
  0
MTEXT
  5
248
330
240
100
AcDbEntity
  8
0
 62
   254
370
    13
100
AcDbMText
 10
246.404842
 20
332.7609970000001
 30
0.0
 40
3.5
 41
0.0
 71
     5
 72
     1
  1
\A1;56
  7
cesky
 73
     1
 44
1.0
  0
POINT
  5
249
330
240
100
AcDbEntity
  8
Defpoints
 62
     0
100
AcDbPoint
 10
274.404842
 20
288.907994
 30
0.0
  0
POINT
  5
24A
330
240
100
AcDbEntity
  8
Defpoints
 62
     0
100
AcDbPoint
 10
218.404842
 20
294.157994
 30
0.0
  0
POINT
  5
24B
330
240
100
AcDbEntity
  8
Defpoints
 62
     0
100
AcDbPoint
 10
218.404842
 20
327.510997
 30
0.0
  0
ENDBLK
  5
242
330
240
100
AcDbEntity
  8
0
100
AcDbBlockEnd
  0
BLOCK
  5
253
330
24C
100
AcDbEntity
  8
0
100
AcDbBlockBegin
  2
_U2
 70
     0
 10
0.0
 20
0.0
 30
0.0
  3
_U2
  1

  0
ENDBLK
  5
254
330
24C
100
AcDbEntity
  8
0
100
AcDbBlockEnd
  0
BLOCK
  5
259
330
258
100
AcDbEntity
  8
0
100
AcDbBlockBegin
  2
*D8
 70
     1
 10
0.0
 20
0.0
 30
0.0
  3
*D8
  1

  0
LINE
  5
25B
330
258
100
AcDbEntity
  8
0
 62
   254
370
    -2
100
AcDbLine
 10
363.904842
 20
299.657994
 30
0.0
 11
363.904842
 21
315.35906
 31
0.0
  0
LINE
  5
25C
330
258
100
AcDbEntity
  8
0
 62
   254
370
    -2
100
AcDbLine
 10
293.141704
 20
299.477691
 30
0.0
 11
293.141704
 21
315.35906
 31
0.0
  0
LINE
  5
25D
330
258
100
AcDbEntity
  8
0
 62
   254
370
    -2
100
AcDbLine
 10
360.404842
 20
314.35906
 30
0.0
 11
296.641704
 21
314.35906
 31
0.0
  0
SOLID
  5
25E
330
258
100
AcDbEntity
  8
0
 62
   254
100
AcDbTrace
 10
360.404842
 20
313.775727
 30
0.0
 11
360.404842
 21
314.9423930000001
 31
0.0
 12
363.904842
 22
314.35906
 32
0.0
 13
363.904842
 23
314.35906
 33
0.0
  0
SOLID
  5
25F
330
258
100
AcDbEntity
  8
0
 62
   254
100
AcDbTrace
 10
296.641704
 20
314.9423930000001
 30
0.0
 11
296.641704
 21
313.775727
 31
0.0
 12
293.141704
 22
314.35906
 32
0.0
 13
293.141704
 23
314.35906
 33
0.0
  0
MTEXT
  5
260
330
258
100
AcDbEntity
  8
0
 62
   254
370
    13
100
AcDbMText
 10
328.523273
 20
319.60906
 30
0.0
 40
3.5
 41
0.0
 71
     5
 72
     1
  1
\A1;70.8
  7
cesky
 73
     1
 44
1.0
  0
POINT
  5
261
330
258
100
AcDbEntity
  8
Defpoints
 62
     0
100
AcDbPoint
 10
363.904842
 20
299.657994
 30
0.0
  0
POINT
  5
262
330
258
100
AcDbEntity
  8
Defpoints
 62
     0
100
AcDbPoint
 10
293.141704
 20
299.477691
 30
0.0
  0
POINT
  5
263
330
258
100
AcDbEntity
  8
Defpoints
 62
     0
100
AcDbPoint
 10
293.141704
 20
314.35906
 30
0.0
  0
ENDBLK
  5
25A
330
258
100
AcDbEntity
  8
0
100
AcDbBlockEnd
  0
BLOCK
  5
26B
330
264
100
AcDbEntity
  8
0
100
AcDbBlockBegin
  2
_U3
 70
     0
 10
0.0
 20
0.0
 30
0.0
  3
_U3
  1

  0
ENDBLK
  5
26C
330
264
100
AcDbEntity
  8
0
100
AcDbBlockEnd
  0
BLOCK
  5
271
330
270
100
AcDbEntity
  8
0
100
AcDbBlockBegin
  2
*D10
 70
     1
 10
0.0
 20
0.0
 30
0.0
  3
*D10
  1

  0
LINE
  5
273
330
270
100
AcDbEntity
  8
0
 62
   254
370
    -2
100
AcDbLine
 10
293.282259
 20
288.907994
 30
0.0
 11
380.274632
 21
288.907994
 31
0.0
  0
LINE
  5
274
330
270
100
AcDbEntity
  8
0
 62
   254
370
    -2
100
AcDbLine
 10
330.83929
 20
299.657994
 30
0.0
 11
380.274632
 21
299.657994
 31
0.0
  0
LINE
  5
275
330
270
100
AcDbEntity
  8
0
 62
   254
370
    -2
100
AcDbLine
 10
379.274632
 20
303.157994
 30
0.0
 11
379.274632
 21
306.657994
 31
0.0
  0
SOLID
  5
276
330
270
100
AcDbEntity
  8
0
 62
   254
100
AcDbTrace
 10
378.691299
 20
303.157994
 30
0.0
 11
379.8579660000001
 21
303.157994
 31
0.0
 12
379.274632
 22
299.657994
 32
0.0
 13
379.274632
 23
299.657994
 33
0.0
  0
MTEXT
  5
277
330
270
100
AcDbEntity
  8
0
 62
   254
370
    13
100
AcDbMText
 10
374.024632
 20
273.407994
 30
0.0
 40
3.5
 41
0.0
 71
     5
 72
     1
  1
\A1;21.5
  7
cesky
 11
0.0
 21
1.0
 31
0.0
 73
     1
 44
1.0
  0
POINT
  5
278
330
270
100
AcDbEntity
  8
Defpoints
 62
     0
100
AcDbPoint
 10
293.282259
 20
288.907994
 30
0.0
  0
POINT
  5
279
330
270
100
AcDbEntity
  8
Defpoints
 62
     0
100
AcDbPoint
 10
330.83929
 20
299.657994
 30
0.0
  0
POINT
  5
27A
330
270
100
AcDbEntity
  8
Defpoints
 62
     0
100
AcDbPoint
 10
379.274632
 20
299.657994
 30
0.0
  0
ENDBLK
  5
272
330
270
100
AcDbEntity
  8
0
100
AcDbBlockEnd
  0
BLOCK
  5
281
330
27B
100
AcDbEntity
  8
0
100
AcDbBlockBegin
  2
_U4
 70
     0
 10
0.0
 20
0.0
 30
0.0
  3
_U4
  1

  0
ENDBLK
  5
282
330
27B
100
AcDbEntity
  8
0
100
AcDbBlockEnd
  0
BLOCK
  5
287
330
286
100
AcDbEntity
  8
0
100
AcDbBlockBegin
  2
*D12
 70
     1
 10
0.0
 20
0.0
 30
0.0
  3
*D12
  1

  0
LINE
  5
289
330
286
100
AcDbEntity
  8
0
 62
    95
370
    -2
100
AcDbLine
 10
220.404842
 20
301.407994
 30
0.0
 11
205.304739
 21
301.407994
 31
0.0
  0
LINE
  5
28A
330
286
100
AcDbEntity
  8
0
 62
    95
370
    -2
100
AcDbLine
 10
220.404842
 20
276.407994
 30
0.0
 11
205.304739
 21
276.407994
 31
0.0
  0
LINE
  5
28B
330
286
100
AcDbEntity
  8
0
 62
    95
370
    -2
100
AcDbLine
 10
206.304739
 20
297.907994
 30
0.0
 11
206.304739
 21
279.907994
 31
0.0
  0
SOLID
  5
28C
330
286
100
AcDbEntity
  8
0
 62
    95
100
AcDbTrace
 10
206.888073
 20
297.907994
 30
0.0
 11
205.721406
 21
297.907994
 31
0.0
 12
206.304739
 22
301.407994
 32
0.0
 13
206.304739
 23
301.407994
 33
0.0
  0
SOLID
  5
28D
330
286
100
AcDbEntity
  8
0
 62
    95
100
AcDbTrace
 10
205.721406
 20
279.907994
 30
0.0
 11
206.888073
 21
279.907994
 31
0.0
 12
206.304739
 22
276.407994
 32
0.0
 13
206.304739
 23
276.407994
 33
0.0
  0
MTEXT
  5
28E
330
286
100
AcDbEntity
  8
0
 62
    95
370
    13
100
AcDbMText
 10
201.054739
 20
288.907994
 30
0.0
 40
3.5
 41
0.0
 71
     5
 72
     1
  1
\A1;25
  7
cesky
 11
0.0
 21
1.0
 31
0.0
 73
     1
 44
1.0
  0
POINT
  5
28F
330
286
100
AcDbEntity
  8
Defpoints
 62
     0
100
AcDbPoint
 10
220.404842
 20
301.407994
 30
0.0
  0
POINT
  5
290
330
286
100
AcDbEntity
  8
Defpoints
 62
     0
100
AcDbPoint
 10
220.404842
 20
276.407994
 30
0.0
  0
POINT
  5
291
330
286
100
AcDbEntity
  8
Defpoints
 62
     0
100
AcDbPoint
 10
206.304739
 20
276.407994
 30
0.0
  0
ENDBLK
  5
288
330
286
100
AcDbEntity
  8
0
100
AcDbBlockEnd
  0
BLOCK
  5
29A
330
292
100
AcDbEntity
  8
0
100
AcDbBlockBegin
  2
_U5
 70
     0
 10
0.0
 20
0.0
 30
0.0
  3
_U5
  1

  0
ENDBLK
  5
29B
330
292
100
AcDbEntity
  8
0
100
AcDbBlockEnd
  0
BLOCK
  5
2A0
330
29F
100
AcDbEntity
  8
0
100
AcDbBlockBegin
  2
*D14
 70
     1
 10
0.0
 20
0.0
 30
0.0
  3
*D14
  1

  0
LINE
  5
2A2
330
29F
100
AcDbEntity
  8
0
 62
    95
370
    -2
100
AcDbLine
 10
277.154842
 20
306.407994
 30
0.0
 11
192.519918
 21
306.407994
 31
0.0
  0
LINE
  5
2A3
330
29F
100
AcDbEntity
  8
0
 62
    95
370
    -2
100
AcDbLine
 10
277.154842
 20
271.407994
 30
0.0
 11
192.519918
 21
271.407994
 31
0.0
  0
LINE
  5
2A4
330
29F
100
AcDbEntity
  8
0
 62
    95
370
    -2
100
AcDbLine
 10
193.519918
 20
302.907994
 30
0.0
 11
193.519918
 21
274.907994
 31
0.0
  0
SOLID
  5
2A5
330
29F
100
AcDbEntity
  8
0
 62
    95
100
AcDbTrace
 10
194.103251
 20
302.907994
 30
0.0
 11
192.936584
 21
302.907994
 31
0.0
 12
193.519918
 22
306.407994
 32
0.0
 13
193.519918
 23
306.407994
 33
0.0
  0
SOLID
  5
2A6
330
29F
100
AcDbEntity
  8
0
 62
    95
100
AcDbTrace
 10
192.936584
 20
274.907994
 30
0.0
 11
194.103251
 21
274.907994
 31
0.0
 12
193.519918
 22
271.407994
 32
0.0
 13
193.519918
 23
271.407994
 33
0.0
  0
MTEXT
  5
2A7
330
29F
100
AcDbEntity
  8
0
 62
    95
370
    13
100
AcDbMText
 10
188.269918
 20
288.907994
 30
0.0
 40
3.5
 41
0.0
 71
     5
 72
     1
  1
\A1;35
  7
cesky
 11
0.0
 21
1.0
 31
0.0
 73
     1
 44
1.0
  0
POINT
  5
2A8
330
29F
100
AcDbEntity
  8
Defpoints
 62
     0
100
AcDbPoint
 10
277.154842
 20
306.407994
 30
0.0
  0
POINT
  5
2A9
330
29F
100
AcDbEntity
  8
Defpoints
 62
     0
100
AcDbPoint
 10
277.154842
 20
271.407994
 30
0.0
  0
POINT
  5
2AA
330
29F
100
AcDbEntity
  8
Defpoints
 62
     0
100
AcDbPoint
 10
193.519918
 20
271.407994
 30
0.0
  0
ENDBLK
  5
2A1
330
29F
100
AcDbEntity
  8
0
100
AcDbBlockEnd
  0
BLOCK
  5
2B3
330
2AB
100
AcDbEntity
  8
0
100
AcDbBlockBegin
  2
_U6
 70
     0
 10
0.0
 20
0.0
 30
0.0
  3
_U6
  1

  0
ENDBLK
  5
2B4
330
2AB
100
AcDbEntity
  8
0
100
AcDbBlockEnd
  0
ENDSEC
  0
SECTION
  2
ENTITIES
  0
POINT
  5
73
102
{ACAD_REACTORS
330
360
102
}
330
1F
100
AcDbEntity
  8
80
100
AcDbPoint
 10
274.404842
 20
288.907994
 30
0.0
  0
POINT
  5
76
330
1F
100
AcDbEntity
  8
SK4
 60
     1
100
AcDbPoint
 10
220.404842
 20
288.907994
 30
0.0
  0
POINT
  5
78
330
1F
100
AcDbEntity
  8
SK4
 60
     1
100
AcDbPoint
 10
274.404842
 20
288.907994
 30
0.0
  0
POINT
  5
79
330
1F
100
AcDbEntity
  8
4
 60
     1
100
AcDbPoint
 10
293.282259
 20
288.907994
 30
0.0
  0
POINT
  5
7A
330
1F
100
AcDbEntity
  8
4
 60
     1
100
AcDbPoint
 10
363.197455
 20
288.907994
 30
0.0
  0
POINT
  5
7B
330
1F
100
AcDbEntity
  8
SK6
 60
     1
100
AcDbPoint
 10
274.404842
 20
288.907994
 30
0.0
  0
POINT
  5
7C
330
1F
100
AcDbEntity
  8
SK6
 60
     1
100
AcDbPoint
 10
293.141704
 20
299.477691
 30
0.0
  0
LINE
  5
7D
330
1F
100
AcDbEntity
  8
1
100
AcDbLine
 10
359.570302
 20
296.858029
 30
0.0
 11
359.588712
 21
296.910403
 31
0.0
  0
LINE
  5
7F
330
1F
100
AcDbEntity
  8
1
100
AcDbLine
 10
359.107411
 20
296.142757
 30
0.0
 11
359.089528
 21
296.091886
 31
0.0
  0
LINE
  5
80
330
1F
100
AcDbEntity
  8
1
100
AcDbLine
 10
359.175917
 20
296.13181
 30
0.0
 11
359.1576100000001
 21
296.07973
 31
0.0
  0
LINE
  5
81
330
1F
100
AcDbEntity
  8
1
100
AcDbLine
 10
360.923254
 20
295.688606
 30
0.0
 11
360.941089
 21
295.739344
 31
0.0
  0
LINE
  5
82
330
1F
100
AcDbEntity
  8
1
100
AcDbLine
 10
360.845298
 20
295.7059
 30
0.0
 11
360.863624
 21
295.758035
 31
0.0
  0
LINE
  5
83
330
1F
100
AcDbEntity
  8
1
100
AcDbLine
 10
360.092891
 20
295.215477
 30
0.0
 11
360.111128
 21
295.267356
 31
0.0
  0
LINE
  5
84
330
1F
100
AcDbEntity
  8
1
100
AcDbLine
 10
360.09491
 20
295.197436
 30
0.0
 11
360.113029
 21
295.248981
 31
0.0
  0
LINE
  5
85
330
1F
100
AcDbEntity
  8
1
100
AcDbLine
 10
363.407467
 20
288.9508370000001
 30
0.0
 11
363.010239
 21
288.567238
 31
0.0
  0
LINE
  5
87
330
1F
100
AcDbEntity
  8
1
100
AcDbLine
 10
362.693868
 20
288.261723
 30
0.0
 11
363.010239
 21
288.567238
 31
0.0
  0
LINE
  5
88
330
1F
100
AcDbEntity
  8
1
100
AcDbLine
 10
362.77039
 20
287.688725
 30
0.0
 11
362.684582
 21
287.881453
 31
0.0
  0
LINE
  5
89
330
1F
100
AcDbEntity
  8
1
100
AcDbLine
 10
363.894283
 20
287.882579
 30
0.0
 11
363.374737
 21
287.776876
 31
0.0
  0
LINE
  5
8A
330
1F
100
AcDbEntity
  8
1
100
AcDbLine
 10
362.812376
 20
287.662462
 30
0.0
 11
363.374737
 21
287.776876
 31
0.0
  0
LINE
  5
8B
330
1F
100
AcDbEntity
  8
1
100
AcDbLine
 10
362.710274
 20
283.39873
 30
0.0
 11
362.78399
 21
287.621882
 31
0.0
  0
LINE
  5
8C
330
1F
100
AcDbEntity
  8
1
100
AcDbLine
 10
362.737227
 20
283.357184
 30
0.0
 11
363.295253
 21
283.223213
 31
0.0
  0
LINE
  5
8D
330
1F
100
AcDbEntity
  8
1
100
AcDbLine
 10
363.81538
 20
283.098342
 30
0.0
 11
363.295253
 21
283.223213
 31
0.0
  0
LINE
  5
8E
330
1F
100
AcDbEntity
  8
1
100
AcDbLine
 10
362.502411
 20
282.938868
 30
0.0
 11
362.69435
 21
283.332402
 31
0.0
  0
LINE
  5
8F
330
1F
100
AcDbEntity
  8
1
100
AcDbLine
 10
362.4914560000001
 20
282.872627
 30
0.0
 11
362.903393
 21
282.446054
 31
0.0
  0
LINE
  5
90
330
1F
100
AcDbEntity
  8
1
100
AcDbLine
 10
363.286992
 20
282.048825
 30
0.0
 11
362.903393
 21
282.446054
 31
0.0
  0
LINE
  5
93
330
1F
100
AcDbEntity
  8
1
100
AcDbLine
 10
363.8743859999999
 20
287.943575
 30
0.0
 11
363.46397
 21
288.865383
 31
0.0
  0
LINE
  5
94
330
1F
100
AcDbEntity
  8
1
100
AcDbLine
 10
363.901779
 20
287.64836
 30
0.0
 11
363.901172
 21
287.818936
 31
0.0
  0
LINE
  5
95
330
1F
100
AcDbEntity
  8
1
100
AcDbLine
 10
362.570143
 20
281.711207
 30
0.0
 11
363.201538
 21
281.992322
 31
0.0
  0
LINE
  5
96
330
1F
100
AcDbEntity
  8
1
100
AcDbLine
 10
363.326648
 20
289.01281
 30
0.0
 11
363.284337
 21
289.03516
 31
0.0
  0
LINE
  5
97
330
1F
100
AcDbEntity
  8
1
100
AcDbLine
 10
362.941439
 20
289.202402
 30
0.0
 11
363.284337
 21
289.03516
 31
0.0
  0
LINE
  5
98
330
1F
100
AcDbEntity
  8
1
100
AcDbLine
 10
363.348965
 20
282.129644
 30
0.0
 11
363.371315
 21
282.171956
 31
0.0
  0
LINE
  5
99
330
1F
100
AcDbEntity
  8
1
100
AcDbLine
 10
363.79371
 20
283.037994
 30
0.0
 11
363.371315
 21
282.171956
 31
0.0
  0
LINE
  5
9A
330
1F
100
AcDbEntity
  8
1
100
AcDbLine
 10
363.274055
 20
283.162753
 30
0.0
 11
362.964402
 21
282.52787
 31
0.0
  0
LINE
  5
9B
330
1F
100
AcDbEntity
  8
1
100
AcDbLine
 10
363.068355
 20
288.483342
 30
0.0
 11
363.355662
 21
287.83804
 31
0.0
  0
LINE
  5
9C
330
1F
100
AcDbEntity
  8
1
100
AcDbLine
 10
362.819497
 20
282.387937
 30
0.0
 11
362.403398
 21
282.202678
 31
0.0
  0
LINE
  5
9D
330
1F
100
AcDbEntity
  8
1
100
AcDbLine
 10
362.693863
 20
288.742649
 30
0.0
 11
362.928422
 21
288.6282470000001
 31
0.0
  0
LINE
  5
9E
330
1F
100
AcDbEntity
  8
1
100
AcDbLine
 10
363.381077
 20
287.713121
 30
0.0
 11
363.303814
 21
283.286708
 31
0.0
  0
LINE
  5
9F
330
1F
100
AcDbEntity
  8
1
100
AcDbLine
 10
274.404842
 20
305.907994
 30
0.0
 11
274.404842
 21
288.907994
 31
0.0
  0
LINE
  5
A1
330
1F
100
AcDbEntity
  8
1
100
AcDbLine
 10
274.404842
 20
288.907994
 30
0.0
 11
274.404842
 21
271.907994
 31
0.0
  0
LINE
  5
A2
330
1F
100
AcDbEntity
  8
1
100
AcDbLine
 10
293.282259
 20
278.657994
 30
0.0
 11
293.864404
 21
278.657994
 31
0.0
  0
LINE
  5
A3
330
1F
100
AcDbEntity
  8
1
100
AcDbLine
 10
356.955572
 20
299.157994
 30
0.0
 11
347.882691
 21
299.157994
 31
0.0
  0
LINE
  5
A4
330
1F
100
AcDbEntity
  8
1
100
AcDbLine
 10
298.973216
 20
299.157994
 30
0.0
 11
293.282259
 21
299.157994
 31
0.0
  0
LINE
  5
A5
330
1F
100
AcDbEntity
  8
1
100
AcDbLine
 10
358.443587
 20
296.744457
 30
0.0
 11
358.429184
 21
296.703483
 31
0.0
  0
LINE
  5
A6
330
1F
100
AcDbEntity
  8
1
100
AcDbLine
 10
359.309978
 20
295.670626
 30
0.0
 11
359.328453
 21
295.723184
 31
0.0
  0
LINE
  5
A7
330
1F
100
AcDbEntity
  8
1
100
AcDbLine
 10
360.567047
 20
295.493744
 30
0.0
 11
360.548406
 21
295.440714
 31
0.0
  0
LINE
  5
A8
330
1F
100
AcDbEntity
  8
1
100
AcDbLine
 10
359.558666
 20
296.804893
 30
0.0
 11
359.577307
 21
296.8579229999999
 31
0.0
  0
LINE
  5
A9
330
1F
100
AcDbEntity
  8
1
100
AcDbLine
 10
360.815568
 20
296.627538
 30
0.0
 11
360.797094
 21
296.574981
 31
0.0
  0
LINE
  5
AA
330
1F
100
AcDbEntity
  8
1
100
AcDbLine
 10
363.015738
 20
293.018972
 30
0.0
 11
358.494443
 21
292.821774
 31
0.0
  0
LINE
  5
AB
330
1F
100
AcDbEntity
  8
1
100
AcDbLine
 10
358.489212
 20
292.806893
 30
0.0
 11
358.494443
 21
292.821774
 31
0.0
  0
LINE
  5
AC
330
1F
100
AcDbEntity
  8
1
100
AcDbLine
 10
362.73603
 20
289.110225
 30
0.0
 11
362.871672
 21
289.107858
 31
0.0
  0
LINE
  5
AD
330
1F
100
AcDbEntity
  8
1
100
AcDbLine
 10
362.871672
 20
289.107858
 30
0.0
 11
363.11268
 21
289.43445
 31
0.0
  0
LINE
  5
AE
330
1F
100
AcDbEntity
  8
1
100
AcDbLine
 10
363.11268
 20
289.67306
 30
0.0
 11
363.11268
 21
289.43445
 31
0.0
  0
LINE
  5
AF
330
1F
100
AcDbEntity
  8
1
100
AcDbLine
 10
363.11268
 20
289.67306
 30
0.0
 11
363.154842
 21
289.672324
 31
0.0
  0
LINE
  5
B0
330
1F
100
AcDbEntity
  8
1
100
AcDbLine
 10
363.154842
 20
293.22714
 30
0.0
 11
363.154842
 21
289.672324
 31
0.0
  0
LINE
  5
B1
330
1F
100
AcDbEntity
  8
1
100
AcDbLine
 10
363.015738
 20
293.018972
 30
0.0
 11
363.014414
 21
293.209095
 31
0.0
  0
LINE
  5
B2
330
1F
100
AcDbEntity
  8
1
100
AcDbLine
 10
363.015738
 20
293.018972
 30
0.0
 11
362.973735
 21
293.002488
 31
0.0
  0
LINE
  5
B3
330
1F
100
AcDbEntity
  8
1
100
AcDbLine
 10
362.898165
 20
292.423791
 30
0.0
 11
362.907544
 21
292.427472
 31
0.0
  0
LINE
  5
B4
330
1F
100
AcDbEntity
  8
1
100
AcDbLine
 10
361.826649
 20
284.939494
 30
0.0
 11
362.070833
 21
284.939494
 31
0.0
  0
LINE
  5
B5
330
1F
100
AcDbEntity
  8
1
100
AcDbLine
 10
362.488141
 20
278.657994
 30
0.0
 11
362.757437
 21
281.195234
 31
0.0
  0
LINE
  5
B6
330
1F
100
AcDbEntity
  8
1
100
AcDbLine
 10
362.757437
 20
281.195234
 30
0.0
 11
362.715346
 21
281.195908
 31
0.0
  0
LINE
  5
B7
330
1F
100
AcDbEntity
  8
1
100
AcDbLine
 10
362.740628
 20
281.434108
 30
0.0
 11
362.715346
 21
281.195908
 31
0.0
  0
LINE
  5
B8
330
1F
100
AcDbEntity
  8
1
100
AcDbLine
 10
362.740628
 20
281.434108
 30
0.0
 11
362.535079
 21
281.768188
 31
0.0
  0
LINE
  5
B9
330
1F
100
AcDbEntity
  8
1
100
AcDbLine
 10
362.535079
 20
281.768188
 30
0.0
 11
362.399667
 21
281.770354
 31
0.0
  0
LINE
  5
BA
330
1F
100
AcDbEntity
  8
1
100
AcDbLine
 10
362.389367
 20
282.070558
 30
0.0
 11
362.693868
 21
284.939494
 31
0.0
  0
LINE
  5
BB
330
1F
100
AcDbEntity
  8
1
100
AcDbLine
 10
362.25395
 20
284.939494
 30
0.0
 11
362.693868
 21
284.939494
 31
0.0
  0
LINE
  5
BC
330
1F
100
AcDbEntity
  8
1
100
AcDbLine
 10
362.693868
 20
284.939494
 30
0.0
 11
362.693868
 21
288.810916
 31
0.0
  0
LINE
  5
BD
330
1F
100
AcDbEntity
  8
1
100
AcDbLine
 10
356.887415
 20
299.032071
 30
0.0
 11
356.884946
 21
299.089351
 31
0.0
  0
LINE
  5
BE
330
1F
100
AcDbEntity
  8
SK1
100
AcDbLine
 10
220.404842
 20
301.407994
 30
0.0
 11
220.404842
 21
276.407994
 31
0.0
  0
LINE
  5
BF
330
1F
100
AcDbEntity
  8
SK1
100
AcDbLine
 10
218.404842
 20
299.407994
 30
0.0
 11
218.404842
 21
278.407994
 31
0.0
  0
LINE
  5
C0
330
1F
100
AcDbEntity
  8
1
100
AcDbLine
 10
356.867111
 20
294.297896
 30
0.0
 11
356.861881
 21
294.283016
 31
0.0
  0
LINE
  5
C1
330
1F
100
AcDbEntity
  8
1
100
AcDbLine
 10
356.867111
 20
294.297896
 30
0.0
 11
356.660499
 21
299.089804
 31
0.0
  0
LINE
  5
C2
330
1F
100
AcDbEntity
  8
1
100
AcDbLine
 10
356.65631
 20
299.050763
 30
0.0
 11
356.861881
 21
294.283016
 31
0.0
  0
LINE
  5
C3
330
1F
100
AcDbEntity
  8
1
100
AcDbLine
 10
362.488141
 20
278.657994
 30
0.0
 11
351.128396
 21
278.657994
 31
0.0
  0
LINE
  5
C4
330
1F
100
AcDbEntity
  8
1
100
AcDbLine
 10
274.904842
 20
271.407994
 30
0.0
 11
274.904842
 21
288.907994
 31
0.0
  0
LINE
  5
C5
330
1F
100
AcDbEntity
  8
1
100
AcDbLine
 10
274.904842
 20
288.907994
 30
0.0
 11
274.904842
 21
306.407994
 31
0.0
  0
LINE
  5
C6
330
1F
100
AcDbEntity
  8
1
100
AcDbLine
 10
279.404842
 20
271.407994
 30
0.0
 11
279.404842
 21
274.70895
 31
0.0
  0
LINE
  5
C7
330
1F
100
AcDbEntity
  8
1
100
AcDbLine
 10
279.404842
 20
306.407994
 30
0.0
 11
279.404842
 21
282.101425
 31
0.0
  0
LINE
  5
C8
330
1F
100
AcDbEntity
  8
1
100
AcDbLine
 10
361.683953
 20
295.559378
 30
0.0
 11
361.698357
 21
295.600353
 31
0.0
  0
LINE
  5
C9
330
1F
100
AcDbEntity
  8
SK1
100
AcDbLine
 10
218.404842
 20
278.407994
 30
0.0
 11
220.404842
 21
276.407994
 31
0.0
  0
LINE
  5
CA
330
1F
100
AcDbEntity
  8
SK1
100
AcDbLine
 10
220.404842
 20
301.407994
 30
0.0
 11
218.404842
 21
299.407994
 31
0.0
  0
LINE
  5
CB
330
1F
100
AcDbEntity
  8
1
100
AcDbLine
 10
279.404842
 20
271.407994
 30
0.0
 11
281.96855
 21
273.971702
 31
0.0
  0
LINE
  5
CC
330
1F
100
AcDbEntity
  8
1
100
AcDbLine
 10
281.96855
 20
303.844285
 30
0.0
 11
279.404842
 21
306.407994
 31
0.0
  0
LINE
  5
CD
330
1F
100
AcDbEntity
  8
SK1
100
AcDbLine
 10
274.404842
 20
301.407994
 30
0.0
 11
220.404842
 21
301.407994
 31
0.0
  0
LINE
  5
CE
330
1F
100
AcDbEntity
  8
1
100
AcDbLine
 10
274.904842
 20
271.407994
 30
0.0
 11
274.404842
 21
271.907994
 31
0.0
  0
LINE
  5
CF
330
1F
100
AcDbEntity
  8
1
100
AcDbLine
 10
274.404842
 20
305.907994
 30
0.0
 11
274.904842
 21
306.407994
 31
0.0
  0
LINE
  5
D0
330
1F
100
AcDbEntity
  8
1
100
AcDbLine
 10
279.404842
 20
306.407994
 30
0.0
 11
274.904842
 21
306.407994
 31
0.0
  0
LINE
  5
D3
330
1F
100
AcDbEntity
  8
80
100
AcDbLine
 10
275.404416
 20
288.907994
 30
0.0
 11
273.405268
 21
288.907994
 31
0.0
  0
LINE
  5
D4
330
1F
100
AcDbEntity
  8
1
100
AcDbLine
 10
363.207603
 20
299.178074
 30
0.0
 11
363.455522
 21
293.616252
 31
0.0
  0
LINE
  5
D5
330
1F
100
AcDbEntity
  8
1
100
AcDbLine
 10
357.235162
 20
299.305499
 30
0.0
 11
362.802779
 21
299.548333
 31
0.0
  0
LINE
  5
D6
330
1F
100
AcDbEntity
  8
1
100
AcDbLine
 10
357.112772
 20
293.33961
 30
0.0
 11
356.864853
 21
298.901432
 31
0.0
  0
LINE
  5
D7
330
1F
100
AcDbEntity
  8
1
100
AcDbLine
 10
363.085213
 20
293.212186
 30
0.0
 11
357.517596
 21
292.9693509999999
 31
0.0
  0
LINE
  5
D8
330
1F
100
AcDbEntity
  8
1
100
AcDbLine
 10
358.248811
 20
294.168634
 30
0.0
 11
358.0709
 21
298.159907
 31
0.0
  0
LINE
  5
D9
330
1F
100
AcDbEntity
  8
1
100
AcDbLine
 10
362.244244
 20
294.342896
 30
0.0
 11
358.248811
 21
294.168634
 31
0.0
  0
LINE
  5
DA
330
1F
100
AcDbEntity
  8
1
100
AcDbLine
 10
358.0709
 20
298.159907
 30
0.0
 11
362.066333
 21
298.33417
 31
0.0
  0
LINE
  5
DB
330
1F
100
AcDbEntity
  8
1
100
AcDbLine
 10
362.066333
 20
298.33417
 30
0.0
 11
362.244244
 21
294.342896
 31
0.0
  0
LINE
  5
DC
330
1F
100
AcDbEntity
  8
1
100
AcDbLine
 10
363.901779
 20
287.64836
 30
0.0
 11
363.823469
 21
283.16195
 31
0.0
  0
LINE
  5
DD
330
1F
100
AcDbEntity
  8
1
100
AcDbLine
 10
354.601071
 20
290.877987
 30
0.0
 11
354.606839
 21
290.709399
 31
0.0
  0
LINE
  5
DE
330
1F
100
AcDbEntity
  8
1
100
AcDbLine
 10
361.427417
 20
292.387336
 30
0.0
 11
358.192767
 21
292.246255
 31
0.0
  0
LINE
  5
DF
330
1F
100
AcDbEntity
  8
1
100
AcDbLine
 10
286.654842
 20
299.094986
 30
0.0
 11
286.654842
 21
287.6448509999999
 31
0.0
  0
LINE
  5
E0
330
1F
100
AcDbEntity
  8
1
100
AcDbLine
 10
358.489212
 20
292.806893
 30
0.0
 11
362.973735
 21
293.002488
 31
0.0
  0
LINE
  5
E1
330
1F
100
AcDbEntity
  8
1
100
AcDbLine
 10
362.974068
 20
292.954673
 30
0.0
 11
362.973735
 21
293.002488
 31
0.0
  0
LINE
  5
E2
330
1F
100
AcDbEntity
  8
1
100
AcDbLine
 10
362.898165
 20
292.423791
 30
0.0
 11
358.199883
 21
292.218873
 31
0.0
  0
LINE
  5
E3
330
1F
100
AcDbEntity
  8
1
100
AcDbLine
 10
362.898165
 20
292.423791
 30
0.0
 11
361.731335
 21
290.479748
 31
0.0
  0
LINE
  5
E4
330
1F
100
AcDbEntity
  8
SK1
100
AcDbLine
 10
220.404842
 20
276.407994
 30
0.0
 11
274.404842
 21
276.407994
 31
0.0
  0
LINE
  5
E5
330
1F
100
AcDbEntity
  8
81
100
AcDbLine
 10
363.904842
 20
301.657994
 30
0.0
 11
363.904842
 21
297.657994
 31
0.0
  0
LINE
  5
E6
330
1F
100
AcDbEntity
  8
81
100
AcDbLine
 10
361.904842
 20
299.657994
 30
0.0
 11
365.904842
 21
299.657994
 31
0.0
  0
LINE
  5
E7
330
1F
100
AcDbEntity
  8
80
100
AcDbLine
 10
274.404842
 20
287.90842
 30
0.0
 11
274.404842
 21
289.907567
 31
0.0
  0
LINE
  5
E8
330
1F
100
AcDbEntity
  8
1
100
AcDbLine
 10
274.904842
 20
271.407994
 30
0.0
 11
279.404842
 21
271.407994
 31
0.0
  0
LINE
  5
11A
330
1F
100
AcDbEntity
  8
NOCUT
100
AcDbLine
 10
274.404842
 20
301.407994
 30
0.0
 11
220.404842
 21
301.407994
 31
0.0
  0
LINE
  5
11B
330
1F
100
AcDbEntity
  8
NOCUT
100
AcDbLine
 10
279.404842
 20
306.407994
 30
0.0
 11
281.96855
 21
303.844285
 31
0.0
  0
LINE
  5
11C
330
1F
100
AcDbEntity
  8
NOCUT
100
AcDbLine
 10
293.282259
 20
299.157994
 30
0.0
 11
362.902759
 21
299.157994
 31
0.0
  0
LINE
  5
11D
330
1F
100
AcDbEntity
  8
NOCUT
100
AcDbLine
 10
362.902759
 20
299.157994
 30
0.0
 11
363.154842
 21
293.433971
 31
0.0
  0
LINE
  5
11E
330
1F
100
AcDbEntity
  8
NOCUT
100
AcDbLine
 10
363.154842
 20
293.433971
 30
0.0
 11
363.154842
 21
288.907994
 31
0.0
  0
LINE
  5
11F
330
1F
100
AcDbEntity
  8
NOCUT
100
AcDbLine
 10
363.154842
 20
288.907994
 30
0.0
 11
218.404842
 21
288.907994
 31
0.0
  0
LINE
  5
120
330
1F
100
AcDbEntity
  8
NOCUT
100
AcDbLine
 10
218.404842
 20
299.407994
 30
0.0
 11
220.404842
 21
301.407994
 31
0.0
  0
LINE
  5
121
330
1F
100
AcDbEntity
  8
NOCUT
100
AcDbLine
 10
274.404842
 20
301.407994
 30
0.0
 11
274.404842
 21
305.907994
 31
0.0
  0
LINE
  5
122
330
1F
100
AcDbEntity
  8
NOCUT
100
AcDbLine
 10
274.404842
 20
305.907994
 30
0.0
 11
274.904842
 21
306.407994
 31
0.0
  0
LINE
  5
123
330
1F
100
AcDbEntity
  8
NOCUT
100
AcDbLine
 10
279.404842
 20
306.407994
 30
0.0
 11
274.904842
 21
306.407994
 31
0.0
  0
LINE
  5
124
330
1F
100
AcDbEntity
  8
NOCUT
100
AcDbLine
 10
218.404842
 20
299.407994
 30
0.0
 11
218.404842
 21
288.907994
 31
0.0
  0
ARC
  5
12D
330
1F
100
AcDbEntity
  8
1
100
AcDbCircle
 10
293.282259
 20
262.657994
 30
0.0
 40
16.0
100
AcDbArc
 50
90.0
 51
135.0
  0
CIRCLE
  5
12E
330
1F
100
AcDbEntity
  8
1
100
AcDbCircle
 10
359.778336
 20
285.682145
 30
0.0
 40
0.8499999999999991
  0
ARC
  5
12F
330
1F
100
AcDbEntity
  8
1
100
AcDbCircle
 10
359.778336
 20
285.682145
 30
0.0
 40
1.1
100
AcDbArc
 50
75.0
 51
345.0
  0
ARC
  5
130
330
1F
100
AcDbEntity
  8
1
100
AcDbCircle
 10
293.282259
 20
315.157994
 30
0.0
 40
16.0
100
AcDbArc
 50
225.0
 51
270.0
  0
ARC
  5
13F
330
1F
100
AcDbEntity
  8
NOCUT
100
AcDbCircle
 10
293.282259
 20
315.157994
 30
0.0
 40
16.0
100
AcDbArc
 50
225.0
 51
270.0
  0
ELLIPSE
  5
140
330
1F
100
AcDbEntity
  8
1
100
AcDbEllipse
 10
362.311206
 20
287.560498
 30
0.0
 11
-0.4688853565125894
 21
-0.0953958039485886
 31
0.0
210
0.0
220
-0.0000000000000001
230
0.9999999999999998
 40
0.6269710000000001
 41
3.027759833984696
 42
3.25542547319489
  0
ELLIPSE
  5
141
330
1F
100
AcDbEntity
  8
1
100
AcDbEllipse
 10
362.239921
 20
283.476576
 30
0.0
 11
-0.4652704586769242
 21
0.1117015543557927
 31
0.0
210
0.0
220
-0.0000000000000001
230
1.0
 40
0.6269710000000001
 41
3.027759833982961
 42
3.255425473194897
  0
ELLIPSE
  5
142
330
1F
100
AcDbEntity
  8
1
100
AcDbEllipse
 10
357.639548
 20
304.819082
 30
0.0
 11
-11.88698429623301
 21
4.178469138465681
 31
0.0
210
0.0
220
0.0
230
1.0
 40
0.9986169999999999
 41
1.721756359358018
 42
1.952315665471647
  0
ELLIPSE
  5
143
330
1F
100
AcDbEntity
  8
1
100
AcDbEllipse
 10
363.609375
 20
287.824614
 30
0.0
 11
0.1098196715017629
 21
-0.2794869350818348
 31
0.0
210
0.0
220
0.0
230
1.0
 40
0.9672880000000001
 41
1.188588412121224
 42
1.616778066586832
  0
ELLIPSE
  5
144
330
1F
100
AcDbEntity
  8
1
100
AcDbEllipse
 10
363.517943
 20
283.16975
 30
0.0
 11
0.2974366018393763
 21
-0.0714082102746037
 31
0.0
210
0.0
220
-0.0000000000000001
230
1.0
 40
0.98075
 41
6.069090479923195
 42
6.497280134435963
  0
ELLIPSE
  5
145
330
1F
100
AcDbEntity
  8
1
100
AcDbEllipse
 10
363.084718
 20
282.258286
 30
0.0
 11
0.2656198798556871
 21
0.1411089058962502
 31
0.0
210
0.0
220
0.0
230
1.0
 40
0.9656209999999999
 41
4.640474638468045
 42
5.325248159976813
  0
ELLIPSE
  5
146
330
1F
100
AcDbEntity
  8
1
100
AcDbEllipse
 10
363.198006
 20
288.748563
 30
0.0
 11
0.1411089059302643
 21
-0.265619879830798
 31
0.0
210
0.0
220
0.0
230
1.0
 40
0.9656209999999999
 41
1.498881984732826
 42
2.183655506254966
  0
ELLIPSE
  5
147
330
1F
100
AcDbEntity
  8
1
100
AcDbEllipse
 10
362.648384
 20
282.710123
 30
0.0
 11
0.2889402018536608
 21
-0.2256341716603717
 31
0.0
210
0.0
220
0.0
230
1.0
 40
0.814315
 41
0.0481118687955044
 42
0.1711933816474867
  0
ELLIPSE
  5
148
330
1F
100
AcDbEntity
  8
1
100
AcDbEllipse
 10
362.940209
 20
283.308452
 30
0.0
 11
0.3459986148161467
 21
-0.1160306481400271
 31
0.0
210
0.0
220
0.0
230
1.0
 40
0.8205279999999998
 41
6.176137922495908
 42
6.252121567216526
  0
ELLIPSE
  5
149
330
1F
100
AcDbEntity
  8
1
100
AcDbEllipse
 10
363.016935
 20
287.7040799999999
 30
0.0
 11
0.3498373080958079
 21
0.1038848134905507
 31
0.0
210
0.0
220
0.0
230
0.9999999999999998
 40
0.8205279999999998
 41
0.031063717469924
 42
0.1070473559245304
  0
ELLIPSE
  5
14A
330
1F
100
AcDbEntity
  8
1
100
AcDbEllipse
 10
362.74617
 20
288.31223
 30
0.0
 11
0.2966387018945152
 21
0.2154128523238465
 31
0.0
210
0.0
220
0.0
230
1.0
 40
0.8143149999999998
 41
6.111991921365532
 42
6.235073434968584
  0
ELLIPSE
  5
14B
330
1F
100
AcDbEntity
  8
1
100
AcDbEllipse
 10
362.648384
 20
282.710123
 30
0.0
 11
0.2154128522599373
 21
-0.2966387021709162
 31
0.0
210
0.0
220
0.0
230
1.0
 40
0.814315
 41
6.111991921884482
 42
6.235073435456032
  0
ELLIPSE
  5
14C
330
1F
100
AcDbEntity
  8
1
100
AcDbEllipse
 10
362.74617
 20
288.31223
 30
0.0
 11
0.2256341756319108
 21
0.2889402101395994
 31
0.0
210
0.0
220
0.0
230
1.0
 40
0.814315
 41
0.048111863834583
 42
0.1711933751729777
  0
ELLIPSE
  5
14D
330
1F
100
AcDbEntity
  8
1
100
AcDbEllipse
 10
362.940209
 20
283.308452
 30
0.0
 11
0.36096384437687
 21
-0.0536960192595335
 31
0.0
210
0.0
220
0.0
230
1.0
 40
0.820528
 41
0.0310637358621229
 42
0.1070473796255405
  0
ELLIPSE
  5
14E
330
1F
100
AcDbEntity
  8
1
100
AcDbEllipse
 10
363.016935
 20
287.7040799999999
 30
0.0
 11
0.3626178095726129
 21
0.0410658604520658
 31
0.0
210
0.0
220
0.0
230
1.0
 40
0.820528
 41
6.176137866498017
 42
6.252121521525527
  0
ELLIPSE
  5
14F
330
1F
100
AcDbEntity
  8
1
100
AcDbEllipse
 10
363.107263
 20
287.722458
 30
0.0
 11
0.0598103803531602
 21
-0.2939774113218834
 31
0.0
210
0.0
220
0.0
230
1.0
 40
0.9098469999999998
 41
1.43268514927335
 42
1.708907504021646
  0
ELLIPSE
  5
150
330
1F
100
AcDbEntity
  8
1
100
AcDbEllipse
 10
363.02984
 20
283.286933
 30
0.0
 11
0.0700336090347567
 21
0.2917109755814281
 31
0.0
210
0.0
220
0.0
230
0.9999999999999998
 40
0.9098469999999998
 41
4.574277802806714
 42
4.85050015801278
  0
ELLIPSE
  5
151
330
1F
100
AcDbEntity
  8
1
100
AcDbEllipse
 10
362.714911
 20
282.641233
 30
0.0
 11
0.2158019401451479
 21
0.2083975111745348
 31
0.0
210
0.0
220
0.0
230
1.0
 40
0.9044360000000001
 41
4.493083732130862
 42
4.931694228666347
  0
ELLIPSE
  5
152
330
1F
100
AcDbEntity
  8
1
100
AcDbEllipse
 10
362.81506
 20
288.378756
 30
0.0
 11
0.2083975111573647
 21
-0.2158019401408995
 31
0.0
210
0.0
220
0.0
230
1.0
 40
0.9044360000000001
 41
1.351491078564447
 42
1.790101575122214
  0
ELLIPSE
  5
153
330
1F
100
AcDbEntity
  8
1
100
AcDbEllipse
 10
297.179076
 20
273.85223
 30
0.0
 11
-20.78493518856256
 21
3.085635450646714
 31
0.0
210
0.0
220
0.0
230
1.0
 40
0.5578940000000001
 41
4.760216951443622
 42
6.139704604254112
  0
ELLIPSE
  5
154
330
1F
100
AcDbEntity
  8
1
100
AcDbEllipse
 10
357.645811
 20
293.521364
 30
0.0
 11
-1.037752597290181
 21
0.3647869882787497
 31
0.0
210
0.0
220
0.0
230
1.0
 40
0.9986169999999999
 41
2.789742606356799
 42
3.003700138744417
  0
ELLIPSE
  5
155
330
1F
100
AcDbEntity
  8
1
100
AcDbEllipse
 10
362.73603
 20
288.81018
 30
0.0
 11
0.0001054973293669
 21
-0.3000466005998643
 31
0.0
210
0.0
220
0.0
230
0.9999999999999998
 40
0.140519
 41
3.139090475970018
 42
4.709886802763046
  0
ELLIPSE
  5
156
330
1F
100
AcDbEntity
  8
1
100
AcDbEllipse
 10
362.904064
 20
292.927199
 30
0.0
 11
0.0003755628765354
 21
0.5004820718078903
 31
0.0
210
0.0
220
0.0
230
0.9999999999999998
 40
0.140044
 41
3.196620263476869
 42
4.767416590263003
  0
ELLIPSE
  5
157
330
1F
100
AcDbEntity
  8
1
100
AcDbEllipse
 10
362.431458
 20
282.069884
 30
0.0
 11
0.0323262014611728
 21
0.2994966855051241
 31
0.0
210
0.0
220
0.0
230
1.0
 40
0.139171
 41
1.583568179246988
 42
3.15436450604254
  0
ELLIPSE
  5
158
330
1F
100
AcDbEntity
  8
1
100
AcDbEllipse
 10
363.576047
 20
288.907994
 30
0.0
 11
1.109447386557097
 21
10.2488407784083
 31
0.0
210
0.0
220
0.0
230
1.0
 40
0.138944
 41
1.983397083178525
 42
3.156632395651107
  0
ELLIPSE
  5
159
330
1F
100
AcDbEntity
  8
1
100
AcDbEllipse
 10
363.154842
 20
288.907994
 30
0.0
 11
0.0
 21
10.24999999982695
 31
0.0
210
0.0
220
0.0
230
1.0
 40
0.140541
 41
1.416847026728674
 42
1.968357341124658
  0
ELLIPSE
  5
15A
330
1F
100
AcDbEntity
  8
1
100
AcDbEllipse
 10
357.685565
 20
293.634456
 30
0.0
 11
-1.037752597290181
 21
0.3647869882787496
 31
0.0
210
0.0
220
0.0
230
1.0
 40
0.9986169999999999
 41
0.0617470360453956
 42
1.952887366749438
  0
ELLIPSE
  5
15B
330
1F
100
AcDbEntity
  8
1
100
AcDbEllipse
 10
357.685565
 20
293.634456
 30
0.0
 11
-1.037752597290181
 21
0.3647869882787496
 31
0.0
210
0.0
220
0.0
230
1.0
 40
0.9986169999999999
 41
1.952888276015089
 42
2.882603670849408
  0
ELLIPSE
  5
15C
330
1F
100
AcDbEntity
  8
1
100
AcDbEllipse
 10
357.645811
 20
293.521364
 30
0.0
 11
-1.037752597290181
 21
0.3647869882787497
 31
0.0
210
0.0
220
0.0
230
1.0
 40
0.9986169999999999
 41
5.608353607745561
 42
5.836666734888786
  0
ELLIPSE
  5
15D
330
1F
100
AcDbEntity
  8
1
100
AcDbEllipse
 10
357.64058
 20
293.506483
 30
0.0
 11
1.037752597290183
 21
-0.3647869882787497
 31
0.0
210
0.0
220
0.0
230
1.0
 40
0.9986169999999999
 41
5.871090913687472
 42
5.931335259946581
  0
ELLIPSE
  5
15E
330
1F
100
AcDbEntity
  8
1
100
AcDbEllipse
 10
357.112849
 20
288.907996
 30
0.0
 11
0.4323090631031925
 21
-10.2499945351247
 31
0.0
210
0.0
220
0.0
230
1.0
 40
0.019519
 41
3.256182262399886
 42
3.285543931413656
  0
ELLIPSE
  5
15F
330
1F
100
AcDbEntity
  8
1
100
AcDbEllipse
 10
300.817864
 20
288.908273
 30
0.0
 11
587.7722090441034
 21
-0.5086684786998719
 31
0.0
210
0.0
220
0.0
230
1.0
 40
0.017417
 41
1.475667774236383
 42
1.480982734998351
  0
ELLIPSE
  5
160
330
1F
100
AcDbEntity
  8
1
100
AcDbEllipse
 10
320.663459
 20
288.907994
 30
0.0
 11
83.47752336615107
 21
-8.517523675137802
 31
0.0
210
0.0
220
0.0
230
1.0
 40
0.068307
 41
4.385174025001008
 42
4.443238135361228
  0
ELLIPSE
  5
161
330
1F
100
AcDbEntity
  8
1
100
AcDbEllipse
 10
357.63083
 20
304.794281
 30
0.0
 11
-11.88698429623301
 21
4.178469138465681
 31
0.0
210
0.0
220
0.0
230
1.0
 40
0.9986169999999999
 41
1.636045634097868
 42
1.952887849140191
  0
ELLIPSE
  5
162
330
1F
100
AcDbEntity
  8
1
100
AcDbEllipse
 10
297.904842
 20
282.209777
 30
0.0
 11
-1.211789050686564
 21
-5.876356634568408
 31
0.0
210
0.0
220
0.0
230
0.9999999999999998
 40
0.13598
 41
4.129425463607571
 42
5.386658221004988
  0
ELLIPSE
  5
163
330
1F
100
AcDbEntity
  8
1
100
AcDbEllipse
 10
359.78987
 20
294.930105
 30
0.0
 11
-0.4075175559138355
 21
0.1432490771699381
 31
0.0
210
0.0
220
0.0
230
0.9999999999999998
 40
0.9986169999999999
 41
4.362712368112741
 42
5.302649861748826
  0
ELLIPSE
  5
164
330
1F
100
AcDbEntity
  8
1
100
AcDbEllipse
 10
360.053536
 20
296.122803
 30
0.0
 11
1.22643488770658
 21
-0.4311118952385225
 31
0.0
210
0.0
220
0.0
230
1.0
 40
0.9986169999999997
 41
0.0
 42
6.283185307179585
  0
ELLIPSE
  5
165
330
1F
100
AcDbEntity
  8
1
100
AcDbEllipse
 10
360.056569
 20
296.13143
 30
0.0
 11
1.627384754841423
 21
-0.5720523225280393
 31
0.0
210
0.0
220
0.0
230
1.0
 40
0.9986169999999999
 41
0.0
 42
6.283185307179585
  0
ELLIPSE
  5
166
330
1F
100
AcDbEntity
  8
1
100
AcDbEllipse
 10
360.160449
 20
296.259586
 30
0.0
 11
1.679024461444059
 21
-0.5902045228659269
 31
0.0
210
0.0
220
0.0
230
0.9999999999999998
 40
0.9986169999999999
 41
0.0
 42
6.283185307179585
  0
ELLIPSE
  5
167
330
1F
100
AcDbEntity
  8
1
100
AcDbEllipse
 10
360.169777
 20
296.286123
 30
0.0
 11
1.652572938396774
 21
-0.5809063804637766
 31
0.0
210
0.0
220
0.0
230
1.0
 40
0.9986169999999999
 41
1.952887838473243
 42
2.985293615969058
  0
ELLIPSE
  5
168
330
1F
100
AcDbEntity
  8
1
100
AcDbEllipse
 10
360.169777
 20
296.286123
 30
0.0
 11
1.652572938396774
 21
-0.5809063804637766
 31
0.0
210
0.0
220
0.0
230
1.0
 40
0.9986169999999999
 41
5.795742701623861
 42
6.283185307179585
  0
ELLIPSE
  5
169
330
1F
100
AcDbEntity
  8
1
100
AcDbEllipse
 10
360.169777
 20
296.286123
 30
0.0
 11
1.652572938396774
 21
-0.5809063804637766
 31
0.0
210
0.0
220
0.0
230
1.0
 40
0.9986169999999999
 41
0.0
 42
1.952887564593818
  0
ELLIPSE
  5
16A
330
1F
100
AcDbEntity
  8
1
100
AcDbEllipse
 10
357.73124
 20
293.577889
 30
0.0
 11
0.9544181509678411
 21
1.042471548523536
 31
0.0
210
0.0
220
0.0
230
1.0
 40
0.014608
 41
0.9817638394082058
 42
1.536574872663023
  0
ELLIPSE
  5
16B
330
1F
100
AcDbEntity
  8
1
100
AcDbEllipse
 10
360.157572
 20
296.251402
 30
0.0
 11
-1.768896472653717
 21
0.6217960027478683
 31
0.0
210
0.0
220
0.0
230
0.9999999999999998
 40
0.9986169999999999
 41
1.496964098433075
 42
5.094480416848164
  0
ELLIPSE
  5
16C
330
1F
100
AcDbEntity
  8
1
100
AcDbEllipse
 10
360.157572
 20
296.251402
 30
0.0
 11
-1.768896472653717
 21
0.6217960027478683
 31
0.0
210
0.0
220
0.0
230
0.9999999999999998
 40
0.9986169999999999
 41
5.09448041684817
 42
6.283185307179585
  0
ELLIPSE
  5
16D
330
1F
100
AcDbEntity
  8
1
100
AcDbEllipse
 10
360.157572
 20
296.251402
 30
0.0
 11
-1.768896472653717
 21
0.6217960027478683
 31
0.0
210
0.0
220
0.0
230
0.9999999999999998
 40
0.9986169999999999
 41
0.0
 42
0.9221507969589502
  0
ELLIPSE
  5
16E
330
1F
100
AcDbEntity
  8
1
100
AcDbEllipse
 10
357.506468
 20
298.62043
 30
0.0
 11
1.042970517782665
 21
-0.9548749743013145
 31
0.0
210
0.0
220
0.0
230
1.0
 40
0.034202
 41
1.030578139215795
 42
1.585389172488574
  0
ELLIPSE
  5
16F
330
1F
100
AcDbEntity
  8
1
100
AcDbEllipse
 10
362.554264
 20
298.840592
 30
0.0
 11
0.9544181520921359
 21
1.042471549750615
 31
0.0
210
0.0
220
0.0
230
0.9999999999999998
 40
0.014608
 41
1.536574872724033
 42
2.091385905350088
  0
ELLIPSE
  5
170
330
1F
100
AcDbEntity
  8
1
100
AcDbEllipse
 10
362.779035
 20
293.798051
 30
0.0
 11
1.042970518263049
 21
-0.9548749747216476
 31
0.0
210
0.0
220
0.0
230
0.9999999999999998
 40
0.034202
 41
1.585389172182698
 42
2.140200205216546
  0
ELLIPSE
  5
171
330
1F
100
AcDbEntity
  8
1
100
AcDbEllipse
 10
359.702953
 20
295.266463
 30
0.0
 11
-0.0794580284109328
 21
0.0279307948294024
 31
0.0
210
0.0
220
0.0
230
0.9999999999999998
 40
0.9986169999999997
 41
5.30264986174853
 42
6.141678053926598
  0
ELLIPSE
  5
172
330
1F
100
AcDbEntity
  8
1
100
AcDbEllipse
 10
359.553492
 20
295.344148
 30
0.0
 11
-0.0794580284109329
 21
0.0279307948294024
 31
0.0
210
0.0
220
0.0
230
1.0
 40
0.9986169999999997
 41
1.637458432560628
 42
3.000085400336756
  0
ELLIPSE
  5
173
330
1F
100
AcDbEntity
  8
1
100
AcDbEllipse
 10
359.646543
 20
295.678707
 30
0.0
 11
-0.4075175559138357
 21
0.1432490771699381
 31
0.0
210
0.0
220
0.0
230
1.0
 40
0.9986169999999999
 41
0.6975209389246466
 42
1.637458432560801
  0
ELLIPSE
  5
174
330
1F
100
AcDbEntity
  8
1
100
AcDbEllipse
 10
359.321137
 20
295.556664
 30
0.0
 11
-0.0794580284109327
 21
0.0279307948294023
 31
0.0
210
0.0
220
0.0
230
1.0
 40
0.9986169999999997
 41
5.618079278328181
 42
6.980706246104366
  0
ELLIPSE
  5
175
330
1F
100
AcDbEntity
  8
1
100
AcDbEllipse
 10
359.23052
 20
295.698557
 30
0.0
 11
-0.0794580284109327
 21
0.0279307948294023
 31
0.0
210
0.0
220
0.0
230
0.9999999999999998
 40
0.9986169999999997
 41
2.476486624738321
 42
3.315514816916178
  0
ELLIPSE
  5
176
330
1F
100
AcDbEntity
  8
1
100
AcDbEllipse
 10
358.887482
 20
295.755444
 30
0.0
 11
-0.4075175559138355
 21
0.1432490771699381
 31
0.0
210
0.0
220
0.0
230
0.9999999999999998
 40
0.9986169999999999
 41
3.315514816916151
 42
4.25545231055227
  0
ELLIPSE
  5
177
330
1F
100
AcDbEntity
  8
1
100
AcDbEllipse
 10
359.135567
 20
295.998562
 30
0.0
 11
-0.0794580284109328
 21
0.0279307948294024
 31
0.0
210
0.0
220
0.0
230
0.9999999999999998
 40
0.9986169999999997
 41
4.255452310552203
 42
5.094480502730027
  0
ELLIPSE
  5
178
330
1F
100
AcDbEntity
  8
1
100
AcDbEllipse
 10
359.128075
 20
296.166643
 30
0.0
 11
-0.0794580284109329
 21
0.0279307948294024
 31
0.0
210
0.0
220
0.0
230
1.0
 40
0.9986169999999997
 41
0.5902608813642077
 42
1.952887849140233
  0
ELLIPSE
  5
179
330
1F
100
AcDbEntity
  8
1
100
AcDbEllipse
 10
359.46472
 20
296.253175
 30
0.0
 11
-0.4075175559138357
 21
0.1432490771699381
 31
0.0
210
0.0
220
0.0
230
1.0
 40
0.9986169999999999
 41
5.933508694907668
 42
6.873446188543755
  0
ELLIPSE
  5
17A
330
1F
100
AcDbEntity
  8
1
100
AcDbEllipse
 10
359.195966
 20
296.47375
 30
0.0
 11
-0.0794580284109327
 21
0.0279307948294023
 31
0.0
210
0.0
220
0.0
230
1.0
 40
0.9986169999999997
 41
4.570881727131575
 42
5.93350869490766
  0
ELLIPSE
  5
17B
330
1F
100
AcDbEntity
  8
1
100
AcDbEllipse
 10
359.273606
 20
296.622982
 30
0.0
 11
-0.0794580284109327
 21
0.0279307948294023
 31
0.0
210
0.0
220
0.0
230
0.9999999999999998
 40
0.9986169999999997
 41
1.429289073541973
 42
2.268317265719384
  0
ELLIPSE
  5
17C
330
1F
100
AcDbEntity
  8
1
100
AcDbEllipse
 10
359.151149
 20
296.948142
 30
0.0
 11
-0.4075175559138355
 21
0.1432490771699381
 31
0.0
210
0.0
220
0.0
230
0.9999999999999998
 40
0.9986169999999999
 41
2.268317265719568
 42
3.208254759355683
  0
ELLIPSE
  5
17D
330
1F
100
AcDbEntity
  8
1
100
AcDbEllipse
 10
359.48615
 20
296.854903
 30
0.0
 11
-0.0794580284109328
 21
0.0279307948294024
 31
0.0
210
0.0
220
0.0
230
0.9999999999999998
 40
0.9986169999999997
 41
3.208254759355666
 42
4.047282951533342
  0
ELLIPSE
  5
17E
330
1F
100
AcDbEntity
  8
1
100
AcDbEllipse
 10
359.628118
 20
296.945299
 30
0.0
 11
-0.0794580284109329
 21
0.0279307948294024
 31
0.0
210
0.0
220
0.0
230
1.0
 40
0.9986169999999997
 41
5.826248637347076
 42
7.188875605122898
  0
ELLIPSE
  5
17F
330
1F
100
AcDbEntity
  8
1
100
AcDbEllipse
 10
359.871713
 20
296.697271
 30
0.0
 11
-0.4075175559138357
 21
0.1432490771699381
 31
0.0
210
0.0
220
0.0
230
1.0
 40
0.9986169999999999
 41
4.886311143711039
 42
5.826248637347183
  0
ELLIPSE
  5
180
330
1F
100
AcDbEntity
  8
1
100
AcDbEllipse
 10
359.928365
 20
297.03989
 30
0.0
 11
-0.0794580284109327
 21
0.0279307948294023
 31
0.0
210
0.0
220
0.0
230
1.0
 40
0.9986169999999997
 41
3.523684175935057
 42
4.886311143711072
  0
ELLIPSE
  5
181
330
1F
100
AcDbEntity
  8
1
100
AcDbEllipse
 10
360.096621
 20
297.047228
 30
0.0
 11
-0.0794580284109327
 21
0.0279307948294023
 31
0.0
210
0.0
220
0.0
230
0.9999999999999998
 40
0.9986169999999997
 41
0.3820915223452167
 42
1.221119714522729
  0
ELLIPSE
  5
182
330
1F
100
AcDbEntity
  8
1
100
AcDbEllipse
 10
360.317202
 20
297.315501
 30
0.0
 11
-0.4075175559138355
 21
0.1432490771699381
 31
0.0
210
0.0
220
0.0
230
0.9999999999999998
 40
0.9986169999999999
 41
1.221119714522916
 42
2.161057208159025
  0
ELLIPSE
  5
183
330
1F
100
AcDbEntity
  8
1
100
AcDbEllipse
 10
360.4041200000001
 20
296.979144
 30
0.0
 11
-0.0794580284109328
 21
0.0279307948294024
 31
0.0
210
0.0
220
0.0
230
0.9999999999999998
 40
0.9986169999999997
 41
2.161057208158783
 42
3.00008540033678
  0
ELLIPSE
  5
184
330
1F
100
AcDbEntity
  8
1
100
AcDbEllipse
 10
360.55358
 20
296.901459
 30
0.0
 11
-0.0794580284109329
 21
0.0279307948294024
 31
0.0
210
0.0
220
0.0
230
1.0
 40
0.9986169999999997
 41
4.779051086150416
 42
6.141678053926598
  0
ELLIPSE
  5
185
330
1F
100
AcDbEntity
  8
1
100
AcDbEllipse
 10
360.460529
 20
296.5668990000001
 30
0.0
 11
-0.4075175559138357
 21
0.1432490771699381
 31
0.0
210
0.0
220
0.0
230
1.0
 40
0.9986169999999999
 41
3.839113592514499
 42
4.779051086150595
  0
ELLIPSE
  5
186
330
1F
100
AcDbEntity
  8
1
100
AcDbEllipse
 10
360.785935
 20
296.688943
 30
0.0
 11
-0.0794580284109327
 21
0.0279307948294023
 31
0.0
210
0.0
220
0.0
230
1.0
 40
0.9986169999999997
 41
2.476486624738625
 42
3.839113592514638
  0
ELLIPSE
  5
187
330
1F
100
AcDbEntity
  8
1
100
AcDbEllipse
 10
360.876552
 20
296.54705
 30
0.0
 11
-0.0794580284109327
 21
0.0279307948294023
 31
0.0
210
0.0
220
0.0
230
0.9999999999999998
 40
0.9986169999999997
 41
5.618079278328418
 42
6.457107470505859
  0
ELLIPSE
  5
188
330
1F
100
AcDbEntity
  8
1
100
AcDbEllipse
 10
361.21959
 20
296.490162
 30
0.0
 11
-0.4075175559138355
 21
0.1432490771699381
 31
0.0
210
0.0
220
0.0
230
0.9999999999999998
 40
0.9986169999999999
 41
0.1739221633263744
 42
1.113859656962484
  0
ELLIPSE
  5
189
330
1F
100
AcDbEntity
  8
1
100
AcDbEllipse
 10
360.971505
 20
296.247045
 30
0.0
 11
-0.0794580284109328
 21
0.0279307948294024
 31
0.0
210
0.0
220
0.0
230
0.9999999999999998
 40
0.9986169999999997
 41
1.113859656962487
 42
1.952887849140233
  0
ELLIPSE
  5
18A
330
1F
100
AcDbEntity
  8
1
100
AcDbEllipse
 10
360.978997
 20
296.078964
 30
0.0
 11
-0.0794580284109329
 21
0.0279307948294024
 31
0.0
210
0.0
220
0.0
230
1.0
 40
0.9986169999999997
 41
3.731853534953906
 42
5.094480502730058
  0
ELLIPSE
  5
18B
330
1F
100
AcDbEntity
  8
1
100
AcDbEllipse
 10
360.642352
 20
295.992432
 30
0.0
 11
-0.4075175559138357
 21
0.1432490771699381
 31
0.0
210
0.0
220
0.0
230
1.0
 40
0.9986169999999999
 41
2.791916041317874
 42
3.731853534954008
  0
ELLIPSE
  5
18C
330
1F
100
AcDbEntity
  8
1
100
AcDbEllipse
 10
360.911106
 20
295.771856
 30
0.0
 11
-0.0794580284109327
 21
0.0279307948294023
 31
0.0
210
0.0
220
0.0
230
1.0
 40
0.9986169999999997
 41
1.429289073541806
 42
2.791916041317788
  0
ELLIPSE
  5
18D
330
1F
100
AcDbEntity
  8
1
100
AcDbEllipse
 10
360.833466
 20
295.622625
 30
0.0
 11
-0.0794580284109327
 21
0.0279307948294023
 31
0.0
210
0.0
220
0.0
230
0.9999999999999998
 40
0.9986169999999997
 41
4.570881727131909
 42
5.409909919309285
  0
ELLIPSE
  5
18E
330
1F
100
AcDbEntity
  8
1
100
AcDbEllipse
 10
360.955923
 20
295.297465
 30
0.0
 11
-0.4075175559138355
 21
0.1432490771699381
 31
0.0
210
0.0
220
0.0
230
0.9999999999999998
 40
0.9986169999999999
 41
5.409909919309312
 42
6.349847412945465
  0
ELLIPSE
  5
18F
330
1F
100
AcDbEntity
  8
1
100
AcDbEllipse
 10
360.620922
 20
295.390704
 30
0.0
 11
-0.0794580284109328
 21
0.0279307948294024
 31
0.0
210
0.0
220
0.0
230
0.9999999999999998
 40
0.9986169999999997
 41
0.0666621057660302
 42
0.9056902979436019
  0
ELLIPSE
  5
190
330
1F
100
AcDbEntity
  8
1
100
AcDbEllipse
 10
360.478954
 20
295.300308
 30
0.0
 11
-0.0794580284109329
 21
0.0279307948294024
 31
0.0
210
0.0
220
0.0
230
1.0
 40
0.9986169999999997
 41
2.684655983757284
 42
4.047282951533209
  0
ELLIPSE
  5
191
330
1F
100
AcDbEntity
  8
1
100
AcDbEllipse
 10
360.235359
 20
295.548336
 30
0.0
 11
-0.4075175559138357
 21
0.1432490771699381
 31
0.0
210
0.0
220
0.0
230
1.0
 40
0.9986169999999999
 41
1.744718490121244
 42
2.68465598375739
  0
ELLIPSE
  5
192
330
1F
100
AcDbEntity
  8
1
100
AcDbEllipse
 10
360.178707
 20
295.205717
 30
0.0
 11
-0.0794580284109327
 21
0.0279307948294023
 31
0.0
210
0.0
220
0.0
230
1.0
 40
0.9986169999999997
 41
0.3820915223452012
 42
1.744718490121293
  0
ELLIPSE
  5
193
330
1F
100
AcDbEntity
  8
1
100
AcDbEllipse
 10
360.010451
 20
295.198378
 30
0.0
 11
-0.0794580284109327
 21
0.0279307948294023
 31
0.0
210
0.0
220
0.0
230
0.9999999999999998
 40
0.9986169999999997
 41
3.523684175935073
 42
4.362712368112767
  0
ELLIPSE
  5
194
330
1F
100
AcDbEntity
  8
1
100
AcDbEllipse
 10
360.0709720000001
 20
296.172405
 30
0.0
 11
-1.627384754841424
 21
0.5720523225280397
 31
0.0
210
0.0
220
0.0
230
0.9999999999999998
 40
0.9986169999999999
 41
3.14168624220166
 42
6.283185307179585
  0
ELLIPSE
  5
195
330
1F
100
AcDbEntity
  8
1
100
AcDbEllipse
 10
357.64058
 20
293.506483
 30
0.0
 11
1.037752597290183
 21
-0.3647869882787497
 31
0.0
210
0.0
220
0.0
230
1.0
 40
0.9986169999999999
 41
2.695074081298975
 42
4.225118764159596
  0
ELLIPSE
  5
196
330
1F
100
AcDbEntity
  8
1
100
AcDbEllipse
 10
357.420775
 20
288.907994
 30
0.0
 11
0.3787154289420331
 21
-10.24986103216127
 31
0.0
210
0.0
220
0.0
230
1.0
 40
0.140936
 41
3.230914362934211
 42
3.252180880009318
  0
ELLIPSE
  5
197
330
1F
100
AcDbEntity
  8
1
100
AcDbEllipse
 10
360.463399
 20
288.9080189999999
 30
0.0
 11
17.57251842145895
 21
-10.11232417027944
 31
0.0
210
0.0
220
0.0
230
1.0
 40
0.095266
 41
4.213847865613918
 42
4.229989378691742
  0
ELLIPSE
  5
198
330
1F
100
AcDbEntity
  8
1
100
AcDbEllipse
 10
356.139011
 20
291.199473
 30
0.0
 11
-3.407846022365653
 21
-0.1638440257086221
 31
0.0
210
0.0
220
0.0
230
1.0
 40
0.221493
 41
2.228804449072037
 42
4.048249232749441
  0
ELLIPSE
  5
199
330
1F
100
AcDbEntity
  8
1
100
AcDbEllipse
 10
281.133857
 20
288.907994
 30
0.0
 11
218.635632475058
 21
9.995919209970084
 31
0.0
210
0.0
220
0.0
230
1.0
 40
0.010374
 41
5.072460732861822
 42
5.089458437370672
  0
SPLINE
  5
1A1
330
1F
100
AcDbEntity
  8
1
100
AcDbSpline
210
0.0
220
0.0
230
1.0
 70
     8
 71
     3
 72
    30
 73
    26
 74
     0
 42
0.000000001
 43
0.0000000001
 40
0.0
 40
0.0
 40
0.0
 40
0.0
 40
0.1249999999999967
 40
0.1249999999999967
 40
0.1874999999999956
 40
0.1874999999999956
 40
0.2499999999999944
 40
0.2499999999999944
 40
0.3749999999999922
 40
0.3749999999999922
 40
0.4374999999999912
 40
0.4374999999999912
 40
0.4999999999999902
 40
0.4999999999999902
 40
0.6249999999999883
 40
0.6249999999999883
 40
0.6874999999999896
 40
0.6874999999999896
 40
0.7499999999999908
 40
0.7499999999999908
 40
0.8749999999999984
 40
0.8749999999999984
 40
0.9374999999999992
 40
0.9374999999999992
 40
1.0
 40
1.0
 40
1.0
 40
1.0
 10
362.0708332739367
 20
284.9394935137011
 30
0.0
 10
362.0749413802997
 20
284.9125046271675
 30
0.0
 10
362.0796059792756
 20
284.8885175250918
 30
0.0
 10
362.0874640762235
 20
284.8571822745657
 30
0.0
 10
362.0902203148194
 20
284.8475483238173
 30
0.0
 10
362.0959677133678
 20
284.830027017706
 30
0.0
 10
362.0989641633648
 20
284.8221179245076
 30
0.0
 10
362.1083214829182
 20
284.8009433639675
 30
0.0
 10
362.1150680340452
 20
284.7902256932835
 30
0.0
 10
362.1257873076041
 20
284.7795027720422
 30
0.0
 10
362.1294649652946
 20
284.7768083962344
 30
0.0
 10
362.1370299790672
 20
284.7731842648835
 30
0.0
 10
362.1409239672081
 20
284.7722549706673
 30
0.0
 10
362.1528743033282
 20
284.7721504489858
 30
0.0
 10
362.1611782194861
 20
284.7756341678683
 30
0.0
 10
362.1741403387603
 20
284.7861972995591
 30
0.0
 10
362.1785484976661
 20
284.7906170143841
 30
0.0
 10
362.1874741311202
 20
284.8011877321358
 30
0.0
 10
362.1919987931717
 20
284.8073432797501
 30
0.0
 10
362.2057582449698
 20
284.8284194992365
 30
0.0
 10
362.2152058323678
 20
284.8460147956733
 30
0.0
 10
362.229569045448
 20
284.8773376069295
 30
0.0
 10
362.2343942687478
 20
284.8886066465388
 30
0.0
 10
362.2441200207022
 20
284.9128083124078
 30
0.0
 10
362.2490293044001
 20
284.9257662505646
 30
0.0
 10
362.2539501366541
 20
284.939493513701
 30
0.0
  0
SPLINE
  5
1A2
330
1F
100
AcDbEntity
  8
1
100
AcDbSpline
210
0.0
220
0.0
230
1.0
 70
     8
 71
     3
 72
   134
 73
   130
 74
     0
 42
0.000000001
 43
0.0000000001
 40
0.0
 40
0.0
 40
0.0
 40
0.0
 40
0.015625
 40
0.015625
 40
0.0312499999999999
 40
0.0312499999999999
 40
0.0468749999999998
 40
0.0468749999999998
 40
0.0624999999999997
 40
0.0624999999999997
 40
0.0781249999999996
 40
0.0781249999999996
 40
0.0937499999999995
 40
0.0937499999999995
 40
0.1093749999999994
 40
0.1093749999999994
 40
0.1249999999999993
 40
0.1249999999999993
 40
0.1406249999999993
 40
0.1406249999999993
 40
0.1562499999999991
 40
0.1562499999999991
 40
0.1718749999999991
 40
0.1718749999999991
 40
0.1874999999999989
 40
0.1874999999999989
 40
0.2031249999999988
 40
0.2031249999999988
 40
0.2187499999999987
 40
0.2187499999999987
 40
0.2343749999999986
 40
0.2343749999999986
 40
0.2499999999999985
 40
0.2499999999999985
 40
0.2656249999999984
 40
0.2656249999999984
 40
0.2812499999999983
 40
0.2812499999999983
 40
0.2968749999999982
 40
0.2968749999999982
 40
0.3124999999999981
 40
0.3124999999999981
 40
0.3281249999999981
 40
0.3281249999999981
 40
0.343749999999998
 40
0.343749999999998
 40
0.3593749999999979
 40
0.3593749999999979
 40
0.3749999999999979
 40
0.3749999999999979
 40
0.3906249999999978
 40
0.3906249999999978
 40
0.3984374999999977
 40
0.3984374999999977
 40
0.4062499999999976
 40
0.4062499999999976
 40
0.4374999999999966
 40
0.4374999999999966
 40
0.4531249999999963
 40
0.4531249999999963
 40
0.4609374999999963
 40
0.4609374999999963
 40
0.4687499999999963
 40
0.4843749999999964
 40
0.4843749999999964
 40
0.4999999999999967
 40
0.4999999999999967
 40
0.5156249999999967
 40
0.5156249999999967
 40
0.5312499999999968
 40
0.5312499999999968
 40
0.5468749999999969
 40
0.5468749999999969
 40
0.5624999999999972
 40
0.5624999999999972
 40
0.5781249999999972
 40
0.5781249999999972
 40
0.5937499999999973
 40
0.5937499999999973
 40
0.6093749999999974
 40
0.6093749999999974
 40
0.6249999999999978
 40
0.6249999999999978
 40
0.6406249999999984
 40
0.6406249999999984
 40
0.6562499999999988
 40
0.6562499999999988
 40
0.6718749999999992
 40
0.6718749999999992
 40
0.6874999999999996
 40
0.6874999999999996
 40
0.703125
 40
0.703125
 40
0.7187500000000002
 40
0.7187500000000002
 40
0.7343750000000006
 40
0.7343750000000006
 40
0.7500000000000009
 40
0.7500000000000009
 40
0.7656250000000013
 40
0.7656250000000013
 40
0.7812500000000016
 40
0.7812500000000016
 40
0.7968750000000019
 40
0.7968750000000019
 40
0.8125000000000021
 40
0.8125000000000021
 40
0.8437500000000031
 40
0.8437500000000031
 40
0.8593750000000035
 40
0.8593750000000035
 40
0.8671875000000035
 40
0.8671875000000035
 40
0.8750000000000037
 40
0.8906250000000031
 40
0.8906250000000031
 40
0.9062500000000028
 40
0.9062500000000028
 40
0.9218750000000024
 40
0.9218750000000024
 40
0.9375000000000019
 40
0.9375000000000019
 40
0.9531250000000014
 40
0.9531250000000014
 40
0.968750000000001
 40
0.968750000000001
 40
0.9843750000000005
 40
0.9843750000000005
 40
1.0
 40
1.0
 40
1.0
 40
1.0
 10
362.2539501366541
 20
284.939493513701
 30
0.0
 10
362.2584669166885
 20
284.9575833921316
 30
0.0
 10
362.26286780981
 20
284.9769910990858
 30
0.0
 10
362.2714378600742
 20
285.0184417396624
 30
0.0
 10
362.2756162427847
 20
285.0405414043764
 30
0.0
 10
362.2836779293109
 20
285.087078237538
 30
0.0
 10
362.2875633484471
 20
285.1115146960253
 30
0.0
 10
362.2950435915235
 20
285.1627216642625
 30
0.0
 10
362.2986459761686
 20
285.1895584184497
 30
0.0
 10
362.3055021831718
 20
285.2451696905723
 30
0.0
 10
362.3087595143418
 20
285.273956829441
 30
0.0
 10
362.3149331884632
 20
285.3334909146634
 30
0.0
 10
362.3178550562296
 20
285.3643092271688
 30
0.0
 10
362.3233083456069
 20
285.427416985351
 30
0.0
 10
362.3258440475686
 20
285.4597354753275
 30
0.0
 10
362.330534473985
 20
285.5258980412733
 30
0.0
 10
362.3326925487067
 20
285.5598134502782
 30
0.0
 10
362.3365898879931
 20
285.6286052951078
 30
0.0
 10
362.3383333595551
 20
285.6635270446763
 30
0.0
 10
362.3414111341862
 20
285.7344190521757
 30
0.0
 10
362.3427467208413
 20
285.7704552829514
 30
0.0
 10
362.3449848237136
 20
285.8429582389811
 30
0.0
 10
362.3458907199542
 20
285.8794845153293
 30
0.0
 10
362.3472776183382
 20
285.9530848388156
 30
0.0
 10
362.3477581869088
 20
285.9902147032799
 30
0.0
 10
362.3482857267656
 20
286.064375900999
 30
0.0
 10
362.3483346672203
 20
286.1014775696722
 30
0.0
 10
362.3480042899392
 20
286.1757229092638
 30
0.0
 10
362.3476233702783
 20
286.2129084785581
 30
0.0
 10
362.3464400244579
 20
286.2866721339382
 30
0.0
 10
362.3456377842737
 20
286.3233270468006
 30
0.0
 10
362.3436133255506
 20
286.3961842888255
 30
0.0
 10
362.3423890276966
 20
286.4324121738309
 30
0.0
 10
362.3395420715313
 20
286.5037855831134
 30
0.0
 10
362.3379176622847
 20
286.5390098752882
 30
0.0
 10
362.3342676926553
 20
286.6085352714044
 30
0.0
 10
362.332240351486
 20
286.6428446331659
 30
0.0
 10
362.3278198031904
 20
286.7099495664181
 30
0.0
 10
362.3254229535513
 20
286.7428215212427
 30
0.0
 10
362.3202562416633
 20
286.8072049119886
 30
0.0
 10
362.3174857101889
 20
286.838707830262
 30
0.0
 10
362.3116190075251
 20
286.8998174426979
 30
0.0
 10
362.3085175128
 20
286.9294943714468
 30
0.0
 10
362.3019777734662
 20
286.9870900561721
 30
0.0
 10
362.2985407851654
 20
287.0149854871231
 30
0.0
 10
362.2913877349338
 20
287.0685496556628
 30
0.0
 10
362.2876650074235
 20
287.0942794790597
 30
0.0
 10
362.2799261611489
 20
287.1436275042329
 30
0.0
 10
362.2759140108483
 20
287.1672109736286
 30
0.0
 10
362.2676624115379
 20
287.2118744150818
 30
0.0
 10
362.2634153895024
 20
287.2330041998841
 30
0.0
 10
362.2568620224849
 20
287.2628860541679
 30
0.0
 10
362.2546452679975
 20
287.2725502363345
 30
0.0
 10
362.2501786566236
 20
287.2911539162323
 30
0.0
 10
362.2479255855158
 20
287.300108833327
 30
0.0
 10
362.2365627264737
 20
287.343172036391
 30
0.0
 10
362.2271623329439
 20
287.3721796101879
 30
0.0
 10
362.2125985559063
 20
287.4075611127755
 30
0.0
 10
362.2076663944398
 20
287.4179934530297
 30
0.0
 10
362.2001485291239
 20
287.4315423373397
 30
0.0
 10
362.1976204299894
 20
287.4357102665675
 30
0.0
 10
362.1925566656484
 20
287.4432852706137
 30
0.0
 10
362.1849383413739
 20
287.453528085802
 30
0.0
 10
362.1772523321382
 20
287.4604290266737
 30
0.0
 10
362.1669436329884
 20
287.4666339320114
 30
0.0
 10
362.1617626734994
 20
287.4682275634048
 30
0.0
 10
362.1514331704764
 20
287.4683716711658
 30
0.0
 10
362.1462731514001
 20
287.466930702007
 30
0.0
 10
362.1359626582901
 20
287.4609970855077
 30
0.0
 10
362.1308137001908
 20
287.4564962794919
 30
0.0
 10
362.1206191480397
 20
287.4445040590296
 30
0.0
 10
362.1155617459335
 20
287.4370079057188
 30
0.0
 10
362.1055273417435
 20
287.4189909817978
 30
0.0
 10
362.1005511086614
 20
287.4084619408149
 30
0.0
 10
362.0907710905131
 20
287.3845517893496
 30
0.0
 10
362.0859556158689
 20
287.3711520207318
 30
0.0
 10
362.0764748907667
 20
287.3414407041512
 30
0.0
 10
362.0718109000549
 20
287.3251227924565
 30
0.0
 10
362.06272050898
 20
287.2898592295349
 30
0.0
 10
362.0582829274562
 20
287.2708809717991
 30
0.0
 10
362.0496245411095
 20
287.2302121266287
 30
0.0
 10
362.0454063601175
 20
287.208522797824
 30
0.0
 10
362.037266355128
 20
287.1628220411467
 30
0.0
 10
362.0333342881419
 20
287.1387648773444
 30
0.0
 10
362.0257478270537
 20
287.088221214441
 30
0.0
 10
362.0220977711091
 20
287.0617516436251
 30
0.0
 10
362.0151439656095
 20
287.0068670735322
 30
0.0
 10
362.0118314028804
 20
286.9783955595885
 30
0.0
 10
362.0055368609734
 20
286.9193821525992
 30
0.0
 10
362.0025606266618
 20
286.8888809116155
 30
0.0
 10
361.9969936776497
 20
286.8263656618805
 30
0.0
 10
361.9943960046754
 20
286.7942884011975
 30
0.0
 10
361.9895741271856
 20
286.7284863792863
 30
0.0
 10
361.9873561190181
 20
286.6948308995569
 30
0.0
 10
361.9833329573554
 20
286.6264781439156
 30
0.0
 10
361.9815228981938
 20
286.5917157417622
 30
0.0
 10
361.9783075676139
 20
286.5210138160696
 30
0.0
 10
361.976907762984
 20
286.4851750368234
 30
0.0
 10
361.9745359970611
 20
286.4129453209683
 30
0.0
 10
361.9735611462906
 20
286.3764925995756
 30
0.0
 10
361.9720351445831
 20
286.3029088114938
 30
0.0
 10
361.9714874278465
 20
286.2659103930047
 30
0.0
 10
361.970822833077
 20
286.1918512414058
 30
0.0
 10
361.9707048009267
 20
286.1547369182238
 30
0.0
 10
361.9708988892792
 20
286.0803381354788
 30
0.0
 10
361.9712110957479
 20
286.043300740402
 30
0.0
 10
361.9727685577977
 20
285.9332398015236
 30
0.0
 10
361.9746311942438
 20
285.8610103764822
 30
0.0
 10
361.9786458868562
 20
285.754361165744
 30
0.0
 10
361.9801885780673
 20
285.7190953106562
 30
0.0
 10
361.9828166626484
 20
285.6666325659004
 30
0.0
 10
361.9837439856401
 20
285.6492437741841
 30
0.0
 10
361.9856915153458
 20
285.6148367075963
 30
0.0
 10
361.9887560105837
 20
285.5637058427377
 30
0.0
 10
361.9922468944837
 20
285.5140034178563
 30
0.0
 10
361.9972818827218
 20
285.4490081477289
 30
0.0
 10
361.9999811539083
 20
285.4172661246359
 30
0.0
 10
362.0057157220322
 20
285.3555565274025
 30
0.0
 10
362.0087544415889
 20
285.3255442137625
 30
0.0
 10
362.0151763004669
 20
285.2672121675798
 30
0.0
 10
362.0185501161783
 20
285.2389851443214
 30
0.0
 10
362.0255870804097
 20
285.184673538942
 30
0.0
 10
362.0292550927022
 20
285.1585441388369
 30
0.0
 10
362.036891770692
 20
285.1083490787884
 30
0.0
 10
362.0408509643851
 20
285.0843531571409
 30
0.0
 10
362.0490052839198
 20
285.0388147123156
 30
0.0
 10
362.0532067312201
 20
285.0172299055774
 30
0.0
 10
362.0618597669144
 20
284.9764440471359
 30
0.0
 10
362.0663023110056
 20
284.9572928788547
 30
0.0
 10
362.0708332739367
 20
284.9394935137011
 30
0.0
  0
SPLINE
  5
1A3
330
1F
100
AcDbEntity
  8
1
100
AcDbSpline
210
0.0
220
0.0
230
1.0
 70
     8
 71
     3
 72
    27
 73
    23
 74
     0
 42
0.000000001
 43
0.0000000001
 40
0.0
 40
0.0
 40
0.0
 40
0.0
 40
0.125
 40
0.125
 40
0.25
 40
0.25
 40
0.375
 40
0.375
 40
0.40625
 40
0.40625
 40
0.4375
 40
0.5000000000000001
 40
0.5000000000000001
 40
0.6249999999999997
 40
0.6249999999999997
 40
0.7499999999999992
 40
0.7499999999999992
 40
0.8124999999999992
 40
0.8124999999999992
 40
0.8749999999999996
 40
0.8749999999999996
 40
1.0
 40
1.0
 40
1.0
 40
1.0
 10
279.4048419452977
 20
282.1014254657051
 30
0.0
 10
279.2330732284853
 20
281.9931483225172
 30
0.0
 10
279.0683224077409
 20
281.8785534406574
 30
0.0
 10
278.7526841912293
 20
281.6372941867036
 30
0.0
 10
278.6017964442665
 20
281.5106293113526
 30
0.0
 10
278.3141598315225
 20
281.2454140193048
 30
0.0
 10
278.1774079466765
 20
281.1068652313226
 30
0.0
 10
278.0157848673059
 20
280.9261201271565
 30
0.0
 10
277.9839152489558
 20
280.8895777190593
 30
0.0
 10
277.9211788870466
 20
280.8157866532459
 30
0.0
 10
277.8289460154435
 20
280.7044739252365
 30
0.0
 10
277.7422875421793
 20
280.5913315187044
 30
0.0
 10
277.5763524937206
 20
280.3627126729445
 30
0.0
 10
277.4755514409085
 20
280.2071957281352
 30
0.0
 10
277.2938101939544
 20
279.8903219128131
 30
0.0
 10
277.2128667894271
 20
279.7289652765942
 30
0.0
 10
277.1070217566219
 20
279.4826400787143
 30
0.0
 10
277.0743373389797
 20
279.3998052701265
 30
0.0
 10
277.014373070214
 20
279.2327290297564
 30
0.0
 10
276.9873360674948
 20
279.1491647333481
 30
0.0
 10
276.9150173552729
 20
278.8984535296165
 30
0.0
 10
276.8785027593718
 20
278.731291632684
 30
0.0
 10
276.853870218981
 20
278.5642264539005
 30
0.0
  0
SPLINE
  5
1A4
330
1F
100
AcDbEntity
  8
1
100
AcDbSpline
210
0.0
220
0.0
230
1.0
 70
    28
 71
     3
 72
     8
 73
     4
 74
     0
 42
0.000000001
 43
0.0000000001
 40
0.0
 40
0.0
 40
0.0
 40
0.0
 40
1.0
 40
1.0
 40
1.0
 40
1.0
 10
297.9048419452957
 20
285.5822769942106
 30
0.0
 41
1.0
 10
297.9048419452957
 20
285.6150070808825
 30
0.0
 41
0.9972754953912508
 10
297.9048419452957
 20
285.6475598087787
 30
0.0
 41
0.9945890059611722
 10
297.9048419452957
 20
285.6799299942106
 30
0.0
 41
0.9919405317097643
  0
SPLINE
  5
1A5
330
1F
100
AcDbEntity
  8
1
100
AcDbSpline
210
0.0
220
0.0
230
1.0
 70
     8
 71
     3
 72
    25
 73
    21
 74
     0
 42
0.000000001
 43
0.0000000001
 40
0.0
 40
0.0
 40
0.0
 40
0.0
 40
0.125
 40
0.2500000000000001
 40
0.2500000000000001
 40
0.3750000000000001
 40
0.3750000000000001
 40
0.5000000000000001
 40
0.5000000000000001
 40
0.5625
 40
0.5625
 40
0.59375
 40
0.59375
 40
0.625
 40
0.625
 40
0.75
 40
0.75
 40
0.875
 40
0.875
 40
1.0
 40
1.0
 40
1.0
 40
1.0
 10
281.9685504442806
 20
284.1911689227842
 30
0.0
 10
282.2117449792041
 20
284.3556033993553
 30
0.0
 10
282.7122813304608
 20
284.6677992847821
 30
0.0
 10
283.2411110619179
 20
284.947172787802
 30
0.0
 10
283.7843293321224
 20
285.2100608699856
 30
0.0
 10
284.0631317747299
 20
285.3332638330464
 30
0.0
 10
284.6356269764684
 20
285.5627455722429
 30
0.0
 10
284.9293181086851
 20
285.6690272925184
 30
0.0
 10
285.3816230935562
 20
285.8151029631912
 30
0.0
 10
285.5343552924131
 20
285.8615667103176
 30
0.0
 10
285.7664993398582
 20
285.9278008034122
 30
0.0
 10
285.8443884963378
 20
285.949301633402
 30
0.0
 10
286.0012013818085
 20
285.9911254294718
 30
0.0
 10
286.0801754719463
 20
286.0114596007082
 30
0.0
 10
286.476119598853
 20
286.1097453938489
 30
0.0
 10
286.7973855976588
 20
286.1778643178581
 30
0.0
 10
287.4490480891812
 20
286.2924765578079
 30
0.0
 10
287.779445421811
 20
286.3389701426743
 30
0.0
 10
288.4495782536262
 20
286.4092170547994
 30
0.0
 10
288.7893148966422
 20
286.4329699984716
 30
0.0
 10
289.1338585215007
 20
286.4445401330111
 30
0.0
  0
SPLINE
  5
1A6
330
1F
100
AcDbEntity
  8
1
100
AcDbSpline
210
0.0
220
0.0
230
1.0
 70
     8
 71
     3
 72
    14
 73
    10
 74
     0
 42
0.000000001
 43
0.0000000001
 40
0.0
 40
0.0
 40
0.0
 40
0.0
 40
0.25
 40
0.25
 40
0.5
 40
0.5
 40
0.75
 40
0.75
 40
1.0
 40
1.0
 40
1.0
 40
1.0
 10
281.9685504442806
 20
284.1911689227842
 30
0.0
 10
281.7488971654388
 20
284.0426517205169
 30
0.0
 10
281.530516583153
 20
283.8890674112766
 30
0.0
 10
281.0966354232886
 20
283.5699747652447
 30
0.0
 10
280.8811346563976
 20
283.4044704777722
 30
0.0
 10
280.4533626534445
 20
283.059405421689
 30
0.0
 10
280.2410906875294
 20
282.8798528750767
 30
0.0
 10
279.8201533794181
 20
282.5040371553024
 30
0.0
 10
279.6114863870071
 20
282.3077903935673
 30
0.0
 10
279.4048419452969
 20
282.1014254657033
 30
0.0
  0
SPLINE
  5
1A7
330
1F
100
AcDbEntity
  8
1
100
AcDbSpline
210
0.0
220
0.0
230
1.0
 70
     8
 71
     3
 72
    18
 73
    14
 74
     0
 42
0.000000001
 43
0.0000000001
 40
0.0
 40
0.0
 40
0.0
 40
0.0
 40
0.1249999999999457
 40
0.1249999999999457
 40
0.2499999999998913
 40
0.2499999999998913
 40
0.3749999999998371
 40
0.3749999999998371
 40
0.4999999999997826
 40
0.4999999999997826
 40
0.7499999999998913
 40
0.7499999999998913
 40
1.0
 40
1.0
 40
1.0
 40
1.0
 10
360.1825966813122
 20
295.1728336574157
 30
0.0
 10
360.1776809874003
 20
295.1736747039204
 30
0.0
 10
360.1729221643133
 20
295.1749423521528
 30
0.0
 10
360.1637025341348
 20
295.1782864190885
 30
0.0
 10
360.159200529003
 20
295.1803900642921
 30
0.0
 10
360.1507541436667
 20
295.185282429655
 30
0.0
 10
360.1468047446878
 20
295.1880610231023
 30
0.0
 10
360.1394289284957
 20
295.1942512365662
 30
0.0
 10
360.1359742302581
 20
295.1976989445877
 30
0.0
 10
360.1266518763214
 20
295.2087489115129
 30
0.0
 10
360.1218145696059
 20
295.216990905299
 30
0.0
 10
360.1149683946966
 20
295.2348646350295
 30
0.0
 10
360.1130860153555
 20
295.2441161465687
 30
0.0
 10
360.1127271576067
 20
295.2536765255197
 30
0.0
  0
SPLINE
  5
1A8
330
1F
100
AcDbEntity
  8
1
100
AcDbSpline
210
0.0
220
0.0
230
1.0
 70
     8
 71
     3
 72
    19
 73
    15
 74
     0
 42
0.000000001
 43
0.0000000001
 40
0.0
 40
0.0
 40
0.0
 40
0.0
 40
0.2500000000000158
 40
0.2500000000000158
 40
0.3749999999999789
 40
0.3749999999999789
 40
0.4999999999999424
 40
0.6249999999999055
 40
0.6249999999999055
 40
0.6874999999999203
 40
0.6874999999999203
 40
0.7499999999999352
 40
0.7499999999999352
 40
1.0
 40
1.0
 40
1.0
 40
1.0
 10
359.5485665378384
 20
295.3132161798535
 30
0.0
 10
359.5157354276451
 20
295.3221711074833
 30
0.0
 10
359.4844562561477
 20
295.3348496587291
 30
0.0
 10
359.4398574011673
 20
295.3594193643636
 30
0.0
 10
359.425370267132
 20
295.368570808795
 30
0.0
 10
359.397899334614
 20
295.3882996705493
 30
0.0
 10
359.3717386256766
 20
295.4095495880042
 30
0.0
 10
359.3481691787945
 20
295.4338075786852
 30
0.0
 10
359.331493583107
 20
295.4531637142842
 30
0.0
 10
359.3260996401018
 20
295.4598170645618
 30
0.0
 10
359.3157932845111
 20
295.4733326031965
 30
0.0
 10
359.3108613884577
 20
295.4802162909596
 30
0.0
 10
359.2872866792401
 20
295.5152519296421
 30
0.0
 10
359.2718537136284
 20
295.5452302808117
 30
0.0
 10
359.2599329735918
 20
295.5772053160862
 30
0.0
  0
SPLINE
  5
1A9
330
1F
100
AcDbEntity
  8
1
100
AcDbSpline
210
0.0
220
0.0
230
1.0
 70
     8
 71
     3
 72
    14
 73
    10
 74
     0
 42
0.000000001
 43
0.0000000001
 40
0.0
 40
0.0
 40
0.0
 40
0.0
 40
0.25
 40
0.25
 40
0.5
 40
0.5
 40
0.75
 40
0.75
 40
1.0
 40
1.0
 40
1.0
 40
1.0
 10
360.0824200283167
 20
295.3161076629925
 30
0.0
 10
360.0870934654828
 20
295.3121809918087
 30
0.0
 10
360.0913110076616
 20
295.3077556647707
 30
0.0
 10
360.0986023797173
 20
295.2982945086837
 30
0.0
 10
360.1017030520968
 20
295.2932488871954
 30
0.0
 10
360.1068464231093
 20
295.2825425488698
 30
0.0
 10
360.1088674818774
 20
295.2768860369856
 30
0.0
 10
360.1116796951883
 20
295.2654599374713
 30
0.0
 10
360.1125037200453
 20
295.2596291565158
 30
0.0
 10
360.1127271576067
 20
295.2536765255197
 30
0.0
  0
SPLINE
  5
1AA
330
1F
100
AcDbEntity
  8
1
100
AcDbSpline
210
0.0
220
0.0
230
1.0
 70
     8
 71
     3
 72
    12
 73
     8
 74
     0
 42
0.000000001
 43
0.0000000001
 40
0.0
 40
0.0
 40
0.0
 40
0.0
 40
0.4950504394632705
 40
0.4950504394632705
 40
0.9901008789265407
 40
0.9901008789265407
 40
1.0
 40
1.0
 40
1.0
 40
1.0
 10
359.2599329735918
 20
295.5772053160862
 30
0.0
 10
359.258183681771
 20
295.5818974465669
 30
0.0
 10
359.2568781659902
 20
295.5866723334128
 30
0.0
 10
359.2551087948243
 20
295.5963786594099
 30
0.0
 10
359.2546476198427
 20
295.6013597109603
 30
0.0
 10
359.2546188298246
 20
295.6063719496009
 30
0.0
 10
359.2546184340333
 20
295.6064701838511
 30
0.0
 10
359.2546182066978
 20
295.6065683915534
 30
0.0
  0
SPLINE
  5
1AB
330
1F
100
AcDbEntity
  8
1
100
AcDbSpline
210
0.0
220
0.0
230
1.0
 70
     8
 71
     3
 72
     8
 73
     4
 74
     0
 42
0.000000001
 43
0.0000000001
 40
0.0
 40
0.0
 40
0.0
 40
0.0
 40
1.0
 40
1.0
 40
1.0
 40
1.0
 10
359.3321495470503
 20
295.7375303254576
 30
0.0
 10
359.3313302306
 20
295.7326394555603
 30
0.0
 10
359.3300848601954
 20
295.7278383083355
 30
0.0
 10
359.3284697556266
 20
295.7232322569567
 30
0.0
  0
SPLINE
  5
1AC
330
1F
100
AcDbEntity
  8
1
100
AcDbSpline
210
0.0
220
0.0
230
1.0
 70
     8
 71
     3
 72
    20
 73
    16
 74
     0
 42
0.000000001
 43
0.0000000001
 40
0.0
 40
0.0
 40
0.0
 40
0.0
 40
0.12499999999999
 40
0.12499999999999
 40
0.2499999999999799
 40
0.3124999999999983
 40
0.3124999999999983
 40
0.3750000000000168
 40
0.3750000000000168
 40
0.5000000000000123
 40
0.6250000000000076
 40
0.6250000000000076
 40
0.7500000000000031
 40
0.7500000000000031
 40
1.0
 40
1.0
 40
1.0
 40
1.0
 10
359.2141977664649
 20
296.110198418039
 30
0.0
 10
359.2260188049457
 20
296.0984270193354
 30
0.0
 10
359.2371764500529
 20
296.0859047658905
 30
0.0
 10
359.2578477077168
 20
296.0597069052752
 30
0.0
 10
359.2721858997003
 20
296.0391311068984
 30
0.0
 10
359.2847427786243
 20
296.0171182523571
 30
0.0
 10
359.2927058980581
 20
296.0021120738927
 30
0.0
 10
359.2964967443435
 20
295.9944134155595
 30
0.0
 10
359.3071090593296
 20
295.9710870112744
 30
0.0
 10
359.3192713561117
 20
295.9393492534152
 30
0.0
 10
359.3275663488607
 20
295.9063727686944
 30
0.0
 10
359.3338998456288
 20
295.8727687142463
 30
0.0
 10
359.3360741279401
 20
295.8555929261968
 30
0.0
 10
359.3394762211378
 20
295.8046500284524
 30
0.0
 10
359.3377515204411
 20
295.7709710344932
 30
0.0
 10
359.3321495470503
 20
295.7375303254576
 30
0.0
  0
SPLINE
  5
1AD
330
1F
100
AcDbEntity
  8
1
100
AcDbSpline
210
0.0
220
0.0
230
1.0
 70
     8
 71
     3
 72
    20
 73
    16
 74
     0
 42
0.000000001
 43
0.0000000001
 40
0.0
 40
0.0
 40
0.0
 40
0.0
 40
0.2500000000002345
 40
0.2500000000002345
 40
0.3750000000001954
 40
0.3750000000001954
 40
0.5000000000001564
 40
0.5000000000001564
 40
0.6250000000001173
 40
0.6250000000001173
 40
0.7500000000000782
 40
0.7500000000000782
 40
0.875000000000039
 40
0.875000000000039
 40
1.0
 40
1.0
 40
1.0
 40
1.0
 10
359.1499692483292
 20
296.1342311815065
 30
0.0
 10
359.1405094991412
 20
296.133651296618
 30
0.0
 10
359.131240248959
 20
296.1346184493653
 30
0.0
 10
359.1176254326503
 20
296.1383864938861
 30
0.0
 10
359.1131520453879
 20
296.1400415042383
 30
0.0
 10
359.1046321284259
 20
296.1440457362568
 30
0.0
 10
359.1005439895562
 20
296.1464046105855
 30
0.0
 10
359.0927287948407
 20
296.1518682872876
 30
0.0
 10
359.0890293267057
 20
296.1549637591084
 30
0.0
 10
359.0822684979209
 20
296.1617055397073
 30
0.0
 10
359.0791733554306
 20
296.1653736847505
 30
0.0
 10
359.0735887328628
 20
296.1733388217979
 30
0.0
 10
359.0711493148471
 20
296.1775743020867
 30
0.0
 10
359.067066061295
 20
296.1863838590305
 30
0.0
 10
359.0654047046004
 20
296.1909818193568
 30
0.0
 10
359.0641485740686
 20
296.1957851998779
 30
0.0
  0
SPLINE
  5
1AE
330
1F
100
AcDbEntity
  8
1
100
AcDbSpline
210
0.0
220
0.0
230
1.0
 70
     8
 71
     3
 72
    13
 73
     9
 74
     0
 42
0.000000001
 43
0.0000000001
 40
0.0
 40
0.0
 40
0.0
 40
0.0
 40
0.496817414799244
 40
0.496817414799244
 40
0.745226122198866
 40
0.745226122198866
 40
0.9936348295984879
 40
1.0
 40
1.0
 40
1.0
 40
1.0
 10
359.0641485740686
 20
296.1957851998779
 30
0.0
 10
359.0555871467968
 20
296.2285236708776
 30
0.0
 10
359.051001450092
 20
296.2618131616432
 30
0.0
 10
359.0500564078582
 20
296.3125608480384
 30
0.0
 10
359.0507577820828
 20
296.3296368337713
 30
0.0
 10
359.0541345933893
 20
296.3632176733459
 30
0.0
 10
359.0568715051788
 20
296.3802552266201
 30
0.0
 10
359.0606279573741
 20
296.3971070112765
 30
0.0
 10
359.0607224439761
 20
296.3975279135962
 30
0.0
  0
SPLINE
  5
1AF
330
1F
100
AcDbEntity
  8
1
100
AcDbSpline
210
0.0
220
0.0
230
1.0
 70
     8
 71
     3
 72
     8
 73
     4
 74
     0
 42
0.000000001
 43
0.0000000001
 40
0.0
 40
0.0
 40
0.0
 40
0.0
 40
1.0
 40
1.0
 40
1.0
 40
1.0
 10
359.5858331425558
 20
296.8850715785773
 30
0.0
 10
359.5833359781751
 20
296.8760640101057
 30
0.0
 10
359.5805291012786
 20
296.8671153198637
 30
0.0
 10
359.5774259827072
 20
296.8582652335097
 30
0.0
  0
SPLINE
  5
1B0
330
1F
100
AcDbEntity
  8
1
100
AcDbSpline
210
0.0
220
0.0
230
1.0
 70
     8
 71
     3
 72
    14
 73
    10
 74
     0
 42
0.000000001
 43
0.0000000001
 40
0.0
 40
0.0
 40
0.0
 40
0.0
 40
0.25
 40
0.25
 40
0.5
 40
0.5
 40
0.75
 40
0.75
 40
1.0
 40
1.0
 40
1.0
 40
1.0
 10
359.5752827600874
 20
296.9517295561565
 30
0.0
 10
359.5784710110848
 20
296.9469011478933
 30
0.0
 10
359.5811408932631
 20
296.9417431143238
 30
0.0
 10
359.5853207625393
 20
296.9310357769903
 30
0.0
 10
359.586830925589
 20
296.9255146589244
 30
0.0
 10
359.5886755678632
 20
296.9141300198979
 30
0.0
 10
359.5889938997598
 20
296.9082442882125
 30
0.0
 10
359.5883643468143
 20
296.8966332588232
 30
0.0
 10
359.5874335714068
 20
296.890844515502
 30
0.0
 10
359.5858331425557
 20
296.885071578577
 30
0.0
  0
SPLINE
  5
1B1
330
1F
100
AcDbEntity
  8
1
100
AcDbSpline
210
0.0
220
0.0
230
1.0
 70
     8
 71
     3
 72
    12
 73
     8
 74
     0
 42
0.000000001
 43
0.0000000001
 40
0.0
 40
0.0
 40
0.0
 40
0.0
 40
0.5340798918402811
 40
0.5340798918402811
 40
0.8011198377603793
 40
0.8011198377603793
 40
1.0
 40
1.0
 40
1.0
 40
1.0
 10
359.5752827600874
 20
296.9517295561565
 30
0.0
 10
359.5701599145468
 20
296.9594877877885
 30
0.0
 10
359.5664709138826
 20
296.9678572869048
 30
0.0
 10
359.5630870498208
 20
296.981323376476
 30
0.0
 10
359.5623367581297
 20
296.9859553017206
 30
0.0
 10
359.5617342289633
 20
296.9940232275448
 30
0.0
 10
359.5616950700168
 20
296.997484913912
 30
0.0
 10
359.5618815874347
 20
297.0009646936117
 30
0.0
  0
SPLINE
  5
1B2
330
1F
100
AcDbEntity
  8
1
100
AcDbSpline
210
0.0
220
0.0
230
1.0
 70
    24
 71
     3
 72
    22
 73
    18
 74
     0
 42
0.000000001
 43
0.0000000001
 40
0.0
 40
0.0
 40
0.0
 40
0.0
 40
0.1252390643482399
 40
0.1252390643482399
 40
0.25047812869648
 40
0.25047812869648
 40
0.3757171930447197
 40
0.3757171930447197
 40
0.5009562573929597
 40
0.5009562573929597
 40
0.6261953217411995
 40
0.6261953217411995
 40
0.7514343860894393
 40
0.7514343860894393
 40
0.8766734504376797
 40
0.8766734504376797
 40
1.0
 40
1.0
 40
1.0
 40
1.0
 10
355.9678419452958
 20
292.1916514235904
 30
0.0
 10
355.9678419452958
 20
291.9023445728795
 30
0.0
 10
355.9678419452958
 20
291.6306225101498
 30
0.0
 10
355.9678419452958
 20
291.1334010790398
 30
0.0
 10
355.9678419452958
 20
290.9079155650636
 30
0.0
 10
355.9678419452958
 20
290.5123672469095
 30
0.0
 10
355.9678419452958
 20
290.3423154641516
 30
0.0
 10
355.9678419452958
 20
290.0645740228995
 30
0.0
 10
355.9678419452958
 20
289.9568921032956
 30
0.0
 10
355.9678419452958
 20
289.8082861545548
 30
0.0
 10
355.9678419452958
 20
289.7673662661219
 30
0.0
 10
355.9678419452958
 20
289.7539572016058
 30
0.0
 10
355.9678419452958
 20
289.7814683991482
 30
0.0
 10
355.9678419452958
 20
289.9038031524973
 30
0.0
 10
355.9678419452958
 20
289.9986232996116
 30
0.0
 10
355.9678419452958
 20
290.2497795898909
 30
0.0
 10
355.9678419452958
 20
290.4051473772953
 30
0.0
 10
355.9678419452958
 20
290.5881973724923
 30
0.0
  0
SPLINE
  5
1B3
330
1F
100
AcDbEntity
  8
1
100
AcDbSpline
210
0.0
220
0.0
230
1.0
 70
     9
 71
     3
 72
   128
 73
   124
 74
     0
 42
0.000000001
 43
0.0000000001
 40
0.0
 40
0.0
 40
0.0
 40
0.0
 40
0.0312499999999816
 40
0.0312499999999816
 40
0.0468749999999724
 40
0.0468749999999724
 40
0.0546874999999678
 40
0.0546874999999678
 40
0.0624999999999632
 40
0.0624999999999632
 40
0.093749999999956
 40
0.093749999999956
 40
0.1015624999999543
 40
0.1015624999999543
 40
0.1093749999999527
 40
0.1093749999999527
 40
0.1249999999999497
 40
0.1406249999999467
 40
0.1406249999999467
 40
0.1484374999999471
 40
0.1484374999999471
 40
0.1562499999999476
 40
0.1562499999999476
 40
0.187499999999947
 40
0.187499999999947
 40
0.2031249999999468
 40
0.2031249999999468
 40
0.2109374999999467
 40
0.2109374999999467
 40
0.2187499999999465
 40
0.2187499999999465
 40
0.249999999999945
 40
0.249999999999945
 40
0.2578124999999444
 40
0.2578124999999444
 40
0.2656249999999439
 40
0.2656249999999439
 40
0.2812499999999436
 40
0.2812499999999436
 40
0.3124999999999415
 40
0.3124999999999415
 40
0.320312499999941
 40
0.320312499999941
 40
0.3281249999999405
 40
0.3437499999999394
 40
0.3437499999999394
 40
0.3749999999999372
 40
0.3749999999999372
 40
0.3828124999999366
 40
0.3828124999999366
 40
0.3906249999999361
 40
0.4062499999999353
 40
0.4218749999999343
 40
0.4218749999999343
 40
0.4296874999999338
 40
0.4296874999999338
 40
0.4374999999999334
 40
0.4374999999999334
 40
0.4687499999999255
 40
0.4687499999999255
 40
0.4843749999999217
 40
0.4843749999999217
 40
0.4921874999999197
 40
0.4921874999999197
 40
0.4999999999999176
 40
0.4999999999999176
 40
0.5312499999999034
 40
0.5312499999999034
 40
0.5390624999999029
 40
0.5390624999999029
 40
0.5468749999999024
 40
0.5624999999999073
 40
0.5781249999999122
 40
0.5781249999999122
 40
0.5859374999999119
 40
0.5859374999999119
 40
0.5937499999999117
 40
0.5937499999999117
 40
0.6249999999999208
 40
0.6249999999999208
 40
0.6406249999999255
 40
0.6406249999999255
 40
0.6562499999999303
 40
0.6562499999999303
 40
0.6874999999999433
 40
0.6874999999999433
 40
0.7031249999999485
 40
0.7031249999999485
 40
0.7187499999999538
 40
0.734374999999959
 40
0.734374999999959
 40
0.7421874999999618
 40
0.7421874999999618
 40
0.7499999999999645
 40
0.7499999999999645
 40
0.7812499999999757
 40
0.7812499999999757
 40
0.7968749999999809
 40
0.7968749999999809
 40
0.8124999999999863
 40
0.8124999999999863
 40
0.8437499999999948
 40
0.8437499999999948
 40
0.8593750000000008
 40
0.8593750000000008
 40
0.8671875000000021
 40
0.8671875000000021
 40
0.875000000000003
 40
0.875000000000003
 40
0.9062500000000028
 40
0.9062500000000028
 40
0.9140625000000017
 40
0.9140625000000017
 40
0.9218750000000005
 40
0.9218750000000005
 40
0.9374999999999978
 40
0.9531249999999953
 40
0.9531249999999953
 40
0.9609374999999971
 40
0.9609374999999971
 40
0.9687499999999992
 40
0.9687499999999992
 40
1.0
 40
1.0
 40
1.0
 40
1.0
 10
359.7962249652845
 20
286.7069886193043
 30
0.0
 10
359.8658412966552
 20
286.7057734617201
 30
0.0
 10
359.934101305269
 20
286.6975600100209
 30
0.0
 10
360.0345424338152
 20
286.6752005588712
 30
0.0
 10
360.0676953940301
 20
286.6660610483371
 30
0.0
 10
360.1169211906376
 20
286.6497624224582
 30
0.0
 10
360.1332876118183
 20
286.6438792580889
 30
0.0
 10
360.1655127227079
 20
286.6313644888691
 30
0.0
 10
360.1813988974594
 20
286.6247263058093
 30
0.0
 10
360.2597205920067
 20
286.5896724034715
 30
0.0
 10
360.318861221795
 20
286.5557216614682
 30
0.0
 10
360.3884142122458
 20
286.5059907790041
 30
0.0
 10
360.4021041432371
 20
286.4956766361487
 30
0.0
 10
360.4290349712061
 20
286.4743011041016
 30
0.0
 10
360.4422068682942
 20
286.4632926292852
 30
0.0
 10
360.4806609402618
 20
286.429492960563
 30
0.0
 10
360.5292808695736
 20
286.38223109067
 30
0.0
 10
360.5727514699695
 20
286.3307323655023
 30
0.0
 10
360.6034266283478
 20
286.2905319283796
 30
0.0
 10
360.6133298248345
 20
286.2768685896671
 30
0.0
 10
360.6324862497029
 20
286.2490120135248
 30
0.0
 10
360.6417627877333
 20
286.2347799435639
 30
0.0
 10
360.6861702556158
 20
286.1628103808488
 30
0.0
 10
360.7153565209269
 20
286.1028758587033
 30
0.0
 10
360.7501547507737
 20
286.0097007833705
 30
0.0
 10
360.7602463919641
 20
285.9780925749673
 30
0.0
 10
360.7730940438644
 20
285.9298519031906
 30
0.0
 10
360.776998226966
 20
285.9136065686278
 30
0.0
 10
360.7839669375863
 20
285.8811604254367
 30
0.0
 10
360.7870422215389
 20
285.8649244405463
 30
0.0
 10
360.800419158006
 20
285.7836834545585
 30
0.0
 10
360.8047761189736
 20
285.7184986529468
 30
0.0
 10
360.8024631418632
 20
285.6367980659287
 30
0.0
 10
360.8016092615234
 20
285.6204467608176
 30
0.0
 10
360.7991097504126
 20
285.5877214475997
 30
0.0
 10
360.7974591976247
 20
285.571321520709
 30
0.0
 10
360.7913661188636
 20
285.5225547609712
 30
0.0
 10
360.7857795044708
 20
285.4904815714132
 30
0.0
 10
360.7645834586287
 20
285.3955297225077
 30
0.0
 10
360.7445794761024
 20
285.3339085022251
 30
0.0
 10
360.7120545644528
 20
285.2589876129787
 30
0.0
 10
360.7051533413407
 20
285.2440759282792
 30
0.0
 10
360.6906582386779
 20
285.2146362206777
 30
0.0
 10
360.6679224213182
 20
285.1711404062438
 30
0.0
 10
360.6422624824593
 20
285.1295908597482
 30
0.0
 10
360.5870686050915
 20
285.0490458048668
 30
0.0
 10
360.5451500214631
 20
284.9987279067787
 30
0.0
 10
360.485837287621
 20
284.9402925987054
 30
0.0
 10
360.4736344733159
 20
284.9288436094957
 30
0.0
 10
360.4488023852214
 20
284.9066584960883
 30
0.0
 10
360.4108127665237
 20
284.8743537967374
 30
0.0
 10
360.3438251610839
 20
284.8253102086449
 30
0.0
 10
360.2862721264648
 20
284.7912115722743
 30
0.0
 10
360.2415574394778
 20
284.7676311637682
 30
0.0
 10
360.2263937283146
 20
284.7601039346745
 30
0.0
 10
360.1955313949927
 20
284.7457351277731
 30
0.0
 10
360.179780866515
 20
284.7388737680143
 30
0.0
 10
360.1004959399478
 20
284.7066836052927
 30
0.0
 10
360.0351924493409
 20
284.6874971057278
 30
0.0
 10
359.9344133925983
 20
284.6685208236555
 30
0.0
 10
359.9003464464203
 20
284.6638412957831
 30
0.0
 10
359.8485015915622
 20
284.6594020130552
 30
0.0
 10
359.831075891719
 20
284.6583557472836
 30
0.0
 10
359.7964351033186
 20
284.657158006898
 30
0.0
 10
359.7791636287436
 20
284.6570003330998
 30
0.0
 10
359.6930464475128
 20
284.6583780529278
 30
0.0
 10
359.6249144277951
 20
284.6663463708197
 30
0.0
 10
359.54070188777
 20
284.6849223978138
 30
0.0
 10
359.5238574574644
 20
284.6890873738773
 30
0.0
 10
359.4905964495014
 20
284.6982088333917
 30
0.0
 10
359.441308132185
 20
284.7130824618799
 30
0.0
 10
359.3620768717705
 20
284.7436438058429
 30
0.0
 10
359.3016985494683
 20
284.7740766344052
 30
0.0
 10
359.2575373688819
 20
284.7991497894075
 30
0.0
 10
359.242967334955
 20
284.8079071342142
 30
0.0
 10
359.2144060091448
 20
284.826052484579
 30
0.0
 10
359.2004278902578
 20
284.8354288681632
 30
0.0
 10
359.1320033658109
 20
284.8837889243224
 30
0.0
 10
359.0819108856784
 20
284.9271623807072
 30
0.0
 10
359.0134186877778
 20
284.999047715103
 30
0.0
 10
358.9916193738391
 20
285.0242786835375
 30
0.0
 10
358.9509828192409
 20
285.0761765136502
 30
0.0
 10
358.9320744477845
 20
285.1028964012254
 30
0.0
 10
358.8794292996054
 20
285.1853128152173
 30
0.0
 10
358.849733708204
 20
285.2432453655242
 30
0.0
 10
358.8134287750561
 20
285.3347887899701
 30
0.0
 10
358.8028664395921
 20
285.3656976438326
 30
0.0
 10
358.7847872832113
 20
285.4280961644448
 30
0.0
 10
358.7697292680588
 20
285.4911390752615
 30
0.0
 10
358.76066993702
 20
285.5554740756554
 30
0.0
 10
358.7561721546992
 20
285.6042225961526
 30
0.0
 10
358.7550563403537
 20
285.6205551012721
 30
0.0
 10
358.7536078917055
 20
285.6533897707874
 30
0.0
 10
358.7532771816921
 20
285.6699192075418
 30
0.0
 10
358.7536160110726
 20
285.7521611794044
 30
0.0
 10
358.7601620740214
 20
285.817256046339
 30
0.0
 10
358.7793256893077
 20
285.9138343551228
 30
0.0
 10
358.7872812387802
 20
285.9458483212775
 30
0.0
 10
358.8064463054331
 20
286.0094970709737
 30
0.0
 10
358.8177197853332
 20
286.041248164064
 30
0.0
 10
358.8558199543619
 20
286.1338589619072
 30
0.0
 10
358.8870187493728
 20
286.1927068242347
 30
0.0
 10
358.9425981518827
 20
286.2765273671672
 30
0.0
 10
358.9625976223816
 20
286.3037207553002
 30
0.0
 10
358.9949118359302
 20
286.3433266313749
 30
0.0
 10
359.0060430220142
 20
286.3562939853764
 30
0.0
 10
359.0288254254129
 20
286.3815355880853
 30
0.0
 10
359.0405039345041
 20
286.3938437826359
 30
0.0
 10
359.1003163970295
 20
286.4538357881204
 30
0.0
 10
359.1526690532731
 20
286.4969175165673
 30
0.0
 10
359.223882503564
 20
286.544408679271
 30
0.0
 10
359.2384164403214
 20
286.5535860000036
 30
0.0
 10
359.2680815449165
 20
286.5712810659316
 30
0.0
 10
359.283144705434
 20
286.5797560841058
 30
0.0
 10
359.3287344933136
 20
286.6039182608623
 30
0.0
 10
359.3908162253248
 20
286.6329115798546
 30
0.0
 10
359.4554395308512
 20
286.6555630074238
 30
0.0
 10
359.5048707703079
 20
286.6701410574591
 30
0.0
 10
359.5215087770824
 20
286.6745979175565
 30
0.0
 10
359.5551122211286
 20
286.6826919368879
 30
0.0
 10
359.57211046675
 20
286.6863350742199
 30
0.0
 10
359.6575539252508
 20
286.7023769124302
 30
0.0
 10
359.7266086339137
 20
286.7082037768884
 30
0.0
 10
359.7962249652844
 20
286.7069886193043
 30
0.0
  0
SPLINE
  5
1B4
330
1F
100
AcDbEntity
  8
1
100
AcDbSpline
210
0.0
220
0.0
230
1.0
 70
     8
 71
     3
 72
    45
 73
    41
 74
     0
 42
0.000000001
 43
0.0000000001
 40
0.0
 40
0.0
 40
0.0
 40
0.0
 40
0.1249999999999942
 40
0.1249999999999942
 40
0.2499999999999885
 40
0.2499999999999885
 40
0.3749999999999827
 40
0.3749999999999827
 40
0.4374999999999794
 40
0.4374999999999794
 40
0.4999999999999761
 40
0.4999999999999761
 40
0.5624999999999729
 40
0.5624999999999729
 40
0.6249999999999695
 40
0.6249999999999695
 40
0.6874999999999662
 40
0.6874999999999662
 40
0.7499999999999628
 40
0.7499999999999628
 40
0.7812499999999674
 40
0.7812499999999674
 40
0.8124999999999719
 40
0.8124999999999719
 40
0.8437499999999765
 40
0.8437499999999765
 40
0.8749999999999808
 40
0.8749999999999808
 40
0.8906249999999833
 40
0.8906249999999833
 40
0.9062499999999857
 40
0.9218749999999879
 40
0.9218749999999879
 40
0.9374999999999905
 40
0.9374999999999905
 40
0.9531249999999927
 40
0.9531249999999927
 40
0.9687499999999952
 40
0.9687499999999952
 40
1.0
 40
1.0
 40
1.0
 40
1.0
 10
354.2020461696148
 20
292.6878257627754
 30
0.0
 10
354.1473226909852
 20
292.7043977176222
 30
0.0
 10
354.0933400604615
 20
292.7223630665011
 30
0.0
 10
353.9869998507808
 20
292.7613820568467
 30
0.0
 10
353.9346404808894
 20
292.7824321657494
 30
0.0
 10
353.8317800560374
 20
292.8281036163379
 30
0.0
 10
353.7812745495078
 20
292.8527162314963
 30
0.0
 10
353.7072171977829
 20
292.8929392479202
 30
0.0
 10
353.6828165760015
 20
292.9069009372298
 30
0.0
 10
353.634671761836
 20
292.9361055132606
 30
0.0
 10
353.6109290470006
 20
292.9513505879356
 30
0.0
 10
353.5645748348616
 20
292.9831163764884
 30
0.0
 10
353.5419199034929
 20
292.9996595972495
 30
0.0
 10
353.4978763200915
 20
293.0343504578433
 30
0.0
 10
353.4764259746117
 20
293.0525502146704
 30
0.0
 10
353.4354863029894
 20
293.0907076389328
 30
0.0
 10
353.4160019940437
 20
293.1106371478003
 30
0.0
 10
353.3797016100887
 20
293.1527951054135
 30
0.0
 10
353.3628563680374
 20
293.1749989176382
 30
0.0
 10
353.3406851226069
 20
293.2109614216843
 30
0.0
 10
353.333858657953
 20
293.2233569709085
 30
0.0
 10
353.321892802388
 20
293.2487034191352
 30
0.0
 10
353.3167132812337
 20
293.2617081021961
 30
0.0
 10
353.3084771847367
 20
293.2885887572061
 30
0.0
 10
353.3054075206823
 20
293.3024656048301
 30
0.0
 10
353.3023261037578
 20
293.3314425103446
 30
0.0
 10
353.3023887496661
 20
293.3459784952777
 30
0.0
 10
353.3054950318379
 20
293.3678659792694
 30
0.0
 10
353.3070555720425
 20
293.3752213759487
 30
0.0
 10
353.3111775672526
 20
293.3895095013711
 30
0.0
 10
353.3163005674231
 20
293.4034653922692
 30
0.0
 10
353.3234191451459
 20
293.4167574494308
 30
0.0
 10
353.331538574146
 20
293.429715843141
 30
0.0
 10
353.3360157257644
 20
293.4358947569435
 30
0.0
 10
353.3456686340762
 20
293.4476670308097
 30
0.0
 10
353.3508509736009
 20
293.4532703629982
 30
0.0
 10
353.3618506368914
 20
293.4639721495107
 30
0.0
 10
353.3676732415195
 20
293.4690694978497
 30
0.0
 10
353.3856635542872
 20
293.483438506766
 30
0.0
 10
353.3984508827101
 20
293.4919042892402
 30
0.0
 10
353.4118212683943
 20
293.4995521449639
 30
0.0
  0
SPLINE
  5
1B5
330
1F
100
AcDbEntity
  8
1
100
AcDbSpline
210
0.0
220
0.0
230
1.0
 70
     8
 71
     3
 72
    10
 73
     6
 74
     0
 42
0.000000001
 43
0.0000000001
 40
0.0
 40
0.0
 40
0.0
 40
0.0
 40
0.5
 40
0.5
 40
1.0
 40
1.0
 40
1.0
 40
1.0
 10
296.5240866206291
 20
278.6697303709048
 30
0.0
 10
296.7490771864304
 20
278.6730561844282
 30
0.0
 10
296.9766229759846
 20
278.6762242577915
 30
0.0
 10
297.4368342701578
 20
278.6806652677877
 30
0.0
 10
297.6694988859074
 20
278.6819384539842
 30
0.0
 10
297.9048419452957
 20
278.6819384539842
 30
0.0
  0
SPLINE
  5
1B6
330
1F
100
AcDbEntity
  8
1
100
AcDbSpline
210
0.0
220
0.0
230
1.0
 70
     8
 71
     3
 72
    28
 73
    24
 74
     0
 42
0.000000001
 43
0.0000000001
 40
0.0
 40
0.0
 40
0.0
 40
0.0
 40
0.0488446261653346
 40
0.0488446261653346
 40
0.1047949422732559
 40
0.1047949422732559
 40
0.2166955744890985
 40
0.2166955744890985
 40
0.3285962067049408
 40
0.3285962067049408
 40
0.3845465228128621
 40
0.3845465228128621
 40
0.4404968389207835
 40
0.4404968389207835
 40
0.5523974711366268
 40
0.5523974711366268
 40
0.6642981033524701
 40
0.6642981033524701
 40
0.7761987355683134
 40
0.7761987355683134
 40
0.8880993677841566
 40
0.8880993677841566
 40
1.0
 40
1.0
 40
1.0
 40
1.0
 10
323.5703970909276
 20
280.7894632586961
 30
0.0
 10
323.1577413781893
 20
280.716162302596
 30
0.0
 10
322.7448675586976
 20
280.6451566310581
 30
0.0
 10
321.8585171822133
 20
280.4976979546961
 30
0.0
 10
321.3849618009344
 20
280.4219531618611
 30
0.0
 10
319.9633578450035
 20
280.203167086777
 30
0.0
 10
319.0144702297345
 20
280.0683803993595
 30
0.0
 10
317.1140918707863
 20
279.8197975910561
 30
0.0
 10
316.1625873349399
 20
279.7060385274257
 30
0.0
 10
314.7329263282385
 20
279.5506148888287
 30
0.0
 10
314.2558991118808
 20
279.5013366540633
 30
0.0
 10
313.3014843077967
 20
279.4077937777312
 30
0.0
 10
312.8240627745035
 20
279.363524905123
 30
0.0
 10
311.3910310781829
 20
279.2380097409516
 30
0.0
 10
310.4346515387701
 20
279.1640709679521
 30
0.0
 10
308.5191973339739
 20
279.0341716074934
 30
0.0
 10
307.5601201861038
 20
278.9782093476153
 30
0.0
 10
305.6387230512256
 20
278.8822788589525
 30
0.0
 10
304.6764020331487
 20
278.8423047177182
 30
0.0
 10
302.7481272884735
 20
278.7759951651085
 30
0.0
 10
301.7821737130805
 20
278.7496527782366
 30
0.0
 10
299.8464135660739
 20
278.7080852883451
 30
0.0
 10
298.8766078067202
 20
278.6928542200441
 30
0.0
 10
297.9048419452957
 20
278.6819384539842
 30
0.0
  0
SPLINE
  5
1B7
330
1F
100
AcDbEntity
  8
1
100
AcDbSpline
210
0.0
220
0.0
230
1.0
 70
     8
 71
     3
 72
    11
 73
     7
 74
     0
 42
0.000000001
 43
0.0000000001
 40
0.0
 40
0.0
 40
0.0
 40
0.0
 40
0.2499999999999992
 40
0.4999999999999984
 40
0.4999999999999984
 40
1.0
 40
1.0
 40
1.0
 40
1.0
 10
293.2822589432653
 20
278.6587579146261
 30
0.0
 10
293.5508064244812
 20
278.6580278282804
 30
0.0
 10
294.0886280734566
 20
278.657660058153
 30
0.0
 10
294.627972868454
 20
278.659080705563
 30
0.0
 10
295.438245004623
 20
278.6622476311257
 30
0.0
 10
295.9800865680941
 20
278.6657505789613
 30
0.0
 10
296.5240866206299
 20
278.6697303709048
 30
0.0
  0
SPLINE
  5
1B8
330
1F
100
AcDbEntity
  8
1
100
AcDbSpline
210
0.0
220
0.0
230
1.0
 70
     8
 71
     3
 72
    33
 73
    29
 74
     0
 42
0.000000001
 43
0.0000000001
 40
0.0
 40
0.0
 40
0.0
 40
0.0
 40
0.1250000000000438
 40
0.1250000000000438
 40
0.2500000000000877
 40
0.2500000000000877
 40
0.3125000000001096
 40
0.3125000000001096
 40
0.3750000000001315
 40
0.4375000000001534
 40
0.4375000000001534
 40
0.4687500000001644
 40
0.4687500000001644
 40
0.5000000000001754
 40
0.5000000000001754
 40
0.6250000000001372
 40
0.6250000000001372
 40
0.687500000000118
 40
0.687500000000118
 40
0.7500000000000988
 40
0.7500000000000988
 40
0.8750000000000602
 40
0.8750000000000602
 40
0.9062500000000451
 40
0.9062500000000451
 40
0.9375000000000303
 40
0.9375000000000303
 40
1.0
 40
1.0
 40
1.0
 40
1.0
 10
358.1856654356885
 20
292.5502373915258
 30
0.0
 10
358.1320225262552
 20
292.5191875695207
 30
0.0
 10
358.0767283188266
 20
292.493034669749
 30
0.0
 10
357.9624034438794
 20
292.4500125226325
 30
0.0
 10
357.9033766162352
 20
292.4331407653296
 30
0.0
 10
357.8113419861717
 20
292.4153529722272
 30
0.0
 10
357.7805486647545
 20
292.4107822261082
 30
0.0
 10
357.7188436710882
 20
292.4043449570559
 30
0.0
 10
357.6569823028653
 20
292.4006050000895
 30
0.0
 10
357.5948014534162
 20
292.4022948246453
 30
0.0
 10
357.5480438590866
 20
292.4056483461446
 30
0.0
 10
357.5324026464095
 20
292.4071197767411
 30
0.0
 10
357.5014116005433
 20
292.4107274929391
 30
0.0
 10
357.4860288175421
 20
292.4128645330144
 30
0.0
 10
357.4096484944158
 20
292.4251725601465
 30
0.0
 10
357.3502435680733
 20
292.4401649693785
 30
0.0
 10
357.2631861120787
 20
292.4701196718018
 30
0.0
 10
357.2344375301906
 20
292.4813994076305
 30
0.0
 10
357.178405945448
 20
292.5061323164988
 30
0.0
 10
357.1510243879774
 20
292.5196121719487
 30
0.0
 10
357.0706258641595
 20
292.5633688406854
 30
0.0
 10
357.0193399800675
 20
292.5969230645419
 30
0.0
 10
356.957880157042
 20
292.6448222799921
 30
0.0
 10
356.9457441964161
 20
292.6546879424235
 30
0.0
 10
356.9219705654588
 20
292.6748353568807
 30
0.0
 10
356.9103053703479
 20
292.6851382534837
 30
0.0
 10
356.8759671179281
 20
292.7167292134296
 30
0.0
 10
356.8539502204292
 20
292.7386982281712
 30
0.0
 10
356.8328031710407
 20
292.7615774913438
 30
0.0
  0
SPLINE
  5
1B9
330
1F
100
AcDbEntity
  8
1
100
AcDbSpline
210
0.0
220
0.0
230
1.0
 70
    12
 71
     2
 72
     6
 73
     3
 74
     0
 42
0.000000001
 43
0.0000000001
 40
0.0
 40
0.0
 40
0.0
 40
1.0
 40
1.0
 40
1.0
 10
356.660498789007
 20
299.0898036007784
 30
0.0
 41
0.5000015362190094
 10
356.7727235835422
 20
299.0895777468806
 30
0.0
 41
0.4999984637809908
 10
356.8849455407093
 20
299.0893511474382
 30
0.0
 41
0.5000015362190094
  0
SPLINE
  5
1BA
330
1F
100
AcDbEntity
  8
1
100
AcDbSpline
210
0.0
220
0.0
230
1.0
 70
     8
 71
     3
 72
    10
 73
     6
 74
     0
 42
0.000000001
 43
0.0000000001
 40
0.0
 40
0.0
 40
0.0
 40
0.0
 40
0.5000000000000004
 40
0.5000000000000004
 40
1.0
 40
1.0
 40
1.0
 40
1.0
 10
354.5566934410587
 20
295.4424204185208
 30
0.0
 10
354.3653097557728
 20
296.038495132779
 30
0.0
 10
354.1856363890277
 20
296.6380612212625
 30
0.0
 10
353.8490008860279
 20
297.8439646405733
 30
0.0
 10
353.6921249803055
 20
298.4498868821552
 30
0.0
 10
353.5456784708529
 20
299.0584788839139
 30
0.0
  0
SPLINE
  5
1BB
330
1F
100
AcDbEntity
  8
1
100
AcDbSpline
210
0.0
220
0.0
230
1.0
 70
    28
 71
     4
 72
    13
 73
     8
 74
     0
 42
0.000000001
 43
0.0000000001
 40
0.0
 40
0.0
 40
0.0
 40
0.0
 40
0.0
 40
0.4285383752667505
 40
0.4285383752667505
 40
0.4285383752667505
 40
1.0
 40
1.0
 40
1.0
 40
1.0
 40
1.0
 10
297.9048419452957
 20
285.5822769942106
 30
0.0
 41
0.9970039865930491
 10
297.9048419452957
 20
284.9174302783534
 30
0.0
 41
0.9970039865930489
 10
297.9048419452957
 20
284.173987986641
 30
0.0
 41
0.9985019932965245
 10
297.9048419452957
 20
283.3971917677818
 30
0.0
 41
1.001498006703475
 10
297.9048419452957
 20
281.6517568170548
 30
0.0
 41
1.001498006703475
 10
297.9048419452957
 20
280.5675539906773
 30
0.0
 41
0.9961703226967991
 10
297.9048419452957
 20
279.5436753068515
 30
0.0
 41
0.996171760937818
 10
297.9048419452957
 20
278.6819384539842
 30
0.0
 41
0.9979481347615418
  0
SPLINE
  5
1BC
330
1F
100
AcDbEntity
  8
1
100
AcDbSpline
210
0.0
220
0.0
230
1.0
 70
     8
 71
     3
 72
     8
 73
     4
 74
     0
 42
0.000000001
 43
0.0000000001
 40
0.0
 40
0.0
 40
0.0
 40
0.0
 40
1.0
 40
1.0
 40
1.0
 40
1.0
 10
354.7430645109737
 20
292.5370862178001
 30
0.0
 10
354.5615881422329
 20
292.5833032374221
 30
0.0
 10
354.3812711158444
 20
292.6335509288159
 30
0.0
 10
354.2020461696155
 20
292.6878257627753
 30
0.0
  0
SPLINE
  5
1BD
330
1F
100
AcDbEntity
  8
1
100
AcDbSpline
210
0.0
220
0.0
230
1.0
 70
     8
 71
     3
 72
    35
 73
    31
 74
     0
 42
0.000000001
 43
0.0000000001
 40
0.0
 40
0.0
 40
0.0
 40
0.0
 40
0.1249999999999737
 40
0.1249999999999737
 40
0.2499999999999474
 40
0.2499999999999474
 40
0.3124999999999343
 40
0.3124999999999343
 40
0.3749999999999212
 40
0.3749999999999212
 40
0.437499999999908
 40
0.437499999999908
 40
0.468749999999907
 40
0.468749999999907
 40
0.499999999999906
 40
0.499999999999906
 40
0.6249999999999123
 40
0.6249999999999123
 40
0.6874999999999192
 40
0.6874999999999192
 40
0.7187499999999253
 40
0.7187499999999253
 40
0.7499999999999313
 40
0.7499999999999313
 40
0.8749999999999655
 40
0.8749999999999655
 40
0.9062499999999744
 40
0.9062499999999744
 40
0.9374999999999833
 40
1.0
 40
1.0
 40
1.0
 40
1.0
 10
353.4118212683943
 20
293.4995521449639
 30
0.0
 10
353.4998355751502
 20
293.5498962962535
 30
0.0
 10
353.5862024627114
 20
293.6030343293029
 30
0.0
 10
353.7548678877077
 20
293.7162099685327
 30
0.0
 10
353.8371752134056
 20
293.7762326705721
 30
0.0
 10
353.9567012798286
 20
293.8729400143063
 30
0.0
 10
353.9959112165224
 20
293.906331017294
 30
0.0
 10
354.0720224132974
 20
293.9749821165399
 30
0.0
 10
354.1090189118231
 20
294.0103145971867
 30
0.0
 10
354.1806211280009
 20
294.0832525749544
 30
0.0
 10
354.2152277744983
 20
294.1208571889826
 30
0.0
 10
354.2650830525482
 20
294.1792175923059
 30
0.0
 10
354.2813583407987
 20
294.1989972956648
 30
0.0
 10
354.3131687951425
 20
294.239260367814
 30
0.0
 10
354.3287251755228
 20
294.2597730672764
 30
0.0
 10
354.4042620405883
 20
294.3639125356507
 30
0.0
 10
354.4567818728972
 20
294.4511112215641
 30
0.0
 10
354.5209834984902
 20
294.5890735010756
 30
0.0
 10
354.5399424486131
 20
294.6362608197298
 30
0.0
 10
354.564226255269
 20
294.7090835371532
 30
0.0
 10
354.5716271097825
 20
294.7336987106167
 30
0.0
 10
354.5849403510971
 20
294.7836605478636
 30
0.0
 10
354.5907942284186
 20
294.8088004703558
 30
0.0
 10
354.6158650569562
 20
294.9346614478066
 30
0.0
 10
354.6226948352834
 20
295.0365121726388
 30
0.0
 10
354.6141415732862
 20
295.1653269274741
 30
0.0
 10
354.6115706036669
 20
295.1911273940343
 30
0.0
 10
354.6048121502981
 20
295.2422412000883
 30
0.0
 10
354.5922359722169
 20
295.3184173830504
 30
0.0
 10
354.5726467552356
 20
295.3931713254079
 30
0.0
 10
354.5566934410587
 20
295.4424204185208
 30
0.0
  0
SPLINE
  5
1BE
330
1F
100
AcDbEntity
  8
1
100
AcDbSpline
210
0.0
220
0.0
230
1.0
 70
    12
 71
     3
 72
     9
 73
     5
 74
     0
 42
0.000000001
 43
0.0000000001
 40
0.0
 40
0.0
 40
0.0
 40
0.0
 40
0.3799871678952854
 40
1.0
 40
1.0
 40
1.0
 40
1.0
 10
333.9251482405527
 20
296.0142996652376
 30
0.0
 41
1.000746873681189
 10
336.5398368653222
 20
295.9822449598158
 30
0.0
 41
1.001012846817042
 10
343.3907791761505
 20
295.6715525568913
 30
0.0
 41
1.003606180466564
 10
350.3286105739721
 20
295.4229266922733
 30
0.0
 41
1.00793619363156
 10
354.5566934410588
 20
295.4424204185208
 30
0.0
 41
1.003312578400638
  0
SPLINE
  5
1BF
330
1F
100
AcDbEntity
  8
1
100
AcDbSpline
210
0.0
220
0.0
230
1.0
 70
     8
 71
     3
 72
    17
 73
    13
 74
     0
 42
0.000000001
 43
0.0000000001
 40
0.0
 40
0.0
 40
0.0
 40
0.0
 40
0.2499999999999977
 40
0.4999999999999967
 40
0.4999999999999967
 40
0.5624999999999972
 40
0.5624999999999972
 40
0.6249999999999974
 40
0.6249999999999974
 40
0.7499999999999984
 40
0.7499999999999984
 40
1.0
 40
1.0
 40
1.0
 40
1.0
 10
289.1338585215007
 20
286.4445401330111
 30
0.0
 10
289.4698067811074
 20
286.4558216262139
 30
0.0
 10
290.1474774701682
 20
286.4644607165265
 30
0.0
 10
290.8367016470376
 20
286.4452396004348
 30
0.0
 10
291.2711124250762
 20
286.4244352005512
 30
0.0
 10
291.3581769995914
 20
286.4198344336331
 30
0.0
 10
291.5326724231948
 20
286.4097496613003
 30
0.0
 10
291.6201369745335
 20
286.4042628616274
 30
0.0
 10
291.882408957653
 20
286.3865202106265
 30
0.0
 10
292.0572968965261
 20
286.3729721207877
 30
0.0
 10
292.5820790525995
 20
286.3272339216765
 30
0.0
 10
292.9320914948805
 20
286.2899548060121
 30
0.0
 10
293.2822589432653
 20
286.2460034423945
 30
0.0
  0
SPLINE
  5
1C0
330
1F
100
AcDbEntity
  8
1
100
AcDbSpline
210
0.0
220
0.0
230
1.0
 70
     8
 71
     3
 72
    14
 73
    10
 74
     0
 42
0.000000001
 43
0.0000000001
 40
0.0
 40
0.0
 40
0.0
 40
0.0
 40
0.25
 40
0.25
 40
0.5
 40
0.5
 40
0.75
 40
0.75
 40
1.0
 40
1.0
 40
1.0
 40
1.0
 10
279.4048419452957
 20
274.7089502340955
 30
0.0
 10
279.6125683237593
 20
274.7675074660642
 30
0.0
 10
279.8224168858835
 20
274.8361694922041
 30
0.0
 10
280.2453152405823
 20
274.9895006014507
 30
0.0
 10
280.4583669707721
 20
275.074184572327
 30
0.0
 10
280.8867757867417
 20
275.2565167234256
 30
0.0
 10
281.1021330027259
 20
275.3541714098522
 30
0.0
 10
281.5343675085171
 20
275.560205958986
 30
0.0
 10
281.7512437958019
 20
275.6685881944221
 30
0.0
 10
281.9685504442805
 20
275.7815558535764
 30
0.0
  0
SPLINE
  5
1C1
330
1F
100
AcDbEntity
  8
1
100
AcDbSpline
210
0.0
220
0.0
230
1.0
 70
     8
 71
     3
 72
    34
 73
    30
 74
     0
 42
0.000000001
 43
0.0000000001
 40
0.0
 40
0.0
 40
0.0
 40
0.0
 40
0.1249999999999962
 40
0.1249999999999962
 40
0.2499999999999925
 40
0.2499999999999925
 40
0.2812499999999914
 40
0.2812499999999914
 40
0.2968749999999911
 40
0.2968749999999911
 40
0.3124999999999909
 40
0.3749999999999909
 40
0.3749999999999909
 40
0.4999999999999915
 40
0.4999999999999915
 40
0.5624999999999921
 40
0.5624999999999921
 40
0.5937499999999922
 40
0.5937499999999922
 40
0.6249999999999926
 40
0.6249999999999926
 40
0.7499999999999947
 40
0.7499999999999947
 40
0.8749999999999969
 40
0.8749999999999969
 40
0.9062499999999975
 40
0.9062499999999975
 40
0.9374999999999982
 40
1.0
 40
1.0
 40
1.0
 40
1.0
 10
276.853870218981
 20
278.5642264539006
 30
0.0
 10
276.8247386970623
 20
278.3506926139945
 30
0.0
 10
276.8155771378229
 20
278.1418949706844
 30
0.0
 10
276.8349631571101
 20
277.7334461214059
 30
0.0
 10
276.8635216489585
 20
277.5337961245956
 30
0.0
 10
276.9227110509712
 20
277.289841302771
 30
0.0
 10
276.9357282747912
 20
277.2413310442104
 30
0.0
 10
276.9570358517601
 20
277.1689855868935
 30
0.0
 10
276.964439495024
 20
277.1449297516314
 30
0.0
 10
276.9797788235527
 20
277.0971515607962
 30
0.0
 10
277.0194915043863
 20
276.9784226498318
 30
0.0
 10
277.065924750702
 20
276.8632127243521
 30
0.0
 10
277.1897332743737
 20
276.5930750449548
 30
0.0
 10
277.2887133405048
 20
276.4214527360828
 30
0.0
 10
277.4607624463835
 20
276.1755776272371
 30
0.0
 10
277.5220553007484
 20
276.0955507273999
 30
0.0
 10
277.6198860471733
 20
275.9783042694051
 30
0.0
 10
277.6534963077072
 20
275.9396747307564
 30
0.0
 10
277.7222220911189
 20
275.8638227235824
 30
0.0
 10
277.7573896300843
 20
275.8265356195336
 30
0.0
 10
277.9371585136282
 20
275.6431751344493
 30
0.0
 10
278.0935017137933
 20
275.5062879325795
 30
0.0
 10
278.4297781509915
 20
275.2497421950564
 30
0.0
 10
278.6097184650657
 20
275.1300924945179
 30
0.0
 10
278.8492115003314
 20
274.9903391951813
 30
0.0
 10
278.8977708782739
 20
274.9629227679565
 30
0.0
 10
278.9960168493456
 20
274.909227862332
 30
0.0
 10
279.145160836205
 20
274.8303443813233
 30
0.0
 10
279.2995765280677
 20
274.7562863663953
 30
0.0
 10
279.4048419452957
 20
274.7089502340955
 30
0.0
  0
SPLINE
  5
1C2
330
1F
100
AcDbEntity
  8
1
100
AcDbSpline
210
0.0
220
0.0
230
1.0
 70
     8
 71
     3
 72
    61
 73
    57
 74
     0
 42
0.000000001
 43
0.0000000001
 40
0.0
 40
0.0
 40
0.0
 40
0.0
 40
0.0625000000000019
 40
0.0625000000000019
 40
0.1250000000000038
 40
0.1250000000000038
 40
0.1875000000000055
 40
0.1875000000000055
 40
0.2187500000000064
 40
0.2187500000000064
 40
0.2343750000000067
 40
0.2343750000000067
 40
0.2500000000000069
 40
0.2500000000000069
 40
0.3125000000000075
 40
0.3125000000000075
 40
0.375000000000008
 40
0.375000000000008
 40
0.4062500000000084
 40
0.4062500000000084
 40
0.4218750000000084
 40
0.4218750000000084
 40
0.4375000000000084
 40
0.4375000000000084
 40
0.4687500000000079
 40
0.4687500000000079
 40
0.4843750000000079
 40
0.4843750000000079
 40
0.5000000000000079
 40
0.5000000000000079
 40
0.5312500000000075
 40
0.5312500000000075
 40
0.5625000000000071
 40
0.5625000000000071
 40
0.5937500000000067
 40
0.5937500000000067
 40
0.6250000000000063
 40
0.6250000000000063
 40
0.6875000000000054
 40
0.6875000000000054
 40
0.7187500000000048
 40
0.7187500000000048
 40
0.7500000000000041
 40
0.7500000000000041
 40
0.812500000000003
 40
0.812500000000003
 40
0.828125000000003
 40
0.828125000000003
 40
0.843750000000003
 40
0.843750000000003
 40
0.8750000000000024
 40
0.9062500000000017
 40
0.9375000000000012
 40
0.9687500000000005
 40
0.9687500000000005
 40
1.0
 40
1.0
 40
1.0
 40
1.0
 10
297.9048419452957
 20
285.6760765629591
 30
0.0
 10
299.0292139353933
 20
285.4868763616045
 30
0.0
 10
300.1522104216966
 20
285.2937623586872
 30
0.0
 10
302.3951634359089
 20
284.8994014243079
 30
0.0
 10
303.5151181306698
 20
284.6981442142182
 30
0.0
 10
305.7517007668412
 20
284.2874765124977
 30
0.0
 10
306.8683252236615
 20
284.0780496931493
 30
0.0
 10
308.5406129718888
 20
283.7582989177223
 30
0.0
 10
309.0976017088847
 20
283.6507872659307
 30
0.0
 10
309.9324188953809
 20
283.4882760324847
 30
0.0
 10
310.2105804231714
 20
283.433899003557
 30
0.0
 10
310.7666825298772
 20
283.3247653262405
 30
0.0
 10
311.0446498663192
 20
283.2700033593864
 30
0.0
 10
312.4335712051953
 20
282.9954179908124
 30
0.0
 10
313.5416214893707
 20
282.7732197986775
 30
0.0
 10
315.7517278469742
 20
282.3276111687521
 30
0.0
 10
316.8537778862579
 20
282.1042019728206
 30
0.0
 10
318.5029811872943
 20
281.7725538329252
 30
0.0
 10
319.0520761518715
 20
281.6625976714478
 30
0.0
 10
319.8748930841666
 20
281.499222376299
 30
0.0
 10
320.1490281987141
 20
281.4450245173514
 30
0.0
 10
320.6970509473605
 20
281.3372692098084
 30
0.0
 10
320.9709354624725
 20
281.2837047675875
 30
0.0
 10
321.7923785401367
 20
281.1244378941809
 30
0.0
 10
322.3397337781512
 20
281.0201898837408
 30
0.0
 10
323.1609556218521
 20
280.8682542445596
 30
0.0
 10
323.4347263616083
 20
280.8183423374532
 30
0.0
 10
323.9824112608318
 20
280.7201725048316
 30
0.0
 10
324.2563407560365
 20
280.6719119699414
 30
0.0
 10
325.0781367450067
 20
280.529882126883
 30
0.0
 10
325.6261113501645
 20
280.438863313374
 30
0.0
 10
326.7227640305047
 20
280.2648463434987
 30
0.0
 10
327.2714466890125
 20
280.1818532352746
 30
0.0
 10
328.3698488635002
 20
280.0240624050156
 30
0.0
 10
328.9195308846772
 20
279.9491824154059
 30
0.0
 10
330.0197390554865
 20
279.8068016244792
 30
0.0
 10
330.5702659949038
 20
279.7393048169185
 30
0.0
 10
332.2230778357156
 20
279.5472911403418
 30
0.0
 10
333.3265712122025
 20
279.4332280902102
 30
0.0
 10
334.9846627047419
 20
279.2817159433822
 30
0.0
 10
335.5378416299418
 20
279.2344847944591
 30
0.0
 10
336.6452911024775
 20
279.1463860212161
 30
0.0
 10
337.1996620224463
 20
279.1055131355
 30
0.0
 10
338.8635599124606
 20
278.9922008659854
 30
0.0
 10
339.9740368198879
 20
278.9290804010651
 30
0.0
 10
341.3645366499499
 20
278.86418048302
 30
0.0
 10
341.6427587712953
 20
278.8518993603199
 30
0.0
 10
342.1994627118596
 20
278.8286789793726
 30
0.0
 10
342.4779405776402
 20
278.8177356753301
 30
0.0
 10
343.3137020210704
 20
278.7867716871353
 30
0.0
 10
344.4289261524221
 20
278.7504500258145
 30
0.0
 10
346.1035408664123
 20
278.7091419316877
 30
0.0
 10
347.7790278606024
 20
278.6798754567317
 30
0.0
 10
348.8959638019732
 20
278.668032937049
 30
0.0
 10
350.0125382437205
 20
278.6600529072547
 30
0.0
 10
350.5706447890938
 20
278.6579935137005
 30
0.0
 10
351.1283955560515
 20
278.6579935137005
 30
0.0
  0
SPLINE
  5
1C3
330
1F
100
AcDbEntity
  8
1
100
AcDbSpline
210
0.0
220
0.0
230
1.0
 70
     8
 71
     3
 72
    62
 73
    58
 74
     0
 42
0.000000001
 43
0.0000000001
 40
0.0
 40
0.0
 40
0.0
 40
0.0
 40
0.0436265765977163
 40
0.0436265765977163
 40
0.107384804824535
 40
0.107384804824535
 40
0.1392639189379444
 40
0.1392639189379444
 40
0.1711430330513538
 40
0.1711430330513538
 40
0.2030221471647633
 40
0.2030221471647633
 40
0.2349012612781727
 40
0.2349012612781727
 40
0.2986594895049919
 40
0.2986594895049919
 40
0.3305386036184016
 40
0.3305386036184016
 40
0.3624177177318112
 40
0.3624177177318112
 40
0.3942968318452209
 40
0.3942968318452209
 40
0.4102363889019257
 40
0.4102363889019257
 40
0.4261759459586307
 40
0.4261759459586307
 40
0.4580550600720398
 40
0.4580550600720398
 40
0.489934174185449
 40
0.489934174185449
 40
0.5218132882988584
 40
0.5218132882988584
 40
0.5536924024122675
 40
0.5536924024122675
 40
0.5855715165256768
 40
0.5855715165256768
 40
0.6174506306390859
 40
0.6174506306390859
 40
0.6493297447524952
 40
0.6493297447524952
 40
0.6812088588659044
 40
0.6812088588659044
 40
0.7449670870927233
 40
0.7449670870927233
 40
0.8087253153195426
 40
0.8087253153195426
 40
0.8406044294329522
 40
0.8406044294329522
 40
0.8724835435463617
 40
0.8724835435463617
 40
0.9043626576597711
 40
0.9043626576597711
 40
0.9362417717731808
 40
0.9362417717731808
 40
0.9681208858865904
 40
0.9681208858865904
 40
1.0
 40
1.0
 40
1.0
 40
1.0
 10
298.9745643284646
 20
299.1579946654265
 30
0.0
 10
299.746648646083
 20
299.1580577008446
 30
0.0
 10
300.5173666510306
 20
299.1558639026277
 30
0.0
 10
302.4112336097073
 20
299.1429613721152
 30
0.0
 10
303.5328901732559
 20
299.1287702955698
 30
0.0
 10
305.2116861041178
 20
299.0938873114515
 30
0.0
 10
305.7706730764702
 20
299.0799942877258
 30
0.0
 10
306.8875543711464
 20
299.04709646458
 30
0.0
 10
307.445455501608
 20
299.0280889794869
 30
0.0
 10
308.5597080978421
 20
298.9844903058695
 30
0.0
 10
309.1161397685799
 20
298.9598956205926
 30
0.0
 10
310.2278533190569
 20
298.9047587361061
 30
0.0
 10
310.7831354342646
 20
298.8742153518851
 30
0.0
 10
312.4476871491444
 20
298.7733757121675
 30
0.0
 10
313.5556549582043
 20
298.6937664836845
 30
0.0
 10
315.2169953511836
 20
298.5564155934476
 30
0.0
 10
315.7707248626022
 20
298.5076640864188
 30
0.0
 10
316.8780448248215
 20
298.4046482927075
 30
0.0
 10
317.4316254122922
 20
298.3503875483899
 30
0.0
 10
318.5389423803493
 20
298.236889935276
 30
0.0
 10
319.0926793218427
 20
298.1776551512936
 30
0.0
 10
319.9236048014901
 20
298.0855255803547
 30
0.0
 10
320.2006329066808
 20
298.0542698674379
 30
0.0
 10
320.7548234966874
 20
297.9907439498882
 30
0.0
 10
321.0319846205122
 20
297.9584723522511
 30
0.0
 10
321.8635721987524
 20
297.8599892243275
 30
0.0
 10
322.418095680421
 20
297.7921011905675
 30
0.0
 10
323.5270862036697
 20
297.6512481985246
 30
0.0
 10
324.0815545763563
 20
297.5782809922985
 30
0.0
 10
325.1903291546708
 20
297.4269366853592
 30
0.0
 10
325.7445190345828
 20
297.3485750106071
 30
0.0
 10
326.8524694195658
 20
297.186487408684
 30
0.0
 10
327.4062411820807
 20
297.1027502727815
 30
0.0
 10
328.5135811528537
 20
296.9302814130106
 30
0.0
 10
329.0671692758929
 20
296.8415960051198
 30
0.0
 10
330.1744771829989
 20
296.6600565260954
 30
0.0
 10
330.7281962759125
 20
296.567202918508
 30
0.0
 10
331.8359542494192
 20
296.377890311868
 30
0.0
 10
332.3899925728866
 20
296.2814316316564
 30
0.0
 10
333.4984899023567
 20
296.0852884993573
 30
0.0
 10
334.0529656896107
 20
295.9856005688609
 30
0.0
 10
335.7164922829616
 20
295.6820917693387
 30
0.0
 10
336.8258519231147
 20
295.4738774657604
 30
0.0
 10
339.0449181014479
 20
295.045114065206
 30
0.0
 10
340.1546211907225
 20
294.8245744372756
 30
0.0
 10
341.8187086418715
 20
294.4820058149417
 30
0.0
 10
342.373372218676
 20
294.3658437402902
 30
0.0
 10
343.4820587891097
 20
294.1286474599057
 30
0.0
 10
344.036047497638
 20
294.0075970062603
 30
0.0
 10
345.1431459568483
 20
293.7598735357241
 30
0.0
 10
345.6962542158108
 20
293.6331934348596
 30
0.0
 10
346.8016010700109
 20
293.3740501174502
 30
0.0
 10
347.3538381178579
 20
293.2415788097442
 30
0.0
 10
348.4576801237945
 20
292.9714918426999
 30
0.0
 10
349.0093215616553
 20
292.833858753312
 30
0.0
 10
350.1122985764302
 20
292.5551769720871
 30
0.0
 10
350.6635884609603
 20
292.4141338113349
 30
0.0
 10
351.2150857537058
 20
292.2728674316427
 30
0.0
  0
SPLINE
  5
1C4
330
1F
100
AcDbEntity
  8
1
100
AcDbSpline
210
0.0
220
0.0
230
1.0
 70
     8
 71
     3
 72
    40
 73
    36
 74
     0
 42
0.000000001
 43
0.0000000001
 40
0.0
 40
0.0
 40
0.0
 40
0.0
 40
0.0567263229610512
 40
0.0567263229610512
 40
0.1134526459221024
 40
0.1134526459221024
 40
0.1701789688831536
 40
0.1701789688831536
 40
0.2269052918442049
 40
0.2269052918442049
 40
0.2836316148052561
 40
0.2836316148052561
 40
0.3403579377663073
 40
0.3403579377663073
 40
0.3970842607273585
 40
0.3970842607273585
 40
0.4538105836884097
 40
0.4538105836884097
 40
0.5672632296105123
 40
0.5672632296105123
 40
0.6807158755326153
 40
0.6807158755326153
 40
0.7374421984936673
 40
0.7374421984936673
 40
0.7941685214547191
 40
0.7941685214547191
 40
0.8225316829352447
 40
0.8225316829352447
 40
0.8508948444157702
 40
0.8508948444157702
 40
0.9076211673768213
 40
0.9076211673768213
 40
0.9643474903378727
 40
0.9643474903378727
 40
1.0
 40
1.0
 40
1.0
 40
1.0
 10
353.5456784708529
 20
299.0584788839141
 30
0.0
 10
352.973217849052
 20
299.0807867306606
 30
0.0
 10
352.3995763035549
 20
299.0986435410613
 30
0.0
 10
351.2501335737336
 20
299.1269038878881
 30
0.0
 10
350.6743319512834
 20
299.1373059631099
 30
0.0
 10
349.520785328599
 20
299.1518300323713
 30
0.0
 10
348.9430399705639
 20
299.1559513673213
 30
0.0
 10
347.7858491150465
 20
299.1588472698214
 30
0.0
 10
347.2064033158466
 20
299.1576217432611
 30
0.0
 10
346.0460915935867
 20
299.1505278575843
 30
0.0
 10
345.465225400843
 20
299.1446598585351
 30
0.0
 10
344.3023981575603
 20
299.1287512652164
 30
0.0
 10
343.7204368401035
 20
299.1187114834248
 30
0.0
 10
342.5557977900872
 20
299.0946783759302
 30
0.0
 10
341.9730753253231
 20
299.0806815629232
 30
0.0
 10
340.8076137573798
 20
299.0486935781547
 30
0.0
 10
340.2248631196713
 20
299.0307075883036
 30
0.0
 10
338.4767531503387
 20
298.9706813623001
 30
0.0
 10
337.3115468646215
 20
298.9226091010007
 30
0.0
 10
334.9825208265826
 20
298.8087650388439
 30
0.0
 10
333.8186958201088
 20
298.7429891445188
 30
0.0
 10
332.0745388201935
 20
298.629044855724
 30
0.0
 10
331.4934149141002
 20
298.5885096772748
 30
0.0
 10
330.3317932354174
 20
298.5018540412877
 30
0.0
 10
329.7512943733658
 20
298.45573702076
 30
0.0
 10
328.8811237900187
 20
298.381878108156
 30
0.0
 10
328.5911636585697
 20
298.3564761302196
 30
0.0
 10
328.0114619391075
 20
298.3039968080525
 30
0.0
 10
327.7216984647569
 20
298.2769166073069
 30
0.0
 10
326.8530435339619
 20
298.1929915090942
 30
0.0
 10
326.2747259837178
 20
298.1334712544115
 30
0.0
 10
325.11947454194
 20
298.0071012680253
 30
0.0
 10
324.542543167879
 20
297.9402454238078
 30
0.0
 10
323.6039313191726
 20
297.8254138649419
 30
0.0
 10
323.2419092155723
 20
297.7796488474225
 30
0.0
 10
322.8800632532402
 20
297.7324887630105
 30
0.0
  0
SPLINE
  5
1C5
330
1F
100
AcDbEntity
  8
1
100
AcDbSpline
210
0.0
220
0.0
230
1.0
 70
     8
 71
     3
 72
    36
 73
    32
 74
     0
 42
0.000000001
 43
0.0000000001
 40
0.0
 40
0.0
 40
0.0
 40
0.0
 40
0.0625000000000006
 40
0.0625000000000006
 40
0.1250000000000012
 40
0.1250000000000012
 40
0.1875000000000017
 40
0.1875000000000017
 40
0.2500000000000023
 40
0.3125000000000026
 40
0.3125000000000026
 40
0.3281250000000026
 40
0.3281250000000026
 40
0.3437500000000027
 40
0.3437500000000027
 40
0.3750000000000027
 40
0.3750000000000027
 40
0.4375000000000025
 40
0.4375000000000025
 40
0.5000000000000023
 40
0.5000000000000023
 40
0.6250000000000016
 40
0.6250000000000016
 40
0.7500000000000009
 40
0.7500000000000009
 40
0.8750000000000001
 40
0.8750000000000001
 40
0.90625
 40
0.90625
 40
0.9375
 40
1.0
 40
1.0
 40
1.0
 40
1.0
 10
293.2822589432653
 20
278.6587579146261
 30
0.0
 10
292.996791690406
 20
278.6595339998922
 30
0.0
 10
292.7149345516326
 20
278.6533679157976
 30
0.0
 10
292.1576685933515
 20
278.6290139050608
 30
0.0
 10
291.8822609565566
 20
278.6108254820837
 30
0.0
 10
291.3372711716134
 20
278.5640177558049
 30
0.0
 10
291.0676897397879
 20
278.5353980202572
 30
0.0
 10
290.5338472310688
 20
278.4690617592166
 30
0.0
 10
290.0053259268142
 20
278.393627677249
 30
0.0
 10
289.4866377371266
 20
278.3021812656161
 30
0.0
 10
289.1653352533584
 20
278.2405639651165
 30
0.0
 10
289.1012188448603
 20
278.2280168386963
 30
0.0
 10
288.9732701609651
 20
278.2024867504704
 30
0.0
 10
288.9094237776778
 20
278.1895005685657
 30
0.0
 10
288.7187419310363
 20
278.1499965996695
 30
0.0
 10
288.5926194264143
 20
278.1229057237317
 30
0.0
 10
288.2171160803103
 20
278.0395191945142
 30
0.0
 10
287.9705936471316
 20
277.981115669715
 30
0.0
 10
287.4846245854962
 20
277.8593222653695
 30
0.0
 10
287.2451791673712
 20
277.7959306999115
 30
0.0
 10
286.5368901803918
 20
277.5989693018541
 30
0.0
 10
286.0780403754128
 20
277.4586553781179
 30
0.0
 10
285.1855534486053
 20
277.1623218583392
 30
0.0
 10
284.7519349024322
 20
277.0062778284619
 30
0.0
 10
283.9099825386328
 20
276.6796429659361
 30
0.0
 10
283.5016585265949
 20
276.5090394487975
 30
0.0
 10
283.0077692067539
 20
276.287086479682
 30
0.0
 10
282.9098277482198
 20
276.2422625667412
 30
0.0
 10
282.7160806164538
 20
276.1519668784849
 30
0.0
 10
282.4284895244943
 20
276.0154737044084
 30
0.0
 10
282.1500436411092
 20
275.8759057583848
 30
0.0
 10
281.9685504442805
 20
275.7815558535764
 30
0.0
  0
SPLINE
  5
1CB
330
1F
100
AcDbEntity
  8
1
100
AcDbSpline
210
0.0
220
0.0
230
1.0
 70
     8
 71
     3
 72
    29
 73
    25
 74
     0
 42
0.000000001
 43
0.0000000001
 40
0.0
 40
0.0
 40
0.0
 40
0.0
 40
0.1249999999999635
 40
0.1249999999999635
 40
0.1874999999999494
 40
0.1874999999999494
 40
0.2499999999999354
 40
0.2499999999999354
 40
0.3749999999999072
 40
0.3749999999999072
 40
0.4374999999998967
 40
0.4374999999998967
 40
0.4999999999998862
 40
0.4999999999998862
 40
0.6249999999998707
 40
0.6249999999998707
 40
0.6874999999998921
 40
0.6874999999998921
 40
0.7499999999999134
 40
0.8124999999999346
 40
0.8124999999999346
 40
0.8749999999999559
 40
0.8749999999999559
 40
1.0
 40
1.0
 40
1.0
 40
1.0
 10
363.2076030401071
 20
299.1780741010704
 30
0.0
 10
363.2064648977545
 20
299.203607258818
 30
0.0
 10
363.2027654270879
 20
299.228588192559
 30
0.0
 10
363.1935964881388
 20
299.2652791764546
 30
0.0
 10
363.1899319775109
 20
299.2773783766223
 30
0.0
 10
363.1813670880772
 20
299.3013103229961
 30
0.0
 10
363.1764519333767
 20
299.3131555875206
 30
0.0
 10
363.1601732394743
 20
299.3475241534682
 30
0.0
 10
363.1472082499836
 20
299.3691569605053
 30
0.0
 10
363.1246356678474
 20
299.3997132804393
 30
0.0
 10
363.1165431184174
 20
299.4096277458501
 30
0.0
 10
363.0994908948358
 20
299.4285558968381
 30
0.0
 10
363.0905663098305
 20
299.437541547068
 30
0.0
 10
363.0626309891465
 20
299.4631038686045
 30
0.0
 10
363.0424701467961
 20
299.4782996689563
 30
0.0
 10
363.0098484041389
 20
299.4982352567779
 30
0.0
 10
362.9986146830977
 20
299.5043676706252
 30
0.0
 10
362.9758264859412
 20
299.5154105788595
 30
0.0
 10
362.952609098392
 20
299.52530001586
 30
0.0
 10
362.9285401468102
 20
299.5329008307667
 30
0.0
 10
362.9040359820169
 20
299.5393319878045
 30
0.0
 10
362.8915071394301
 20
299.5419709591402
 30
0.0
 10
362.8537113461596
 20
299.5479709055301
 30
0.0
 10
362.8283364534872
 20
299.5494476554755
 30
0.0
 10
362.802779058277
 20
299.5483329570305
 30
0.0
  0
SPLINE
  5
1CC
330
1F
100
AcDbEntity
  8
1
100
AcDbSpline
210
0.0
220
0.0
230
1.0
 70
     8
 71
     3
 72
    29
 73
    25
 74
     0
 42
0.000000001
 43
0.0000000001
 40
0.0
 40
0.0
 40
0.0
 40
0.0
 40
0.1250000000000589
 40
0.1250000000000589
 40
0.187500000000055
 40
0.187500000000055
 40
0.2500000000000511
 40
0.2500000000000511
 40
0.3750000000000397
 40
0.3750000000000397
 40
0.4375000000000341
 40
0.4375000000000341
 40
0.5000000000000285
 40
0.5000000000000285
 40
0.6250000000000235
 40
0.6250000000000235
 40
0.687500000000021
 40
0.687500000000021
 40
0.7500000000000185
 40
0.8125000000000158
 40
0.8125000000000158
 40
0.8750000000000133
 40
0.8750000000000133
 40
1.0
 40
1.0
 40
1.0
 40
1.0
 10
357.2351618035556
 20
299.3054985740581
 30
0.0
 10
357.2096020399742
 20
299.3043837723154
 30
0.0
 10
357.1845973153698
 20
299.3007099269107
 30
0.0
 10
357.1478746233657
 20
299.2915826545815
 30
0.0
 10
357.1357655222545
 20
299.2879325753266
 30
0.0
 10
357.1118151322469
 20
299.2793976510079
 30
0.0
 10
357.0999613243013
 20
299.2744980568297
 30
0.0
 10
357.0655697172621
 20
299.2582666875146
 30
0.0
 10
357.0439247617663
 20
299.2453344183634
 30
0.0
 10
357.0133549711102
 20
299.2228126484472
 30
0.0
 10
357.0034368005
 20
299.214737414832
 30
0.0
 10
356.9845029634797
 20
299.1977199781298
 30
0.0
 10
356.9755153323234
 20
299.1888128020587
 30
0.0
 10
356.9499495810348
 20
299.1609297533441
 30
0.0
 10
356.9347548200931
 20
299.1408038187504
 30
0.0
 10
356.9148259415118
 20
299.1082345302918
 30
0.0
 10
356.9086966298075
 20
299.0970182380138
 30
0.0
 10
356.8976615240724
 20
299.0742641861434
 30
0.0
 10
356.8877814675861
 20
299.0510804228223
 30
0.0
 10
356.8801933240919
 20
299.0270440021293
 30
0.0
 10
356.873776439189
 20
299.0025718396456
 30
0.0
 10
356.8711454666984
 20
298.9900587973862
 30
0.0
 10
356.8651717695815
 20
298.9523089706494
 30
0.0
 10
356.8637153996692
 20
298.9269627287944
 30
0.0
 10
356.8648534365614
 20
298.9014319369526
 30
0.0
  0
SPLINE
  5
1CD
330
1F
100
AcDbEntity
  8
1
100
AcDbSpline
210
0.0
220
0.0
230
1.0
 70
     8
 71
     3
 72
    29
 73
    25
 74
     0
 42
0.000000001
 43
0.0000000001
 40
0.0
 40
0.0
 40
0.0
 40
0.0
 40
0.1249999999999834
 40
0.1249999999999834
 40
0.187499999999975
 40
0.187499999999975
 40
0.2499999999999667
 40
0.2499999999999667
 40
0.3749999999999462
 40
0.3749999999999462
 40
0.4374999999999358
 40
0.4374999999999358
 40
0.4999999999999255
 40
0.4999999999999255
 40
0.624999999999902
 40
0.624999999999902
 40
0.6874999999999182
 40
0.6874999999999182
 40
0.7499999999999344
 40
0.8124999999999506
 40
0.8124999999999506
 40
0.8749999999999669
 40
0.8749999999999669
 40
1.0
 40
1.0
 40
1.0
 40
1.0
 10
357.1127720442797
 20
293.3396101622561
 30
0.0
 10
357.1139101866323
 20
293.3140770045085
 30
0.0
 10
357.1176096572989
 20
293.2890960707673
 30
0.0
 10
357.1267785962481
 20
293.2524050868719
 30
0.0
 10
357.130443106876
 20
293.2403058867042
 30
0.0
 10
357.1390079963098
 20
293.2163739403303
 30
0.0
 10
357.1439231510102
 20
293.2045286758059
 30
0.0
 10
357.1602018449125
 20
293.1701601098583
 30
0.0
 10
357.1731668344033
 20
293.1485273028212
 30
0.0
 10
357.1957394165394
 20
293.1179709828871
 30
0.0
 10
357.2038319659695
 20
293.1080565174763
 30
0.0
 10
357.2208841895512
 20
293.0891283664884
 30
0.0
 10
357.2298087745563
 20
293.0801427162585
 30
0.0
 10
357.2577440952404
 20
293.0545803947219
 30
0.0
 10
357.2779049375907
 20
293.0393845943701
 30
0.0
 10
357.3105266802479
 20
293.0194490065485
 30
0.0
 10
357.3217604012891
 20
293.0133165927012
 30
0.0
 10
357.3445485984456
 20
293.002273684467
 30
0.0
 10
357.3677659859949
 20
292.9923842474665
 30
0.0
 10
357.3918349375767
 20
292.9847834325599
 30
0.0
 10
357.41633910237
 20
292.978352275522
 30
0.0
 10
357.4288679449566
 20
292.9757133041864
 30
0.0
 10
357.4666637382272
 20
292.9697133577964
 30
0.0
 10
357.4920386308997
 20
292.968236607851
 30
0.0
 10
357.5175960261099
 20
292.969351306296
 30
0.0
  0
SPLINE
  5
1CE
330
1F
100
AcDbEntity
  8
1
100
AcDbSpline
210
0.0
220
0.0
230
1.0
 70
     8
 71
     3
 72
    29
 73
    25
 74
     0
 42
0.000000001
 43
0.0000000001
 40
0.0
 40
0.0
 40
0.0
 40
0.0
 40
0.1250000000000387
 40
0.1250000000000387
 40
0.1875000000000246
 40
0.1875000000000246
 40
0.2500000000000106
 40
0.2500000000000106
 40
0.3749999999999807
 40
0.3749999999999807
 40
0.4374999999999658
 40
0.4374999999999658
 40
0.4999999999999509
 40
0.4999999999999509
 40
0.6249999999999642
 40
0.6249999999999642
 40
0.6874999999999708
 40
0.6874999999999708
 40
0.7499999999999775
 40
0.8124999999999841
 40
0.8124999999999841
 40
0.8749999999999909
 40
0.8749999999999909
 40
1.0
 40
1.0
 40
1.0
 40
1.0
 10
363.0852132808313
 20
293.2121856892683
 30
0.0
 10
363.1107730444127
 20
293.213300491011
 30
0.0
 10
363.135777769017
 20
293.2169743364158
 30
0.0
 10
363.1725004610211
 20
293.226101608745
 30
0.0
 10
363.1846095621323
 20
293.2297516879998
 30
0.0
 10
363.2085599521399
 20
293.2382866123186
 30
0.0
 10
363.2204137600855
 20
293.2431862064968
 30
0.0
 10
363.2548053671247
 20
293.2594175758118
 30
0.0
 10
363.2764503226205
 20
293.2723498449631
 30
0.0
 10
363.3070201132767
 20
293.2948716148792
 30
0.0
 10
363.3169382838869
 20
293.3029468484945
 30
0.0
 10
363.3358721209072
 20
293.3199642851967
 30
0.0
 10
363.3448597520636
 20
293.3288714612677
 30
0.0
 10
363.3704255033519
 20
293.3567545099823
 30
0.0
 10
363.3856202642937
 20
293.376880444576
 30
0.0
 10
363.405549142875
 20
293.4094497330347
 30
0.0
 10
363.4116784545794
 20
293.4206660253126
 30
0.0
 10
363.4227135603145
 20
293.4434200771832
 30
0.0
 10
363.4325935766585
 20
293.4666038554383
 30
0.0
 10
363.4401817602951
 20
293.490640261197
 30
0.0
 10
363.4465986451979
 20
293.5151124236809
 30
0.0
 10
363.4492296176885
 20
293.5276254659403
 30
0.0
 10
363.4552033148053
 20
293.5653752926771
 30
0.0
 10
363.4566596847176
 20
293.5907215345321
 30
0.0
 10
363.4555216478254
 20
293.6162523263738
 30
0.0
  0
SPLINE
  5
1CF
330
1F
100
AcDbEntity
  8
1
100
AcDbSpline
210
0.0
220
0.0
230
1.0
 70
     8
 71
     3
 72
    20
 73
    16
 74
     0
 42
0.000000001
 43
0.0000000001
 40
0.0
 40
0.0
 40
0.0
 40
0.0
 40
0.0585238308060056
 40
0.0585238308060056
 40
0.1930204264051391
 40
0.260268724204709
 40
0.260268724204709
 40
0.3275170220042787
 40
0.3275170220042787
 40
0.4620136176034237
 40
0.5965102132025688
 40
0.5965102132025688
 40
0.7310068088017138
 40
0.7310068088017138
 40
1.0
 40
1.0
 40
1.0
 40
1.0
 10
360.5669518378187
 20
295.4934697068075
 30
0.0
 10
360.5693951741856
 20
295.50043772703
 30
0.0
 10
360.5720115463399
 20
295.5073394069152
 30
0.0
 10
360.5811902464306
 20
295.5298209955229
 30
0.0
 10
360.5921255005017
 20
295.5527344511265
 30
0.0
 10
360.6051225081691
 20
295.5747591549955
 30
0.0
 10
360.6142605035639
 20
295.5892390485309
 30
0.0
 10
360.619085700176
 20
295.5964040586098
 30
0.0
 10
360.6341117134674
 20
295.6173306594396
 30
0.0
 10
360.6556141643389
 20
295.6437636117914
 30
0.0
 10
360.6799715077954
 20
295.6673358803861
 30
0.0
 10
360.7057774950447
 20
295.6894581292757
 30
0.0
 10
360.7194615158477
 20
295.6998130038623
 30
0.0
 10
360.7614696511397
 20
295.7278004941135
 30
0.0
 10
360.791096095475
 20
295.7427494288057
 30
0.0
 10
360.822349668214
 20
295.7541326650859
 30
0.0
  0
SPLINE
  5
1D0
330
1F
100
AcDbEntity
  8
1
100
AcDbSpline
210
0.0
220
0.0
230
1.0
 70
     8
 71
     3
 72
     8
 73
     4
 74
     0
 42
0.000000001
 43
0.0000000001
 40
0.0
 40
0.0
 40
0.0
 40
0.0
 40
1.0
 40
1.0
 40
1.0
 40
1.0
 10
360.8698940483985
 20
296.6877534049962
 30
0.0
 10
360.8640916415256
 20
296.6805383385243
 30
0.0
 10
360.8572531567767
 20
296.6744991621321
 30
0.0
 10
360.8493917691172
 20
296.6696252455186
 30
0.0
  0
SPLINE
  5
1D1
330
1F
100
AcDbEntity
  8
1
100
AcDbSpline
210
0.0
220
0.0
230
1.0
 70
     8
 71
     3
 72
    14
 73
    10
 74
     0
 42
0.000000001
 43
0.0000000001
 40
0.0
 40
0.0
 40
0.0
 40
0.0
 40
0.0604196899170304
 40
0.0604196899170304
 40
0.3736131266113536
 40
0.3736131266113536
 40
0.6868065633056768
 40
0.6868065633056768
 40
1.0
 40
1.0
 40
1.0
 40
1.0
 10
360.8155569338324
 20
296.6275037804597
 30
0.0
 10
360.8159316947639
 20
296.6285726155365
 30
0.0
 10
360.8163274161
 20
296.6296298354088
 30
0.0
 10
360.818899387971
 20
296.6360869169283
 30
0.0
 10
360.8215936044367
 20
296.6411792605048
 30
0.0
 10
360.828031077646
 20
296.6507438451277
 30
0.0
 10
360.831780534869
 20
296.6551939656208
 30
0.0
 10
360.8399923825405
 20
296.6630863692265
 30
0.0
 10
360.8444898023488
 20
296.6665861157482
 30
0.0
 10
360.8493917691172
 20
296.6696252455186
 30
0.0
  0
SPLINE
  5
1D2
330
1F
100
AcDbEntity
  8
1
100
AcDbSpline
210
0.0
220
0.0
230
1.0
 70
     8
 71
     3
 72
    19
 73
    15
 74
     0
 42
0.000000001
 43
0.0000000001
 40
0.0
 40
0.0
 40
0.0
 40
0.0
 40
0.250000000000093
 40
0.250000000000093
 40
0.3750000000000941
 40
0.3750000000000941
 40
0.5000000000000953
 40
0.6250000000000967
 40
0.6250000000000967
 40
0.6875000000000467
 40
0.6875000000000467
 40
0.7499999999999967
 40
0.7499999999999967
 40
1.0
 40
1.0
 40
1.0
 40
1.0
 10
360.5555653329883
 20
295.2903354556603
 30
0.0
 10
360.531236981417
 20
295.2663850540828
 30
0.0
 10
360.5044998688768
 20
295.2456503451377
 30
0.0
 10
360.4608020230502
 20
295.2193471399421
 30
0.0
 10
360.4456023584958
 20
295.2113908434316
 30
0.0
 10
360.4147398822101
 20
295.1974970776034
 30
0.0
 10
360.383234762571
 20
295.1855027058258
 30
0.0
 10
360.3504587761303
 20
295.1772641506078
 30
0.0
 10
360.3253855844538
 20
295.1725370291331
 30
0.0
 10
360.3169382635552
 20
295.1712050253385
 30
0.0
 10
360.3001082323822
 20
295.1690631528937
 30
0.0
 10
360.2916971981481
 20
295.1682472007979
 30
0.0
 10
360.2496617307258
 20
295.1654174022081
 30
0.0
 10
360.216095366735
 20
295.1671022280809
 30
0.0
 10
360.1825966813122
 20
295.1728336574157
 30
0.0
  0
SPLINE
  5
1D3
330
1F
100
AcDbEntity
  8
1
100
AcDbSpline
210
0.0
220
0.0
230
1.0
 70
     8
 71
     3
 72
    20
 73
    16
 74
     0
 42
0.000000001
 43
0.0000000001
 40
0.0
 40
0.0
 40
0.0
 40
0.0
 40
0.1250000000000017
 40
0.1250000000000017
 40
0.2500000000000036
 40
0.3124999999999539
 40
0.3124999999999539
 40
0.3749999999999043
 40
0.3749999999999043
 40
0.4999999999999054
 40
0.6249999999999066
 40
0.6249999999999066
 40
0.7499999999999077
 40
0.7499999999999077
 40
1.0
 40
1.0
 40
1.0
 40
1.0
 10
359.7004438108567
 20
295.4006821670128
 30
0.0
 10
359.7167541087508
 20
295.4050519521567
 30
0.0
 10
359.733365168422
 20
295.408468298433
 30
0.0
 10
359.7667192804987
 20
295.4132924274018
 30
0.0
 10
359.7919229681207
 20
295.4154316985708
 30
0.0
 10
359.8174264592228
 20
295.4152996932226
 30
0.0
 10
359.8344985449756
 20
295.4146903700744
 30
0.0
 10
359.8431023059829
 20
295.414121543692
 30
0.0
 10
359.8687108382167
 20
295.4116378998476
 30
0.0
 10
359.9023559607239
 20
295.4062776431509
 30
0.0
 10
359.9350281355312
 20
295.3969296333164
 30
0.0
 10
359.9672072176312
 20
295.3855595095504
 30
0.0
 10
359.9830951669137
 20
295.3788232204854
 30
0.0
 10
360.0286195114534
 20
295.3561934300103
 30
0.0
 10
360.0566311940286
 20
295.3377757134795
 30
0.0
 10
360.0824200283167
 20
295.3161076629925
 30
0.0
  0
SPLINE
  5
1D4
330
1F
100
AcDbEntity
  8
1
100
AcDbSpline
210
0.0
220
0.0
230
1.0
 70
     8
 71
     3
 72
    14
 73
    10
 74
     0
 42
0.000000001
 43
0.0000000001
 40
0.0
 40
0.0
 40
0.0
 40
0.0
 40
0.25
 40
0.25
 40
0.5
 40
0.5
 40
0.75
 40
0.75
 40
1.0
 40
1.0
 40
1.0
 40
1.0
 10
359.6463708931111
 20
295.3569338697303
 30
0.0
 10
359.6491078898847
 20
295.3622289722174
 30
0.0
 10
359.6523901731014
 20
295.3672401296016
 30
0.0
 10
359.6598674405874
 20
295.3764481839249
 30
0.0
 10
359.6640371073858
 20
295.3806303742405
 30
0.0
 10
359.6732523867222
 20
295.388140423649
 30
0.0
 10
359.6783258202552
 20
295.3914657817226
 30
0.0
 10
359.6889452483795
 20
295.3969217677522
 30
0.0
 10
359.6945392325434
 20
295.3991002376843
 30
0.0
 10
359.7004438108572
 20
295.4006821670127
 30
0.0
  0
SPLINE
  5
1D5
330
1F
100
AcDbEntity
  8
1
100
AcDbSpline
210
0.0
220
0.0
230
1.0
 70
     8
 71
     3
 72
    20
 73
    16
 74
     0
 42
0.000000001
 43
0.0000000001
 40
0.0
 40
0.0
 40
0.0
 40
0.0
 40
0.2499999999998193
 40
0.2499999999998193
 40
0.3749999999998495
 40
0.3749999999998495
 40
0.4999999999998795
 40
0.4999999999998795
 40
0.6249999999999096
 40
0.6249999999999096
 40
0.7499999999999398
 40
0.7499999999999398
 40
0.8749999999999699
 40
0.8749999999999699
 40
1.0
 40
1.0
 40
1.0
 40
1.0
 10
359.6463708931111
 20
295.3569338697303
 30
0.0
 10
359.6419730929223
 20
295.3484257111014
 30
0.0
 10
359.6363340131103
 20
295.3408586306203
 30
0.0
 10
359.6260179416236
 20
295.3309203373759
 30
0.0
 10
359.6222675435881
 20
295.32786410501
 30
0.0
 10
359.6143859014682
 20
295.3224697385888
 30
0.0
 10
359.610224821474
 20
295.3201003966938
 30
0.0
 10
359.6014427453014
 20
295.3160487854828
 30
0.0
 10
359.5968444906604
 20
295.3143859459568
 30
0.0
 10
359.5875001146424
 20
295.3118900617166
 30
0.0
 10
359.5827176587696
 20
295.3110386622663
 30
0.0
 10
359.5729202481643
 20
295.3101766594193
 30
0.0
 10
359.5679850532536
 20
295.3101787380415
 30
0.0
 10
359.5582314706542
 20
295.3110431834963
 30
0.0
 10
359.5533835073737
 20
295.311902315859
 30
0.0
 10
359.5485665378384
 20
295.3132161798535
 30
0.0
  0
SPLINE
  5
1D6
330
1F
100
AcDbEntity
  8
1
100
AcDbSpline
210
0.0
220
0.0
230
1.0
 70
     8
 71
     3
 72
    14
 73
    10
 74
     0
 42
0.000000001
 43
0.0000000001
 40
0.0
 40
0.0
 40
0.0
 40
0.0
 40
0.25
 40
0.25
 40
0.5
 40
0.5
 40
0.75
 40
0.75
 40
1.0
 40
1.0
 40
1.0
 40
1.0
 10
359.1499692483292
 20
296.1342311815065
 30
0.0
 10
359.1558569813872
 20
296.1345921009516
 30
0.0
 10
359.1617721763841
 20
296.1343395706213
 30
0.0
 10
359.1733564019014
 20
296.1326341481669
 30
0.0
 10
359.1790011070644
 20
296.1311954231137
 30
0.0
 10
359.1899936444894
 20
296.1271279388542
 30
0.0
 10
359.1953524173967
 20
296.1244743110754
 30
0.0
 10
359.2052822075744
 20
296.118148838989
 30
0.0
 10
359.2099180263158
 20
296.1144601863872
 30
0.0
 10
359.2141977664651
 20
296.1101984180386
 30
0.0
  0
SPLINE
  5
1D7
330
1F
100
AcDbEntity
  8
1
100
AcDbSpline
210
0.0
220
0.0
230
1.0
 70
     8
 71
     3
 72
    12
 73
     8
 74
     0
 42
0.000000001
 43
0.0000000001
 40
0.0
 40
0.0
 40
0.0
 40
0.0
 40
0.1596285972294159
 40
0.1596285972294159
 40
0.3277028777835085
 40
0.3277028777835085
 40
1.0
 40
1.0
 40
1.0
 40
1.0
 10
361.0672509163008
 20
295.8986295333721
 30
0.0
 10
361.0645717826808
 20
295.8910197072258
 30
0.0
 10
361.0616664032917
 20
295.8834558657666
 30
0.0
 10
361.0553175715893
 20
295.8682227481402
 30
0.0
 10
361.0518449300565
 20
295.860541493802
 30
0.0
 10
361.0334210318058
 20
295.8227805412563
 30
0.0
 10
361.0153308991025
 20
295.7946101283993
 30
0.0
 10
360.9938110769389
 20
295.7685328170141
 30
0.0
  0
SPLINE
  5
1D8
330
1F
100
AcDbEntity
  8
1
100
AcDbSpline
210
0.0
220
0.0
230
1.0
 70
     8
 71
     3
 72
    18
 73
    14
 74
     0
 42
0.000000001
 43
0.0000000001
 40
0.0
 40
0.0
 40
0.0
 40
0.0
 40
0.1250000000000817
 40
0.1250000000000817
 40
0.2500000000001634
 40
0.2500000000001634
 40
0.3750000000002451
 40
0.3750000000002451
 40
0.5000000000003269
 40
0.5000000000003269
 40
0.7500000000001635
 40
0.7500000000001635
 40
1.0
 40
1.0
 40
1.0
 40
1.0
 10
360.9938110769389
 20
295.7685328170141
 30
0.0
 10
360.9906530839076
 20
295.7647060210953
 30
0.0
 10
360.9872103777361
 20
295.7612298093033
 30
0.0
 10
360.9797856473256
 20
295.7549426808173
 30
0.0
 10
360.975760040084
 20
295.7521099701343
 30
0.0
 10
360.9674060482051
 20
295.7472730179026
 30
0.0
 10
360.9630825414746
 20
295.7452585514749
 30
0.0
 10
360.9541574777199
 20
295.7420007689452
 30
0.0
 10
360.9495108500377
 20
295.7407511869604
 30
0.0
 10
360.935493701784
 20
295.7382604799997
 30
0.0
 10
360.9260879713412
 20
295.7382324015474
 30
0.0
 10
360.9075137685318
 20
295.7413227649444
 30
0.0
 10
360.8987259332148
 20
295.7443589214341
 30
0.0
 10
360.8904345218547
 20
295.7488695266579
 30
0.0
  0
SPLINE
  5
1D9
330
1F
100
AcDbEntity
  8
1
100
AcDbSpline
210
0.0
220
0.0
230
1.0
 70
     8
 71
     3
 72
    14
 73
    10
 74
     0
 42
0.000000001
 43
0.0000000001
 40
0.0
 40
0.0
 40
0.0
 40
0.0
 40
0.25
 40
0.25
 40
0.5
 40
0.5
 40
0.75
 40
0.75
 40
1.0
 40
1.0
 40
1.0
 40
1.0
 10
360.822349668214
 20
295.7541326650859
 30
0.0
 10
360.8280133698294
 20
295.7561955093644
 30
0.0
 10
360.8338719632421
 20
295.7576124238025
 30
0.0
 10
360.8455351016171
 20
295.7591490057819
 30
0.0
 10
360.8513622480154
 20
295.7592870995814
 30
0.0
 10
360.8630115694772
 20
295.7583376609948
 30
0.0
 10
360.8688175869263
 20
295.7572338158782
 30
0.0
 10
360.8799136893116
 20
295.7539052594194
 30
0.0
 10
360.885271898747
 20
295.7516780418488
 30
0.0
 10
360.8904345218547
 20
295.7488695266579
 30
0.0
  0
SPLINE
  5
1DA
330
1F
100
AcDbEntity
  8
1
100
AcDbSpline
210
0.0
220
0.0
230
1.0
 70
     8
 71
     3
 72
     8
 73
     4
 74
     0
 42
0.000000001
 43
0.0000000001
 40
0.0
 40
0.0
 40
0.0
 40
0.0
 40
1.0
 40
1.0
 40
1.0
 40
1.0
 10
360.5623074806485
 20
295.2978153266703
 30
0.0
 10
360.5602257318296
 20
295.295208233718
 30
0.0
 10
360.5579807023594
 20
295.2927133013693
 30
0.0
 10
360.5555653329883
 20
295.2903354556603
 30
0.0
  0
SPLINE
  5
1DB
330
1F
100
AcDbEntity
  8
1
100
AcDbSpline
210
0.0
220
0.0
230
1.0
 70
     8
 71
     3
 72
     8
 73
     4
 74
     0
 42
0.000000001
 43
0.0000000001
 40
0.0
 40
0.0
 40
0.0
 40
0.0
 40
1.0
 40
1.0
 40
1.0
 40
1.0
 10
351.457314690781
 20
292.1352099404701
 30
0.0
 10
351.3765521573172
 20
292.1809539084623
 30
0.0
 10
351.2958095055187
 20
292.2268421127418
 30
0.0
 10
351.2150857537263
 20
292.2728674316303
 30
0.0
  0
SPLINE
  5
1DC
330
1F
100
AcDbEntity
  8
1
100
AcDbSpline
210
0.0
220
0.0
230
1.0
 70
     8
 71
     3
 72
    10
 73
     6
 74
     0
 42
0.000000001
 43
0.0000000001
 40
0.0
 40
0.0
 40
0.0
 40
0.0
 40
0.5
 40
0.5
 40
1.0
 40
1.0
 40
1.0
 40
1.0
 10
358.4455505384713
 20
292.7571594108826
 30
0.0
 10
358.4072715610621
 20
292.7161214280322
 30
0.0
 10
358.3664287321106
 20
292.6784512811841
 30
0.0
 10
358.2796971354216
 20
292.6094267990047
 30
0.0
 10
358.2336321203285
 20
292.5780016764232
 30
0.0
 10
358.1856654356884
 20
292.5502373915256
 30
0.0
  0
SPLINE
  5
1DD
330
1F
100
AcDbEntity
  8
1
100
AcDbSpline
210
0.0
220
0.0
230
1.0
 70
     8
 71
     3
 72
    18
 73
    14
 74
     0
 42
0.000000001
 43
0.0000000001
 40
0.0
 40
0.0
 40
0.0
 40
0.0
 40
0.2500000000000199
 40
0.2500000000000199
 40
0.5000000000000398
 40
0.5000000000000398
 40
0.5625000000000328
 40
0.5625000000000328
 40
0.6250000000000257
 40
0.6250000000000257
 40
0.7500000000000118
 40
0.7500000000000118
 40
1.0
 40
1.0
 40
1.0
 40
1.0
 10
358.2109690545047
 20
291.8948391637416
 30
0.0
 10
358.0475972137303
 20
291.9151399669652
 30
0.0
 10
357.8770778142052
 20
291.9352388898728
 30
0.0
 10
357.523320261818
 20
291.9773680850116
 30
0.0
 10
357.3400711190332
 20
291.9993865121283
 30
0.0
 10
357.1033869679903
 20
292.0292757781702
 30
0.0
 10
357.0556668350091
 20
292.0353712705279
 30
0.0
 10
356.9594599342786
 20
292.0478246942641
 30
0.0
 10
356.9109113392798
 20
292.0541908760588
 30
0.0
 10
356.7645543371178
 20
292.0736638890513
 30
0.0
 10
356.6663610079535
 20
292.0871017527826
 30
0.0
 10
356.3700003340879
 20
292.1289960195505
 30
0.0
 10
356.1700638830358
 20
292.1590405486436
 30
0.0
 10
355.9678419452958
 20
292.1916514231535
 30
0.0
  0
SPLINE
  5
1DE
330
1F
100
AcDbEntity
  8
1
100
AcDbSpline
210
0.0
220
0.0
230
1.0
 70
     8
 71
     3
 72
    15
 73
    11
 74
     0
 42
0.000000001
 43
0.0000000001
 40
0.0
 40
0.0
 40
0.0
 40
0.0
 40
0.125
 40
0.125
 40
0.1875
 40
0.1875
 40
0.2500000000000001
 40
0.5000000000000001
 40
0.75
 40
1.0
 40
1.0
 40
1.0
 40
1.0
 10
354.7430645109737
 20
292.5370862178001
 30
0.0
 10
354.8840785197731
 20
292.5043580459552
 30
0.0
 10
355.0258005978637
 20
292.4739889906695
 30
0.0
 10
355.2394534531401
 20
292.4320038689178
 30
0.0
 10
355.3108156049757
 20
292.4186111362213
 30
0.0
 10
355.4535604276404
 20
292.3930769068429
 30
0.0
 10
355.8106655737702
 20
292.3323339384873
 30
0.0
 10
356.4556274831257
 20
292.2506508270526
 30
0.0
 10
357.320162530672
 20
292.2001924046188
 30
0.0
 10
357.8995881437003
 20
292.2057089468919
 30
0.0
 10
358.1900824348879
 20
292.218444178966
 30
0.0
  0
SPLINE
  5
1DF
330
1F
100
AcDbEntity
  8
1
100
AcDbSpline
210
0.0
220
0.0
230
1.0
 70
     8
 71
     3
 72
    18
 73
    14
 74
     0
 42
0.000000001
 43
0.0000000001
 40
0.0
 40
0.0
 40
0.0
 40
0.0
 40
0.2500000000000271
 40
0.2500000000000271
 40
0.5000000000000543
 40
0.5000000000000543
 40
0.5625000000000532
 40
0.5625000000000532
 40
0.6250000000000521
 40
0.6250000000000521
 40
0.750000000000035
 40
0.750000000000035
 40
1.0
 40
1.0
 40
1.0
 40
1.0
 10
355.9678419452955
 20
290.5967334023852
 30
0.0
 10
356.1743795616552
 20
290.5745091394006
 30
0.0
 10
356.3776536048189
 20
290.5607552722594
 30
0.0
 10
356.7776765006938
 20
290.5490140855881
 30
0.0
 10
356.9744271645021
 20
290.551030515927
 30
0.0
 10
357.2159558565442
 20
290.5630083908443
 30
0.0
 10
357.2640396819522
 20
290.5658780167477
 30
0.0
 10
357.359749014102
 20
290.5725600838232
 30
0.0
 10
357.4074514847451
 20
290.5763802376757
 30
0.0
 10
357.5490518773493
 20
290.5891736887845
 30
0.0
 10
357.6415530963052
 20
290.5994791679016
 30
0.0
 10
357.9132625539289
 20
290.6353853022545
 30
0.0
 10
358.0867207696054
 20
290.665962798825
 30
0.0
 10
358.2517654277777
 20
290.7024531916324
 30
0.0
  0
SPLINE
  5
1E0
330
1F
100
AcDbEntity
  8
1
100
AcDbSpline
210
0.0
220
0.0
230
1.0
 70
     8
 71
     3
 72
     8
 73
     4
 74
     0
 42
0.000000001
 43
0.0000000001
 40
0.0
 40
0.0
 40
0.0
 40
0.0
 40
1.0
 40
1.0
 40
1.0
 40
1.0
 10
358.1900824349104
 20
292.218444178967
 30
0.0
 10
358.19334861945
 20
292.2185873680739
 30
0.0
 10
358.196615323958
 20
292.2187302136105
 30
0.0
 10
358.1998825489358
 20
292.2188727152454
 30
0.0
  0
SPLINE
  5
1E1
330
1F
100
AcDbEntity
  8
1
100
AcDbSpline
210
0.0
220
0.0
230
1.0
 70
     8
 71
     3
 72
    25
 73
    21
 74
     0
 42
0.000000001
 43
0.0000000001
 40
0.0
 40
0.0
 40
0.0
 40
0.0
 40
0.1249999999999944
 40
0.1249999999999944
 40
0.2499999999999889
 40
0.2499999999999889
 40
0.3749999999999833
 40
0.3749999999999833
 40
0.4999999999999778
 40
0.4999999999999778
 40
0.5312499999999792
 40
0.5312499999999792
 40
0.5624999999999806
 40
0.6249999999999833
 40
0.6249999999999833
 40
0.7499999999999889
 40
0.7499999999999889
 40
0.8749999999999944
 40
0.8749999999999944
 40
1.0
 40
1.0
 40
1.0
 40
1.0
 10
351.4579666318158
 20
292.1161551745163
 30
0.0
 10
351.7080719240001
 20
291.9551289818908
 30
0.0
 10
351.9635685779979
 20
291.8044994313084
 30
0.0
 10
352.4848997441496
 20
291.5238880728237
 30
0.0
 10
352.7507344631227
 20
291.393905073291
 30
0.0
 10
353.292473522643
 20
291.1546559091527
 30
0.0
 10
353.5683775915097
 20
291.0453881367162
 30
0.0
 10
354.1301633122499
 20
290.8478961119424
 30
0.0
 10
354.4160441439618
 20
290.7596694903134
 30
0.0
 10
354.7796937698913
 20
290.6629399556887
 30
0.0
 10
354.8527728289534
 20
290.6442660675136
 30
0.0
 10
354.9989368701606
 20
290.6084365233319
 30
0.0
 10
355.2184156425429
 20
290.5569079456678
 30
0.0
 10
355.4385845971659
 20
290.5119666007168
 30
0.0
 10
355.8798267038242
 20
290.4307488555893
 30
0.0
 10
356.1751920114891
 20
290.3881429485279
 30
0.0
 10
356.768287009437
 20
290.325726140462
 30
0.0
 10
357.0660166924347
 20
290.305914989164
 30
0.0
 10
357.6638514927108
 20
290.2892564324314
 30
0.0
 10
357.9639564324749
 20
290.2924074117386
 30
0.0
 10
358.2652830551107
 20
290.3073634345072
 30
0.0
  0
SPLINE
  5
1E2
330
1F
100
AcDbEntity
  8
1
100
AcDbSpline
210
0.0
220
0.0
230
1.0
 70
     8
 71
     3
 72
    18
 73
    14
 74
     0
 42
0.000000001
 43
0.0000000001
 40
0.0
 40
0.0
 40
0.0
 40
0.0
 40
0.2499999999999961
 40
0.2499999999999961
 40
0.3749999999999942
 40
0.3749999999999942
 40
0.4374999999999933
 40
0.4374999999999933
 40
0.4999999999999921
 40
0.4999999999999921
 40
0.749999999999996
 40
0.749999999999996
 40
1.0
 40
1.0
 40
1.0
 40
1.0
 10
355.9678419452958
 20
290.5967334023847
 30
0.0
 10
355.5709969611733
 20
290.6587238685402
 30
0.0
 10
355.1777663068342
 20
290.7366095725922
 30
0.0
 10
354.5935780190364
 20
290.8784397304448
 30
0.0
 10
354.3997932776846
 20
290.9298912304649
 30
0.0
 10
354.1105782211192
 20
291.013545348607
 30
0.0
 10
354.0144957043715
 20
291.0424891938506
 30
0.0
 10
353.823454538288
 20
291.1023664424753
 30
0.0
 10
353.7284248103102
 20
291.1333201592466
 30
0.0
 10
353.2557099325477
 20
291.2932012388326
 30
0.0
 10
352.8853092715876
 20
291.4374294981079
 30
0.0
 10
352.1597998555626
 20
291.7600600793217
 30
0.0
 10
351.8046911706485
 20
291.9384556053251
 30
0.0
 10
351.457314690781
 20
292.1352099404702
 30
0.0
  0
SPLINE
  5
1E3
330
1F
100
AcDbEntity
  8
1
100
AcDbSpline
210
0.0
220
0.0
230
1.0
 70
     8
 71
     3
 72
     8
 73
     4
 74
     0
 42
0.000000001
 43
0.0000000001
 40
0.0
 40
0.0
 40
0.0
 40
0.0
 40
1.0
 40
1.0
 40
1.0
 40
1.0
 10
354.7430645109738
 20
292.5370862178001
 30
0.0
 10
355.1461844532358
 20
292.4016780044302
 30
0.0
 10
355.5540151546936
 20
292.2862421783739
 30
0.0
 10
355.9678419452958
 20
292.1916514231535
 30
0.0
  0
LINE
  5
200
330
1F
100
AcDbEntity
  8
SK4
100
AcDbLine
 10
214.904842
 20
288.907994
 30
0.0
 11
277.404842
 21
288.907994
 31
0.0
  0
LINE
  5
201
330
1F
100
AcDbEntity
  8
4
100
AcDbLine
 10
270.282259
 20
288.907994
 30
0.0
 11
367.997455
 21
288.907994
 31
0.0
  0
MTEXT
  5
207
330
1F
100
AcDbEntity
  8
SK6
100
AcDbMText
 10
258.520787
 20
241.27662
 30
0.0
 40
3.5
 41
0.0
 71
     7
 72
     5
  1
\W0.7625;803D-21,5-64,5-S25
  7
cesky
 73
     2
 44
0.8433729999999998
  0
MTEXT
  5
318
330
1F
100
AcDbEntity
  8
2
100
AcDbMText
 10
314.815342
 20
327.385163
 30
0.0
 40
3.5
 41
0.0
 71
     7
 72
     5
  1
\W0.8459;89,5
  7
cesky
 73
     2
 44
0.8433729999999998
  0
LINE
  5
319
330
1F
100
AcDbEntity
  8
2
100
AcDbLine
 10
363.904842
 20
299.657994
 30
0.0
 11
363.904842
 21
328.5109970000001
 31
0.0
  0
LINE
  5
31A
330
1F
100
AcDbEntity
  8
2
100
AcDbLine
 10
274.404842
 20
289.907567
 30
0.0
 11
274.404842
 21
328.5109970000001
 31
0.0
  0
LINE
  5
31B
330
1F
100
AcDbEntity
  8
2
100
AcDbLine
 10
363.904842
 20
327.510997
 30
0.0
 11
274.404842
 21
327.510997
 31
0.0
  0
SOLID
  5
31C
330
1F
100
AcDbEntity
  8
2
100
AcDbTrace
 10
363.904842
 20
327.510997
 30
0.0
 11
360.404844
 21
326.893852
 31
0.0
 12
360.40484
 22
328.128141
 32
0.0
 13
360.40484
 23
328.128141
 33
0.0
  0
SOLID
  5
31D
330
1F
100
AcDbEntity
  8
2
100
AcDbTrace
 10
274.404842
 20
327.510997
 30
0.0
 11
277.90484
 21
328.128141
 31
0.0
 12
277.904844
 22
326.893852
 32
0.0
 13
277.904844
 23
326.893852
 33
0.0
  0
MTEXT
  5
31E
330
1F
100
AcDbEntity
  8
2
100
AcDbMText
 10
285.552842
 20
340.562135
 30
0.0
 40
3.5
 41
0.0
 71
     7
 72
     5
  1
\W0.8654;145,5
  7
cesky
 73
     2
 44
0.8433729999999998
  0
LINE
  5
31F
330
1F
100
AcDbEntity
  8
2
100
AcDbLine
 10
363.904842
 20
301.657994
 30
0.0
 11
363.904842
 21
341.687968
 31
0.0
  0
LINE
  5
320
330
1F
100
AcDbEntity
  8
2
100
AcDbLine
 10
218.404842
 20
299.407994
 30
0.0
 11
218.404842
 21
341.687968
 31
0.0
  0
LINE
  5
321
330
1F
100
AcDbEntity
  8
2
100
AcDbLine
 10
363.904842
 20
340.687968
 30
0.0
 11
218.404842
 21
340.687968
 31
0.0
  0
SOLID
  5
322
330
1F
100
AcDbEntity
  8
2
100
AcDbTrace
 10
363.904842
 20
340.687968
 30
0.0
 11
360.404844
 21
340.070823
 31
0.0
 12
360.40484
 22
341.305112
 32
0.0
 13
360.40484
 23
341.305112
 33
0.0
  0
SOLID
  5
323
330
1F
100
AcDbEntity
  8
2
100
AcDbTrace
 10
218.404842
 20
340.687968
 30
0.0
 11
221.90484
 21
341.305112
 31
0.0
 12
221.904844
 22
340.070823
 32
0.0
 13
221.904844
 23
340.070823
 33
0.0
  0
MTEXT
  5
324
330
1F
100
AcDbEntity
  8
2
100
AcDbMText
 10
244.590342
 20
327.385163
 30
0.0
 40
3.5
 41
0.0
 71
     7
 72
     5
  1
\W0.7259;56
  7
cesky
 73
     2
 44
0.8433729999999998
  0
LINE
  5
325
330
1F
100
AcDbEntity
  8
2
100
AcDbLine
 10
274.404842
 20
288.907994
 30
0.0
 11
274.404842
 21
328.5109970000001
 31
0.0
  0
LINE
  5
326
330
1F
100
AcDbEntity
  8
2
100
AcDbLine
 10
218.404842
 20
299.407994
 30
0.0
 11
218.404842
 21
328.5109970000001
 31
0.0
  0
LINE
  5
327
330
1F
100
AcDbEntity
  8
2
100
AcDbLine
 10
274.404842
 20
327.510997
 30
0.0
 11
218.404842
 21
327.510997
 31
0.0
  0
SOLID
  5
328
330
1F
100
AcDbEntity
  8
2
100
AcDbTrace
 10
274.404842
 20
327.510997
 30
0.0
 11
270.904844
 21
326.893852
 31
0.0
 12
270.90484
 22
328.128141
 32
0.0
 13
270.90484
 23
328.128141
 33
0.0
  0
SOLID
  5
329
330
1F
100
AcDbEntity
  8
2
100
AcDbTrace
 10
218.404842
 20
327.510997
 30
0.0
 11
221.90484
 21
328.128141
 31
0.0
 12
221.904844
 22
326.893852
 32
0.0
 13
221.904844
 23
326.893852
 33
0.0
  0
MTEXT
  5
32A
330
1F
100
AcDbEntity
  8
2
100
AcDbMText
 10
324.183773
 20
314.233227
 30
0.0
 40
3.5
 41
0.0
 71
     7
 72
     5
  1
\W0.8459;70,8
  7
cesky
 73
     2
 44
0.8433729999999998
  0
LINE
  5
32B
330
1F
100
AcDbEntity
  8
2
100
AcDbLine
 10
363.904842
 20
301.657994
 30
0.0
 11
363.904842
 21
315.35906
 31
0.0
  0
LINE
  5
32C
330
1F
100
AcDbEntity
  8
2
100
AcDbLine
 10
293.141704
 20
299.477691
 30
0.0
 11
293.141704
 21
315.35906
 31
0.0
  0
LINE
  5
32D
330
1F
100
AcDbEntity
  8
2
100
AcDbLine
 10
363.904842
 20
314.35906
 30
0.0
 11
293.141704
 21
314.35906
 31
0.0
  0
SOLID
  5
32E
330
1F
100
AcDbEntity
  8
2
100
AcDbTrace
 10
363.904842
 20
314.35906
 30
0.0
 11
360.404844
 21
313.741916
 31
0.0
 12
360.40484
 22
314.976205
 32
0.0
 13
360.40484
 23
314.976205
 33
0.0
  0
SOLID
  5
32F
330
1F
100
AcDbEntity
  8
2
100
AcDbTrace
 10
293.141704
 20
314.35906
 30
0.0
 11
296.641702
 21
314.976205
 31
0.0
 12
296.641706
 22
313.741916
 32
0.0
 13
296.641706
 23
313.741916
 33
0.0
  0
MTEXT
  5
330
330
1F
100
AcDbEntity
  8
2
100
AcDbMText
 10
379.087216
 20
281.933467
 30
0.0
 40
3.5
 41
0.0
 71
     7
 72
     5
  1
\W0.9023;21,5
  7
cesky
 11
0.0000000000000001
 21
1.0
 31
0.0
 73
     2
 44
0.8433729999999998
  0
MTEXT
  5
331
330
1F
100
AcDbEntity
  8
2
100
AcDbMText
 10
379.087216
 20
275.195967
 30
0.0
 40
3.5
 41
0.0
 71
     7
 72
     5
  1
\W3.0115;\H2.63;%%c\H3.50;
  7
cesky
 11
0.0000000000000001
 21
1.0
 31
0.0
 73
     2
 44
0.8433729999999998
  0
LINE
  5
332
330
1F
100
AcDbEntity
  8
2
100
AcDbLine
 10
365.904842
 20
299.657994
 30
0.0
 11
380.274632
 21
299.657994
 31
0.0
  0
LINE
  5
333
330
1F
100
AcDbEntity
  8
2
100
AcDbLine
 10
379.274632
 20
299.657994
 30
0.0
 11
379.274632
 21
275.038467
 31
0.0
  0
SOLID
  5
334
330
1F
100
AcDbEntity
  8
2
100
AcDbTrace
 10
379.274632
 20
299.657994
 30
0.0
 11
379.891777
 21
296.157996
 31
0.0
 12
378.657488
 22
296.1579910000001
 32
0.0
 13
378.657488
 23
296.1579910000001
 33
0.0
  0
MTEXT
  5
335
330
1F
100
AcDbEntity
  8
SK2
100
AcDbMText
 10
206.117323
 20
290.434244
 30
0.0
 40
3.5
 41
0.0
 71
     7
 72
     5
  1
\W0.7045;25
  7
cesky
 11
0.0000000000000001
 21
1.0
 31
0.0
 73
     2
 44
0.8433729999999998
  0
MTEXT
  5
336
330
1F
100
AcDbEntity
  8
SK2
100
AcDbMText
 10
206.117323
 20
283.696744
 30
0.0
 40
3.5
 41
0.0
 71
     7
 72
     5
  1
\W3.0115;\H2.63;%%c\H3.50;
  7
cesky
 11
0.0000000000000001
 21
1.0
 31
0.0
 73
     2
 44
0.8433729999999998
  0
LINE
  5
337
330
1F
100
AcDbEntity
  8
SK2
100
AcDbLine
 10
220.404842
 20
301.407994
 30
0.0
 11
205.304739
 21
301.407994
 31
0.0
  0
LINE
  5
338
330
1F
100
AcDbEntity
  8
SK2
100
AcDbLine
 10
220.404842
 20
276.407994
 30
0.0
 11
205.304739
 21
276.407994
 31
0.0
  0
LINE
  5
339
330
1F
100
AcDbEntity
  8
SK2
100
AcDbLine
 10
206.304739
 20
301.407994
 30
0.0
 11
206.304739
 21
276.407994
 31
0.0
  0
SOLID
  5
33A
330
1F
100
AcDbEntity
  8
SK2
100
AcDbTrace
 10
206.304739
 20
301.407994
 30
0.0
 11
206.921884
 21
297.9079959999999
 31
0.0
 12
205.687595
 22
297.907991
 32
0.0
 13
205.687595
 23
297.907991
 33
0.0
  0
SOLID
  5
33B
330
1F
100
AcDbEntity
  8
SK2
100
AcDbTrace
 10
206.304739
 20
276.407994
 30
0.0
 11
205.687595
 21
279.9079910000001
 31
0.0
 12
206.921884
 22
279.907996
 32
0.0
 13
206.921884
 23
279.907996
 33
0.0
  0
MTEXT
  5
33C
330
1F
100
AcDbEntity
  8
SK2
100
AcDbMText
 10
193.332501
 20
290.434244
 30
0.0
 40
3.5
 41
0.0
 71
     7
 72
     5
  1
\W0.7045;35
  7
cesky
 11
0.0000000000000001
 21
1.0
 31
0.0
 73
     2
 44
0.8433729999999998
  0
MTEXT
  5
33D
330
1F
100
AcDbEntity
  8
SK2
100
AcDbMText
 10
193.332501
 20
283.696744
 30
0.0
 40
3.5
 41
0.0
 71
     7
 72
     5
  1
\W3.0115;\H2.63;%%c\H3.50;
  7
cesky
 11
0.0000000000000001
 21
1.0
 31
0.0
 73
     2
 44
0.8433729999999998
  0
LINE
  5
33E
330
1F
100
AcDbEntity
  8
SK2
100
AcDbLine
 10
274.904842
 20
306.407994
 30
0.0
 11
192.519918
 21
306.407994
 31
0.0
  0
LINE
  5
33F
330
1F
100
AcDbEntity
  8
SK2
100
AcDbLine
 10
274.904842
 20
271.407994
 30
0.0
 11
192.519918
 21
271.407994
 31
0.0
  0
LINE
  5
340
330
1F
100
AcDbEntity
  8
SK2
100
AcDbLine
 10
193.519918
 20
306.407994
 30
0.0
 11
193.519918
 21
271.407994
 31
0.0
  0
SOLID
  5
341
330
1F
100
AcDbEntity
  8
SK2
100
AcDbTrace
 10
193.519918
 20
306.407994
 30
0.0
 11
194.137062
 21
302.907996
 31
0.0
 12
192.902773
 22
302.907991
 32
0.0
 13
192.902773
 23
302.907991
 33
0.0
  0
SOLID
  5
342
330
1F
100
AcDbEntity
  8
SK2
100
AcDbTrace
 10
193.519918
 20
271.407994
 30
0.0
 11
192.902773
 21
274.907991
 31
0.0
 12
194.137062
 22
274.9079959999999
 32
0.0
 13
194.137062
 23
274.9079959999999
 33
0.0
  0
LINE
  5
343
330
1F
100
AcDbEntity
  8
CUT
100
AcDbLine
 10
363.2076030401071
 20
299.286940905959
 30
0.0
 11
363.3709235548109
 21
295.6447557788028
 31
0.0
  0
LINE
  5
344
330
1F
100
AcDbEntity
  8
CUT
100
AcDbLine
 10
357.2351618035556
 20
299.3995130333872
 30
0.0
 11
362.8027790582769
 21
299.6550348911198
 31
0.0
  0
LINE
  5
345
330
1F
100
AcDbEntity
  8
CUT
100
AcDbLine
 10
363.8234688800448
 20
294.6549070781752
 30
0.0
 11
363.9017794576005
 21
290.1715901706025
 31
0.0
  0
LINE
  5
348
330
1F
100
AcDbEntity
  8
CUT
100
AcDbLine
 10
363.3713145385368
 20
295.6447733795673
 30
0.0
 11
363.7937097774334
 21
294.7788442904496
 31
0.0
  0
LINE
  5
34A
330
1F
100
AcDbEntity
  8
CUT
100
AcDbLine
 10
356.864853
 20
288.907994
 30
0.0
 11
356.864853
 21
298.995561
 31
0.0
  0
LINE
  5
34B
330
1F
100
AcDbEntity
  8
CUT
100
AcDbLine
 10
363.901779
 20
288.907994
 30
0.0
 11
356.864853
 21
288.907994
 31
0.0
  0
LINE
  5
34C
330
1F
100
AcDbEntity
  8
CUT
100
AcDbLine
 10
363.901779
 20
290.17159
 30
0.0
 11
363.901779
 21
288.907994
 31
0.0
  0
ARC
  5
34D
330
1F
100
AcDbEntity
  8
CUT
100
AcDbCircle
 10
362.8180748543309
 20
299.2649226958302
 30
0.0
 40
0.390411944349335
100
AcDbArc
 50
7.404653888956354
 51
92.24534348624594
  0
ARC
  5
34E
330
1F
100
AcDbEntity
  8
CUT
100
AcDbCircle
 10
362.8410354444883
 20
299.2704605116145
 30
0.0
 40
0.3669378769704369
100
AcDbArc
 50
2.574209010594478
 51
7.009202042811784
  0
LINE
  5
34F
330
1F
100
AcDbEntity
  8
CUT
100
AcDbLine
 10
356.8648534365614
 20
298.9955607408393
 30
0.0
 11
356.8648534365614
 21
298.9955607408393
 31
0.0
  0
ARC
  5
350
330
1F
100
AcDbEntity
  8
CUT
100
AcDbCircle
 10
357.2558434541069
 20
299.0088444771889
 30
0.0
 40
0.3912156073978111
100
AcDbArc
 50
93.03035949059282
 51
181.9458537487859
  0
LINE
  5
351
330
1F
100
AcDbEntity
  8
CUT
100
AcDbLine
 10
363.7937097774333
 20
294.7788442904498
 30
0.0
 11
363.7937097774333
 21
294.7788442904498
 31
0.0
  0
ARC
  5
352
330
1F
100
AcDbEntity
  8
CUT
100
AcDbCircle
 10
363.5291613221743
 20
294.6497810113945
 30
0.0
 40
0.294352195813875
100
AcDbArc
 50
0.9978415094697369
 51
26.00601413315319
  0
ENDSEC
  0
SECTION
  2
OBJECTS
  0
DICTIONARY
  5
C
330
0
100
AcDbDictionary
281
     1
  3
ACAD_CIP_PREVIOUS_PRODUCT_INFO
350
315
  3
ACAD_COLOR
350
310
  3
ACAD_DETAILVIEWSTYLE
350
30C
  3
ACAD_GROUP
350
D
  3
ACAD_LAYOUT
350
1A
  3
ACAD_MATERIAL
350
43
  3
ACAD_MLEADERSTYLE
350
6B
  3
ACAD_MLINESTYLE
350
17
  3
ACAD_PLOTSETTINGS
350
19
  3
ACAD_PLOTSTYLENAME
350
E
  3
ACAD_SCALELIST
350
47
  3
ACAD_SECTIONVIEWSTYLE
350
30D
  3
ACAD_TABLESTYLE
350
69
  3
ACAD_VISUALSTYLE
350
2A
  3
ACDB_RECOMPOSE_DATA
350
37E
  3
AcDbVariableDictionary
350
2C9
  0
DICTIONARY
  5
361
330
10
100
AcDbDictionary
280
     1
281
     1
  3
ADSK_XREC_LAYER_RECONCILED
360
362
  0
DICTIONARY
  5
363
330
353
100
AcDbDictionary
280
     1
281
     1
  3
ADSK_XREC_LAYER_RECONCILED
360
364
  0
DICTIONARY
  5
365
330
354
100
AcDbDictionary
280
     1
281
     1
  3
ADSK_XREC_LAYER_RECONCILED
360
366
  0
DICTIONARY
  5
367
330
355
100
AcDbDictionary
280
     1
281
     1
  3
ADSK_XREC_LAYER_RECONCILED
360
368
  0
DICTIONARY
  5
369
330
357
100
AcDbDictionary
280
     1
281
     1
  3
ADSK_XREC_LAYER_RECONCILED
360
36A
  0
DICTIONARY
  5
36B
330
358
100
AcDbDictionary
280
     1
281
     1
  3
ADSK_XREC_LAYER_RECONCILED
360
36C
  0
DICTIONARY
  5
36D
330
35A
100
AcDbDictionary
280
     1
281
     1
  3
ADSK_XREC_LAYER_RECONCILED
360
36E
  0
DICTIONARY
  5
36F
330
35B
100
AcDbDictionary
280
     1
281
     1
  3
ADSK_XREC_LAYER_RECONCILED
360
370
  0
DICTIONARY
  5
371
330
35C
100
AcDbDictionary
280
     1
281
     1
  3
ADSK_XREC_LAYER_RECONCILED
360
372
  0
DICTIONARY
  5
373
330
35D
100
AcDbDictionary
280
     1
281
     1
  3
ADSK_XREC_LAYER_RECONCILED
360
374
  0
DICTIONARY
  5
375
330
35E
100
AcDbDictionary
280
     1
281
     1
  3
ADSK_XREC_LAYER_RECONCILED
360
376
  0
DICTIONARY
  5
377
330
35F
100
AcDbDictionary
280
     1
281
     1
  3
ADSK_XREC_LAYER_RECONCILED
360
378
  0
DICTIONARY
  5
316
330
1F
100
AcDbDictionary
280
     1
281
     1
  3
ACAD_SORTENTS
360
317
  0
XRECORD
  5
315
102
{ACAD_REACTORS
330
C
102
}
330
C
100
AcDbXrecord
280
     1
300
ACD
300
2019
300
87084ACD_2019_0F
  0
DICTIONARY
  5
310
102
{ACAD_REACTORS
330
C
102
}
330
C
100
AcDbDictionary
281
     1
  0
DICTIONARY
  5
30C
102
{ACAD_REACTORS
330
C
102
}
330
C
100
AcDbDictionary
281
     1
  3
Metric50
350
312
  0
DICTIONARY
  5
D
102
{ACAD_REACTORS
330
C
102
}
330
C
100
AcDbDictionary
281
     1
  3
NULOVY_BOD
350
360
  0
DICTIONARY
  5
1A
102
{ACAD_REACTORS
330
C
102
}
330
C
100
AcDbDictionary
281
     1
  3
Layout1
350
1E
  3
Layout2
350
26
  3
Model
350
22
  0
DICTIONARY
  5
43
102
{ACAD_REACTORS
330
C
102
}
330
C
100
AcDbDictionary
281
     1
  3
ByBlock
350
45
  3
ByLayer
350
44
  3
Global
350
46
  0
DICTIONARY
  5
6B
102
{ACAD_REACTORS
330
C
102
}
330
C
100
AcDbDictionary
281
     1
  3
Standard
350
6C
  0
DICTIONARY
  5
17
102
{ACAD_REACTORS
330
C
102
}
330
C
100
AcDbDictionary
281
     1
  3
Standard
350
18
  0
DICTIONARY
  5
19
102
{ACAD_REACTORS
330
C
102
}
330
C
100
AcDbDictionary
281
     1
  0
ACDBDICTIONARYWDFLT
  5
E
102
{ACAD_REACTORS
330
C
102
}
330
C
100
AcDbDictionary
281
     1
  3
Normal
350
F
100
AcDbDictionaryWithDefault
340
F
  0
DICTIONARY
  5
47
102
{ACAD_REACTORS
330
C
102
}
330
C
100
AcDbDictionary
281
     1
  3
A0
350
48
  3
A1
350
49
  3
A2
350
4A
  3
A3
350
4B
  3
A4
350
4C
  3
A5
350
4D
  3
A6
350
4E
  3
A7
350
4F
  3
A8
350
50
  3
A9
350
51
  3
B0
350
52
  3
B1
350
53
  3
B2
350
54
  3
B3
350
55
  3
B4
350
56
  3
B5
350
57
  3
B6
350
58
  3
B7
350
59
  3
B8
350
5A
  3
B9
350
5B
  3
C0
350
5C
  3
C1
350
5D
  3
C2
350
5E
  3
C3
350
5F
  3
C4
350
60
  3
C5
350
61
  3
C6
350
62
  3
C7
350
63
  3
C8
350
64
  3
C9
350
65
  3
D0
350
66
  3
D1
350
67
  3
D2
350
68
  0
DICTIONARY
  5
30D
102
{ACAD_REACTORS
330
C
102
}
330
C
100
AcDbDictionary
281
     1
  3
Metric50
350
311
  0
DICTIONARY
  5
69
102
{ACAD_REACTORS
330
C
102
}
330
C
100
AcDbDictionary
281
     1
  3
Standard
350
6A
  0
DICTIONARY
  5
2A
102
{ACAD_REACTORS
330
C
102
}
330
C
100
AcDbDictionary
281
     1
  3
2dWireframe
350
2F
  3
Basic
350
32
  3
Brighten
350
36
  3
ColorChange
350
3A
  3
Conceptual
350
34
  3
Dim
350
35
  3
EdgeColorOff
350
3D
  3
Facepattern
350
39
  3
Flat
350
2B
  3
FlatWithEdges
350
2C
  3
Gouraud
350
2D
  3
GouraudWithEdges
350
2E
  3
Hidden
350
31
  3
JitterOff
350
3B
  3
Linepattern
350
38
  3
OverhangOff
350
3C
  3
Realistic
350
33
  3
Shaded
350
42
  3
Shaded with edges
350
41
  3
Shades of Gray
350
3E
  3
Sketchy
350
3F
  3
Thicken
350
37
  3
Wireframe
350
30
  3
X-Ray
350
40
  0
XRECORD
  5
37E
102
{ACAD_REACTORS
330
C
102
}
330
C
100
AcDbXrecord
280
     1
 90
        1
330
6A
  0
DICTIONARY
  5
2C9
102
{ACAD_REACTORS
330
C
102
}
330
C
100
AcDbDictionary
281
     1
  3
CANNOSCALE
350
2CA
  3
CMLEADERSTYLE
350
30B
  3
CTABLESTYLE
350
30A
  3
CVIEWDETAILSTYLE
350
379
  3
CVIEWSECTIONSTYLE
350
37A
  3
MSLTSCALE
350
2CB
  3
XCLIPFRAME
350
37B
  0
XRECORD
  5
362
102
{ACAD_REACTORS
330
361
102
}
330
361
100
AcDbXrecord
280
     1
290
     1
  0
XRECORD
  5
364
102
{ACAD_REACTORS
330
363
102
}
330
363
100
AcDbXrecord
280
     1
290
     1
  0
XRECORD
  5
366
102
{ACAD_REACTORS
330
365
102
}
330
365
100
AcDbXrecord
280
     1
290
     1
  0
XRECORD
  5
368
102
{ACAD_REACTORS
330
367
102
}
330
367
100
AcDbXrecord
280
     1
290
     1
  0
XRECORD
  5
36A
102
{ACAD_REACTORS
330
369
102
}
330
369
100
AcDbXrecord
280
     1
290
     1
  0
XRECORD
  5
36C
102
{ACAD_REACTORS
330
36B
102
}
330
36B
100
AcDbXrecord
280
     1
290
     1
  0
XRECORD
  5
36E
102
{ACAD_REACTORS
330
36D
102
}
330
36D
100
AcDbXrecord
280
     1
290
     1
  0
XRECORD
  5
370
102
{ACAD_REACTORS
330
36F
102
}
330
36F
100
AcDbXrecord
280
     1
290
     1
  0
XRECORD
  5
372
102
{ACAD_REACTORS
330
371
102
}
330
371
100
AcDbXrecord
280
     1
290
     1
  0
XRECORD
  5
374
102
{ACAD_REACTORS
330
373
102
}
330
373
100
AcDbXrecord
280
     1
290
     1
  0
XRECORD
  5
376
102
{ACAD_REACTORS
330
375
102
}
330
375
100
AcDbXrecord
280
     1
290
     1
  0
XRECORD
  5
378
102
{ACAD_REACTORS
330
377
102
}
330
377
100
AcDbXrecord
280
     1
290
     1
  0
SORTENTSTABLE
  5
317
102
{ACAD_REACTORS
330
316
102
}
330
316
100
AcDbSortentsTable
330
1F
331
318
  5
283
331
319
  5
29C
331
31A
  5
318
331
31B
  5
319
331
31C
  5
31A
331
31D
  5
31B
331
31E
  5
31C
331
31F
  5
31D
331
320
  5
31E
331
321
  5
31F
331
322
  5
320
331
323
  5
321
331
324
  5
322
331
325
  5
323
331
326
  5
324
331
327
  5
325
331
328
  5
326
331
329
  5
327
331
32A
  5
328
331
32B
  5
329
331
32C
  5
32A
331
32D
  5
32B
331
32E
  5
32C
331
32F
  5
32D
331
330
  5
32E
331
331
  5
32F
331
332
  5
330
331
333
  5
331
331
334
  5
332
331
348
  5
34D
331
34A
  5
350
331
34B
  5
351
331
34C
  5
352
331
34D
  5
348
331
34E
  5
34A
331
34F
  5
34B
331
350
  5
34C
331
351
  5
34E
331
352
  5
34F
  0
ACDBDETAILVIEWSTYLE
  5
312
102
{ACAD_XDICTIONARY
360
3B2
102
}
102
{ACAD_REACTORS
330
30C
102
}
330
30C
100
AcDbModelDocViewStyle
 70
     0
  3
Metric50
290
     0
100
AcDbDetailViewStyle
 70
     0
 71
     0
 90
        3
 71
     1
340
11
 62
   256
 40
5.0
340
0
 62
   256
 40
5.0
300

 40
0.0
280
     1
 71
     2
340
16
 90
       25
 62
   256
 71
     3
340
11
 62
   256
 40
5.0
 90
        0
 40
15.0
 90
        1
300
%<\AcVar ViewDetailId>% (%<\AcVar ViewScale \f "%sn">%)
 71
     4
340
16
 90
       25
 62
   256
340
16
 90
       25
 62
   256
280
     0
  0
GROUP
  5
360
102
{ACAD_REACTORS
330
D
102
}
330
D
100
AcDbGroup
300

 70
     0
 71
     1
340
73
  0
LAYOUT
  5
1E
102
{ACAD_REACTORS
330
1A
102
}
330
1A
100
AcDbPlotSettings
  1

  2
none_device
  4

  6

 40
0.0
 41
0.0
 42
0.0
 43
0.0
 44
0.0
 45
0.0
 46
0.0
 47
0.0
 48
0.0
 49
0.0
140
0.0
141
0.0
142
1.0
143
1.0
 70
   688
 72
     0
 73
     0
 74
     5
  7

 75
    16
147
1.0
 76
     0
 77
     2
 78
   300
148
0.0
149
0.0
100
AcDbLayout
  1
Layout1
 70
     1
 71
     1
 10
-0.5
 20
-0.5
 11
5.0
 21
5.0
 12
0.0
 22
0.0
 32
0.0
 14
-0.5
 24
-0.5
 34
-0.5
 15
5.0
 25
5.0
 35
5.0
146
0.0
 13
0.0
 23
0.0
 33
0.0
 16
1.0
 26
0.0
 36
0.0
 17
0.0
 27
1.0
 37
0.0
 76
     0
330
1B
  0
LAYOUT
  5
26
102
{ACAD_REACTORS
330
1A
102
}
330
1A
100
AcDbPlotSettings
  1

  2
none_device
  4

  6

 40
0.0
 41
0.0
 42
0.0
 43
0.0
 44
0.0
 45
0.0
 46
0.0
 47
0.0
 48
0.0
 49
0.0
140
0.0
141
0.0
142
1.0
143
1.0
 70
   688
 72
     0
 73
     0
 74
     5
  7

 75
    16
147
1.0
 76
     0
 77
     2
 78
   300
148
0.0
149
0.0
100
AcDbLayout
  1
Layout2
 70
     1
 71
     2
 10
0.0
 20
0.0
 11
0.0
 21
0.0
 12
0.0
 22
0.0
 32
0.0
 14
0.0
 24
0.0
 34
0.0
 15
0.0
 25
0.0
 35
0.0
146
0.0
 13
0.0
 23
0.0
 33
0.0
 16
1.0
 26
0.0
 36
0.0
 17
0.0
 27
1.0
 37
0.0
 76
     0
330
23
  0
LAYOUT
  5
22
102
{ACAD_REACTORS
330
1A
102
}
330
1A
100
AcDbPlotSettings
  1

  2
none_device
  4
Letter_(8.50_x_11.00_Inches)
  6

 40
6.349999999999999
 41
6.349999999999999
 42
6.350005
 43
6.350005
 44
215.9
 45
279.4
 46
0.0
 47
0.0
 48
0.0
 49
0.0
140
0.0
141
0.0
142
1.0
143
1.0
 70
  1712
 72
     0
 73
     0
 74
     0
  7

 75
     0
147
1.0
 76
     0
 77
     2
 78
   300
148
0.0
149
0.0
100
AcDbLayout
  1
Model
 70
     1
 71
     0
 10
-0.5
 20
-0.5
 11
5.0
 21
5.0
 12
0.0
 22
0.0
 32
0.0
 14
-0.5
 24
-0.5
 34
-0.5
 15
5.0
 25
5.0
 35
5.0
146
0.0
 13
0.0
 23
0.0
 33
0.0
 16
1.0
 26
0.0
 36
0.0
 17
0.0
 27
1.0
 37
0.0
 76
     0
330
1F
331
29
  0
MATERIAL
  5
45
102
{ACAD_XDICTIONARY
360
2FF
102
}
102
{ACAD_REACTORS
330
43
102
}
330
43
100
AcDbMaterial
  1
ByBlock
  0
MATERIAL
  5
44
102
{ACAD_XDICTIONARY
360
2FD
102
}
102
{ACAD_REACTORS
330
43
102
}
330
43
100
AcDbMaterial
  1
ByLayer
  0
MATERIAL
  5
46
102
{ACAD_XDICTIONARY
360
301
102
}
102
{ACAD_REACTORS
330
43
102
}
330
43
100
AcDbMaterial
  1
Global
  0
MLEADERSTYLE
  5
6C
102
{ACAD_REACTORS
330
6B
102
}
330
6B
100
AcDbMLeaderStyle
170
     2
171
     1
172
     0
 90
        2
 40
0.0
 41
0.0
173
     1
 91
-1056964608
340
14
 92
       -2
290
     1
 42
0.09
291
     1
 43
0.36
  3
Standard
 44
0.18
300

342
11
174
     1
178
     6
175
     1
176
     0
 93
-1056964608
 45
0.18
292
     0
297
     0
 46
0.18
 94
-1056964608
 47
1.0
 49
1.0
140
1.0
293
     1
141
0.0
294
     1
177
     0
142
1.0
295
     0
296
     0
143
0.125
1001
ACAD_MLEADERVER
1070
     2
  0
MLINESTYLE
  5
18
102
{ACAD_REACTORS
330
17
102
}
330
17
100
AcDbMlineStyle
  2
STANDARD
 70
     0
  3

 62
   256
 51
90.0
 52
90.0
 71
     2
 49
0.5
 62
   256
  6
BYLAYER
 49
-0.5
 62
   256
  6
BYLAYER
  0
ACDBPLACEHOLDER
  5
F
102
{ACAD_REACTORS
330
E
102
}
330
E
  0
SCALE
  5
48
102
{ACAD_REACTORS
330
47
102
}
330
47
100
AcDbScale
 70
     0
300
1:1
140
1.0
141
1.0
290
     1
  0
SCALE
  5
49
102
{ACAD_REACTORS
330
47
102
}
330
47
100
AcDbScale
 70
     0
300
1:2
140
1.0
141
2.0
290
     0
  0
SCALE
  5
4A
102
{ACAD_REACTORS
330
47
102
}
330
47
100
AcDbScale
 70
     0
300
1:4
140
1.0
141
4.0
290
     0
  0
SCALE
  5
4B
102
{ACAD_REACTORS
330
47
102
}
330
47
100
AcDbScale
 70
     0
300
1:5
140
1.0
141
5.0
290
     0
  0
SCALE
  5
4C
102
{ACAD_REACTORS
330
47
102
}
330
47
100
AcDbScale
 70
     0
300
1:8
140
1.0
141
8.0
290
     0
  0
SCALE
  5
4D
102
{ACAD_REACTORS
330
47
102
}
330
47
100
AcDbScale
 70
     0
300
1:10
140
1.0
141
10.0
290
     0
  0
SCALE
  5
4E
102
{ACAD_REACTORS
330
47
102
}
330
47
100
AcDbScale
 70
     0
300
1:16
140
1.0
141
16.0
290
     0
  0
SCALE
  5
4F
102
{ACAD_REACTORS
330
47
102
}
330
47
100
AcDbScale
 70
     0
300
1:20
140
1.0
141
20.0
290
     0
  0
SCALE
  5
50
102
{ACAD_REACTORS
330
47
102
}
330
47
100
AcDbScale
 70
     0
300
1:30
140
1.0
141
30.0
290
     0
  0
SCALE
  5
51
102
{ACAD_REACTORS
330
47
102
}
330
47
100
AcDbScale
 70
     0
300
1:40
140
1.0
141
40.0
290
     0
  0
SCALE
  5
52
102
{ACAD_REACTORS
330
47
102
}
330
47
100
AcDbScale
 70
     0
300
1:50
140
1.0
141
50.0
290
     0
  0
SCALE
  5
53
102
{ACAD_REACTORS
330
47
102
}
330
47
100
AcDbScale
 70
     0
300
1:100
140
1.0
141
100.0
290
     0
  0
SCALE
  5
54
102
{ACAD_REACTORS
330
47
102
}
330
47
100
AcDbScale
 70
     0
300
2:1
140
2.0
141
1.0
290
     0
  0
SCALE
  5
55
102
{ACAD_REACTORS
330
47
102
}
330
47
100
AcDbScale
 70
     0
300
4:1
140
4.0
141
1.0
290
     0
  0
SCALE
  5
56
102
{ACAD_REACTORS
330
47
102
}
330
47
100
AcDbScale
 70
     0
300
8:1
140
8.0
141
1.0
290
     0
  0
SCALE
  5
57
102
{ACAD_REACTORS
330
47
102
}
330
47
100
AcDbScale
 70
     0
300
10:1
140
10.0
141
1.0
290
     0
  0
SCALE
  5
58
102
{ACAD_REACTORS
330
47
102
}
330
47
100
AcDbScale
 70
     0
300
100:1
140
100.0
141
1.0
290
     0
  0
SCALE
  5
59
102
{ACAD_REACTORS
330
47
102
}
330
47
100
AcDbScale
 70
     0
300
1/128" = 1'-0"
140
0.007812
141
12.0
290
     0
  0
SCALE
  5
5A
102
{ACAD_REACTORS
330
47
102
}
330
47
100
AcDbScale
 70
     0
300
1/64" = 1'-0"
140
0.015625
141
12.0
290
     0
  0
SCALE
  5
5B
102
{ACAD_REACTORS
330
47
102
}
330
47
100
AcDbScale
 70
     0
300
1/32" = 1'-0"
140
0.03125
141
12.0
290
     0
  0
SCALE
  5
5C
102
{ACAD_REACTORS
330
47
102
}
330
47
100
AcDbScale
 70
     0
300
1/16" = 1'-0"
140
0.0625
141
12.0
290
     0
  0
SCALE
  5
5D
102
{ACAD_REACTORS
330
47
102
}
330
47
100
AcDbScale
 70
     0
300
3/32" = 1'-0"
140
0.09375
141
12.0
290
     0
  0
SCALE
  5
5E
102
{ACAD_REACTORS
330
47
102
}
330
47
100
AcDbScale
 70
     0
300
1/8" = 1'-0"
140
0.125
141
12.0
290
     0
  0
SCALE
  5
5F
102
{ACAD_REACTORS
330
47
102
}
330
47
100
AcDbScale
 70
     0
300
3/16" = 1'-0"
140
0.1875
141
12.0
290
     0
  0
SCALE
  5
60
102
{ACAD_REACTORS
330
47
102
}
330
47
100
AcDbScale
 70
     0
300
1/4" = 1'-0"
140
0.25
141
12.0
290
     0
  0
SCALE
  5
61
102
{ACAD_REACTORS
330
47
102
}
330
47
100
AcDbScale
 70
     0
300
3/8" = 1'-0"
140
0.375
141
12.0
290
     0
  0
SCALE
  5
62
102
{ACAD_REACTORS
330
47
102
}
330
47
100
AcDbScale
 70
     0
300
1/2" = 1'-0"
140
0.5
141
12.0
290
     0
  0
SCALE
  5
63
102
{ACAD_REACTORS
330
47
102
}
330
47
100
AcDbScale
 70
     0
300
3/4" = 1'-0"
140
0.75
141
12.0
290
     0
  0
SCALE
  5
64
102
{ACAD_REACTORS
330
47
102
}
330
47
100
AcDbScale
 70
     0
300
1" = 1'-0"
140
1.0
141
12.0
290
     0
  0
SCALE
  5
65
102
{ACAD_REACTORS
330
47
102
}
330
47
100
AcDbScale
 70
     0
300
1-1/2" = 1'-0"
140
1.5
141
12.0
290
     0
  0
SCALE
  5
66
102
{ACAD_REACTORS
330
47
102
}
330
47
100
AcDbScale
 70
     0
300
3" = 1'-0"
140
3.0
141
12.0
290
     0
  0
SCALE
  5
67
102
{ACAD_REACTORS
330
47
102
}
330
47
100
AcDbScale
 70
     0
300
6" = 1'-0"
140
6.0
141
12.0
290
     0
  0
SCALE
  5
68
102
{ACAD_REACTORS
330
47
102
}
330
47
100
AcDbScale
 70
     0
300
1'-0" = 1'-0"
140
12.0
141
12.0
290
     0
  0
ACDBSECTIONVIEWSTYLE
  5
311
102
{ACAD_XDICTIONARY
360
3B0
102
}
102
{ACAD_REACTORS
330
30D
102
}
330
30D
100
AcDbModelDocViewStyle
 70
     0
  3
Metric50
290
     0
100
AcDbSectionViewStyle
 70
     0
 71
     0
 90
      102
 71
     1
340
11
 62
   256
 40
5.0
340
0
340
0
 62
   256
 40
5.0
300
I, O, Q, S, X, Z
 40
10.0
 90
        0
 40
2.5
 90
        0
 71
     2
340
16
 90
       25
 62
   256
340
16
 90
       50
 62
   256
 40
5.0
 40
2.5
 40
5.0
 71
     3
340
11
 62
   256
 40
5.0
 90
        0
 40
15.0
 90
        1
300
%<\AcVar ViewSectionStartId>%-%<\AcVar ViewSectionEndId>% (%<\AcVar ViewScale \f "%sn">%)
 71
     4
 62
   256
 62
   257
300
ANSI31
 40
1.0
 90
        0
290
     0
290
     0
 90
        6
 40
0.0
 40
1.570796326794896
 40
0.2617993877991494
 40
1.308996938995747
 40
-0.2617993877991494
 40
1.832595714594046
  0
TABLESTYLE
  5
6A
102
{ACAD_XDICTIONARY
360
303
102
}
102
{ACAD_REACTORS
330
69
102
}
330
69
100
AcDbTableStyle
  3
Standard
 70
     0
 71
     0
 40
0.06
 41
0.06
280
     0
281
     0
  7
Standard
140
0.18
170
     2
 62
     0
 63
     7
283
     0
274
    -2
284
     1
 64
     0
275
    -2
285
     1
 65
     0
276
    -2
286
     1
 66
     0
277
    -2
287
     1
 67
     0
278
    -2
288
     1
 68
     0
279
    -2
289
     1
 69
     0
  7
Standard
140
0.25
170
     5
 62
     0
 63
     7
283
     0
274
    -2
284
     1
 64
     0
275
    -2
285
     1
 65
     0
276
    -2
286
     1
 66
     0
277
    -2
287
     1
 67
     0
278
    -2
288
     1
 68
     0
279
    -2
289
     1
 69
     0
  7
Standard
140
0.18
170
     5
 62
     0
 63
     7
283
     0
274
    -2
284
     1
 64
     0
275
    -2
285
     1
 65
     0
276
    -2
286
     1
 66
     0
277
    -2
287
     1
 67
     0
278
    -2
288
     1
 68
     0
279
    -2
289
     1
 69
     0
  0
VISUALSTYLE
  5
2F
102
{ACAD_XDICTIONARY
360
387
102
}
102
{ACAD_REACTORS
330
2A
102
}
330
2A
100
AcDbVisualStyle
  2

 70
     4
 71
     0
 72
     2
 73
     0
 90
        0
 40
-0.6
 41
-30.0
 62
     5
 63
     7
421
 16777215
 74
     1
 91
        4
 64
     7
 65
   257
 75
     1
175
     1
 42
1.0
 92
        0
 66
   257
 43
1.0
 76
     1
 77
     6
 78
     2
 67
     7
 79
     5
170
     0
171
     0
290
     0
174
     0
 93
        1
 44
0.0
173
     0
291
     0
 45
0.0
1001
ACAD
1000
AcDbSavedByObjectVersion
1070
     0
  0
VISUALSTYLE
  5
32
102
{ACAD_XDICTIONARY
360
38D
102
}
102
{ACAD_REACTORS
330
2A
102
}
330
2A
100
AcDbVisualStyle
  2

 70
     7
 71
     1
 72
     0
 73
     1
 90
        0
 40
-0.6
 41
-30.0
 62
     5
 63
     7
421
 16777215
 74
     0
 91
        4
 64
     7
 65
   257
 75
     1
175
     1
 42
1.0
 92
        8
 66
     7
 43
1.0
 76
     1
 77
     6
 78
     2
 67
     7
 79
     5
170
     0
171
     0
290
     0
174
     0
 93
        1
 44
0.0
173
     0
291
     1
 45
0.0
1001
ACAD
1000
AcDbSavedByObjectVersion
1070
     0
  0
VISUALSTYLE
  5
36
102
{ACAD_XDICTIONARY
360
395
102
}
102
{ACAD_REACTORS
330
2A
102
}
330
2A
100
AcDbVisualStyle
  2

 70
    12
 71
     2
 72
     2
 73
     0
 90
        0
 40
-0.6
 41
-30.0
 62
     5
 63
     7
421
 16777215
 74
     1
 91
        4
 64
     7
 65
   257
 75
     1
175
     1
 42
1.0
 92
        8
 66
     7
 43
1.0
 76
     1
 77
     6
 78
     2
 67
     7
 79
     5
170
     0
171
     0
290
     0
174
     0
 93
        1
 44
50.0
173
     0
291
     1
 45
0.0
1001
ACAD
1000
AcDbSavedByObjectVersion
1070
     0
  0
VISUALSTYLE
  5
3A
102
{ACAD_XDICTIONARY
360
39D
102
}
102
{ACAD_REACTORS
330
2A
102
}
330
2A
100
AcDbVisualStyle
  2

 70
    16
 71
     2
 72
     2
 73
     3
 90
        0
 40
-0.6
 41
-30.0
 62
     5
 63
     8
421
  8421504
 74
     1
 91
        4
 64
     7
 65
   257
 75
     1
175
     1
 42
1.0
 92
        8
 66
     8
424
  8421504
 43
1.0
 76
     1
 77
     6
 78
     2
 67
     7
 79
     5
170
     0
171
     0
290
     0
174
     0
 93
        1
 44
0.0
173
     0
291
     1
 45
0.0
1001
ACAD
1000
AcDbSavedByObjectVersion
1070
     0
  0
VISUALSTYLE
  5
34
102
{ACAD_XDICTIONARY
360
391
102
}
102
{ACAD_REACTORS
330
2A
102
}
330
2A
100
AcDbVisualStyle
  2

 70
     9
 71
     3
 72
     2
 73
     0
 90
        0
 40
-0.6
 41
-30.0
 62
     5
 63
     7
421
 16777215
 74
     2
 91
        2
 64
     7
 65
   257
 75
     1
175
     1
 42
179.0
 92
        8
 66
     7
 43
1.0
 76
     1
 77
     6
 78
     2
 67
     7
 79
     3
170
     0
171
     0
290
     0
174
     0
 93
        1
 44
0.0
173
     0
291
     0
 45
0.0
1001
ACAD
1000
AcDbSavedByObjectVersion
1070
     0
  0
VISUALSTYLE
  5
35
102
{ACAD_XDICTIONARY
360
393
102
}
102
{ACAD_REACTORS
330
2A
102
}
330
2A
100
AcDbVisualStyle
  2

 70
    11
 71
     2
 72
     2
 73
     0
 90
        0
 40
-0.6
 41
-30.0
 62
     5
 63
     7
421
 16777215
 74
     1
 91
        4
 64
     7
 65
   257
 75
     1
175
     1
 42
1.0
 92
        8
 66
     7
 43
1.0
 76
     1
 77
     6
 78
     2
 67
     7
 79
     5
170
     0
171
     0
290
     0
174
     0
 93
        1
 44
-50.0
173
     0
291
     1
 45
0.0
1001
ACAD
1000
AcDbSavedByObjectVersion
1070
     0
  0
VISUALSTYLE
  5
3D
102
{ACAD_XDICTIONARY
360
3A3
102
}
102
{ACAD_REACTORS
330
2A
102
}
330
2A
100
AcDbVisualStyle
  2

 70
    22
 71
     2
 72
     2
 73
     0
 90
        0
 40
-0.6
 41
-30.0
 62
     5
 63
     7
421
 16777215
 74
     1
 91
        4
 64
     7
 65
   257
 75
     1
175
     1
 42
1.0
 92
        8
 66
     7
 43
1.0
 76
     1
 77
     6
 78
     2
 67
     7
 79
     5
170
     0
171
     0
290
     0
174
     0
 93
        1
 44
0.0
173
     0
291
     1
 45
0.0
1001
ACAD
1000
AcDbSavedByObjectVersion
1070
     0
  0
VISUALSTYLE
  5
39
102
{ACAD_XDICTIONARY
360
39B
102
}
102
{ACAD_REACTORS
330
2A
102
}
330
2A
100
AcDbVisualStyle
  2

 70
    15
 71
     2
 72
     2
 73
     0
 90
        0
 40
-0.6
 41
-30.0
 62
     5
 63
     7
421
 16777215
 74
     1
 91
        4
 64
     7
 65
   257
 75
     1
175
     1
 42
1.0
 92
        8
 66
     7
 43
1.0
 76
     1
 77
     6
 78
     2
 67
     7
 79
     5
170
     0
171
     0
290
     0
174
     0
 93
        1
 44
0.0
173
     0
291
     1
 45
0.0
1001
ACAD
1000
AcDbSavedByObjectVersion
1070
     0
  0
VISUALSTYLE
  5
2B
102
{ACAD_XDICTIONARY
360
37F
102
}
102
{ACAD_REACTORS
330
2A
102
}
330
2A
100
AcDbVisualStyle
  2

 70
     0
 71
     2
 72
     1
 73
     1
 90
        2
 40
-0.6
 41
30.0
 62
     5
 63
     7
421
 16777215
 74
     0
 91
        0
 64
     7
 65
   257
 75
     1
175
     1
 42
1.0
 92
        8
 66
     7
 43
1.0
 76
     1
 77
     6
 78
     2
 67
     7
 79
     5
170
     0
171
     0
290
     0
174
     0
 93
       13
 44
0.0
173
     0
291
     1
 45
0.0
1001
ACAD
1000
AcDbSavedByObjectVersion
1070
     0
  0
VISUALSTYLE
  5
2C
102
{ACAD_XDICTIONARY
360
381
102
}
102
{ACAD_REACTORS
330
2A
102
}
330
2A
100
AcDbVisualStyle
  2

 70
     1
 71
     2
 72
     1
 73
     1
 90
        2
 40
-0.6
 41
30.0
 62
     5
 63
     7
421
 16777215
 74
     1
 91
        0
 64
     7
 65
   257
 75
     1
175
     1
 42
1.0
 92
        0
 66
   257
 43
1.0
 76
     1
 77
     6
 78
     2
 67
     7
 79
     5
170
     0
171
     0
290
     0
174
     0
 93
       13
 44
0.0
173
     0
291
     1
 45
0.0
1001
ACAD
1000
AcDbSavedByObjectVersion
1070
     0
  0
VISUALSTYLE
  5
2D
102
{ACAD_XDICTIONARY
360
383
102
}
102
{ACAD_REACTORS
330
2A
102
}
330
2A
100
AcDbVisualStyle
  2

 70
     2
 71
     2
 72
     2
 73
     1
 90
        2
 40
-0.6
 41
30.0
 62
     5
 63
     7
421
 16777215
 74
     0
 91
        0
 64
     7
 65
   257
 75
     1
175
     1
 42
1.0
 92
        0
 66
     7
 43
1.0
 76
     1
 77
     6
 78
     2
 67
     7
 79
     5
170
     0
171
     0
290
     0
174
     0
 93
       13
 44
0.0
173
     0
291
     1
 45
0.0
1001
ACAD
1000
AcDbSavedByObjectVersion
1070
     0
  0
VISUALSTYLE
  5
2E
102
{ACAD_XDICTIONARY
360
385
102
}
102
{ACAD_REACTORS
330
2A
102
}
330
2A
100
AcDbVisualStyle
  2

 70
     3
 71
     2
 72
     2
 73
     1
 90
        2
 40
-0.6
 41
30.0
 62
     5
 63
     7
421
 16777215
 74
     1
 91
        0
 64
     7
 65
   257
 75
     1
175
     1
 42
1.0
 92
        0
 66
   257
 43
1.0
 76
     1
 77
     6
 78
     2
 67
     7
 79
     5
170
     0
171
     0
290
     0
174
     0
 93
       13
 44
0.0
173
     0
291
     1
 45
0.0
1001
ACAD
1000
AcDbSavedByObjectVersion
1070
     0
  0
VISUALSTYLE
  5
31
102
{ACAD_XDICTIONARY
360
38B
102
}
102
{ACAD_REACTORS
330
2A
102
}
330
2A
100
AcDbVisualStyle
  2

 70
     6
 71
     1
 72
     2
 73
     2
 90
        0
 40
-0.6
 41
-30.0
 62
     5
 63
     7
421
 16777215
 74
     2
 91
        2
 64
     7
 65
   257
 75
     2
175
     1
 42
40.0
 92
        0
 66
   257
 43
1.0
 76
     1
 77
     6
 78
     2
 67
     7
 79
     3
170
     0
171
     0
290
     0
174
     0
 93
        1
 44
0.0
173
     0
291
     0
 45
0.0
1001
ACAD
1000
AcDbSavedByObjectVersion
1070
     0
  0
VISUALSTYLE
  5
3B
102
{ACAD_XDICTIONARY
360
39F
102
}
102
{ACAD_REACTORS
330
2A
102
}
330
2A
100
AcDbVisualStyle
  2

 70
    20
 71
     2
 72
     2
 73
     0
 90
        0
 40
-0.6
 41
-30.0
 62
     5
 63
     7
421
 16777215
 74
     1
 91
        4
 64
     7
 65
   257
 75
     1
175
     1
 42
1.0
 92
       10
 66
     7
 43
1.0
 76
     1
 77
     6
 78
     2
 67
     7
 79
     5
170
     0
171
     0
290
     0
174
     0
 93
        1
 44
0.0
173
     0
291
     1
 45
0.0
1001
ACAD
1000
AcDbSavedByObjectVersion
1070
     0
  0
VISUALSTYLE
  5
38
102
{ACAD_XDICTIONARY
360
399
102
}
102
{ACAD_REACTORS
330
2A
102
}
330
2A
100
AcDbVisualStyle
  2

 70
    14
 71
     2
 72
     2
 73
     0
 90
        0
 40
-0.6
 41
-30.0
 62
     5
 63
     7
421
 16777215
 74
     1
 91
        4
 64
     7
 65
   257
 75
     7
175
     7
 42
1.0
 92
        8
 66
     7
 43
1.0
 76
     1
 77
     6
 78
     2
 67
     7
 79
     5
170
     0
171
     0
290
     0
174
     0
 93
        1
 44
0.0
173
     0
291
     1
 45
0.0
1001
ACAD
1000
AcDbSavedByObjectVersion
1070
     0
  0
VISUALSTYLE
  5
3C
102
{ACAD_XDICTIONARY
360
3A1
102
}
102
{ACAD_REACTORS
330
2A
102
}
330
2A
100
AcDbVisualStyle
  2

 70
    21
 71
     2
 72
     2
 73
     0
 90
        0
 40
-0.6
 41
-30.0
 62
     5
 63
     7
421
 16777215
 74
     1
 91
        4
 64
     7
 65
   257
 75
     1
175
     1
 42
1.0
 92
        9
 66
     7
 43
1.0
 76
     1
 77
     6
 78
     2
 67
     7
 79
     5
170
     0
171
     0
290
     0
174
     0
 93
        1
 44
0.0
173
     0
291
     1
 45
0.0
1001
ACAD
1000
AcDbSavedByObjectVersion
1070
     0
  0
VISUALSTYLE
  5
33
102
{ACAD_XDICTIONARY
360
38F
102
}
102
{ACAD_REACTORS
330
2A
102
}
330
2A
100
AcDbVisualStyle
  2

 70
     8
 71
     2
 72
     3
 73
     0
 90
        2
 40
-0.6
 41
30.0
 62
     5
 63
     7
421
 16777215
 74
     0
 91
        0
 64
     7
 65
   257
 75
     1
175
     1
 42
1.0
 92
        8
 66
   257
 43
1.0
 76
     1
 77
     6
 78
     2
 67
     7
 79
     3
170
     0
171
     0
290
     0
174
     0
 93
       13
 44
0.0
173
     0
291
     0
 45
0.0
1001
ACAD
1000
AcDbSavedByObjectVersion
1070
     0
  0
VISUALSTYLE
  5
42
102
{ACAD_XDICTIONARY
360
3AD
102
}
102
{ACAD_REACTORS
330
2A
102
}
330
2A
100
AcDbVisualStyle
  2

 70
    27
 71
     2
 72
     2
 73
     1
 90
        2
 40
-0.6
 41
30.0
 62
     5
 63
     7
421
 16777215
 74
     0
 91
        4
 64
     7
 65
   257
 75
     1
175
     1
 42
1.0
 92
        8
 66
   257
 43
1.0
 76
     1
 77
     6
 78
     2
 67
     8
425
  7895160
 79
     3
170
     0
171
     0
290
     0
174
     0
 93
        5
 44
0.0
173
     0
291
     0
 45
0.0
1001
ACAD
1000
AcDbSavedByObjectVersion
1070
     0
  0
VISUALSTYLE
  5
41
102
{ACAD_XDICTIONARY
360
3AB
102
}
102
{ACAD_REACTORS
330
2A
102
}
330
2A
100
AcDbVisualStyle
  2

 70
    26
 71
     2
 72
     2
 73
     1
 90
        2
 40
-0.6
 41
30.0
 62
     5
 63
     7
421
 16777215
 74
     1
 91
       10
 64
     7
 65
   257
 75
     2
175
     1
 42
1.0
 92
        8
 66
   257
 43
1.0
 76
     1
 77
     6
 78
     2
 67
     7
 79
     3
170
     0
171
     0
290
     0
174
     0
 93
        5
 44
0.0
173
     0
291
     0
 45
0.0
1001
ACAD
1000
AcDbSavedByObjectVersion
1070
     0
  0
VISUALSTYLE
  5
3E
102
{ACAD_XDICTIONARY
360
3A5
102
}
102
{ACAD_REACTORS
330
2A
102
}
330
2A
100
AcDbVisualStyle
  2

 70
    23
 71
     2
 72
     2
 73
     3
 90
        0
 40
-0.6
 41
-30.0
 62
     5
 63
     7
421
 16777215
 74
     2
 91
        2
 64
     7
 65
     7
 75
     1
175
     1
 42
40.0
 92
        8
 66
     7
 43
1.0
 76
     1
 77
     6
 78
     2
 67
     7
 79
     3
170
     0
171
     0
290
     0
174
     0
 93
        1
 44
0.0
173
     0
291
     0
 45
0.0
1001
ACAD
1000
AcDbSavedByObjectVersion
1070
     0
  0
VISUALSTYLE
  5
3F
102
{ACAD_XDICTIONARY
360
3A7
102
}
102
{ACAD_REACTORS
330
2A
102
}
330
2A
100
AcDbVisualStyle
  2

 70
    24
 71
     1
 72
     2
 73
     2
 90
        0
 40
-0.6
 41
-30.0
 62
     5
 63
     7
421
 16777215
 74
     2
 91
        2
 64
     7
 65
     7
 75
     1
175
     1
 42
40.0
 92
       11
 66
     7
 43
1.0
 76
     1
 77
     6
 78
     2
 67
     7
 79
     6
170
     0
171
     0
290
     0
174
     0
 93
        1
 44
0.0
173
     0
291
     0
 45
0.0
1001
ACAD
1000
AcDbSavedByObjectVersion
1070
     0
  0
VISUALSTYLE
  5
37
102
{ACAD_XDICTIONARY
360
397
102
}
102
{ACAD_REACTORS
330
2A
102
}
330
2A
100
AcDbVisualStyle
  2

 70
    13
 71
     2
 72
     2
 73
     0
 90
        0
 40
-0.6
 41
-30.0
 62
     5
 63
     7
421
 16777215
 74
     1
 91
        4
 64
     7
 65
   257
 75
     1
175
     1
 42
1.0
 92
       12
 66
     7
 43
1.0
 76
     1
 77
     6
 78
     2
 67
     7
 79
     5
170
     0
171
     0
290
     0
174
     0
 93
        1
 44
0.0
173
     0
291
     1
 45
0.0
1001
ACAD
1000
AcDbSavedByObjectVersion
1070
     0
  0
VISUALSTYLE
  5
30
102
{ACAD_XDICTIONARY
360
389
102
}
102
{ACAD_REACTORS
330
2A
102
}
330
2A
100
AcDbVisualStyle
  2

 70
     5
 71
     0
 72
     2
 73
     0
 90
        0
 40
-0.6
 41
-30.0
 62
     5
 63
     7
421
 16777215
 74
     1
 91
        4
 64
     7
 65
   257
 75
     1
175
     1
 42
1.0
 92
        0
 66
   257
 43
1.0
 76
     1
 77
     6
 78
     2
 67
     7
 79
     3
170
     0
171
     0
290
     0
174
     0
 93
        1
 44
0.0
173
     0
291
     0
 45
0.0
1001
ACAD
1000
AcDbSavedByObjectVersion
1070
     0
  0
VISUALSTYLE
  5
40
102
{ACAD_XDICTIONARY
360
3A9
102
}
102
{ACAD_REACTORS
330
2A
102
}
330
2A
100
AcDbVisualStyle
  2

 70
    25
 71
     2
 72
     2
 73
     1
 90
        1
 40
0.5
 41
-30.0
 62
     5
 63
     7
421
 16777215
 74
     1
 91
        0
 64
     7
 65
   257
 75
     1
175
     1
 42
1.0
 92
        8
 66
     7
 43
1.0
 76
     1
 77
     6
 78
     2
 67
     7
 79
     3
170
     0
171
     0
290
     0
174
     0
 93
       13
 44
0.0
173
     0
291
     0
 45
0.0
1001
ACAD
1000
AcDbSavedByObjectVersion
1070
     0
  0
DICTIONARYVAR
  5
2CA
102
{ACAD_REACTORS
330
2C9
102
}
330
2C9
100
DictionaryVariables
280
     0
  1
1:1
  0
DICTIONARYVAR
  5
30B
102
{ACAD_REACTORS
330
2C9
102
}
330
2C9
100
DictionaryVariables
280
     0
  1
STANDARD
  0
DICTIONARYVAR
  5
30A
102
{ACAD_REACTORS
330
2C9
102
}
330
2C9
100
DictionaryVariables
280
     0
  1
STANDARD
  0
DICTIONARYVAR
  5
379
102
{ACAD_REACTORS
330
2C9
102
}
330
2C9
100
DictionaryVariables
280
     0
  1
Metric50
  0
DICTIONARYVAR
  5
37A
102
{ACAD_REACTORS
330
2C9
102
}
330
2C9
100
DictionaryVariables
280
     0
  1
Metric50
  0
DICTIONARYVAR
  5
2CB
102
{ACAD_REACTORS
330
2C9
102
}
330
2C9
100
DictionaryVariables
280
     0
  1
1
  0
DICTIONARYVAR
  5
37B
102
{ACAD_REACTORS
330
2C9
102
}
330
2C9
100
DictionaryVariables
280
     0
  1
2
  0
DICTIONARY
  5
3B2
330
312
100
AcDbDictionary
280
     1
281
     1
  3
ACAD_XREC_ROUNDTRIP
360
3B3
  0
DICTIONARY
  5
2FF
330
45
100
AcDbDictionary
280
     1
281
     1
  3
ACAD_XREC_ROUNDTRIP
360
300
  0
DICTIONARY
  5
2FD
330
44
100
AcDbDictionary
280
     1
281
     1
  3
ACAD_XREC_ROUNDTRIP
360
2FE
  0
DICTIONARY
  5
301
330
46
100
AcDbDictionary
280
     1
281
     1
  3
ACAD_XREC_ROUNDTRIP
360
302
  0
DICTIONARY
  5
3B0
330
311
100
AcDbDictionary
280
     1
281
     1
  3
ACAD_XREC_ROUNDTRIP
360
3B1
  0
DICTIONARY
  5
303
330
6A
100
AcDbDictionary
280
     1
281
     1
  3
ACAD_ROUNDTRIP_2008_TABLESTYLE_CELLSTYLEMAP
360
37D
  3
ACAD_XREC_ROUNDTRIP
360
3AF
  0
DICTIONARY
  5
387
330
2F
100
AcDbDictionary
280
     1
281
     1
  3
ACAD_XREC_ROUNDTRIP
360
388
  0
DICTIONARY
  5
38D
330
32
100
AcDbDictionary
280
     1
281
     1
  3
ACAD_XREC_ROUNDTRIP
360
38E
  0
DICTIONARY
  5
395
330
36
100
AcDbDictionary
280
     1
281
     1
  3
ACAD_XREC_ROUNDTRIP
360
396
  0
DICTIONARY
  5
39D
330
3A
100
AcDbDictionary
280
     1
281
     1
  3
ACAD_XREC_ROUNDTRIP
360
39E
  0
DICTIONARY
  5
391
330
34
100
AcDbDictionary
280
     1
281
     1
  3
ACAD_XREC_ROUNDTRIP
360
392
  0
DICTIONARY
  5
393
330
35
100
AcDbDictionary
280
     1
281
     1
  3
ACAD_XREC_ROUNDTRIP
360
394
  0
DICTIONARY
  5
3A3
330
3D
100
AcDbDictionary
280
     1
281
     1
  3
ACAD_XREC_ROUNDTRIP
360
3A4
  0
DICTIONARY
  5
39B
330
39
100
AcDbDictionary
280
     1
281
     1
  3
ACAD_XREC_ROUNDTRIP
360
39C
  0
DICTIONARY
  5
37F
330
2B
100
AcDbDictionary
280
     1
281
     1
  3
ACAD_XREC_ROUNDTRIP
360
380
  0
DICTIONARY
  5
381
330
2C
100
AcDbDictionary
280
     1
281
     1
  3
ACAD_XREC_ROUNDTRIP
360
382
  0
DICTIONARY
  5
383
330
2D
100
AcDbDictionary
280
     1
281
     1
  3
ACAD_XREC_ROUNDTRIP
360
384
  0
DICTIONARY
  5
385
330
2E
100
AcDbDictionary
280
     1
281
     1
  3
ACAD_XREC_ROUNDTRIP
360
386
  0
DICTIONARY
  5
38B
330
31
100
AcDbDictionary
280
     1
281
     1
  3
ACAD_XREC_ROUNDTRIP
360
38C
  0
DICTIONARY
  5
39F
330
3B
100
AcDbDictionary
280
     1
281
     1
  3
ACAD_XREC_ROUNDTRIP
360
3A0
  0
DICTIONARY
  5
399
330
38
100
AcDbDictionary
280
     1
281
     1
  3
ACAD_XREC_ROUNDTRIP
360
39A
  0
DICTIONARY
  5
3A1
330
3C
100
AcDbDictionary
280
     1
281
     1
  3
ACAD_XREC_ROUNDTRIP
360
3A2
  0
DICTIONARY
  5
38F
330
33
100
AcDbDictionary
280
     1
281
     1
  3
ACAD_XREC_ROUNDTRIP
360
390
  0
DICTIONARY
  5
3AD
330
42
100
AcDbDictionary
280
     1
281
     1
  3
ACAD_XREC_ROUNDTRIP
360
3AE
  0
DICTIONARY
  5
3AB
330
41
100
AcDbDictionary
280
     1
281
     1
  3
ACAD_XREC_ROUNDTRIP
360
3AC
  0
DICTIONARY
  5
3A5
330
3E
100
AcDbDictionary
280
     1
281
     1
  3
ACAD_XREC_ROUNDTRIP
360
3A6
  0
DICTIONARY
  5
3A7
330
3F
100
AcDbDictionary
280
     1
281
     1
  3
ACAD_XREC_ROUNDTRIP
360
3A8
  0
DICTIONARY
  5
397
330
37
100
AcDbDictionary
280
     1
281
     1
  3
ACAD_XREC_ROUNDTRIP
360
398
  0
DICTIONARY
  5
389
330
30
100
AcDbDictionary
280
     1
281
     1
  3
ACAD_XREC_ROUNDTRIP
360
38A
  0
DICTIONARY
  5
3A9
330
40
100
AcDbDictionary
280
     1
281
     1
  3
ACAD_XREC_ROUNDTRIP
360
3AA
  0
XRECORD
  5
3B3
102
{ACAD_REACTORS
330
3B2
102
}
330
3B2
100
AcDbXrecord
280
     1
102
DISPLAYNAME
  1
Metric50
102
FLAGS
 90
        0
  0
XRECORD
  5
300
102
{ACAD_REACTORS
330
2FF
102
}
330
2FF
100
AcDbXrecord
280
     1
102
MATERIAL
148
0.0
149
0.0
149
0.0
 93
        0
 94
      127
282
     0
 72
     1
 77
     1
171
     1
175
     1
179
     1
273
     0
  0
XRECORD
  5
2FE
102
{ACAD_REACTORS
330
2FD
102
}
330
2FD
100
AcDbXrecord
280
     1
102
MATERIAL
148
0.0
149
0.0
149
0.0
 93
        0
 94
      127
282
     0
 72
     1
 77
     1
171
     1
175
     1
179
     1
273
     0
  0
XRECORD
  5
302
102
{ACAD_REACTORS
330
301
102
}
330
301
100
AcDbXrecord
280
     1
102
MATERIAL
148
0.0
149
0.0
149
0.0
 93
        0
 94
      127
282
     0
 72
     1
 77
     1
171
     1
175
     1
179
     1
273
     0
  0
XRECORD
  5
3B1
102
{ACAD_REACTORS
330
3B0
102
}
330
3B0
100
AcDbXrecord
280
     1
102
DISPLAYNAME
  1
Metric50
102
FLAGS
 90
        0
  0
CELLSTYLEMAP
  5
37D
102
{ACAD_REACTORS
330
303
102
}
330
303
100
AcDbCellStyleMap
 90
        3
300
CELLSTYLE
  1
TABLEFORMAT_BEGIN
 90
        5
170
     1
 91
        0
 92
    32768
 62
   257
 93
        1
300
CONTENTFORMAT
  1
CONTENTFORMAT_BEGIN
 90
        0
 91
        0
 92
        4
 93
        0
300

 40
0.0
140
1.0
 94
        5
 62
     0
340
11
144
0.25
309
CONTENTFORMAT_END
171
     1
301
MARGIN
  1
CELLMARGIN_BEGIN
 40
0.06
 40
0.06
 40
0.06
 40
0.06
 40
0.18
 40
0.18
309
CELLMARGIN_END
 94
        6
 95
        1
302
GRIDFORMAT
  1
GRIDFORMAT_BEGIN
 90
        0
 91
        1
 62
     0
 92
       -2
340
14
 93
        0
 40
0.045
309
GRIDFORMAT_END
 95
        2
302
GRIDFORMAT
  1
GRIDFORMAT_BEGIN
 90
        0
 91
        1
 62
     0
 92
       -2
340
14
 93
        0
 40
0.045
309
GRIDFORMAT_END
 95
        4
302
GRIDFORMAT
  1
GRIDFORMAT_BEGIN
 90
        0
 91
        1
 62
     0
 92
       -2
340
14
 93
        0
 40
0.045
309
GRIDFORMAT_END
 95
        8
302
GRIDFORMAT
  1
GRIDFORMAT_BEGIN
 90
        0
 91
        1
 62
     0
 92
       -2
340
14
 93
        0
 40
0.045
309
GRIDFORMAT_END
 95
       16
302
GRIDFORMAT
  1
GRIDFORMAT_BEGIN
 90
        0
 91
        1
 62
     0
 92
       -2
340
14
 93
        0
 40
0.045
309
GRIDFORMAT_END
 95
       32
302
GRIDFORMAT
  1
GRIDFORMAT_BEGIN
 90
        0
 91
        1
 62
     0
 92
       -2
340
14
 93
        0
 40
0.045
309
GRIDFORMAT_END
309
TABLEFORMAT_END
  1
CELLSTYLE_BEGIN
 90
        1
 91
        1
300
_TITLE
309
CELLSTYLE_END
300
CELLSTYLE
  1
TABLEFORMAT_BEGIN
 90
        5
170
     1
 91
        0
 92
        0
 62
   257
 93
        1
300
CONTENTFORMAT
  1
CONTENTFORMAT_BEGIN
 90
        0
 91
        0
 92
        4
 93
        0
300

 40
0.0
140
1.0
 94
        5
 62
     0
340
11
144
0.18
309
CONTENTFORMAT_END
171
     1
301
MARGIN
  1
CELLMARGIN_BEGIN
 40
0.06
 40
0.06
 40
0.06
 40
0.06
 40
0.18
 40
0.18
309
CELLMARGIN_END
 94
        6
 95
        1
302
GRIDFORMAT
  1
GRIDFORMAT_BEGIN
 90
        0
 91
        1
 62
     0
 92
       -2
340
14
 93
        0
 40
0.045
309
GRIDFORMAT_END
 95
        2
302
GRIDFORMAT
  1
GRIDFORMAT_BEGIN
 90
        0
 91
        1
 62
     0
 92
       -2
340
14
 93
        0
 40
0.045
309
GRIDFORMAT_END
 95
        4
302
GRIDFORMAT
  1
GRIDFORMAT_BEGIN
 90
        0
 91
        1
 62
     0
 92
       -2
340
14
 93
        0
 40
0.045
309
GRIDFORMAT_END
 95
        8
302
GRIDFORMAT
  1
GRIDFORMAT_BEGIN
 90
        0
 91
        1
 62
     0
 92
       -2
340
14
 93
        0
 40
0.045
309
GRIDFORMAT_END
 95
       16
302
GRIDFORMAT
  1
GRIDFORMAT_BEGIN
 90
        0
 91
        1
 62
     0
 92
       -2
340
14
 93
        0
 40
0.045
309
GRIDFORMAT_END
 95
       32
302
GRIDFORMAT
  1
GRIDFORMAT_BEGIN
 90
        0
 91
        1
 62
     0
 92
       -2
340
14
 93
        0
 40
0.045
309
GRIDFORMAT_END
309
TABLEFORMAT_END
  1
CELLSTYLE_BEGIN
 90
        2
 91
        1
300
_HEADER
309
CELLSTYLE_END
300
CELLSTYLE
  1
TABLEFORMAT_BEGIN
 90
        5
170
     1
 91
        0
 92
        0
 62
   257
 93
        1
300
CONTENTFORMAT
  1
CONTENTFORMAT_BEGIN
 90
        0
 91
        0
 92
        4
 93
        0
300

 40
0.0
140
1.0
 94
        2
 62
     0
340
11
144
0.18
309
CONTENTFORMAT_END
171
     1
301
MARGIN
  1
CELLMARGIN_BEGIN
 40
0.06
 40
0.06
 40
0.06
 40
0.06
 40
0.18
 40
0.18
309
CELLMARGIN_END
 94
        6
 95
        1
302
GRIDFORMAT
  1
GRIDFORMAT_BEGIN
 90
        0
 91
        1
 62
     0
 92
       -2
340
14
 93
        0
 40
0.045
309
GRIDFORMAT_END
 95
        2
302
GRIDFORMAT
  1
GRIDFORMAT_BEGIN
 90
        0
 91
        1
 62
     0
 92
       -2
340
14
 93
        0
 40
0.045
309
GRIDFORMAT_END
 95
        4
302
GRIDFORMAT
  1
GRIDFORMAT_BEGIN
 90
        0
 91
        1
 62
     0
 92
       -2
340
14
 93
        0
 40
0.045
309
GRIDFORMAT_END
 95
        8
302
GRIDFORMAT
  1
GRIDFORMAT_BEGIN
 90
        0
 91
        1
 62
     0
 92
       -2
340
14
 93
        0
 40
0.045
309
GRIDFORMAT_END
 95
       16
302
GRIDFORMAT
  1
GRIDFORMAT_BEGIN
 90
        0
 91
        1
 62
     0
 92
       -2
340
14
 93
        0
 40
0.045
309
GRIDFORMAT_END
 95
       32
302
GRIDFORMAT
  1
GRIDFORMAT_BEGIN
 90
        0
 91
        1
 62
     0
 92
       -2
340
14
 93
        0
 40
0.045
309
GRIDFORMAT_END
309
TABLEFORMAT_END
  1
CELLSTYLE_BEGIN
 90
        3
 91
        2
300
_DATA
309
CELLSTYLE_END
  0
XRECORD
  5
3AF
102
{ACAD_REACTORS
330
303
102
}
330
303
100
AcDbXrecord
280
     1
102
ACAD_ROUNDTRIP_PRE2007_TABLESTYLE
 90
        4
 91
        0
  1

 92
        4
 93
        0
  2

 94
        4
 95
        0
  3

  0
XRECORD
  5
388
102
{ACAD_REACTORS
330
387
102
}
330
387
100
AcDbXrecord
280
     1
102
RTVSPost2010Prop28
280
     1
102
RTVSPost2010PropOp28
 70
     1
102
RTVSPost2010Prop29
280
     1
102
RTVSPost2010PropOp29
 70
     1
102
RTVSPost2010Prop30
280
     0
102
RTVSPost2010PropOp30
 70
     1
102
RTVSPost2010Prop31
280
     0
102
RTVSPost2010PropOp31
 70
     1
102
RTVSPost2010Prop32
280
     0
102
RTVSPost2010PropOp32
 70
     1
102
RTVSPost2010Prop33
280
     0
102
RTVSPost2010PropOp33
 70
     1
102
RTVSPost2010Prop34
280
     0
102
RTVSPost2010PropOp34
 70
     1
102
RTVSPost2010Prop35
280
     0
102
RTVSPost2010PropOp35
 70
     1
102
RTVSPost2010Prop36
280
     0
102
RTVSPost2010PropOp36
 70
     1
102
RTVSPost2010Prop37
 90
       50
102
RTVSPost2010PropOp37
 70
     1
102
RTVSPost2010Prop38
140
0.0
102
RTVSPost2010PropOp38
 70
     1
102
RTVSPost2010Prop39
140
1.0
102
RTVSPost2010PropOp39
 70
     1
102
RTVSPost2010Prop40
 90
        0
102
RTVSPost2010PropOp40
 70
     1
102
RTVSPost2010Prop41ColorIndex
 90
       18
102
RTVSPost2010Prop41ColorRGB
 90
        0
102
RTVSPost2010PropOp41
 70
     1
102
RTVSPost2010Prop42
 90
       50
102
RTVSPost2010PropOp42
 70
     1
102
RTVSPost2010Prop43
 90
        3
102
RTVSPost2010PropOp43
 70
     1
102
RTVSPost2010Prop44ColorIndex
 90
        5
102
RTVSPost2010Prop44ColorRGB
 90
      255
102
RTVSPost2010PropOp44
 70
     1
102
RTVSPost2010Prop45
280
     0
102
RTVSPost2010PropOp45
 70
     1
102
RTVSPost2010Prop46
 90
       50
102
RTVSPost2010PropOp46
 70
     1
102
RTVSPost2010Prop47
 90
       50
102
RTVSPost2010PropOp47
 70
     1
102
RTVSPost2010Prop48
 90
       50
102
RTVSPost2010PropOp48
 70
     1
102
RTVSPost2010Prop49
280
     0
102
RTVSPost2010PropOp49
 70
     1
102
RTVSPost2010Prop50
 90
       50
102
RTVSPost2010PropOp50
 70
     1
102
RTVSPost2010Prop51ColorIndex
 90
      256
102
RTVSPost2010Prop51ColorRGB
 90
-16777216
102
RTVSPost2010PropOp51
 70
     0
102
RTVSPost2010Prop52
140
1.0
102
RTVSPost2010PropOp52
 70
     0
102
RTVSPost2010Prop53
 90
        2
102
RTVSPost2010PropOp53
 70
     1
102
RTVSPost2010Prop54
  1
strokes_ogs.tif
102
RTVSPost2010PropOp54
 70
     1
102
RTVSPost2010Prop55
280
     0
102
RTVSPost2010PropOp55
 70
     1
102
RTVSPost2010Prop56
140
1.0
102
RTVSPost2010PropOp56
 70
     1
102
RTVSPost2010Prop57
140
1.0
102
RTVSPost2010PropOp57
 70
     1
102
RTVSPropertyOp0
 70
     1
102
RTVSPropertyOp1
 70
     1
102
RTVSPropertyOp2
 70
     1
102
RTVSPropertyOp3
 70
     1
102
RTVSPropertyOp4
 70
     1
102
RTVSPropertyOp5
 70
     1
102
RTVSPropertyOp6
 70
     1
102
RTVSPropertyOp7
 70
     1
102
RTVSPropertyOp8
 70
     1
102
RTVSPropertyOp9
 70
     1
102
RTVSPropertyOp10
 70
     1
102
RTVSPropertyOp11
 70
     1
102
RTVSPropertyOp12
 70
     1
102
RTVSPropertyOp13
 70
     1
102
RTVSPropertyOp14
 70
     1
102
RTVSPropertyOp15
 70
     1
102
RTVSPropertyOp16
 70
     1
102
RTVSPropertyOp17
 70
     1
102
RTVSPropertyOp18
 70
     1
102
RTVSPropertyOp19
 70
     1
102
RTVSPropertyOp20
 70
     1
102
RTVSPropertyOp21
 70
     1
102
RTVSPropertyOp22
 70
     1
102
RTVSPropertyOp23
 70
     1
102
RTVSPropertyOp24
 70
     1
102
RTVSPropertyOp25
 70
     1
102
RTVSPropertyOp26
 70
     1
102
RTVSPropertyOp27
 70
     1
102
RTVSPropertyOp28
 70
     1
102
RTVSPropertyOp29
 70
     1
102
RTVSPropertyOp30
 70
     1
102
RTVSPropertyOp31
 70
     1
102
RTVSPropertyOp32
 70
     1
102
RTVSPropertyOp33
 70
     1
102
RTVSPropertyOp34
 70
     1
102
RTVSPropertyOp35
 70
     1
102
RTVSPropertyOp36
 70
     1
102
RTVSPropertyOp37
 70
     1
102
RTVSPropertyOp38
 70
     1
102
RTVSPropertyOp39
 70
     1
102
RTVSPropertyOp40
 70
     1
102
RTVSPropertyOp41
 70
     1
102
RTVSPropertyOp42
 70
     1
102
RTVSPropertyOp43
 70
     1
102
RTVSPropertyOp44
 70
     1
102
RTVSPropertyOp45
 70
     1
102
RTVSPropertyOp46
 70
     1
102
RTVSPropertyOp47
 70
     1
102
RTVSPropertyOp48
 70
     1
102
RTVSPropertyOp49
 70
     1
102
RTVSPropertyOp50
 70
     1
102
RTVSPropertyOp51
 70
     0
102
RTVSPropertyOp52
 70
     0
102
RTVSPropertyOp53
 70
     1
102
RTVSPropertyOp54
 70
     1
102
RTVSPropertyOp55
 70
     1
102
RTVSPropertyOp56
 70
     1
102
RTVSPropertyOp57
 70
     1
102
RTVSPropertyOp58
 70
     1
102
RTVSPropertyOp59
 70
     1
102
RTVSPropertyOp60
 70
     1
102
RTVSPropertyOp61
 70
     1
102
RTVSPropertyOp62
 70
     1
  0
XRECORD
  5
38E
102
{ACAD_REACTORS
330
38D
102
}
330
38D
100
AcDbXrecord
280
     1
102
RTVSPost2010Prop28
280
     0
102
RTVSPost2010PropOp28
 70
     1
102
RTVSPost2010Prop29
280
     1
102
RTVSPost2010PropOp29
 70
     1
102
RTVSPost2010Prop30
280
     1
102
RTVSPost2010PropOp30
 70
     1
102
RTVSPost2010Prop31
280
     0
102
RTVSPost2010PropOp31
 70
     1
102
RTVSPost2010Prop32
280
     0
102
RTVSPost2010PropOp32
 70
     1
102
RTVSPost2010Prop33
280
     0
102
RTVSPost2010PropOp33
 70
     1
102
RTVSPost2010Prop34
280
     0
102
RTVSPost2010PropOp34
 70
     1
102
RTVSPost2010Prop35
280
     0
102
RTVSPost2010PropOp35
 70
     1
102
RTVSPost2010Prop36
280
     0
102
RTVSPost2010PropOp36
 70
     1
102
RTVSPost2010Prop37
 90
       50
102
RTVSPost2010PropOp37
 70
     1
102
RTVSPost2010Prop38
140
0.0
102
RTVSPost2010PropOp38
 70
     1
102
RTVSPost2010Prop39
140
1.0
102
RTVSPost2010PropOp39
 70
     1
102
RTVSPost2010Prop40
 90
        0
102
RTVSPost2010PropOp40
 70
     1
102
RTVSPost2010Prop41ColorIndex
 90
       18
102
RTVSPost2010Prop41ColorRGB
 90
        0
102
RTVSPost2010PropOp41
 70
     1
102
RTVSPost2010Prop42
 90
       50
102
RTVSPost2010PropOp42
 70
     1
102
RTVSPost2010Prop43
 90
        3
102
RTVSPost2010PropOp43
 70
     1
102
RTVSPost2010Prop44ColorIndex
 90
        5
102
RTVSPost2010Prop44ColorRGB
 90
      255
102
RTVSPost2010PropOp44
 70
     1
102
RTVSPost2010Prop45
280
     0
102
RTVSPost2010PropOp45
 70
     1
102
RTVSPost2010Prop46
 90
       50
102
RTVSPost2010PropOp46
 70
     1
102
RTVSPost2010Prop47
 90
       50
102
RTVSPost2010PropOp47
 70
     1
102
RTVSPost2010Prop48
 90
       50
102
RTVSPost2010PropOp48
 70
     1
102
RTVSPost2010Prop49
280
     0
102
RTVSPost2010PropOp49
 70
     1
102
RTVSPost2010Prop50
 90
       50
102
RTVSPost2010PropOp50
 70
     1
102
RTVSPost2010Prop51ColorIndex
 90
      256
102
RTVSPost2010Prop51ColorRGB
 90
-16777216
102
RTVSPost2010PropOp51
 70
     0
102
RTVSPost2010Prop52
140
1.0
102
RTVSPost2010PropOp52
 70
     0
102
RTVSPost2010Prop53
 90
        2
102
RTVSPost2010PropOp53
 70
     1
102
RTVSPost2010Prop54
  1
strokes_ogs.tif
102
RTVSPost2010PropOp54
 70
     1
102
RTVSPost2010Prop55
280
     0
102
RTVSPost2010PropOp55
 70
     1
102
RTVSPost2010Prop56
140
1.0
102
RTVSPost2010PropOp56
 70
     1
102
RTVSPost2010Prop57
140
1.0
102
RTVSPost2010PropOp57
 70
     1
102
RTVSPropertyOp0
 70
     1
102
RTVSPropertyOp1
 70
     1
102
RTVSPropertyOp2
 70
     1
102
RTVSPropertyOp3
 70
     1
102
RTVSPropertyOp4
 70
     1
102
RTVSPropertyOp5
 70
     1
102
RTVSPropertyOp6
 70
     1
102
RTVSPropertyOp7
 70
     1
102
RTVSPropertyOp8
 70
     1
102
RTVSPropertyOp9
 70
     1
102
RTVSPropertyOp10
 70
     1
102
RTVSPropertyOp11
 70
     1
102
RTVSPropertyOp12
 70
     1
102
RTVSPropertyOp13
 70
     1
102
RTVSPropertyOp14
 70
     1
102
RTVSPropertyOp15
 70
     1
102
RTVSPropertyOp16
 70
     1
102
RTVSPropertyOp17
 70
     1
102
RTVSPropertyOp18
 70
     1
102
RTVSPropertyOp19
 70
     1
102
RTVSPropertyOp20
 70
     1
102
RTVSPropertyOp21
 70
     1
102
RTVSPropertyOp22
 70
     1
102
RTVSPropertyOp23
 70
     1
102
RTVSPropertyOp24
 70
     1
102
RTVSPropertyOp25
 70
     1
102
RTVSPropertyOp26
 70
     1
102
RTVSPropertyOp27
 70
     1
102
RTVSPropertyOp28
 70
     1
102
RTVSPropertyOp29
 70
     1
102
RTVSPropertyOp30
 70
     1
102
RTVSPropertyOp31
 70
     1
102
RTVSPropertyOp32
 70
     1
102
RTVSPropertyOp33
 70
     1
102
RTVSPropertyOp34
 70
     1
102
RTVSPropertyOp35
 70
     1
102
RTVSPropertyOp36
 70
     1
102
RTVSPropertyOp37
 70
     1
102
RTVSPropertyOp38
 70
     1
102
RTVSPropertyOp39
 70
     1
102
RTVSPropertyOp40
 70
     1
102
RTVSPropertyOp41
 70
     1
102
RTVSPropertyOp42
 70
     1
102
RTVSPropertyOp43
 70
     1
102
RTVSPropertyOp44
 70
     1
102
RTVSPropertyOp45
 70
     1
102
RTVSPropertyOp46
 70
     1
102
RTVSPropertyOp47
 70
     1
102
RTVSPropertyOp48
 70
     1
102
RTVSPropertyOp49
 70
     1
102
RTVSPropertyOp50
 70
     1
102
RTVSPropertyOp51
 70
     0
102
RTVSPropertyOp52
 70
     0
102
RTVSPropertyOp53
 70
     1
102
RTVSPropertyOp54
 70
     1
102
RTVSPropertyOp55
 70
     1
102
RTVSPropertyOp56
 70
     1
102
RTVSPropertyOp57
 70
     1
102
RTVSPropertyOp58
 70
     1
102
RTVSPropertyOp59
 70
     1
102
RTVSPropertyOp60
 70
     1
102
RTVSPropertyOp61
 70
     1
102
RTVSPropertyOp62
 70
     1
  0
XRECORD
  5
396
102
{ACAD_REACTORS
330
395
102
}
330
395
100
AcDbXrecord
280
     1
102
RTVSPost2010Prop28
280
     0
102
RTVSPost2010PropOp28
 70
     1
102
RTVSPost2010Prop29
280
     1
102
RTVSPost2010PropOp29
 70
     1
102
RTVSPost2010Prop30
280
     1
102
RTVSPost2010PropOp30
 70
     1
102
RTVSPost2010Prop31
280
     0
102
RTVSPost2010PropOp31
 70
     1
102
RTVSPost2010Prop32
280
     0
102
RTVSPost2010PropOp32
 70
     1
102
RTVSPost2010Prop33
280
     0
102
RTVSPost2010PropOp33
 70
     1
102
RTVSPost2010Prop34
280
     0
102
RTVSPost2010PropOp34
 70
     1
102
RTVSPost2010Prop35
280
     0
102
RTVSPost2010PropOp35
 70
     1
102
RTVSPost2010Prop36
280
     0
102
RTVSPost2010PropOp36
 70
     1
102
RTVSPost2010Prop37
 90
       50
102
RTVSPost2010PropOp37
 70
     1
102
RTVSPost2010Prop38
140
0.0
102
RTVSPost2010PropOp38
 70
     1
102
RTVSPost2010Prop39
140
1.0
102
RTVSPost2010PropOp39
 70
     1
102
RTVSPost2010Prop40
 90
        0
102
RTVSPost2010PropOp40
 70
     1
102
RTVSPost2010Prop41ColorIndex
 90
       18
102
RTVSPost2010Prop41ColorRGB
 90
        0
102
RTVSPost2010PropOp41
 70
     1
102
RTVSPost2010Prop42
 90
       50
102
RTVSPost2010PropOp42
 70
     1
102
RTVSPost2010Prop43
 90
        3
102
RTVSPost2010PropOp43
 70
     1
102
RTVSPost2010Prop44ColorIndex
 90
        5
102
RTVSPost2010Prop44ColorRGB
 90
      255
102
RTVSPost2010PropOp44
 70
     1
102
RTVSPost2010Prop45
280
     0
102
RTVSPost2010PropOp45
 70
     1
102
RTVSPost2010Prop46
 90
       50
102
RTVSPost2010PropOp46
 70
     1
102
RTVSPost2010Prop47
 90
       50
102
RTVSPost2010PropOp47
 70
     1
102
RTVSPost2010Prop48
 90
       50
102
RTVSPost2010PropOp48
 70
     1
102
RTVSPost2010Prop49
280
     0
102
RTVSPost2010PropOp49
 70
     1
102
RTVSPost2010Prop50
 90
       50
102
RTVSPost2010PropOp50
 70
     1
102
RTVSPost2010Prop51ColorIndex
 90
      256
102
RTVSPost2010Prop51ColorRGB
 90
-16777216
102
RTVSPost2010PropOp51
 70
     0
102
RTVSPost2010Prop52
140
1.0
102
RTVSPost2010PropOp52
 70
     0
102
RTVSPost2010Prop53
 90
        2
102
RTVSPost2010PropOp53
 70
     1
102
RTVSPost2010Prop54
  1
strokes_ogs.tif
102
RTVSPost2010PropOp54
 70
     1
102
RTVSPost2010Prop55
280
     0
102
RTVSPost2010PropOp55
 70
     1
102
RTVSPost2010Prop56
140
1.0
102
RTVSPost2010PropOp56
 70
     1
102
RTVSPost2010Prop57
140
1.0
102
RTVSPost2010PropOp57
 70
     1
102
RTVSPropertyOp0
 70
     1
102
RTVSPropertyOp1
 70
     1
102
RTVSPropertyOp2
 70
     1
102
RTVSPropertyOp3
 70
     1
102
RTVSPropertyOp4
 70
     1
102
RTVSPropertyOp5
 70
     1
102
RTVSPropertyOp6
 70
     1
102
RTVSPropertyOp7
 70
     1
102
RTVSPropertyOp8
 70
     1
102
RTVSPropertyOp9
 70
     1
102
RTVSPropertyOp10
 70
     1
102
RTVSPropertyOp11
 70
     1
102
RTVSPropertyOp12
 70
     1
102
RTVSPropertyOp13
 70
     1
102
RTVSPropertyOp14
 70
     1
102
RTVSPropertyOp15
 70
     1
102
RTVSPropertyOp16
 70
     1
102
RTVSPropertyOp17
 70
     1
102
RTVSPropertyOp18
 70
     1
102
RTVSPropertyOp19
 70
     1
102
RTVSPropertyOp20
 70
     1
102
RTVSPropertyOp21
 70
     1
102
RTVSPropertyOp22
 70
     1
102
RTVSPropertyOp23
 70
     1
102
RTVSPropertyOp24
 70
     1
102
RTVSPropertyOp25
 70
     1
102
RTVSPropertyOp26
 70
     1
102
RTVSPropertyOp27
 70
     1
102
RTVSPropertyOp28
 70
     1
102
RTVSPropertyOp29
 70
     1
102
RTVSPropertyOp30
 70
     1
102
RTVSPropertyOp31
 70
     1
102
RTVSPropertyOp32
 70
     1
102
RTVSPropertyOp33
 70
     1
102
RTVSPropertyOp34
 70
     1
102
RTVSPropertyOp35
 70
     1
102
RTVSPropertyOp36
 70
     1
102
RTVSPropertyOp37
 70
     1
102
RTVSPropertyOp38
 70
     1
102
RTVSPropertyOp39
 70
     1
102
RTVSPropertyOp40
 70
     1
102
RTVSPropertyOp41
 70
     1
102
RTVSPropertyOp42
 70
     1
102
RTVSPropertyOp43
 70
     1
102
RTVSPropertyOp44
 70
     1
102
RTVSPropertyOp45
 70
     1
102
RTVSPropertyOp46
 70
     1
102
RTVSPropertyOp47
 70
     1
102
RTVSPropertyOp48
 70
     1
102
RTVSPropertyOp49
 70
     1
102
RTVSPropertyOp50
 70
     1
102
RTVSPropertyOp51
 70
     0
102
RTVSPropertyOp52
 70
     0
102
RTVSPropertyOp53
 70
     1
102
RTVSPropertyOp54
 70
     1
102
RTVSPropertyOp55
 70
     1
102
RTVSPropertyOp56
 70
     1
102
RTVSPropertyOp57
 70
     1
102
RTVSPropertyOp58
 70
     1
102
RTVSPropertyOp59
 70
     1
102
RTVSPropertyOp60
 70
     1
102
RTVSPropertyOp61
 70
     1
102
RTVSPropertyOp62
 70
     1
  0
XRECORD
  5
39E
102
{ACAD_REACTORS
330
39D
102
}
330
39D
100
AcDbXrecord
280
     1
102
RTVSPost2010Prop28
280
     0
102
RTVSPost2010PropOp28
 70
     1
102
RTVSPost2010Prop29
280
     1
102
RTVSPost2010PropOp29
 70
     1
102
RTVSPost2010Prop30
280
     1
102
RTVSPost2010PropOp30
 70
     1
102
RTVSPost2010Prop31
280
     0
102
RTVSPost2010PropOp31
 70
     1
102
RTVSPost2010Prop32
280
     0
102
RTVSPost2010PropOp32
 70
     1
102
RTVSPost2010Prop33
280
     0
102
RTVSPost2010PropOp33
 70
     1
102
RTVSPost2010Prop34
280
     0
102
RTVSPost2010PropOp34
 70
     1
102
RTVSPost2010Prop35
280
     0
102
RTVSPost2010PropOp35
 70
     1
102
RTVSPost2010Prop36
280
     0
102
RTVSPost2010PropOp36
 70
     1
102
RTVSPost2010Prop37
 90
       50
102
RTVSPost2010PropOp37
 70
     1
102
RTVSPost2010Prop38
140
0.0
102
RTVSPost2010PropOp38
 70
     1
102
RTVSPost2010Prop39
140
1.0
102
RTVSPost2010PropOp39
 70
     1
102
RTVSPost2010Prop40
 90
        0
102
RTVSPost2010PropOp40
 70
     1
102
RTVSPost2010Prop41ColorIndex
 90
       18
102
RTVSPost2010Prop41ColorRGB
 90
        0
102
RTVSPost2010PropOp41
 70
     1
102
RTVSPost2010Prop42
 90
       50
102
RTVSPost2010PropOp42
 70
     1
102
RTVSPost2010Prop43
 90
        3
102
RTVSPost2010PropOp43
 70
     1
102
RTVSPost2010Prop44ColorIndex
 90
        5
102
RTVSPost2010Prop44ColorRGB
 90
      255
102
RTVSPost2010PropOp44
 70
     1
102
RTVSPost2010Prop45
280
     0
102
RTVSPost2010PropOp45
 70
     1
102
RTVSPost2010Prop46
 90
       50
102
RTVSPost2010PropOp46
 70
     1
102
RTVSPost2010Prop47
 90
       50
102
RTVSPost2010PropOp47
 70
     1
102
RTVSPost2010Prop48
 90
       50
102
RTVSPost2010PropOp48
 70
     1
102
RTVSPost2010Prop49
280
     0
102
RTVSPost2010PropOp49
 70
     1
102
RTVSPost2010Prop50
 90
       50
102
RTVSPost2010PropOp50
 70
     1
102
RTVSPost2010Prop51ColorIndex
 90
      256
102
RTVSPost2010Prop51ColorRGB
 90
-16777216
102
RTVSPost2010PropOp51
 70
     0
102
RTVSPost2010Prop52
140
1.0
102
RTVSPost2010PropOp52
 70
     0
102
RTVSPost2010Prop53
 90
        2
102
RTVSPost2010PropOp53
 70
     1
102
RTVSPost2010Prop54
  1
strokes_ogs.tif
102
RTVSPost2010PropOp54
 70
     1
102
RTVSPost2010Prop55
280
     0
102
RTVSPost2010PropOp55
 70
     1
102
RTVSPost2010Prop56
140
1.0
102
RTVSPost2010PropOp56
 70
     1
102
RTVSPost2010Prop57
140
1.0
102
RTVSPost2010PropOp57
 70
     1
102
RTVSPropertyOp0
 70
     1
102
RTVSPropertyOp1
 70
     1
102
RTVSPropertyOp2
 70
     1
102
RTVSPropertyOp3
 70
     1
102
RTVSPropertyOp4
 70
     1
102
RTVSPropertyOp5
 70
     1
102
RTVSPropertyOp6
 70
     1
102
RTVSPropertyOp7
 70
     1
102
RTVSPropertyOp8
 70
     1
102
RTVSPropertyOp9
 70
     1
102
RTVSPropertyOp10
 70
     1
102
RTVSPropertyOp11
 70
     1
102
RTVSPropertyOp12
 70
     1
102
RTVSPropertyOp13
 70
     1
102
RTVSPropertyOp14
 70
     1
102
RTVSPropertyOp15
 70
     1
102
RTVSPropertyOp16
 70
     1
102
RTVSPropertyOp17
 70
     1
102
RTVSPropertyOp18
 70
     1
102
RTVSPropertyOp19
 70
     1
102
RTVSPropertyOp20
 70
     1
102
RTVSPropertyOp21
 70
     1
102
RTVSPropertyOp22
 70
     1
102
RTVSPropertyOp23
 70
     1
102
RTVSPropertyOp24
 70
     1
102
RTVSPropertyOp25
 70
     1
102
RTVSPropertyOp26
 70
     1
102
RTVSPropertyOp27
 70
     1
102
RTVSPropertyOp28
 70
     1
102
RTVSPropertyOp29
 70
     1
102
RTVSPropertyOp30
 70
     1
102
RTVSPropertyOp31
 70
     1
102
RTVSPropertyOp32
 70
     1
102
RTVSPropertyOp33
 70
     1
102
RTVSPropertyOp34
 70
     1
102
RTVSPropertyOp35
 70
     1
102
RTVSPropertyOp36
 70
     1
102
RTVSPropertyOp37
 70
     1
102
RTVSPropertyOp38
 70
     1
102
RTVSPropertyOp39
 70
     1
102
RTVSPropertyOp40
 70
     1
102
RTVSPropertyOp41
 70
     1
102
RTVSPropertyOp42
 70
     1
102
RTVSPropertyOp43
 70
     1
102
RTVSPropertyOp44
 70
     1
102
RTVSPropertyOp45
 70
     1
102
RTVSPropertyOp46
 70
     1
102
RTVSPropertyOp47
 70
     1
102
RTVSPropertyOp48
 70
     1
102
RTVSPropertyOp49
 70
     1
102
RTVSPropertyOp50
 70
     1
102
RTVSPropertyOp51
 70
     0
102
RTVSPropertyOp52
 70
     0
102
RTVSPropertyOp53
 70
     1
102
RTVSPropertyOp54
 70
     1
102
RTVSPropertyOp55
 70
     1
102
RTVSPropertyOp56
 70
     1
102
RTVSPropertyOp57
 70
     1
102
RTVSPropertyOp58
 70
     1
102
RTVSPropertyOp59
 70
     1
102
RTVSPropertyOp60
 70
     1
102
RTVSPropertyOp61
 70
     1
102
RTVSPropertyOp62
 70
     1
  0
XRECORD
  5
392
102
{ACAD_REACTORS
330
391
102
}
330
391
100
AcDbXrecord
280
     1
102
RTVSPost2010Prop28
280
     0
102
RTVSPost2010PropOp28
 70
     1
102
RTVSPost2010Prop29
280
     1
102
RTVSPost2010PropOp29
 70
     1
102
RTVSPost2010Prop30
280
     1
102
RTVSPost2010PropOp30
 70
     1
102
RTVSPost2010Prop31
280
     0
102
RTVSPost2010PropOp31
 70
     1
102
RTVSPost2010Prop32
280
     0
102
RTVSPost2010PropOp32
 70
     1
102
RTVSPost2010Prop33
280
     0
102
RTVSPost2010PropOp33
 70
     1
102
RTVSPost2010Prop34
280
     0
102
RTVSPost2010PropOp34
 70
     1
102
RTVSPost2010Prop35
280
     0
102
RTVSPost2010PropOp35
 70
     1
102
RTVSPost2010Prop36
280
     0
102
RTVSPost2010PropOp36
 70
     1
102
RTVSPost2010Prop37
 90
       50
102
RTVSPost2010PropOp37
 70
     1
102
RTVSPost2010Prop38
140
0.0
102
RTVSPost2010PropOp38
 70
     1
102
RTVSPost2010Prop39
140
1.0
102
RTVSPost2010PropOp39
 70
     1
102
RTVSPost2010Prop40
 90
        0
102
RTVSPost2010PropOp40
 70
     1
102
RTVSPost2010Prop41ColorIndex
 90
       18
102
RTVSPost2010Prop41ColorRGB
 90
        0
102
RTVSPost2010PropOp41
 70
     1
102
RTVSPost2010Prop42
 90
       50
102
RTVSPost2010PropOp42
 70
     1
102
RTVSPost2010Prop43
 90
        3
102
RTVSPost2010PropOp43
 70
     1
102
RTVSPost2010Prop44ColorIndex
 90
        5
102
RTVSPost2010Prop44ColorRGB
 90
      255
102
RTVSPost2010PropOp44
 70
     1
102
RTVSPost2010Prop45
280
     0
102
RTVSPost2010PropOp45
 70
     1
102
RTVSPost2010Prop46
 90
       50
102
RTVSPost2010PropOp46
 70
     1
102
RTVSPost2010Prop47
 90
       50
102
RTVSPost2010PropOp47
 70
     1
102
RTVSPost2010Prop48
 90
       50
102
RTVSPost2010PropOp48
 70
     1
102
RTVSPost2010Prop49
280
     0
102
RTVSPost2010PropOp49
 70
     1
102
RTVSPost2010Prop50
 90
       50
102
RTVSPost2010PropOp50
 70
     1
102
RTVSPost2010Prop51ColorIndex
 90
      256
102
RTVSPost2010Prop51ColorRGB
 90
-16777216
102
RTVSPost2010PropOp51
 70
     0
102
RTVSPost2010Prop52
140
1.0
102
RTVSPost2010PropOp52
 70
     0
102
RTVSPost2010Prop53
 90
        2
102
RTVSPost2010PropOp53
 70
     1
102
RTVSPost2010Prop54
  1
strokes_ogs.tif
102
RTVSPost2010PropOp54
 70
     1
102
RTVSPost2010Prop55
280
     0
102
RTVSPost2010PropOp55
 70
     1
102
RTVSPost2010Prop56
140
1.0
102
RTVSPost2010PropOp56
 70
     1
102
RTVSPost2010Prop57
140
1.0
102
RTVSPost2010PropOp57
 70
     1
102
RTVSPropertyOp0
 70
     1
102
RTVSPropertyOp1
 70
     1
102
RTVSPropertyOp2
 70
     1
102
RTVSPropertyOp3
 70
     1
102
RTVSPropertyOp4
 70
     1
102
RTVSPropertyOp5
 70
     1
102
RTVSPropertyOp6
 70
     1
102
RTVSPropertyOp7
 70
     1
102
RTVSPropertyOp8
 70
     1
102
RTVSPropertyOp9
 70
     1
102
RTVSPropertyOp10
 70
     1
102
RTVSPropertyOp11
 70
     1
102
RTVSPropertyOp12
 70
     1
102
RTVSPropertyOp13
 70
     1
102
RTVSPropertyOp14
 70
     1
102
RTVSPropertyOp15
 70
     1
102
RTVSPropertyOp16
 70
     1
102
RTVSPropertyOp17
 70
     1
102
RTVSPropertyOp18
 70
     1
102
RTVSPropertyOp19
 70
     1
102
RTVSPropertyOp20
 70
     1
102
RTVSPropertyOp21
 70
     1
102
RTVSPropertyOp22
 70
     1
102
RTVSPropertyOp23
 70
     1
102
RTVSPropertyOp24
 70
     1
102
RTVSPropertyOp25
 70
     1
102
RTVSPropertyOp26
 70
     1
102
RTVSPropertyOp27
 70
     1
102
RTVSPropertyOp28
 70
     1
102
RTVSPropertyOp29
 70
     1
102
RTVSPropertyOp30
 70
     1
102
RTVSPropertyOp31
 70
     1
102
RTVSPropertyOp32
 70
     1
102
RTVSPropertyOp33
 70
     1
102
RTVSPropertyOp34
 70
     1
102
RTVSPropertyOp35
 70
     1
102
RTVSPropertyOp36
 70
     1
102
RTVSPropertyOp37
 70
     1
102
RTVSPropertyOp38
 70
     1
102
RTVSPropertyOp39
 70
     1
102
RTVSPropertyOp40
 70
     1
102
RTVSPropertyOp41
 70
     1
102
RTVSPropertyOp42
 70
     1
102
RTVSPropertyOp43
 70
     1
102
RTVSPropertyOp44
 70
     1
102
RTVSPropertyOp45
 70
     1
102
RTVSPropertyOp46
 70
     1
102
RTVSPropertyOp47
 70
     1
102
RTVSPropertyOp48
 70
     1
102
RTVSPropertyOp49
 70
     1
102
RTVSPropertyOp50
 70
     1
102
RTVSPropertyOp51
 70
     0
102
RTVSPropertyOp52
 70
     0
102
RTVSPropertyOp53
 70
     1
102
RTVSPropertyOp54
 70
     1
102
RTVSPropertyOp55
 70
     1
102
RTVSPropertyOp56
 70
     1
102
RTVSPropertyOp57
 70
     1
102
RTVSPropertyOp58
 70
     1
102
RTVSPropertyOp59
 70
     1
102
RTVSPropertyOp60
 70
     1
102
RTVSPropertyOp61
 70
     1
102
RTVSPropertyOp62
 70
     1
  0
XRECORD
  5
394
102
{ACAD_REACTORS
330
393
102
}
330
393
100
AcDbXrecord
280
     1
102
RTVSPost2010Prop28
280
     0
102
RTVSPost2010PropOp28
 70
     1
102
RTVSPost2010Prop29
280
     1
102
RTVSPost2010PropOp29
 70
     1
102
RTVSPost2010Prop30
280
     1
102
RTVSPost2010PropOp30
 70
     1
102
RTVSPost2010Prop31
280
     0
102
RTVSPost2010PropOp31
 70
     1
102
RTVSPost2010Prop32
280
     0
102
RTVSPost2010PropOp32
 70
     1
102
RTVSPost2010Prop33
280
     0
102
RTVSPost2010PropOp33
 70
     1
102
RTVSPost2010Prop34
280
     0
102
RTVSPost2010PropOp34
 70
     1
102
RTVSPost2010Prop35
280
     0
102
RTVSPost2010PropOp35
 70
     1
102
RTVSPost2010Prop36
280
     0
102
RTVSPost2010PropOp36
 70
     1
102
RTVSPost2010Prop37
 90
       50
102
RTVSPost2010PropOp37
 70
     1
102
RTVSPost2010Prop38
140
0.0
102
RTVSPost2010PropOp38
 70
     1
102
RTVSPost2010Prop39
140
1.0
102
RTVSPost2010PropOp39
 70
     1
102
RTVSPost2010Prop40
 90
        0
102
RTVSPost2010PropOp40
 70
     1
102
RTVSPost2010Prop41ColorIndex
 90
       18
102
RTVSPost2010Prop41ColorRGB
 90
        0
102
RTVSPost2010PropOp41
 70
     1
102
RTVSPost2010Prop42
 90
       50
102
RTVSPost2010PropOp42
 70
     1
102
RTVSPost2010Prop43
 90
        3
102
RTVSPost2010PropOp43
 70
     1
102
RTVSPost2010Prop44ColorIndex
 90
        5
102
RTVSPost2010Prop44ColorRGB
 90
      255
102
RTVSPost2010PropOp44
 70
     1
102
RTVSPost2010Prop45
280
     0
102
RTVSPost2010PropOp45
 70
     1
102
RTVSPost2010Prop46
 90
       50
102
RTVSPost2010PropOp46
 70
     1
102
RTVSPost2010Prop47
 90
       50
102
RTVSPost2010PropOp47
 70
     1
102
RTVSPost2010Prop48
 90
       50
102
RTVSPost2010PropOp48
 70
     1
102
RTVSPost2010Prop49
280
     0
102
RTVSPost2010PropOp49
 70
     1
102
RTVSPost2010Prop50
 90
       50
102
RTVSPost2010PropOp50
 70
     1
102
RTVSPost2010Prop51ColorIndex
 90
      256
102
RTVSPost2010Prop51ColorRGB
 90
-16777216
102
RTVSPost2010PropOp51
 70
     0
102
RTVSPost2010Prop52
140
1.0
102
RTVSPost2010PropOp52
 70
     0
102
RTVSPost2010Prop53
 90
        2
102
RTVSPost2010PropOp53
 70
     1
102
RTVSPost2010Prop54
  1
strokes_ogs.tif
102
RTVSPost2010PropOp54
 70
     1
102
RTVSPost2010Prop55
280
     0
102
RTVSPost2010PropOp55
 70
     1
102
RTVSPost2010Prop56
140
1.0
102
RTVSPost2010PropOp56
 70
     1
102
RTVSPost2010Prop57
140
1.0
102
RTVSPost2010PropOp57
 70
     1
102
RTVSPropertyOp0
 70
     1
102
RTVSPropertyOp1
 70
     1
102
RTVSPropertyOp2
 70
     1
102
RTVSPropertyOp3
 70
     1
102
RTVSPropertyOp4
 70
     1
102
RTVSPropertyOp5
 70
     1
102
RTVSPropertyOp6
 70
     1
102
RTVSPropertyOp7
 70
     1
102
RTVSPropertyOp8
 70
     1
102
RTVSPropertyOp9
 70
     1
102
RTVSPropertyOp10
 70
     1
102
RTVSPropertyOp11
 70
     1
102
RTVSPropertyOp12
 70
     1
102
RTVSPropertyOp13
 70
     1
102
RTVSPropertyOp14
 70
     1
102
RTVSPropertyOp15
 70
     1
102
RTVSPropertyOp16
 70
     1
102
RTVSPropertyOp17
 70
     1
102
RTVSPropertyOp18
 70
     1
102
RTVSPropertyOp19
 70
     1
102
RTVSPropertyOp20
 70
     1
102
RTVSPropertyOp21
 70
     1
102
RTVSPropertyOp22
 70
     1
102
RTVSPropertyOp23
 70
     1
102
RTVSPropertyOp24
 70
     1
102
RTVSPropertyOp25
 70
     1
102
RTVSPropertyOp26
 70
     1
102
RTVSPropertyOp27
 70
     1
102
RTVSPropertyOp28
 70
     1
102
RTVSPropertyOp29
 70
     1
102
RTVSPropertyOp30
 70
     1
102
RTVSPropertyOp31
 70
     1
102
RTVSPropertyOp32
 70
     1
102
RTVSPropertyOp33
 70
     1
102
RTVSPropertyOp34
 70
     1
102
RTVSPropertyOp35
 70
     1
102
RTVSPropertyOp36
 70
     1
102
RTVSPropertyOp37
 70
     1
102
RTVSPropertyOp38
 70
     1
102
RTVSPropertyOp39
 70
     1
102
RTVSPropertyOp40
 70
     1
102
RTVSPropertyOp41
 70
     1
102
RTVSPropertyOp42
 70
     1
102
RTVSPropertyOp43
 70
     1
102
RTVSPropertyOp44
 70
     1
102
RTVSPropertyOp45
 70
     1
102
RTVSPropertyOp46
 70
     1
102
RTVSPropertyOp47
 70
     1
102
RTVSPropertyOp48
 70
     1
102
RTVSPropertyOp49
 70
     1
102
RTVSPropertyOp50
 70
     1
102
RTVSPropertyOp51
 70
     0
102
RTVSPropertyOp52
 70
     0
102
RTVSPropertyOp53
 70
     1
102
RTVSPropertyOp54
 70
     1
102
RTVSPropertyOp55
 70
     1
102
RTVSPropertyOp56
 70
     1
102
RTVSPropertyOp57
 70
     1
102
RTVSPropertyOp58
 70
     1
102
RTVSPropertyOp59
 70
     1
102
RTVSPropertyOp60
 70
     1
102
RTVSPropertyOp61
 70
     1
102
RTVSPropertyOp62
 70
     1
  0
XRECORD
  5
3A4
102
{ACAD_REACTORS
330
3A3
102
}
330
3A3
100
AcDbXrecord
280
     1
102
RTVSPost2010Prop28
280
     0
102
RTVSPost2010PropOp28
 70
     0
102
RTVSPost2010Prop29
280
     1
102
RTVSPost2010PropOp29
 70
     0
102
RTVSPost2010Prop30
280
     1
102
RTVSPost2010PropOp30
 70
     0
102
RTVSPost2010Prop31
280
     0
102
RTVSPost2010PropOp31
 70
     0
102
RTVSPost2010Prop32
280
     0
102
RTVSPost2010PropOp32
 70
     0
102
RTVSPost2010Prop33
280
     0
102
RTVSPost2010PropOp33
 70
     0
102
RTVSPost2010Prop34
280
     0
102
RTVSPost2010PropOp34
 70
     0
102
RTVSPost2010Prop35
280
     0
102
RTVSPost2010PropOp35
 70
     0
102
RTVSPost2010Prop36
280
     0
102
RTVSPost2010PropOp36
 70
     0
102
RTVSPost2010Prop37
 90
       50
102
RTVSPost2010PropOp37
 70
     0
102
RTVSPost2010Prop38
140
0.0
102
RTVSPost2010PropOp38
 70
     0
102
RTVSPost2010Prop39
140
1.0
102
RTVSPost2010PropOp39
 70
     0
102
RTVSPost2010Prop40
 90
        0
102
RTVSPost2010PropOp40
 70
     0
102
RTVSPost2010Prop41ColorIndex
 90
       18
102
RTVSPost2010Prop41ColorRGB
 90
        0
102
RTVSPost2010PropOp41
 70
     0
102
RTVSPost2010Prop42
 90
       50
102
RTVSPost2010PropOp42
 70
     0
102
RTVSPost2010Prop43
 90
        3
102
RTVSPost2010PropOp43
 70
     0
102
RTVSPost2010Prop44ColorIndex
 90
        5
102
RTVSPost2010Prop44ColorRGB
 90
      255
102
RTVSPost2010PropOp44
 70
     0
102
RTVSPost2010Prop45
280
     0
102
RTVSPost2010PropOp45
 70
     0
102
RTVSPost2010Prop46
 90
       50
102
RTVSPost2010PropOp46
 70
     0
102
RTVSPost2010Prop47
 90
       50
102
RTVSPost2010PropOp47
 70
     0
102
RTVSPost2010Prop48
 90
       50
102
RTVSPost2010PropOp48
 70
     0
102
RTVSPost2010Prop49
280
     0
102
RTVSPost2010PropOp49
 70
     0
102
RTVSPost2010Prop50
 90
       50
102
RTVSPost2010PropOp50
 70
     0
102
RTVSPost2010Prop51ColorIndex
 90
      256
102
RTVSPost2010Prop51ColorRGB
 90
-16777216
102
RTVSPost2010PropOp51
 70
     0
102
RTVSPost2010Prop52
140
1.0
102
RTVSPost2010PropOp52
 70
     0
102
RTVSPost2010Prop53
 90
        2
102
RTVSPost2010PropOp53
 70
     0
102
RTVSPost2010Prop54
  1
strokes_ogs.tif
102
RTVSPost2010PropOp54
 70
     0
102
RTVSPost2010Prop55
280
     0
102
RTVSPost2010PropOp55
 70
     0
102
RTVSPost2010Prop56
140
1.0
102
RTVSPost2010PropOp56
 70
     0
102
RTVSPost2010Prop57
140
1.0
102
RTVSPost2010PropOp57
 70
     0
102
RTVSPropertyOp0
 70
     0
102
RTVSPropertyOp1
 70
     0
102
RTVSPropertyOp2
 70
     0
102
RTVSPropertyOp3
 70
     0
102
RTVSPropertyOp4
 70
     0
102
RTVSPropertyOp5
 70
     0
102
RTVSPropertyOp6
 70
     0
102
RTVSPropertyOp7
 70
     0
102
RTVSPropertyOp8
 70
     0
102
RTVSPropertyOp9
 70
     0
102
RTVSPropertyOp10
 70
     0
102
RTVSPropertyOp11
 70
     0
102
RTVSPropertyOp12
 70
     0
102
RTVSPropertyOp13
 70
     0
102
RTVSPropertyOp14
 70
     2
102
RTVSPropertyOp15
 70
     0
102
RTVSPropertyOp16
 70
     0
102
RTVSPropertyOp17
 70
     0
102
RTVSPropertyOp18
 70
     0
102
RTVSPropertyOp19
 70
     0
102
RTVSPropertyOp20
 70
     0
102
RTVSPropertyOp21
 70
     0
102
RTVSPropertyOp22
 70
     0
102
RTVSPropertyOp23
 70
     0
102
RTVSPropertyOp24
 70
     0
102
RTVSPropertyOp25
 70
     0
102
RTVSPropertyOp26
 70
     0
102
RTVSPropertyOp27
 70
     0
102
RTVSPropertyOp28
 70
     0
102
RTVSPropertyOp29
 70
     0
102
RTVSPropertyOp30
 70
     0
102
RTVSPropertyOp31
 70
     0
102
RTVSPropertyOp32
 70
     0
102
RTVSPropertyOp33
 70
     0
102
RTVSPropertyOp34
 70
     0
102
RTVSPropertyOp35
 70
     0
102
RTVSPropertyOp36
 70
     0
102
RTVSPropertyOp37
 70
     0
102
RTVSPropertyOp38
 70
     0
102
RTVSPropertyOp39
 70
     0
102
RTVSPropertyOp40
 70
     0
102
RTVSPropertyOp41
 70
     0
102
RTVSPropertyOp42
 70
     0
102
RTVSPropertyOp43
 70
     0
102
RTVSPropertyOp44
 70
     0
102
RTVSPropertyOp45
 70
     0
102
RTVSPropertyOp46
 70
     0
102
RTVSPropertyOp47
 70
     0
102
RTVSPropertyOp48
 70
     0
102
RTVSPropertyOp49
 70
     0
102
RTVSPropertyOp50
 70
     0
102
RTVSPropertyOp51
 70
     0
102
RTVSPropertyOp52
 70
     0
102
RTVSPropertyOp53
 70
     0
102
RTVSPropertyOp54
 70
     0
102
RTVSPropertyOp55
 70
     0
102
RTVSPropertyOp56
 70
     0
102
RTVSPropertyOp57
 70
     0
102
RTVSPropertyOp58
 70
     1
102
RTVSPropertyOp59
 70
     1
102
RTVSPropertyOp60
 70
     1
102
RTVSPropertyOp61
 70
     1
102
RTVSPropertyOp62
 70
     1
  0
XRECORD
  5
39C
102
{ACAD_REACTORS
330
39B
102
}
330
39B
100
AcDbXrecord
280
     1
102
RTVSPost2010Prop28
280
     0
102
RTVSPost2010PropOp28
 70
     1
102
RTVSPost2010Prop29
280
     1
102
RTVSPost2010PropOp29
 70
     1
102
RTVSPost2010Prop30
280
     1
102
RTVSPost2010PropOp30
 70
     1
102
RTVSPost2010Prop31
280
     0
102
RTVSPost2010PropOp31
 70
     1
102
RTVSPost2010Prop32
280
     0
102
RTVSPost2010PropOp32
 70
     1
102
RTVSPost2010Prop33
280
     0
102
RTVSPost2010PropOp33
 70
     1
102
RTVSPost2010Prop34
280
     0
102
RTVSPost2010PropOp34
 70
     1
102
RTVSPost2010Prop35
280
     0
102
RTVSPost2010PropOp35
 70
     1
102
RTVSPost2010Prop36
280
     0
102
RTVSPost2010PropOp36
 70
     1
102
RTVSPost2010Prop37
 90
       50
102
RTVSPost2010PropOp37
 70
     1
102
RTVSPost2010Prop38
140
0.0
102
RTVSPost2010PropOp38
 70
     1
102
RTVSPost2010Prop39
140
1.0
102
RTVSPost2010PropOp39
 70
     1
102
RTVSPost2010Prop40
 90
        0
102
RTVSPost2010PropOp40
 70
     1
102
RTVSPost2010Prop41ColorIndex
 90
       18
102
RTVSPost2010Prop41ColorRGB
 90
        0
102
RTVSPost2010PropOp41
 70
     1
102
RTVSPost2010Prop42
 90
       50
102
RTVSPost2010PropOp42
 70
     1
102
RTVSPost2010Prop43
 90
        3
102
RTVSPost2010PropOp43
 70
     1
102
RTVSPost2010Prop44ColorIndex
 90
        5
102
RTVSPost2010Prop44ColorRGB
 90
      255
102
RTVSPost2010PropOp44
 70
     1
102
RTVSPost2010Prop45
280
     0
102
RTVSPost2010PropOp45
 70
     1
102
RTVSPost2010Prop46
 90
       50
102
RTVSPost2010PropOp46
 70
     1
102
RTVSPost2010Prop47
 90
       50
102
RTVSPost2010PropOp47
 70
     1
102
RTVSPost2010Prop48
 90
       50
102
RTVSPost2010PropOp48
 70
     1
102
RTVSPost2010Prop49
280
     0
102
RTVSPost2010PropOp49
 70
     1
102
RTVSPost2010Prop50
 90
       50
102
RTVSPost2010PropOp50
 70
     1
102
RTVSPost2010Prop51ColorIndex
 90
      256
102
RTVSPost2010Prop51ColorRGB
 90
-16777216
102
RTVSPost2010PropOp51
 70
     0
102
RTVSPost2010Prop52
140
1.0
102
RTVSPost2010PropOp52
 70
     0
102
RTVSPost2010Prop53
 90
        2
102
RTVSPost2010PropOp53
 70
     1
102
RTVSPost2010Prop54
  1
strokes_ogs.tif
102
RTVSPost2010PropOp54
 70
     1
102
RTVSPost2010Prop55
280
     0
102
RTVSPost2010PropOp55
 70
     1
102
RTVSPost2010Prop56
140
1.0
102
RTVSPost2010PropOp56
 70
     1
102
RTVSPost2010Prop57
140
1.0
102
RTVSPost2010PropOp57
 70
     1
102
RTVSPropertyOp0
 70
     1
102
RTVSPropertyOp1
 70
     1
102
RTVSPropertyOp2
 70
     1
102
RTVSPropertyOp3
 70
     1
102
RTVSPropertyOp4
 70
     1
102
RTVSPropertyOp5
 70
     1
102
RTVSPropertyOp6
 70
     1
102
RTVSPropertyOp7
 70
     1
102
RTVSPropertyOp8
 70
     1
102
RTVSPropertyOp9
 70
     1
102
RTVSPropertyOp10
 70
     1
102
RTVSPropertyOp11
 70
     1
102
RTVSPropertyOp12
 70
     1
102
RTVSPropertyOp13
 70
     1
102
RTVSPropertyOp14
 70
     1
102
RTVSPropertyOp15
 70
     1
102
RTVSPropertyOp16
 70
     1
102
RTVSPropertyOp17
 70
     1
102
RTVSPropertyOp18
 70
     1
102
RTVSPropertyOp19
 70
     1
102
RTVSPropertyOp20
 70
     1
102
RTVSPropertyOp21
 70
     1
102
RTVSPropertyOp22
 70
     1
102
RTVSPropertyOp23
 70
     1
102
RTVSPropertyOp24
 70
     1
102
RTVSPropertyOp25
 70
     1
102
RTVSPropertyOp26
 70
     1
102
RTVSPropertyOp27
 70
     1
102
RTVSPropertyOp28
 70
     1
102
RTVSPropertyOp29
 70
     1
102
RTVSPropertyOp30
 70
     1
102
RTVSPropertyOp31
 70
     1
102
RTVSPropertyOp32
 70
     1
102
RTVSPropertyOp33
 70
     1
102
RTVSPropertyOp34
 70
     1
102
RTVSPropertyOp35
 70
     1
102
RTVSPropertyOp36
 70
     1
102
RTVSPropertyOp37
 70
     1
102
RTVSPropertyOp38
 70
     1
102
RTVSPropertyOp39
 70
     1
102
RTVSPropertyOp40
 70
     1
102
RTVSPropertyOp41
 70
     1
102
RTVSPropertyOp42
 70
     1
102
RTVSPropertyOp43
 70
     1
102
RTVSPropertyOp44
 70
     1
102
RTVSPropertyOp45
 70
     1
102
RTVSPropertyOp46
 70
     1
102
RTVSPropertyOp47
 70
     1
102
RTVSPropertyOp48
 70
     1
102
RTVSPropertyOp49
 70
     1
102
RTVSPropertyOp50
 70
     1
102
RTVSPropertyOp51
 70
     0
102
RTVSPropertyOp52
 70
     0
102
RTVSPropertyOp53
 70
     1
102
RTVSPropertyOp54
 70
     1
102
RTVSPropertyOp55
 70
     1
102
RTVSPropertyOp56
 70
     1
102
RTVSPropertyOp57
 70
     1
102
RTVSPropertyOp58
 70
     1
102
RTVSPropertyOp59
 70
     1
102
RTVSPropertyOp60
 70
     1
102
RTVSPropertyOp61
 70
     1
102
RTVSPropertyOp62
 70
     1
  0
XRECORD
  5
380
102
{ACAD_REACTORS
330
37F
102
}
330
37F
100
AcDbXrecord
280
     1
102
RTVSPost2010Prop28
280
     0
102
RTVSPost2010PropOp28
 70
     1
102
RTVSPost2010Prop29
280
     1
102
RTVSPost2010PropOp29
 70
     1
102
RTVSPost2010Prop30
280
     1
102
RTVSPost2010PropOp30
 70
     1
102
RTVSPost2010Prop31
280
     0
102
RTVSPost2010PropOp31
 70
     1
102
RTVSPost2010Prop32
280
     0
102
RTVSPost2010PropOp32
 70
     1
102
RTVSPost2010Prop33
280
     0
102
RTVSPost2010PropOp33
 70
     1
102
RTVSPost2010Prop34
280
     0
102
RTVSPost2010PropOp34
 70
     1
102
RTVSPost2010Prop35
280
     0
102
RTVSPost2010PropOp35
 70
     1
102
RTVSPost2010Prop36
280
     0
102
RTVSPost2010PropOp36
 70
     1
102
RTVSPost2010Prop37
 90
       50
102
RTVSPost2010PropOp37
 70
     1
102
RTVSPost2010Prop38
140
0.0
102
RTVSPost2010PropOp38
 70
     1
102
RTVSPost2010Prop39
140
1.0
102
RTVSPost2010PropOp39
 70
     1
102
RTVSPost2010Prop40
 90
        0
102
RTVSPost2010PropOp40
 70
     1
102
RTVSPost2010Prop41ColorIndex
 90
       18
102
RTVSPost2010Prop41ColorRGB
 90
        0
102
RTVSPost2010PropOp41
 70
     1
102
RTVSPost2010Prop42
 90
       50
102
RTVSPost2010PropOp42
 70
     1
102
RTVSPost2010Prop43
 90
        3
102
RTVSPost2010PropOp43
 70
     1
102
RTVSPost2010Prop44ColorIndex
 90
        5
102
RTVSPost2010Prop44ColorRGB
 90
      255
102
RTVSPost2010PropOp44
 70
     1
102
RTVSPost2010Prop45
280
     0
102
RTVSPost2010PropOp45
 70
     1
102
RTVSPost2010Prop46
 90
       50
102
RTVSPost2010PropOp46
 70
     1
102
RTVSPost2010Prop47
 90
       50
102
RTVSPost2010PropOp47
 70
     1
102
RTVSPost2010Prop48
 90
       50
102
RTVSPost2010PropOp48
 70
     1
102
RTVSPost2010Prop49
280
     0
102
RTVSPost2010PropOp49
 70
     1
102
RTVSPost2010Prop50
 90
       50
102
RTVSPost2010PropOp50
 70
     1
102
RTVSPost2010Prop51ColorIndex
 90
      256
102
RTVSPost2010Prop51ColorRGB
 90
-16777216
102
RTVSPost2010PropOp51
 70
     0
102
RTVSPost2010Prop52
140
1.0
102
RTVSPost2010PropOp52
 70
     0
102
RTVSPost2010Prop53
 90
        2
102
RTVSPost2010PropOp53
 70
     1
102
RTVSPost2010Prop54
  1
strokes_ogs.tif
102
RTVSPost2010PropOp54
 70
     1
102
RTVSPost2010Prop55
280
     0
102
RTVSPost2010PropOp55
 70
     1
102
RTVSPost2010Prop56
140
1.0
102
RTVSPost2010PropOp56
 70
     1
102
RTVSPost2010Prop57
140
1.0
102
RTVSPost2010PropOp57
 70
     1
102
RTVSPropertyOp0
 70
     1
102
RTVSPropertyOp1
 70
     1
102
RTVSPropertyOp2
 70
     1
102
RTVSPropertyOp3
 70
     1
102
RTVSPropertyOp4
 70
     1
102
RTVSPropertyOp5
 70
     1
102
RTVSPropertyOp6
 70
     1
102
RTVSPropertyOp7
 70
     1
102
RTVSPropertyOp8
 70
     1
102
RTVSPropertyOp9
 70
     1
102
RTVSPropertyOp10
 70
     1
102
RTVSPropertyOp11
 70
     1
102
RTVSPropertyOp12
 70
     1
102
RTVSPropertyOp13
 70
     1
102
RTVSPropertyOp14
 70
     1
102
RTVSPropertyOp15
 70
     1
102
RTVSPropertyOp16
 70
     1
102
RTVSPropertyOp17
 70
     1
102
RTVSPropertyOp18
 70
     1
102
RTVSPropertyOp19
 70
     1
102
RTVSPropertyOp20
 70
     1
102
RTVSPropertyOp21
 70
     1
102
RTVSPropertyOp22
 70
     1
102
RTVSPropertyOp23
 70
     1
102
RTVSPropertyOp24
 70
     1
102
RTVSPropertyOp25
 70
     1
102
RTVSPropertyOp26
 70
     1
102
RTVSPropertyOp27
 70
     1
102
RTVSPropertyOp28
 70
     1
102
RTVSPropertyOp29
 70
     1
102
RTVSPropertyOp30
 70
     1
102
RTVSPropertyOp31
 70
     1
102
RTVSPropertyOp32
 70
     1
102
RTVSPropertyOp33
 70
     1
102
RTVSPropertyOp34
 70
     1
102
RTVSPropertyOp35
 70
     1
102
RTVSPropertyOp36
 70
     1
102
RTVSPropertyOp37
 70
     1
102
RTVSPropertyOp38
 70
     1
102
RTVSPropertyOp39
 70
     1
102
RTVSPropertyOp40
 70
     1
102
RTVSPropertyOp41
 70
     1
102
RTVSPropertyOp42
 70
     1
102
RTVSPropertyOp43
 70
     1
102
RTVSPropertyOp44
 70
     1
102
RTVSPropertyOp45
 70
     1
102
RTVSPropertyOp46
 70
     1
102
RTVSPropertyOp47
 70
     1
102
RTVSPropertyOp48
 70
     1
102
RTVSPropertyOp49
 70
     1
102
RTVSPropertyOp50
 70
     1
102
RTVSPropertyOp51
 70
     0
102
RTVSPropertyOp52
 70
     0
102
RTVSPropertyOp53
 70
     1
102
RTVSPropertyOp54
 70
     1
102
RTVSPropertyOp55
 70
     1
102
RTVSPropertyOp56
 70
     1
102
RTVSPropertyOp57
 70
     1
102
RTVSPropertyOp58
 70
     1
102
RTVSPropertyOp59
 70
     1
102
RTVSPropertyOp60
 70
     1
102
RTVSPropertyOp61
 70
     1
102
RTVSPropertyOp62
 70
     1
  0
XRECORD
  5
382
102
{ACAD_REACTORS
330
381
102
}
330
381
100
AcDbXrecord
280
     1
102
RTVSPost2010Prop28
280
     0
102
RTVSPost2010PropOp28
 70
     1
102
RTVSPost2010Prop29
280
     1
102
RTVSPost2010PropOp29
 70
     1
102
RTVSPost2010Prop30
280
     1
102
RTVSPost2010PropOp30
 70
     1
102
RTVSPost2010Prop31
280
     0
102
RTVSPost2010PropOp31
 70
     1
102
RTVSPost2010Prop32
280
     0
102
RTVSPost2010PropOp32
 70
     1
102
RTVSPost2010Prop33
280
     0
102
RTVSPost2010PropOp33
 70
     1
102
RTVSPost2010Prop34
280
     0
102
RTVSPost2010PropOp34
 70
     1
102
RTVSPost2010Prop35
280
     0
102
RTVSPost2010PropOp35
 70
     1
102
RTVSPost2010Prop36
280
     0
102
RTVSPost2010PropOp36
 70
     1
102
RTVSPost2010Prop37
 90
       50
102
RTVSPost2010PropOp37
 70
     1
102
RTVSPost2010Prop38
140
0.0
102
RTVSPost2010PropOp38
 70
     1
102
RTVSPost2010Prop39
140
1.0
102
RTVSPost2010PropOp39
 70
     1
102
RTVSPost2010Prop40
 90
        0
102
RTVSPost2010PropOp40
 70
     1
102
RTVSPost2010Prop41ColorIndex
 90
       18
102
RTVSPost2010Prop41ColorRGB
 90
        0
102
RTVSPost2010PropOp41
 70
     1
102
RTVSPost2010Prop42
 90
       50
102
RTVSPost2010PropOp42
 70
     1
102
RTVSPost2010Prop43
 90
        3
102
RTVSPost2010PropOp43
 70
     1
102
RTVSPost2010Prop44ColorIndex
 90
        5
102
RTVSPost2010Prop44ColorRGB
 90
      255
102
RTVSPost2010PropOp44
 70
     1
102
RTVSPost2010Prop45
280
     0
102
RTVSPost2010PropOp45
 70
     1
102
RTVSPost2010Prop46
 90
       50
102
RTVSPost2010PropOp46
 70
     1
102
RTVSPost2010Prop47
 90
       50
102
RTVSPost2010PropOp47
 70
     1
102
RTVSPost2010Prop48
 90
       50
102
RTVSPost2010PropOp48
 70
     1
102
RTVSPost2010Prop49
280
     0
102
RTVSPost2010PropOp49
 70
     1
102
RTVSPost2010Prop50
 90
       50
102
RTVSPost2010PropOp50
 70
     1
102
RTVSPost2010Prop51ColorIndex
 90
      256
102
RTVSPost2010Prop51ColorRGB
 90
-16777216
102
RTVSPost2010PropOp51
 70
     0
102
RTVSPost2010Prop52
140
1.0
102
RTVSPost2010PropOp52
 70
     0
102
RTVSPost2010Prop53
 90
        2
102
RTVSPost2010PropOp53
 70
     1
102
RTVSPost2010Prop54
  1
strokes_ogs.tif
102
RTVSPost2010PropOp54
 70
     1
102
RTVSPost2010Prop55
280
     0
102
RTVSPost2010PropOp55
 70
     1
102
RTVSPost2010Prop56
140
1.0
102
RTVSPost2010PropOp56
 70
     1
102
RTVSPost2010Prop57
140
1.0
102
RTVSPost2010PropOp57
 70
     1
102
RTVSPropertyOp0
 70
     1
102
RTVSPropertyOp1
 70
     1
102
RTVSPropertyOp2
 70
     1
102
RTVSPropertyOp3
 70
     1
102
RTVSPropertyOp4
 70
     1
102
RTVSPropertyOp5
 70
     1
102
RTVSPropertyOp6
 70
     1
102
RTVSPropertyOp7
 70
     1
102
RTVSPropertyOp8
 70
     1
102
RTVSPropertyOp9
 70
     1
102
RTVSPropertyOp10
 70
     1
102
RTVSPropertyOp11
 70
     1
102
RTVSPropertyOp12
 70
     1
102
RTVSPropertyOp13
 70
     1
102
RTVSPropertyOp14
 70
     1
102
RTVSPropertyOp15
 70
     1
102
RTVSPropertyOp16
 70
     1
102
RTVSPropertyOp17
 70
     1
102
RTVSPropertyOp18
 70
     1
102
RTVSPropertyOp19
 70
     1
102
RTVSPropertyOp20
 70
     1
102
RTVSPropertyOp21
 70
     1
102
RTVSPropertyOp22
 70
     1
102
RTVSPropertyOp23
 70
     1
102
RTVSPropertyOp24
 70
     1
102
RTVSPropertyOp25
 70
     1
102
RTVSPropertyOp26
 70
     1
102
RTVSPropertyOp27
 70
     1
102
RTVSPropertyOp28
 70
     1
102
RTVSPropertyOp29
 70
     1
102
RTVSPropertyOp30
 70
     1
102
RTVSPropertyOp31
 70
     1
102
RTVSPropertyOp32
 70
     1
102
RTVSPropertyOp33
 70
     1
102
RTVSPropertyOp34
 70
     1
102
RTVSPropertyOp35
 70
     1
102
RTVSPropertyOp36
 70
     1
102
RTVSPropertyOp37
 70
     1
102
RTVSPropertyOp38
 70
     1
102
RTVSPropertyOp39
 70
     1
102
RTVSPropertyOp40
 70
     1
102
RTVSPropertyOp41
 70
     1
102
RTVSPropertyOp42
 70
     1
102
RTVSPropertyOp43
 70
     1
102
RTVSPropertyOp44
 70
     1
102
RTVSPropertyOp45
 70
     1
102
RTVSPropertyOp46
 70
     1
102
RTVSPropertyOp47
 70
     1
102
RTVSPropertyOp48
 70
     1
102
RTVSPropertyOp49
 70
     1
102
RTVSPropertyOp50
 70
     1
102
RTVSPropertyOp51
 70
     0
102
RTVSPropertyOp52
 70
     0
102
RTVSPropertyOp53
 70
     1
102
RTVSPropertyOp54
 70
     1
102
RTVSPropertyOp55
 70
     1
102
RTVSPropertyOp56
 70
     1
102
RTVSPropertyOp57
 70
     1
102
RTVSPropertyOp58
 70
     1
102
RTVSPropertyOp59
 70
     1
102
RTVSPropertyOp60
 70
     1
102
RTVSPropertyOp61
 70
     1
102
RTVSPropertyOp62
 70
     1
  0
XRECORD
  5
384
102
{ACAD_REACTORS
330
383
102
}
330
383
100
AcDbXrecord
280
     1
102
RTVSPost2010Prop28
280
     0
102
RTVSPost2010PropOp28
 70
     1
102
RTVSPost2010Prop29
280
     1
102
RTVSPost2010PropOp29
 70
     1
102
RTVSPost2010Prop30
280
     1
102
RTVSPost2010PropOp30
 70
     1
102
RTVSPost2010Prop31
280
     0
102
RTVSPost2010PropOp31
 70
     1
102
RTVSPost2010Prop32
280
     0
102
RTVSPost2010PropOp32
 70
     1
102
RTVSPost2010Prop33
280
     0
102
RTVSPost2010PropOp33
 70
     1
102
RTVSPost2010Prop34
280
     0
102
RTVSPost2010PropOp34
 70
     1
102
RTVSPost2010Prop35
280
     0
102
RTVSPost2010PropOp35
 70
     1
102
RTVSPost2010Prop36
280
     0
102
RTVSPost2010PropOp36
 70
     1
102
RTVSPost2010Prop37
 90
       50
102
RTVSPost2010PropOp37
 70
     1
102
RTVSPost2010Prop38
140
0.0
102
RTVSPost2010PropOp38
 70
     1
102
RTVSPost2010Prop39
140
1.0
102
RTVSPost2010PropOp39
 70
     1
102
RTVSPost2010Prop40
 90
        0
102
RTVSPost2010PropOp40
 70
     1
102
RTVSPost2010Prop41ColorIndex
 90
       18
102
RTVSPost2010Prop41ColorRGB
 90
        0
102
RTVSPost2010PropOp41
 70
     1
102
RTVSPost2010Prop42
 90
       50
102
RTVSPost2010PropOp42
 70
     1
102
RTVSPost2010Prop43
 90
        3
102
RTVSPost2010PropOp43
 70
     1
102
RTVSPost2010Prop44ColorIndex
 90
        5
102
RTVSPost2010Prop44ColorRGB
 90
      255
102
RTVSPost2010PropOp44
 70
     1
102
RTVSPost2010Prop45
280
     0
102
RTVSPost2010PropOp45
 70
     1
102
RTVSPost2010Prop46
 90
       50
102
RTVSPost2010PropOp46
 70
     1
102
RTVSPost2010Prop47
 90
       50
102
RTVSPost2010PropOp47
 70
     1
102
RTVSPost2010Prop48
 90
       50
102
RTVSPost2010PropOp48
 70
     1
102
RTVSPost2010Prop49
280
     0
102
RTVSPost2010PropOp49
 70
     1
102
RTVSPost2010Prop50
 90
       50
102
RTVSPost2010PropOp50
 70
     1
102
RTVSPost2010Prop51ColorIndex
 90
      256
102
RTVSPost2010Prop51ColorRGB
 90
-16777216
102
RTVSPost2010PropOp51
 70
     0
102
RTVSPost2010Prop52
140
1.0
102
RTVSPost2010PropOp52
 70
     0
102
RTVSPost2010Prop53
 90
        2
102
RTVSPost2010PropOp53
 70
     1
102
RTVSPost2010Prop54
  1
strokes_ogs.tif
102
RTVSPost2010PropOp54
 70
     1
102
RTVSPost2010Prop55
280
     0
102
RTVSPost2010PropOp55
 70
     1
102
RTVSPost2010Prop56
140
1.0
102
RTVSPost2010PropOp56
 70
     1
102
RTVSPost2010Prop57
140
1.0
102
RTVSPost2010PropOp57
 70
     1
102
RTVSPropertyOp0
 70
     1
102
RTVSPropertyOp1
 70
     1
102
RTVSPropertyOp2
 70
     1
102
RTVSPropertyOp3
 70
     1
102
RTVSPropertyOp4
 70
     1
102
RTVSPropertyOp5
 70
     1
102
RTVSPropertyOp6
 70
     1
102
RTVSPropertyOp7
 70
     1
102
RTVSPropertyOp8
 70
     1
102
RTVSPropertyOp9
 70
     1
102
RTVSPropertyOp10
 70
     1
102
RTVSPropertyOp11
 70
     1
102
RTVSPropertyOp12
 70
     1
102
RTVSPropertyOp13
 70
     1
102
RTVSPropertyOp14
 70
     1
102
RTVSPropertyOp15
 70
     1
102
RTVSPropertyOp16
 70
     1
102
RTVSPropertyOp17
 70
     1
102
RTVSPropertyOp18
 70
     1
102
RTVSPropertyOp19
 70
     1
102
RTVSPropertyOp20
 70
     1
102
RTVSPropertyOp21
 70
     1
102
RTVSPropertyOp22
 70
     1
102
RTVSPropertyOp23
 70
     1
102
RTVSPropertyOp24
 70
     1
102
RTVSPropertyOp25
 70
     1
102
RTVSPropertyOp26
 70
     1
102
RTVSPropertyOp27
 70
     1
102
RTVSPropertyOp28
 70
     1
102
RTVSPropertyOp29
 70
     1
102
RTVSPropertyOp30
 70
     1
102
RTVSPropertyOp31
 70
     1
102
RTVSPropertyOp32
 70
     1
102
RTVSPropertyOp33
 70
     1
102
RTVSPropertyOp34
 70
     1
102
RTVSPropertyOp35
 70
     1
102
RTVSPropertyOp36
 70
     1
102
RTVSPropertyOp37
 70
     1
102
RTVSPropertyOp38
 70
     1
102
RTVSPropertyOp39
 70
     1
102
RTVSPropertyOp40
 70
     1
102
RTVSPropertyOp41
 70
     1
102
RTVSPropertyOp42
 70
     1
102
RTVSPropertyOp43
 70
     1
102
RTVSPropertyOp44
 70
     1
102
RTVSPropertyOp45
 70
     1
102
RTVSPropertyOp46
 70
     1
102
RTVSPropertyOp47
 70
     1
102
RTVSPropertyOp48
 70
     1
102
RTVSPropertyOp49
 70
     1
102
RTVSPropertyOp50
 70
     1
102
RTVSPropertyOp51
 70
     0
102
RTVSPropertyOp52
 70
     0
102
RTVSPropertyOp53
 70
     1
102
RTVSPropertyOp54
 70
     1
102
RTVSPropertyOp55
 70
     1
102
RTVSPropertyOp56
 70
     1
102
RTVSPropertyOp57
 70
     1
102
RTVSPropertyOp58
 70
     1
102
RTVSPropertyOp59
 70
     1
102
RTVSPropertyOp60
 70
     1
102
RTVSPropertyOp61
 70
     1
102
RTVSPropertyOp62
 70
     1
  0
XRECORD
  5
386
102
{ACAD_REACTORS
330
385
102
}
330
385
100
AcDbXrecord
280
     1
102
RTVSPost2010Prop28
280
     0
102
RTVSPost2010PropOp28
 70
     1
102
RTVSPost2010Prop29
280
     1
102
RTVSPost2010PropOp29
 70
     1
102
RTVSPost2010Prop30
280
     1
102
RTVSPost2010PropOp30
 70
     1
102
RTVSPost2010Prop31
280
     0
102
RTVSPost2010PropOp31
 70
     1
102
RTVSPost2010Prop32
280
     0
102
RTVSPost2010PropOp32
 70
     1
102
RTVSPost2010Prop33
280
     0
102
RTVSPost2010PropOp33
 70
     1
102
RTVSPost2010Prop34
280
     0
102
RTVSPost2010PropOp34
 70
     1
102
RTVSPost2010Prop35
280
     0
102
RTVSPost2010PropOp35
 70
     1
102
RTVSPost2010Prop36
280
     0
102
RTVSPost2010PropOp36
 70
     1
102
RTVSPost2010Prop37
 90
       50
102
RTVSPost2010PropOp37
 70
     1
102
RTVSPost2010Prop38
140
0.0
102
RTVSPost2010PropOp38
 70
     1
102
RTVSPost2010Prop39
140
1.0
102
RTVSPost2010PropOp39
 70
     1
102
RTVSPost2010Prop40
 90
        0
102
RTVSPost2010PropOp40
 70
     1
102
RTVSPost2010Prop41ColorIndex
 90
       18
102
RTVSPost2010Prop41ColorRGB
 90
        0
102
RTVSPost2010PropOp41
 70
     1
102
RTVSPost2010Prop42
 90
       50
102
RTVSPost2010PropOp42
 70
     1
102
RTVSPost2010Prop43
 90
        3
102
RTVSPost2010PropOp43
 70
     1
102
RTVSPost2010Prop44ColorIndex
 90
        5
102
RTVSPost2010Prop44ColorRGB
 90
      255
102
RTVSPost2010PropOp44
 70
     1
102
RTVSPost2010Prop45
280
     0
102
RTVSPost2010PropOp45
 70
     1
102
RTVSPost2010Prop46
 90
       50
102
RTVSPost2010PropOp46
 70
     1
102
RTVSPost2010Prop47
 90
       50
102
RTVSPost2010PropOp47
 70
     1
102
RTVSPost2010Prop48
 90
       50
102
RTVSPost2010PropOp48
 70
     1
102
RTVSPost2010Prop49
280
     0
102
RTVSPost2010PropOp49
 70
     1
102
RTVSPost2010Prop50
 90
       50
102
RTVSPost2010PropOp50
 70
     1
102
RTVSPost2010Prop51ColorIndex
 90
      256
102
RTVSPost2010Prop51ColorRGB
 90
-16777216
102
RTVSPost2010PropOp51
 70
     0
102
RTVSPost2010Prop52
140
1.0
102
RTVSPost2010PropOp52
 70
     0
102
RTVSPost2010Prop53
 90
        2
102
RTVSPost2010PropOp53
 70
     1
102
RTVSPost2010Prop54
  1
strokes_ogs.tif
102
RTVSPost2010PropOp54
 70
     1
102
RTVSPost2010Prop55
280
     0
102
RTVSPost2010PropOp55
 70
     1
102
RTVSPost2010Prop56
140
1.0
102
RTVSPost2010PropOp56
 70
     1
102
RTVSPost2010Prop57
140
1.0
102
RTVSPost2010PropOp57
 70
     1
102
RTVSPropertyOp0
 70
     1
102
RTVSPropertyOp1
 70
     1
102
RTVSPropertyOp2
 70
     1
102
RTVSPropertyOp3
 70
     1
102
RTVSPropertyOp4
 70
     1
102
RTVSPropertyOp5
 70
     1
102
RTVSPropertyOp6
 70
     1
102
RTVSPropertyOp7
 70
     1
102
RTVSPropertyOp8
 70
     1
102
RTVSPropertyOp9
 70
     1
102
RTVSPropertyOp10
 70
     1
102
RTVSPropertyOp11
 70
     1
102
RTVSPropertyOp12
 70
     1
102
RTVSPropertyOp13
 70
     1
102
RTVSPropertyOp14
 70
     1
102
RTVSPropertyOp15
 70
     1
102
RTVSPropertyOp16
 70
     1
102
RTVSPropertyOp17
 70
     1
102
RTVSPropertyOp18
 70
     1
102
RTVSPropertyOp19
 70
     1
102
RTVSPropertyOp20
 70
     1
102
RTVSPropertyOp21
 70
     1
102
RTVSPropertyOp22
 70
     1
102
RTVSPropertyOp23
 70
     1
102
RTVSPropertyOp24
 70
     1
102
RTVSPropertyOp25
 70
     1
102
RTVSPropertyOp26
 70
     1
102
RTVSPropertyOp27
 70
     1
102
RTVSPropertyOp28
 70
     1
102
RTVSPropertyOp29
 70
     1
102
RTVSPropertyOp30
 70
     1
102
RTVSPropertyOp31
 70
     1
102
RTVSPropertyOp32
 70
     1
102
RTVSPropertyOp33
 70
     1
102
RTVSPropertyOp34
 70
     1
102
RTVSPropertyOp35
 70
     1
102
RTVSPropertyOp36
 70
     1
102
RTVSPropertyOp37
 70
     1
102
RTVSPropertyOp38
 70
     1
102
RTVSPropertyOp39
 70
     1
102
RTVSPropertyOp40
 70
     1
102
RTVSPropertyOp41
 70
     1
102
RTVSPropertyOp42
 70
     1
102
RTVSPropertyOp43
 70
     1
102
RTVSPropertyOp44
 70
     1
102
RTVSPropertyOp45
 70
     1
102
RTVSPropertyOp46
 70
     1
102
RTVSPropertyOp47
 70
     1
102
RTVSPropertyOp48
 70
     1
102
RTVSPropertyOp49
 70
     1
102
RTVSPropertyOp50
 70
     1
102
RTVSPropertyOp51
 70
     0
102
RTVSPropertyOp52
 70
     0
102
RTVSPropertyOp53
 70
     1
102
RTVSPropertyOp54
 70
     1
102
RTVSPropertyOp55
 70
     1
102
RTVSPropertyOp56
 70
     1
102
RTVSPropertyOp57
 70
     1
102
RTVSPropertyOp58
 70
     1
102
RTVSPropertyOp59
 70
     1
102
RTVSPropertyOp60
 70
     1
102
RTVSPropertyOp61
 70
     1
102
RTVSPropertyOp62
 70
     1
  0
XRECORD
  5
38C
102
{ACAD_REACTORS
330
38B
102
}
330
38B
100
AcDbXrecord
280
     1
102
RTVSPost2010Prop28
280
     0
102
RTVSPost2010PropOp28
 70
     1
102
RTVSPost2010Prop29
280
     1
102
RTVSPost2010PropOp29
 70
     1
102
RTVSPost2010Prop30
280
     1
102
RTVSPost2010PropOp30
 70
     1
102
RTVSPost2010Prop31
280
     0
102
RTVSPost2010PropOp31
 70
     1
102
RTVSPost2010Prop32
280
     0
102
RTVSPost2010PropOp32
 70
     1
102
RTVSPost2010Prop33
280
     0
102
RTVSPost2010PropOp33
 70
     1
102
RTVSPost2010Prop34
280
     0
102
RTVSPost2010PropOp34
 70
     1
102
RTVSPost2010Prop35
280
     0
102
RTVSPost2010PropOp35
 70
     1
102
RTVSPost2010Prop36
280
     0
102
RTVSPost2010PropOp36
 70
     1
102
RTVSPost2010Prop37
 90
       50
102
RTVSPost2010PropOp37
 70
     1
102
RTVSPost2010Prop38
140
0.0
102
RTVSPost2010PropOp38
 70
     1
102
RTVSPost2010Prop39
140
1.0
102
RTVSPost2010PropOp39
 70
     1
102
RTVSPost2010Prop40
 90
        0
102
RTVSPost2010PropOp40
 70
     1
102
RTVSPost2010Prop41ColorIndex
 90
       18
102
RTVSPost2010Prop41ColorRGB
 90
        0
102
RTVSPost2010PropOp41
 70
     1
102
RTVSPost2010Prop42
 90
       50
102
RTVSPost2010PropOp42
 70
     1
102
RTVSPost2010Prop43
 90
        3
102
RTVSPost2010PropOp43
 70
     1
102
RTVSPost2010Prop44ColorIndex
 90
        5
102
RTVSPost2010Prop44ColorRGB
 90
      255
102
RTVSPost2010PropOp44
 70
     1
102
RTVSPost2010Prop45
280
     0
102
RTVSPost2010PropOp45
 70
     1
102
RTVSPost2010Prop46
 90
       50
102
RTVSPost2010PropOp46
 70
     1
102
RTVSPost2010Prop47
 90
       50
102
RTVSPost2010PropOp47
 70
     1
102
RTVSPost2010Prop48
 90
       50
102
RTVSPost2010PropOp48
 70
     1
102
RTVSPost2010Prop49
280
     0
102
RTVSPost2010PropOp49
 70
     1
102
RTVSPost2010Prop50
 90
       50
102
RTVSPost2010PropOp50
 70
     1
102
RTVSPost2010Prop51ColorIndex
 90
      256
102
RTVSPost2010Prop51ColorRGB
 90
-16777216
102
RTVSPost2010PropOp51
 70
     0
102
RTVSPost2010Prop52
140
1.0
102
RTVSPost2010PropOp52
 70
     0
102
RTVSPost2010Prop53
 90
        2
102
RTVSPost2010PropOp53
 70
     1
102
RTVSPost2010Prop54
  1
strokes_ogs.tif
102
RTVSPost2010PropOp54
 70
     1
102
RTVSPost2010Prop55
280
     0
102
RTVSPost2010PropOp55
 70
     1
102
RTVSPost2010Prop56
140
1.0
102
RTVSPost2010PropOp56
 70
     1
102
RTVSPost2010Prop57
140
1.0
102
RTVSPost2010PropOp57
 70
     1
102
RTVSPropertyOp0
 70
     1
102
RTVSPropertyOp1
 70
     1
102
RTVSPropertyOp2
 70
     1
102
RTVSPropertyOp3
 70
     1
102
RTVSPropertyOp4
 70
     1
102
RTVSPropertyOp5
 70
     1
102
RTVSPropertyOp6
 70
     1
102
RTVSPropertyOp7
 70
     1
102
RTVSPropertyOp8
 70
     1
102
RTVSPropertyOp9
 70
     1
102
RTVSPropertyOp10
 70
     1
102
RTVSPropertyOp11
 70
     1
102
RTVSPropertyOp12
 70
     1
102
RTVSPropertyOp13
 70
     1
102
RTVSPropertyOp14
 70
     1
102
RTVSPropertyOp15
 70
     1
102
RTVSPropertyOp16
 70
     1
102
RTVSPropertyOp17
 70
     1
102
RTVSPropertyOp18
 70
     1
102
RTVSPropertyOp19
 70
     1
102
RTVSPropertyOp20
 70
     1
102
RTVSPropertyOp21
 70
     1
102
RTVSPropertyOp22
 70
     1
102
RTVSPropertyOp23
 70
     1
102
RTVSPropertyOp24
 70
     1
102
RTVSPropertyOp25
 70
     1
102
RTVSPropertyOp26
 70
     1
102
RTVSPropertyOp27
 70
     1
102
RTVSPropertyOp28
 70
     1
102
RTVSPropertyOp29
 70
     1
102
RTVSPropertyOp30
 70
     1
102
RTVSPropertyOp31
 70
     1
102
RTVSPropertyOp32
 70
     1
102
RTVSPropertyOp33
 70
     1
102
RTVSPropertyOp34
 70
     1
102
RTVSPropertyOp35
 70
     1
102
RTVSPropertyOp36
 70
     1
102
RTVSPropertyOp37
 70
     1
102
RTVSPropertyOp38
 70
     1
102
RTVSPropertyOp39
 70
     1
102
RTVSPropertyOp40
 70
     1
102
RTVSPropertyOp41
 70
     1
102
RTVSPropertyOp42
 70
     1
102
RTVSPropertyOp43
 70
     1
102
RTVSPropertyOp44
 70
     1
102
RTVSPropertyOp45
 70
     1
102
RTVSPropertyOp46
 70
     1
102
RTVSPropertyOp47
 70
     1
102
RTVSPropertyOp48
 70
     1
102
RTVSPropertyOp49
 70
     1
102
RTVSPropertyOp50
 70
     1
102
RTVSPropertyOp51
 70
     0
102
RTVSPropertyOp52
 70
     0
102
RTVSPropertyOp53
 70
     1
102
RTVSPropertyOp54
 70
     1
102
RTVSPropertyOp55
 70
     1
102
RTVSPropertyOp56
 70
     1
102
RTVSPropertyOp57
 70
     1
102
RTVSPropertyOp58
 70
     1
102
RTVSPropertyOp59
 70
     1
102
RTVSPropertyOp60
 70
     1
102
RTVSPropertyOp61
 70
     1
102
RTVSPropertyOp62
 70
     1
  0
XRECORD
  5
3A0
102
{ACAD_REACTORS
330
39F
102
}
330
39F
100
AcDbXrecord
280
     1
102
RTVSPost2010Prop28
280
     0
102
RTVSPost2010PropOp28
 70
     0
102
RTVSPost2010Prop29
280
     1
102
RTVSPost2010PropOp29
 70
     0
102
RTVSPost2010Prop30
280
     1
102
RTVSPost2010PropOp30
 70
     0
102
RTVSPost2010Prop31
280
     0
102
RTVSPost2010PropOp31
 70
     0
102
RTVSPost2010Prop32
280
     0
102
RTVSPost2010PropOp32
 70
     0
102
RTVSPost2010Prop33
280
     0
102
RTVSPost2010PropOp33
 70
     0
102
RTVSPost2010Prop34
280
     0
102
RTVSPost2010PropOp34
 70
     0
102
RTVSPost2010Prop35
280
     0
102
RTVSPost2010PropOp35
 70
     0
102
RTVSPost2010Prop36
280
     0
102
RTVSPost2010PropOp36
 70
     0
102
RTVSPost2010Prop37
 90
       50
102
RTVSPost2010PropOp37
 70
     0
102
RTVSPost2010Prop38
140
0.0
102
RTVSPost2010PropOp38
 70
     0
102
RTVSPost2010Prop39
140
1.0
102
RTVSPost2010PropOp39
 70
     0
102
RTVSPost2010Prop40
 90
        0
102
RTVSPost2010PropOp40
 70
     0
102
RTVSPost2010Prop41ColorIndex
 90
       18
102
RTVSPost2010Prop41ColorRGB
 90
        0
102
RTVSPost2010PropOp41
 70
     0
102
RTVSPost2010Prop42
 90
       50
102
RTVSPost2010PropOp42
 70
     0
102
RTVSPost2010Prop43
 90
        3
102
RTVSPost2010PropOp43
 70
     0
102
RTVSPost2010Prop44ColorIndex
 90
        5
102
RTVSPost2010Prop44ColorRGB
 90
      255
102
RTVSPost2010PropOp44
 70
     0
102
RTVSPost2010Prop45
280
     0
102
RTVSPost2010PropOp45
 70
     0
102
RTVSPost2010Prop46
 90
       50
102
RTVSPost2010PropOp46
 70
     0
102
RTVSPost2010Prop47
 90
       50
102
RTVSPost2010PropOp47
 70
     0
102
RTVSPost2010Prop48
 90
       50
102
RTVSPost2010PropOp48
 70
     0
102
RTVSPost2010Prop49
280
     0
102
RTVSPost2010PropOp49
 70
     0
102
RTVSPost2010Prop50
 90
       50
102
RTVSPost2010PropOp50
 70
     0
102
RTVSPost2010Prop51ColorIndex
 90
      256
102
RTVSPost2010Prop51ColorRGB
 90
-16777216
102
RTVSPost2010PropOp51
 70
     0
102
RTVSPost2010Prop52
140
1.0
102
RTVSPost2010PropOp52
 70
     0
102
RTVSPost2010Prop53
 90
        2
102
RTVSPost2010PropOp53
 70
     0
102
RTVSPost2010Prop54
  1
strokes_ogs.tif
102
RTVSPost2010PropOp54
 70
     0
102
RTVSPost2010Prop55
280
     0
102
RTVSPost2010PropOp55
 70
     0
102
RTVSPost2010Prop56
140
1.0
102
RTVSPost2010PropOp56
 70
     0
102
RTVSPost2010Prop57
140
1.0
102
RTVSPost2010PropOp57
 70
     0
102
RTVSPropertyOp0
 70
     0
102
RTVSPropertyOp1
 70
     0
102
RTVSPropertyOp2
 70
     0
102
RTVSPropertyOp3
 70
     0
102
RTVSPropertyOp4
 70
     0
102
RTVSPropertyOp5
 70
     0
102
RTVSPropertyOp6
 70
     0
102
RTVSPropertyOp7
 70
     0
102
RTVSPropertyOp8
 70
     0
102
RTVSPropertyOp9
 70
     0
102
RTVSPropertyOp10
 70
     0
102
RTVSPropertyOp11
 70
     0
102
RTVSPropertyOp12
 70
     0
102
RTVSPropertyOp13
 70
     0
102
RTVSPropertyOp14
 70
     2
102
RTVSPropertyOp15
 70
     0
102
RTVSPropertyOp16
 70
     0
102
RTVSPropertyOp17
 70
     0
102
RTVSPropertyOp18
 70
     0
102
RTVSPropertyOp19
 70
     0
102
RTVSPropertyOp20
 70
     0
102
RTVSPropertyOp21
 70
     0
102
RTVSPropertyOp22
 70
     0
102
RTVSPropertyOp23
 70
     0
102
RTVSPropertyOp24
 70
     0
102
RTVSPropertyOp25
 70
     0
102
RTVSPropertyOp26
 70
     0
102
RTVSPropertyOp27
 70
     0
102
RTVSPropertyOp28
 70
     0
102
RTVSPropertyOp29
 70
     0
102
RTVSPropertyOp30
 70
     0
102
RTVSPropertyOp31
 70
     0
102
RTVSPropertyOp32
 70
     0
102
RTVSPropertyOp33
 70
     0
102
RTVSPropertyOp34
 70
     0
102
RTVSPropertyOp35
 70
     0
102
RTVSPropertyOp36
 70
     0
102
RTVSPropertyOp37
 70
     0
102
RTVSPropertyOp38
 70
     0
102
RTVSPropertyOp39
 70
     0
102
RTVSPropertyOp40
 70
     0
102
RTVSPropertyOp41
 70
     0
102
RTVSPropertyOp42
 70
     0
102
RTVSPropertyOp43
 70
     0
102
RTVSPropertyOp44
 70
     0
102
RTVSPropertyOp45
 70
     0
102
RTVSPropertyOp46
 70
     0
102
RTVSPropertyOp47
 70
     0
102
RTVSPropertyOp48
 70
     0
102
RTVSPropertyOp49
 70
     0
102
RTVSPropertyOp50
 70
     0
102
RTVSPropertyOp51
 70
     0
102
RTVSPropertyOp52
 70
     0
102
RTVSPropertyOp53
 70
     0
102
RTVSPropertyOp54
 70
     0
102
RTVSPropertyOp55
 70
     0
102
RTVSPropertyOp56
 70
     0
102
RTVSPropertyOp57
 70
     0
102
RTVSPropertyOp58
 70
     1
102
RTVSPropertyOp59
 70
     1
102
RTVSPropertyOp60
 70
     1
102
RTVSPropertyOp61
 70
     1
102
RTVSPropertyOp62
 70
     1
  0
XRECORD
  5
39A
102
{ACAD_REACTORS
330
399
102
}
330
399
100
AcDbXrecord
280
     1
102
RTVSPost2010Prop28
280
     0
102
RTVSPost2010PropOp28
 70
     1
102
RTVSPost2010Prop29
280
     1
102
RTVSPost2010PropOp29
 70
     1
102
RTVSPost2010Prop30
280
     1
102
RTVSPost2010PropOp30
 70
     1
102
RTVSPost2010Prop31
280
     0
102
RTVSPost2010PropOp31
 70
     1
102
RTVSPost2010Prop32
280
     0
102
RTVSPost2010PropOp32
 70
     1
102
RTVSPost2010Prop33
280
     0
102
RTVSPost2010PropOp33
 70
     1
102
RTVSPost2010Prop34
280
     0
102
RTVSPost2010PropOp34
 70
     1
102
RTVSPost2010Prop35
280
     0
102
RTVSPost2010PropOp35
 70
     1
102
RTVSPost2010Prop36
280
     0
102
RTVSPost2010PropOp36
 70
     1
102
RTVSPost2010Prop37
 90
       50
102
RTVSPost2010PropOp37
 70
     1
102
RTVSPost2010Prop38
140
0.0
102
RTVSPost2010PropOp38
 70
     1
102
RTVSPost2010Prop39
140
1.0
102
RTVSPost2010PropOp39
 70
     1
102
RTVSPost2010Prop40
 90
        0
102
RTVSPost2010PropOp40
 70
     1
102
RTVSPost2010Prop41ColorIndex
 90
       18
102
RTVSPost2010Prop41ColorRGB
 90
        0
102
RTVSPost2010PropOp41
 70
     1
102
RTVSPost2010Prop42
 90
       50
102
RTVSPost2010PropOp42
 70
     1
102
RTVSPost2010Prop43
 90
        3
102
RTVSPost2010PropOp43
 70
     1
102
RTVSPost2010Prop44ColorIndex
 90
        5
102
RTVSPost2010Prop44ColorRGB
 90
      255
102
RTVSPost2010PropOp44
 70
     1
102
RTVSPost2010Prop45
280
     0
102
RTVSPost2010PropOp45
 70
     1
102
RTVSPost2010Prop46
 90
       50
102
RTVSPost2010PropOp46
 70
     1
102
RTVSPost2010Prop47
 90
       50
102
RTVSPost2010PropOp47
 70
     1
102
RTVSPost2010Prop48
 90
       50
102
RTVSPost2010PropOp48
 70
     1
102
RTVSPost2010Prop49
280
     0
102
RTVSPost2010PropOp49
 70
     1
102
RTVSPost2010Prop50
 90
       50
102
RTVSPost2010PropOp50
 70
     1
102
RTVSPost2010Prop51ColorIndex
 90
      256
102
RTVSPost2010Prop51ColorRGB
 90
-16777216
102
RTVSPost2010PropOp51
 70
     0
102
RTVSPost2010Prop52
140
1.0
102
RTVSPost2010PropOp52
 70
     0
102
RTVSPost2010Prop53
 90
        2
102
RTVSPost2010PropOp53
 70
     1
102
RTVSPost2010Prop54
  1
strokes_ogs.tif
102
RTVSPost2010PropOp54
 70
     1
102
RTVSPost2010Prop55
280
     0
102
RTVSPost2010PropOp55
 70
     1
102
RTVSPost2010Prop56
140
1.0
102
RTVSPost2010PropOp56
 70
     1
102
RTVSPost2010Prop57
140
1.0
102
RTVSPost2010PropOp57
 70
     1
102
RTVSPropertyOp0
 70
     1
102
RTVSPropertyOp1
 70
     1
102
RTVSPropertyOp2
 70
     1
102
RTVSPropertyOp3
 70
     1
102
RTVSPropertyOp4
 70
     1
102
RTVSPropertyOp5
 70
     1
102
RTVSPropertyOp6
 70
     1
102
RTVSPropertyOp7
 70
     1
102
RTVSPropertyOp8
 70
     1
102
RTVSPropertyOp9
 70
     1
102
RTVSPropertyOp10
 70
     1
102
RTVSPropertyOp11
 70
     1
102
RTVSPropertyOp12
 70
     1
102
RTVSPropertyOp13
 70
     1
102
RTVSPropertyOp14
 70
     1
102
RTVSPropertyOp15
 70
     1
102
RTVSPropertyOp16
 70
     1
102
RTVSPropertyOp17
 70
     1
102
RTVSPropertyOp18
 70
     1
102
RTVSPropertyOp19
 70
     1
102
RTVSPropertyOp20
 70
     1
102
RTVSPropertyOp21
 70
     1
102
RTVSPropertyOp22
 70
     1
102
RTVSPropertyOp23
 70
     1
102
RTVSPropertyOp24
 70
     1
102
RTVSPropertyOp25
 70
     1
102
RTVSPropertyOp26
 70
     1
102
RTVSPropertyOp27
 70
     1
102
RTVSPropertyOp28
 70
     1
102
RTVSPropertyOp29
 70
     1
102
RTVSPropertyOp30
 70
     1
102
RTVSPropertyOp31
 70
     1
102
RTVSPropertyOp32
 70
     1
102
RTVSPropertyOp33
 70
     1
102
RTVSPropertyOp34
 70
     1
102
RTVSPropertyOp35
 70
     1
102
RTVSPropertyOp36
 70
     1
102
RTVSPropertyOp37
 70
     1
102
RTVSPropertyOp38
 70
     1
102
RTVSPropertyOp39
 70
     1
102
RTVSPropertyOp40
 70
     1
102
RTVSPropertyOp41
 70
     1
102
RTVSPropertyOp42
 70
     1
102
RTVSPropertyOp43
 70
     1
102
RTVSPropertyOp44
 70
     1
102
RTVSPropertyOp45
 70
     1
102
RTVSPropertyOp46
 70
     1
102
RTVSPropertyOp47
 70
     1
102
RTVSPropertyOp48
 70
     1
102
RTVSPropertyOp49
 70
     1
102
RTVSPropertyOp50
 70
     1
102
RTVSPropertyOp51
 70
     0
102
RTVSPropertyOp52
 70
     0
102
RTVSPropertyOp53
 70
     1
102
RTVSPropertyOp54
 70
     1
102
RTVSPropertyOp55
 70
     1
102
RTVSPropertyOp56
 70
     1
102
RTVSPropertyOp57
 70
     1
102
RTVSPropertyOp58
 70
     1
102
RTVSPropertyOp59
 70
     1
102
RTVSPropertyOp60
 70
     1
102
RTVSPropertyOp61
 70
     1
102
RTVSPropertyOp62
 70
     1
  0
XRECORD
  5
3A2
102
{ACAD_REACTORS
330
3A1
102
}
330
3A1
100
AcDbXrecord
280
     1
102
RTVSPost2010Prop28
280
     0
102
RTVSPost2010PropOp28
 70
     0
102
RTVSPost2010Prop29
280
     1
102
RTVSPost2010PropOp29
 70
     0
102
RTVSPost2010Prop30
280
     1
102
RTVSPost2010PropOp30
 70
     0
102
RTVSPost2010Prop31
280
     0
102
RTVSPost2010PropOp31
 70
     0
102
RTVSPost2010Prop32
280
     0
102
RTVSPost2010PropOp32
 70
     0
102
RTVSPost2010Prop33
280
     0
102
RTVSPost2010PropOp33
 70
     0
102
RTVSPost2010Prop34
280
     0
102
RTVSPost2010PropOp34
 70
     0
102
RTVSPost2010Prop35
280
     0
102
RTVSPost2010PropOp35
 70
     0
102
RTVSPost2010Prop36
280
     0
102
RTVSPost2010PropOp36
 70
     0
102
RTVSPost2010Prop37
 90
       50
102
RTVSPost2010PropOp37
 70
     0
102
RTVSPost2010Prop38
140
0.0
102
RTVSPost2010PropOp38
 70
     0
102
RTVSPost2010Prop39
140
1.0
102
RTVSPost2010PropOp39
 70
     0
102
RTVSPost2010Prop40
 90
        0
102
RTVSPost2010PropOp40
 70
     0
102
RTVSPost2010Prop41ColorIndex
 90
       18
102
RTVSPost2010Prop41ColorRGB
 90
        0
102
RTVSPost2010PropOp41
 70
     0
102
RTVSPost2010Prop42
 90
       50
102
RTVSPost2010PropOp42
 70
     0
102
RTVSPost2010Prop43
 90
        3
102
RTVSPost2010PropOp43
 70
     0
102
RTVSPost2010Prop44ColorIndex
 90
        5
102
RTVSPost2010Prop44ColorRGB
 90
      255
102
RTVSPost2010PropOp44
 70
     0
102
RTVSPost2010Prop45
280
     0
102
RTVSPost2010PropOp45
 70
     0
102
RTVSPost2010Prop46
 90
       50
102
RTVSPost2010PropOp46
 70
     0
102
RTVSPost2010Prop47
 90
       50
102
RTVSPost2010PropOp47
 70
     0
102
RTVSPost2010Prop48
 90
       50
102
RTVSPost2010PropOp48
 70
     0
102
RTVSPost2010Prop49
280
     0
102
RTVSPost2010PropOp49
 70
     0
102
RTVSPost2010Prop50
 90
       50
102
RTVSPost2010PropOp50
 70
     0
102
RTVSPost2010Prop51ColorIndex
 90
      256
102
RTVSPost2010Prop51ColorRGB
 90
-16777216
102
RTVSPost2010PropOp51
 70
     0
102
RTVSPost2010Prop52
140
1.0
102
RTVSPost2010PropOp52
 70
     0
102
RTVSPost2010Prop53
 90
        2
102
RTVSPost2010PropOp53
 70
     0
102
RTVSPost2010Prop54
  1
strokes_ogs.tif
102
RTVSPost2010PropOp54
 70
     0
102
RTVSPost2010Prop55
280
     0
102
RTVSPost2010PropOp55
 70
     0
102
RTVSPost2010Prop56
140
1.0
102
RTVSPost2010PropOp56
 70
     0
102
RTVSPost2010Prop57
140
1.0
102
RTVSPost2010PropOp57
 70
     0
102
RTVSPropertyOp0
 70
     0
102
RTVSPropertyOp1
 70
     0
102
RTVSPropertyOp2
 70
     0
102
RTVSPropertyOp3
 70
     0
102
RTVSPropertyOp4
 70
     0
102
RTVSPropertyOp5
 70
     0
102
RTVSPropertyOp6
 70
     0
102
RTVSPropertyOp7
 70
     0
102
RTVSPropertyOp8
 70
     0
102
RTVSPropertyOp9
 70
     0
102
RTVSPropertyOp10
 70
     0
102
RTVSPropertyOp11
 70
     0
102
RTVSPropertyOp12
 70
     0
102
RTVSPropertyOp13
 70
     0
102
RTVSPropertyOp14
 70
     2
102
RTVSPropertyOp15
 70
     0
102
RTVSPropertyOp16
 70
     0
102
RTVSPropertyOp17
 70
     0
102
RTVSPropertyOp18
 70
     0
102
RTVSPropertyOp19
 70
     0
102
RTVSPropertyOp20
 70
     0
102
RTVSPropertyOp21
 70
     0
102
RTVSPropertyOp22
 70
     0
102
RTVSPropertyOp23
 70
     0
102
RTVSPropertyOp24
 70
     0
102
RTVSPropertyOp25
 70
     0
102
RTVSPropertyOp26
 70
     0
102
RTVSPropertyOp27
 70
     0
102
RTVSPropertyOp28
 70
     0
102
RTVSPropertyOp29
 70
     0
102
RTVSPropertyOp30
 70
     0
102
RTVSPropertyOp31
 70
     0
102
RTVSPropertyOp32
 70
     0
102
RTVSPropertyOp33
 70
     0
102
RTVSPropertyOp34
 70
     0
102
RTVSPropertyOp35
 70
     0
102
RTVSPropertyOp36
 70
     0
102
RTVSPropertyOp37
 70
     0
102
RTVSPropertyOp38
 70
     0
102
RTVSPropertyOp39
 70
     0
102
RTVSPropertyOp40
 70
     0
102
RTVSPropertyOp41
 70
     0
102
RTVSPropertyOp42
 70
     0
102
RTVSPropertyOp43
 70
     0
102
RTVSPropertyOp44
 70
     0
102
RTVSPropertyOp45
 70
     0
102
RTVSPropertyOp46
 70
     0
102
RTVSPropertyOp47
 70
     0
102
RTVSPropertyOp48
 70
     0
102
RTVSPropertyOp49
 70
     0
102
RTVSPropertyOp50
 70
     0
102
RTVSPropertyOp51
 70
     0
102
RTVSPropertyOp52
 70
     0
102
RTVSPropertyOp53
 70
     0
102
RTVSPropertyOp54
 70
     0
102
RTVSPropertyOp55
 70
     0
102
RTVSPropertyOp56
 70
     0
102
RTVSPropertyOp57
 70
     0
102
RTVSPropertyOp58
 70
     1
102
RTVSPropertyOp59
 70
     1
102
RTVSPropertyOp60
 70
     1
102
RTVSPropertyOp61
 70
     1
102
RTVSPropertyOp62
 70
     1
  0
XRECORD
  5
390
102
{ACAD_REACTORS
330
38F
102
}
330
38F
100
AcDbXrecord
280
     1
102
RTVSPost2010Prop28
280
     0
102
RTVSPost2010PropOp28
 70
     1
102
RTVSPost2010Prop29
280
     1
102
RTVSPost2010PropOp29
 70
     1
102
RTVSPost2010Prop30
280
     1
102
RTVSPost2010PropOp30
 70
     1
102
RTVSPost2010Prop31
280
     0
102
RTVSPost2010PropOp31
 70
     1
102
RTVSPost2010Prop32
280
     0
102
RTVSPost2010PropOp32
 70
     1
102
RTVSPost2010Prop33
280
     0
102
RTVSPost2010PropOp33
 70
     1
102
RTVSPost2010Prop34
280
     0
102
RTVSPost2010PropOp34
 70
     1
102
RTVSPost2010Prop35
280
     0
102
RTVSPost2010PropOp35
 70
     1
102
RTVSPost2010Prop36
280
     0
102
RTVSPost2010PropOp36
 70
     1
102
RTVSPost2010Prop37
 90
       50
102
RTVSPost2010PropOp37
 70
     1
102
RTVSPost2010Prop38
140
0.0
102
RTVSPost2010PropOp38
 70
     1
102
RTVSPost2010Prop39
140
1.0
102
RTVSPost2010PropOp39
 70
     1
102
RTVSPost2010Prop40
 90
        0
102
RTVSPost2010PropOp40
 70
     1
102
RTVSPost2010Prop41ColorIndex
 90
       18
102
RTVSPost2010Prop41ColorRGB
 90
        0
102
RTVSPost2010PropOp41
 70
     1
102
RTVSPost2010Prop42
 90
       50
102
RTVSPost2010PropOp42
 70
     1
102
RTVSPost2010Prop43
 90
        3
102
RTVSPost2010PropOp43
 70
     1
102
RTVSPost2010Prop44ColorIndex
 90
        5
102
RTVSPost2010Prop44ColorRGB
 90
      255
102
RTVSPost2010PropOp44
 70
     1
102
RTVSPost2010Prop45
280
     0
102
RTVSPost2010PropOp45
 70
     1
102
RTVSPost2010Prop46
 90
       50
102
RTVSPost2010PropOp46
 70
     1
102
RTVSPost2010Prop47
 90
       50
102
RTVSPost2010PropOp47
 70
     1
102
RTVSPost2010Prop48
 90
       50
102
RTVSPost2010PropOp48
 70
     1
102
RTVSPost2010Prop49
280
     0
102
RTVSPost2010PropOp49
 70
     1
102
RTVSPost2010Prop50
 90
       50
102
RTVSPost2010PropOp50
 70
     1
102
RTVSPost2010Prop51ColorIndex
 90
      256
102
RTVSPost2010Prop51ColorRGB
 90
-16777216
102
RTVSPost2010PropOp51
 70
     0
102
RTVSPost2010Prop52
140
1.0
102
RTVSPost2010PropOp52
 70
     0
102
RTVSPost2010Prop53
 90
        2
102
RTVSPost2010PropOp53
 70
     1
102
RTVSPost2010Prop54
  1
strokes_ogs.tif
102
RTVSPost2010PropOp54
 70
     1
102
RTVSPost2010Prop55
280
     0
102
RTVSPost2010PropOp55
 70
     1
102
RTVSPost2010Prop56
140
1.0
102
RTVSPost2010PropOp56
 70
     1
102
RTVSPost2010Prop57
140
1.0
102
RTVSPost2010PropOp57
 70
     1
102
RTVSPropertyOp0
 70
     1
102
RTVSPropertyOp1
 70
     1
102
RTVSPropertyOp2
 70
     1
102
RTVSPropertyOp3
 70
     1
102
RTVSPropertyOp4
 70
     1
102
RTVSPropertyOp5
 70
     1
102
RTVSPropertyOp6
 70
     1
102
RTVSPropertyOp7
 70
     1
102
RTVSPropertyOp8
 70
     1
102
RTVSPropertyOp9
 70
     1
102
RTVSPropertyOp10
 70
     1
102
RTVSPropertyOp11
 70
     1
102
RTVSPropertyOp12
 70
     1
102
RTVSPropertyOp13
 70
     1
102
RTVSPropertyOp14
 70
     1
102
RTVSPropertyOp15
 70
     1
102
RTVSPropertyOp16
 70
     1
102
RTVSPropertyOp17
 70
     1
102
RTVSPropertyOp18
 70
     1
102
RTVSPropertyOp19
 70
     1
102
RTVSPropertyOp20
 70
     1
102
RTVSPropertyOp21
 70
     1
102
RTVSPropertyOp22
 70
     1
102
RTVSPropertyOp23
 70
     1
102
RTVSPropertyOp24
 70
     1
102
RTVSPropertyOp25
 70
     1
102
RTVSPropertyOp26
 70
     1
102
RTVSPropertyOp27
 70
     1
102
RTVSPropertyOp28
 70
     1
102
RTVSPropertyOp29
 70
     1
102
RTVSPropertyOp30
 70
     1
102
RTVSPropertyOp31
 70
     1
102
RTVSPropertyOp32
 70
     1
102
RTVSPropertyOp33
 70
     1
102
RTVSPropertyOp34
 70
     1
102
RTVSPropertyOp35
 70
     1
102
RTVSPropertyOp36
 70
     1
102
RTVSPropertyOp37
 70
     1
102
RTVSPropertyOp38
 70
     1
102
RTVSPropertyOp39
 70
     1
102
RTVSPropertyOp40
 70
     1
102
RTVSPropertyOp41
 70
     1
102
RTVSPropertyOp42
 70
     1
102
RTVSPropertyOp43
 70
     1
102
RTVSPropertyOp44
 70
     1
102
RTVSPropertyOp45
 70
     1
102
RTVSPropertyOp46
 70
     1
102
RTVSPropertyOp47
 70
     1
102
RTVSPropertyOp48
 70
     1
102
RTVSPropertyOp49
 70
     1
102
RTVSPropertyOp50
 70
     1
102
RTVSPropertyOp51
 70
     0
102
RTVSPropertyOp52
 70
     0
102
RTVSPropertyOp53
 70
     1
102
RTVSPropertyOp54
 70
     1
102
RTVSPropertyOp55
 70
     1
102
RTVSPropertyOp56
 70
     1
102
RTVSPropertyOp57
 70
     1
102
RTVSPropertyOp58
 70
     1
102
RTVSPropertyOp59
 70
     1
102
RTVSPropertyOp60
 70
     1
102
RTVSPropertyOp61
 70
     1
102
RTVSPropertyOp62
 70
     1
  0
XRECORD
  5
3AE
102
{ACAD_REACTORS
330
3AD
102
}
330
3AD
100
AcDbXrecord
280
     1
102
RTVSPost2010Prop28
280
     0
102
RTVSPost2010PropOp28
 70
     1
102
RTVSPost2010Prop29
280
     1
102
RTVSPost2010PropOp29
 70
     1
102
RTVSPost2010Prop30
280
     1
102
RTVSPost2010PropOp30
 70
     1
102
RTVSPost2010Prop31
280
     0
102
RTVSPost2010PropOp31
 70
     1
102
RTVSPost2010Prop32
280
     0
102
RTVSPost2010PropOp32
 70
     1
102
RTVSPost2010Prop33
280
     0
102
RTVSPost2010PropOp33
 70
     1
102
RTVSPost2010Prop34
280
     0
102
RTVSPost2010PropOp34
 70
     1
102
RTVSPost2010Prop35
280
     0
102
RTVSPost2010PropOp35
 70
     1
102
RTVSPost2010Prop36
280
     0
102
RTVSPost2010PropOp36
 70
     1
102
RTVSPost2010Prop37
 90
       50
102
RTVSPost2010PropOp37
 70
     1
102
RTVSPost2010Prop38
140
0.0
102
RTVSPost2010PropOp38
 70
     1
102
RTVSPost2010Prop39
140
1.0
102
RTVSPost2010PropOp39
 70
     1
102
RTVSPost2010Prop40
 90
        0
102
RTVSPost2010PropOp40
 70
     1
102
RTVSPost2010Prop41ColorIndex
 90
       18
102
RTVSPost2010Prop41ColorRGB
 90
        0
102
RTVSPost2010PropOp41
 70
     1
102
RTVSPost2010Prop42
 90
       50
102
RTVSPost2010PropOp42
 70
     1
102
RTVSPost2010Prop43
 90
        3
102
RTVSPost2010PropOp43
 70
     1
102
RTVSPost2010Prop44ColorIndex
 90
        5
102
RTVSPost2010Prop44ColorRGB
 90
      255
102
RTVSPost2010PropOp44
 70
     1
102
RTVSPost2010Prop45
280
     0
102
RTVSPost2010PropOp45
 70
     1
102
RTVSPost2010Prop46
 90
       50
102
RTVSPost2010PropOp46
 70
     1
102
RTVSPost2010Prop47
 90
       50
102
RTVSPost2010PropOp47
 70
     1
102
RTVSPost2010Prop48
 90
       50
102
RTVSPost2010PropOp48
 70
     1
102
RTVSPost2010Prop49
280
     0
102
RTVSPost2010PropOp49
 70
     1
102
RTVSPost2010Prop50
 90
       50
102
RTVSPost2010PropOp50
 70
     1
102
RTVSPost2010Prop51ColorIndex
 90
      256
102
RTVSPost2010Prop51ColorRGB
 90
-16777216
102
RTVSPost2010PropOp51
 70
     0
102
RTVSPost2010Prop52
140
1.0
102
RTVSPost2010PropOp52
 70
     0
102
RTVSPost2010Prop53
 90
        2
102
RTVSPost2010PropOp53
 70
     1
102
RTVSPost2010Prop54
  1
strokes_ogs.tif
102
RTVSPost2010PropOp54
 70
     1
102
RTVSPost2010Prop55
280
     0
102
RTVSPost2010PropOp55
 70
     1
102
RTVSPost2010Prop56
140
1.0
102
RTVSPost2010PropOp56
 70
     1
102
RTVSPost2010Prop57
140
1.0
102
RTVSPost2010PropOp57
 70
     1
102
RTVSPropertyOp0
 70
     1
102
RTVSPropertyOp1
 70
     1
102
RTVSPropertyOp2
 70
     1
102
RTVSPropertyOp3
 70
     1
102
RTVSPropertyOp4
 70
     1
102
RTVSPropertyOp5
 70
     1
102
RTVSPropertyOp6
 70
     1
102
RTVSPropertyOp7
 70
     1
102
RTVSPropertyOp8
 70
     1
102
RTVSPropertyOp9
 70
     1
102
RTVSPropertyOp10
 70
     1
102
RTVSPropertyOp11
 70
     1
102
RTVSPropertyOp12
 70
     1
102
RTVSPropertyOp13
 70
     1
102
RTVSPropertyOp14
 70
     1
102
RTVSPropertyOp15
 70
     1
102
RTVSPropertyOp16
 70
     1
102
RTVSPropertyOp17
 70
     1
102
RTVSPropertyOp18
 70
     1
102
RTVSPropertyOp19
 70
     1
102
RTVSPropertyOp20
 70
     1
102
RTVSPropertyOp21
 70
     1
102
RTVSPropertyOp22
 70
     1
102
RTVSPropertyOp23
 70
     1
102
RTVSPropertyOp24
 70
     1
102
RTVSPropertyOp25
 70
     1
102
RTVSPropertyOp26
 70
     1
102
RTVSPropertyOp27
 70
     1
102
RTVSPropertyOp28
 70
     1
102
RTVSPropertyOp29
 70
     1
102
RTVSPropertyOp30
 70
     1
102
RTVSPropertyOp31
 70
     1
102
RTVSPropertyOp32
 70
     1
102
RTVSPropertyOp33
 70
     1
102
RTVSPropertyOp34
 70
     1
102
RTVSPropertyOp35
 70
     1
102
RTVSPropertyOp36
 70
     1
102
RTVSPropertyOp37
 70
     1
102
RTVSPropertyOp38
 70
     1
102
RTVSPropertyOp39
 70
     1
102
RTVSPropertyOp40
 70
     1
102
RTVSPropertyOp41
 70
     1
102
RTVSPropertyOp42
 70
     1
102
RTVSPropertyOp43
 70
     1
102
RTVSPropertyOp44
 70
     1
102
RTVSPropertyOp45
 70
     1
102
RTVSPropertyOp46
 70
     1
102
RTVSPropertyOp47
 70
     1
102
RTVSPropertyOp48
 70
     1
102
RTVSPropertyOp49
 70
     1
102
RTVSPropertyOp50
 70
     1
102
RTVSPropertyOp51
 70
     0
102
RTVSPropertyOp52
 70
     0
102
RTVSPropertyOp53
 70
     1
102
RTVSPropertyOp54
 70
     1
102
RTVSPropertyOp55
 70
     1
102
RTVSPropertyOp56
 70
     1
102
RTVSPropertyOp57
 70
     1
102
RTVSPropertyOp58
 70
     1
102
RTVSPropertyOp59
 70
     1
102
RTVSPropertyOp60
 70
     1
102
RTVSPropertyOp61
 70
     1
102
RTVSPropertyOp62
 70
     1
  0
XRECORD
  5
3AC
102
{ACAD_REACTORS
330
3AB
102
}
330
3AB
100
AcDbXrecord
280
     1
102
RTVSPost2010Prop28
280
     0
102
RTVSPost2010PropOp28
 70
     1
102
RTVSPost2010Prop29
280
     1
102
RTVSPost2010PropOp29
 70
     1
102
RTVSPost2010Prop30
280
     1
102
RTVSPost2010PropOp30
 70
     1
102
RTVSPost2010Prop31
280
     0
102
RTVSPost2010PropOp31
 70
     1
102
RTVSPost2010Prop32
280
     0
102
RTVSPost2010PropOp32
 70
     1
102
RTVSPost2010Prop33
280
     0
102
RTVSPost2010PropOp33
 70
     1
102
RTVSPost2010Prop34
280
     0
102
RTVSPost2010PropOp34
 70
     1
102
RTVSPost2010Prop35
280
     0
102
RTVSPost2010PropOp35
 70
     1
102
RTVSPost2010Prop36
280
     0
102
RTVSPost2010PropOp36
 70
     1
102
RTVSPost2010Prop37
 90
       50
102
RTVSPost2010PropOp37
 70
     1
102
RTVSPost2010Prop38
140
0.0
102
RTVSPost2010PropOp38
 70
     1
102
RTVSPost2010Prop39
140
1.0
102
RTVSPost2010PropOp39
 70
     1
102
RTVSPost2010Prop40
 90
        0
102
RTVSPost2010PropOp40
 70
     1
102
RTVSPost2010Prop41ColorIndex
 90
       18
102
RTVSPost2010Prop41ColorRGB
 90
        0
102
RTVSPost2010PropOp41
 70
     1
102
RTVSPost2010Prop42
 90
       50
102
RTVSPost2010PropOp42
 70
     1
102
RTVSPost2010Prop43
 90
        3
102
RTVSPost2010PropOp43
 70
     1
102
RTVSPost2010Prop44ColorIndex
 90
        5
102
RTVSPost2010Prop44ColorRGB
 90
      255
102
RTVSPost2010PropOp44
 70
     1
102
RTVSPost2010Prop45
280
     0
102
RTVSPost2010PropOp45
 70
     1
102
RTVSPost2010Prop46
 90
       50
102
RTVSPost2010PropOp46
 70
     1
102
RTVSPost2010Prop47
 90
       50
102
RTVSPost2010PropOp47
 70
     1
102
RTVSPost2010Prop48
 90
       50
102
RTVSPost2010PropOp48
 70
     1
102
RTVSPost2010Prop49
280
     0
102
RTVSPost2010PropOp49
 70
     1
102
RTVSPost2010Prop50
 90
       50
102
RTVSPost2010PropOp50
 70
     1
102
RTVSPost2010Prop51ColorIndex
 90
      256
102
RTVSPost2010Prop51ColorRGB
 90
-16777216
102
RTVSPost2010PropOp51
 70
     0
102
RTVSPost2010Prop52
140
1.0
102
RTVSPost2010PropOp52
 70
     0
102
RTVSPost2010Prop53
 90
        2
102
RTVSPost2010PropOp53
 70
     1
102
RTVSPost2010Prop54
  1
strokes_ogs.tif
102
RTVSPost2010PropOp54
 70
     1
102
RTVSPost2010Prop55
280
     0
102
RTVSPost2010PropOp55
 70
     1
102
RTVSPost2010Prop56
140
1.0
102
RTVSPost2010PropOp56
 70
     1
102
RTVSPost2010Prop57
140
1.0
102
RTVSPost2010PropOp57
 70
     1
102
RTVSPropertyOp0
 70
     1
102
RTVSPropertyOp1
 70
     1
102
RTVSPropertyOp2
 70
     1
102
RTVSPropertyOp3
 70
     1
102
RTVSPropertyOp4
 70
     1
102
RTVSPropertyOp5
 70
     1
102
RTVSPropertyOp6
 70
     1
102
RTVSPropertyOp7
 70
     1
102
RTVSPropertyOp8
 70
     1
102
RTVSPropertyOp9
 70
     1
102
RTVSPropertyOp10
 70
     1
102
RTVSPropertyOp11
 70
     1
102
RTVSPropertyOp12
 70
     1
102
RTVSPropertyOp13
 70
     1
102
RTVSPropertyOp14
 70
     1
102
RTVSPropertyOp15
 70
     1
102
RTVSPropertyOp16
 70
     1
102
RTVSPropertyOp17
 70
     1
102
RTVSPropertyOp18
 70
     1
102
RTVSPropertyOp19
 70
     1
102
RTVSPropertyOp20
 70
     1
102
RTVSPropertyOp21
 70
     1
102
RTVSPropertyOp22
 70
     1
102
RTVSPropertyOp23
 70
     1
102
RTVSPropertyOp24
 70
     1
102
RTVSPropertyOp25
 70
     1
102
RTVSPropertyOp26
 70
     1
102
RTVSPropertyOp27
 70
     1
102
RTVSPropertyOp28
 70
     1
102
RTVSPropertyOp29
 70
     1
102
RTVSPropertyOp30
 70
     1
102
RTVSPropertyOp31
 70
     1
102
RTVSPropertyOp32
 70
     1
102
RTVSPropertyOp33
 70
     1
102
RTVSPropertyOp34
 70
     1
102
RTVSPropertyOp35
 70
     1
102
RTVSPropertyOp36
 70
     1
102
RTVSPropertyOp37
 70
     1
102
RTVSPropertyOp38
 70
     1
102
RTVSPropertyOp39
 70
     1
102
RTVSPropertyOp40
 70
     1
102
RTVSPropertyOp41
 70
     1
102
RTVSPropertyOp42
 70
     1
102
RTVSPropertyOp43
 70
     1
102
RTVSPropertyOp44
 70
     1
102
RTVSPropertyOp45
 70
     1
102
RTVSPropertyOp46
 70
     1
102
RTVSPropertyOp47
 70
     1
102
RTVSPropertyOp48
 70
     1
102
RTVSPropertyOp49
 70
     1
102
RTVSPropertyOp50
 70
     1
102
RTVSPropertyOp51
 70
     0
102
RTVSPropertyOp52
 70
     0
102
RTVSPropertyOp53
 70
     1
102
RTVSPropertyOp54
 70
     1
102
RTVSPropertyOp55
 70
     1
102
RTVSPropertyOp56
 70
     1
102
RTVSPropertyOp57
 70
     1
102
RTVSPropertyOp58
 70
     1
102
RTVSPropertyOp59
 70
     1
102
RTVSPropertyOp60
 70
     1
102
RTVSPropertyOp61
 70
     1
102
RTVSPropertyOp62
 70
     1
  0
XRECORD
  5
3A6
102
{ACAD_REACTORS
330
3A5
102
}
330
3A5
100
AcDbXrecord
280
     1
102
RTVSPost2010Prop28
280
     0
102
RTVSPost2010PropOp28
 70
     1
102
RTVSPost2010Prop29
280
     1
102
RTVSPost2010PropOp29
 70
     1
102
RTVSPost2010Prop30
280
     1
102
RTVSPost2010PropOp30
 70
     1
102
RTVSPost2010Prop31
280
     0
102
RTVSPost2010PropOp31
 70
     1
102
RTVSPost2010Prop32
280
     0
102
RTVSPost2010PropOp32
 70
     1
102
RTVSPost2010Prop33
280
     0
102
RTVSPost2010PropOp33
 70
     1
102
RTVSPost2010Prop34
280
     0
102
RTVSPost2010PropOp34
 70
     1
102
RTVSPost2010Prop35
280
     0
102
RTVSPost2010PropOp35
 70
     1
102
RTVSPost2010Prop36
280
     0
102
RTVSPost2010PropOp36
 70
     1
102
RTVSPost2010Prop37
 90
       50
102
RTVSPost2010PropOp37
 70
     1
102
RTVSPost2010Prop38
140
0.0
102
RTVSPost2010PropOp38
 70
     1
102
RTVSPost2010Prop39
140
1.0
102
RTVSPost2010PropOp39
 70
     1
102
RTVSPost2010Prop40
 90
        0
102
RTVSPost2010PropOp40
 70
     1
102
RTVSPost2010Prop41ColorIndex
 90
       18
102
RTVSPost2010Prop41ColorRGB
 90
        0
102
RTVSPost2010PropOp41
 70
     1
102
RTVSPost2010Prop42
 90
       50
102
RTVSPost2010PropOp42
 70
     1
102
RTVSPost2010Prop43
 90
        3
102
RTVSPost2010PropOp43
 70
     1
102
RTVSPost2010Prop44ColorIndex
 90
        5
102
RTVSPost2010Prop44ColorRGB
 90
      255
102
RTVSPost2010PropOp44
 70
     1
102
RTVSPost2010Prop45
280
     0
102
RTVSPost2010PropOp45
 70
     1
102
RTVSPost2010Prop46
 90
       50
102
RTVSPost2010PropOp46
 70
     1
102
RTVSPost2010Prop47
 90
       50
102
RTVSPost2010PropOp47
 70
     1
102
RTVSPost2010Prop48
 90
       50
102
RTVSPost2010PropOp48
 70
     1
102
RTVSPost2010Prop49
280
     0
102
RTVSPost2010PropOp49
 70
     1
102
RTVSPost2010Prop50
 90
       50
102
RTVSPost2010PropOp50
 70
     1
102
RTVSPost2010Prop51ColorIndex
 90
      256
102
RTVSPost2010Prop51ColorRGB
 90
-16777216
102
RTVSPost2010PropOp51
 70
     0
102
RTVSPost2010Prop52
140
1.0
102
RTVSPost2010PropOp52
 70
     0
102
RTVSPost2010Prop53
 90
        2
102
RTVSPost2010PropOp53
 70
     1
102
RTVSPost2010Prop54
  1
strokes_ogs.tif
102
RTVSPost2010PropOp54
 70
     1
102
RTVSPost2010Prop55
280
     0
102
RTVSPost2010PropOp55
 70
     1
102
RTVSPost2010Prop56
140
1.0
102
RTVSPost2010PropOp56
 70
     1
102
RTVSPost2010Prop57
140
1.0
102
RTVSPost2010PropOp57
 70
     1
102
RTVSPropertyOp0
 70
     1
102
RTVSPropertyOp1
 70
     1
102
RTVSPropertyOp2
 70
     1
102
RTVSPropertyOp3
 70
     1
102
RTVSPropertyOp4
 70
     1
102
RTVSPropertyOp5
 70
     1
102
RTVSPropertyOp6
 70
     1
102
RTVSPropertyOp7
 70
     1
102
RTVSPropertyOp8
 70
     1
102
RTVSPropertyOp9
 70
     1
102
RTVSPropertyOp10
 70
     1
102
RTVSPropertyOp11
 70
     1
102
RTVSPropertyOp12
 70
     1
102
RTVSPropertyOp13
 70
     1
102
RTVSPropertyOp14
 70
     1
102
RTVSPropertyOp15
 70
     1
102
RTVSPropertyOp16
 70
     1
102
RTVSPropertyOp17
 70
     1
102
RTVSPropertyOp18
 70
     1
102
RTVSPropertyOp19
 70
     1
102
RTVSPropertyOp20
 70
     1
102
RTVSPropertyOp21
 70
     1
102
RTVSPropertyOp22
 70
     1
102
RTVSPropertyOp23
 70
     1
102
RTVSPropertyOp24
 70
     1
102
RTVSPropertyOp25
 70
     1
102
RTVSPropertyOp26
 70
     1
102
RTVSPropertyOp27
 70
     1
102
RTVSPropertyOp28
 70
     1
102
RTVSPropertyOp29
 70
     1
102
RTVSPropertyOp30
 70
     1
102
RTVSPropertyOp31
 70
     1
102
RTVSPropertyOp32
 70
     1
102
RTVSPropertyOp33
 70
     1
102
RTVSPropertyOp34
 70
     1
102
RTVSPropertyOp35
 70
     1
102
RTVSPropertyOp36
 70
     1
102
RTVSPropertyOp37
 70
     1
102
RTVSPropertyOp38
 70
     1
102
RTVSPropertyOp39
 70
     1
102
RTVSPropertyOp40
 70
     1
102
RTVSPropertyOp41
 70
     1
102
RTVSPropertyOp42
 70
     1
102
RTVSPropertyOp43
 70
     1
102
RTVSPropertyOp44
 70
     1
102
RTVSPropertyOp45
 70
     1
102
RTVSPropertyOp46
 70
     1
102
RTVSPropertyOp47
 70
     1
102
RTVSPropertyOp48
 70
     1
102
RTVSPropertyOp49
 70
     1
102
RTVSPropertyOp50
 70
     1
102
RTVSPropertyOp51
 70
     0
102
RTVSPropertyOp52
 70
     0
102
RTVSPropertyOp53
 70
     1
102
RTVSPropertyOp54
 70
     1
102
RTVSPropertyOp55
 70
     1
102
RTVSPropertyOp56
 70
     1
102
RTVSPropertyOp57
 70
     1
102
RTVSPropertyOp58
 70
     1
102
RTVSPropertyOp59
 70
     1
102
RTVSPropertyOp60
 70
     1
102
RTVSPropertyOp61
 70
     1
102
RTVSPropertyOp62
 70
     1
  0
XRECORD
  5
3A8
102
{ACAD_REACTORS
330
3A7
102
}
330
3A7
100
AcDbXrecord
280
     1
102
RTVSPost2010Prop28
280
     0
102
RTVSPost2010PropOp28
 70
     1
102
RTVSPost2010Prop29
280
     1
102
RTVSPost2010PropOp29
 70
     1
102
RTVSPost2010Prop30
280
     1
102
RTVSPost2010PropOp30
 70
     1
102
RTVSPost2010Prop31
280
     0
102
RTVSPost2010PropOp31
 70
     1
102
RTVSPost2010Prop32
280
     0
102
RTVSPost2010PropOp32
 70
     1
102
RTVSPost2010Prop33
280
     0
102
RTVSPost2010PropOp33
 70
     1
102
RTVSPost2010Prop34
280
     0
102
RTVSPost2010PropOp34
 70
     1
102
RTVSPost2010Prop35
280
     0
102
RTVSPost2010PropOp35
 70
     1
102
RTVSPost2010Prop36
280
     0
102
RTVSPost2010PropOp36
 70
     1
102
RTVSPost2010Prop37
 90
       50
102
RTVSPost2010PropOp37
 70
     1
102
RTVSPost2010Prop38
140
0.0
102
RTVSPost2010PropOp38
 70
     1
102
RTVSPost2010Prop39
140
1.0
102
RTVSPost2010PropOp39
 70
     1
102
RTVSPost2010Prop40
 90
        0
102
RTVSPost2010PropOp40
 70
     1
102
RTVSPost2010Prop41ColorIndex
 90
       18
102
RTVSPost2010Prop41ColorRGB
 90
        0
102
RTVSPost2010PropOp41
 70
     1
102
RTVSPost2010Prop42
 90
       50
102
RTVSPost2010PropOp42
 70
     1
102
RTVSPost2010Prop43
 90
        3
102
RTVSPost2010PropOp43
 70
     1
102
RTVSPost2010Prop44ColorIndex
 90
        5
102
RTVSPost2010Prop44ColorRGB
 90
      255
102
RTVSPost2010PropOp44
 70
     1
102
RTVSPost2010Prop45
280
     0
102
RTVSPost2010PropOp45
 70
     1
102
RTVSPost2010Prop46
 90
       50
102
RTVSPost2010PropOp46
 70
     1
102
RTVSPost2010Prop47
 90
       50
102
RTVSPost2010PropOp47
 70
     1
102
RTVSPost2010Prop48
 90
       50
102
RTVSPost2010PropOp48
 70
     1
102
RTVSPost2010Prop49
280
     0
102
RTVSPost2010PropOp49
 70
     1
102
RTVSPost2010Prop50
 90
       50
102
RTVSPost2010PropOp50
 70
     1
102
RTVSPost2010Prop51ColorIndex
 90
      256
102
RTVSPost2010Prop51ColorRGB
 90
-16777216
102
RTVSPost2010PropOp51
 70
     0
102
RTVSPost2010Prop52
140
1.0
102
RTVSPost2010PropOp52
 70
     0
102
RTVSPost2010Prop53
 90
        2
102
RTVSPost2010PropOp53
 70
     1
102
RTVSPost2010Prop54
  1
strokes_ogs.tif
102
RTVSPost2010PropOp54
 70
     1
102
RTVSPost2010Prop55
280
     0
102
RTVSPost2010PropOp55
 70
     1
102
RTVSPost2010Prop56
140
1.0
102
RTVSPost2010PropOp56
 70
     1
102
RTVSPost2010Prop57
140
1.0
102
RTVSPost2010PropOp57
 70
     1
102
RTVSPropertyOp0
 70
     1
102
RTVSPropertyOp1
 70
     1
102
RTVSPropertyOp2
 70
     1
102
RTVSPropertyOp3
 70
     1
102
RTVSPropertyOp4
 70
     1
102
RTVSPropertyOp5
 70
     1
102
RTVSPropertyOp6
 70
     1
102
RTVSPropertyOp7
 70
     1
102
RTVSPropertyOp8
 70
     1
102
RTVSPropertyOp9
 70
     1
102
RTVSPropertyOp10
 70
     1
102
RTVSPropertyOp11
 70
     1
102
RTVSPropertyOp12
 70
     1
102
RTVSPropertyOp13
 70
     1
102
RTVSPropertyOp14
 70
     1
102
RTVSPropertyOp15
 70
     1
102
RTVSPropertyOp16
 70
     1
102
RTVSPropertyOp17
 70
     1
102
RTVSPropertyOp18
 70
     1
102
RTVSPropertyOp19
 70
     1
102
RTVSPropertyOp20
 70
     1
102
RTVSPropertyOp21
 70
     1
102
RTVSPropertyOp22
 70
     1
102
RTVSPropertyOp23
 70
     1
102
RTVSPropertyOp24
 70
     1
102
RTVSPropertyOp25
 70
     1
102
RTVSPropertyOp26
 70
     1
102
RTVSPropertyOp27
 70
     1
102
RTVSPropertyOp28
 70
     1
102
RTVSPropertyOp29
 70
     1
102
RTVSPropertyOp30
 70
     1
102
RTVSPropertyOp31
 70
     1
102
RTVSPropertyOp32
 70
     1
102
RTVSPropertyOp33
 70
     1
102
RTVSPropertyOp34
 70
     1
102
RTVSPropertyOp35
 70
     1
102
RTVSPropertyOp36
 70
     1
102
RTVSPropertyOp37
 70
     1
102
RTVSPropertyOp38
 70
     1
102
RTVSPropertyOp39
 70
     1
102
RTVSPropertyOp40
 70
     1
102
RTVSPropertyOp41
 70
     1
102
RTVSPropertyOp42
 70
     1
102
RTVSPropertyOp43
 70
     1
102
RTVSPropertyOp44
 70
     1
102
RTVSPropertyOp45
 70
     1
102
RTVSPropertyOp46
 70
     1
102
RTVSPropertyOp47
 70
     1
102
RTVSPropertyOp48
 70
     1
102
RTVSPropertyOp49
 70
     1
102
RTVSPropertyOp50
 70
     1
102
RTVSPropertyOp51
 70
     0
102
RTVSPropertyOp52
 70
     0
102
RTVSPropertyOp53
 70
     1
102
RTVSPropertyOp54
 70
     1
102
RTVSPropertyOp55
 70
     1
102
RTVSPropertyOp56
 70
     1
102
RTVSPropertyOp57
 70
     1
102
RTVSPropertyOp58
 70
     1
102
RTVSPropertyOp59
 70
     1
102
RTVSPropertyOp60
 70
     1
102
RTVSPropertyOp61
 70
     1
102
RTVSPropertyOp62
 70
     1
  0
XRECORD
  5
398
102
{ACAD_REACTORS
330
397
102
}
330
397
100
AcDbXrecord
280
     1
102
RTVSPost2010Prop28
280
     0
102
RTVSPost2010PropOp28
 70
     1
102
RTVSPost2010Prop29
280
     1
102
RTVSPost2010PropOp29
 70
     1
102
RTVSPost2010Prop30
280
     1
102
RTVSPost2010PropOp30
 70
     1
102
RTVSPost2010Prop31
280
     0
102
RTVSPost2010PropOp31
 70
     1
102
RTVSPost2010Prop32
280
     0
102
RTVSPost2010PropOp32
 70
     1
102
RTVSPost2010Prop33
280
     0
102
RTVSPost2010PropOp33
 70
     1
102
RTVSPost2010Prop34
280
     0
102
RTVSPost2010PropOp34
 70
     1
102
RTVSPost2010Prop35
280
     0
102
RTVSPost2010PropOp35
 70
     1
102
RTVSPost2010Prop36
280
     0
102
RTVSPost2010PropOp36
 70
     1
102
RTVSPost2010Prop37
 90
       50
102
RTVSPost2010PropOp37
 70
     1
102
RTVSPost2010Prop38
140
0.0
102
RTVSPost2010PropOp38
 70
     1
102
RTVSPost2010Prop39
140
1.0
102
RTVSPost2010PropOp39
 70
     1
102
RTVSPost2010Prop40
 90
        0
102
RTVSPost2010PropOp40
 70
     1
102
RTVSPost2010Prop41ColorIndex
 90
       18
102
RTVSPost2010Prop41ColorRGB
 90
        0
102
RTVSPost2010PropOp41
 70
     1
102
RTVSPost2010Prop42
 90
       50
102
RTVSPost2010PropOp42
 70
     1
102
RTVSPost2010Prop43
 90
        3
102
RTVSPost2010PropOp43
 70
     1
102
RTVSPost2010Prop44ColorIndex
 90
        5
102
RTVSPost2010Prop44ColorRGB
 90
      255
102
RTVSPost2010PropOp44
 70
     1
102
RTVSPost2010Prop45
280
     0
102
RTVSPost2010PropOp45
 70
     1
102
RTVSPost2010Prop46
 90
       50
102
RTVSPost2010PropOp46
 70
     1
102
RTVSPost2010Prop47
 90
       50
102
RTVSPost2010PropOp47
 70
     1
102
RTVSPost2010Prop48
 90
       50
102
RTVSPost2010PropOp48
 70
     1
102
RTVSPost2010Prop49
280
     0
102
RTVSPost2010PropOp49
 70
     1
102
RTVSPost2010Prop50
 90
       50
102
RTVSPost2010PropOp50
 70
     1
102
RTVSPost2010Prop51ColorIndex
 90
      256
102
RTVSPost2010Prop51ColorRGB
 90
-16777216
102
RTVSPost2010PropOp51
 70
     0
102
RTVSPost2010Prop52
140
1.0
102
RTVSPost2010PropOp52
 70
     0
102
RTVSPost2010Prop53
 90
        2
102
RTVSPost2010PropOp53
 70
     1
102
RTVSPost2010Prop54
  1
strokes_ogs.tif
102
RTVSPost2010PropOp54
 70
     1
102
RTVSPost2010Prop55
280
     0
102
RTVSPost2010PropOp55
 70
     1
102
RTVSPost2010Prop56
140
1.0
102
RTVSPost2010PropOp56
 70
     1
102
RTVSPost2010Prop57
140
1.0
102
RTVSPost2010PropOp57
 70
     1
102
RTVSPropertyOp0
 70
     1
102
RTVSPropertyOp1
 70
     1
102
RTVSPropertyOp2
 70
     1
102
RTVSPropertyOp3
 70
     1
102
RTVSPropertyOp4
 70
     1
102
RTVSPropertyOp5
 70
     1
102
RTVSPropertyOp6
 70
     1
102
RTVSPropertyOp7
 70
     1
102
RTVSPropertyOp8
 70
     1
102
RTVSPropertyOp9
 70
     1
102
RTVSPropertyOp10
 70
     1
102
RTVSPropertyOp11
 70
     1
102
RTVSPropertyOp12
 70
     1
102
RTVSPropertyOp13
 70
     1
102
RTVSPropertyOp14
 70
     1
102
RTVSPropertyOp15
 70
     1
102
RTVSPropertyOp16
 70
     1
102
RTVSPropertyOp17
 70
     1
102
RTVSPropertyOp18
 70
     1
102
RTVSPropertyOp19
 70
     1
102
RTVSPropertyOp20
 70
     1
102
RTVSPropertyOp21
 70
     1
102
RTVSPropertyOp22
 70
     1
102
RTVSPropertyOp23
 70
     1
102
RTVSPropertyOp24
 70
     1
102
RTVSPropertyOp25
 70
     1
102
RTVSPropertyOp26
 70
     1
102
RTVSPropertyOp27
 70
     1
102
RTVSPropertyOp28
 70
     1
102
RTVSPropertyOp29
 70
     1
102
RTVSPropertyOp30
 70
     1
102
RTVSPropertyOp31
 70
     1
102
RTVSPropertyOp32
 70
     1
102
RTVSPropertyOp33
 70
     1
102
RTVSPropertyOp34
 70
     1
102
RTVSPropertyOp35
 70
     1
102
RTVSPropertyOp36
 70
     1
102
RTVSPropertyOp37
 70
     1
102
RTVSPropertyOp38
 70
     1
102
RTVSPropertyOp39
 70
     1
102
RTVSPropertyOp40
 70
     1
102
RTVSPropertyOp41
 70
     1
102
RTVSPropertyOp42
 70
     1
102
RTVSPropertyOp43
 70
     1
102
RTVSPropertyOp44
 70
     1
102
RTVSPropertyOp45
 70
     1
102
RTVSPropertyOp46
 70
     1
102
RTVSPropertyOp47
 70
     1
102
RTVSPropertyOp48
 70
     1
102
RTVSPropertyOp49
 70
     1
102
RTVSPropertyOp50
 70
     1
102
RTVSPropertyOp51
 70
     0
102
RTVSPropertyOp52
 70
     0
102
RTVSPropertyOp53
 70
     1
102
RTVSPropertyOp54
 70
     1
102
RTVSPropertyOp55
 70
     1
102
RTVSPropertyOp56
 70
     1
102
RTVSPropertyOp57
 70
     1
102
RTVSPropertyOp58
 70
     1
102
RTVSPropertyOp59
 70
     1
102
RTVSPropertyOp60
 70
     1
102
RTVSPropertyOp61
 70
     1
102
RTVSPropertyOp62
 70
     1
  0
XRECORD
  5
38A
102
{ACAD_REACTORS
330
389
102
}
330
389
100
AcDbXrecord
280
     1
102
RTVSPost2010Prop28
280
     0
102
RTVSPost2010PropOp28
 70
     1
102
RTVSPost2010Prop29
280
     1
102
RTVSPost2010PropOp29
 70
     1
102
RTVSPost2010Prop30
280
     1
102
RTVSPost2010PropOp30
 70
     1
102
RTVSPost2010Prop31
280
     0
102
RTVSPost2010PropOp31
 70
     1
102
RTVSPost2010Prop32
280
     0
102
RTVSPost2010PropOp32
 70
     1
102
RTVSPost2010Prop33
280
     0
102
RTVSPost2010PropOp33
 70
     1
102
RTVSPost2010Prop34
280
     0
102
RTVSPost2010PropOp34
 70
     1
102
RTVSPost2010Prop35
280
     0
102
RTVSPost2010PropOp35
 70
     1
102
RTVSPost2010Prop36
280
     0
102
RTVSPost2010PropOp36
 70
     1
102
RTVSPost2010Prop37
 90
       50
102
RTVSPost2010PropOp37
 70
     1
102
RTVSPost2010Prop38
140
0.0
102
RTVSPost2010PropOp38
 70
     1
102
RTVSPost2010Prop39
140
1.0
102
RTVSPost2010PropOp39
 70
     1
102
RTVSPost2010Prop40
 90
        0
102
RTVSPost2010PropOp40
 70
     1
102
RTVSPost2010Prop41ColorIndex
 90
       18
102
RTVSPost2010Prop41ColorRGB
 90
        0
102
RTVSPost2010PropOp41
 70
     1
102
RTVSPost2010Prop42
 90
       50
102
RTVSPost2010PropOp42
 70
     1
102
RTVSPost2010Prop43
 90
        3
102
RTVSPost2010PropOp43
 70
     1
102
RTVSPost2010Prop44ColorIndex
 90
        5
102
RTVSPost2010Prop44ColorRGB
 90
      255
102
RTVSPost2010PropOp44
 70
     1
102
RTVSPost2010Prop45
280
     0
102
RTVSPost2010PropOp45
 70
     1
102
RTVSPost2010Prop46
 90
       50
102
RTVSPost2010PropOp46
 70
     1
102
RTVSPost2010Prop47
 90
       50
102
RTVSPost2010PropOp47
 70
     1
102
RTVSPost2010Prop48
 90
       50
102
RTVSPost2010PropOp48
 70
     1
102
RTVSPost2010Prop49
280
     0
102
RTVSPost2010PropOp49
 70
     1
102
RTVSPost2010Prop50
 90
       50
102
RTVSPost2010PropOp50
 70
     1
102
RTVSPost2010Prop51ColorIndex
 90
      256
102
RTVSPost2010Prop51ColorRGB
 90
-16777216
102
RTVSPost2010PropOp51
 70
     0
102
RTVSPost2010Prop52
140
1.0
102
RTVSPost2010PropOp52
 70
     0
102
RTVSPost2010Prop53
 90
        2
102
RTVSPost2010PropOp53
 70
     1
102
RTVSPost2010Prop54
  1
strokes_ogs.tif
102
RTVSPost2010PropOp54
 70
     1
102
RTVSPost2010Prop55
280
     0
102
RTVSPost2010PropOp55
 70
     1
102
RTVSPost2010Prop56
140
1.0
102
RTVSPost2010PropOp56
 70
     1
102
RTVSPost2010Prop57
140
1.0
102
RTVSPost2010PropOp57
 70
     1
102
RTVSPropertyOp0
 70
     1
102
RTVSPropertyOp1
 70
     1
102
RTVSPropertyOp2
 70
     1
102
RTVSPropertyOp3
 70
     1
102
RTVSPropertyOp4
 70
     1
102
RTVSPropertyOp5
 70
     1
102
RTVSPropertyOp6
 70
     1
102
RTVSPropertyOp7
 70
     1
102
RTVSPropertyOp8
 70
     1
102
RTVSPropertyOp9
 70
     1
102
RTVSPropertyOp10
 70
     1
102
RTVSPropertyOp11
 70
     1
102
RTVSPropertyOp12
 70
     1
102
RTVSPropertyOp13
 70
     1
102
RTVSPropertyOp14
 70
     1
102
RTVSPropertyOp15
 70
     1
102
RTVSPropertyOp16
 70
     1
102
RTVSPropertyOp17
 70
     1
102
RTVSPropertyOp18
 70
     1
102
RTVSPropertyOp19
 70
     1
102
RTVSPropertyOp20
 70
     1
102
RTVSPropertyOp21
 70
     1
102
RTVSPropertyOp22
 70
     1
102
RTVSPropertyOp23
 70
     1
102
RTVSPropertyOp24
 70
     1
102
RTVSPropertyOp25
 70
     1
102
RTVSPropertyOp26
 70
     1
102
RTVSPropertyOp27
 70
     1
102
RTVSPropertyOp28
 70
     1
102
RTVSPropertyOp29
 70
     1
102
RTVSPropertyOp30
 70
     1
102
RTVSPropertyOp31
 70
     1
102
RTVSPropertyOp32
 70
     1
102
RTVSPropertyOp33
 70
     1
102
RTVSPropertyOp34
 70
     1
102
RTVSPropertyOp35
 70
     1
102
RTVSPropertyOp36
 70
     1
102
RTVSPropertyOp37
 70
     1
102
RTVSPropertyOp38
 70
     1
102
RTVSPropertyOp39
 70
     1
102
RTVSPropertyOp40
 70
     1
102
RTVSPropertyOp41
 70
     1
102
RTVSPropertyOp42
 70
     1
102
RTVSPropertyOp43
 70
     1
102
RTVSPropertyOp44
 70
     1
102
RTVSPropertyOp45
 70
     1
102
RTVSPropertyOp46
 70
     1
102
RTVSPropertyOp47
 70
     1
102
RTVSPropertyOp48
 70
     1
102
RTVSPropertyOp49
 70
     1
102
RTVSPropertyOp50
 70
     1
102
RTVSPropertyOp51
 70
     0
102
RTVSPropertyOp52
 70
     0
102
RTVSPropertyOp53
 70
     1
102
RTVSPropertyOp54
 70
     1
102
RTVSPropertyOp55
 70
     1
102
RTVSPropertyOp56
 70
     1
102
RTVSPropertyOp57
 70
     1
102
RTVSPropertyOp58
 70
     1
102
RTVSPropertyOp59
 70
     1
102
RTVSPropertyOp60
 70
     1
102
RTVSPropertyOp61
 70
     1
102
RTVSPropertyOp62
 70
     1
  0
XRECORD
  5
3AA
102
{ACAD_REACTORS
330
3A9
102
}
330
3A9
100
AcDbXrecord
280
     1
102
RTVSPost2010Prop28
280
     0
102
RTVSPost2010PropOp28
 70
     1
102
RTVSPost2010Prop29
280
     1
102
RTVSPost2010PropOp29
 70
     1
102
RTVSPost2010Prop30
280
     1
102
RTVSPost2010PropOp30
 70
     1
102
RTVSPost2010Prop31
280
     0
102
RTVSPost2010PropOp31
 70
     1
102
RTVSPost2010Prop32
280
     0
102
RTVSPost2010PropOp32
 70
     1
102
RTVSPost2010Prop33
280
     0
102
RTVSPost2010PropOp33
 70
     1
102
RTVSPost2010Prop34
280
     0
102
RTVSPost2010PropOp34
 70
     1
102
RTVSPost2010Prop35
280
     0
102
RTVSPost2010PropOp35
 70
     1
102
RTVSPost2010Prop36
280
     0
102
RTVSPost2010PropOp36
 70
     1
102
RTVSPost2010Prop37
 90
       50
102
RTVSPost2010PropOp37
 70
     1
102
RTVSPost2010Prop38
140
0.0
102
RTVSPost2010PropOp38
 70
     1
102
RTVSPost2010Prop39
140
1.0
102
RTVSPost2010PropOp39
 70
     1
102
RTVSPost2010Prop40
 90
        0
102
RTVSPost2010PropOp40
 70
     1
102
RTVSPost2010Prop41ColorIndex
 90
       18
102
RTVSPost2010Prop41ColorRGB
 90
        0
102
RTVSPost2010PropOp41
 70
     1
102
RTVSPost2010Prop42
 90
       50
102
RTVSPost2010PropOp42
 70
     1
102
RTVSPost2010Prop43
 90
        3
102
RTVSPost2010PropOp43
 70
     1
102
RTVSPost2010Prop44ColorIndex
 90
        5
102
RTVSPost2010Prop44ColorRGB
 90
      255
102
RTVSPost2010PropOp44
 70
     1
102
RTVSPost2010Prop45
280
     0
102
RTVSPost2010PropOp45
 70
     1
102
RTVSPost2010Prop46
 90
       50
102
RTVSPost2010PropOp46
 70
     1
102
RTVSPost2010Prop47
 90
       50
102
RTVSPost2010PropOp47
 70
     1
102
RTVSPost2010Prop48
 90
       50
102
RTVSPost2010PropOp48
 70
     1
102
RTVSPost2010Prop49
280
     0
102
RTVSPost2010PropOp49
 70
     1
102
RTVSPost2010Prop50
 90
       50
102
RTVSPost2010PropOp50
 70
     1
102
RTVSPost2010Prop51ColorIndex
 90
      256
102
RTVSPost2010Prop51ColorRGB
 90
-16777216
102
RTVSPost2010PropOp51
 70
     0
102
RTVSPost2010Prop52
140
1.0
102
RTVSPost2010PropOp52
 70
     0
102
RTVSPost2010Prop53
 90
        2
102
RTVSPost2010PropOp53
 70
     1
102
RTVSPost2010Prop54
  1
strokes_ogs.tif
102
RTVSPost2010PropOp54
 70
     1
102
RTVSPost2010Prop55
280
     0
102
RTVSPost2010PropOp55
 70
     1
102
RTVSPost2010Prop56
140
1.0
102
RTVSPost2010PropOp56
 70
     1
102
RTVSPost2010Prop57
140
1.0
102
RTVSPost2010PropOp57
 70
     1
102
RTVSPropertyOp0
 70
     1
102
RTVSPropertyOp1
 70
     1
102
RTVSPropertyOp2
 70
     1
102
RTVSPropertyOp3
 70
     1
102
RTVSPropertyOp4
 70
     1
102
RTVSPropertyOp5
 70
     1
102
RTVSPropertyOp6
 70
     1
102
RTVSPropertyOp7
 70
     1
102
RTVSPropertyOp8
 70
     1
102
RTVSPropertyOp9
 70
     1
102
RTVSPropertyOp10
 70
     1
102
RTVSPropertyOp11
 70
     1
102
RTVSPropertyOp12
 70
     1
102
RTVSPropertyOp13
 70
     1
102
RTVSPropertyOp14
 70
     1
102
RTVSPropertyOp15
 70
     1
102
RTVSPropertyOp16
 70
     1
102
RTVSPropertyOp17
 70
     1
102
RTVSPropertyOp18
 70
     1
102
RTVSPropertyOp19
 70
     1
102
RTVSPropertyOp20
 70
     1
102
RTVSPropertyOp21
 70
     1
102
RTVSPropertyOp22
 70
     1
102
RTVSPropertyOp23
 70
     1
102
RTVSPropertyOp24
 70
     1
102
RTVSPropertyOp25
 70
     1
102
RTVSPropertyOp26
 70
     1
102
RTVSPropertyOp27
 70
     1
102
RTVSPropertyOp28
 70
     1
102
RTVSPropertyOp29
 70
     1
102
RTVSPropertyOp30
 70
     1
102
RTVSPropertyOp31
 70
     1
102
RTVSPropertyOp32
 70
     1
102
RTVSPropertyOp33
 70
     1
102
RTVSPropertyOp34
 70
     1
102
RTVSPropertyOp35
 70
     1
102
RTVSPropertyOp36
 70
     1
102
RTVSPropertyOp37
 70
     1
102
RTVSPropertyOp38
 70
     1
102
RTVSPropertyOp39
 70
     1
102
RTVSPropertyOp40
 70
     1
102
RTVSPropertyOp41
 70
     1
102
RTVSPropertyOp42
 70
     1
102
RTVSPropertyOp43
 70
     1
102
RTVSPropertyOp44
 70
     1
102
RTVSPropertyOp45
 70
     1
102
RTVSPropertyOp46
 70
     1
102
RTVSPropertyOp47
 70
     1
102
RTVSPropertyOp48
 70
     1
102
RTVSPropertyOp49
 70
     1
102
RTVSPropertyOp50
 70
     1
102
RTVSPropertyOp51
 70
     0
102
RTVSPropertyOp52
 70
     0
102
RTVSPropertyOp53
 70
     1
102
RTVSPropertyOp54
 70
     1
102
RTVSPropertyOp55
 70
     1
102
RTVSPropertyOp56
 70
     1
102
RTVSPropertyOp57
 70
     1
102
RTVSPropertyOp58
 70
     1
102
RTVSPropertyOp59
 70
     1
102
RTVSPropertyOp60
 70
     1
102
RTVSPropertyOp61
 70
     1
102
RTVSPropertyOp62
 70
     1
  0
ENDSEC
  0
EOF
