  0
SECTION
  2
HEADER
  9
$ACADVER
  1
AC1018
  9
$ACADMAINTVER
 70
   104
  9
$DWGCODEPAGE
  3
ANSI_1250
  9
$LASTSAVEDBY
  1
wq7085
  9
$INSBASE
 10
0.0
 20
0.0
 30
0.0
  9
$EXTMIN
 10
188.6658343333333
 20
122.034924
 30
0.0
  9
$EXTMAX
 10
380.274632
 20
345.2288016666667
 30
0.0
  9
$LIMMIN
 10
-0.5
 20
-0.5
  9
$LIMMAX
 10
5.0
 20
5.0
  9
$ORTHOMODE
 70
     0
  9
$REGENMODE
 70
     1
  9
$FILLMODE
 70
     1
  9
$QTEXTMODE
 70
     0
  9
$MIRRTEXT
 70
     1
  9
$LTSCALE
 40
1.0
  9
$ATTMODE
 70
     1
  9
$TEXTSIZE
 40
0.2
  9
$TRACEWID
 40
0.05
  9
$TEXTSTYLE
  7
Standard
  9
$CLAYER
  8
0
  9
$CELTYPE
  6
ByLayer
  9
$CECOLOR
 62
   256
  9
$CELTSCALE
 40
1.0
  9
$DISPSILH
 70
     0
  9
$DIMSCALE
 40
1.0
  9
$DIMASZ
 40
0.18
  9
$DIMEXO
 40
0.0625
  9
$DIMDLI
 40
0.38
  9
$DIMRND
 40
0.0
  9
$DIMDLE
 40
0.0
  9
$DIMEXE
 40
0.18
  9
$DIMTP
 40
0.0
  9
$DIMTM
 40
0.0
  9
$DIMTXT
 40
0.18
  9
$DIMCEN
 40
0.09
  9
$DIMTSZ
 40
0.0
  9
$DIMTOL
 70
     0
  9
$DIMLIM
 70
     0
  9
$DIMTIH
 70
     1
  9
$DIMTOH
 70
     1
  9
$DIMSE1
 70
     0
  9
$DIMSE2
 70
     0
  9
$DIMTAD
 70
     0
  9
$DIMZIN
 70
     0
  9
$DIMBLK
  1

  9
$DIMASO
 70
     1
  9
$DIMSHO
 70
     1
  9
$DIMPOST
  1

  9
$DIMAPOST
  1

  9
$DIMALT
 70
     0
  9
$DIMALTD
 70
     2
  9
$DIMALTF
 40
25.4
  9
$DIMLFAC
 40
1.0
  9
$DIMTOFL
 70
     0
  9
$DIMTVP
 40
0.0
  9
$DIMTIX
 70
     0
  9
$DIMSOXD
 70
     0
  9
$DIMSAH
 70
     0
  9
$DIMBLK1
  1

  9
$DIMBLK2
  1

  9
$DIMSTYLE
  2
Standard
  9
$DIMCLRD
 70
     0
  9
$DIMCLRE
 70
     0
  9
$DIMCLRT
 70
     0
  9
$DIMTFAC
 40
1.0
  9
$DIMGAP
 40
0.09
  9
$DIMJUST
 70
     0
  9
$DIMSD1
 70
     0
  9
$DIMSD2
 70
     0
  9
$DIMTOLJ
 70
     1
  9
$DIMTZIN
 70
     0
  9
$DIMALTZ
 70
     0
  9
$DIMALTTZ
 70
     0
  9
$DIMUPT
 70
     0
  9
$DIMDEC
 70
     4
  9
$DIMTDEC
 70
     4
  9
$DIMALTU
 70
     2
  9
$DIMALTTD
 70
     2
  9
$DIMTXSTY
  7
Standard
  9
$DIMAUNIT
 70
     0
  9
$DIMADEC
 70
     0
  9
$DIMALTRND
 40
0.0
  9
$DIMAZIN
 70
     0
  9
$DIMDSEP
 70
    46
  9
$DIMATFIT
 70
     3
  9
$DIMFRAC
 70
     0
  9
$DIMLDRBLK
  1

  9
$DIMLUNIT
 70
     2
  9
$DIMLWD
 70
    -2
  9
$DIMLWE
 70
    -2
  9
$DIMTMOVE
 70
     0
  9
$LUNITS
 70
     2
  9
$LUPREC
 70
     4
  9
$SKETCHINC
 40
0.1
  9
$FILLETRAD
 40
0.5
  9
$AUNITS
 70
     0
  9
$AUPREC
 70
     0
  9
$MENU
  1
.
  9
$ELEVATION
 40
0.0
  9
$PELEVATION
 40
0.0
  9
$THICKNESS
 40
0.0
  9
$LIMCHECK
 70
     0
  9
$CHAMFERA
 40
0.0
  9
$CHAMFERB
 40
0.0
  9
$CHAMFERC
 40
0.0
  9
$CHAMFERD
 40
0.0
  9
$SKPOLY
 70
     0
  9
$TDCREATE
 40
2459004.351388889
  9
$TDUCREATE
 40
2459004.268057257
  9
$TDUPDATE
 40
2459004.352094908
  9
$TDUUPDATE
 40
2459004.268761574
  9
$TDINDWG
 40
0.0003240856
  9
$TDUSRTIMER
 40
0.0003240856
  9
$USRTIMER
 70
     1
  9
$ANGBASE
 50
0.0
  9
$ANGDIR
 70
     0
  9
$PDMODE
 70
     0
  9
$PDSIZE
 40
0.0
  9
$PLINEWID
 40
0.0
  9
$SPLFRAME
 70
     0
  9
$SPLINETYPE
 70
     6
  9
$SPLINESEGS
 70
     8
  9
$HANDSEED
  5
393
  9
$SURFTAB1
 70
     6
  9
$SURFTAB2
 70
     6
  9
$SURFTYPE
 70
     6
  9
$SURFU
 70
     6
  9
$SURFV
 70
     6
  9
$UCSBASE
  2

  9
$UCSNAME
  2

  9
$UCSORG
 10
274.404842
 20
288.907994
 30
0.0
  9
$UCSXDIR
 10
1.0
 20
0.0
 30
0.0
  9
$UCSYDIR
 10
0.0
 20
1.0
 30
0.0
  9
$UCSORTHOREF
  2

  9
$UCSORTHOVIEW
 70
     0
  9
$UCSORGTOP
 10
0.0
 20
0.0
 30
0.0
  9
$UCSORGBOTTOM
 10
0.0
 20
0.0
 30
0.0
  9
$UCSORGLEFT
 10
0.0
 20
0.0
 30
0.0
  9
$UCSORGRIGHT
 10
0.0
 20
0.0
 30
0.0
  9
$UCSORGFRONT
 10
0.0
 20
0.0
 30
0.0
  9
$UCSORGBACK
 10
0.0
 20
0.0
 30
0.0
  9
$PUCSBASE
  2

  9
$PUCSNAME
  2

  9
$PUCSORG
 10
0.0
 20
0.0
 30
0.0
  9
$PUCSXDIR
 10
1.0
 20
0.0
 30
0.0
  9
$PUCSYDIR
 10
0.0
 20
1.0
 30
0.0
  9
$PUCSORTHOREF
  2

  9
$PUCSORTHOVIEW
 70
     0
  9
$PUCSORGTOP
 10
0.0
 20
0.0
 30
0.0
  9
$PUCSORGBOTTOM
 10
0.0
 20
0.0
 30
0.0
  9
$PUCSORGLEFT
 10
0.0
 20
0.0
 30
0.0
  9
$PUCSORGRIGHT
 10
0.0
 20
0.0
 30
0.0
  9
$PUCSORGFRONT
 10
0.0
 20
0.0
 30
0.0
  9
$PUCSORGBACK
 10
0.0
 20
0.0
 30
0.0
  9
$USERI1
 70
     0
  9
$USERI2
 70
     0
  9
$USERI3
 70
     0
  9
$USERI4
 70
     0
  9
$USERI5
 70
     0
  9
$USERR1
 40
0.0
  9
$USERR2
 40
0.0
  9
$USERR3
 40
0.0
  9
$USERR4
 40
0.0
  9
$USERR5
 40
0.0
  9
$WORLDVIEW
 70
     1
  9
$SHADEDGE
 70
     3
  9
$SHADEDIF
 70
    70
  9
$TILEMODE
 70
     1
  9
$MAXACTVP
 70
    64
  9
$PINSBASE
 10
0.0
 20
0.0
 30
0.0
  9
$PLIMCHECK
 70
     0
  9
$PEXTMIN
 10
-0.5
 20
-0.5
 30
-0.5
  9
$PEXTMAX
 10
5.0
 20
5.0
 30
5.0
  9
$PLIMMIN
 10
-0.5
 20
-0.5
  9
$PLIMMAX
 10
5.0
 20
5.0
  9
$UNITMODE
 70
     0
  9
$VISRETAIN
 70
     1
  9
$PLINEGEN
 70
     0
  9
$PSLTSCALE
 70
     1
  9
$TREEDEPTH
 70
  3020
  9
$CMLSTYLE
  2
Standard
  9
$CMLJUST
 70
     0
  9
$CMLSCALE
 40
1.0
  9
$PROXYGRAPHICS
 70
     1
  9
$MEASUREMENT
 70
     1
  9
$CELWEIGHT
370
    13
  9
$ENDCAPS
280
     0
  9
$JOINSTYLE
280
     0
  9
$LWDISPLAY
290
     0
  9
$INSUNITS
 70
     4
  9
$HYPERLINKBASE
  1

  9
$STYLESHEET
  1

  9
$XEDIT
290
     1
  9
$CEPSNTYPE
380
     0
  9
$PSTYLEMODE
290
     1
  9
$FINGERPRINTGUID
  2
{0AD57BFF-9DC2-4BB5-8540-65E4A4D85A6A}
  9
$VERSIONGUID
  2
{B1494612-0767-9F4C-8259-97B4767DC203}
  9
$EXTNAMES
290
     1
  9
$PSVPSCALE
 40
0.0
  9
$OLESTARTUP
290
     0
  9
$SORTENTS
280
   127
  9
$INDEXCTL
280
     0
  9
$HIDETEXT
280
     1
  9
$XCLIPFRAME
290
     0
  9
$HALOGAP
280
     0
  9
$OBSCOLOR
 70
   257
  9
$OBSLTYPE
280
     0
  9
$INTERSECTIONDISPLAY
280
     0
  9
$INTERSECTIONCOLOR
 70
   257
  9
$DIMASSOC
280
     2
  9
$PROJECTNAME
  1

  0
ENDSEC
  0
SECTION
  2
CLASSES
  0
CLASS
  1
ACDBDICTIONARYWDFLT
  2
AcDbDictionaryWithDefault
  3
ObjectDBX Classes
 90
        0
 91
        1
280
     0
281
     0
  0
CLASS
  1
VISUALSTYLE
  2
AcDbVisualStyle
  3
ObjectDBX Classes
 90
     4095
 91
       24
280
     0
281
     0
  0
CLASS
  1
MATERIAL
  2
AcDbMaterial
  3
ObjectDBX Classes
 90
     1153
 91
        3
280
     0
281
     0
  0
CLASS
  1
SCALE
  2
AcDbScale
  3
ObjectDBX Classes
 90
     1153
 91
       33
280
     0
281
     0
  0
CLASS
  1
TABLESTYLE
  2
AcDbTableStyle
  3
ObjectDBX Classes
 90
     4095
 91
        1
280
     0
281
     0
  0
CLASS
  1
MLEADERSTYLE
  2
AcDbMLeaderStyle
  3
ACDB_MLEADERSTYLE_CLASS
 90
     4095
 91
        1
280
     0
281
     0
  0
CLASS
  1
SUN
  2
AcDbSun
  3
SCENEOE
 90
     1153
 91
        0
280
     0
281
     0
  0
CLASS
  1
DIMASSOC
  2
AcDbDimAssoc
  3
"AcDbDimAssoc|Product Desc:     AcDim ARX App For Dimension|Company:          Autodesk, Inc.|WEB Address:      www.autodesk.com"
 90
        0
 91
        7
280
     0
281
     0
  0
CLASS
  1
DICTIONARYVAR
  2
AcDbDictionaryVar
  3
ObjectDBX Classes
 90
        0
 91
        8
280
     0
281
     0
  0
CLASS
  1
CELLSTYLEMAP
  2
AcDbCellStyleMap
  3
ObjectDBX Classes
 90
     1152
 91
        2
280
     0
281
     0
  0
CLASS
  1
ACDBSECTIONVIEWSTYLE
  2
AcDbSectionViewStyle
  3
ObjectDBX Classes
 90
     1025
 91
        1
280
     0
281
     0
  0
CLASS
  1
ACDBDETAILVIEWSTYLE
  2
AcDbDetailViewStyle
  3
ObjectDBX Classes
 90
     1025
 91
        1
280
     0
281
     0
  0
CLASS
  1
SORTENTSTABLE
  2
AcDbSortentsTable
  3
ObjectDBX Classes
 90
        0
 91
        1
280
     0
281
     0
  0
ENDSEC
  0
SECTION
  2
TABLES
  0
TABLE
  2
VPORT
  5
8
330
0
100
AcDbSymbolTable
 70
    16
  0
VPORT
  5
29
330
8
100
AcDbSymbolTableRecord
100
AcDbViewportTableRecord
  2
*Active
 70
     0
 10
0.0
 20
0.0
 11
1.0
 21
1.0
 12
284.1897609447966
 22
298.7396635540603
 13
0.0
 23
0.0
 14
0.5
 24
0.5
 15
0.5
 25
0.5
 16
0.0
 26
0.0
 36
1.0
 17
0.0
 27
0.0
 37
0.0
 40
203.9615392542617
 41
2.283154121863799
 42
50.0
 43
376.33831
 44
-376.33831
 50
0.0
 51
0.0
 71
     0
 72
   100
 73
     1
 74
     3
 75
     0
 76
     0
 77
     0
 78
     0
281
     0
 65
     1
110
274.404842
120
288.907994
130
0.0
111
1.0
121
0.0
131
0.0
112
0.0
122
1.0
132
0.0
 79
     0
146
0.0
1001
ACAD_NAV_VCDISPLAY
1070
     3
  0
VPORT
  5
297
330
8
100
AcDbSymbolTableRecord
100
AcDbViewportTableRecord
  2
L1
 70
     0
 10
0.0
 20
0.0
 11
1.0
 21
1.0
 12
283.966026
 22
233.559542
 13
0.0
 23
0.0
 14
0.5
 24
0.5
 15
0.5
 25
0.5
 16
0.0
 26
0.0
 36
1.0
 17
0.0
 27
0.0
 37
0.0
 40
207.433333
 41
0.085602
 42
50.0
 43
376.33831
 44
-376.33831
 50
0.0
 51
0.0
 71
     0
 72
   100
 73
     1
 74
     3
 75
     0
 76
     0
 77
     0
 78
     0
281
     0
 65
     1
110
0.0
120
0.0
130
0.0
111
1.0
121
0.0
131
0.0
112
0.0
122
1.0
132
0.0
 79
     0
146
0.0
  0
VPORT
  5
298
330
8
100
AcDbSymbolTableRecord
100
AcDbViewportTableRecord
  2
L2
 70
     0
 10
0.0
 20
0.0
 11
0.5
 21
1.0
 12
0.0
 22
0.0
 13
0.0
 23
0.0
 14
0.5
 24
0.5
 15
0.5
 25
0.5
 16
0.0
 26
-1.0
 36
0.0
 17
0.0
 27
0.0
 37
0.0
 40
1319.735116
 41
0.013455
 42
50.0
 43
679.920199
 44
-679.920199
 50
0.0
 51
0.0
 71
     0
 72
   100
 73
     1
 74
     3
 75
     0
 76
     0
 77
     0
 78
     0
281
     0
 65
     1
110
0.0
120
0.0
130
0.0
111
1.0
121
0.0
131
0.0
112
0.0
122
1.0
132
0.0
 79
     0
146
0.0
  0
VPORT
  5
299
330
8
100
AcDbSymbolTableRecord
100
AcDbViewportTableRecord
  2
L2
 70
     0
 10
0.5
 20
0.0
 11
1.0
 21
1.0
 12
0.0
 22
0.0
 13
0.0
 23
0.0
 14
0.5
 24
0.5
 15
0.5
 25
0.5
 16
1.0
 26
0.0
 36
0.0
 17
0.0
 27
0.0
 37
0.0
 40
1319.735116
 41
0.013455
 42
50.0
 43
667.9688169999999
 44
-667.9688169999999
 50
0.0
 51
0.0
 71
     0
 72
   100
 73
     1
 74
     3
 75
     0
 76
     0
 77
     0
 78
     0
281
     0
 65
     1
110
0.0
120
0.0
130
0.0
111
1.0
121
0.0
131
0.0
112
0.0
122
1.0
132
0.0
 79
     0
146
0.0
  0
VPORT
  5
29A
330
8
100
AcDbSymbolTableRecord
100
AcDbViewportTableRecord
  2
L3
 70
     0
 10
0.0
 20
0.5
 11
1.0
 21
1.0
 12
283.966026
 22
233.559542
 13
0.0
 23
0.0
 14
0.5
 24
0.5
 15
0.5
 25
0.5
 16
0.0
 26
0.0
 36
1.0
 17
0.0
 27
0.0
 37
0.0
 40
207.433333
 41
0.085602
 42
50.0
 43
376.33831
 44
-376.33831
 50
0.0
 51
0.0
 71
     0
 72
   100
 73
     1
 74
     3
 75
     0
 76
     0
 77
     0
 78
     0
281
     0
 65
     1
110
0.0
120
0.0
130
0.0
111
1.0
121
0.0
131
0.0
112
0.0
122
1.0
132
0.0
 79
     0
146
0.0
  0
VPORT
  5
29B
330
8
100
AcDbSymbolTableRecord
100
AcDbViewportTableRecord
  2
L3
 70
     0
 10
0.0
 20
0.0
 11
1.0
 21
0.5
 12
0.0
 22
0.0
 13
0.0
 23
0.0
 14
0.5
 24
0.5
 15
0.5
 25
0.5
 16
0.0
 26
-1.0
 36
0.0
 17
0.0
 27
0.0
 37
0.0
 40
1319.735116
 41
0.013455
 42
50.0
 43
679.920199
 44
-679.920199
 50
0.0
 51
0.0
 71
     0
 72
   100
 73
     1
 74
     3
 75
     0
 76
     0
 77
     0
 78
     0
281
     0
 65
     1
110
0.0
120
0.0
130
0.0
111
1.0
121
0.0
131
0.0
112
0.0
122
1.0
132
0.0
 79
     0
146
0.0
  0
VPORT
  5
29C
330
8
100
AcDbSymbolTableRecord
100
AcDbViewportTableRecord
  2
L4
 70
     0
 10
0.0
 20
0.5
 11
0.5
 21
1.0
 12
283.966026
 22
233.559542
 13
0.0
 23
0.0
 14
0.5
 24
0.5
 15
0.5
 25
0.5
 16
0.0
 26
0.0
 36
1.0
 17
0.0
 27
0.0
 37
0.0
 40
207.433333
 41
0.085602
 42
50.0
 43
376.33831
 44
-376.33831
 50
0.0
 51
0.0
 71
     0
 72
   100
 73
     1
 74
     3
 75
     0
 76
     0
 77
     0
 78
     0
281
     0
 65
     1
110
0.0
120
0.0
130
0.0
111
1.0
121
0.0
131
0.0
112
0.0
122
1.0
132
0.0
 79
     0
146
0.0
  0
VPORT
  5
29D
330
8
100
AcDbSymbolTableRecord
100
AcDbViewportTableRecord
  2
L4
 70
     0
 10
0.0
 20
0.0
 11
0.5
 21
0.5
 12
0.0
 22
0.0
 13
0.0
 23
0.0
 14
0.5
 24
0.5
 15
0.5
 25
0.5
 16
0.0
 26
-1.0
 36
0.0
 17
0.0
 27
0.0
 37
0.0
 40
1319.735116
 41
0.013455
 42
50.0
 43
679.920199
 44
-679.920199
 50
0.0
 51
0.0
 71
     0
 72
   100
 73
     1
 74
     3
 75
     0
 76
     0
 77
     0
 78
     0
281
     0
 65
     1
110
0.0
120
0.0
130
0.0
111
1.0
121
0.0
131
0.0
112
0.0
122
1.0
132
0.0
 79
     0
146
0.0
  0
VPORT
  5
29E
330
8
100
AcDbSymbolTableRecord
100
AcDbViewportTableRecord
  2
L4
 70
     0
 10
0.5
 20
0.0
 11
1.0
 21
0.5
 12
0.0
 22
0.0
 13
0.0
 23
0.0
 14
0.5
 24
0.5
 15
0.5
 25
0.5
 16
1.0
 26
0.0
 36
0.0
 17
0.0
 27
0.0
 37
0.0
 40
1319.735116
 41
0.013455
 42
50.0
 43
667.9688169999999
 44
-667.9688169999999
 50
0.0
 51
0.0
 71
     0
 72
   100
 73
     1
 74
     3
 75
     0
 76
     0
 77
     0
 78
     0
281
     0
 65
     1
110
0.0
120
0.0
130
0.0
111
1.0
121
0.0
131
0.0
112
0.0
122
1.0
132
0.0
 79
     0
146
0.0
  0
VPORT
  5
29F
330
8
100
AcDbSymbolTableRecord
100
AcDbViewportTableRecord
  2
L4
 70
     0
 10
0.5
 20
0.5
 11
1.0
 21
1.0
 12
0.0
 22
0.0
 13
0.0
 23
0.0
 14
0.5
 24
0.5
 15
0.5
 25
0.5
 16
0.5773502691896259
 26
-0.5773502691896259
 36
0.5773502691896259
 17
0.0
 27
0.0
 37
0.0
 40
1296.074958
 41
0.0137
 42
50.0
 43
675.1032679999999
 44
-675.1032679999999
 50
0.0
 51
0.0
 71
     0
 72
   100
 73
     1
 74
     3
 75
     0
 76
     0
 77
     0
 78
     0
281
     0
 65
     1
110
0.0
120
0.0
130
0.0
111
1.0
121
0.0
131
0.0
112
0.0
122
1.0
132
0.0
 79
     0
146
0.0
  0
VPORT
  5
2A0
330
8
100
AcDbSymbolTableRecord
100
AcDbViewportTableRecord
  2
L6
 70
     0
 10
0.0
 20
0.5
 11
0.333333
 21
1.0
 12
0.0
 22
0.0
 13
0.0
 23
0.0
 14
0.5
 24
0.5
 15
0.5
 25
0.5
 16
0.7188730927569434
 26
-0.5850486126764433
 36
0.3754192287502549
 17
0.0
 27
0.0
 37
0.0
 40
1367.812327
 41
0.012982
 42
50.0
 43
708.2012429999999
 44
-708.2012429999999
 50
0.0
 51
0.0
 71
     0
 72
   100
 73
     1
 74
     3
 75
     0
 76
     0
 77
     0
 78
     0
281
     0
 65
     1
110
0.0
120
0.0
130
0.0
111
1.0
121
0.0
131
0.0
112
0.0
122
1.0
132
0.0
 79
     0
146
0.0
  0
VPORT
  5
2A1
330
8
100
AcDbSymbolTableRecord
100
AcDbViewportTableRecord
  2
L6
 70
     0
 10
0.0
 20
0.0
 11
0.333333
 21
0.5
 12
0.0
 22
0.0
 13
0.0
 23
0.0
 14
0.5
 24
0.5
 15
0.5
 25
0.5
 16
-1.0
 26
0.0
 36
0.0
 17
0.0
 27
0.0
 37
0.0
 40
1319.735116
 41
0.013455
 42
50.0
 43
667.9688169999999
 44
-667.9688169999999
 50
0.0
 51
0.0
 71
     0
 72
   100
 73
     1
 74
     3
 75
     0
 76
     0
 77
     0
 78
     0
281
     0
 65
     1
110
0.0
120
0.0
130
0.0
111
1.0
121
0.0
131
0.0
112
0.0
122
1.0
132
0.0
 79
     0
146
0.0
  0
VPORT
  5
2A2
330
8
100
AcDbSymbolTableRecord
100
AcDbViewportTableRecord
  2
L6
 70
     0
 10
0.333333
 20
0.5
 11
0.666667
 21
1.0
 12
283.966026
 22
233.559542
 13
0.0
 23
0.0
 14
0.5
 24
0.5
 15
0.5
 25
0.5
 16
0.0
 26
0.0
 36
1.0
 17
0.0
 27
0.0
 37
0.0
 40
207.433333
 41
0.085602
 42
50.0
 43
376.33831
 44
-376.33831
 50
0.0
 51
0.0
 71
     0
 72
   100
 73
     1
 74
     3
 75
     0
 76
     0
 77
     0
 78
     0
281
     0
 65
     1
110
0.0
120
0.0
130
0.0
111
1.0
121
0.0
131
0.0
112
0.0
122
1.0
132
0.0
 79
     0
146
0.0
  0
VPORT
  5
2A3
330
8
100
AcDbSymbolTableRecord
100
AcDbViewportTableRecord
  2
L6
 70
     0
 10
0.333333
 20
0.0
 11
0.666667
 21
0.5
 12
0.0
 22
0.0
 13
0.0
 23
0.0
 14
0.5
 24
0.5
 15
0.5
 25
0.5
 16
0.0
 26
-1.0
 36
0.0
 17
0.0
 27
0.0
 37
0.0
 40
1319.735116
 41
0.013455
 42
50.0
 43
679.920199
 44
-679.920199
 50
0.0
 51
0.0
 71
     0
 72
   100
 73
     1
 74
     3
 75
     0
 76
     0
 77
     0
 78
     0
281
     0
 65
     1
110
0.0
120
0.0
130
0.0
111
1.0
121
0.0
131
0.0
112
0.0
122
1.0
132
0.0
 79
     0
146
0.0
  0
VPORT
  5
2A4
330
8
100
AcDbSymbolTableRecord
100
AcDbViewportTableRecord
  2
L6
 70
     0
 10
0.666667
 20
0.5
 11
1.0
 21
1.0
 12
0.0
 22
0.0
 13
0.0
 23
0.0
 14
0.5
 24
0.5
 15
0.5
 25
0.5
 16
0.5773502691896259
 26
-0.5773502691896259
 36
0.5773502691896259
 17
0.0
 27
0.0
 37
0.0
 40
1296.074958
 41
0.0137
 42
50.0
 43
675.1032679999999
 44
-675.1032679999999
 50
0.0
 51
0.0
 71
     0
 72
   100
 73
     1
 74
     3
 75
     0
 76
     0
 77
     0
 78
     0
281
     0
 65
     1
110
0.0
120
0.0
130
0.0
111
1.0
121
0.0
131
0.0
112
0.0
122
1.0
132
0.0
 79
     0
146
0.0
  0
VPORT
  5
2A5
330
8
100
AcDbSymbolTableRecord
100
AcDbViewportTableRecord
  2
L6
 70
     0
 10
0.666667
 20
0.0
 11
1.0
 21
0.5
 12
0.0
 22
0.0
 13
0.0
 23
0.0
 14
0.5
 24
0.5
 15
0.5
 25
0.5
 16
1.0
 26
0.0
 36
0.0
 17
0.0
 27
0.0
 37
0.0
 40
1319.735116
 41
0.013455
 42
50.0
 43
667.9688169999999
 44
-667.9688169999999
 50
0.0
 51
0.0
 71
     0
 72
   100
 73
     1
 74
     3
 75
     0
 76
     0
 77
     0
 78
     0
281
     0
 65
     1
110
0.0
120
0.0
130
0.0
111
1.0
121
0.0
131
0.0
112
0.0
122
1.0
132
0.0
 79
     0
146
0.0
  0
ENDTAB
  0
TABLE
  2
LTYPE
  5
5
330
0
100
AcDbSymbolTable
 70
     7
  0
LTYPE
  5
14
330
5
100
AcDbSymbolTableRecord
100
AcDbLinetypeTableRecord
  2
ByBlock
 70
     0
  3

 72
    65
 73
     0
 40
0.0
  0
LTYPE
  5
15
330
5
100
AcDbSymbolTableRecord
100
AcDbLinetypeTableRecord
  2
ByLayer
 70
     0
  3

 72
    65
 73
     0
 40
0.0
  0
LTYPE
  5
16
330
5
100
AcDbSymbolTableRecord
100
AcDbLinetypeTableRecord
  2
Continuous
 70
     0
  3
Solid line
 72
    65
 73
     0
 40
0.0
  0
LTYPE
  5
6E
330
5
100
AcDbSymbolTableRecord
100
AcDbLinetypeTableRecord
  2
CENTER
 70
     0
  3
____ _ ____ _ ____ _ ____
 72
    65
 73
     4
 40
47.4
 49
22.0
 74
     4
 75
     0
340
0
 46
0.0
 50
0.0
 44
0.0
 45
0.0
 49
-8.5
 74
     4
 75
     0
340
0
 46
0.0
 50
0.0
 44
0.0
 45
0.0
 49
8.5
 74
     4
 75
     0
340
0
 46
0.0
 50
0.0
 44
0.0
 45
0.0
 49
-8.5
 74
     4
 75
     0
340
0
 46
0.0
 50
0.0
 44
0.0
 45
0.0
  0
LTYPE
  5
6F
330
5
100
AcDbSymbolTableRecord
100
AcDbLinetypeTableRecord
  2
DASHDOT
 70
     0
  3
_._._._._._._._._._._._._._._._.
 72
    65
 73
     4
 40
70.0
 49
31.0
 74
     4
 75
     0
340
0
 46
0.0
 50
0.0
 44
0.0
 45
0.0
 49
-13.0
 74
     4
 75
     0
340
0
 46
0.0
 50
0.0
 44
0.0
 45
0.0
 49
13.0
 74
     4
 75
     0
340
0
 46
0.0
 50
0.0
 44
0.0
 45
0.0
 49
-13.0
 74
     4
 75
     0
340
0
 46
0.0
 50
0.0
 44
0.0
 45
0.0
  0
LTYPE
  5
70
330
5
100
AcDbSymbolTableRecord
100
AcDbLinetypeTableRecord
  2
DASHED
 70
     0
  3
__ __ __ __ __ __ __ __ __
 72
    65
 73
     2
 40
25.72
 49
12.86
 74
     4
 75
     0
340
0
 46
0.0
 50
0.0
 44
0.0
 45
0.0
 49
-12.86
 74
     4
 75
     0
340
0
 46
0.0
 50
0.0
 44
0.0
 45
0.0
  0
LTYPE
  5
71
330
5
100
AcDbSymbolTableRecord
100
AcDbLinetypeTableRecord
  2
DOT
 70
     0
  3
.........................
 72
    65
 73
     2
 40
10.0
 49
0.0
 74
     4
 75
     0
340
0
 46
0.0
 50
0.0
 44
0.0
 45
0.0
 49
-10.0
 74
     4
 75
     0
340
0
 46
0.0
 50
0.0
 44
0.0
 45
0.0
  0
LTYPE
  5
72
330
5
100
AcDbSymbolTableRecord
100
AcDbLinetypeTableRecord
  2
PHANTOM
 70
     0
  3
____ _ _ ____ _ _ _____ _ _ ____
 72
    65
 73
     6
 40
50.5
 49
18.0
 74
     4
 75
     0
340
0
 46
0.0
 50
0.0
 44
0.0
 45
0.0
 49
-6.5
 74
     4
 75
     0
340
0
 46
0.0
 50
0.0
 44
0.0
 45
0.0
 49
6.5
 74
     4
 75
     0
340
0
 46
0.0
 50
0.0
 44
0.0
 45
0.0
 49
-6.5
 74
     4
 75
     0
340
0
 46
0.0
 50
0.0
 44
0.0
 45
0.0
 49
6.5
 74
     4
 75
     0
340
0
 46
0.0
 50
0.0
 44
0.0
 45
0.0
 49
-6.5
 74
     4
 75
     0
340
0
 46
0.0
 50
0.0
 44
0.0
 45
0.0
  0
LTYPE
  5
335
330
5
100
AcDbSymbolTableRecord
100
AcDbLinetypeTableRecord
  2
CENTER2
 70
     0
  3
Center (.5x) ___ _ ___ _ ___ _ ___ _ ___ _ ___
 72
    65
 73
     4
 40
1.125
 49
0.75
 74
     0
 49
-0.125
 74
     0
 49
0.125
 74
     0
 49
-0.125
 74
     0
  0
ENDTAB
  0
TABLE
  2
LAYER
  5
2
330
0
100
AcDbSymbolTable
 70
    22
  0
LAYER
  5
10
102
{ACAD_XDICTIONARY
360
340
102
}
330
2
100
AcDbSymbolTableRecord
100
AcDbLayerTableRecord
  2
0
 70
     0
 62
     7
  6
Continuous
370
    -3
390
F
  0
LAYER
  5
1F1
330
2
100
AcDbSymbolTableRecord
100
AcDbLayerTableRecord
  2
Defpoints
 70
     0
 62
     7
  6
Continuous
290
     0
370
    -3
390
F
  0
LAYER
  5
332
102
{ACAD_XDICTIONARY
360
342
102
}
330
2
100
AcDbSymbolTableRecord
100
AcDbLayerTableRecord
  2
1
 70
     0
 62
     4
  6
Continuous
370
    -3
390
F
  0
LAYER
  5
333
102
{ACAD_XDICTIONARY
360
344
102
}
330
2
100
AcDbSymbolTableRecord
100
AcDbLayerTableRecord
  2
2
 70
     0
 62
     7
  6
Continuous
370
    -3
390
F
  0
LAYER
  5
334
102
{ACAD_XDICTIONARY
360
346
102
}
330
2
100
AcDbSymbolTableRecord
100
AcDbLayerTableRecord
  2
4
 70
     0
 62
     2
  6
CENTER2
370
    -3
390
F
  0
LAYER
  5
336
102
{ACAD_XDICTIONARY
360
348
102
}
330
2
100
AcDbSymbolTableRecord
100
AcDbLayerTableRecord
  2
SK1
 70
     0
 62
     4
  6
Continuous
370
    -3
390
F
  0
LAYER
  5
337
102
{ACAD_XDICTIONARY
360
34A
102
}
330
2
100
AcDbSymbolTableRecord
100
AcDbLayerTableRecord
  2
SK2
 70
     0
 62
     7
  6
Continuous
370
    -3
390
F
  0
LAYER
  5
339
102
{ACAD_XDICTIONARY
360
34C
102
}
330
2
100
AcDbSymbolTableRecord
100
AcDbLayerTableRecord
  2
SK4
 70
     0
 62
     2
  6
CENTER2
370
    -3
390
F
  0
LAYER
  5
33A
102
{ACAD_XDICTIONARY
360
34E
102
}
330
2
100
AcDbSymbolTableRecord
100
AcDbLayerTableRecord
  2
SK6
 70
     0
 62
     5
  6
Continuous
370
    -3
390
F
  0
LAYER
  5
33B
102
{ACAD_XDICTIONARY
360
350
102
}
330
2
100
AcDbSymbolTableRecord
100
AcDbLayerTableRecord
  2
CUT
 70
     0
 62
     1
  6
Continuous
370
    -3
390
F
  0
LAYER
  5
33C
102
{ACAD_XDICTIONARY
360
352
102
}
330
2
100
AcDbSymbolTableRecord
100
AcDbLayerTableRecord
  2
NOCUT
 70
     0
 62
     7
  6
Continuous
370
    -3
390
F
  0
LAYER
  5
33D
102
{ACAD_XDICTIONARY
360
354
102
}
330
2
100
AcDbSymbolTableRecord
100
AcDbLayerTableRecord
  2
80
 70
     0
 62
     6
  6
Continuous
370
    -3
390
F
  0
LAYER
  5
33E
102
{ACAD_XDICTIONARY
360
356
102
}
330
2
100
AcDbSymbolTableRecord
100
AcDbLayerTableRecord
  2
81
 70
     0
 62
     3
  6
Continuous
370
    -3
390
F
  0
ENDTAB
  0
TABLE
  2
STYLE
  5
3
330
0
100
AcDbSymbolTable
 70
     3
  0
STYLE
  5
11
330
3
100
AcDbSymbolTableRecord
100
AcDbTextStyleTableRecord
  2
Standard
 70
     0
 40
0.0
 41
1.0
 50
0.0
 71
     0
 42
0.2
  3
txt
  4

  0
STYLE
  5
1EA
330
3
100
AcDbSymbolTableRecord
100
AcDbTextStyleTableRecord
  2
cesky
 70
     0
 40
0.0
 41
1.0
 50
0.0
 71
     0
 42
0.2
  3
simplex.shx
  4

  0
STYLE
  5
1EB
330
3
100
AcDbSymbolTableRecord
100
AcDbTextStyleTableRecord
  2
DWGDirectTextStyle
 70
     0
 40
0.0
 41
1.0
 50
0.0
 71
     0
 42
0.2
  3
simplex
  4

  0
ENDTAB
  0
TABLE
  2
VIEW
  5
6
330
0
100
AcDbSymbolTable
 70
     0
  0
ENDTAB
  0
TABLE
  2
UCS
  5
7
330
0
100
AcDbSymbolTable
 70
     0
  0
ENDTAB
  0
TABLE
  2
APPID
  5
9
330
0
100
AcDbSymbolTable
 70
     7
  0
APPID
  5
12
330
9
100
AcDbSymbolTableRecord
100
AcDbRegAppTableRecord
  2
ACAD
 70
     0
  0
APPID
  5
1ED
330
9
100
AcDbSymbolTableRecord
100
AcDbRegAppTableRecord
  2
ACAD_DSTYLE_DIMBREAK
 70
     0
  0
APPID
  5
2A6
330
9
100
AcDbSymbolTableRecord
100
AcDbRegAppTableRecord
  2
ACAD_DSTYLE_DIM_LINETYPE
 70
     0
  0
APPID
  5
2A7
330
9
100
AcDbSymbolTableRecord
100
AcDbRegAppTableRecord
  2
ACAD_DSTYLE_DIM_EXT1_LINETYPE
 70
     0
  0
APPID
  5
2A8
330
9
100
AcDbSymbolTableRecord
100
AcDbRegAppTableRecord
  2
ACAD_DSTYLE_DIM_EXT2_LINETYPE
 70
     0
  0
APPID
  5
2E8
330
9
100
AcDbSymbolTableRecord
100
AcDbRegAppTableRecord
  2
ACAD_MLEADERVER
 70
     0
  0
APPID
  5
35B
330
9
100
AcDbSymbolTableRecord
100
AcDbRegAppTableRecord
  2
ACAD_NAV_VCDISPLAY
 70
     0
  0
ENDTAB
  0
TABLE
  2
DIMSTYLE
  5
A
330
0
100
AcDbSymbolTable
 70
     1
100
AcDbDimStyleTable
 71
     0
  0
DIMSTYLE
105
27
330
A
100
AcDbSymbolTableRecord
100
AcDbDimStyleTableRecord
  2
Standard
 70
     0
340
11
1001
ACAD_DSTYLE_DIMBREAK
1070
   391
1040
6.349999999999999
  0
ENDTAB
  0
TABLE
  2
BLOCK_RECORD
  5
1
330
0
100
AcDbSymbolTable
 70
    16
  0
BLOCK_RECORD
  5
1F
102
{ACAD_XDICTIONARY
360
2F8
102
}
330
1
100
AcDbSymbolTableRecord
100
AcDbBlockTableRecord
  2
*Model_Space
340
22
  0
BLOCK_RECORD
  5
1B
330
1
100
AcDbSymbolTableRecord
100
AcDbBlockTableRecord
  2
*Paper_Space
340
1E
  0
BLOCK_RECORD
  5
23
330
1
100
AcDbSymbolTableRecord
100
AcDbBlockTableRecord
  2
*Paper_Space0
340
26
  0
BLOCK_RECORD
  5
1E4
330
1
100
AcDbSymbolTableRecord
100
AcDbBlockTableRecord
  2
ASSORTED_DRAFT1
340
0
  0
BLOCK_RECORD
  5
1F2
330
1
100
AcDbSymbolTableRecord
100
AcDbBlockTableRecord
  2
*D2
340
0
  0
BLOCK_RECORD
  5
1FE
330
1
100
AcDbSymbolTableRecord
100
AcDbBlockTableRecord
  2
_U0
340
0
  0
BLOCK_RECORD
  5
20A
330
1
100
AcDbSymbolTableRecord
100
AcDbBlockTableRecord
  2
*D4
340
0
  0
BLOCK_RECORD
  5
216
330
1
100
AcDbSymbolTableRecord
100
AcDbBlockTableRecord
  2
_U1
340
0
  0
BLOCK_RECORD
  5
222
330
1
100
AcDbSymbolTableRecord
100
AcDbBlockTableRecord
  2
*D6
340
0
  0
BLOCK_RECORD
  5
22E
330
1
100
AcDbSymbolTableRecord
100
AcDbBlockTableRecord
  2
_U2
340
0
  0
BLOCK_RECORD
  5
23A
330
1
100
AcDbSymbolTableRecord
100
AcDbBlockTableRecord
  2
*D8
340
0
  0
BLOCK_RECORD
  5
246
330
1
100
AcDbSymbolTableRecord
100
AcDbBlockTableRecord
  2
_U3
340
0
  0
BLOCK_RECORD
  5
252
330
1
100
AcDbSymbolTableRecord
100
AcDbBlockTableRecord
  2
*D10
340
0
  0
BLOCK_RECORD
  5
25D
330
1
100
AcDbSymbolTableRecord
100
AcDbBlockTableRecord
  2
_U4
340
0
  0
BLOCK_RECORD
  5
268
330
1
100
AcDbSymbolTableRecord
100
AcDbBlockTableRecord
  2
*D12
340
0
  0
BLOCK_RECORD
  5
274
330
1
100
AcDbSymbolTableRecord
100
AcDbBlockTableRecord
  2
_U5
340
0
  0
BLOCK_RECORD
  5
281
330
1
100
AcDbSymbolTableRecord
100
AcDbBlockTableRecord
  2
*D14
340
0
  0
BLOCK_RECORD
  5
28D
330
1
100
AcDbSymbolTableRecord
100
AcDbBlockTableRecord
  2
_U6
340
0
  0
ENDTAB
  0
ENDSEC
  0
SECTION
  2
BLOCKS
  0
BLOCK
  5
20
330
1F
100
AcDbEntity
  8
0
100
AcDbBlockBegin
  2
*Model_Space
 70
     0
 10
0.0
 20
0.0
 30
0.0
  3
*Model_Space
  1

  0
ENDBLK
  5
21
330
1F
100
AcDbEntity
  8
0
100
AcDbBlockEnd
  0
BLOCK
  5
1C
330
1B
100
AcDbEntity
 67
     1
  8
0
100
AcDbBlockBegin
  2
*Paper_Space
 70
     0
 10
0.0
 20
0.0
 30
0.0
  3
*Paper_Space
  1

  0
ENDBLK
  5
1D
330
1B
100
AcDbEntity
 67
     1
  8
0
100
AcDbBlockEnd
  0
BLOCK
  5
24
330
23
100
AcDbEntity
 67
     1
  8
0
100
AcDbBlockBegin
  2
*Paper_Space0
 70
     0
 10
0.0
 20
0.0
 30
0.0
  3
*Paper_Space0
  1

  0
ENDBLK
  5
25
330
23
100
AcDbEntity
 67
     1
  8
0
100
AcDbBlockEnd
  0
BLOCK
  5
1E7
330
1E4
100
AcDbEntity
  8
0
100
AcDbBlockBegin
  2
ASSORTED_DRAFT1
 70
     0
 10
0.0
 20
0.0
 30
0.0
  3
ASSORTED_DRAFT1
  1

  0
SOLID
  5
1E5
330
1E4
100
AcDbEntity
  8
0
 62
   254
370
    13
100
AcDbTrace
 10
270.185042
 20
161.034924
 30
0.0
 11
265.185046
 21
159.92645
 31
0.0
 12
265.1850379999999
 22
162.143397
 32
0.0
 13
270.185042
 23
161.034924
 33
0.0
  0
ENDBLK
  5
1E8
330
1E4
100
AcDbEntity
  8
0
100
AcDbBlockEnd
  0
BLOCK
  5
1F3
330
1F2
100
AcDbEntity
  8
0
100
AcDbBlockBegin
  2
*D2
 70
     1
 10
0.0
 20
0.0
 30
0.0
  3
*D2
  1

  0
LINE
  5
1F5
330
1F2
100
AcDbEntity
  8
0
 62
   254
370
    -2
100
AcDbLine
 10
362.404842
 20
299.407994
 30
0.0
 11
362.404842
 21
328.5109970000001
 31
0.0
  0
LINE
  5
1F6
330
1F2
100
AcDbEntity
  8
0
 62
   254
370
    -2
100
AcDbLine
 10
274.404842
 20
288.907994
 30
0.0
 11
274.404842
 21
328.5109970000001
 31
0.0
  0
LINE
  5
1F7
330
1F2
100
AcDbEntity
  8
0
 62
   254
370
    -2
100
AcDbLine
 10
358.904842
 20
327.510997
 30
0.0
 11
277.904842
 21
327.510997
 31
0.0
  0
SOLID
  5
1F8
330
1F2
100
AcDbEntity
  8
0
 62
   254
100
AcDbTrace
 10
358.904842
 20
326.927663
 30
0.0
 11
358.904842
 21
328.09433
 31
0.0
 12
362.404842
 22
327.510997
 32
0.0
 13
362.404842
 23
327.510997
 33
0.0
  0
SOLID
  5
1F9
330
1F2
100
AcDbEntity
  8
0
 62
   254
100
AcDbTrace
 10
277.904842
 20
328.09433
 30
0.0
 11
277.904842
 21
326.927663
 31
0.0
 12
274.404842
 22
327.510997
 32
0.0
 13
274.404842
 23
327.510997
 33
0.0
  0
MTEXT
  5
1FA
330
1F2
100
AcDbEntity
  8
0
 62
   254
370
    13
100
AcDbMText
 10
318.404842
 20
332.7609970000001
 30
0.0
 40
3.5
 41
0.0
 71
     5
 72
     1
  1
\A1;88
  7
cesky
 73
     1
 44
1.0
  0
POINT
  5
1FB
330
1F2
100
AcDbEntity
  8
Defpoints
 62
     0
100
AcDbPoint
 10
362.404842
 20
299.407994
 30
0.0
  0
POINT
  5
1FC
330
1F2
100
AcDbEntity
  8
Defpoints
 62
     0
100
AcDbPoint
 10
274.404842
 20
288.907994
 30
0.0
  0
POINT
  5
1FD
330
1F2
100
AcDbEntity
  8
Defpoints
 62
     0
100
AcDbPoint
 10
274.404842
 20
327.510997
 30
0.0
  0
ENDBLK
  5
1F4
330
1F2
100
AcDbEntity
  8
0
100
AcDbBlockEnd
  0
BLOCK
  5
205
330
1FE
100
AcDbEntity
  8
0
100
AcDbBlockBegin
  2
_U0
 70
     0
 10
0.0
 20
0.0
 30
0.0
  3
_U0
  1

  0
ENDBLK
  5
206
330
1FE
100
AcDbEntity
  8
0
100
AcDbBlockEnd
  0
BLOCK
  5
20B
330
20A
100
AcDbEntity
  8
0
100
AcDbBlockBegin
  2
*D4
 70
     1
 10
0.0
 20
0.0
 30
0.0
  3
*D4
  1

  0
LINE
  5
20D
330
20A
100
AcDbEntity
  8
0
 62
   254
370
    -2
100
AcDbLine
 10
362.404842
 20
301.407994
 30
0.0
 11
362.404842
 21
341.687968
 31
0.0
  0
LINE
  5
20E
330
20A
100
AcDbEntity
  8
0
 62
   254
370
    -2
100
AcDbLine
 10
218.404842
 20
299.407994
 30
0.0
 11
218.404842
 21
341.687968
 31
0.0
  0
LINE
  5
20F
330
20A
100
AcDbEntity
  8
0
 62
   254
370
    -2
100
AcDbLine
 10
358.904842
 20
340.687968
 30
0.0
 11
221.904842
 21
340.687968
 31
0.0
  0
SOLID
  5
210
330
20A
100
AcDbEntity
  8
0
 62
   254
100
AcDbTrace
 10
358.904842
 20
340.104634
 30
0.0
 11
358.904842
 21
341.271301
 31
0.0
 12
362.404842
 22
340.687968
 32
0.0
 13
362.404842
 23
340.687968
 33
0.0
  0
SOLID
  5
211
330
20A
100
AcDbEntity
  8
0
 62
   254
100
AcDbTrace
 10
221.904842
 20
341.271301
 30
0.0
 11
221.904842
 21
340.104634
 31
0.0
 12
218.404842
 22
340.687968
 32
0.0
 13
218.404842
 23
340.687968
 33
0.0
  0
MTEXT
  5
212
330
20A
100
AcDbEntity
  8
0
 62
   254
370
    13
100
AcDbMText
 10
290.404842
 20
345.937968
 30
0.0
 40
3.5
 41
0.0
 71
     5
 72
     1
  1
\A1;144
  7
cesky
 73
     1
 44
1.0
  0
POINT
  5
213
330
20A
100
AcDbEntity
  8
Defpoints
 62
     0
100
AcDbPoint
 10
362.404842
 20
301.407994
 30
0.0
  0
POINT
  5
214
330
20A
100
AcDbEntity
  8
Defpoints
 62
     0
100
AcDbPoint
 10
218.404842
 20
299.407994
 30
0.0
  0
POINT
  5
215
330
20A
100
AcDbEntity
  8
Defpoints
 62
     0
100
AcDbPoint
 10
218.404842
 20
340.687968
 30
0.0
  0
ENDBLK
  5
20C
330
20A
100
AcDbEntity
  8
0
100
AcDbBlockEnd
  0
BLOCK
  5
21D
330
216
100
AcDbEntity
  8
0
100
AcDbBlockBegin
  2
_U1
 70
     0
 10
0.0
 20
0.0
 30
0.0
  3
_U1
  1

  0
ENDBLK
  5
21E
330
216
100
AcDbEntity
  8
0
100
AcDbBlockEnd
  0
BLOCK
  5
223
330
222
100
AcDbEntity
  8
0
100
AcDbBlockBegin
  2
*D6
 70
     1
 10
0.0
 20
0.0
 30
0.0
  3
*D6
  1

  0
LINE
  5
225
330
222
100
AcDbEntity
  8
0
 62
   254
370
    -2
100
AcDbLine
 10
274.404842
 20
288.907994
 30
0.0
 11
274.404842
 21
328.5109970000001
 31
0.0
  0
LINE
  5
226
330
222
100
AcDbEntity
  8
0
 62
   254
370
    -2
100
AcDbLine
 10
218.404842
 20
294.157994
 30
0.0
 11
218.404842
 21
328.5109970000001
 31
0.0
  0
LINE
  5
227
330
222
100
AcDbEntity
  8
0
 62
   254
370
    -2
100
AcDbLine
 10
270.904842
 20
327.510997
 30
0.0
 11
221.904842
 21
327.510997
 31
0.0
  0
SOLID
  5
228
330
222
100
AcDbEntity
  8
0
 62
   254
100
AcDbTrace
 10
270.904842
 20
326.927663
 30
0.0
 11
270.904842
 21
328.09433
 31
0.0
 12
274.404842
 22
327.510997
 32
0.0
 13
274.404842
 23
327.510997
 33
0.0
  0
SOLID
  5
229
330
222
100
AcDbEntity
  8
0
 62
   254
100
AcDbTrace
 10
221.904842
 20
328.09433
 30
0.0
 11
221.904842
 21
326.927663
 31
0.0
 12
218.404842
 22
327.510997
 32
0.0
 13
218.404842
 23
327.510997
 33
0.0
  0
MTEXT
  5
22A
330
222
100
AcDbEntity
  8
0
 62
   254
370
    13
100
AcDbMText
 10
246.404842
 20
332.7609970000001
 30
0.0
 40
3.5
 41
0.0
 71
     5
 72
     1
  1
\A1;56
  7
cesky
 73
     1
 44
1.0
  0
POINT
  5
22B
330
222
100
AcDbEntity
  8
Defpoints
 62
     0
100
AcDbPoint
 10
274.404842
 20
288.907994
 30
0.0
  0
POINT
  5
22C
330
222
100
AcDbEntity
  8
Defpoints
 62
     0
100
AcDbPoint
 10
218.404842
 20
294.157994
 30
0.0
  0
POINT
  5
22D
330
222
100
AcDbEntity
  8
Defpoints
 62
     0
100
AcDbPoint
 10
218.404842
 20
327.510997
 30
0.0
  0
ENDBLK
  5
224
330
222
100
AcDbEntity
  8
0
100
AcDbBlockEnd
  0
BLOCK
  5
235
330
22E
100
AcDbEntity
  8
0
100
AcDbBlockBegin
  2
_U2
 70
     0
 10
0.0
 20
0.0
 30
0.0
  3
_U2
  1

  0
ENDBLK
  5
236
330
22E
100
AcDbEntity
  8
0
100
AcDbBlockEnd
  0
BLOCK
  5
23B
330
23A
100
AcDbEntity
  8
0
100
AcDbBlockBegin
  2
*D8
 70
     1
 10
0.0
 20
0.0
 30
0.0
  3
*D8
  1

  0
LINE
  5
23D
330
23A
100
AcDbEntity
  8
0
 62
   254
370
    -2
100
AcDbLine
 10
362.404842
 20
299.407994
 30
0.0
 11
362.404842
 21
315.35906
 31
0.0
  0
LINE
  5
23E
330
23A
100
AcDbEntity
  8
0
 62
   254
370
    -2
100
AcDbLine
 10
291.933613
 20
299.35129
 30
0.0
 11
291.933613
 21
315.35906
 31
0.0
  0
LINE
  5
23F
330
23A
100
AcDbEntity
  8
0
 62
   254
370
    -2
100
AcDbLine
 10
358.904842
 20
314.35906
 30
0.0
 11
295.433613
 21
314.35906
 31
0.0
  0
SOLID
  5
240
330
23A
100
AcDbEntity
  8
0
 62
   254
100
AcDbTrace
 10
358.904842
 20
313.775727
 30
0.0
 11
358.904842
 21
314.9423930000001
 31
0.0
 12
362.404842
 22
314.35906
 32
0.0
 13
362.404842
 23
314.35906
 33
0.0
  0
SOLID
  5
241
330
23A
100
AcDbEntity
  8
0
 62
   254
100
AcDbTrace
 10
295.433613
 20
314.9423930000001
 30
0.0
 11
295.433613
 21
313.775727
 31
0.0
 12
291.933613
 22
314.35906
 32
0.0
 13
291.933613
 23
314.35906
 33
0.0
  0
MTEXT
  5
242
330
23A
100
AcDbEntity
  8
0
 62
   254
370
    13
100
AcDbMText
 10
327.169227
 20
319.60906
 30
0.0
 40
3.5
 41
0.0
 71
     5
 72
     1
  1
\A1;70.5
  7
cesky
 73
     1
 44
1.0
  0
POINT
  5
243
330
23A
100
AcDbEntity
  8
Defpoints
 62
     0
100
AcDbPoint
 10
362.404842
 20
299.407994
 30
0.0
  0
POINT
  5
244
330
23A
100
AcDbEntity
  8
Defpoints
 62
     0
100
AcDbPoint
 10
291.933613
 20
299.35129
 30
0.0
  0
POINT
  5
245
330
23A
100
AcDbEntity
  8
Defpoints
 62
     0
100
AcDbPoint
 10
291.933613
 20
314.35906
 30
0.0
  0
ENDBLK
  5
23C
330
23A
100
AcDbEntity
  8
0
100
AcDbBlockEnd
  0
BLOCK
  5
24D
330
246
100
AcDbEntity
  8
0
100
AcDbBlockBegin
  2
_U3
 70
     0
 10
0.0
 20
0.0
 30
0.0
  3
_U3
  1

  0
ENDBLK
  5
24E
330
246
100
AcDbEntity
  8
0
100
AcDbBlockEnd
  0
BLOCK
  5
253
330
252
100
AcDbEntity
  8
0
100
AcDbBlockBegin
  2
*D10
 70
     1
 10
0.0
 20
0.0
 30
0.0
  3
*D10
  1

  0
LINE
  5
255
330
252
100
AcDbEntity
  8
0
 62
   254
370
    -2
100
AcDbLine
 10
293.532259
 20
288.907994
 30
0.0
 11
380.274632
 21
288.907994
 31
0.0
  0
LINE
  5
256
330
252
100
AcDbEntity
  8
0
 62
   254
370
    -2
100
AcDbLine
 10
330.83929
 20
299.407994
 30
0.0
 11
380.274632
 21
299.407994
 31
0.0
  0
LINE
  5
257
330
252
100
AcDbEntity
  8
0
 62
   254
370
    -2
100
AcDbLine
 10
379.274632
 20
302.907994
 30
0.0
 11
379.274632
 21
306.407994
 31
0.0
  0
SOLID
  5
258
330
252
100
AcDbEntity
  8
0
 62
   254
100
AcDbTrace
 10
378.691299
 20
302.907994
 30
0.0
 11
379.8579660000001
 21
302.907994
 31
0.0
 12
379.274632
 22
299.407994
 32
0.0
 13
379.274632
 23
299.407994
 33
0.0
  0
MTEXT
  5
259
330
252
100
AcDbEntity
  8
0
 62
   254
370
    13
100
AcDbMText
 10
374.024632
 20
276.32466
 30
0.0
 40
3.5
 41
0.0
 71
     5
 72
     1
  1
\A1;21
  7
cesky
 11
0.0
 21
1.0
 31
0.0
 73
     1
 44
1.0
  0
POINT
  5
25A
330
252
100
AcDbEntity
  8
Defpoints
 62
     0
100
AcDbPoint
 10
293.532259
 20
288.907994
 30
0.0
  0
POINT
  5
25B
330
252
100
AcDbEntity
  8
Defpoints
 62
     0
100
AcDbPoint
 10
330.83929
 20
299.407994
 30
0.0
  0
POINT
  5
25C
330
252
100
AcDbEntity
  8
Defpoints
 62
     0
100
AcDbPoint
 10
379.274632
 20
299.407994
 30
0.0
  0
ENDBLK
  5
254
330
252
100
AcDbEntity
  8
0
100
AcDbBlockEnd
  0
BLOCK
  5
263
330
25D
100
AcDbEntity
  8
0
100
AcDbBlockBegin
  2
_U4
 70
     0
 10
0.0
 20
0.0
 30
0.0
  3
_U4
  1

  0
ENDBLK
  5
264
330
25D
100
AcDbEntity
  8
0
100
AcDbBlockEnd
  0
BLOCK
  5
269
330
268
100
AcDbEntity
  8
0
100
AcDbBlockBegin
  2
*D12
 70
     1
 10
0.0
 20
0.0
 30
0.0
  3
*D12
  1

  0
LINE
  5
26B
330
268
100
AcDbEntity
  8
0
 62
    95
370
    -2
100
AcDbLine
 10
220.404842
 20
301.407994
 30
0.0
 11
205.304739
 21
301.407994
 31
0.0
  0
LINE
  5
26C
330
268
100
AcDbEntity
  8
0
 62
    95
370
    -2
100
AcDbLine
 10
220.404842
 20
276.407994
 30
0.0
 11
205.304739
 21
276.407994
 31
0.0
  0
LINE
  5
26D
330
268
100
AcDbEntity
  8
0
 62
    95
370
    -2
100
AcDbLine
 10
206.304739
 20
297.907994
 30
0.0
 11
206.304739
 21
279.907994
 31
0.0
  0
SOLID
  5
26E
330
268
100
AcDbEntity
  8
0
 62
    95
100
AcDbTrace
 10
206.888073
 20
297.907994
 30
0.0
 11
205.721406
 21
297.907994
 31
0.0
 12
206.304739
 22
301.407994
 32
0.0
 13
206.304739
 23
301.407994
 33
0.0
  0
SOLID
  5
26F
330
268
100
AcDbEntity
  8
0
 62
    95
100
AcDbTrace
 10
205.721406
 20
279.907994
 30
0.0
 11
206.888073
 21
279.907994
 31
0.0
 12
206.304739
 22
276.407994
 32
0.0
 13
206.304739
 23
276.407994
 33
0.0
  0
MTEXT
  5
270
330
268
100
AcDbEntity
  8
0
 62
    95
370
    13
100
AcDbMText
 10
201.054739
 20
288.907994
 30
0.0
 40
3.5
 41
0.0
 71
     5
 72
     1
  1
\A1;25
  7
cesky
 11
0.0
 21
1.0
 31
0.0
 73
     1
 44
1.0
  0
POINT
  5
271
330
268
100
AcDbEntity
  8
Defpoints
 62
     0
100
AcDbPoint
 10
220.404842
 20
301.407994
 30
0.0
  0
POINT
  5
272
330
268
100
AcDbEntity
  8
Defpoints
 62
     0
100
AcDbPoint
 10
220.404842
 20
276.407994
 30
0.0
  0
POINT
  5
273
330
268
100
AcDbEntity
  8
Defpoints
 62
     0
100
AcDbPoint
 10
206.304739
 20
276.407994
 30
0.0
  0
ENDBLK
  5
26A
330
268
100
AcDbEntity
  8
0
100
AcDbBlockEnd
  0
BLOCK
  5
27C
330
274
100
AcDbEntity
  8
0
100
AcDbBlockBegin
  2
_U5
 70
     0
 10
0.0
 20
0.0
 30
0.0
  3
_U5
  1

  0
ENDBLK
  5
27D
330
274
100
AcDbEntity
  8
0
100
AcDbBlockEnd
  0
BLOCK
  5
282
330
281
100
AcDbEntity
  8
0
100
AcDbBlockBegin
  2
*D14
 70
     1
 10
0.0
 20
0.0
 30
0.0
  3
*D14
  1

  0
LINE
  5
284
330
281
100
AcDbEntity
  8
0
 62
    95
370
    -2
100
AcDbLine
 10
277.154842
 20
306.407994
 30
0.0
 11
192.519918
 21
306.407994
 31
0.0
  0
LINE
  5
285
330
281
100
AcDbEntity
  8
0
 62
    95
370
    -2
100
AcDbLine
 10
277.154842
 20
271.407994
 30
0.0
 11
192.519918
 21
271.407994
 31
0.0
  0
LINE
  5
286
330
281
100
AcDbEntity
  8
0
 62
    95
370
    -2
100
AcDbLine
 10
193.519918
 20
302.907994
 30
0.0
 11
193.519918
 21
274.907994
 31
0.0
  0
SOLID
  5
287
330
281
100
AcDbEntity
  8
0
 62
    95
100
AcDbTrace
 10
194.103251
 20
302.907994
 30
0.0
 11
192.936584
 21
302.907994
 31
0.0
 12
193.519918
 22
306.407994
 32
0.0
 13
193.519918
 23
306.407994
 33
0.0
  0
SOLID
  5
288
330
281
100
AcDbEntity
  8
0
 62
    95
100
AcDbTrace
 10
192.936584
 20
274.907994
 30
0.0
 11
194.103251
 21
274.907994
 31
0.0
 12
193.519918
 22
271.407994
 32
0.0
 13
193.519918
 23
271.407994
 33
0.0
  0
MTEXT
  5
289
330
281
100
AcDbEntity
  8
0
 62
    95
370
    13
100
AcDbMText
 10
188.269918
 20
288.907994
 30
0.0
 40
3.5
 41
0.0
 71
     5
 72
     1
  1
\A1;35
  7
cesky
 11
0.0
 21
1.0
 31
0.0
 73
     1
 44
1.0
  0
POINT
  5
28A
330
281
100
AcDbEntity
  8
Defpoints
 62
     0
100
AcDbPoint
 10
277.154842
 20
306.407994
 30
0.0
  0
POINT
  5
28B
330
281
100
AcDbEntity
  8
Defpoints
 62
     0
100
AcDbPoint
 10
277.154842
 20
271.407994
 30
0.0
  0
POINT
  5
28C
330
281
100
AcDbEntity
  8
Defpoints
 62
     0
100
AcDbPoint
 10
193.519918
 20
271.407994
 30
0.0
  0
ENDBLK
  5
283
330
281
100
AcDbEntity
  8
0
100
AcDbBlockEnd
  0
BLOCK
  5
295
330
28D
100
AcDbEntity
  8
0
100
AcDbBlockBegin
  2
_U6
 70
     0
 10
0.0
 20
0.0
 30
0.0
  3
_U6
  1

  0
ENDBLK
  5
296
330
28D
100
AcDbEntity
  8
0
100
AcDbBlockEnd
  0
ENDSEC
  0
SECTION
  2
ENTITIES
  0
POINT
  5
73
102
{ACAD_REACTORS
330
33F
102
}
330
1F
100
AcDbEntity
  8
80
100
AcDbPoint
 10
274.404842
 20
288.907994
 30
0.0
  0
POINT
  5
76
330
1F
100
AcDbEntity
  8
4
 60
     1
100
AcDbPoint
 10
293.532259
 20
288.907994
 30
0.0
  0
POINT
  5
78
330
1F
100
AcDbEntity
  8
4
 60
     1
100
AcDbPoint
 10
361.685235
 20
288.907994
 30
0.0
  0
POINT
  5
79
330
1F
100
AcDbEntity
  8
SK4
 60
     1
100
AcDbPoint
 10
220.404842
 20
288.907994
 30
0.0
  0
POINT
  5
7A
330
1F
100
AcDbEntity
  8
SK4
 60
     1
100
AcDbPoint
 10
274.404842
 20
288.907994
 30
0.0
  0
POINT
  5
7B
330
1F
100
AcDbEntity
  8
SK6
 60
     1
100
AcDbPoint
 10
274.404842
 20
288.907994
 30
0.0
  0
POINT
  5
7C
330
1F
100
AcDbEntity
  8
SK6
 60
     1
100
AcDbPoint
 10
291.933613
 20
299.35129
 30
0.0
  0
LINE
  5
7D
330
1F
100
AcDbEntity
  8
1
100
AcDbLine
 10
360.930456
 20
278.907994
 30
0.0
 11
350.658421
 21
278.907994
 31
0.0
  0
LINE
  5
7F
330
1F
100
AcDbEntity
  8
1
100
AcDbLine
 10
274.904842
 20
271.407994
 30
0.0
 11
274.904842
 21
288.907994
 31
0.0
  0
LINE
  5
80
330
1F
100
AcDbEntity
  8
1
100
AcDbLine
 10
274.904842
 20
288.907994
 30
0.0
 11
274.904842
 21
306.407994
 31
0.0
  0
LINE
  5
81
330
1F
100
AcDbEntity
  8
1
100
AcDbLine
 10
279.404842
 20
271.407994
 30
0.0
 11
279.404842
 21
274.53775
 31
0.0
  0
LINE
  5
82
330
1F
100
AcDbEntity
  8
1
100
AcDbLine
 10
279.404842
 20
306.407994
 30
0.0
 11
279.404842
 21
281.844921
 31
0.0
  0
LINE
  5
83
330
1F
100
AcDbEntity
  8
1
100
AcDbLine
 10
360.213769
 20
295.318007
 30
0.0
 11
360.221187
 21
295.339108
 31
0.0
  0
LINE
  5
85
330
1F
100
AcDbEntity
  8
SK1
100
AcDbLine
 10
218.404842
 20
278.407994
 30
0.0
 11
220.404842
 21
276.407994
 31
0.0
  0
LINE
  5
86
330
1F
100
AcDbEntity
  8
SK1
100
AcDbLine
 10
220.404842
 20
301.407994
 30
0.0
 11
218.404842
 21
299.407994
 31
0.0
  0
LINE
  5
87
330
1F
100
AcDbEntity
  8
1
100
AcDbLine
 10
279.404842
 20
271.407994
 30
0.0
 11
282.21855
 21
274.221702
 31
0.0
  0
LINE
  5
88
330
1F
100
AcDbEntity
  8
1
100
AcDbLine
 10
282.21855
 20
303.594285
 30
0.0
 11
279.404842
 21
306.407994
 31
0.0
  0
LINE
  5
89
330
1F
100
AcDbEntity
  8
SK1
100
AcDbLine
 10
274.404842
 20
301.407994
 30
0.0
 11
220.404842
 21
301.407994
 31
0.0
  0
LINE
  5
8A
330
1F
100
AcDbEntity
  8
1
100
AcDbLine
 10
274.904842
 20
271.407994
 30
0.0
 11
274.404842
 21
271.907994
 31
0.0
  0
LINE
  5
8B
330
1F
100
AcDbEntity
  8
1
100
AcDbLine
 10
274.404842
 20
305.907994
 30
0.0
 11
274.904842
 21
306.407994
 31
0.0
  0
LINE
  5
8C
330
1F
100
AcDbEntity
  8
1
100
AcDbLine
 10
279.404842
 20
306.407994
 30
0.0
 11
274.904842
 21
306.407994
 31
0.0
  0
LINE
  5
90
330
1F
100
AcDbEntity
  8
80
100
AcDbLine
 10
275.404416
 20
288.907994
 30
0.0
 11
273.405268
 21
288.907994
 31
0.0
  0
LINE
  5
92
330
1F
100
AcDbEntity
  8
1
100
AcDbLine
 10
358.137426
 20
295.078143
 30
0.0
 11
358.15565
 21
295.129986
 31
0.0
  0
LINE
  5
93
330
1F
100
AcDbEntity
  8
1
100
AcDbLine
 10
358.622071
 20
295.047768
 30
0.0
 11
358.603724
 21
294.995574
 31
0.0
  0
LINE
  5
94
330
1F
100
AcDbEntity
  8
1
100
AcDbLine
 10
357.771314
 20
296.005896
 30
0.0
 11
357.790257
 21
296.059784
 31
0.0
  0
LINE
  5
95
330
1F
100
AcDbEntity
  8
1
100
AcDbLine
 10
359.363652
 20
295.817453
 30
0.0
 11
359.344709
 21
295.763564
 31
0.0
  0
LINE
  5
96
330
1F
100
AcDbEntity
  8
1
100
AcDbLine
 10
357.715034
 20
296.411864
 30
0.0
 11
357.697267
 21
296.361321
 31
0.0
  0
LINE
  5
97
330
1F
100
AcDbEntity
  8
1
100
AcDbLine
 10
357.782357
 20
296.342959
 30
0.0
 11
357.764017
 21
296.2907859999999
 31
0.0
  0
LINE
  5
98
330
1F
100
AcDbEntity
  8
1
100
AcDbLine
 10
359.445636
 20
295.9160759999999
 30
0.0
 11
359.464003
 21
295.968326
 31
0.0
  0
LINE
  5
99
330
1F
100
AcDbEntity
  8
1
100
AcDbLine
 10
357.816398
 20
295.4501009999999
 30
0.0
 11
357.798129
 21
295.39813
 31
0.0
  0
LINE
  5
9A
330
1F
100
AcDbEntity
  8
1
100
AcDbLine
 10
357.77579
 20
295.430671
 30
0.0
 11
357.757797
 21
295.379484
 31
0.0
  0
LINE
  5
9B
330
1F
100
AcDbEntity
  8
1
100
AcDbLine
 10
359.039525
 20
295.1249279999999
 30
0.0
 11
359.057819
 21
295.176971
 31
0.0
  0
LINE
  5
9C
330
1F
100
AcDbEntity
  8
1
100
AcDbLine
 10
359.078145
 20
295.083041
 30
0.0
 11
359.096081
 21
295.134065
 31
0.0
  0
LINE
  5
9D
330
1F
100
AcDbEntity
  8
1
100
AcDbLine
 10
362.404667
 20
288.32653
 30
0.0
 11
362.333191
 21
284.231676
 31
0.0
  0
LINE
  5
9F
330
1F
100
AcDbEntity
  8
1
100
AcDbLine
 10
355.456225
 20
298.907994
 30
0.0
 11
348.1475089999999
 21
298.907994
 31
0.0
  0
LINE
  5
A0
330
1F
100
AcDbEntity
  8
1
100
AcDbLine
 10
297.645542
 20
298.907994
 30
0.0
 11
293.532259
 21
298.907994
 31
0.0
  0
LINE
  5
A1
330
1F
100
AcDbEntity
  8
1
100
AcDbLine
 10
353.096388
 20
290.764057
 30
0.0
 11
353.105236
 21
290.505456
 31
0.0
  0
LINE
  5
A2
330
1F
100
AcDbEntity
  8
1
100
AcDbLine
 10
359.929128
 20
292.136604
 30
0.0
 11
356.692767
 21
291.995449
 31
0.0
  0
LINE
  5
A3
330
1F
100
AcDbEntity
  8
1
100
AcDbLine
 10
286.904842
 20
298.845051
 30
0.0
 11
286.904842
 21
287.590648
 31
0.0
  0
LINE
  5
A4
330
1F
100
AcDbEntity
  8
1
100
AcDbLine
 10
361.707603
 20
298.927268
 30
0.0
 11
361.955522
 21
293.365446
 31
0.0
  0
LINE
  5
A5
330
1F
100
AcDbEntity
  8
1
100
AcDbLine
 10
355.735162
 20
299.0546930000001
 30
0.0
 11
361.302779
 21
299.297527
 31
0.0
  0
LINE
  5
A6
330
1F
100
AcDbEntity
  8
1
100
AcDbLine
 10
355.612772
 20
293.088804
 30
0.0
 11
355.364853
 21
298.650626
 31
0.0
  0
LINE
  5
A7
330
1F
100
AcDbEntity
  8
1
100
AcDbLine
 10
361.585213
 20
292.96138
 30
0.0
 11
356.017596
 21
292.718545
 31
0.0
  0
LINE
  5
A8
330
1F
100
AcDbEntity
  8
1
100
AcDbLine
 10
356.748811
 20
293.917828
 30
0.0
 11
356.5709
 21
297.909101
 31
0.0
  0
LINE
  5
A9
330
1F
100
AcDbEntity
  8
1
100
AcDbLine
 10
360.744244
 20
294.09209
 30
0.0
 11
356.748811
 21
293.917828
 31
0.0
  0
LINE
  5
AA
330
1F
100
AcDbEntity
  8
1
100
AcDbLine
 10
356.5709
 20
297.909101
 30
0.0
 11
360.566333
 21
298.083364
 31
0.0
  0
LINE
  5
AB
330
1F
100
AcDbEntity
  8
1
100
AcDbLine
 10
360.566333
 20
298.083364
 30
0.0
 11
360.744244
 21
294.09209
 31
0.0
  0
LINE
  5
AC
330
1F
100
AcDbEntity
  8
1
100
AcDbLine
 10
356.989212
 20
292.556087
 30
0.0
 11
361.475481
 21
292.751758
 31
0.0
  0
LINE
  5
AD
330
1F
100
AcDbEntity
  8
1
100
AcDbLine
 10
361.475814
 20
292.703943
 30
0.0
 11
361.475481
 21
292.751758
 31
0.0
  0
LINE
  5
AE
330
1F
100
AcDbEntity
  8
1
100
AcDbLine
 10
361.399911
 20
292.173061
 30
0.0
 11
356.699883
 21
291.968067
 31
0.0
  0
LINE
  5
AF
330
1F
100
AcDbEntity
  8
1
100
AcDbLine
 10
361.399911
 20
292.173061
 30
0.0
 11
360.262692
 21
290.278352
 31
0.0
  0
LINE
  5
B0
330
1F
100
AcDbEntity
  8
1
100
AcDbLine
 10
361.517484
 20
292.768242
 30
0.0
 11
356.994443
 21
292.570968
 31
0.0
  0
LINE
  5
B1
330
1F
100
AcDbEntity
  8
1
100
AcDbLine
 10
356.989212
 20
292.556087
 30
0.0
 11
356.994443
 21
292.570968
 31
0.0
  0
LINE
  5
B2
330
1F
100
AcDbEntity
  8
1
100
AcDbLine
 10
361.348463
 20
289.224667
 30
0.0
 11
361.456656
 21
289.222779
 31
0.0
  0
LINE
  5
B3
330
1F
100
AcDbEntity
  8
1
100
AcDbLine
 10
361.456656
 20
289.222779
 30
0.0
 11
361.6126799999999
 21
289.434208
 31
0.0
  0
LINE
  5
B4
330
1F
100
AcDbEntity
  8
1
100
AcDbLine
 10
361.6126799999999
 20
289.672819
 30
0.0
 11
361.6126799999999
 21
289.434208
 31
0.0
  0
LINE
  5
B5
330
1F
100
AcDbEntity
  8
1
100
AcDbLine
 10
361.6126799999999
 20
289.672819
 30
0.0
 11
361.654842
 21
289.672083
 31
0.0
  0
LINE
  5
B6
330
1F
100
AcDbEntity
  8
1
100
AcDbLine
 10
361.654842
 20
292.976355
 30
0.0
 11
361.654842
 21
289.672083
 31
0.0
  0
LINE
  5
B7
330
1F
100
AcDbEntity
  8
1
100
AcDbLine
 10
361.517484
 20
292.768242
 30
0.0
 11
361.51616
 21
292.958365
 31
0.0
  0
LINE
  5
B8
330
1F
100
AcDbEntity
  8
1
100
AcDbLine
 10
361.517484
 20
292.768242
 30
0.0
 11
361.475481
 21
292.751758
 31
0.0
  0
LINE
  5
B9
330
1F
100
AcDbEntity
  8
1
100
AcDbLine
 10
361.399911
 20
292.173061
 30
0.0
 11
361.40929
 21
292.176742
 31
0.0
  0
LINE
  5
BA
330
1F
100
AcDbEntity
  8
1
100
AcDbLine
 10
360.930456
 20
278.907994
 30
0.0
 11
361.341389
 21
282.779711
 31
0.0
  0
LINE
  5
BB
330
1F
100
AcDbEntity
  8
1
100
AcDbLine
 10
361.341389
 20
282.779711
 30
0.0
 11
361.299298
 21
282.7803839999999
 31
0.0
  0
LINE
  5
BC
330
1F
100
AcDbEntity
  8
1
100
AcDbLine
 10
361.32458
 20
283.018585
 30
0.0
 11
361.299298
 21
282.7803839999999
 31
0.0
  0
LINE
  5
BD
330
1F
100
AcDbEntity
  8
1
100
AcDbLine
 10
361.32458
 20
283.018585
 30
0.0
 11
361.191511
 21
283.234861
 31
0.0
  0
LINE
  5
BE
330
1F
100
AcDbEntity
  8
1
100
AcDbLine
 10
361.191511
 20
283.234861
 30
0.0
 11
361.083502
 21
283.2365890000001
 31
0.0
  0
LINE
  5
BF
330
1F
100
AcDbEntity
  8
1
100
AcDbLine
 10
361.073202
 20
283.536793
 30
0.0
 11
361.306301
 21
285.732994
 31
0.0
  0
LINE
  5
C0
330
1F
100
AcDbEntity
  8
1
100
AcDbLine
 10
360.322152
 20
285.732994
 30
0.0
 11
361.306301
 21
285.732994
 31
0.0
  0
LINE
  5
C1
330
1F
100
AcDbEntity
  8
1
100
AcDbLine
 10
361.306301
 20
285.732994
 30
0.0
 11
361.306301
 21
288.925357
 31
0.0
  0
LINE
  5
C2
330
1F
100
AcDbEntity
  8
1
100
AcDbLine
 10
355.387417
 20
298.781233
 30
0.0
 11
355.384922
 21
298.839098
 31
0.0
  0
LINE
  5
C3
330
1F
100
AcDbEntity
  8
SK1
100
AcDbLine
 10
220.404842
 20
301.407994
 30
0.0
 11
220.404842
 21
276.407994
 31
0.0
  0
LINE
  5
C4
330
1F
100
AcDbEntity
  8
SK1
100
AcDbLine
 10
218.404842
 20
299.407994
 30
0.0
 11
218.404842
 21
278.407994
 31
0.0
  0
LINE
  5
C5
330
1F
100
AcDbEntity
  8
1
100
AcDbLine
 10
355.367111
 20
294.04709
 30
0.0
 11
355.361881
 21
294.03221
 31
0.0
  0
LINE
  5
C6
330
1F
100
AcDbEntity
  8
1
100
AcDbLine
 10
355.367111
 20
294.04709
 30
0.0
 11
355.160475
 21
298.839557
 31
0.0
  0
LINE
  5
C7
330
1F
100
AcDbEntity
  8
1
100
AcDbLine
 10
355.156312
 20
298.799908
 30
0.0
 11
355.361881
 21
294.03221
 31
0.0
  0
LINE
  5
C8
330
1F
100
AcDbEntity
  8
1
100
AcDbLine
 10
358.512299
 20
296.773886
 30
0.0
 11
358.530646
 21
296.826079
 31
0.0
  0
LINE
  5
C9
330
1F
100
AcDbEntity
  8
1
100
AcDbLine
 10
358.992014
 20
296.729485
 30
0.0
 11
358.978597
 21
296.691317
 31
0.0
  0
LINE
  5
CA
330
1F
100
AcDbEntity
  8
1
100
AcDbLine
 10
361.915211
 20
283.53604
 30
0.0
 11
361.23738
 21
283.160313
 31
0.0
  0
LINE
  5
CB
330
1F
100
AcDbEntity
  8
1
100
AcDbLine
 10
361.997974
 20
289.060225
 30
0.0
 11
362.404667
 21
288.32653
 31
0.0
  0
LINE
  5
CC
330
1F
100
AcDbEntity
  8
1
100
AcDbLine
 10
361.649747
 20
283.810936
 30
0.0
 11
361.915211
 21
283.53604
 31
0.0
  0
LINE
  5
CD
330
1F
100
AcDbEntity
  8
1
100
AcDbLine
 10
362.333191
 20
284.231676
 30
0.0
 11
361.915211
 21
283.53604
 31
0.0
  0
LINE
  5
CE
330
1F
100
AcDbEntity
  8
1
100
AcDbLine
 10
362.033869
 20
288.23408
 30
0.0
 11
362.404667
 21
288.32653
 31
0.0
  0
LINE
  5
CF
330
1F
100
AcDbEntity
  8
1
100
AcDbLine
 10
361.965845
 20
284.337011
 30
0.0
 11
362.333191
 21
284.231676
 31
0.0
  0
LINE
  5
D0
330
1F
100
AcDbEntity
  8
1
100
AcDbLine
 10
361.089066
 20
283.500145
 30
0.0
 11
361.155063
 21
283.235447
 31
0.0
  0
LINE
  5
D1
330
1F
100
AcDbEntity
  8
1
100
AcDbLine
 10
361.723078
 20
288.794761
 30
0.0
 11
361.997974
 21
289.060225
 31
0.0
  0
LINE
  5
D2
330
1F
100
AcDbEntity
  8
1
100
AcDbLine
 10
361.539843
 20
289.335497
 30
0.0
 11
361.997974
 21
289.060225
 31
0.0
  0
LINE
  5
D3
330
1F
100
AcDbEntity
  8
1
100
AcDbLine
 10
362.033869
 20
288.23408
 30
0.0
 11
361.965845
 21
284.337011
 31
0.0
  0
LINE
  5
D4
330
1F
100
AcDbEntity
  8
1
100
AcDbLine
 10
361.649747
 20
283.810936
 30
0.0
 11
361.089066
 21
283.500145
 31
0.0
  0
LINE
  5
D5
330
1F
100
AcDbEntity
  8
1
100
AcDbLine
 10
361.089066
 20
283.500145
 30
0.0
 11
361.069642
 21
283.500484
 31
0.0
  0
LINE
  5
D6
330
1F
100
AcDbEntity
  8
1
100
AcDbLine
 10
361.07521
 20
283.555718
 30
0.0
 11
361.089066
 21
283.500145
 31
0.0
  0
LINE
  5
D7
330
1F
100
AcDbEntity
  8
1
100
AcDbLine
 10
361.965845
 20
284.337011
 30
0.0
 11
361.385166
 21
284.503518
 31
0.0
  0
LINE
  5
D8
330
1F
100
AcDbEntity
  8
1
100
AcDbLine
 10
361.649747
 20
283.810936
 30
0.0
 11
361.230118
 21
284.245475
 31
0.0
  0
LINE
  5
D9
330
1F
100
AcDbEntity
  8
1
100
AcDbLine
 10
361.965845
 20
284.337011
 30
0.0
 11
361.649747
 21
283.810936
 31
0.0
  0
LINE
  5
DA
330
1F
100
AcDbEntity
  8
1
100
AcDbLine
 10
361.14331
 20
284.197356
 30
0.0
 11
361.230118
 21
284.245475
 31
0.0
  0
LINE
  5
DB
330
1F
100
AcDbEntity
  8
1
100
AcDbLine
 10
361.230118
 20
284.245475
 30
0.0
 11
361.385166
 21
284.503518
 31
0.0
  0
LINE
  5
DC
330
1F
100
AcDbEntity
  8
1
100
AcDbLine
 10
361.385166
 20
284.503518
 30
0.0
 11
361.447733
 21
288.087939
 31
0.0
  0
LINE
  5
DD
330
1F
100
AcDbEntity
  8
1
100
AcDbLine
 10
361.30969
 20
289.04315
 30
0.0
 11
361.723078
 21
288.794761
 31
0.0
  0
LINE
  5
DE
330
1F
100
AcDbEntity
  8
1
100
AcDbLine
 10
361.723078
 20
288.794761
 30
0.0
 11
361.306301
 21
288.392284
 31
0.0
  0
LINE
  5
DF
330
1F
100
AcDbEntity
  8
1
100
AcDbLine
 10
361.447733
 20
288.087939
 30
0.0
 11
361.306302
 21
288.343087
 31
0.0
  0
LINE
  5
E0
330
1F
100
AcDbEntity
  8
1
100
AcDbLine
 10
362.033869
 20
288.23408
 30
0.0
 11
361.447733
 21
288.087939
 31
0.0
  0
LINE
  5
E1
330
1F
100
AcDbEntity
  8
1
100
AcDbLine
 10
361.723078
 20
288.794761
 30
0.0
 11
362.033869
 21
288.23408
 31
0.0
  0
LINE
  5
E2
330
1F
100
AcDbEntity
  8
1
100
AcDbLine
 10
274.404842
 20
305.907994
 30
0.0
 11
274.404842
 21
288.907994
 31
0.0
  0
LINE
  5
E3
330
1F
100
AcDbEntity
  8
1
100
AcDbLine
 10
274.404842
 20
288.907994
 30
0.0
 11
274.404842
 21
271.907994
 31
0.0
  0
LINE
  5
E4
330
1F
100
AcDbEntity
  8
SK1
100
AcDbLine
 10
220.404842
 20
276.407994
 30
0.0
 11
274.404842
 21
276.407994
 31
0.0
  0
LINE
  5
E5
330
1F
100
AcDbEntity
  8
81
100
AcDbLine
 10
362.404842
 20
301.407994
 30
0.0
 11
362.404842
 21
297.407994
 31
0.0
  0
LINE
  5
E6
330
1F
100
AcDbEntity
  8
81
100
AcDbLine
 10
360.404842
 20
299.407994
 30
0.0
 11
364.404842
 21
299.407994
 31
0.0
  0
LINE
  5
E7
330
1F
100
AcDbEntity
  8
80
100
AcDbLine
 10
274.404842
 20
287.90842
 30
0.0
 11
274.404842
 21
289.907567
 31
0.0
  0
LINE
  5
E8
330
1F
100
AcDbEntity
  8
1
100
AcDbLine
 10
274.904842
 20
271.407994
 30
0.0
 11
279.404842
 21
271.407994
 31
0.0
  0
LINE
  5
119
330
1F
100
AcDbEntity
  8
NOCUT
100
AcDbLine
 10
274.404842
 20
301.407994
 30
0.0
 11
220.404842
 21
301.407994
 31
0.0
  0
LINE
  5
11A
330
1F
100
AcDbEntity
  8
NOCUT
100
AcDbLine
 10
279.404842
 20
306.407994
 30
0.0
 11
282.21855
 21
303.594285
 31
0.0
  0
LINE
  5
11B
330
1F
100
AcDbEntity
  8
NOCUT
100
AcDbLine
 10
293.532259
 20
298.907994
 30
0.0
 11
361.4026970000001
 21
298.907994
 31
0.0
  0
LINE
  5
11C
330
1F
100
AcDbEntity
  8
NOCUT
100
AcDbLine
 10
361.4026970000001
 20
298.907994
 30
0.0
 11
361.654842
 21
293.182556
 31
0.0
  0
LINE
  5
11D
330
1F
100
AcDbEntity
  8
NOCUT
100
AcDbLine
 10
361.654842
 20
293.182556
 30
0.0
 11
361.654842
 21
288.907994
 31
0.0
  0
LINE
  5
11E
330
1F
100
AcDbEntity
  8
NOCUT
100
AcDbLine
 10
361.654842
 20
288.907994
 30
0.0
 11
218.404842
 21
288.907994
 31
0.0
  0
LINE
  5
11F
330
1F
100
AcDbEntity
  8
NOCUT
100
AcDbLine
 10
218.404842
 20
299.407994
 30
0.0
 11
220.404842
 21
301.407994
 31
0.0
  0
LINE
  5
120
330
1F
100
AcDbEntity
  8
NOCUT
100
AcDbLine
 10
274.404842
 20
301.407994
 30
0.0
 11
274.404842
 21
305.907994
 31
0.0
  0
LINE
  5
121
330
1F
100
AcDbEntity
  8
NOCUT
100
AcDbLine
 10
274.404842
 20
305.907994
 30
0.0
 11
274.904842
 21
306.407994
 31
0.0
  0
LINE
  5
122
330
1F
100
AcDbEntity
  8
NOCUT
100
AcDbLine
 10
279.404842
 20
306.407994
 30
0.0
 11
274.904842
 21
306.407994
 31
0.0
  0
LINE
  5
123
330
1F
100
AcDbEntity
  8
NOCUT
100
AcDbLine
 10
218.404842
 20
299.407994
 30
0.0
 11
218.404842
 21
288.907994
 31
0.0
  0
ARC
  5
12C
330
1F
100
AcDbEntity
  8
1
100
AcDbCircle
 10
293.532259
 20
262.907994
 30
0.0
 40
16.0
100
AcDbArc
 50
96.38788000000001
 51
135.0
  0
CIRCLE
  5
12D
330
1F
100
AcDbEntity
  8
1
100
AcDbCircle
 10
359.096261
 20
286.441244
 30
0.0
 40
0.7000000000000009
  0
ARC
  5
12E
330
1F
100
AcDbEntity
  8
1
100
AcDbCircle
 10
359.096261
 20
286.441244
 30
0.0
 40
1.1
100
AcDbArc
 50
75.0
 51
345.0
  0
ARC
  5
12F
330
1F
100
AcDbEntity
  8
1
100
AcDbCircle
 10
293.532259
 20
314.907994
 30
0.0
 40
16.0
100
AcDbArc
 50
225.0
 51
270.0
  0
ARC
  5
13E
330
1F
100
AcDbEntity
  8
NOCUT
100
AcDbCircle
 10
293.532259
 20
314.907994
 30
0.0
 40
16.0
100
AcDbArc
 50
225.0
 51
270.0
  0
ELLIPSE
  5
13F
330
1F
100
AcDbEntity
  8
1
100
AcDbEllipse
 10
320.808386
 20
288.907994
 30
0.0
 11
81.4414314699977
 21
-8.211969921678139
 31
0.0
210
0.0
220
0.0
230
1.0
 40
0.070068
 41
4.377945671627635
 42
4.434388689347584
  0
ELLIPSE
  5
140
330
1F
100
AcDbEntity
  8
1
100
AcDbEllipse
 10
356.13083
 20
304.543475
 30
0.0
 11
-11.88698429623299
 21
4.178469138465676
 31
0.0
210
0.0
220
0.0
230
1.0
 40
0.9986169999999999
 41
1.692429278043899
 42
1.952887849140191
  0
ELLIPSE
  5
141
330
1F
100
AcDbEntity
  8
1
100
AcDbEllipse
 10
297.904842
 20
282.175895
 30
0.0
 11
-1.197815444963383
 21
-5.879220880338412
 31
0.0
210
0.0
220
0.0
230
0.9999999999999998
 40
0.139452
 41
4.112163182274825
 42
5.322396556603472
  0
ELLIPSE
  5
142
330
1F
100
AcDbEntity
  8
1
100
AcDbEllipse
 10
361.279035
 20
293.547245
 30
0.0
 11
1.042970518614741
 21
-0.9548749750562636
 31
0.0
210
0.0
220
0.0
230
1.0
 40
0.034202
 41
1.585389172374313
 42
2.140200205230215
  0
ELLIPSE
  5
143
330
1F
100
AcDbEntity
  8
1
100
AcDbEllipse
 10
358.570217
 20
295.919451
 30
0.0
 11
-1.650970041143471
 21
0.5803429358980108
 31
0.0
210
0.0
220
0.0
230
0.9999999999999998
 40
0.9986169999999999
 41
3.141587919873801
 42
5.879878490359355
  0
ELLIPSE
  5
144
330
1F
100
AcDbEntity
  8
1
100
AcDbEllipse
 10
357.700442
 20
296.235677
 30
0.0
 11
-0.0794580284109328
 21
0.0279307948294024
 31
0.0
210
0.0
220
0.0
230
0.9999999999999998
 40
0.9986169999999997
 41
3.731853534953906
 42
4.570881727131742
  0
ELLIPSE
  5
145
330
1F
100
AcDbEntity
  8
1
100
AcDbEllipse
 10
357.778081
 20
296.384909
 30
0.0
 11
-0.0794580284109329
 21
0.0279307948294024
 31
0.0
210
0.0
220
0.0
230
1.0
 40
0.9986169999999997
 41
0.0666621057660414
 42
1.429289073541973
  0
ELLIPSE
  5
146
330
1F
100
AcDbEntity
  8
1
100
AcDbEllipse
 10
358.113083
 20
296.291669
 30
0.0
 11
-0.4075175559138357
 21
0.1432490771699381
 31
0.0
210
0.0
220
0.0
230
1.0
 40
0.9986169999999999
 41
5.409909919309351
 42
6.349847412945464
  0
ELLIPSE
  5
147
330
1F
100
AcDbEntity
  8
1
100
AcDbEllipse
 10
357.990626
 20
296.61683
 30
0.0
 11
-0.0794580284109327
 21
0.0279307948294023
 31
0.0
210
0.0
220
0.0
230
1.0
 40
0.9986169999999997
 41
4.047282951533261
 42
5.409909919309157
  0
ELLIPSE
  5
148
330
1F
100
AcDbEntity
  8
1
100
AcDbEllipse
 10
358.132594
 20
296.707225
 30
0.0
 11
-0.0794580284109327
 21
0.0279307948294023
 31
0.0
210
0.0
220
0.0
230
0.9999999999999998
 40
0.9986169999999997
 41
0.9056902979434976
 42
1.744718490121431
  0
ELLIPSE
  5
149
330
1F
100
AcDbEntity
  8
1
100
AcDbEllipse
 10
358.189246
 20
297.049844
 30
0.0
 11
-0.4075175559138355
 21
0.1432490771699381
 31
0.0
210
0.0
220
0.0
230
0.9999999999999998
 40
0.9986169999999999
 41
1.744718490121248
 42
2.68465598375739
  0
ELLIPSE
  5
14A
330
1F
100
AcDbEntity
  8
1
100
AcDbEllipse
 10
358.432841
 20
296.801817
 30
0.0
 11
-0.0794580284109328
 21
0.0279307948294024
 31
0.0
210
0.0
220
0.0
230
0.9999999999999998
 40
0.9986169999999997
 41
2.684655983757433
 42
3.523684175935073
  0
ELLIPSE
  5
14B
330
1F
100
AcDbEntity
  8
1
100
AcDbEllipse
 10
358.601097
 20
296.809155
 30
0.0
 11
-0.0794580284109329
 21
0.0279307948294024
 31
0.0
210
0.0
220
0.0
230
1.0
 40
0.9986169999999997
 41
5.302649861748904
 42
6.665276829524866
  0
ELLIPSE
  5
14C
330
1F
100
AcDbEntity
  8
1
100
AcDbEllipse
 10
358.688014
 20
296.472798
 30
0.0
 11
-0.4075175559138357
 21
0.1432490771699381
 31
0.0
210
0.0
220
0.0
230
1.0
 40
0.9986169999999999
 41
4.362712368112797
 42
5.302649861748909
  0
ELLIPSE
  5
14D
330
1F
100
AcDbEntity
  8
1
100
AcDbEllipse
 10
358.908595
 20
296.741071
 30
0.0
 11
-0.0794580284109327
 21
0.0279307948294023
 31
0.0
210
0.0
220
0.0
230
1.0
 40
0.9986169999999997
 41
3.000085400336696
 42
4.362712368112839
  0
ELLIPSE
  5
14E
330
1F
100
AcDbEntity
  8
1
100
AcDbEllipse
 10
359.058055
 20
296.663386
 30
0.0
 11
-0.0794580284109327
 21
0.0279307948294023
 31
0.0
210
0.0
220
0.0
230
0.9999999999999998
 40
0.9986169999999997
 41
6.141678053926598
 42
6.980706246104432
  0
ELLIPSE
  5
14F
330
1F
100
AcDbEntity
  8
1
100
AcDbEllipse
 10
359.383461
 20
296.785429
 30
0.0
 11
-0.4075175559138355
 21
0.1432490771699381
 31
0.0
210
0.0
220
0.0
230
0.9999999999999998
 40
0.9986169999999999
 41
0.6975209389246803
 42
1.637458432560735
  0
ELLIPSE
  5
150
330
1F
100
AcDbEntity
  8
1
100
AcDbEllipse
 10
359.290411
 20
296.45087
 30
0.0
 11
-0.0794580284109328
 21
0.0279307948294024
 31
0.0
210
0.0
220
0.0
230
0.9999999999999998
 40
0.9986169999999997
 41
1.637458432560465
 42
2.476486624738455
  0
ELLIPSE
  5
151
330
1F
100
AcDbEntity
  8
1
100
AcDbEllipse
 10
359.381027
 20
296.308977
 30
0.0
 11
-0.0794580284109329
 21
0.0279307948294024
 31
0.0
210
0.0
220
0.0
230
1.0
 40
0.9986169999999997
 41
4.255452310552128
 42
5.618079278328012
  0
ELLIPSE
  5
152
330
1F
100
AcDbEntity
  8
1
100
AcDbEllipse
 10
359.132943
 20
296.065859
 30
0.0
 11
-0.4075175559138357
 21
0.1432490771699381
 31
0.0
210
0.0
220
0.0
230
1.0
 40
0.9986169999999999
 41
3.315514816916178
 42
4.255452310552254
  0
ELLIPSE
  5
153
330
1F
100
AcDbEntity
  8
1
100
AcDbEllipse
 10
359.475981
 20
296.008972
 30
0.0
 11
-0.0794580284109327
 21
0.0279307948294023
 31
0.0
210
0.0
220
0.0
230
1.0
 40
0.9986169999999997
 41
1.95288784913992
 42
3.315514816916208
  0
ELLIPSE
  5
154
330
1F
100
AcDbEntity
  8
1
100
AcDbEllipse
 10
359.483473
 20
295.840891
 30
0.0
 11
-0.0794580284109327
 21
0.0279307948294023
 31
0.0
210
0.0
220
0.0
230
0.9999999999999998
 40
0.9986169999999997
 41
5.094480502730027
 42
5.933508694907682
  0
ELLIPSE
  5
155
330
1F
100
AcDbEntity
  8
1
100
AcDbEllipse
 10
359.752227
 20
295.620315
 30
0.0
 11
-0.4075175559138355
 21
0.1432490771699381
 31
0.0
210
0.0
220
0.0
230
0.9999999999999998
 40
0.9986169999999999
 41
5.933508694907656
 42
6.873446188543764
  0
ELLIPSE
  5
156
330
1F
100
AcDbEntity
  8
1
100
AcDbEllipse
 10
359.415582
 20
295.533783
 30
0.0
 11
-0.0794580284109328
 21
0.0279307948294024
 31
0.0
210
0.0
220
0.0
230
0.9999999999999998
 40
0.9986169999999997
 41
0.5902608813640664
 42
1.429289073541793
  0
ELLIPSE
  5
157
330
1F
100
AcDbEntity
  8
1
100
AcDbEllipse
 10
359.337942
 20
295.384552
 30
0.0
 11
-0.0794580284109329
 21
0.0279307948294024
 31
0.0
210
0.0
220
0.0
230
1.0
 40
0.9986169999999997
 41
3.208254759355676
 42
4.570881727131766
  0
ELLIPSE
  5
158
330
1F
100
AcDbEntity
  8
1
100
AcDbEllipse
 10
359.00294
 20
295.477791
 30
0.0
 11
-0.4075175559138357
 21
0.1432490771699381
 31
0.0
210
0.0
220
0.0
230
1.0
 40
0.9986169999999999
 41
2.268317265719605
 42
3.208254759355686
  0
ELLIPSE
  5
159
330
1F
100
AcDbEntity
  8
1
100
AcDbEllipse
 10
359.125397
 20
295.152631
 30
0.0
 11
-0.0794580284109327
 21
0.0279307948294023
 31
0.0
210
0.0
220
0.0
230
1.0
 40
0.9986169999999997
 41
0.9056902979433649
 42
2.268317265719417
  0
ELLIPSE
  5
15A
330
1F
100
AcDbEntity
  8
1
100
AcDbEllipse
 10
358.98343
 20
295.062235
 30
0.0
 11
-0.0794580284109327
 21
0.0279307948294023
 31
0.0
210
0.0
220
0.0
230
0.9999999999999998
 40
0.9986169999999997
 41
4.047282951533261
 42
4.88631114371071
  0
ELLIPSE
  5
15B
330
1F
100
AcDbEntity
  8
1
100
AcDbEllipse
 10
358.926778
 20
294.719616
 30
0.0
 11
-0.4075175559138355
 21
0.1432490771699381
 31
0.0
210
0.0
220
0.0
230
0.9999999999999998
 40
0.9986169999999999
 41
4.886311143711004
 42
5.826248637347156
  0
ELLIPSE
  5
15C
330
1F
100
AcDbEntity
  8
1
100
AcDbEllipse
 10
358.683183
 20
294.967644
 30
0.0
 11
-0.0794580284109328
 21
0.0279307948294024
 31
0.0
210
0.0
220
0.0
230
0.9999999999999998
 40
0.9986169999999997
 41
5.826248637347076
 42
6.665276829524928
  0
ELLIPSE
  5
15D
330
1F
100
AcDbEntity
  8
1
100
AcDbEllipse
 10
358.514927
 20
294.960305
 30
0.0
 11
-0.0794580284109329
 21
0.0279307948294024
 31
0.0
210
0.0
220
0.0
230
1.0
 40
0.9986169999999997
 41
2.161057208159158
 42
3.523684175934993
  0
ELLIPSE
  5
15E
330
1F
100
AcDbEntity
  8
1
100
AcDbEllipse
 10
358.428009
 20
295.296662
 30
0.0
 11
-0.4075175559138357
 21
0.1432490771699381
 31
0.0
210
0.0
220
0.0
230
1.0
 40
0.9986169999999999
 41
1.221119714523009
 42
2.161057208159097
  0
ELLIPSE
  5
15F
330
1F
100
AcDbEntity
  8
1
100
AcDbEllipse
 10
358.207428
 20
295.028389
 30
0.0
 11
-0.0794580284109327
 21
0.0279307948294023
 31
0.0
210
0.0
220
0.0
230
1.0
 40
0.9986169999999997
 41
6.141678053926633
 42
7.50430502170282
  0
ELLIPSE
  5
160
330
1F
100
AcDbEntity
  8
1
100
AcDbEllipse
 10
358.057968
 20
295.106074
 30
0.0
 11
-0.0794580284109327
 21
0.0279307948294023
 31
0.0
210
0.0
220
0.0
230
0.9999999999999998
 40
0.9986169999999997
 41
3.000085400336696
 42
3.839113592514573
  0
ELLIPSE
  5
161
330
1F
100
AcDbEntity
  8
1
100
AcDbEllipse
 10
357.732563
 20
294.984031
 30
0.0
 11
-0.4075175559138355
 21
0.1432490771699381
 31
0.0
210
0.0
220
0.0
230
0.9999999999999998
 40
0.9986169999999999
 41
3.839113592514476
 42
4.779051086150559
  0
ELLIPSE
  5
162
330
1F
100
AcDbEntity
  8
1
100
AcDbEllipse
 10
357.825613
 20
295.318591
 30
0.0
 11
-0.0794580284109328
 21
0.0279307948294024
 31
0.0
210
0.0
220
0.0
230
0.9999999999999998
 40
0.9986169999999997
 41
4.779051086150252
 42
5.618079278328313
  0
ELLIPSE
  5
163
330
1F
100
AcDbEntity
  8
1
100
AcDbEllipse
 10
357.734996
 20
295.460484
 30
0.0
 11
-0.0794580284109329
 21
0.0279307948294024
 31
0.0
210
0.0
220
0.0
230
1.0
 40
0.9986169999999997
 41
1.113859656962297
 42
2.476486624738389
  0
ELLIPSE
  5
164
330
1F
100
AcDbEntity
  8
1
100
AcDbEllipse
 10
357.983081
 20
295.703601
 30
0.0
 11
-0.4075175559138357
 21
0.1432490771699381
 31
0.0
210
0.0
220
0.0
230
1.0
 40
0.9986169999999999
 41
0.17392216332638
 42
1.113859656962432
  0
ELLIPSE
  5
165
330
1F
100
AcDbEntity
  8
1
100
AcDbEllipse
 10
357.640043
 20
295.760489
 30
0.0
 11
-0.0794580284109327
 21
0.0279307948294023
 31
0.0
210
0.0
220
0.0
230
1.0
 40
0.9986169999999997
 41
5.09448050272987
 42
6.457107470505973
  0
ELLIPSE
  5
166
330
1F
100
AcDbEntity
  8
1
100
AcDbEllipse
 10
357.632551
 20
295.928569
 30
0.0
 11
-0.0794580284109327
 21
0.0279307948294023
 31
0.0
210
0.0
220
0.0
230
0.9999999999999998
 40
0.9986169999999997
 41
1.952887849140265
 42
2.791916041317866
  0
ELLIPSE
  5
167
330
1F
100
AcDbEntity
  8
1
100
AcDbEllipse
 10
357.363797
 20
296.149145
 30
0.0
 11
-0.4075175559138355
 21
0.1432490771699381
 31
0.0
210
0.0
220
0.0
230
0.9999999999999998
 40
0.9986169999999999
 41
2.791916041317863
 42
3.731853534953948
  0
ELLIPSE
  5
168
330
1F
100
AcDbEntity
  8
1
100
AcDbEllipse
 10
358.558012
 20
295.88473
 30
0.0
 11
1.08492316989428
 21
-0.3813682150186965
 31
0.0
210
0.0
220
0.0
230
0.9999999999999998
 40
0.9986169999999997
 41
0.0
 42
6.283185307179585
  0
ELLIPSE
  5
169
330
1F
100
AcDbEntity
  8
1
100
AcDbEllipse
 10
358.562799
 20
295.89835
 30
0.0
 11
1.65097004114347
 21
-0.5803429358980167
 31
0.0
210
0.0
220
0.0
230
1.0
 40
0.9986169999999999
 41
2.738286252944958
 42
3.141686341718186
  0
ELLIPSE
  5
16A
330
1F
100
AcDbEntity
  8
1
100
AcDbEllipse
 10
358.562799
 20
295.89835
 30
0.0
 11
1.65097004114347
 21
-0.5803429358980167
 31
0.0
210
0.0
220
0.0
230
1.0
 40
0.9986169999999999
 41
0.0
 42
2.738285992692068
  0
ELLIPSE
  5
16B
330
1F
100
AcDbEntity
  8
1
100
AcDbEllipse
 10
358.669777
 20
296.035317
 30
0.0
 11
1.652572938396771
 21
-0.5809063804637824
 31
0.0
210
0.0
220
0.0
230
1.0
 40
0.9986169999999999
 41
5.899022697473657
 42
6.283185307179585
  0
ELLIPSE
  5
16C
330
1F
100
AcDbEntity
  8
1
100
AcDbEllipse
 10
358.669777
 20
296.035317
 30
0.0
 11
1.652572938396771
 21
-0.5809063804637824
 31
0.0
210
0.0
220
0.0
230
1.0
 40
0.9986169999999999
 41
0.0
 42
1.666708259525901
  0
ELLIPSE
  5
16D
330
1F
100
AcDbEntity
  8
1
100
AcDbEllipse
 10
356.23124
 20
293.327083
 30
0.0
 11
0.9544181515035349
 21
1.042471549117257
 31
0.0
210
0.0
220
0.0
230
1.0
 40
0.014608
 41
0.981763839433894
 42
1.53657487238946
  0
ELLIPSE
  5
16E
330
1F
100
AcDbEntity
  8
1
100
AcDbEllipse
 10
358.657572
 20
296.000596
 30
0.0
 11
-1.768896472653717
 21
0.6217960027478683
 31
0.0
210
0.0
220
0.0
230
0.9999999999999998
 40
0.9986169999999999
 41
0.0
 42
6.283185307179585
  0
ELLIPSE
  5
16F
330
1F
100
AcDbEntity
  8
1
100
AcDbEllipse
 10
356.006468
 20
298.369624
 30
0.0
 11
1.042970518537867
 21
-0.9548749749703745
 31
0.0
210
0.0
220
0.0
230
1.0
 40
0.034202
 41
1.030578139241111
 42
1.585389172132851
  0
ELLIPSE
  5
170
330
1F
100
AcDbEntity
  8
1
100
AcDbEllipse
 10
361.054264
 20
298.589786
 30
0.0
 11
0.9544181520019531
 21
1.042471549653789
 31
0.0
210
0.0
220
0.0
230
0.9999999999999998
 40
0.014608
 41
1.536574872668003
 42
2.091385905342918
  0
ELLIPSE
  5
171
330
1F
100
AcDbEntity
  8
1
100
AcDbEllipse
 10
297.179076
 20
273.602229
 30
0.0
 11
-20.77945454025479
 21
3.122330209397731
 31
0.0
210
0.0
220
0.0
230
1.0
 40
0.572136
 41
4.763341736742983
 42
6.144813000789446
  0
ELLIPSE
  5
172
330
1F
100
AcDbEntity
  8
1
100
AcDbEllipse
 10
356.14058
 20
293.255677
 30
0.0
 11
1.03775259729018
 21
-0.3647869882787533
 31
0.0
210
0.0
220
0.0
230
0.9999999999999998
 40
0.9986169999999999
 41
2.695074081298983
 42
4.225118764159529
  0
ELLIPSE
  5
173
330
1F
100
AcDbEntity
  8
1
100
AcDbEllipse
 10
355.909935
 20
288.907994
 30
0.0
 11
0.3694784668894038
 21
-9.999864413705868
 31
0.0
210
0.0
220
0.0
230
0.9999999999999998
 40
0.140936
 41
3.231586272410091
 42
3.25383749460177
  0
ELLIPSE
  5
174
330
1F
100
AcDbEntity
  8
1
100
AcDbEllipse
 10
358.538466
 20
288.907994
 30
0.0
 11
17.14400298437072
 21
-9.865722711147096
 31
0.0
210
0.0
220
0.0
230
0.9999999999999998
 40
0.095267
 41
4.167173871579055
 42
4.243756374356673
  0
ELLIPSE
  5
175
330
1F
100
AcDbEntity
  8
1
100
AcDbEllipse
 10
356.23139
 20
291.040294
 30
0.0
 11
-3.280635324325751
 21
-0.1577279298688246
 31
0.0
210
0.0
220
0.0
230
1.0
 40
0.221493
 41
1.720554934490389
 42
4.556498747331098
  0
ELLIPSE
  5
176
330
1F
100
AcDbEntity
  8
1
100
AcDbEllipse
 10
284.909394
 20
288.907994
 30
0.0
 11
213.3030215905207
 21
9.752114925944935
 31
0.0
210
0.0
220
0.0
230
1.0
 40
0.010374
 41
5.055499506136797
 42
5.072977538304204
  0
ELLIPSE
  5
177
330
1F
100
AcDbEntity
  8
1
100
AcDbEllipse
 10
356.145811
 20
293.270558
 30
0.0
 11
-1.037752597290181
 21
0.3647869882787497
 31
0.0
210
0.0
220
0.0
230
1.0
 40
0.9986169999999999
 41
2.789742606356774
 42
3.003700138744391
  0
ELLIPSE
  5
178
330
1F
100
AcDbEntity
  8
1
100
AcDbEllipse
 10
361.348463
 20
288.924621
 30
0.0
 11
0.0001054973293696
 21
-0.3000466005998865
 31
0.0
210
0.0
220
0.0
230
1.0
 40
0.140519
 41
3.139090475970029
 42
4.709886802762972
  0
ELLIPSE
  5
179
330
1F
100
AcDbEntity
  8
1
100
AcDbEllipse
 10
361.40581
 20
292.676469
 30
0.0
 11
0.0003755628771327
 21
0.5004820718028999
 31
0.0
210
0.0
220
0.0
230
0.9999999999999998
 40
0.140044
 41
3.196620263475864
 42
4.767416590273625
  0
ELLIPSE
  5
17A
330
1F
100
AcDbEntity
  8
1
100
AcDbEllipse
 10
361.115293
 20
283.536119
 30
0.0
 11
0.0323262014611817
 21
0.2994966855051626
 31
0.0
210
0.0
220
0.0
230
0.9999999999999998
 40
0.139171
 41
1.583568179247118
 42
3.154364506042517
  0
ELLIPSE
  5
17B
330
1F
100
AcDbEntity
  8
1
100
AcDbEllipse
 10
361.991827
 20
288.907994
 30
0.0
 11
1.08238769420311
 21
9.998869052110803
 31
0.0
210
0.0
220
0.0
230
0.9999999999999998
 40
0.138944
 41
1.908927975893884
 42
3.156632395651073
  0
ELLIPSE
  5
17C
330
1F
100
AcDbEntity
  8
1
100
AcDbEllipse
 10
361.654842
 20
288.907994
 30
0.0
 11
0.0
 21
10.00000000005514
 31
0.0
210
0.0
220
0.0
230
1.0
 40
0.140541
 41
1.433327882243621
 42
1.893888233830821
  0
ELLIPSE
  5
17D
330
1F
100
AcDbEntity
  8
1
100
AcDbEllipse
 10
356.185565
 20
293.38365
 30
0.0
 11
-1.037752597290181
 21
0.3647869882787496
 31
0.0
210
0.0
220
0.0
230
1.0
 40
0.9986169999999999
 41
0.0617470360453956
 42
1.952887366749438
  0
ELLIPSE
  5
17E
330
1F
100
AcDbEntity
  8
1
100
AcDbEllipse
 10
356.185565
 20
293.38365
 30
0.0
 11
-1.037752597290181
 21
0.3647869882787496
 31
0.0
210
0.0
220
0.0
230
1.0
 40
0.9986169999999999
 41
1.952888276015089
 42
2.882603670849408
  0
ELLIPSE
  5
17F
330
1F
100
AcDbEntity
  8
1
100
AcDbEllipse
 10
356.145811
 20
293.270558
 30
0.0
 11
-1.037752597290181
 21
0.3647869882787497
 31
0.0
210
0.0
220
0.0
230
1.0
 40
0.9986169999999999
 41
5.608353607745572
 42
5.836666734888794
  0
ELLIPSE
  5
180
330
1F
100
AcDbEntity
  8
1
100
AcDbEllipse
 10
356.14058
 20
293.255677
 30
0.0
 11
1.03775259729018
 21
-0.3647869882787533
 31
0.0
210
0.0
220
0.0
230
0.9999999999999998
 40
0.9986169999999999
 41
5.871090913687491
 42
5.931335259946558
  0
ELLIPSE
  5
181
330
1F
100
AcDbEntity
  8
1
100
AcDbEllipse
 10
355.602032
 20
288.90798
 30
0.0
 11
0.4217656171030403
 21
-10.00000983225207
 31
0.0
210
0.0
220
0.0
230
0.9999999999999998
 40
0.019519
 41
3.257829178210993
 42
3.287929922848381
  0
ELLIPSE
  5
182
330
1F
100
AcDbEntity
  8
1
100
AcDbEllipse
 10
299.174854
 20
288.882646
 30
0.0
 11
574.1852169215422
 21
-0.4944279254385767
 31
0.0
210
0.0
220
0.0
230
1.0
 40
0.017439
 41
1.473159003702813
 42
1.475235880090139
  0
SPLINE
  5
188
330
1F
100
AcDbEntity
  8
1
100
AcDbSpline
210
0.0
220
0.0
230
1.0
 70
     8
 71
     3
 72
     8
 73
     4
 74
     0
 42
0.000000001
 43
0.0000000001
 40
0.0
 40
0.0
 40
0.0
 40
0.0
 40
1.0
 40
1.0
 40
1.0
 40
1.0
 10
353.9032050517028
 20
292.1512966211142
 30
0.0
 10
353.7450273089962
 20
292.1823829169693
 30
0.0
 10
353.5877260000436
 20
292.2165079793948
 30
0.0
 10
353.4312554753836
 20
292.253646155239
 30
0.0
  0
SPLINE
  5
189
330
1F
100
AcDbEntity
  8
1
100
AcDbSpline
210
0.0
220
0.0
230
1.0
 70
     8
 71
     3
 72
    45
 73
    41
 74
     0
 42
0.000000001
 43
0.0000000001
 40
0.0
 40
0.0
 40
0.0
 40
0.0
 40
0.0625000000000037
 40
0.0625000000000037
 40
0.1250000000000074
 40
0.1250000000000074
 40
0.2500000000000042
 40
0.2500000000000042
 40
0.3750000000000011
 40
0.3750000000000011
 40
0.40625
 40
0.40625
 40
0.437499999999999
 40
0.437499999999999
 40
0.4999999999999973
 40
0.4999999999999973
 40
0.5624999999999955
 40
0.5624999999999955
 40
0.6249999999999938
 40
0.6249999999999938
 40
0.6562499999999926
 40
0.6562499999999926
 40
0.6874999999999915
 40
0.6874999999999915
 40
0.7499999999999892
 40
0.7499999999999892
 40
0.7812499999999904
 40
0.7812499999999904
 40
0.7968749999999926
 40
0.7968749999999926
 40
0.8124999999999946
 40
0.8749999999999982
 40
0.8749999999999982
 40
0.90625
 40
0.90625
 40
0.9218750000000007
 40
0.9218750000000007
 40
0.9375000000000019
 40
0.9375000000000019
 40
1.0
 40
1.0
 40
1.0
 40
1.0
 10
352.7877239497383
 20
292.9591476927993
 30
0.0
 10
352.858110394006
 20
292.9848903009581
 30
0.0
 10
352.9282242360457
 20
293.0115570435541
 30
0.0
 10
353.0678444500617
 20
293.0669498809726
 30
0.0
 10
353.1374098450632
 20
293.0957012025087
 30
0.0
 10
353.3446578129798
 20
293.1852489790392
 30
0.0
 10
353.4805947456244
 20
293.2491632462327
 30
0.0
 10
353.7468241847132
 20
293.3876701633228
 30
0.0
 10
353.8771352398982
 20
293.4622277218658
 30
0.0
 10
354.0352926409243
 20
293.564375782143
 30
0.0
 10
354.0667073105024
 20
293.5852753294762
 30
0.0
 10
354.1287051705157
 20
293.6278457250717
 30
0.0
 10
354.1593230764527
 20
293.6495380098544
 30
0.0
 10
354.2499506839667
 20
293.7159248432408
 30
0.0
 10
354.308739668545
 20
293.7619236086701
 30
0.0
 10
354.4225069252994
 20
293.8579925133516
 30
0.0
 10
354.4774884550035
 20
293.9080591722533
 30
0.0
 10
354.5828830758619
 20
294.0130734202238
 30
0.0
 10
354.6333023604632
 20
294.0680143921999
 30
0.0
 10
354.7046787819616
 20
294.1549692366367
 30
0.0
 10
354.7277589657189
 20
294.1847148409896
 30
0.0
 10
354.7723033893384
 20
294.2459325278388
 30
0.0
 10
354.7938061088689
 20
294.2774823281434
 30
0.0
 10
354.8545995593338
 20
294.3735396232526
 30
0.0
 10
354.8905160955348
 20
294.4398534340962
 30
0.0
 10
354.9362635627993
 20
294.5433338978659
 30
0.0
 10
354.950154065195
 20
294.5784976984501
 30
0.0
 10
354.9687531413814
 20
294.6323468987395
 30
0.0
 10
354.9745924552488
 20
294.6505253311528
 30
0.0
 10
354.9854194890267
 20
294.6870382396879
 30
0.0
 10
355.0103260372404
 20
294.7785691911645
 30
0.0
 10
355.0243988315102
 20
294.8713468313341
 30
0.0
 10
355.030567096731
 20
294.983913493095
 30
0.0
 10
355.0308348051593
 20
295.0216415105931
 30
0.0
 10
355.0284960194244
 20
295.078548881028
 30
0.0
 10
355.027254942968
 20
295.0976165501625
 30
0.0
 10
355.0238722779192
 20
295.1356077439023
 30
0.0
 10
355.0217348955114
 20
295.1545152771732
 30
0.0
 10
355.0088857927974
 20
295.2486260623651
 30
0.0
 10
354.9917050269641
 20
295.3225521310542
 30
0.0
 10
354.9683402395562
 20
295.3952572887716
 30
0.0
  0
SPLINE
  5
18A
330
1F
100
AcDbEntity
  8
1
100
AcDbSpline
210
0.0
220
0.0
230
1.0
 70
    12
 71
     3
 72
     9
 73
     5
 74
     0
 42
0.000000001
 43
0.0000000001
 40
0.0
 40
0.0
 40
0.0
 40
0.0
 40
0.4137441192931169
 40
1.0
 40
1.0
 40
1.0
 40
1.0
 10
332.5686436618749
 20
295.9539193009821
 30
0.0
 41
1.000895168970626
 10
335.6612876496807
 20
295.9577061921527
 30
0.0
 41
1.000986472775573
 10
343.0850175568677
 20
295.6214341571008
 30
0.0
 41
1.003252251671693
 10
350.6466072989519
 20
295.3600514939694
 30
0.0
 41
1.000267595604358
 10
354.9683402395562
 20
295.3952572887716
 30
0.0
 41
1.001202396447704
  0
SPLINE
  5
18B
330
1F
100
AcDbEntity
  8
1
100
AcDbSpline
210
0.0
220
0.0
230
1.0
 70
     8
 71
     3
 72
    16
 73
    12
 74
     0
 42
0.000000001
 43
0.0000000001
 40
0.0
 40
0.0
 40
0.0
 40
0.0
 40
0.25
 40
0.25
 40
0.375
 40
0.4375
 40
0.4375
 40
0.5
 40
0.5
 40
0.75
 40
1.0
 40
1.0
 40
1.0
 40
1.0
 10
289.4783562936307
 20
286.406032183635
 30
0.0
 10
289.8068064689695
 20
286.4172232102134
 30
0.0
 10
290.1382998525487
 20
286.421612004649
 30
0.0
 10
290.6401346999102
 20
286.4179248817962
 30
0.0
 10
290.8922014251782
 20
286.4135123814141
 30
0.0
 10
291.1460033631997
 20
286.4052213032176
 30
0.0
 10
291.3155919157898
 20
286.3988283061593
 30
0.0
 10
291.4006196660916
 20
286.3951971037275
 30
0.0
 10
291.8262775605175
 20
286.3748891879167
 30
0.0
 10
292.5078974048108
 20
286.3287807049518
 30
0.0
 10
293.1906234604647
 20
286.2561178825
 30
0.0
 10
293.5322589432653
 20
286.2132462547112
 30
0.0
  0
SPLINE
  5
18C
330
1F
100
AcDbEntity
  8
1
100
AcDbSpline
210
0.0
220
0.0
230
1.0
 70
     8
 71
     3
 72
    14
 73
    10
 74
     0
 42
0.000000001
 43
0.0000000001
 40
0.0
 40
0.0
 40
0.0
 40
0.0
 40
0.25
 40
0.25
 40
0.5
 40
0.5
 40
0.75
 40
0.75
 40
1.0
 40
1.0
 40
1.0
 40
1.0
 10
279.4048419452957
 20
274.5377502053101
 30
0.0
 10
279.6326534814283
 20
274.607170054811
 30
0.0
 10
279.8629563013373
 20
274.688596800707
 30
0.0
 10
280.3272001289803
 20
274.8700345743039
 30
0.0
 10
280.5611438567714
 20
274.9700677413407
 30
0.0
 10
281.0315241459568
 20
275.1849074388417
 30
0.0
 10
281.2679605352369
 20
275.2997228034509
 30
0.0
 10
281.7423334610266
 20
275.5414190217066
 30
0.0
 10
281.9802680560849
 20
275.6683025998008
 30
0.0
 10
282.2185504442805
 20
275.8003416567274
 30
0.0
  0
SPLINE
  5
18D
330
1F
100
AcDbEntity
  8
1
100
AcDbSpline
210
0.0
220
0.0
230
1.0
 70
     8
 71
     3
 72
    34
 73
    30
 74
     0
 42
0.000000001
 43
0.0000000001
 40
0.0
 40
0.0
 40
0.0
 40
0.0
 40
0.1249999999999988
 40
0.1249999999999988
 40
0.2499999999999977
 40
0.2499999999999977
 40
0.2812499999999971
 40
0.2812499999999971
 40
0.2968749999999968
 40
0.2968749999999968
 40
0.3124999999999965
 40
0.3749999999999952
 40
0.3749999999999952
 40
0.4999999999999933
 40
0.4999999999999933
 40
0.5624999999999921
 40
0.5624999999999921
 40
0.5781249999999921
 40
0.5781249999999921
 40
0.5937499999999922
 40
0.6249999999999928
 40
0.6249999999999928
 40
0.7499999999999955
 40
0.7499999999999955
 40
0.8749999999999978
 40
0.8749999999999978
 40
0.9374999999999989
 40
0.9374999999999989
 40
1.0
 40
1.0
 40
1.0
 40
1.0
 10
276.8446352770785
 20
278.3345327719684
 30
0.0
 10
276.8153500481184
 20
278.1231088345995
 30
0.0
 10
276.8061056139229
 20
277.9164999580382
 30
0.0
 10
276.8254676583587
 20
277.5125839974408
 30
0.0
 10
276.8540850203941
 20
277.3152781277139
 30
0.0
 10
276.9134471316445
 20
277.0743492340324
 30
0.0
 10
276.9265038972295
 20
277.0264489499006
 30
0.0
 10
276.9478786251469
 20
276.9550256130263
 30
0.0
 10
276.9553046997717
 20
276.9312826527337
 30
0.0
 10
276.9706902584051
 20
276.8841323833379
 30
0.0
 10
277.0105239252261
 20
276.766974835305
 30
0.0
 10
277.0571051594827
 20
276.6533438178715
 30
0.0
 10
277.1813217688945
 20
276.3870078710192
 30
0.0
 10
277.2806440200973
 20
276.2179365902689
 30
0.0
 10
277.453323356157
 20
275.9759031639999
 30
0.0
 10
277.5148458818538
 20
275.8971593319745
 30
0.0
 10
277.5966851837723
 20
275.8010597736716
 30
0.0
 10
277.6133141080878
 20
275.7819408508078
 30
0.0
 10
277.6469857123936
 20
275.7440245377501
 30
0.0
 10
277.6981074156073
 20
275.6876371277113
 30
0.0
 10
277.7510479002597
 20
275.6326812244566
 30
0.0
 10
277.9314660436378
 20
275.4525561670766
 30
0.0
 10
278.0883880108101
 20
275.3182134673034
 30
0.0
 10
278.425954047113
 20
275.0666589733943
 30
0.0
 10
278.6066050734763
 20
274.9494559922534
 30
0.0
 10
278.8951804427119
 20
274.7853385376374
 30
0.0
 10
278.9938501877896
 20
274.7328518908919
 30
0.0
 10
279.1958248340862
 20
274.6321688779929
 30
0.0
 10
279.2991663701998
 20
274.5839519649842
 30
0.0
 10
279.4048419452957
 20
274.5377502053101
 30
0.0
  0
SPLINE
  5
18E
330
1F
100
AcDbEntity
  8
1
100
AcDbSpline
210
0.0
220
0.0
230
1.0
 70
     8
 71
     3
 72
    58
 73
    54
 74
     0
 42
0.000000001
 43
0.0000000001
 40
0.0
 40
0.0
 40
0.0
 40
0.0
 40
0.0624999999999996
 40
0.0624999999999996
 40
0.1249999999999992
 40
0.1249999999999992
 40
0.1874999999999988
 40
0.1874999999999988
 40
0.2187499999999984
 40
0.2187499999999984
 40
0.249999999999998
 40
0.249999999999998
 40
0.3124999999999973
 40
0.3124999999999973
 40
0.3749999999999965
 40
0.3749999999999965
 40
0.4062499999999961
 40
0.4062499999999961
 40
0.421874999999996
 40
0.421874999999996
 40
0.4374999999999958
 40
0.4374999999999958
 40
0.4687499999999958
 40
0.4687499999999958
 40
0.4999999999999958
 40
0.4999999999999958
 40
0.5312499999999957
 40
0.5312499999999957
 40
0.5624999999999957
 40
0.5624999999999957
 40
0.5937499999999957
 40
0.5937499999999957
 40
0.6249999999999958
 40
0.6249999999999958
 40
0.6874999999999957
 40
0.6874999999999957
 40
0.7187499999999957
 40
0.7187499999999957
 40
0.7343749999999955
 40
0.7343749999999955
 40
0.7499999999999952
 40
0.7499999999999952
 40
0.8124999999999959
 40
0.8124999999999959
 40
0.8437499999999966
 40
0.8437499999999966
 40
0.8749999999999971
 40
0.9062499999999978
 40
0.9374999999999987
 40
0.9374999999999987
 40
0.9687499999999992
 40
0.9687499999999992
 40
1.0
 40
1.0
 40
1.0
 40
1.0
 10
297.9048419452957
 20
285.6742756885405
 30
0.0
 10
299.0186815573707
 20
285.4919604303964
 30
0.0
 10
300.1312581044172
 20
285.3060545355489
 30
0.0
 10
302.3536054434535
 20
284.9267179151375
 30
0.0
 10
303.4633744915364
 20
284.7332771637204
 30
0.0
 10
305.6798262412779
 20
284.3387913256364
 30
0.0
 10
306.7865056453556
 20
284.137730431049
 30
0.0
 10
308.4440554065433
 20
283.8308717423122
 30
0.0
 10
308.9961613397837
 20
283.7277143522737
 30
0.0
 10
310.0995436065643
 20
283.5198388313383
 30
0.0
 10
310.6508543512188
 20
283.4151134978233
 30
0.0
 10
312.3033367165316
 20
283.0990488284727
 30
0.0
 10
313.4021089350092
 20
282.8859398327933
 30
0.0
 10
315.5940357909636
 20
282.4585370665042
 30
0.0
 10
316.6871849117477
 20
282.2442447600796
 30
0.0
 10
318.3232599449755
 20
281.9260472379206
 30
0.0
 10
318.8680155710177
 20
281.8205363931726
 30
0.0
 10
319.6843669631682
 20
281.6637348702486
 30
0.0
 10
319.9563541123337
 20
281.6117125298703
 30
0.0
 10
320.5000930592082
 20
281.5082702432861
 30
0.0
 10
320.7718390872539
 20
281.4568359898752
 30
0.0
 10
321.5868287921901
 20
281.3037704205684
 30
0.0
 10
322.1298443105707
 20
281.2034381802544
 30
0.0
 10
323.2160018486868
 20
281.0082034359062
 30
0.0
 10
323.7592020704017
 20
280.9132882643989
 30
0.0
 10
324.8460560759691
 20
280.730239727319
 30
0.0
 10
325.3895320536548
 20
280.6421312881654
 30
0.0
 10
326.477033793009
 20
280.4734474296261
 30
0.0
 10
327.0210584987538
 20
280.3928663958879
 30
0.0
 10
328.1099907680987
 20
280.2394876413045
 30
0.0
 10
328.6548935959623
 20
280.1666692315201
 30
0.0
 10
329.7454545988643
 20
280.0281413639555
 30
0.0
 10
330.2911134320849
 20
279.9624356795647
 30
0.0
 10
331.9291831657815
 20
279.7754171936304
 30
0.0
 10
333.0226649122397
 20
279.6641793516389
 30
0.0
 10
334.6654404652378
 20
279.5162746280845
 30
0.0
 10
335.2134642625559
 20
279.4701410608917
 30
0.0
 10
336.0362406049698
 20
279.4055729687358
 30
0.0
 10
336.3106230422732
 20
279.3848222612452
 30
0.0
 10
336.8596528629049
 20
279.3448429284742
 30
0.0
 10
337.1343253283272
 20
279.32561268677
 30
0.0
 10
338.5080185148776
 20
279.2332311000504
 30
0.0
 10
339.6080290387921
 20
279.1714208675565
 30
0.0
 10
341.2606657082595
 20
279.0951712646225
 30
0.0
 10
341.8120010493258
 20
279.072505312869
 30
0.0
 10
342.9156599760229
 20
279.0322038292269
 30
0.0
 10
344.0202439477069
 20
278.9968653483333
 30
0.0
 10
345.6791091048827
 20
278.9569364276815
 30
0.0
 10
346.7857714620884
 20
278.9382031893658
 30
0.0
 10
347.8925011048382
 20
278.9231887328659
 30
0.0
 10
348.4458994457714
 20
278.9175405762224
 30
0.0
 10
349.5524380998992
 20
278.9099432839814
 30
0.0
 10
350.105578174152
 20
278.9079935137005
 30
0.0
 10
350.6584214288777
 20
278.9079935137005
 30
0.0
  0
SPLINE
  5
18F
330
1F
100
AcDbEntity
  8
1
100
AcDbSpline
210
0.0
220
0.0
230
1.0
 70
     8
 71
     3
 72
    60
 73
    56
 74
     0
 42
0.000000001
 43
0.0000000001
 40
0.0
 40
0.0
 40
0.0
 40
0.0
 40
0.0625000000000005
 40
0.0625000000000005
 40
0.1250000000000009
 40
0.1250000000000009
 40
0.1562500000000009
 40
0.1562500000000009
 40
0.187500000000001
 40
0.187500000000001
 40
0.2500000000000011
 40
0.2500000000000011
 40
0.3125000000000011
 40
0.3125000000000011
 40
0.3437500000000012
 40
0.3437500000000012
 40
0.3750000000000012
 40
0.3750000000000012
 40
0.4062500000000013
 40
0.4062500000000013
 40
0.4375000000000015
 40
0.4375000000000015
 40
0.4687500000000015
 40
0.4687500000000015
 40
0.5000000000000015
 40
0.5000000000000015
 40
0.5312500000000016
 40
0.5312500000000016
 40
0.5625000000000016
 40
0.5625000000000016
 40
0.5937500000000016
 40
0.5937500000000016
 40
0.6250000000000016
 40
0.6250000000000016
 40
0.6562500000000016
 40
0.6562500000000016
 40
0.6875000000000016
 40
0.6875000000000016
 40
0.7187500000000016
 40
0.7187500000000016
 40
0.7500000000000016
 40
0.7500000000000016
 40
0.8125000000000014
 40
0.8125000000000014
 40
0.843750000000001
 40
0.843750000000001
 40
0.8750000000000008
 40
0.8750000000000008
 40
0.9062500000000007
 40
0.9062500000000007
 40
0.9375000000000003
 40
0.9375000000000003
 40
0.9687500000000001
 40
0.9687500000000001
 40
1.0
 40
1.0
 40
1.0
 40
1.0
 10
297.9048419452956
 20
298.9079840585716
 30
0.0
 10
298.9837316651722
 20
298.9077661023611
 30
0.0
 10
300.0599559467501
 20
298.9037747230228
 30
0.0
 10
302.207405065662
 20
298.8839840708852
 30
0.0
 10
303.2786257344171
 20
298.8681672565244
 30
0.0
 10
304.8821537631869
 20
298.8323113970086
 30
0.0
 10
305.4161151573797
 20
298.8183386315972
 30
0.0
 10
306.4830533417237
 20
298.7858564836253
 30
0.0
 10
307.0160961575746
 20
298.7673431042067
 30
0.0
 10
308.6132624674785
 20
298.704384649729
 30
0.0
 10
309.6755088005256
 20
298.6524509352395
 30
0.0
 10
311.7966615866068
 20
298.5266754999332
 30
0.0
 10
312.8555791458554
 20
298.4528177915629
 30
0.0
 10
314.4430944941346
 20
298.3259112224821
 30
0.0
 10
314.972125256166
 20
298.2809433831485
 30
0.0
 10
316.0301816138991
 20
298.1859632298902
 30
0.0
 10
316.559166515066
 20
298.1359556444281
 30
0.0
 10
317.6170688266759
 20
298.0313380839712
 30
0.0
 10
318.1460226242843
 20
297.9767266176054
 30
0.0
 10
319.2041689520791
 20
297.8633789891949
 30
0.0
 10
319.7333617788574
 20
297.8046444447947
 30
0.0
 10
320.7921761900542
 20
297.6835542168925
 30
0.0
 10
321.3218231381753
 20
297.6212600339398
 30
0.0
 10
322.3812274731225
 20
297.4925545949745
 30
0.0
 10
322.9109790578242
 20
297.4261278436678
 30
0.0
 10
323.970365727823
 20
297.2886356413857
 30
0.0
 10
324.500037937303
 20
297.2175637680339
 30
0.0
 10
325.559046762311
 20
297.0705899097999
 30
0.0
 10
326.0883438008798
 20
296.9946939732666
 30
0.0
 10
327.1466032631907
 20
296.8381753211789
 30
0.0
 10
327.6755612210787
 20
296.7575389312362
 30
0.0
 10
328.7333525729424
 20
296.5919933144885
 30
0.0
 10
329.2622002090691
 20
296.5071200672581
 30
0.0
 10
330.3200410062396
 20
296.3338162739404
 30
0.0
 10
330.8490335662124
 20
296.2453858803834
 30
0.0
 10
331.907317668285
 20
296.0654564421395
 30
0.0
 10
332.4366087476917
 20
295.9739575231143
 30
0.0
 10
333.495572327348
 20
295.7882196088133
 30
0.0
 10
334.0252586790084
 20
295.6939777274163
 30
0.0
 10
335.0847032517285
 20
295.50298248965
 30
0.0
 10
335.6145023094722
 20
295.4062217324823
 30
0.0
 10
337.2041062891224
 20
295.1121728596462
 30
0.0
 10
338.2641339988901
 20
294.9111925955008
 30
0.0
 10
339.8541910536653
 20
294.6010542198796
 30
0.0
 10
340.384208666234
 20
294.4962124603886
 30
0.0
 10
341.4441178222728
 20
294.2831449210017
 30
0.0
 10
341.9740142848756
 20
294.1749329781554
 30
0.0
 10
343.0334893229474
 20
293.9543738730146
 30
0.0
 10
343.5629364965595
 20
293.8420139667897
 30
0.0
 10
344.6210738474949
 20
293.612410754055
 30
0.0
 10
345.1497627341266
 20
293.4951613280373
 30
0.0
 10
346.2063588229494
 20
293.2555374448727
 30
0.0
 10
346.7342646743772
 20
293.1331560094947
 30
0.0
 10
347.7894641888356
 20
292.8837159607908
 30
0.0
 10
348.3167567448404
 20
292.7566505479535
 30
0.0
 10
348.8439441456301
 20
292.6279209497478
 30
0.0
  0
SPLINE
  5
190
330
1F
100
AcDbEntity
  8
1
100
AcDbSpline
210
0.0
220
0.0
230
1.0
 70
     8
 71
     3
 72
    38
 73
    34
 74
     0
 42
0.000000001
 43
0.0000000001
 40
0.0
 40
0.0
 40
0.0
 40
0.0
 40
0.0561324723483892
 40
0.0561324723483892
 40
0.1122649446967784
 40
0.1122649446967784
 40
0.1683974170451676
 40
0.1683974170451676
 40
0.2245298893935568
 40
0.2245298893935568
 40
0.2806623617419461
 40
0.2806623617419461
 40
0.3367948340903352
 40
0.3367948340903352
 40
0.3929273064387244
 40
0.3929273064387244
 40
0.4490597787871137
 40
0.4490597787871137
 40
0.5613247234838921
 40
0.5613247234838921
 40
0.6735896681806697
 40
0.6735896681806697
 40
0.7297221405290588
 40
0.7297221405290588
 40
0.7858546128774476
 40
0.7858546128774476
 40
0.8419870852258364
 40
0.8419870852258364
 40
0.8981195575742253
 40
0.8981195575742253
 40
0.9542520299226142
 40
0.9542520299226142
 40
1.0
 40
1.0
 40
1.0
 40
1.0
 10
353.9693616459656
 20
298.8029353695207
 30
0.0
 10
353.3929761732105
 20
298.8262766352951
 30
0.0
 10
352.8153543768962
 20
298.8449489614822
 30
0.0
 10
351.6578890827378
 20
298.8745642636376
 30
0.0
 10
351.0780447055051
 20
298.8855043668839
 30
0.0
 10
349.9163722699147
 20
298.9009230659918
 30
0.0
 10
349.3345435286766
 20
298.9054002986732
 30
0.0
 10
348.169152917314
 20
298.9088913887027
 30
0.0
 10
347.5855905106192
 20
298.9079048644915
 30
0.0
 10
346.4170137737352
 20
298.9012212269168
 30
0.0
 10
345.8319990247687
 20
298.8955244205687
 30
0.0
 10
344.660843692088
 20
298.87992779364
 30
0.0
 10
344.0747027876803
 20
298.8700288331618
 30
0.0
 10
342.9016771338754
 20
298.8462723534644
 30
0.0
 10
342.314757619924
 20
298.8324149631674
 30
0.0
 10
341.1407797858204
 20
298.8006947378388
 30
0.0
 10
340.5537826973417
 20
298.782829961567
 30
0.0
 10
338.7929439377963
 20
298.7231373014515
 30
0.0
 10
337.6192660657482
 20
298.6752439659143
 30
0.0
 10
335.273212566256
 20
298.5617802144882
 30
0.0
 10
334.1008330075874
 20
298.4962022885822
 30
0.0
 10
332.3436826130501
 20
298.3827660300182
 30
0.0
 10
331.7582003450897
 20
298.342436955797
 30
0.0
 10
330.5877867125629
 20
298.2563229498641
 30
0.0
 10
330.0028542243232
 20
298.2105414567812
 30
0.0
 10
328.8336610752824
 20
298.1129365579743
 30
0.0
 10
328.2493439906237
 20
298.0611131466051
 30
0.0
 10
327.0818248036294
 20
297.9505640475757
 30
0.0
 10
326.4987943578499
 20
297.8918162269766
 30
0.0
 10
325.3340418218664
 20
297.7671529538504
 30
0.0
 10
324.7523219081723
 20
297.7012319469069
 30
0.0
 10
323.6974956844469
 20
297.5750464286043
 30
0.0
 10
323.2242062189176
 20
297.5159875777968
 30
0.0
 10
322.7511897263858
 20
297.4546267825412
 30
0.0
  0
SPLINE
  5
191
330
1F
100
AcDbEntity
  8
1
100
AcDbSpline
210
0.0
220
0.0
230
1.0
 70
     8
 71
     3
 72
    36
 73
    32
 74
     0
 42
0.000000001
 43
0.0000000001
 40
0.0
 40
0.0
 40
0.0
 40
0.0
 40
0.0624999999999999
 40
0.0624999999999999
 40
0.1249999999999998
 40
0.1249999999999998
 40
0.1874999999999997
 40
0.1874999999999997
 40
0.2499999999999996
 40
0.3124999999999991
 40
0.3124999999999991
 40
0.3281249999999992
 40
0.3281249999999992
 40
0.3437499999999992
 40
0.3437499999999992
 40
0.3749999999999992
 40
0.3749999999999992
 40
0.4374999999999993
 40
0.4374999999999993
 40
0.4999999999999994
 40
0.4999999999999994
 40
0.6249999999999996
 40
0.6249999999999996
 40
0.7499999999999999
 40
0.7499999999999999
 40
0.875
 40
0.875
 40
0.90625
 40
0.90625
 40
0.9375
 40
1.0
 40
1.0
 40
1.0
 40
1.0
 10
293.5322589432653
 20
278.9124480222337
 30
0.0
 10
293.2464245346655
 20
278.9105672699833
 30
0.0
 10
292.9642227802156
 20
278.9014035993645
 30
0.0
 10
292.4063346629895
 20
278.8704774402114
 30
0.0
 10
292.1306494292366
 20
278.8487145641519
 30
0.0
 10
291.5851822987233
 20
278.7942844527088
 30
0.0
 10
291.3154010671951
 20
278.7616169421911
 30
0.0
 10
290.7812380256261
 20
278.6868099372737
 30
0.0
 10
290.2524751406355
 20
278.6025302532263
 30
0.0
 10
289.7336899570623
 20
278.5016641086623
 30
0.0
 10
289.4123639694519
 20
278.4340257246106
 30
0.0
 10
289.3482447058467
 20
278.4202676469073
 30
0.0
 10
289.2202937591725
 20
278.3923031459469
 30
0.0
 10
289.1564997258272
 20
278.3781046808953
 30
0.0
 10
288.9659678504948
 20
278.3349537939815
 30
0.0
 10
288.8399530184223
 20
278.3054188337996
 30
0.0
 10
288.4647895939624
 20
278.2146700836649
 30
0.0
 10
288.2185162236198
 20
278.1513191358688
 30
0.0
 10
287.7330585952298
 20
278.0195801482941
 30
0.0
 10
287.4938754889357
 20
277.9511903208511
 30
0.0
 10
286.786351166815
 20
277.7391685990629
 30
0.0
 10
286.3279785830609
 20
277.5887337989084
 30
0.0
 10
285.4362176979366
 20
277.2718585144003
 30
0.0
 10
285.0028482039808
 20
277.1053906750521
 30
0.0
 10
284.1610891687978
 20
276.7572840390266
 30
0.0
 10
283.7527101791756
 20
276.5756310749836
 30
0.0
 10
283.2585585700839
 20
276.339205088739
 30
0.0
 10
283.1605928450738
 20
276.291471772458
 30
0.0
 10
282.9667570537237
 20
276.1952880439458
 30
0.0
 10
282.6789952407295
 20
276.0498641565037
 30
0.0
 10
282.4002710363459
 20
275.9010382116937
 30
0.0
 10
282.2185504442805
 20
275.8003416567274
 30
0.0
  0
SPLINE
  5
198
330
1F
100
AcDbEntity
  8
1
100
AcDbSpline
210
0.0
220
0.0
230
1.0
 70
     8
 71
     3
 72
    14
 73
    10
 74
     0
 42
0.000000001
 43
0.0000000001
 40
0.0
 40
0.0
 40
0.0
 40
0.0
 40
0.1839249329374721
 40
0.1839249329374721
 40
0.4559499552916479
 40
0.4559499552916479
 40
0.7279749776458239
 40
0.7279749776458239
 40
1.0
 40
1.0
 40
1.0
 40
1.0
 10
358.5981931317469
 20
294.957964110415
 30
0.0
 10
358.5961325101928
 20
294.9553965348716
 30
0.0
 10
358.5939210783901
 20
294.9529418008479
 30
0.0
 10
358.5881345416747
 20
294.947221989183
 30
0.0
 10
358.5843909978428
 20
294.9440978632469
 30
0.0
 10
358.5762874415017
 20
294.9384616705883
 30
0.0
 10
358.5719901605979
 20
294.9360001318709
 30
0.0
 10
358.5630737556849
 20
294.9318806015065
 30
0.0
 10
358.5584303176013
 20
294.9302049272302
 30
0.0
 10
358.5535897840786
 20
294.9289384816091
 30
0.0
  0
SPLINE
  5
199
330
1F
100
AcDbEntity
  8
1
100
AcDbSpline
210
0.0
220
0.0
230
1.0
 70
     8
 71
     3
 72
    12
 73
     8
 74
     0
 42
0.000000001
 43
0.0000000001
 40
0.0
 40
0.0
 40
0.0
 40
0.0
 40
0.0755624229304049
 40
0.0755624229304049
 40
0.5377812114652025
 40
0.5377812114652025
 40
1.0
 40
1.0
 40
1.0
 40
1.0
 10
358.6220656907153
 20
295.0477530013194
 30
0.0
 10
358.6223875181929
 20
295.0486685457676
 30
0.0
 10
358.6227251076969
 20
295.0495800603383
 30
0.0
 10
358.6252401976326
 20
295.0560386336471
 30
0.0
 10
358.6280182180071
 20
295.0614497573875
 30
0.0
 10
358.6345725970486
 20
295.07147384234
 30
0.0
 10
358.638367284137
 20
295.0761522668379
 30
0.0
 10
358.6427254438916
 20
295.0804694374335
 30
0.0
  0
SPLINE
  5
19A
330
1F
100
AcDbEntity
  8
1
100
AcDbSpline
210
0.0
220
0.0
230
1.0
 70
     8
 71
     3
 72
    14
 73
    10
 74
     0
 42
0.000000001
 43
0.0000000001
 40
0.0
 40
0.0
 40
0.0
 40
0.0
 40
0.25
 40
0.25
 40
0.5
 40
0.5
 40
0.75
 40
0.75
 40
1.0
 40
1.0
 40
1.0
 40
1.0
 10
357.798452797369
 20
295.4411659794733
 30
0.0
 10
357.803426731948
 20
295.4444151355902
 30
0.0
 10
357.8087311028439
 20
295.4471461993982
 30
0.0
 10
357.8197251472179
 20
295.4514458023088
 30
0.0
 10
357.825386020346
 20
295.4530142618462
 30
0.0
 10
357.8370423975601
 20
295.4549720813527
 30
0.0
 10
357.8430603826151
 20
295.455345403421
 30
0.0
 10
357.854915176473
 20
295.4548169585403
 30
0.0
 10
357.8608170414906
 20
295.4539329733074
 30
0.0
 10
357.8666930902208
 20
295.4523750066573
 30
0.0
  0
SPLINE
  5
19B
330
1F
100
AcDbEntity
  8
1
100
AcDbSpline
210
0.0
220
0.0
230
1.0
 70
     8
 71
     3
 72
    20
 73
    16
 74
     0
 42
0.000000001
 43
0.0000000001
 40
0.0
 40
0.0
 40
0.0
 40
0.0
 40
0.1249999999999408
 40
0.1249999999999408
 40
0.2499999999998818
 40
0.3124999999998522
 40
0.3124999999998522
 40
0.3749999999998227
 40
0.3749999999998227
 40
0.4999999999998581
 40
0.6249999999998935
 40
0.6249999999998935
 40
0.7499999999999291
 40
0.7499999999999291
 40
1.0
 40
1.0
 40
1.0
 40
1.0
 10
358.6427254438913
 20
295.0804694374333
 30
0.0
 10
358.6547630845812
 20
295.0923938622718
 30
0.0
 10
358.6675285130304
 20
295.1036432469028
 30
0.0
 10
358.6941540257587
 20
295.1244693648335
 30
0.0
 10
358.7150080872451
 20
295.1389028477939
 30
0.0
 10
358.7372284170362
 20
295.151520306806
 30
0.0
 10
358.7523561834152
 20
295.1595156134001
 30
0.0
 10
358.7601074207682
 20
295.1633184745895
 30
0.0
 10
358.7835634686284
 20
295.1739535642786
 30
0.0
 10
358.8154001304979
 20
295.1861112452967
 30
0.0
 10
358.8483290365792
 20
295.1943323152763
 30
0.0
 10
358.8818125423369
 20
295.2005573728343
 30
0.0
 10
358.8988906073704
 20
295.2026596405602
 30
0.0
 10
358.9494454992478
 20
295.2058031466996
 30
0.0
 10
358.9827397712652
 20
295.2038487222687
 30
0.0
 10
359.0156940955676
 20
295.1979712356782
 30
0.0
  0
SPLINE
  5
19C
330
1F
100
AcDbEntity
  8
1
100
AcDbSpline
210
0.0
220
0.0
230
1.0
 70
     8
 71
     3
 72
    19
 73
    15
 74
     0
 42
0.000000001
 43
0.0000000001
 40
0.0
 40
0.0
 40
0.0
 40
0.0
 40
0.1337618469902016
 40
0.1337618469902016
 40
0.278134872491836
 40
0.278134872491836
 40
0.4225078979934705
 40
0.5668809234951049
 40
0.5668809234951049
 40
0.6390674362459221
 40
0.6390674362459221
 40
0.7112539489967393
 40
0.7112539489967393
 40
1.0
 40
1.0
 40
1.0
 40
1.0
 10
359.4187707240329
 20
295.3604646402514
 30
0.0
 10
359.4127035121569
 20
295.3460109903619
 30
0.0
 10
359.4058506193202
 20
295.3318958456488
 30
0.0
 10
359.3899713835446
 20
295.3032482114529
 30
0.0
 10
359.3807798354565
 20
295.2887641490969
 30
0.0
 10
359.3609971919513
 20
295.2613129919063
 30
0.0
 10
359.3397191309208
 20
295.2351855728961
 30
0.0
 10
359.3154834239746
 20
295.2116760107565
 30
0.0
 10
359.2961635987327
 20
295.1950556590168
 30
0.0
 10
359.2895256709201
 20
295.1896818896246
 30
0.0
 10
359.2760471694889
 20
295.1794188164321
 30
0.0
 10
359.26918512842
 20
295.1745100871521
 30
0.0
 10
359.2342732101122
 20
295.1510587633414
 30
0.0
 10
359.2044425669819
 20
295.1357482698394
 30
0.0
 10
359.1726685563287
 20
295.1239759697935
 30
0.0
  0
SPLINE
  5
19D
330
1F
100
AcDbEntity
  8
1
100
AcDbSpline
210
0.0
220
0.0
230
1.0
 70
     8
 71
     3
 72
    10
 73
     6
 74
     0
 42
0.000000001
 43
0.0000000001
 40
0.0
 40
0.0
 40
0.0
 40
0.0
 40
0.329533504148661
 40
0.329533504148661
 40
1.0
 40
1.0
 40
1.0
 40
1.0
 10
359.3636847754585
 20
295.817546141038
 30
0.0
 10
359.3692249388307
 20
295.8332970601345
 30
0.0
 10
359.3757408424653
 20
295.848826256636
 30
0.0
 10
359.3977898829171
 20
295.8938146773083
 30
0.0
 10
359.415780634514
 20
295.9215777772961
 30
0.0
 10
359.4369223847958
 20
295.9470674290358
 30
0.0
  0
SPLINE
  5
19E
330
1F
100
AcDbEntity
  8
1
100
AcDbSpline
210
0.0
220
0.0
230
1.0
 70
     8
 71
     3
 72
    14
 73
    10
 74
     0
 42
0.000000001
 43
0.0000000001
 40
0.0
 40
0.0
 40
0.0
 40
0.0
 40
0.25
 40
0.25
 40
0.5
 40
0.5
 40
0.75
 40
0.75
 40
1.0
 40
1.0
 40
1.0
 40
1.0
 10
359.4369223847958
 20
295.9470674290358
 30
0.0
 10
359.4407536801706
 20
295.9516866485192
 30
0.0
 10
359.4450718029556
 20
295.9558439202772
 30
0.0
 10
359.4543051985677
 20
295.9630082709151
 30
0.0
 10
359.4592300141414
 20
295.9660420413333
 30
0.0
 10
359.4696820150638
 20
295.9710453645941
 30
0.0
 10
359.4752051261808
 20
295.9729933603679
 30
0.0
 10
359.4863640374176
 20
295.9756599225199
 30
0.0
 10
359.4920595677959
 20
295.9764105519586
 30
0.0
 10
359.497875318157
 20
295.9765600434854
 30
0.0
  0
SPLINE
  5
19F
330
1F
100
AcDbEntity
  8
1
100
AcDbSpline
210
0.0
220
0.0
230
1.0
 70
     8
 71
     3
 72
    12
 73
     8
 74
     0
 42
0.000000001
 43
0.0000000001
 40
0.0
 40
0.0
 40
0.0
 40
0.0
 40
0.1366739488675872
 40
0.1366739488675872
 40
0.5683369744337936
 40
0.5683369744337936
 40
1.0
 40
1.0
 40
1.0
 40
1.0
 10
359.5554440523165
 20
296.0022174126539
 30
0.0
 10
359.5533842235772
 20
296.0000303398085
 30
0.0
 10
359.5512026164351
 20
295.9979548071431
 30
0.0
 10
359.5417449716257
 20
295.9899066251604
 30
0.0
 10
359.5337019762618
 20
295.9851792476556
 30
0.0
 10
359.5162517809437
 20
295.9785652079624
 30
0.0
 10
359.5072158563787
 20
295.9768001382684
 30
0.0
 10
359.497875318157
 20
295.9765600434854
 30
0.0
  0
SPLINE
  5
1A0
330
1F
100
AcDbEntity
  8
1
100
AcDbSpline
210
0.0
220
0.0
230
1.0
 70
     8
 71
     3
 72
    10
 73
     6
 74
     0
 42
0.000000001
 43
0.0000000001
 40
0.0
 40
0.0
 40
0.0
 40
0.0
 40
0.5822413121503029
 40
0.5822413121503029
 40
1.0
 40
1.0
 40
1.0
 40
1.0
 10
297.9048419452969
 20
298.9079840585716
 30
0.0
 10
297.8545884438327
 20
298.9079840585716
 30
0.0
 10
297.8042103234061
 20
298.9079855149372
 30
0.0
 10
297.7174682617251
 20
298.9079891159824
 30
0.0
 10
297.6812823796828
 20
298.9079909411088
 30
0.0
 10
297.6451849454444
 20
298.9079921640934
 30
0.0
  0
SPLINE
  5
1A1
330
1F
100
AcDbEntity
  8
1
100
AcDbSpline
210
0.0
220
0.0
230
1.0
 70
     8
 71
     3
 72
    19
 73
    15
 74
     0
 42
0.000000001
 43
0.0000000001
 40
0.0
 40
0.0
 40
0.0
 40
0.0
 40
0.2499999999999243
 40
0.2499999999999243
 40
0.3749999999998864
 40
0.3749999999998864
 40
0.4999999999998487
 40
0.6249999999998108
 40
0.6249999999998108
 40
0.6874999999998409
 40
0.6874999999998409
 40
0.7499999999998711
 40
0.7499999999998711
 40
1.0
 40
1.0
 40
1.0
 40
1.0
 10
358.5535897840786
 20
294.9289384816091
 30
0.0
 10
358.5205980888204
 20
294.9203067496318
 30
0.0
 10
358.4871091537502
 20
294.9156746300662
 30
0.0
 10
358.4361375060673
 20
294.9146931607428
 30
0.0
 10
358.4189996997948
 20
294.915388086045
 30
0.0
 10
358.3853233944313
 20
294.9187633937801
 30
0.0
 10
358.352031245375
 20
294.9241101445668
 30
0.0
 10
358.3194988331427
 20
294.9333558192176
 30
0.0
 10
358.2953931716808
 20
294.941797039142
 30
0.0
 10
358.2874012686615
 20
294.9448672518284
 30
0.0
 10
358.2717325130813
 20
294.9514289034254
 30
0.0
 10
358.2640280314133
 20
294.9549292487239
 30
0.0
 10
358.226142510103
 20
294.9735070448215
 30
0.0
 10
358.1978458965906
 20
294.9917686868054
 30
0.0
 10
358.1716135666192
 20
295.0135129856293
 30
0.0
  0
SPLINE
  5
1A2
330
1F
100
AcDbEntity
  8
1
100
AcDbSpline
210
0.0
220
0.0
230
1.0
 70
     8
 71
     3
 72
    18
 73
    14
 74
     0
 42
0.000000001
 43
0.0000000001
 40
0.0
 40
0.0
 40
0.0
 40
0.0
 40
0.1595697195024083
 40
0.1595697195024083
 40
0.3191394390048164
 40
0.3191394390048164
 40
0.4787091585072247
 40
0.4787091585072247
 40
0.6382788780096328
 40
0.6382788780096328
 40
0.957418317014344
 40
0.957418317014344
 40
1.0
 40
1.0
 40
1.0
 40
1.0
 10
358.1716135666192
 20
295.0135129856293
 30
0.0
 10
358.1677640220172
 20
295.0167039201843
 30
0.0
 10
358.1642608907942
 20
295.0201879092479
 30
0.0
 10
358.1579118876897
 20
295.0277112892555
 30
0.0
 10
358.1550438103914
 20
295.0317949634879
 30
0.0
 10
358.1501300045933
 20
295.0402780951359
 30
0.0
 10
358.1480741380494
 20
295.044672493911
 30
0.0
 10
358.1447277084555
 20
295.0537517705429
 30
0.0
 10
358.1434303956072
 20
295.0584825873246
 30
0.0
 10
358.140790887965
 20
295.0727654862583
 30
0.0
 10
358.1406567542034
 20
295.0823647253461
 30
0.0
 10
358.1422819587318
 20
295.0931255093816
 30
0.0
 10
358.1424998097043
 20
295.0943834616573
 30
0.0
 10
358.1427441533655
 20
295.0956326182725
 30
0.0
  0
SPLINE
  5
1A3
330
1F
100
AcDbEntity
  8
1
100
AcDbSpline
210
0.0
220
0.0
230
1.0
 70
     8
 71
     3
 72
    14
 73
    10
 74
     0
 42
0.000000001
 43
0.0000000001
 40
0.0
 40
0.0
 40
0.0
 40
0.0
 40
0.3015301140626453
 40
0.3015301140626453
 40
0.6030602281252908
 40
0.6030602281252908
 40
0.9045903421879359
 40
0.9045903421879359
 40
1.0
 40
1.0
 40
1.0
 40
1.0
 10
358.1553266544673
 20
295.1883858704246
 30
0.0
 10
358.1574425400672
 20
295.1826309853283
 30
0.0
 10
358.1589180971027
 20
295.1766692240388
 30
0.0
 10
358.1605777138229
 20
295.1647858398116
 30
0.0
 10
358.1607803615026
 20
295.1588413695255
 30
0.0
 10
358.1599655860872
 20
295.1469441344232
 30
0.0
 10
358.1589317424778
 20
295.1410076823705
 30
0.0
 10
358.1568324225419
 20
295.1335316383756
 30
0.0
 10
358.1562714949659
 20
295.131753478939
 30
0.0
 10
358.1556536563322
 20
295.1299943073052
 30
0.0
  0
SPLINE
  5
1A4
330
1F
100
AcDbEntity
  8
1
100
AcDbSpline
210
0.0
220
0.0
230
1.0
 70
     8
 71
     3
 72
    20
 73
    16
 74
     0
 42
0.000000001
 43
0.0000000001
 40
0.0
 40
0.0
 40
0.0
 40
0.0
 40
0.2500000000000007
 40
0.2500000000000007
 40
0.3750000000000006
 40
0.3750000000000006
 40
0.5000000000000005
 40
0.5000000000000005
 40
0.6250000000000004
 40
0.6250000000000004
 40
0.7500000000000002
 40
0.7500000000000002
 40
0.8750000000000001
 40
0.8750000000000001
 40
1.0
 40
1.0
 40
1.0
 40
1.0
 10
357.798452797369
 20
295.4411659794733
 30
0.0
 10
357.7904607357033
 20
295.4359452722778
 30
0.0
 10
357.7818618871678
 20
295.43216044988
 30
0.0
 10
357.7680577769475
 20
295.4286355632172
 30
0.0
 10
357.763314590279
 20
295.4278388878038
 30
0.0
 10
357.7538537252376
 20
295.4270596034438
 30
0.0
 10
357.7490950008366
 20
295.4270647025547
 30
0.0
 10
357.7395198353822
 20
295.4279013746722
 30
0.0
 10
357.7347331990694
 20
295.4287384651742
 30
0.0
 10
357.7254416700437
 20
295.4312081740532
 30
0.0
 10
357.720896518337
 20
295.4328428741106
 30
0.0
 10
357.7120208428369
 20
295.4369594631385
 30
0.0
 10
357.7077660747968
 20
295.439412371421
 30
0.0
 10
357.6997815855784
 20
295.4450089629247
 30
0.0
 10
357.6960250485308
 20
295.4481643981395
 30
0.0
 10
357.6925199168424
 20
295.4517001351708
 30
0.0
  0
SPLINE
  5
1A5
330
1F
100
AcDbEntity
  8
1
100
AcDbSpline
210
0.0
220
0.0
230
1.0
 70
     8
 71
     3
 72
    20
 73
    16
 74
     0
 42
0.000000001
 43
0.0000000001
 40
0.0
 40
0.0
 40
0.0
 40
0.0
 40
0.1250000000000642
 40
0.1250000000000642
 40
0.2500000000001283
 40
0.3125000000001177
 40
0.3125000000001177
 40
0.3750000000001071
 40
0.3750000000001071
 40
0.5000000000000857
 40
0.6250000000000642
 40
0.6250000000000642
 40
0.7500000000000428
 40
0.7500000000000428
 40
1.0
 40
1.0
 40
1.0
 40
1.0
 10
357.8666930902205
 20
295.4523750066576
 30
0.0
 10
357.8829241236783
 20
295.4480715350586
 30
0.0
 10
357.8989468200937
 20
295.4427869164888
 30
0.0
 10
357.9301216633384
 20
295.4303991151342
 30
0.0
 10
357.9529404012346
 20
295.4197240810679
 30
0.0
 10
357.974906702415
 20
295.4069164531558
 30
0.0
 10
357.989356228461
 20
295.3978879690877
 30
0.0
 10
357.9965103226657
 20
295.3931092835509
 30
0.0
 10
358.0174179693813
 20
295.3781949069657
 30
0.0
 10
358.0438620127933
 20
295.3567678513682
 30
0.0
 10
358.0675173698497
 20
295.3323403876101
 30
0.0
 10
358.0897585877822
 20
295.3063918018717
 30
0.0
 10
358.100191455366
 20
295.292599249928
 30
0.0
 10
358.12845697666
 20
295.2501723752508
 30
0.0
 10
358.1436507243085
 20
295.2201426140133
 30
0.0
 10
358.1553266544673
 20
295.1883858704246
 30
0.0
  0
SPLINE
  5
1A6
330
1F
100
AcDbEntity
  8
1
100
AcDbSpline
210
0.0
220
0.0
230
1.0
 70
     8
 71
     3
 72
    18
 73
    14
 74
     0
 42
0.000000001
 43
0.0000000001
 40
0.0
 40
0.0
 40
0.0
 40
0.0
 40
0.1249999999999984
 40
0.1249999999999984
 40
0.2499999999999968
 40
0.2499999999999968
 40
0.3749999999999952
 40
0.3749999999999952
 40
0.4999999999999936
 40
0.4999999999999936
 40
0.7499999999999968
 40
0.7499999999999968
 40
1.0
 40
1.0
 40
1.0
 40
1.0
 10
359.1726685563285
 20
295.1239759697935
 30
0.0
 10
359.1680059249161
 20
295.1222484605851
 30
0.0
 10
359.1632690211871
 20
295.1209686108917
 30
0.0
 10
359.1536550174229
 20
295.1192580637443
 30
0.0
 10
359.1487289782713
 20
295.1188304360404
 30
0.0
 10
359.1390245023472
 20
295.1188467633768
 30
0.0
 10
359.1342452520461
 20
295.1192793822416
 30
0.0
 10
359.124827332174
 20
295.12095407562
 30
0.0
 10
359.1201461698791
 20
295.122213445475
 30
0.0
 10
359.1066605970439
 20
295.127122407162
 30
0.0
 10
359.0984285080992
 20
295.1318425803772
 30
0.0
 10
359.0837350223493
 20
295.1438947900955
 30
0.0
 10
359.077565328453
 20
295.1509633820315
 30
0.0
 10
359.0725618063988
 20
295.1590616688354
 30
0.0
  0
SPLINE
  5
1A7
330
1F
100
AcDbEntity
  8
1
100
AcDbSpline
210
0.0
220
0.0
230
1.0
 70
     8
 71
     3
 72
    14
 73
    10
 74
     0
 42
0.000000001
 43
0.0000000001
 40
0.0
 40
0.0
 40
0.0
 40
0.0
 40
0.25
 40
0.25
 40
0.5
 40
0.5
 40
0.75
 40
0.75
 40
1.0
 40
1.0
 40
1.0
 40
1.0
 10
359.0156940955676
 20
295.1979712356782
 30
0.0
 10
359.0216659750332
 20
295.1969061359614
 30
0.0
 10
359.0274877628049
 20
295.195181653139
 30
0.0
 10
359.0384401892622
 20
295.1906333534607
 30
0.0
 10
359.0435997271289
 20
295.187814142935
 30
0.0
 10
359.0533058228936
 20
295.1811140283126
 30
0.0
 10
359.0578301655851
 20
295.1772271079431
 30
0.0
 10
359.0658713114547
 20
295.1687403749277
 30
0.0
 10
359.0694463899471
 20
295.1641040241338
 30
0.0
 10
359.0725618063988
 20
295.1590616688354
 30
0.0
  0
SPLINE
  5
1A8
330
1F
100
AcDbEntity
  8
1
100
AcDbSpline
210
0.0
220
0.0
230
1.0
 70
     8
 71
     3
 72
    19
 73
    15
 74
     0
 42
0.000000001
 43
0.0000000001
 40
0.0
 40
0.0
 40
0.0
 40
0.0
 40
0.2589879669466714
 40
0.2589879669466714
 40
0.3884819504199799
 40
0.3884819504199799
 40
0.5179759338932885
 40
0.6474699173665971
 40
0.6474699173665971
 40
0.712216909103261
 40
0.712216909103261
 40
0.7769639008399251
 40
0.7769639008399251
 40
1.0
 40
1.0
 40
1.0
 40
1.0
 10
357.6925199168424
 20
295.4517001351708
 30
0.0
 10
357.6686307706346
 20
295.4757978714037
 30
0.0
 10
357.6479309307642
 20
295.5023567694013
 30
0.0
 10
357.6216430881773
 20
295.5458604318081
 30
0.0
 10
357.6136855707217
 20
295.5610078583265
 30
0.0
 10
357.599777084168
 20
295.591792859875
 30
0.0
 10
357.5877557118307
 20
295.6232465223308
 30
0.0
 10
357.5794665032681
 20
295.6560223971864
 30
0.0
 10
357.5746920072301
 20
295.6811153928522
 30
0.0
 10
357.573342630366
 20
295.6895726841342
 30
0.0
 10
357.5711633487178
 20
295.706429104127
 30
0.0
 10
357.5703273110046
 20
295.7148565697502
 30
0.0
 10
357.5677164129198
 20
295.7523111302208
 30
0.0
 10
357.5686054390945
 20
295.7813303645007
 30
0.0
 10
357.57246815392
 20
295.8103403358188
 30
0.0
  0
SPLINE
  5
1A9
330
1F
100
AcDbEntity
  8
1
100
AcDbSpline
210
0.0
220
0.0
230
1.0
 70
     8
 71
     3
 72
    18
 73
    14
 74
     0
 42
0.000000001
 43
0.0000000001
 40
0.0
 40
0.0
 40
0.0
 40
0.0
 40
0.1993220502659684
 40
0.1993220502659684
 40
0.3986441005319368
 40
0.4983051256649161
 40
0.4983051256649161
 40
0.5979661507978951
 40
0.5979661507978951
 40
0.7972882010638793
 40
0.9966102513298633
 40
0.9966102513298633
 40
1.0
 40
1.0
 40
1.0
 40
1.0
 10
357.800522590025
 20
296.3093876330067
 30
0.0
 10
357.8047845257817
 20
296.2933547280348
 30
0.0
 10
357.8081039997982
 20
296.276997772781
 30
0.0
 10
357.8127618046262
 20
296.2440924276706
 30
0.0
 10
357.8147962660349
 20
296.219182343388
 30
0.0
 10
357.8145927456708
 20
296.1939009128547
 30
0.0
 10
357.8139436202654
 20
296.176959965763
 30
0.0
 10
357.8133587930011
 20
296.1684134898732
 30
0.0
 10
357.8108400629172
 20
296.1429482832489
 30
0.0
 10
357.8054670573934
 20
296.1094191882395
 30
0.0
 10
357.7961737617644
 20
296.076714375176
 30
0.0
 10
357.7904369164826
 20
296.060296942403
 30
0.0
 10
357.790340685866
 20
296.0600224572485
 30
0.0
 10
357.7902441574005
 20
296.0597480219537
 30
0.0
  0
SPLINE
  5
1AA
330
1F
100
AcDbEntity
  8
1
100
AcDbSpline
210
0.0
220
0.0
230
1.0
 70
     8
 71
     3
 72
    14
 73
    10
 74
     0
 42
0.000000001
 43
0.0000000001
 40
0.0
 40
0.0
 40
0.0
 40
0.0
 40
0.25
 40
0.25
 40
0.5
 40
0.5
 40
0.75
 40
0.75
 40
1.0
 40
1.0
 40
1.0
 40
1.0
 10
357.7574100446316
 20
296.361921698334
 30
0.0
 10
357.762644515542
 20
296.3593260431044
 30
0.0
 10
357.7675952050908
 20
296.3561859390089
 30
0.0
 10
357.776685781385
 20
296.3489873400018
 30
0.0
 10
357.780811208028
 20
296.3449535564405
 30
0.0
 10
357.788211967693
 20
296.336002569913
 30
0.0
 10
357.7914847064777
 20
296.331057816565
 30
0.0
 10
357.7968449806613
 20
296.3206756391167
 30
0.0
 10
357.7989797038308
 20
296.315191790822
 30
0.0
 10
357.800522590025
 20
296.3093876330061
 30
0.0
  0
SPLINE
  5
1AB
330
1F
100
AcDbEntity
  8
1
100
AcDbSpline
210
0.0
220
0.0
230
1.0
 70
     8
 71
     3
 72
    20
 73
    16
 74
     0
 42
0.000000001
 43
0.0000000001
 40
0.0
 40
0.0
 40
0.0
 40
0.0
 40
0.2499999999998284
 40
0.2499999999998284
 40
0.3749999999998569
 40
0.3749999999998569
 40
0.4999999999998856
 40
0.4999999999998856
 40
0.6249999999999142
 40
0.6249999999999142
 40
0.7499999999999428
 40
0.7499999999999428
 40
0.8749999999999714
 40
0.8749999999999714
 40
1.0
 40
1.0
 40
1.0
 40
1.0
 10
357.7574100446316
 20
296.361921698334
 30
0.0
 10
357.748999308682
 20
296.3660923912513
 30
0.0
 10
357.7415265241928
 20
296.371508593852
 30
0.0
 10
357.7317253378674
 20
296.3814959741508
 30
0.0
 10
357.7287139108255
 20
296.3851381312561
 30
0.0
 10
357.7234045378714
 20
296.3928127926886
 30
0.0
 10
357.7210758021887
 20
296.3968741340904
 30
0.0
 10
357.717101613332
 20
296.4054642428706
 30
0.0
 10
357.7154753128929
 20
296.409970937464
 30
0.0
 10
357.7130461734287
 20
296.4191460904782
 30
0.0
 10
357.7122253127531
 20
296.4238500604071
 30
0.0
 10
357.7114185714112
 20
296.4335030913287
 30
0.0
 10
357.7114448776633
 20
296.4383736697898
 30
0.0
 10
357.7123502590442
 20
296.4480151883559
 30
0.0
 10
357.7132262708431
 20
296.4528152583469
 30
0.0
 10
357.7145532587301
 20
296.4575928654777
 30
0.0
  0
SPLINE
  5
1AC
330
1F
100
AcDbEntity
  8
1
100
AcDbSpline
210
0.0
220
0.0
230
1.0
 70
     8
 71
     3
 72
    10
 73
     6
 74
     0
 42
0.000000001
 43
0.0000000001
 40
0.0
 40
0.0
 40
0.0
 40
0.0
 40
0.5445084009835542
 40
0.5445084009835542
 40
1.0
 40
1.0
 40
1.0
 40
1.0
 10
358.5351174088796
 20
296.8571146994722
 30
0.0
 10
358.5354150974918
 20
296.8513759715374
 30
0.0
 10
358.5350986887659
 20
296.8456103601273
 30
0.0
 10
358.5334172359101
 20
296.8352416598071
 30
0.0
 10
358.5322421821899
 20
296.8306192071834
 30
0.0
 10
358.530652770128
 20
296.8260975889485
 30
0.0
  0
SPLINE
  5
1AD
330
1F
100
AcDbEntity
  8
1
100
AcDbSpline
210
0.0
220
0.0
230
1.0
 70
     8
 71
     3
 72
    29
 73
    25
 74
     0
 42
0.000000001
 43
0.0000000001
 40
0.0
 40
0.0
 40
0.0
 40
0.0
 40
0.125000000000026
 40
0.125000000000026
 40
0.1875000000000432
 40
0.1875000000000432
 40
0.2500000000000603
 40
0.2500000000000603
 40
0.3750000000000869
 40
0.3750000000000869
 40
0.4375000000000969
 40
0.4375000000000969
 40
0.5000000000001066
 40
0.5000000000001066
 40
0.6250000000001205
 40
0.6250000000001205
 40
0.6875000000001008
 40
0.6875000000001008
 40
0.7500000000000809
 40
0.8125000000000609
 40
0.8125000000000609
 40
0.875000000000041
 40
0.875000000000041
 40
1.0
 40
1.0
 40
1.0
 40
1.0
 10
361.7076030401071
 20
298.9272681238573
 30
0.0
 10
361.7064648977545
 20
298.9528012816048
 30
0.0
 10
361.7027654270879
 20
298.977782215346
 30
0.0
 10
361.6935964881388
 20
299.0144731992415
 30
0.0
 10
361.6899319775108
 20
299.0265723994093
 30
0.0
 10
361.6813670880771
 20
299.0505043457831
 30
0.0
 10
361.6764519333767
 20
299.0623496103076
 30
0.0
 10
361.6601732394743
 20
299.0967181762552
 30
0.0
 10
361.6472082499835
 20
299.1183509832923
 30
0.0
 10
361.6246356678474
 20
299.1489073032263
 30
0.0
 10
361.6165431184174
 20
299.1588217686371
 30
0.0
 10
361.5994908948356
 20
299.177749919625
 30
0.0
 10
361.5905663098305
 20
299.186735569855
 30
0.0
 10
361.5626309891463
 20
299.2122978913915
 30
0.0
 10
361.5424701467961
 20
299.2274936917434
 30
0.0
 10
361.5098484041389
 20
299.2474292795649
 30
0.0
 10
361.4986146830977
 20
299.2535616934122
 30
0.0
 10
361.4758264859412
 20
299.2646046016465
 30
0.0
 10
361.4526091133074
 20
299.2744940787332
 30
0.0
 10
361.4285401468102
 20
299.2820948535536
 30
0.0
 10
361.4040359820169
 20
299.2885260105915
 30
0.0
 10
361.3915071394302
 20
299.2911649819271
 30
0.0
 10
361.3537113461596
 20
299.297164928317
 30
0.0
 10
361.3283364534872
 20
299.2986416782624
 30
0.0
 10
361.3027790582769
 20
299.2975269798175
 30
0.0
  0
SPLINE
  5
1AE
330
1F
100
AcDbEntity
  8
1
100
AcDbSpline
210
0.0
220
0.0
230
1.0
 70
     8
 71
     3
 72
    29
 73
    25
 74
     0
 42
0.000000001
 43
0.0000000001
 40
0.0
 40
0.0
 40
0.0
 40
0.0
 40
0.1249999999999167
 40
0.1249999999999167
 40
0.1874999999999084
 40
0.1874999999999084
 40
0.2499999999999001
 40
0.2499999999999001
 40
0.3749999999998872
 40
0.3749999999998872
 40
0.4374999999998833
 40
0.4374999999998833
 40
0.4999999999998794
 40
0.4999999999998794
 40
0.6249999999999117
 40
0.6249999999999117
 40
0.6874999999999277
 40
0.6874999999999277
 40
0.7499999999999439
 40
0.8124999999999598
 40
0.8124999999999598
 40
0.874999999999976
 40
0.874999999999976
 40
1.0
 40
1.0
 40
1.0
 40
1.0
 10
355.7351618035556
 20
299.0546925968451
 30
0.0
 10
355.7096020399741
 20
299.0535777951024
 30
0.0
 10
355.6845973153698
 20
299.0499039496977
 30
0.0
 10
355.6478746233657
 20
299.0407766773685
 30
0.0
 10
355.6357655222545
 20
299.0371265981136
 30
0.0
 10
355.6118151322469
 20
299.0285916737948
 30
0.0
 10
355.5999613243013
 20
299.0236920796166
 30
0.0
 10
355.5655697172621
 20
299.0074607103017
 30
0.0
 10
355.5439247617663
 20
298.9945284411504
 30
0.0
 10
355.5133549711102
 20
298.9720066712342
 30
0.0
 10
355.5034368005
 20
298.963931437619
 30
0.0
 10
355.4845029634797
 20
298.9469140009168
 30
0.0
 10
355.4755153323234
 20
298.9380068248457
 30
0.0
 10
355.4499495810349
 20
298.9101237761311
 30
0.0
 10
355.4347548200931
 20
298.8899978415373
 30
0.0
 10
355.4148259415118
 20
298.8574285530787
 30
0.0
 10
355.4086966298076
 20
298.8462122608008
 30
0.0
 10
355.3976615240724
 20
298.8234582089303
 30
0.0
 10
355.3877815077283
 20
298.8002744306751
 30
0.0
 10
355.3801933240918
 20
298.7762380249164
 30
0.0
 10
355.3737764391888
 20
298.7517658624325
 30
0.0
 10
355.3711454666983
 20
298.7392528201731
 30
0.0
 10
355.3651717695816
 20
298.7015029934364
 30
0.0
 10
355.3637153996692
 20
298.6761567515813
 30
0.0
 10
355.3648534365614
 20
298.6506259597396
 30
0.0
  0
SPLINE
  5
1AF
330
1F
100
AcDbEntity
  8
1
100
AcDbSpline
210
0.0
220
0.0
230
1.0
 70
     8
 71
     3
 72
    29
 73
    25
 74
     0
 42
0.000000001
 43
0.0000000001
 40
0.0
 40
0.0
 40
0.0
 40
0.0
 40
0.1249999999999769
 40
0.1249999999999769
 40
0.1874999999999653
 40
0.1874999999999653
 40
0.2499999999999537
 40
0.2499999999999537
 40
0.3749999999999306
 40
0.3749999999999306
 40
0.4374999999999206
 40
0.4374999999999206
 40
0.4999999999999107
 40
0.4999999999999107
 40
0.6249999999998895
 40
0.6249999999998895
 40
0.687499999999908
 40
0.687499999999908
 40
0.7499999999999263
 40
0.8124999999999447
 40
0.8124999999999447
 40
0.874999999999963
 40
0.874999999999963
 40
1.0
 40
1.0
 40
1.0
 40
1.0
 10
355.6127720442797
 20
293.0888041850431
 30
0.0
 10
355.6139101866323
 20
293.0632710272955
 30
0.0
 10
355.6176096572989
 20
293.0382900935544
 30
0.0
 10
355.6267785962481
 20
293.0015991096589
 30
0.0
 10
355.630443106876
 20
292.9894999094912
 30
0.0
 10
355.6390079963096
 20
292.9655679631173
 30
0.0
 10
355.6439231510101
 20
292.9537226985928
 30
0.0
 10
355.6602018449125
 20
292.9193541326453
 30
0.0
 10
355.6731668344033
 20
292.8977213256081
 30
0.0
 10
355.6957394165394
 20
292.8671650056741
 30
0.0
 10
355.7038319659694
 20
292.8572505402634
 30
0.0
 10
355.7208841895512
 20
292.8383223892753
 30
0.0
 10
355.7298087745563
 20
292.8293367390454
 30
0.0
 10
355.7577440952404
 20
292.8037744175089
 30
0.0
 10
355.7779049375907
 20
292.788578617157
 30
0.0
 10
355.810526680248
 20
292.7686430293355
 30
0.0
 10
355.8217604012892
 20
292.7625106154882
 30
0.0
 10
355.8445485984456
 20
292.7514677072539
 30
0.0
 10
355.8677659859949
 20
292.7415782702535
 30
0.0
 10
355.8918349375767
 20
292.7339774553468
 30
0.0
 10
355.91633910237
 20
292.7275462983089
 30
0.0
 10
355.9288679449569
 20
292.7249073269733
 30
0.0
 10
355.9666637382273
 20
292.7189073805833
 30
0.0
 10
355.9920386308997
 20
292.717430630638
 30
0.0
 10
356.0175960261099
 20
292.718545329083
 30
0.0
  0
SPLINE
  5
1B0
330
1F
100
AcDbEntity
  8
1
100
AcDbSpline
210
0.0
220
0.0
230
1.0
 70
     8
 71
     3
 72
    29
 73
    25
 74
     0
 42
0.000000001
 43
0.0000000001
 40
0.0
 40
0.0
 40
0.0
 40
0.0
 40
0.1249999999998729
 40
0.1249999999998729
 40
0.1874999999998428
 40
0.1874999999998428
 40
0.2499999999998126
 40
0.2499999999998126
 40
0.3749999999998122
 40
0.3749999999998122
 40
0.4374999999998121
 40
0.4374999999998121
 40
0.4999999999998119
 40
0.4999999999998119
 40
0.6249999999998579
 40
0.6249999999998579
 40
0.6874999999998809
 40
0.6874999999998809
 40
0.7499999999999039
 40
0.8124999999999268
 40
0.8124999999999268
 40
0.8749999999999497
 40
0.8749999999999497
 40
1.0
 40
1.0
 40
1.0
 40
1.0
 10
361.5852132808313
 20
292.9613797120553
 30
0.0
 10
361.6107730444127
 20
292.962494513798
 30
0.0
 10
361.635777769017
 20
292.9661683592028
 30
0.0
 10
361.6725004610211
 20
292.9752956315319
 30
0.0
 10
361.6846095621323
 20
292.9789457107868
 30
0.0
 10
361.7085599521399
 20
292.9874806351056
 30
0.0
 10
361.7204137600855
 20
292.9923802292838
 30
0.0
 10
361.7548053671247
 20
293.0086115985988
 30
0.0
 10
361.7764503226204
 20
293.0215438677501
 30
0.0
 10
361.8070201132767
 20
293.0440656376664
 30
0.0
 10
361.8169382838869
 20
293.0521408712815
 30
0.0
 10
361.8358721209072
 20
293.0691583079837
 30
0.0
 10
361.8448597520635
 20
293.0780654840546
 30
0.0
 10
361.870425503352
 20
293.1059485327693
 30
0.0
 10
361.8856202642937
 20
293.126074467363
 30
0.0
 10
361.905549142875
 20
293.1586437558217
 30
0.0
 10
361.9116784545794
 20
293.1698600480996
 30
0.0
 10
361.9227135603145
 20
293.1926140999701
 30
0.0
 10
361.9325936168008
 20
293.2157978632912
 30
0.0
 10
361.940181760295
 20
293.239834283984
 30
0.0
 10
361.9465986451979
 20
293.2643064464679
 30
0.0
 10
361.9492296176885
 20
293.2768194887273
 30
0.0
 10
361.9552033148053
 20
293.314569315464
 30
0.0
 10
361.9566596847176
 20
293.339915557319
 30
0.0
 10
361.9555216478254
 20
293.3654463491608
 30
0.0
  0
SPLINE
  5
1B1
330
1F
100
AcDbEntity
  8
1
100
AcDbSpline
210
0.0
220
0.0
230
1.0
 70
     9
 71
     3
 72
   166
 73
   162
 74
     0
 42
0.000000001
 43
0.0000000001
 40
0.0
 40
0.0
 40
0.0
 40
0.0
 40
0.0156250000000005
 40
0.0156250000000005
 40
0.023437500000001
 40
0.023437500000001
 40
0.0312500000000014
 40
0.0312500000000014
 40
0.0468750000000013
 40
0.0468750000000013
 40
0.0625000000000012
 40
0.0625000000000012
 40
0.078125000000001
 40
0.078125000000001
 40
0.0859375000000013
 40
0.0859375000000013
 40
0.0937500000000016
 40
0.1015625000000019
 40
0.1015625000000019
 40
0.1093750000000022
 40
0.1093750000000022
 40
0.1250000000000034
 40
0.1250000000000034
 40
0.1406250000000046
 40
0.1406250000000046
 40
0.1562500000000057
 40
0.1562500000000057
 40
0.1640625000000069
 40
0.1640625000000069
 40
0.171875000000008
 40
0.1796875000000091
 40
0.1796875000000091
 40
0.1875000000000103
 40
0.1875000000000103
 40
0.2031250000000119
 40
0.2031250000000119
 40
0.2187500000000135
 40
0.2187500000000135
 40
0.2343750000000152
 40
0.2343750000000152
 40
0.2421875000000157
 40
0.2421875000000157
 40
0.2500000000000163
 40
0.2578125000000168
 40
0.2578125000000168
 40
0.2656250000000174
 40
0.2656250000000174
 40
0.2812500000000182
 40
0.2812500000000182
 40
0.2968750000000189
 40
0.2968750000000189
 40
0.3125000000000197
 40
0.3125000000000197
 40
0.3281250000000204
 40
0.3281250000000204
 40
0.3359375000000208
 40
0.3359375000000208
 40
0.3437500000000211
 40
0.3437500000000211
 40
0.375000000000022
 40
0.375000000000022
 40
0.3906250000000225
 40
0.3906250000000225
 40
0.3984375000000228
 40
0.3984375000000228
 40
0.406250000000023
 40
0.4140625000000232
 40
0.4140625000000232
 40
0.4218750000000235
 40
0.4218750000000235
 40
0.4375000000000238
 40
0.4375000000000238
 40
0.4531250000000241
 40
0.4531250000000241
 40
0.4687500000000246
 40
0.4687500000000246
 40
0.4765625000000248
 40
0.4765625000000248
 40
0.4843750000000251
 40
0.4843750000000251
 40
0.5000000000000248
 40
0.5000000000000248
 40
0.5156250000000246
 40
0.5156250000000246
 40
0.5312500000000244
 40
0.5312500000000244
 40
0.5468750000000241
 40
0.5468750000000241
 40
0.5546875000000244
 40
0.5546875000000244
 40
0.5625000000000247
 40
0.5625000000000247
 40
0.5781250000000253
 40
0.5781250000000253
 40
0.5937500000000258
 40
0.5937500000000258
 40
0.601562500000026
 40
0.601562500000026
 40
0.6093750000000263
 40
0.6093750000000263
 40
0.6250000000000268
 40
0.6250000000000268
 40
0.6328125000000265
 40
0.6328125000000265
 40
0.6406250000000262
 40
0.6562500000000259
 40
0.6562500000000259
 40
0.6718750000000257
 40
0.6718750000000257
 40
0.6796875000000256
 40
0.6796875000000256
 40
0.6875000000000254
 40
0.6875000000000254
 40
0.7031250000000246
 40
0.7031250000000246
 40
0.7109375000000242
 40
0.7109375000000242
 40
0.7187500000000238
 40
0.7187500000000238
 40
0.7343750000000223
 40
0.7343750000000223
 40
0.7500000000000209
 40
0.7500000000000209
 40
0.7578125000000201
 40
0.7578125000000201
 40
0.7656250000000195
 40
0.7656250000000195
 40
0.7812500000000182
 40
0.7812500000000182
 40
0.7890625000000171
 40
0.7890625000000171
 40
0.7968750000000162
 40
0.7968750000000162
 40
0.812500000000015
 40
0.812500000000015
 40
0.8281250000000138
 40
0.8281250000000138
 40
0.8437500000000126
 40
0.8437500000000126
 40
0.8593750000000113
 40
0.8593750000000113
 40
0.8671875000000104
 40
0.8671875000000104
 40
0.8750000000000097
 40
0.882812500000009
 40
0.882812500000009
 40
0.8906250000000083
 40
0.8906250000000083
 40
0.9062500000000072
 40
0.9062500000000072
 40
0.921875000000006
 40
0.921875000000006
 40
0.9375000000000051
 40
0.9375000000000051
 40
0.9531250000000039
 40
0.9531250000000039
 40
0.9609375000000033
 40
0.9609375000000033
 40
0.9687500000000028
 40
0.9687500000000028
 40
1.0
 40
1.0
 40
1.0
 40
1.0
 10
360.5604448599697
 20
283.0266334934688
 30
0.0
 10
360.5665095347085
 20
283.0257553061029
 30
0.0
 10
360.572774643931
 20
283.0269799348039
 30
0.0
 10
360.5824706916725
 20
283.0319473096334
 30
0.0
 10
360.5857525266944
 20
283.0341257678975
 30
0.0
 10
360.5924165230469
 20
283.0395352367133
 30
0.0
 10
360.5958014744783
 20
283.0427704326973
 30
0.0
 10
360.6060553574025
 20
283.0540116242477
 30
0.0
 10
360.6130382433482
 20
283.0635587278991
 30
0.0
 10
360.6272984549382
 20
283.0867660352685
 30
0.0
 10
360.6345881471662
 20
283.1004608662054
 30
0.0
 10
360.6493142164816
 20
283.1317231850031
 30
0.0
 10
360.656766966395
 20
283.1493113027279
 30
0.0
 10
360.6680821348054
 20
283.1786609962364
 30
0.0
 10
360.6718765938404
 20
283.1889413387738
 30
0.0
 10
360.6794700426147
 20
283.2103853226909
 30
0.0
 10
360.6870782428805
 20
283.2327383427537
 30
0.0
 10
360.6947159202106
 20
283.2569078378936
 30
0.0
 10
360.7023684299547
 20
283.2819913559003
 30
0.0
 10
360.7062072042884
 20
283.295008272643
 30
0.0
 10
360.7177046999944
 20
283.3353022303842
 30
0.0
 10
360.7253366811388
 20
283.3637859093162
 30
0.0
 10
360.7405346202172
 20
283.4239949172246
 30
0.0
 10
360.7481183096912
 20
283.4558049138434
 30
0.0
 10
360.7630682958592
 20
283.5220745957345
 30
0.0
 10
360.7704477618795
 20
283.5565779011856
 30
0.0
 10
360.7813724239163
 20
283.6104034112915
 30
0.0
 10
360.7849918777166
 20
283.6287028795398
 30
0.0
 10
360.7921426282997
 20
283.6657954694616
 30
0.0
 10
360.7992149059303
 20
283.7034281092241
 30
0.0
 10
360.806130604822
 20
283.7421383218416
 30
0.0
 10
360.8129676209549
 20
283.7813900281862
 30
0.0
 10
360.8163513298488
 20
283.8013143961794
 30
0.0
 10
360.8263456999998
 20
283.8616827761721
 30
0.0
 10
360.8327943366212
 20
283.9026795130027
 30
0.0
 10
360.8452645351996
 20
283.9861701024849
 30
0.0
 10
360.8512975831073
 20
284.0287592461242
 30
0.0
 10
360.8628073885685
 20
284.1145556067457
 30
0.0
 10
360.8682982010208
 20
284.1578476449702
 30
0.0
 10
360.8761362566382
 20
284.2233795131569
 30
0.0
 10
360.8786812854487
 20
284.2453151008964
 30
0.0
 10
360.8836100035143
 20
284.2891395763807
 30
0.0
 10
360.888384748133
 20
284.332978003794
 30
0.0
 10
360.8928528397036
 20
284.3768442178269
 30
0.0
 10
360.8971671201191
 20
284.4207243690831
 30
0.0
 10
360.8992498356887
 20
284.4426998726774
 30
0.0
 10
360.9052365465367
 20
284.5083299194889
 30
0.0
 10
360.9088862021904
 20
284.5517455682056
 30
0.0
 10
360.9155072891543
 20
284.6379061270931
 30
0.0
 10
360.9184804896362
 20
284.6807071666835
 30
0.0
 10
360.9236842985656
 20
284.7647210736191
 30
0.0
 10
360.9259243738732
 20
284.8060448763098
 30
0.0
 10
360.9296792605803
 20
284.8873231487002
 30
0.0
 10
360.93118225291
 20
284.9270375811244
 30
0.0
 10
360.9328752158701
 20
284.9850434002325
 30
0.0
 10
360.9333462879571
 20
285.0041281679025
 30
0.0
 10
360.9341015089968
 20
285.0417955498813
 30
0.0
 10
360.9343854834366
 20
285.0603955195854
 30
0.0
 10
360.9353297756102
 20
285.1514198378957
 30
0.0
 10
360.9345913920794
 20
285.2185386793471
 30
0.0
 10
360.9313173181093
 20
285.3109492831015
 30
0.0
 10
360.9298622813952
 20
285.3403649694023
 30
0.0
 10
360.9271198988785
 20
285.3823521199348
 30
0.0
 10
360.9261148647499
 20
285.3959468362293
 30
0.0
 10
360.9239324916371
 20
285.422228436959
 30
0.0
 10
360.9215755256777
 20
285.4476379443264
 30
0.0
 10
360.9188709712083
 20
285.4713112429229
 30
0.0
 10
360.9159921805173
 20
285.4941142295035
 30
0.0
 10
360.9144637077492
 20
285.5050916904507
 30
0.0
 10
360.9096381255122
 20
285.53656111821
 30
0.0
 10
360.9060975920211
 20
285.5556342679859
 30
0.0
 10
360.8983736766852
 20
285.5899918469437
 30
0.0
 10
360.8941811349457
 20
285.6052911711966
 30
0.0
 10
360.8852334836366
 20
285.6317859151804
 30
0.0
 10
360.8804711581438
 20
285.6430249623791
 30
0.0
 10
360.8728932638066
 20
285.6568595157518
 30
0.0
 10
360.8702940411723
 20
285.6609651903948
 30
0.0
 10
360.864977171041
 20
285.6681233874404
 30
0.0
 10
360.8622563315154
 20
285.6711823674329
 30
0.0
 10
360.8539072690521
 20
285.6788045318105
 30
0.0
 10
360.8480838208457
 20
285.6818175977835
 30
0.0
 10
360.8359736597736
 20
285.6836419311885
 30
0.0
 10
360.8297147412522
 20
285.6824557985242
 30
0.0
 10
360.8167908860513
 20
285.6759039999143
 30
0.0
 10
360.8101084884661
 20
285.670514350251
 30
0.0
 10
360.7964525503937
 20
285.6556089735202
 30
0.0
 10
360.7894728391785
 20
285.6461008902201
 30
0.0
 10
360.7787743141786
 20
285.6287374556708
 30
0.0
 10
360.7751653240779
 20
285.6224226257026
 30
0.0
 10
360.7679032519937
 20
285.6088081992187
 30
0.0
 10
360.7642481923986
 20
285.6015066330558
 30
0.0
 10
360.7532111589201
 20
285.5781233199136
 30
0.0
 10
360.7457570771662
 20
285.5605654530584
 30
0.0
 10
360.7306563728802
 20
285.5214567451048
 30
0.0
 10
360.723069983795
 20
285.5000620600178
 30
0.0
 10
360.7116365668016
 20
285.4652208751886
 30
0.0
 10
360.7078164394802
 20
285.4531481320525
 30
0.0
 10
360.700158049622
 20
285.428076518348
 30
0.0
 10
360.6963181380113
 20
285.4150705525478
 30
0.0
 10
360.6848335085038
 20
285.3748685782685
 30
0.0
 10
360.677203462695
 20
285.3464268963405
 30
0.0
 10
360.66579814335
 20
285.3012920961479
 30
0.0
 10
360.661998130908
 20
285.285813719511
 30
0.0
 10
360.6544367601541
 20
285.2541276315445
 30
0.0
 10
360.6431620078006
 20
285.2055427394213
 30
0.0
 10
360.6320873993683
 20
285.1538182912487
 30
0.0
 10
360.6175015970392
 20
285.0820234231123
 30
0.0
 10
360.6103497984642
 20
285.0449596452662
 30
0.0
 10
360.5998547181576
 20
284.9877370429656
 30
0.0
 10
360.5963939712613
 20
284.9683851603908
 30
0.0
 10
360.5895482700356
 20
284.9291218519505
 30
0.0
 10
360.5861619076618
 20
284.9092003509613
 30
0.0
 10
360.576173216533
 20
284.8489253379894
 30
0.0
 10
360.5697220467943
 20
284.8079571994387
 30
0.0
 10
360.5603577048459
 20
284.7453259998906
 30
0.0
 10
360.5572842386817
 20
284.7242221041957
 30
0.0
 10
360.5512671818993
 20
284.6817891908046
 30
0.0
 10
360.548323857156
 20
284.660464117639
 30
0.0
 10
360.5396883178624
 20
284.5961650077288
 30
0.0
 10
360.5341887873397
 20
284.5528572619108
 30
0.0
 10
360.5237176501761
 20
284.465413868222
 30
0.0
 10
360.5187874621797
 20
284.4216253849583
 30
0.0
 10
360.5118453025302
 20
284.3558435626729
 30
0.0
 10
360.5096069100544
 20
284.3338997416517
 30
0.0
 10
360.5052823021778
 20
284.28997881864
 30
0.0
 10
360.5031979102274
 20
284.2680177171892
 30
0.0
 10
360.4972069552105
 20
284.2024465122738
 30
0.0
 10
360.4935503508112
 20
284.1590313923751
 30
0.0
 10
360.4885704499292
 20
284.0943563134192
 30
0.0
 10
360.4869931911254
 20
284.0728475268661
 30
0.0
 10
360.4840232614755
 20
284.0301935430201
 30
0.0
 10
360.4826289686663
 20
284.0090297495535
 30
0.0
 10
360.478716084198
 20
283.946024325014
 30
0.0
 10
360.4764645475013
 20
283.904617371721
 30
0.0
 10
360.4726950523183
 20
283.8233215556294
 30
0.0
 10
360.4711864963342
 20
283.7836540068838
 30
0.0
 10
360.4689123815124
 20
283.7062551678013
 30
0.0
 10
360.4681470918894
 20
283.668440482741
 30
0.0
 10
360.467374522871
 20
283.595461218529
 30
0.0
 10
360.4673637062558
 20
283.5602329073529
 30
0.0
 10
360.467909366592
 20
283.5092779991488
 30
0.0
 10
360.4681855008509
 20
283.4926019926316
 30
0.0
 10
360.4689223152093
 20
283.4600518832577
 30
0.0
 10
360.4698439101389
 20
283.4282597383901
 30
0.0
 10
360.4711326336341
 20
283.3979735441765
 30
0.0
 10
360.472605026899
 20
283.3684407579942
 30
0.0
 10
360.4734343105379
 20
283.3540334121329
 30
0.0
 10
360.4761890071228
 20
283.3121062169661
 30
0.0
 10
360.4783790626476
 20
283.2858780502035
 30
0.0
 10
360.4834599153272
 20
283.2368369203034
 30
0.0
 10
360.4863577756308
 20
283.2139944344833
 30
0.0
 10
360.4928000096738
 20
283.1721672124002
 30
0.0
 10
360.4963484155173
 20
283.1531259675807
 30
0.0
 10
360.5041014190242
 20
283.1187974448263
 30
0.0
 10
360.5082909428237
 20
283.1035876755047
 30
0.0
 10
360.5150103693386
 20
283.083790164192
 30
0.0
 10
360.5173242842991
 20
283.0776881399097
 30
0.0
 10
360.522100860754
 20
283.0664819679764
 30
0.0
 10
360.5245667585287
 20
283.0613731914314
 30
0.0
 10
360.5372025970916
 20
283.0384644446555
 30
0.0
 10
360.5483155104919
 20
283.0283898682007
 30
0.0
 10
360.5604448599696
 20
283.0266334934688
 30
0.0
  0
SPLINE
  5
1B2
330
1F
100
AcDbEntity
  8
1
100
AcDbSpline
210
0.0
220
0.0
230
1.0
 70
     8
 71
     3
 72
    27
 73
    23
 74
     0
 42
0.000000001
 43
0.0000000001
 40
0.0
 40
0.0
 40
0.0
 40
0.0
 40
0.1249999999999971
 40
0.1249999999999971
 40
0.2499999999999942
 40
0.2499999999999942
 40
0.3749999999999916
 40
0.3749999999999916
 40
0.4062499999999917
 40
0.4062499999999917
 40
0.4374999999999915
 40
0.4999999999999926
 40
0.4999999999999926
 40
0.6249999999999939
 40
0.6249999999999939
 40
0.7499999999999952
 40
0.7499999999999952
 40
0.8124999999999964
 40
0.8124999999999964
 40
0.8749999999999976
 40
0.8749999999999976
 40
1.0
 40
1.0
 40
1.0
 40
1.0
 10
279.4048419452975
 20
281.844920505553
 30
0.0
 10
279.2324999144744
 20
281.7373600054167
 30
0.0
 10
279.0671969210444
 20
281.6235070149463
 30
0.0
 10
278.7504907562669
 20
281.3838030337475
 30
0.0
 10
278.5990872536274
 20
281.2579514829171
 30
0.0
 10
278.3104530534909
 20
280.994456032703
 30
0.0
 10
278.1732193278408
 20
280.8568137015254
 30
0.0
 10
278.0110155731084
 20
280.6772750703076
 30
0.0
 10
277.9790270066779
 20
280.6409732272165
 30
0.0
 10
277.9160720152626
 20
280.5676903467707
 30
0.0
 10
277.8235161445465
 20
280.4571488454025
 30
0.0
 10
277.7365492997235
 20
280.3448055722587
 30
0.0
 10
277.5700168701849
 20
280.1178250539215
 30
0.0
 10
277.4688432298979
 20
279.9634537008867
 30
0.0
 10
277.2864109093329
 20
279.6489936458823
 30
0.0
 10
277.2051489716155
 20
279.4889051412664
 30
0.0
 10
277.0988727636158
 20
279.2445871951386
 30
0.0
 10
277.0660449203366
 20
279.1624183737059
 30
0.0
 10
277.0058418874277
 20
278.9967960020501
 30
0.0
 10
276.9786945160219
 20
278.9139738024851
 30
0.0
 10
276.9060724288523
 20
278.665535964338
 30
0.0
 10
276.8693923444996
 20
278.4999523784419
 30
0.0
 10
276.8446352770785
 20
278.3345327719684
 30
0.0
  0
SPLINE
  5
1B3
330
1F
100
AcDbEntity
  8
1
100
AcDbSpline
210
0.0
220
0.0
230
1.0
 70
    28
 71
     3
 72
     8
 73
     4
 74
     0
 42
0.000000001
 43
0.0000000001
 40
0.0
 40
0.0
 40
0.0
 40
0.0
 40
1.0
 40
1.0
 40
1.0
 40
1.0
 10
297.9048419452957
 20
285.6344892185252
 30
0.0
 41
1.0
 10
297.9048419452957
 20
285.648409148181
 30
0.0
 41
0.9988253713303752
 10
297.9048419452957
 20
285.66229528624
 30
0.0
 41
0.9976578088153566
 10
297.9048419452959
 20
285.6761472185252
 30
0.0
 41
0.9964973124549441
  0
SPLINE
  5
1B4
330
1F
100
AcDbEntity
  8
1
100
AcDbSpline
210
0.0
220
0.0
230
1.0
 70
     8
 71
     3
 72
    25
 73
    21
 74
     0
 42
0.000000001
 43
0.0000000001
 40
0.0
 40
0.0
 40
0.0
 40
0.0
 40
0.1250000000000002
 40
0.2500000000000004
 40
0.2500000000000004
 40
0.3750000000000006
 40
0.3750000000000006
 40
0.5000000000000007
 40
0.5000000000000007
 40
0.5625000000000008
 40
0.5625000000000008
 40
0.5937500000000009
 40
0.5937500000000009
 40
0.6250000000000011
 40
0.6250000000000011
 40
0.7500000000000008
 40
0.7500000000000008
 40
0.8750000000000003
 40
0.8750000000000003
 40
1.0
 40
1.0
 40
1.0
 40
1.0
 10
282.2185504442806
 20
284.1391890563498
 30
0.0
 10
282.4649568509191
 20
284.3045323237884
 30
0.0
 10
282.9721803143058
 20
284.61849542431
 30
0.0
 10
283.5081750619098
 20
284.8994913656945
 30
0.0
 10
284.0587802588176
 20
285.1639125140817
 30
0.0
 10
284.3413871664198
 20
285.2878373221452
 30
0.0
 10
284.9217021629505
 20
285.518660909837
 30
0.0
 10
285.2194086733892
 20
285.6255625736096
 30
0.0
 10
285.6778900008752
 20
285.7724864011721
 30
0.0
 10
285.832706557857
 20
285.8192192873642
 30
0.0
 10
286.0680151104667
 20
285.8858366088183
 30
0.0
 10
286.1469654311907
 20
285.907461772771
 30
0.0
 10
286.305913248008
 20
285.9495274642288
 30
0.0
 10
286.3859270735148
 20
285.9699702140563
 30
0.0
 10
286.7870186974965
 20
286.0687698980302
 30
0.0
 10
287.1124323165304
 20
286.1372500226908
 30
0.0
 10
287.7724382064402
 20
286.2525161459108
 30
0.0
 10
288.1070313512371
 20
286.2993020398862
 30
0.0
 10
288.7855939325746
 20
286.3701184700938
 30
0.0
 10
289.12956451327
 20
286.3941480734185
 30
0.0
 10
289.4783562936307
 20
286.406032183635
 30
0.0
  0
SPLINE
  5
1B5
330
1F
100
AcDbEntity
  8
1
100
AcDbSpline
210
0.0
220
0.0
230
1.0
 70
     8
 71
     3
 72
    14
 73
    10
 74
     0
 42
0.000000001
 43
0.0000000001
 40
0.0
 40
0.0
 40
0.0
 40
0.0
 40
0.25
 40
0.25
 40
0.5
 40
0.5
 40
0.75
 40
0.75
 40
1.0
 40
1.0
 40
1.0
 40
1.0
 10
282.2185504442806
 20
284.1391890563498
 30
0.0
 10
281.9773151433811
 20
283.9773156967388
 30
0.0
 10
281.7374815401099
 20
283.8097898715288
 30
0.0
 10
281.261037975191
 20
283.4612102544942
 30
0.0
 10
281.0244279227622
 20
283.2801616595569
 30
0.0
 10
280.5548692218526
 20
282.9018612408505
 30
0.0
 10
280.3219196700618
 20
282.7046209827056
 30
0.0
 10
279.8601500825688
 20
282.2905683002503
 30
0.0
 10
279.6313277482919
 20
282.0737804981173
 30
0.0
 10
279.4048419452968
 20
281.8449205055511
 30
0.0
  0
SPLINE
  5
1B6
330
1F
100
AcDbEntity
  8
1
100
AcDbSpline
210
0.0
220
0.0
230
1.0
 70
     8
 71
     3
 72
    10
 73
     6
 74
     0
 42
0.000000001
 43
0.0000000001
 40
0.0
 40
0.0
 40
0.0
 40
0.0
 40
0.5
 40
0.5
 40
1.0
 40
1.0
 40
1.0
 40
1.0
 10
349.9533679330447
 20
291.9997587897438
 30
0.0
 10
349.7677100100389
 20
292.1032928094745
 30
0.0
 10
349.582460990646
 20
292.2074557693443
 30
0.0
 10
349.2126814485894
 20
292.4168868185534
 30
0.0
 10
349.0281512185534
 20
292.5221553579871
 30
0.0
 10
348.8439441456476
 20
292.6279209497436
 30
0.0
  0
SPLINE
  5
1B7
330
1F
100
AcDbEntity
  8
1
100
AcDbSpline
210
0.0
220
0.0
230
1.0
 70
     8
 71
     3
 72
    10
 73
     6
 74
     0
 42
0.000000001
 43
0.0000000001
 40
0.0
 40
0.0
 40
0.0
 40
0.0
 40
0.5
 40
0.5
 40
1.0
 40
1.0
 40
1.0
 40
1.0
 10
356.9455505384713
 20
292.5063534336696
 30
0.0
 10
356.9072715610621
 20
292.4653154508192
 30
0.0
 10
356.8664287321106
 20
292.4276453039711
 30
0.0
 10
356.7796971354217
 20
292.3586208217918
 30
0.0
 10
356.7336321203285
 20
292.3271956992103
 30
0.0
 10
356.6856654356884
 20
292.2994314143126
 30
0.0
  0
SPLINE
  5
1B8
330
1F
100
AcDbEntity
  8
1
100
AcDbSpline
210
0.0
220
0.0
230
1.0
 70
     8
 71
     3
 72
     8
 73
     4
 74
     0
 42
0.000000001
 43
0.0000000001
 40
0.0
 40
0.0
 40
0.0
 40
0.0
 40
1.0
 40
1.0
 40
1.0
 40
1.0
 10
356.706227831026
 20
291.7826084547
 30
0.0
 10
356.4903633695279
 20
291.7797492665076
 30
0.0
 10
356.273230338067
 20
291.7790097651699
 30
0.0
 10
356.0548419452949
 20
291.7806347888728
 30
0.0
  0
SPLINE
  5
1B9
330
1F
100
AcDbEntity
  8
1
100
AcDbSpline
210
0.0
220
0.0
230
1.0
 70
     8
 71
     3
 72
    10
 73
     6
 74
     0
 42
0.000000001
 43
0.0000000001
 40
0.0
 40
0.0
 40
0.0
 40
0.0
 40
0.5
 40
0.5
 40
1.0
 40
1.0
 40
1.0
 40
1.0
 10
353.9032050517028
 20
292.1512966211142
 30
0.0
 10
354.3636846184921
 20
292.0697193485001
 30
0.0
 10
354.8261782504824
 20
292.0137696594862
 30
0.0
 10
355.7551325940174
 20
291.9524607520345
 30
0.0
 10
356.2215932178199
 20
291.9470996951986
 30
0.0
 10
356.6900824348879
 20
291.967638201753
 30
0.0
  0
SPLINE
  5
1BA
330
1F
100
AcDbEntity
  8
1
100
AcDbSpline
210
0.0
220
0.0
230
1.0
 70
     8
 71
     3
 72
     9
 73
     5
 74
     0
 42
0.000000001
 43
0.0000000001
 40
0.0
 40
0.0
 40
0.0
 40
0.0
 40
0.5
 40
1.0
 40
1.0
 40
1.0
 40
1.0
 10
356.0548419452958
 20
290.3194281230938
 30
0.0
 10
356.1724110316705
 20
290.3185667897894
 30
0.0
 10
356.4067384374105
 20
290.322063829278
 30
0.0
 10
356.6394549612625
 20
290.3358581902972
 30
0.0
 10
356.7554032087563
 20
290.3453230816501
 30
0.0
  0
SPLINE
  5
1BB
330
1F
100
AcDbEntity
  8
1
100
AcDbSpline
210
0.0
220
0.0
230
1.0
 70
     8
 71
     3
 72
     8
 73
     4
 74
     0
 42
0.000000001
 43
0.0000000001
 40
0.0
 40
0.0
 40
0.0
 40
0.0
 40
1.0
 40
1.0
 40
1.0
 40
1.0
 10
356.6900824349092
 20
291.9676382017538
 30
0.0
 10
356.6933486271676
 20
291.9677813911992
 30
0.0
 10
356.6966153316809
 20
291.9679242367343
 30
0.0
 10
356.6998825489358
 20
291.9680667380324
 30
0.0
  0
SPLINE
  5
1BC
330
1F
100
AcDbEntity
  8
1
100
AcDbSpline
210
0.0
220
0.0
230
1.0
 70
     8
 71
     3
 72
    25
 73
    21
 74
     0
 42
0.000000001
 43
0.0000000001
 40
0.0
 40
0.0
 40
0.0
 40
0.0
 40
0.1249999999999951
 40
0.1249999999999951
 40
0.2499999999999902
 40
0.2499999999999902
 40
0.3749999999999852
 40
0.3749999999999852
 40
0.4999999999999803
 40
0.4999999999999803
 40
0.5312499999999806
 40
0.5312499999999806
 40
0.5624999999999809
 40
0.6249999999999812
 40
0.6249999999999812
 40
0.7499999999999874
 40
0.7499999999999874
 40
0.8749999999999936
 40
0.8749999999999936
 40
1.0
 40
1.0
 40
1.0
 40
1.0
 10
349.9565468439075
 20
291.9068463954465
 30
0.0
 10
350.2070798605993
 20
291.7461308954117
 30
0.0
 10
350.4629335940582
 20
291.5958729131221
 30
0.0
 10
350.9848351607554
 20
291.3160700766992
 30
0.0
 10
351.2508832424409
 20
291.1865241723173
 30
0.0
 10
351.792901628047
 20
290.9481672097111
 30
0.0
 10
352.068871703142
 20
290.8393546629422
 30
0.0
 10
352.6306358946773
 20
290.6427485225125
 30
0.0
 10
352.9164292457627
 20
290.5549526781588
 30
0.0
 10
353.2798672673039
 20
290.4587204702802
 30
0.0
 10
353.3529197638494
 20
290.440138526584
 30
0.0
 10
353.4990518195493
 20
290.4044812898979
 30
0.0
 10
353.7184776942715
 20
290.3532029071911
 30
0.0
 10
353.9385792051413
 20
290.3084861065998
 30
0.0
 10
354.3796674375482
 20
290.227681031918
 30
0.0
 10
354.6749048998159
 20
290.1853017005024
 30
0.0
 10
355.2676945530909
 20
290.1232290931258
 30
0.0
 10
355.5652467395872
 20
290.1035356110752
 30
0.0
 10
356.1626760299607
 20
290.086990503112
 30
0.0
 10
356.4625529662893
 20
290.090137319197
 30
0.0
 10
356.7636249389701
 20
290.1050204521059
 30
0.0
  0
SPLINE
  5
1BD
330
1F
100
AcDbEntity
  8
1
100
AcDbSpline
210
0.0
220
0.0
230
1.0
 70
     8
 71
     3
 72
    22
 73
    18
 74
     0
 42
0.000000001
 43
0.0000000001
 40
0.0
 40
0.0
 40
0.0
 40
0.0
 40
0.125
 40
0.125
 40
0.25
 40
0.25
 40
0.375
 40
0.375
 40
0.5
 40
0.5
 40
0.625
 40
0.625
 40
0.75
 40
0.75
 40
0.875
 40
0.875
 40
1.0
 40
1.0
 40
1.0
 40
1.0
 10
356.0548419452961
 20
290.3194281230938
 30
0.0
 10
355.7903077773827
 20
290.3339381808379
 30
0.0
 10
355.5261897027788
 20
290.3548551335692
 30
0.0
 10
354.9988852015084
 20
290.4097304850572
 30
0.0
 10
354.7356994514087
 20
290.4436910096491
 30
0.0
 10
354.2104509414614
 20
290.5252062388872
 30
0.0
 10
353.9483889158948
 20
290.5727628202877
 30
0.0
 10
353.4256481460416
 20
290.6822819030105
 30
0.0
 10
353.1649341760118
 20
290.7442550194724
 30
0.0
 10
352.6453425578389
 20
290.8835937014652
 30
0.0
 10
352.3891431577729
 20
290.9602394466057
 30
0.0
 10
351.8836655393359
 20
291.1278570547499
 30
0.0
 10
351.6343876709726
 20
291.2188289751757
 30
0.0
 10
351.1425861762156
 20
291.4156348170604
 30
0.0
 10
350.9000627608512
 20
291.5214678350097
 30
0.0
 10
350.4216984838958
 20
291.7487055413665
 30
0.0
 10
350.1858576682714
 20
291.8701085359629
 30
0.0
 10
349.9533679330447
 20
291.9997587897439
 30
0.0
  0
SPLINE
  5
1BE
330
1F
100
AcDbEntity
  8
1
100
AcDbSpline
210
0.0
220
0.0
230
1.0
 70
     8
 71
     3
 72
    10
 73
     6
 74
     0
 42
0.000000001
 43
0.0000000001
 40
0.0
 40
0.0
 40
0.0
 40
0.0
 40
0.5
 40
0.5
 40
1.0
 40
1.0
 40
1.0
 40
1.0
 10
353.903205051703
 20
292.1512966211142
 30
0.0
 10
354.2532928554008
 20
292.0566729938322
 30
0.0
 10
354.6070351890004
 20
291.9777957970067
 30
0.0
 10
355.3236507071382
 20
291.8534183757731
 30
0.0
 10
355.6865336879727
 20
291.8079217765272
 30
0.0
 10
356.0548419452937
 20
291.7806347888729
 30
0.0
  0
SPLINE
  5
1BF
330
1F
100
AcDbEntity
  8
1
100
AcDbSpline
210
0.0
220
0.0
230
1.0
 70
    24
 71
     3
 72
    22
 73
    18
 74
     0
 42
0.000000001
 43
0.0000000001
 40
0.0
 40
0.0
 40
0.0
 40
0.0
 40
0.1252825607269242
 40
0.1252825607269242
 40
0.2505651214538483
 40
0.2505651214538483
 40
0.3758476821807725
 40
0.3758476821807725
 40
0.5011302429076967
 40
0.5011302429076967
 40
0.6264128036346209
 40
0.6264128036346209
 40
0.751695364361545
 40
0.751695364361545
 40
0.8769779250884692
 40
0.8769779250884692
 40
1.0
 40
1.0
 40
1.0
 40
1.0
 10
356.0548419452958
 20
291.7806347888728
 30
0.0
 10
356.0548419452958
 20
291.5372533143881
 30
0.0
 10
356.0548419452958
 20
291.3097977248302
 30
0.0
 10
356.0548419452958
 20
290.8940940794103
 30
0.0
 10
356.0548419452958
 20
290.705853328988
 30
0.0
 10
356.0548419452958
 20
290.3746815545117
 30
0.0
 10
356.0548419452958
 20
290.231756350362
 30
0.0
 10
356.0548419452958
 20
289.9958494151347
 30
0.0
 10
356.0548419452958
 20
289.9028718298083
 30
0.0
 10
356.0548419452958
 20
289.769875257555
 30
0.0
 10
356.0548419452958
 20
289.7298586078663
 30
0.0
 10
356.0548419452958
 20
289.7040826934392
 30
0.0
 10
356.0548419452958
 20
289.7183238816783
 30
0.0
 10
356.0548419452958
 20
289.8006039984212
 30
0.0
 10
356.0548419452957
 20
289.8686414809609
 30
0.0
 10
356.0548419452958
 20
290.0546179369921
 30
0.0
 10
356.0548419452958
 20
290.1716312029334
 30
0.0
 10
356.0548419452958
 20
290.3116845119998
 30
0.0
  0
SPLINE
  5
1C0
330
1F
100
AcDbEntity
  8
1
100
AcDbSpline
210
0.0
220
0.0
230
1.0
 70
     9
 71
     3
 72
   120
 73
   116
 74
     0
 42
0.000000001
 43
0.0000000001
 40
0.0
 40
0.0
 40
0.0
 40
0.0
 40
0.0312500000000265
 40
0.0312500000000265
 40
0.0468750000000434
 40
0.0468750000000434
 40
0.0546875000000519
 40
0.0546875000000519
 40
0.0625000000000603
 40
0.0625000000000603
 40
0.0937500000000941
 40
0.0937500000000941
 40
0.1015625000001009
 40
0.1015625000001009
 40
0.1093750000001078
 40
0.1093750000001078
 40
0.1250000000001159
 40
0.1250000000001159
 40
0.1562500000001269
 40
0.1562500000001269
 40
0.1718750000001323
 40
0.1718750000001323
 40
0.1875000000001378
 40
0.2031250000001432
 40
0.2031250000001432
 40
0.2187500000001486
 40
0.2187500000001486
 40
0.2500000000001593
 40
0.2500000000001593
 40
0.2578125000001621
 40
0.2578125000001621
 40
0.265625000000165
 40
0.265625000000165
 40
0.2812500000001706
 40
0.2812500000001706
 40
0.312500000000182
 40
0.312500000000182
 40
0.3281250000001875
 40
0.3281250000001875
 40
0.3437500000001931
 40
0.3437500000001931
 40
0.3750000000001999
 40
0.3750000000001999
 40
0.3828125000002016
 40
0.3828125000002016
 40
0.3906250000002034
 40
0.4062500000002013
 40
0.4218750000001993
 40
0.4218750000001993
 40
0.4296875000001982
 40
0.4296875000001982
 40
0.4375000000001971
 40
0.4375000000001971
 40
0.4687500000001997
 40
0.4687500000001997
 40
0.4843750000001971
 40
0.4843750000001971
 40
0.4921875000001997
 40
0.4921875000001997
 40
0.5000000000002021
 40
0.5000000000002021
 40
0.5312500000002119
 40
0.5312500000002119
 40
0.5390625000002144
 40
0.5390625000002144
 40
0.5468750000002168
 40
0.562500000000222
 40
0.578125000000227
 40
0.578125000000227
 40
0.593750000000232
 40
0.593750000000232
 40
0.6250000000002359
 40
0.6250000000002359
 40
0.6328125000002329
 40
0.6328125000002329
 40
0.6406250000002302
 40
0.6406250000002302
 40
0.6562500000002247
 40
0.6562500000002247
 40
0.6875000000002104
 40
0.6875000000002104
 40
0.6953125000002066
 40
0.6953125000002066
 40
0.703125000000203
 40
0.7187500000001954
 40
0.7343750000001882
 40
0.7343750000001882
 40
0.7421875000001841
 40
0.7421875000001841
 40
0.7500000000001802
 40
0.7500000000001802
 40
0.7812500000001635
 40
0.7812500000001635
 40
0.7968750000001544
 40
0.7968750000001544
 40
0.8125000000001453
 40
0.8125000000001453
 40
0.8437500000001241
 40
0.8437500000001241
 40
0.8593750000001135
 40
0.8593750000001135
 40
0.8750000000001028
 40
0.8750000000001028
 40
0.9062500000000763
 40
0.9062500000000763
 40
0.92187500000006
 40
0.92187500000006
 40
0.9375000000000436
 40
0.9531250000000277
 40
0.9531250000000277
 40
0.9609375000000227
 40
0.9609375000000227
 40
0.9687500000000184
 40
0.9687500000000184
 40
1.0
 40
1.0
 40
1.0
 40
1.0
 10
359.1115316100779
 20
287.3161106208127
 30
0.0
 10
359.1703029428085
 20
287.315084763384
 30
0.0
 10
359.2279566074853
 20
287.3082145779503
 30
0.0
 10
359.3128299279138
 20
287.2895139135645
 30
0.0
 10
359.3408510884354
 20
287.2818703774553
 30
0.0
 10
359.3824679621267
 20
287.2682405719601
 30
0.0
 10
359.3963101477893
 20
287.2633201752446
 30
0.0
 10
359.4236265224025
 20
287.2528291974254
 30
0.0
 10
359.437096603449
 20
287.2472631235103
 30
0.0
 10
359.5035253308637
 20
287.2178634340705
 30
0.0
 10
359.553745727715
 20
287.1893669869697
 30
0.0
 10
359.6128906727973
 20
287.1475924254585
 30
0.0
 10
359.6245364702635
 20
287.1389270123117
 30
0.0
 10
359.6474554514178
 20
287.1209654338687
 30
0.0
 10
359.658734223136
 20
287.1116612087377
 30
0.0
 10
359.6916324909324
 20
287.0831166518158
 30
0.0
 10
359.7124471469716
 20
287.0631477771132
 30
0.0
 10
359.7716395255683
 20
287.0005193011577
 30
0.0
 10
359.8067959564638
 20
286.955163141059
 30
0.0
 10
359.8529119220042
 20
286.8816313064676
 30
0.0
 10
359.8669564541705
 20
286.8565363990271
 30
0.0
 10
359.8923837733003
 20
286.8054249628023
 30
0.0
 10
359.9151888872794
 20
286.7533277836584
 30
0.0
 10
359.9328278350542
 20
286.6993004410929
 30
0.0
 10
359.9478507941924
 20
286.6443007007538
 30
0.0
 10
359.9540542805232
 20
286.6162320079545
 30
0.0
 10
359.9683600104346
 20
286.5322943700139
 30
0.0
 10
359.9723746887549
 20
286.4761660328543
 30
0.0
 10
359.9706561637341
 20
286.4058065541692
 30
0.0
 10
359.969972653243
 20
286.3917245507217
 30
0.0
 10
359.9679182324232
 20
286.3635400401185
 30
0.0
 10
359.9665436139711
 20
286.3494084720311
 30
0.0
 10
359.96139557883
 20
286.3071889281139
 30
0.0
 10
359.9566270940496
 20
286.2794404531443
 30
0.0
 10
359.9384484721055
 20
286.1973438935743
 30
0.0
 10
359.921201326146
 20
286.1441348730762
 30
0.0
 10
359.8875059731701
 20
286.0666108241741
 30
0.0
 10
359.8749003453818
 20
286.0410687985118
 30
0.0
 10
359.8475266936358
 20
285.9917784238346
 30
0.0
 10
359.8327182383998
 20
285.9679127813446
 30
0.0
 10
359.7849708363245
 20
285.8986102448256
 30
0.0
 10
359.7487448477148
 20
285.8554443623539
 30
0.0
 10
359.6976119417199
 20
285.8054717404383
 30
0.0
 10
359.6871146816322
 20
285.7957052458505
 30
0.0
 10
359.6657578186407
 20
285.7767871940382
 30
0.0
 10
359.6331023368483
 20
285.7492613445637
 30
0.0
 10
359.5756143205382
 20
285.7075761397468
 30
0.0
 10
359.5263428006984
 20
285.6786951764064
 30
0.0
 10
359.4881156461664
 20
285.6587598495803
 30
0.0
 10
359.4751606130976
 20
285.6524028478992
 30
0.0
 10
359.4488128569221
 20
285.6402805277369
 30
0.0
 10
359.4354119886749
 20
285.6345148865648
 30
0.0
 10
359.3681230278523
 20
285.6075294546177
 30
0.0
 10
359.3127535814867
 20
285.5914759626362
 30
0.0
 10
359.2273952058985
 20
285.5756422625318
 30
0.0
 10
359.1985557026426
 20
285.5717486795027
 30
0.0
 10
359.1546907495823
 20
285.5680736699073
 30
0.0
 10
359.1400211466342
 20
285.5672167926787
 30
0.0
 10
359.1108254261267
 20
285.5662431990746
 30
0.0
 10
359.096263441432
 20
285.5661232773398
 30
0.0
 10
359.0236300700519
 20
285.5673290733629
 30
0.0
 10
358.966083288171
 20
285.5740176017879
 30
0.0
 10
358.894856002906
 20
285.5896138101272
 30
0.0
 10
358.8806045636686
 20
285.5931103513668
 30
0.0
 10
358.8524335249508
 20
285.6007752485073
 30
0.0
 10
358.8106608434381
 20
285.6132791265224
 30
0.0
 10
358.7433881257015
 20
285.6390106781942
 30
0.0
 10
358.6920079243997
 20
285.6646918488688
 30
0.0
 10
358.6418491633066
 20
285.6929367813304
 30
0.0
 10
358.6172840532482
 20
285.7084218435792
 30
0.0
 10
358.5468738878536
 20
285.757806703533
 30
0.0
 10
358.5038655287834
 20
285.7947867868666
 30
0.0
 10
358.4548249298837
 20
285.8459406447662
 30
0.0
 10
358.4452550472926
 20
285.8564201800218
 30
0.0
 10
358.4265958037266
 20
285.8778824996192
 30
0.0
 10
358.4174847065371
 20
285.8888941620011
 30
0.0
 10
358.3911042791014
 20
285.9224106625202
 30
0.0
 10
358.3747521190332
 20
285.9454214504603
 30
0.0
 10
358.3292626890467
 20
286.016394069309
 30
0.0
 10
358.3036588961637
 20
286.0662783016796
 30
0.0
 10
358.2776344432386
 20
286.1319293936753
 30
0.0
 10
358.2727218833321
 20
286.1452567846624
 30
0.0
 10
358.2635940889894
 20
286.1720007193991
 30
0.0
 10
358.2509236437384
 20
286.2123091316229
 30
0.0
 10
358.2348023575857
 20
286.2804369648275
 30
0.0
 10
358.2271648850238
 20
286.3359439573626
 30
0.0
 10
358.2234391160238
 20
286.3779583134506
 30
0.0
 10
358.2225314955652
 20
286.3920272151144
 30
0.0
 10
358.2213971806947
 20
286.4202957135703
 30
0.0
 10
358.2211711360054
 20
286.4345316376483
 30
0.0
 10
358.2217797822192
 20
286.5055738402669
 30
0.0
 10
358.2277464032451
 20
286.5616290167073
 30
0.0
 10
358.2447412949043
 20
286.6445559615006
 30
0.0
 10
358.2517563306221
 20
286.6720041366496
 30
0.0
 10
358.2685714809475
 20
286.7264954974636
 30
0.0
 10
358.2784298761557
 20
286.7536467302187
 30
0.0
 10
358.3116472056262
 20
286.8327513656054
 30
0.0
 10
358.3387182102068
 20
286.8828676446075
 30
0.0
 10
358.3867168761114
 20
286.9540711459928
 30
0.0
 10
358.4039566758422
 20
286.977139352068
 30
0.0
 10
358.4410250732127
 20
287.0218772384533
 30
0.0
 10
358.4605794126968
 20
287.043210091095
 30
0.0
 10
358.5220048992178
 20
287.1039440660344
 30
0.0
 10
358.5667014128811
 20
287.1402195171183
 30
0.0
 10
358.6394940925956
 20
287.1881260558776
 30
0.0
 10
358.6648359618451
 20
287.2030466137123
 30
0.0
 10
358.7163710876052
 20
287.2300116258717
 30
0.0
 10
358.7689754334937
 20
287.2542716532703
 30
0.0
 10
358.8236794658865
 20
287.2732101494548
 30
0.0
 10
358.8655038783214
 20
287.2853926416673
 30
0.0
 10
358.8795783233672
 20
287.2891159668869
 30
0.0
 10
358.9079977306916
 20
287.2958756051595
 30
0.0
 10
358.9223765216166
 20
287.2989177827973
 30
0.0
 10
358.9945029351863
 20
287.3122858718646
 30
0.0
 10
359.0527602773474
 20
287.3171364782414
 30
0.0
 10
359.1115316100779
 20
287.3161106208127
 30
0.0
  0
SPLINE
  5
1C1
330
1F
100
AcDbEntity
  8
1
100
AcDbSpline
210
0.0
220
0.0
230
1.0
 70
     8
 71
     3
 72
    49
 73
    45
 74
     0
 42
0.000000001
 43
0.0000000001
 40
0.0
 40
0.0
 40
0.0
 40
0.0
 40
0.1249999999999993
 40
0.1249999999999993
 40
0.2499999999999987
 40
0.2499999999999987
 40
0.374999999999998
 40
0.374999999999998
 40
0.4374999999999975
 40
0.4374999999999975
 40
0.4999999999999968
 40
0.4999999999999968
 40
0.5624999999999963
 40
0.5624999999999963
 40
0.6249999999999957
 40
0.6249999999999957
 40
0.6562499999999955
 40
0.6562499999999955
 40
0.6874999999999952
 40
0.6874999999999952
 40
0.7187499999999949
 40
0.7187499999999949
 40
0.7499999999999946
 40
0.7499999999999946
 40
0.7656249999999982
 40
0.7656249999999982
 40
0.7812500000000017
 40
0.7812500000000017
 40
0.7968750000000054
 40
0.7968750000000054
 40
0.8125000000000088
 40
0.8281250000000124
 40
0.8281250000000124
 40
0.8437500000000166
 40
0.8437500000000166
 40
0.8593750000000211
 40
0.8593750000000211
 40
0.8750000000000255
 40
0.8750000000000255
 40
0.9062500000000127
 40
0.9062500000000127
 40
0.9375
 40
0.9375
 40
1.0
 40
1.0
 40
1.0
 40
1.0
 10
353.4312554753836
 20
292.253646155239
 30
0.0
 10
353.3761816751194
 20
292.2667178854137
 30
0.0
 10
353.3217246560094
 20
292.2810480312242
 30
0.0
 10
353.2142361484101
 20
292.3126334570934
 30
0.0
 10
353.1612019140031
 20
292.3298829146047
 30
0.0
 10
353.0568668261866
 20
292.3679647868421
 30
0.0
 10
353.0055583357054
 20
292.3887810679235
 30
0.0
 10
352.9303183583171
 20
292.4235952492483
 30
0.0
 10
352.9055473072777
 20
292.4357988220316
 30
0.0
 10
352.8570835462506
 20
292.4614671404181
 30
0.0
 10
352.8333468757675
 20
292.4749485461903
 30
0.0
 10
352.7871016069167
 20
292.5035211831262
 30
0.0
 10
352.7645886607522
 20
292.518606717719
 30
0.0
 10
352.7211915073211
 20
292.5509172363395
 30
0.0
 10
352.7002705195296
 20
292.5681720059812
 30
0.0
 10
352.6711801438749
 20
292.5959217644435
 30
0.0
 10
352.6618499872417
 20
292.605498737019
 30
0.0
 10
352.6441107926417
 20
292.6254741161974
 30
0.0
 10
352.6356896255646
 20
292.635895990823
 30
0.0
 10
352.6203210294982
 20
292.6574285249805
 30
0.0
 10
352.6133356323411
 20
292.6685721071768
 30
0.0
 10
352.6012003309432
 20
292.6918485606154
 30
0.0
 10
352.5960405109203
 20
292.7039761474222
 30
0.0
 10
352.5902602412788
 20
292.7232212748156
 30
0.0
 10
352.5886837538327
 20
292.7297653697013
 30
0.0
 10
352.5863760604754
 20
292.7429507376473
 30
0.0
 10
352.5856361666577
 20
292.7496187342514
 30
0.0
 10
352.585101277384
 20
292.7631260293152
 30
0.0
 10
352.5853146792397
 20
292.7700223934916
 30
0.0
 10
352.586794910262
 20
292.7836803214482
 30
0.0
 10
352.5893072359087
 20
292.7971906559326
 30
0.0
 10
352.5939188826092
 20
292.810399447795
 30
0.0
 10
352.5996061158719
 20
292.8234530444797
 30
0.0
 10
352.6029789199004
 20
292.8298601529284
 30
0.0
 10
352.6105241919213
 20
292.8421227418685
 30
0.0
 10
352.6147180132978
 20
292.8480302590127
 30
0.0
 10
352.623863108652
 20
292.8594423911935
 30
0.0
 10
352.6288415206459
 20
292.864969758096
 30
0.0
 10
352.6444562097133
 20
292.8806705972403
 30
0.0
 10
352.655832879671
 20
292.8900869670318
 30
0.0
 10
352.6799678489997
 20
292.9074166788675
 30
0.0
 10
352.6927946523693
 20
292.9153524854237
 30
0.0
 10
352.7320927358626
 20
292.9370212442408
 30
0.0
 10
352.7595461986972
 20
292.948842174295
 30
0.0
 10
352.7877239497383
 20
292.9591476927993
 30
0.0
  0
SPLINE
  5
1C2
330
1F
100
AcDbEntity
  8
1
100
AcDbSpline
210
0.0
220
0.0
230
1.0
 70
     8
 71
     3
 72
    10
 73
     6
 74
     0
 42
0.000000001
 43
0.0000000001
 40
0.0
 40
0.0
 40
0.0
 40
0.0
 40
0.5
 40
0.5
 40
1.0
 40
1.0
 40
1.0
 40
1.0
 10
296.5466464170053
 20
278.9447555289118
 30
0.0
 10
296.7683716543179
 20
278.9503943931288
 30
0.0
 10
296.9924079880634
 20
278.9552466066621
 30
0.0
 10
297.4451070436771
 20
278.9619294884054
 30
0.0
 10
297.6737690968969
 20
278.9637605966049
 30
0.0
 10
297.9048419452957
 20
278.9637605966049
 30
0.0
  0
SPLINE
  5
1C3
330
1F
100
AcDbEntity
  8
1
100
AcDbSpline
210
0.0
220
0.0
230
1.0
 70
     8
 71
     3
 72
    28
 73
    24
 74
     0
 42
0.000000001
 43
0.0000000001
 40
0.0
 40
0.0
 40
0.0
 40
0.0
 40
0.052385330368616
 40
0.052385330368616
 40
0.1116112472205778
 40
0.1116112472205778
 40
0.1708371640725398
 40
0.1708371640725398
 40
0.2892889977764625
 40
0.2892889977764625
 40
0.4077408314803856
 40
0.4077408314803856
 40
0.4669667483323475
 40
0.4669667483323475
 40
0.5261926651843094
 40
0.5261926651843094
 40
0.6446444988882322
 40
0.6446444988882322
 40
0.7630963325921549
 40
0.7630963325921549
 40
0.8815481662960774
 40
0.8815481662960774
 40
1.0
 40
1.0
 40
1.0
 40
1.0
 10
322.8252156820262
 20
281.0832512901717
 30
0.0
 10
322.3950321281734
 20
281.0080914752541
 30
0.0
 10
321.9646069741007
 20
280.9352872716092
 30
0.0
 10
321.0471676875769
 20
280.785114624725
 30
0.0
 10
320.5600709808979
 20
280.7083716402972
 30
0.0
 10
319.5853777486363
 20
280.5604668633134
 30
0.0
 10
319.0977747603538
 20
280.4893210949963
 30
0.0
 10
317.6341067421235
 20
280.2841369146522
 30
0.0
 10
316.6571865367221
 20
280.1583528398285
 30
0.0
 10
314.7004679975247
 20
279.9280086568619
 30
0.0
 10
313.7206658062495
 20
279.8234600736845
 30
0.0
 10
312.2482971104333
 20
279.6818457020685
 30
0.0
 10
311.7569925615167
 20
279.6371672850789
 30
0.0
 10
310.7738573928672
 20
279.5527510399021
 30
0.0
 10
310.2820176963744
 20
279.5130114700976
 30
0.0
 10
308.8055695167034
 20
279.4008911083042
 30
0.0
 10
307.8200275191157
 20
279.3356226101514
 30
0.0
 10
305.8459412566654
 20
279.2220420834816
 30
0.0
 10
304.8573960536606
 20
279.1737241523384
 30
0.0
 10
302.876936788051
 20
279.0916658205685
 30
0.0
 10
301.8850228918512
 20
279.057918382439
 30
0.0
 10
299.897623803634
 20
279.0024525004141
 30
0.0
 10
298.902139439827
 20
278.9807280160605
 30
0.0
 10
297.9048419452957
 20
278.9637605966049
 30
0.0
  0
SPLINE
  5
1C4
330
1F
100
AcDbEntity
  8
1
100
AcDbSpline
210
0.0
220
0.0
230
1.0
 70
     8
 71
     3
 72
    10
 73
     6
 74
     0
 42
0.000000001
 43
0.0000000001
 40
0.0
 40
0.0
 40
0.0
 40
0.0
 40
0.5
 40
0.5
 40
1.0
 40
1.0
 40
1.0
 40
1.0
 10
293.5322589432653
 20
278.9124480222337
 30
0.0
 10
294.0315333033497
 20
278.9157331808711
 30
0.0
 10
294.5322106393259
 20
278.9206095237845
 30
0.0
 10
295.5368037346519
 20
278.9319408402313
 30
0.0
 10
296.0407242047739
 20
278.9383970207098
 30
0.0
 10
296.546646417007
 20
278.9447555289119
 30
0.0
  0
SPLINE
  5
1C5
330
1F
100
AcDbEntity
  8
1
100
AcDbSpline
210
0.0
220
0.0
230
1.0
 70
     8
 71
     3
 72
    33
 73
    29
 74
     0
 42
0.000000001
 43
0.0000000001
 40
0.0
 40
0.0
 40
0.0
 40
0.0
 40
0.1250000000000432
 40
0.1250000000000432
 40
0.2500000000000865
 40
0.2500000000000865
 40
0.3125000000001081
 40
0.3125000000001081
 40
0.3750000000001297
 40
0.4375000000001514
 40
0.4375000000001514
 40
0.4687500000001621
 40
0.4687500000001621
 40
0.5000000000001731
 40
0.5000000000001731
 40
0.6250000000001347
 40
0.6250000000001347
 40
0.6875000000001156
 40
0.6875000000001156
 40
0.7500000000000965
 40
0.7500000000000965
 40
0.8750000000000582
 40
0.8750000000000582
 40
0.9062500000000436
 40
0.9062500000000436
 40
0.9375000000000287
 40
0.9375000000000287
 40
1.0
 40
1.0
 40
1.0
 40
1.0
 10
356.6856654356885
 20
292.2994314143128
 30
0.0
 10
356.6320225262552
 20
292.2683815923077
 30
0.0
 10
356.5767283188266
 20
292.242228692536
 30
0.0
 10
356.4624034438795
 20
292.1992065454195
 30
0.0
 10
356.4033766162352
 20
292.1823347881165
 30
0.0
 10
356.3113419861717
 20
292.1645469950142
 30
0.0
 10
356.2805486647544
 20
292.1599762488952
 30
0.0
 10
356.2188436710882
 20
292.1535389798428
 30
0.0
 10
356.1569823028653
 20
292.1497990228765
 30
0.0
 10
356.0948014534162
 20
292.1514888474323
 30
0.0
 10
356.0480438590865
 20
292.1548423689316
 30
0.0
 10
356.0324026464095
 20
292.1563137995281
 30
0.0
 10
356.0014116005433
 20
292.1599215157261
 30
0.0
 10
355.986028817542
 20
292.1620585558013
 30
0.0
 10
355.9096484944157
 20
292.1743665829335
 30
0.0
 10
355.8502435680733
 20
292.1893589921655
 30
0.0
 10
355.7631861120785
 20
292.2193136945888
 30
0.0
 10
355.7344375301906
 20
292.2305934304175
 30
0.0
 10
355.678405945448
 20
292.2553263392858
 30
0.0
 10
355.6510243879774
 20
292.2688061947357
 30
0.0
 10
355.5706258641594
 20
292.3125628634723
 30
0.0
 10
355.5193399800675
 20
292.3461170873289
 30
0.0
 10
355.4578801570419
 20
292.3940163027791
 30
0.0
 10
355.445744196416
 20
292.4038819652105
 30
0.0
 10
355.4219705654588
 20
292.4240293796677
 30
0.0
 10
355.4103053703479
 20
292.4343322762709
 30
0.0
 10
355.3759671179282
 20
292.4659232362167
 30
0.0
 10
355.3539502204292
 20
292.4878922509582
 30
0.0
 10
355.3328031710407
 20
292.5107715141308
 30
0.0
  0
SPLINE
  5
1C6
330
1F
100
AcDbEntity
  8
1
100
AcDbSpline
210
0.0
220
0.0
230
1.0
 70
    12
 71
     2
 72
     6
 73
     3
 74
     0
 42
0.000000001
 43
0.0000000001
 40
0.0
 40
0.0
 40
0.0
 40
1.0
 40
1.0
 40
1.0
 10
355.1604746850268
 20
298.8395566606611
 30
0.0
 41
0.4999980428958862
 10
355.2726996915187
 20
298.8393275727381
 30
0.0
 41
0.5000019571041139
 10
355.3849217164164
 20
298.8390977206083
 30
0.0
 41
0.4999980428958862
  0
SPLINE
  5
1C7
330
1F
100
AcDbEntity
  8
1
100
AcDbSpline
210
0.0
220
0.0
230
1.0
 70
     8
 71
     3
 72
    10
 73
     6
 74
     0
 42
0.000000001
 43
0.0000000001
 40
0.0
 40
0.0
 40
0.0
 40
0.0
 40
0.4999999999999997
 40
0.4999999999999997
 40
1.0
 40
1.0
 40
1.0
 40
1.0
 10
354.9683402395562
 20
295.3952572887716
 30
0.0
 10
354.7821966597025
 20
295.9574845871019
 30
0.0
 10
354.6058901055059
 20
296.5225753253383
 30
0.0
 10
354.2730780221512
 20
297.6585206421481
 30
0.0
 10
354.1165525285151
 20
298.2293694093018
 30
0.0
 10
353.9693616459656
 20
298.8029353695206
 30
0.0
  0
SPLINE
  5
1C8
330
1F
100
AcDbEntity
  8
1
100
AcDbSpline
210
0.0
220
0.0
230
1.0
 70
    28
 71
     4
 72
    13
 73
     8
 74
     0
 42
0.000000001
 43
0.0000000001
 40
0.0
 40
0.0
 40
0.0
 40
0.0
 40
0.0
 40
0.445070075949463
 40
0.445070075949463
 40
0.445070075949463
 40
1.0
 40
1.0
 40
1.0
 40
1.0
 40
1.0
 10
297.9048419452957
 20
285.6344892185252
 30
0.0
 41
0.9970689264163359
 10
297.9048419452957
 20
284.9776292717008
 30
0.0
 41
0.9970689264163359
 10
297.9048419452957
 20
284.2400924609606
 30
0.0
 41
0.9985670306924308
 10
297.9048419452957
 20
283.4666041016551
 30
0.0
 41
1.00156323924462
 10
297.9048419452957
 20
281.7884115218268
 30
0.0
 41
1.00156323924462
 10
297.9048419452957
 20
280.7786378531974
 30
0.0
 41
0.9969053244854219
 10
297.9048419452957
 20
279.8077138826203
 30
0.0
 41
0.9963009870103007
 10
297.9048419452957
 20
278.9637605966049
 30
0.0
 41
0.9975999065790869
  0
LINE
  5
1E2
330
1F
100
AcDbEntity
  8
4
100
AcDbLine
 10
270.532259
 20
288.907994
 30
0.0
 11
366.485235
 21
288.907994
 31
0.0
  0
LINE
  5
1E3
330
1F
100
AcDbEntity
  8
SK4
100
AcDbLine
 10
214.904842
 20
288.907994
 30
0.0
 11
277.404842
 21
288.907994
 31
0.0
  0
MTEXT
  5
1E9
330
1F
100
AcDbEntity
  8
SK6
100
AcDbMText
 10
258.520787
 20
241.27662
 30
0.0
 40
3.5
 41
0.0
 71
     7
 72
     5
  1
\W0.7119;803D-21-63-S25
  7
cesky
 73
     2
 44
0.8433729999999998
  0
MTEXT
  5
2FA
330
1F
100
AcDbEntity
  8
2
100
AcDbMText
 10
316.590342
 20
327.385163
 30
0.0
 40
3.5
 41
0.0
 71
     7
 72
     5
  1
\W0.7045;88
  7
cesky
 73
     2
 44
0.8433729999999998
  0
LINE
  5
2FB
330
1F
100
AcDbEntity
  8
2
100
AcDbLine
 10
362.404842
 20
299.407994
 30
0.0
 11
362.404842
 21
328.5109970000001
 31
0.0
  0
LINE
  5
2FC
330
1F
100
AcDbEntity
  8
2
100
AcDbLine
 10
274.404842
 20
289.907567
 30
0.0
 11
274.404842
 21
328.5109970000001
 31
0.0
  0
LINE
  5
2FD
330
1F
100
AcDbEntity
  8
2
100
AcDbLine
 10
362.404842
 20
327.510997
 30
0.0
 11
274.404842
 21
327.510997
 31
0.0
  0
SOLID
  5
2FE
330
1F
100
AcDbEntity
  8
2
100
AcDbTrace
 10
362.404842
 20
327.510997
 30
0.0
 11
358.904844
 21
326.893852
 31
0.0
 12
358.90484
 22
328.128141
 32
0.0
 13
358.90484
 23
328.128141
 33
0.0
  0
SOLID
  5
2FF
330
1F
100
AcDbEntity
  8
2
100
AcDbTrace
 10
274.404842
 20
327.510997
 30
0.0
 11
277.90484
 21
328.128141
 31
0.0
 12
277.904844
 22
326.893852
 32
0.0
 13
277.904844
 23
326.893852
 33
0.0
  0
MTEXT
  5
300
330
1F
100
AcDbEntity
  8
2
100
AcDbMText
 10
287.327842
 20
340.562135
 30
0.0
 40
3.5
 41
0.0
 71
     7
 72
     5
  1
\W0.7656;144
  7
cesky
 73
     2
 44
0.8433729999999998
  0
LINE
  5
301
330
1F
100
AcDbEntity
  8
2
100
AcDbLine
 10
362.404842
 20
301.407994
 30
0.0
 11
362.404842
 21
341.687968
 31
0.0
  0
LINE
  5
302
330
1F
100
AcDbEntity
  8
2
100
AcDbLine
 10
218.404842
 20
299.407994
 30
0.0
 11
218.404842
 21
341.687968
 31
0.0
  0
LINE
  5
303
330
1F
100
AcDbEntity
  8
2
100
AcDbLine
 10
362.404842
 20
340.687968
 30
0.0
 11
218.404842
 21
340.687968
 31
0.0
  0
SOLID
  5
304
330
1F
100
AcDbEntity
  8
2
100
AcDbTrace
 10
362.404842
 20
340.687968
 30
0.0
 11
358.904844
 21
340.070823
 31
0.0
 12
358.90484
 22
341.305112
 32
0.0
 13
358.90484
 23
341.305112
 33
0.0
  0
SOLID
  5
305
330
1F
100
AcDbEntity
  8
2
100
AcDbTrace
 10
218.404842
 20
340.687968
 30
0.0
 11
221.90484
 21
341.305112
 31
0.0
 12
221.904844
 22
340.070823
 32
0.0
 13
221.904844
 23
340.070823
 33
0.0
  0
MTEXT
  5
306
330
1F
100
AcDbEntity
  8
2
100
AcDbMText
 10
244.590342
 20
327.385163
 30
0.0
 40
3.5
 41
0.0
 71
     7
 72
     5
  1
\W0.7259;56
  7
cesky
 73
     2
 44
0.8433729999999998
  0
LINE
  5
307
330
1F
100
AcDbEntity
  8
2
100
AcDbLine
 10
274.404842
 20
288.907994
 30
0.0
 11
274.404842
 21
328.5109970000001
 31
0.0
  0
LINE
  5
308
330
1F
100
AcDbEntity
  8
2
100
AcDbLine
 10
218.404842
 20
299.407994
 30
0.0
 11
218.404842
 21
328.5109970000001
 31
0.0
  0
LINE
  5
309
330
1F
100
AcDbEntity
  8
2
100
AcDbLine
 10
274.404842
 20
327.510997
 30
0.0
 11
218.404842
 21
327.510997
 31
0.0
  0
SOLID
  5
30A
330
1F
100
AcDbEntity
  8
2
100
AcDbTrace
 10
274.404842
 20
327.510997
 30
0.0
 11
270.904844
 21
326.893852
 31
0.0
 12
270.90484
 22
328.128141
 32
0.0
 13
270.90484
 23
328.128141
 33
0.0
  0
SOLID
  5
30B
330
1F
100
AcDbEntity
  8
2
100
AcDbTrace
 10
218.404842
 20
327.510997
 30
0.0
 11
221.90484
 21
328.128141
 31
0.0
 12
221.904844
 22
326.893852
 32
0.0
 13
221.904844
 23
326.893852
 33
0.0
  0
MTEXT
  5
30C
330
1F
100
AcDbEntity
  8
2
100
AcDbMText
 10
322.829727
 20
314.233227
 30
0.0
 40
3.5
 41
0.0
 71
     7
 72
     5
  1
\W0.8459;70,5
  7
cesky
 73
     2
 44
0.8433729999999998
  0
LINE
  5
30D
330
1F
100
AcDbEntity
  8
2
100
AcDbLine
 10
362.404842
 20
301.407994
 30
0.0
 11
362.404842
 21
315.35906
 31
0.0
  0
LINE
  5
30E
330
1F
100
AcDbEntity
  8
2
100
AcDbLine
 10
291.933613
 20
299.35129
 30
0.0
 11
291.933613
 21
315.35906
 31
0.0
  0
LINE
  5
30F
330
1F
100
AcDbEntity
  8
2
100
AcDbLine
 10
362.404842
 20
314.35906
 30
0.0
 11
291.933613
 21
314.35906
 31
0.0
  0
SOLID
  5
310
330
1F
100
AcDbEntity
  8
2
100
AcDbTrace
 10
362.404842
 20
314.35906
 30
0.0
 11
358.904844
 21
313.741916
 31
0.0
 12
358.90484
 22
314.976205
 32
0.0
 13
358.90484
 23
314.976205
 33
0.0
  0
SOLID
  5
311
330
1F
100
AcDbEntity
  8
2
100
AcDbTrace
 10
291.933613
 20
314.35906
 30
0.0
 11
295.433611
 21
314.976205
 31
0.0
 12
295.4336149999999
 22
313.741916
 32
0.0
 13
295.4336149999999
 23
313.741916
 33
0.0
  0
MTEXT
  5
312
330
1F
100
AcDbEntity
  8
2
100
AcDbMText
 10
379.087216
 20
284.458467
 30
0.0
 40
3.5
 41
0.0
 71
     7
 72
     5
  1
\W0.9581;21
  7
cesky
 11
0.0000000000000001
 21
1.0
 31
0.0
 73
     2
 44
0.8433729999999998
  0
MTEXT
  5
313
330
1F
100
AcDbEntity
  8
2
100
AcDbMText
 10
379.087216
 20
277.720967
 30
0.0
 40
3.5
 41
0.0
 71
     7
 72
     5
  1
\W3.0115;\H2.63;%%c\H3.50;
  7
cesky
 11
0.0000000000000001
 21
1.0
 31
0.0
 73
     2
 44
0.8433729999999998
  0
LINE
  5
314
330
1F
100
AcDbEntity
  8
2
100
AcDbLine
 10
364.404842
 20
299.407994
 30
0.0
 11
380.274632
 21
299.407994
 31
0.0
  0
LINE
  5
315
330
1F
100
AcDbEntity
  8
2
100
AcDbLine
 10
379.274632
 20
299.407994
 30
0.0
 11
379.274632
 21
277.563467
 31
0.0
  0
SOLID
  5
316
330
1F
100
AcDbEntity
  8
2
100
AcDbTrace
 10
379.274632
 20
299.407994
 30
0.0
 11
379.891777
 21
295.907996
 31
0.0
 12
378.657488
 22
295.907991
 32
0.0
 13
378.657488
 23
295.907991
 33
0.0
  0
MTEXT
  5
317
330
1F
100
AcDbEntity
  8
SK2
100
AcDbMText
 10
206.117323
 20
290.434244
 30
0.0
 40
3.5
 41
0.0
 71
     7
 72
     5
  1
\W0.7045;25
  7
cesky
 11
0.0000000000000001
 21
1.0
 31
0.0
 73
     2
 44
0.8433729999999998
  0
MTEXT
  5
318
330
1F
100
AcDbEntity
  8
SK2
100
AcDbMText
 10
206.117323
 20
283.696744
 30
0.0
 40
3.5
 41
0.0
 71
     7
 72
     5
  1
\W3.0115;\H2.63;%%c\H3.50;
  7
cesky
 11
0.0000000000000001
 21
1.0
 31
0.0
 73
     2
 44
0.8433729999999998
  0
LINE
  5
319
330
1F
100
AcDbEntity
  8
SK2
100
AcDbLine
 10
220.404842
 20
301.407994
 30
0.0
 11
205.304739
 21
301.407994
 31
0.0
  0
LINE
  5
31A
330
1F
100
AcDbEntity
  8
SK2
100
AcDbLine
 10
220.404842
 20
276.407994
 30
0.0
 11
205.304739
 21
276.407994
 31
0.0
  0
LINE
  5
31B
330
1F
100
AcDbEntity
  8
SK2
100
AcDbLine
 10
206.304739
 20
301.407994
 30
0.0
 11
206.304739
 21
276.407994
 31
0.0
  0
SOLID
  5
31C
330
1F
100
AcDbEntity
  8
SK2
100
AcDbTrace
 10
206.304739
 20
301.407994
 30
0.0
 11
206.921884
 21
297.9079959999999
 31
0.0
 12
205.687595
 22
297.907991
 32
0.0
 13
205.687595
 23
297.907991
 33
0.0
  0
SOLID
  5
31D
330
1F
100
AcDbEntity
  8
SK2
100
AcDbTrace
 10
206.304739
 20
276.407994
 30
0.0
 11
205.687595
 21
279.9079910000001
 31
0.0
 12
206.921884
 22
279.907996
 32
0.0
 13
206.921884
 23
279.907996
 33
0.0
  0
MTEXT
  5
31E
330
1F
100
AcDbEntity
  8
SK2
100
AcDbMText
 10
193.332501
 20
290.434244
 30
0.0
 40
3.5
 41
0.0
 71
     7
 72
     5
  1
\W0.7045;35
  7
cesky
 11
0.0000000000000001
 21
1.0
 31
0.0
 73
     2
 44
0.8433729999999998
  0
MTEXT
  5
31F
330
1F
100
AcDbEntity
  8
SK2
100
AcDbMText
 10
193.332501
 20
283.696744
 30
0.0
 40
3.5
 41
0.0
 71
     7
 72
     5
  1
\W3.0115;\H2.63;%%c\H3.50;
  7
cesky
 11
0.0000000000000001
 21
1.0
 31
0.0
 73
     2
 44
0.8433729999999998
  0
LINE
  5
320
330
1F
100
AcDbEntity
  8
SK2
100
AcDbLine
 10
274.904842
 20
306.407994
 30
0.0
 11
192.519918
 21
306.407994
 31
0.0
  0
LINE
  5
321
330
1F
100
AcDbEntity
  8
SK2
100
AcDbLine
 10
274.904842
 20
271.407994
 30
0.0
 11
192.519918
 21
271.407994
 31
0.0
  0
LINE
  5
322
330
1F
100
AcDbEntity
  8
SK2
100
AcDbLine
 10
193.519918
 20
306.407994
 30
0.0
 11
193.519918
 21
271.407994
 31
0.0
  0
SOLID
  5
323
330
1F
100
AcDbEntity
  8
SK2
100
AcDbTrace
 10
193.519918
 20
306.407994
 30
0.0
 11
194.137062
 21
302.907996
 31
0.0
 12
192.902773
 22
302.907991
 32
0.0
 13
192.902773
 23
302.907991
 33
0.0
  0
SOLID
  5
324
330
1F
100
AcDbEntity
  8
SK2
100
AcDbTrace
 10
193.519918
 20
271.407994
 30
0.0
 11
192.902773
 21
274.907991
 31
0.0
 12
194.137062
 22
274.9079959999999
 32
0.0
 13
194.137062
 23
274.9079959999999
 33
0.0
  0
LINE
  5
325
330
1F
100
AcDbEntity
  8
CUT
100
AcDbLine
 10
361.9218118407765
 20
294.2698938729857
 30
0.0
 11
362.3331914855816
 21
293.5853796796542
 31
0.0
  0
LINE
  5
326
330
1F
100
AcDbEntity
  8
CUT
100
AcDbLine
 10
361.7076030401071
 20
299.0369942696665
 30
0.0
 11
361.9218118407765
 21
294.2698938729857
 31
0.0
  0
LINE
  5
327
330
1F
100
AcDbEntity
  8
CUT
100
AcDbLine
 10
355.7351618035556
 20
299.1493123729986
 30
0.0
 11
361.3027790582769
 21
299.4049929580076
 31
0.0
  0
LINE
  5
328
330
1F
100
AcDbEntity
  8
CUT
100
AcDbLine
 10
362.3331914855816
 20
293.5853796796542
 30
0.0
 11
362.4046674212314
 21
289.4979933061184
 31
0.0
  0
LINE
  5
32B
330
1F
100
AcDbEntity
  8
CUT
100
AcDbLine
 10
362.404667
 20
289.497993
 30
0.0
 11
362.404667
 21
288.907994
 31
0.0
  0
LINE
  5
32C
330
1F
100
AcDbEntity
  8
CUT
100
AcDbLine
 10
355.364853
 20
288.907994
 30
0.0
 11
355.364853
 21
298.745421
 31
0.0
  0
LINE
  5
32D
330
1F
100
AcDbEntity
  8
CUT
100
AcDbLine
 10
362.404667
 20
288.907994
 30
0.0
 11
355.364853
 21
288.907994
 31
0.0
  0
ARC
  5
32E
330
1F
100
AcDbEntity
  8
CUT
100
AcDbCircle
 10
361.3181215551305
 20
299.0149229382079
 30
0.0
 40
0.3903716339031624
100
AcDbArc
 50
7.412766837275877
 51
92.25243513515323
  0
ARC
  5
32F
330
1F
100
AcDbEntity
  8
CUT
100
AcDbCircle
 10
361.3412170181435
 20
299.0205183952759
 30
0.0
 40
0.3667562835551687
100
AcDbArc
 50
2.574777612608835
 51
7.011427285140732
  0
LINE
  5
330
330
1F
100
AcDbEntity
  8
CUT
100
AcDbLine
 10
355.3648534365614
 20
298.7454214554987
 30
0.0
 11
355.3648534365614
 21
298.7454214554987
 31
0.0
  0
ARC
  5
331
330
1F
100
AcDbEntity
  8
CUT
100
AcDbCircle
 10
355.7558171391344
 20
298.7586699576728
 30
0.0
 40
0.3911881127276871
100
AcDbArc
 50
93.02671303718893
 51
181.9408269850894
  0
ENDSEC
  0
SECTION
  2
OBJECTS
  0
DICTIONARY
  5
C
330
0
100
AcDbDictionary
281
     1
  3
ACAD_CIP_PREVIOUS_PRODUCT_INFO
350
2F7
  3
ACAD_COLOR
350
2F2
  3
ACAD_DETAILVIEWSTYLE
350
2EE
  3
ACAD_GROUP
350
D
  3
ACAD_LAYOUT
350
1A
  3
ACAD_MATERIAL
350
43
  3
ACAD_MLEADERSTYLE
350
6B
  3
ACAD_MLINESTYLE
350
17
  3
ACAD_PLOTSETTINGS
350
19
  3
ACAD_PLOTSTYLENAME
350
E
  3
ACAD_SCALELIST
350
47
  3
ACAD_SECTIONVIEWSTYLE
350
2EF
  3
ACAD_TABLESTYLE
350
69
  3
ACAD_VISUALSTYLE
350
2A
  3
ACDB_RECOMPOSE_DATA
350
35D
  3
AcDbVariableDictionary
350
2AB
  0
DICTIONARY
  5
340
330
10
100
AcDbDictionary
280
     1
281
     1
  3
ADSK_XREC_LAYER_RECONCILED
360
341
  0
DICTIONARY
  5
342
330
332
100
AcDbDictionary
280
     1
281
     1
  3
ADSK_XREC_LAYER_RECONCILED
360
343
  0
DICTIONARY
  5
344
330
333
100
AcDbDictionary
280
     1
281
     1
  3
ADSK_XREC_LAYER_RECONCILED
360
345
  0
DICTIONARY
  5
346
330
334
100
AcDbDictionary
280
     1
281
     1
  3
ADSK_XREC_LAYER_RECONCILED
360
347
  0
DICTIONARY
  5
348
330
336
100
AcDbDictionary
280
     1
281
     1
  3
ADSK_XREC_LAYER_RECONCILED
360
349
  0
DICTIONARY
  5
34A
330
337
100
AcDbDictionary
280
     1
281
     1
  3
ADSK_XREC_LAYER_RECONCILED
360
34B
  0
DICTIONARY
  5
34C
330
339
100
AcDbDictionary
280
     1
281
     1
  3
ADSK_XREC_LAYER_RECONCILED
360
34D
  0
DICTIONARY
  5
34E
330
33A
100
AcDbDictionary
280
     1
281
     1
  3
ADSK_XREC_LAYER_RECONCILED
360
34F
  0
DICTIONARY
  5
350
330
33B
100
AcDbDictionary
280
     1
281
     1
  3
ADSK_XREC_LAYER_RECONCILED
360
351
  0
DICTIONARY
  5
352
330
33C
100
AcDbDictionary
280
     1
281
     1
  3
ADSK_XREC_LAYER_RECONCILED
360
353
  0
DICTIONARY
  5
354
330
33D
100
AcDbDictionary
280
     1
281
     1
  3
ADSK_XREC_LAYER_RECONCILED
360
355
  0
DICTIONARY
  5
356
330
33E
100
AcDbDictionary
280
     1
281
     1
  3
ADSK_XREC_LAYER_RECONCILED
360
357
  0
DICTIONARY
  5
2F8
330
1F
100
AcDbDictionary
280
     1
281
     1
  3
ACAD_SORTENTS
360
2F9
  0
XRECORD
  5
2F7
102
{ACAD_REACTORS
330
C
102
}
330
C
100
AcDbXrecord
280
     1
300
ACD
300
2019
300
87084ACD_2019_0F
  0
DICTIONARY
  5
2F2
102
{ACAD_REACTORS
330
C
102
}
330
C
100
AcDbDictionary
281
     1
  0
DICTIONARY
  5
2EE
102
{ACAD_REACTORS
330
C
102
}
330
C
100
AcDbDictionary
281
     1
  3
Metric50
350
2F4
  0
DICTIONARY
  5
D
102
{ACAD_REACTORS
330
C
102
}
330
C
100
AcDbDictionary
281
     1
  3
NULOVY_BOD
350
33F
  0
DICTIONARY
  5
1A
102
{ACAD_REACTORS
330
C
102
}
330
C
100
AcDbDictionary
281
     1
  3
Layout1
350
1E
  3
Layout2
350
26
  3
Model
350
22
  0
DICTIONARY
  5
43
102
{ACAD_REACTORS
330
C
102
}
330
C
100
AcDbDictionary
281
     1
  3
ByBlock
350
45
  3
ByLayer
350
44
  3
Global
350
46
  0
DICTIONARY
  5
6B
102
{ACAD_REACTORS
330
C
102
}
330
C
100
AcDbDictionary
281
     1
  3
Standard
350
6C
  0
DICTIONARY
  5
17
102
{ACAD_REACTORS
330
C
102
}
330
C
100
AcDbDictionary
281
     1
  3
Standard
350
18
  0
DICTIONARY
  5
19
102
{ACAD_REACTORS
330
C
102
}
330
C
100
AcDbDictionary
281
     1
  0
ACDBDICTIONARYWDFLT
  5
E
102
{ACAD_REACTORS
330
C
102
}
330
C
100
AcDbDictionary
281
     1
  3
Normal
350
F
100
AcDbDictionaryWithDefault
340
F
  0
DICTIONARY
  5
47
102
{ACAD_REACTORS
330
C
102
}
330
C
100
AcDbDictionary
281
     1
  3
A0
350
48
  3
A1
350
49
  3
A2
350
4A
  3
A3
350
4B
  3
A4
350
4C
  3
A5
350
4D
  3
A6
350
4E
  3
A7
350
4F
  3
A8
350
50
  3
A9
350
51
  3
B0
350
52
  3
B1
350
53
  3
B2
350
54
  3
B3
350
55
  3
B4
350
56
  3
B5
350
57
  3
B6
350
58
  3
B7
350
59
  3
B8
350
5A
  3
B9
350
5B
  3
C0
350
5C
  3
C1
350
5D
  3
C2
350
5E
  3
C3
350
5F
  3
C4
350
60
  3
C5
350
61
  3
C6
350
62
  3
C7
350
63
  3
C8
350
64
  3
C9
350
65
  3
D0
350
66
  3
D1
350
67
  3
D2
350
68
  0
DICTIONARY
  5
2EF
102
{ACAD_REACTORS
330
C
102
}
330
C
100
AcDbDictionary
281
     1
  3
Metric50
350
2F3
  0
DICTIONARY
  5
69
102
{ACAD_REACTORS
330
C
102
}
330
C
100
AcDbDictionary
281
     1
  3
Standard
350
6A
  0
DICTIONARY
  5
2A
102
{ACAD_REACTORS
330
C
102
}
330
C
100
AcDbDictionary
281
     1
  3
2dWireframe
350
2F
  3
Basic
350
32
  3
Brighten
350
36
  3
ColorChange
350
3A
  3
Conceptual
350
34
  3
Dim
350
35
  3
EdgeColorOff
350
3D
  3
Facepattern
350
39
  3
Flat
350
2B
  3
FlatWithEdges
350
2C
  3
Gouraud
350
2D
  3
GouraudWithEdges
350
2E
  3
Hidden
350
31
  3
JitterOff
350
3B
  3
Linepattern
350
38
  3
OverhangOff
350
3C
  3
Realistic
350
33
  3
Shaded
350
42
  3
Shaded with edges
350
41
  3
Shades of Gray
350
3E
  3
Sketchy
350
3F
  3
Thicken
350
37
  3
Wireframe
350
30
  3
X-Ray
350
40
  0
XRECORD
  5
35D
102
{ACAD_REACTORS
330
C
102
}
330
C
100
AcDbXrecord
280
     1
 90
        1
330
6A
  0
DICTIONARY
  5
2AB
102
{ACAD_REACTORS
330
C
102
}
330
C
100
AcDbDictionary
281
     1
  3
CANNOSCALE
350
2AC
  3
CMLEADERSTYLE
350
2ED
  3
CTABLESTYLE
350
2EC
  3
CVIEWDETAILSTYLE
350
358
  3
CVIEWSECTIONSTYLE
350
359
  3
MSLTSCALE
350
2AD
  3
XCLIPFRAME
350
35A
  0
XRECORD
  5
341
102
{ACAD_REACTORS
330
340
102
}
330
340
100
AcDbXrecord
280
     1
290
     1
  0
XRECORD
  5
343
102
{ACAD_REACTORS
330
342
102
}
330
342
100
AcDbXrecord
280
     1
290
     1
  0
XRECORD
  5
345
102
{ACAD_REACTORS
330
344
102
}
330
344
100
AcDbXrecord
280
     1
290
     1
  0
XRECORD
  5
347
102
{ACAD_REACTORS
330
346
102
}
330
346
100
AcDbXrecord
280
     1
290
     1
  0
XRECORD
  5
349
102
{ACAD_REACTORS
330
348
102
}
330
348
100
AcDbXrecord
280
     1
290
     1
  0
XRECORD
  5
34B
102
{ACAD_REACTORS
330
34A
102
}
330
34A
100
AcDbXrecord
280
     1
290
     1
  0
XRECORD
  5
34D
102
{ACAD_REACTORS
330
34C
102
}
330
34C
100
AcDbXrecord
280
     1
290
     1
  0
XRECORD
  5
34F
102
{ACAD_REACTORS
330
34E
102
}
330
34E
100
AcDbXrecord
280
     1
290
     1
  0
XRECORD
  5
351
102
{ACAD_REACTORS
330
350
102
}
330
350
100
AcDbXrecord
280
     1
290
     1
  0
XRECORD
  5
353
102
{ACAD_REACTORS
330
352
102
}
330
352
100
AcDbXrecord
280
     1
290
     1
  0
XRECORD
  5
355
102
{ACAD_REACTORS
330
354
102
}
330
354
100
AcDbXrecord
280
     1
290
     1
  0
XRECORD
  5
357
102
{ACAD_REACTORS
330
356
102
}
330
356
100
AcDbXrecord
280
     1
290
     1
  0
SORTENTSTABLE
  5
2F9
102
{ACAD_REACTORS
330
2F8
102
}
330
2F8
100
AcDbSortentsTable
330
1F
331
2FA
  5
265
331
2FB
  5
27E
331
2FC
  5
2FA
331
2FD
  5
2FB
331
2FE
  5
2FC
331
2FF
  5
2FD
331
300
  5
2FE
331
301
  5
2FF
331
302
  5
300
331
303
  5
301
331
304
  5
302
331
305
  5
303
331
306
  5
304
331
307
  5
305
331
308
  5
306
331
309
  5
307
331
30A
  5
308
331
30B
  5
309
331
30C
  5
30A
331
30D
  5
30B
331
30E
  5
30C
331
30F
  5
30D
331
310
  5
30E
331
311
  5
30F
331
312
  5
310
331
313
  5
311
331
314
  5
312
331
315
  5
313
331
316
  5
314
331
32B
  5
32F
331
32C
  5
330
331
32D
  5
331
331
32E
  5
32B
331
32F
  5
32C
331
330
  5
32D
331
331
  5
32E
  0
ACDBDETAILVIEWSTYLE
  5
2F4
102
{ACAD_XDICTIONARY
360
391
102
}
102
{ACAD_REACTORS
330
2EE
102
}
330
2EE
100
AcDbModelDocViewStyle
 70
     0
  3
Metric50
290
     0
100
AcDbDetailViewStyle
 70
     0
 71
     0
 90
        3
 71
     1
340
11
 62
   256
 40
5.0
340
0
 62
   256
 40
5.0
300

 40
0.0
280
     1
 71
     2
340
16
 90
       25
 62
   256
 71
     3
340
11
 62
   256
 40
5.0
 90
        0
 40
15.0
 90
        1
300
%<\AcVar ViewDetailId>% (%<\AcVar ViewScale \f "%sn">%)
 71
     4
340
16
 90
       25
 62
   256
340
16
 90
       25
 62
   256
280
     0
  0
GROUP
  5
33F
102
{ACAD_REACTORS
330
D
102
}
330
D
100
AcDbGroup
300

 70
     0
 71
     1
340
73
  0
LAYOUT
  5
1E
102
{ACAD_REACTORS
330
1A
102
}
330
1A
100
AcDbPlotSettings
  1

  2
none_device
  4

  6

 40
0.0
 41
0.0
 42
0.0
 43
0.0
 44
0.0
 45
0.0
 46
0.0
 47
0.0
 48
0.0
 49
0.0
140
0.0
141
0.0
142
1.0
143
1.0
 70
   688
 72
     0
 73
     0
 74
     5
  7

 75
    16
147
1.0
 76
     0
 77
     2
 78
   300
148
0.0
149
0.0
100
AcDbLayout
  1
Layout1
 70
     1
 71
     1
 10
-0.5
 20
-0.5
 11
5.0
 21
5.0
 12
0.0
 22
0.0
 32
0.0
 14
-0.5
 24
-0.5
 34
-0.5
 15
5.0
 25
5.0
 35
5.0
146
0.0
 13
0.0
 23
0.0
 33
0.0
 16
1.0
 26
0.0
 36
0.0
 17
0.0
 27
1.0
 37
0.0
 76
     0
330
1B
  0
LAYOUT
  5
26
102
{ACAD_REACTORS
330
1A
102
}
330
1A
100
AcDbPlotSettings
  1

  2
none_device
  4

  6

 40
0.0
 41
0.0
 42
0.0
 43
0.0
 44
0.0
 45
0.0
 46
0.0
 47
0.0
 48
0.0
 49
0.0
140
0.0
141
0.0
142
1.0
143
1.0
 70
   688
 72
     0
 73
     0
 74
     5
  7

 75
    16
147
1.0
 76
     0
 77
     2
 78
   300
148
0.0
149
0.0
100
AcDbLayout
  1
Layout2
 70
     1
 71
     2
 10
0.0
 20
0.0
 11
0.0
 21
0.0
 12
0.0
 22
0.0
 32
0.0
 14
0.0
 24
0.0
 34
0.0
 15
0.0
 25
0.0
 35
0.0
146
0.0
 13
0.0
 23
0.0
 33
0.0
 16
1.0
 26
0.0
 36
0.0
 17
0.0
 27
1.0
 37
0.0
 76
     0
330
23
  0
LAYOUT
  5
22
102
{ACAD_REACTORS
330
1A
102
}
330
1A
100
AcDbPlotSettings
  1

  2
none_device
  4
Letter_(8.50_x_11.00_Inches)
  6

 40
6.349999999999999
 41
6.349999999999999
 42
6.350005
 43
6.350005
 44
215.9
 45
279.4
 46
0.0
 47
0.0
 48
0.0
 49
0.0
140
0.0
141
0.0
142
1.0
143
1.0
 70
  1712
 72
     0
 73
     0
 74
     0
  7

 75
     0
147
1.0
 76
     0
 77
     2
 78
   300
148
0.0
149
0.0
100
AcDbLayout
  1
Model
 70
     1
 71
     0
 10
-0.5
 20
-0.5
 11
5.0
 21
5.0
 12
0.0
 22
0.0
 32
0.0
 14
-0.5
 24
-0.5
 34
-0.5
 15
5.0
 25
5.0
 35
5.0
146
0.0
 13
0.0
 23
0.0
 33
0.0
 16
1.0
 26
0.0
 36
0.0
 17
0.0
 27
1.0
 37
0.0
 76
     0
330
1F
331
29
  0
MATERIAL
  5
45
102
{ACAD_XDICTIONARY
360
2E1
102
}
102
{ACAD_REACTORS
330
43
102
}
330
43
100
AcDbMaterial
  1
ByBlock
  0
MATERIAL
  5
44
102
{ACAD_XDICTIONARY
360
2DF
102
}
102
{ACAD_REACTORS
330
43
102
}
330
43
100
AcDbMaterial
  1
ByLayer
  0
MATERIAL
  5
46
102
{ACAD_XDICTIONARY
360
2E3
102
}
102
{ACAD_REACTORS
330
43
102
}
330
43
100
AcDbMaterial
  1
Global
  0
MLEADERSTYLE
  5
6C
102
{ACAD_REACTORS
330
6B
102
}
330
6B
100
AcDbMLeaderStyle
170
     2
171
     1
172
     0
 90
        2
 40
0.0
 41
0.0
173
     1
 91
-1056964608
340
14
 92
       -2
290
     1
 42
0.09
291
     1
 43
0.36
  3
Standard
 44
0.18
300

342
11
174
     1
178
     6
175
     1
176
     0
 93
-1056964608
 45
0.18
292
     0
297
     0
 46
0.18
 94
-1056964608
 47
1.0
 49
1.0
140
1.0
293
     1
141
0.0
294
     1
177
     0
142
1.0
295
     0
296
     0
143
0.125
1001
ACAD_MLEADERVER
1070
     2
  0
MLINESTYLE
  5
18
102
{ACAD_REACTORS
330
17
102
}
330
17
100
AcDbMlineStyle
  2
STANDARD
 70
     0
  3

 62
   256
 51
90.0
 52
90.0
 71
     2
 49
0.5
 62
   256
  6
BYLAYER
 49
-0.5
 62
   256
  6
BYLAYER
  0
ACDBPLACEHOLDER
  5
F
102
{ACAD_REACTORS
330
E
102
}
330
E
  0
SCALE
  5
48
102
{ACAD_REACTORS
330
47
102
}
330
47
100
AcDbScale
 70
     0
300
1:1
140
1.0
141
1.0
290
     1
  0
SCALE
  5
49
102
{ACAD_REACTORS
330
47
102
}
330
47
100
AcDbScale
 70
     0
300
1:2
140
1.0
141
2.0
290
     0
  0
SCALE
  5
4A
102
{ACAD_REACTORS
330
47
102
}
330
47
100
AcDbScale
 70
     0
300
1:4
140
1.0
141
4.0
290
     0
  0
SCALE
  5
4B
102
{ACAD_REACTORS
330
47
102
}
330
47
100
AcDbScale
 70
     0
300
1:5
140
1.0
141
5.0
290
     0
  0
SCALE
  5
4C
102
{ACAD_REACTORS
330
47
102
}
330
47
100
AcDbScale
 70
     0
300
1:8
140
1.0
141
8.0
290
     0
  0
SCALE
  5
4D
102
{ACAD_REACTORS
330
47
102
}
330
47
100
AcDbScale
 70
     0
300
1:10
140
1.0
141
10.0
290
     0
  0
SCALE
  5
4E
102
{ACAD_REACTORS
330
47
102
}
330
47
100
AcDbScale
 70
     0
300
1:16
140
1.0
141
16.0
290
     0
  0
SCALE
  5
4F
102
{ACAD_REACTORS
330
47
102
}
330
47
100
AcDbScale
 70
     0
300
1:20
140
1.0
141
20.0
290
     0
  0
SCALE
  5
50
102
{ACAD_REACTORS
330
47
102
}
330
47
100
AcDbScale
 70
     0
300
1:30
140
1.0
141
30.0
290
     0
  0
SCALE
  5
51
102
{ACAD_REACTORS
330
47
102
}
330
47
100
AcDbScale
 70
     0
300
1:40
140
1.0
141
40.0
290
     0
  0
SCALE
  5
52
102
{ACAD_REACTORS
330
47
102
}
330
47
100
AcDbScale
 70
     0
300
1:50
140
1.0
141
50.0
290
     0
  0
SCALE
  5
53
102
{ACAD_REACTORS
330
47
102
}
330
47
100
AcDbScale
 70
     0
300
1:100
140
1.0
141
100.0
290
     0
  0
SCALE
  5
54
102
{ACAD_REACTORS
330
47
102
}
330
47
100
AcDbScale
 70
     0
300
2:1
140
2.0
141
1.0
290
     0
  0
SCALE
  5
55
102
{ACAD_REACTORS
330
47
102
}
330
47
100
AcDbScale
 70
     0
300
4:1
140
4.0
141
1.0
290
     0
  0
SCALE
  5
56
102
{ACAD_REACTORS
330
47
102
}
330
47
100
AcDbScale
 70
     0
300
8:1
140
8.0
141
1.0
290
     0
  0
SCALE
  5
57
102
{ACAD_REACTORS
330
47
102
}
330
47
100
AcDbScale
 70
     0
300
10:1
140
10.0
141
1.0
290
     0
  0
SCALE
  5
58
102
{ACAD_REACTORS
330
47
102
}
330
47
100
AcDbScale
 70
     0
300
100:1
140
100.0
141
1.0
290
     0
  0
SCALE
  5
59
102
{ACAD_REACTORS
330
47
102
}
330
47
100
AcDbScale
 70
     0
300
1/128" = 1'-0"
140
0.007812
141
12.0
290
     0
  0
SCALE
  5
5A
102
{ACAD_REACTORS
330
47
102
}
330
47
100
AcDbScale
 70
     0
300
1/64" = 1'-0"
140
0.015625
141
12.0
290
     0
  0
SCALE
  5
5B
102
{ACAD_REACTORS
330
47
102
}
330
47
100
AcDbScale
 70
     0
300
1/32" = 1'-0"
140
0.03125
141
12.0
290
     0
  0
SCALE
  5
5C
102
{ACAD_REACTORS
330
47
102
}
330
47
100
AcDbScale
 70
     0
300
1/16" = 1'-0"
140
0.0625
141
12.0
290
     0
  0
SCALE
  5
5D
102
{ACAD_REACTORS
330
47
102
}
330
47
100
AcDbScale
 70
     0
300
3/32" = 1'-0"
140
0.09375
141
12.0
290
     0
  0
SCALE
  5
5E
102
{ACAD_REACTORS
330
47
102
}
330
47
100
AcDbScale
 70
     0
300
1/8" = 1'-0"
140
0.125
141
12.0
290
     0
  0
SCALE
  5
5F
102
{ACAD_REACTORS
330
47
102
}
330
47
100
AcDbScale
 70
     0
300
3/16" = 1'-0"
140
0.1875
141
12.0
290
     0
  0
SCALE
  5
60
102
{ACAD_REACTORS
330
47
102
}
330
47
100
AcDbScale
 70
     0
300
1/4" = 1'-0"
140
0.25
141
12.0
290
     0
  0
SCALE
  5
61
102
{ACAD_REACTORS
330
47
102
}
330
47
100
AcDbScale
 70
     0
300
3/8" = 1'-0"
140
0.375
141
12.0
290
     0
  0
SCALE
  5
62
102
{ACAD_REACTORS
330
47
102
}
330
47
100
AcDbScale
 70
     0
300
1/2" = 1'-0"
140
0.5
141
12.0
290
     0
  0
SCALE
  5
63
102
{ACAD_REACTORS
330
47
102
}
330
47
100
AcDbScale
 70
     0
300
3/4" = 1'-0"
140
0.75
141
12.0
290
     0
  0
SCALE
  5
64
102
{ACAD_REACTORS
330
47
102
}
330
47
100
AcDbScale
 70
     0
300
1" = 1'-0"
140
1.0
141
12.0
290
     0
  0
SCALE
  5
65
102
{ACAD_REACTORS
330
47
102
}
330
47
100
AcDbScale
 70
     0
300
1-1/2" = 1'-0"
140
1.5
141
12.0
290
     0
  0
SCALE
  5
66
102
{ACAD_REACTORS
330
47
102
}
330
47
100
AcDbScale
 70
     0
300
3" = 1'-0"
140
3.0
141
12.0
290
     0
  0
SCALE
  5
67
102
{ACAD_REACTORS
330
47
102
}
330
47
100
AcDbScale
 70
     0
300
6" = 1'-0"
140
6.0
141
12.0
290
     0
  0
SCALE
  5
68
102
{ACAD_REACTORS
330
47
102
}
330
47
100
AcDbScale
 70
     0
300
1'-0" = 1'-0"
140
12.0
141
12.0
290
     0
  0
ACDBSECTIONVIEWSTYLE
  5
2F3
102
{ACAD_XDICTIONARY
360
38F
102
}
102
{ACAD_REACTORS
330
2EF
102
}
330
2EF
100
AcDbModelDocViewStyle
 70
     0
  3
Metric50
290
     0
100
AcDbSectionViewStyle
 70
     0
 71
     0
 90
      102
 71
     1
340
11
 62
   256
 40
5.0
340
0
340
0
 62
   256
 40
5.0
300
I, O, Q, S, X, Z
 40
10.0
 90
        0
 40
2.5
 90
        0
 71
     2
340
16
 90
       25
 62
   256
340
16
 90
       50
 62
   256
 40
5.0
 40
2.5
 40
5.0
 71
     3
340
11
 62
   256
 40
5.0
 90
        0
 40
15.0
 90
        1
300
%<\AcVar ViewSectionStartId>%-%<\AcVar ViewSectionEndId>% (%<\AcVar ViewScale \f "%sn">%)
 71
     4
 62
   256
 62
   257
300
ANSI31
 40
1.0
 90
        0
290
     0
290
     0
 90
        6
 40
0.0
 40
1.570796326794896
 40
0.2617993877991494
 40
1.308996938995747
 40
-0.2617993877991494
 40
1.832595714594046
  0
TABLESTYLE
  5
6A
102
{ACAD_XDICTIONARY
360
2E5
102
}
102
{ACAD_REACTORS
330
69
102
}
330
69
100
AcDbTableStyle
  3
Standard
 70
     0
 71
     0
 40
0.06
 41
0.06
280
     0
281
     0
  7
Standard
140
0.18
170
     2
 62
     0
 63
     7
283
     0
274
    -2
284
     1
 64
     0
275
    -2
285
     1
 65
     0
276
    -2
286
     1
 66
     0
277
    -2
287
     1
 67
     0
278
    -2
288
     1
 68
     0
279
    -2
289
     1
 69
     0
  7
Standard
140
0.25
170
     5
 62
     0
 63
     7
283
     0
274
    -2
284
     1
 64
     0
275
    -2
285
     1
 65
     0
276
    -2
286
     1
 66
     0
277
    -2
287
     1
 67
     0
278
    -2
288
     1
 68
     0
279
    -2
289
     1
 69
     0
  7
Standard
140
0.18
170
     5
 62
     0
 63
     7
283
     0
274
    -2
284
     1
 64
     0
275
    -2
285
     1
 65
     0
276
    -2
286
     1
 66
     0
277
    -2
287
     1
 67
     0
278
    -2
288
     1
 68
     0
279
    -2
289
     1
 69
     0
  0
VISUALSTYLE
  5
2F
102
{ACAD_XDICTIONARY
360
366
102
}
102
{ACAD_REACTORS
330
2A
102
}
330
2A
100
AcDbVisualStyle
  2

 70
     4
 71
     0
 72
     2
 73
     0
 90
        0
 40
-0.6
 41
-30.0
 62
     5
 63
     7
421
 16777215
 74
     1
 91
        4
 64
     7
 65
   257
 75
     1
175
     1
 42
1.0
 92
        0
 66
   257
 43
1.0
 76
     1
 77
     6
 78
     2
 67
     7
 79
     5
170
     0
171
     0
290
     0
174
     0
 93
        1
 44
0.0
173
     0
291
     0
 45
0.0
1001
ACAD
1000
AcDbSavedByObjectVersion
1070
     0
  0
VISUALSTYLE
  5
32
102
{ACAD_XDICTIONARY
360
36C
102
}
102
{ACAD_REACTORS
330
2A
102
}
330
2A
100
AcDbVisualStyle
  2

 70
     7
 71
     1
 72
     0
 73
     1
 90
        0
 40
-0.6
 41
-30.0
 62
     5
 63
     7
421
 16777215
 74
     0
 91
        4
 64
     7
 65
   257
 75
     1
175
     1
 42
1.0
 92
        8
 66
     7
 43
1.0
 76
     1
 77
     6
 78
     2
 67
     7
 79
     5
170
     0
171
     0
290
     0
174
     0
 93
        1
 44
0.0
173
     0
291
     1
 45
0.0
1001
ACAD
1000
AcDbSavedByObjectVersion
1070
     0
  0
VISUALSTYLE
  5
36
102
{ACAD_XDICTIONARY
360
374
102
}
102
{ACAD_REACTORS
330
2A
102
}
330
2A
100
AcDbVisualStyle
  2

 70
    12
 71
     2
 72
     2
 73
     0
 90
        0
 40
-0.6
 41
-30.0
 62
     5
 63
     7
421
 16777215
 74
     1
 91
        4
 64
     7
 65
   257
 75
     1
175
     1
 42
1.0
 92
        8
 66
     7
 43
1.0
 76
     1
 77
     6
 78
     2
 67
     7
 79
     5
170
     0
171
     0
290
     0
174
     0
 93
        1
 44
50.0
173
     0
291
     1
 45
0.0
1001
ACAD
1000
AcDbSavedByObjectVersion
1070
     0
  0
VISUALSTYLE
  5
3A
102
{ACAD_XDICTIONARY
360
37C
102
}
102
{ACAD_REACTORS
330
2A
102
}
330
2A
100
AcDbVisualStyle
  2

 70
    16
 71
     2
 72
     2
 73
     3
 90
        0
 40
-0.6
 41
-30.0
 62
     5
 63
     8
421
  8421504
 74
     1
 91
        4
 64
     7
 65
   257
 75
     1
175
     1
 42
1.0
 92
        8
 66
     8
424
  8421504
 43
1.0
 76
     1
 77
     6
 78
     2
 67
     7
 79
     5
170
     0
171
     0
290
     0
174
     0
 93
        1
 44
0.0
173
     0
291
     1
 45
0.0
1001
ACAD
1000
AcDbSavedByObjectVersion
1070
     0
  0
VISUALSTYLE
  5
34
102
{ACAD_XDICTIONARY
360
370
102
}
102
{ACAD_REACTORS
330
2A
102
}
330
2A
100
AcDbVisualStyle
  2

 70
     9
 71
     3
 72
     2
 73
     0
 90
        0
 40
-0.6
 41
-30.0
 62
     5
 63
     7
421
 16777215
 74
     2
 91
        2
 64
     7
 65
   257
 75
     1
175
     1
 42
179.0
 92
        8
 66
     7
 43
1.0
 76
     1
 77
     6
 78
     2
 67
     7
 79
     3
170
     0
171
     0
290
     0
174
     0
 93
        1
 44
0.0
173
     0
291
     0
 45
0.0
1001
ACAD
1000
AcDbSavedByObjectVersion
1070
     0
  0
VISUALSTYLE
  5
35
102
{ACAD_XDICTIONARY
360
372
102
}
102
{ACAD_REACTORS
330
2A
102
}
330
2A
100
AcDbVisualStyle
  2

 70
    11
 71
     2
 72
     2
 73
     0
 90
        0
 40
-0.6
 41
-30.0
 62
     5
 63
     7
421
 16777215
 74
     1
 91
        4
 64
     7
 65
   257
 75
     1
175
     1
 42
1.0
 92
        8
 66
     7
 43
1.0
 76
     1
 77
     6
 78
     2
 67
     7
 79
     5
170
     0
171
     0
290
     0
174
     0
 93
        1
 44
-50.0
173
     0
291
     1
 45
0.0
1001
ACAD
1000
AcDbSavedByObjectVersion
1070
     0
  0
VISUALSTYLE
  5
3D
102
{ACAD_XDICTIONARY
360
382
102
}
102
{ACAD_REACTORS
330
2A
102
}
330
2A
100
AcDbVisualStyle
  2

 70
    22
 71
     2
 72
     2
 73
     0
 90
        0
 40
-0.6
 41
-30.0
 62
     5
 63
     7
421
 16777215
 74
     1
 91
        4
 64
     7
 65
   257
 75
     1
175
     1
 42
1.0
 92
        8
 66
     7
 43
1.0
 76
     1
 77
     6
 78
     2
 67
     7
 79
     5
170
     0
171
     0
290
     0
174
     0
 93
        1
 44
0.0
173
     0
291
     1
 45
0.0
1001
ACAD
1000
AcDbSavedByObjectVersion
1070
     0
  0
VISUALSTYLE
  5
39
102
{ACAD_XDICTIONARY
360
37A
102
}
102
{ACAD_REACTORS
330
2A
102
}
330
2A
100
AcDbVisualStyle
  2

 70
    15
 71
     2
 72
     2
 73
     0
 90
        0
 40
-0.6
 41
-30.0
 62
     5
 63
     7
421
 16777215
 74
     1
 91
        4
 64
     7
 65
   257
 75
     1
175
     1
 42
1.0
 92
        8
 66
     7
 43
1.0
 76
     1
 77
     6
 78
     2
 67
     7
 79
     5
170
     0
171
     0
290
     0
174
     0
 93
        1
 44
0.0
173
     0
291
     1
 45
0.0
1001
ACAD
1000
AcDbSavedByObjectVersion
1070
     0
  0
VISUALSTYLE
  5
2B
102
{ACAD_XDICTIONARY
360
35E
102
}
102
{ACAD_REACTORS
330
2A
102
}
330
2A
100
AcDbVisualStyle
  2

 70
     0
 71
     2
 72
     1
 73
     1
 90
        2
 40
-0.6
 41
30.0
 62
     5
 63
     7
421
 16777215
 74
     0
 91
        0
 64
     7
 65
   257
 75
     1
175
     1
 42
1.0
 92
        8
 66
     7
 43
1.0
 76
     1
 77
     6
 78
     2
 67
     7
 79
     5
170
     0
171
     0
290
     0
174
     0
 93
       13
 44
0.0
173
     0
291
     1
 45
0.0
1001
ACAD
1000
AcDbSavedByObjectVersion
1070
     0
  0
VISUALSTYLE
  5
2C
102
{ACAD_XDICTIONARY
360
360
102
}
102
{ACAD_REACTORS
330
2A
102
}
330
2A
100
AcDbVisualStyle
  2

 70
     1
 71
     2
 72
     1
 73
     1
 90
        2
 40
-0.6
 41
30.0
 62
     5
 63
     7
421
 16777215
 74
     1
 91
        0
 64
     7
 65
   257
 75
     1
175
     1
 42
1.0
 92
        0
 66
   257
 43
1.0
 76
     1
 77
     6
 78
     2
 67
     7
 79
     5
170
     0
171
     0
290
     0
174
     0
 93
       13
 44
0.0
173
     0
291
     1
 45
0.0
1001
ACAD
1000
AcDbSavedByObjectVersion
1070
     0
  0
VISUALSTYLE
  5
2D
102
{ACAD_XDICTIONARY
360
362
102
}
102
{ACAD_REACTORS
330
2A
102
}
330
2A
100
AcDbVisualStyle
  2

 70
     2
 71
     2
 72
     2
 73
     1
 90
        2
 40
-0.6
 41
30.0
 62
     5
 63
     7
421
 16777215
 74
     0
 91
        0
 64
     7
 65
   257
 75
     1
175
     1
 42
1.0
 92
        0
 66
     7
 43
1.0
 76
     1
 77
     6
 78
     2
 67
     7
 79
     5
170
     0
171
     0
290
     0
174
     0
 93
       13
 44
0.0
173
     0
291
     1
 45
0.0
1001
ACAD
1000
AcDbSavedByObjectVersion
1070
     0
  0
VISUALSTYLE
  5
2E
102
{ACAD_XDICTIONARY
360
364
102
}
102
{ACAD_REACTORS
330
2A
102
}
330
2A
100
AcDbVisualStyle
  2

 70
     3
 71
     2
 72
     2
 73
     1
 90
        2
 40
-0.6
 41
30.0
 62
     5
 63
     7
421
 16777215
 74
     1
 91
        0
 64
     7
 65
   257
 75
     1
175
     1
 42
1.0
 92
        0
 66
   257
 43
1.0
 76
     1
 77
     6
 78
     2
 67
     7
 79
     5
170
     0
171
     0
290
     0
174
     0
 93
       13
 44
0.0
173
     0
291
     1
 45
0.0
1001
ACAD
1000
AcDbSavedByObjectVersion
1070
     0
  0
VISUALSTYLE
  5
31
102
{ACAD_XDICTIONARY
360
36A
102
}
102
{ACAD_REACTORS
330
2A
102
}
330
2A
100
AcDbVisualStyle
  2

 70
     6
 71
     1
 72
     2
 73
     2
 90
        0
 40
-0.6
 41
-30.0
 62
     5
 63
     7
421
 16777215
 74
     2
 91
        2
 64
     7
 65
   257
 75
     2
175
     1
 42
40.0
 92
        0
 66
   257
 43
1.0
 76
     1
 77
     6
 78
     2
 67
     7
 79
     3
170
     0
171
     0
290
     0
174
     0
 93
        1
 44
0.0
173
     0
291
     0
 45
0.0
1001
ACAD
1000
AcDbSavedByObjectVersion
1070
     0
  0
VISUALSTYLE
  5
3B
102
{ACAD_XDICTIONARY
360
37E
102
}
102
{ACAD_REACTORS
330
2A
102
}
330
2A
100
AcDbVisualStyle
  2

 70
    20
 71
     2
 72
     2
 73
     0
 90
        0
 40
-0.6
 41
-30.0
 62
     5
 63
     7
421
 16777215
 74
     1
 91
        4
 64
     7
 65
   257
 75
     1
175
     1
 42
1.0
 92
       10
 66
     7
 43
1.0
 76
     1
 77
     6
 78
     2
 67
     7
 79
     5
170
     0
171
     0
290
     0
174
     0
 93
        1
 44
0.0
173
     0
291
     1
 45
0.0
1001
ACAD
1000
AcDbSavedByObjectVersion
1070
     0
  0
VISUALSTYLE
  5
38
102
{ACAD_XDICTIONARY
360
378
102
}
102
{ACAD_REACTORS
330
2A
102
}
330
2A
100
AcDbVisualStyle
  2

 70
    14
 71
     2
 72
     2
 73
     0
 90
        0
 40
-0.6
 41
-30.0
 62
     5
 63
     7
421
 16777215
 74
     1
 91
        4
 64
     7
 65
   257
 75
     7
175
     7
 42
1.0
 92
        8
 66
     7
 43
1.0
 76
     1
 77
     6
 78
     2
 67
     7
 79
     5
170
     0
171
     0
290
     0
174
     0
 93
        1
 44
0.0
173
     0
291
     1
 45
0.0
1001
ACAD
1000
AcDbSavedByObjectVersion
1070
     0
  0
VISUALSTYLE
  5
3C
102
{ACAD_XDICTIONARY
360
380
102
}
102
{ACAD_REACTORS
330
2A
102
}
330
2A
100
AcDbVisualStyle
  2

 70
    21
 71
     2
 72
     2
 73
     0
 90
        0
 40
-0.6
 41
-30.0
 62
     5
 63
     7
421
 16777215
 74
     1
 91
        4
 64
     7
 65
   257
 75
     1
175
     1
 42
1.0
 92
        9
 66
     7
 43
1.0
 76
     1
 77
     6
 78
     2
 67
     7
 79
     5
170
     0
171
     0
290
     0
174
     0
 93
        1
 44
0.0
173
     0
291
     1
 45
0.0
1001
ACAD
1000
AcDbSavedByObjectVersion
1070
     0
  0
VISUALSTYLE
  5
33
102
{ACAD_XDICTIONARY
360
36E
102
}
102
{ACAD_REACTORS
330
2A
102
}
330
2A
100
AcDbVisualStyle
  2

 70
     8
 71
     2
 72
     3
 73
     0
 90
        2
 40
-0.6
 41
30.0
 62
     5
 63
     7
421
 16777215
 74
     0
 91
        0
 64
     7
 65
   257
 75
     1
175
     1
 42
1.0
 92
        8
 66
   257
 43
1.0
 76
     1
 77
     6
 78
     2
 67
     7
 79
     3
170
     0
171
     0
290
     0
174
     0
 93
       13
 44
0.0
173
     0
291
     0
 45
0.0
1001
ACAD
1000
AcDbSavedByObjectVersion
1070
     0
  0
VISUALSTYLE
  5
42
102
{ACAD_XDICTIONARY
360
38C
102
}
102
{ACAD_REACTORS
330
2A
102
}
330
2A
100
AcDbVisualStyle
  2

 70
    27
 71
     2
 72
     2
 73
     1
 90
        2
 40
-0.6
 41
30.0
 62
     5
 63
     7
421
 16777215
 74
     0
 91
        4
 64
     7
 65
   257
 75
     1
175
     1
 42
1.0
 92
        8
 66
   257
 43
1.0
 76
     1
 77
     6
 78
     2
 67
     8
425
  7895160
 79
     3
170
     0
171
     0
290
     0
174
     0
 93
        5
 44
0.0
173
     0
291
     0
 45
0.0
1001
ACAD
1000
AcDbSavedByObjectVersion
1070
     0
  0
VISUALSTYLE
  5
41
102
{ACAD_XDICTIONARY
360
38A
102
}
102
{ACAD_REACTORS
330
2A
102
}
330
2A
100
AcDbVisualStyle
  2

 70
    26
 71
     2
 72
     2
 73
     1
 90
        2
 40
-0.6
 41
30.0
 62
     5
 63
     7
421
 16777215
 74
     1
 91
       10
 64
     7
 65
   257
 75
     2
175
     1
 42
1.0
 92
        8
 66
   257
 43
1.0
 76
     1
 77
     6
 78
     2
 67
     7
 79
     3
170
     0
171
     0
290
     0
174
     0
 93
        5
 44
0.0
173
     0
291
     0
 45
0.0
1001
ACAD
1000
AcDbSavedByObjectVersion
1070
     0
  0
VISUALSTYLE
  5
3E
102
{ACAD_XDICTIONARY
360
384
102
}
102
{ACAD_REACTORS
330
2A
102
}
330
2A
100
AcDbVisualStyle
  2

 70
    23
 71
     2
 72
     2
 73
     3
 90
        0
 40
-0.6
 41
-30.0
 62
     5
 63
     7
421
 16777215
 74
     2
 91
        2
 64
     7
 65
     7
 75
     1
175
     1
 42
40.0
 92
        8
 66
     7
 43
1.0
 76
     1
 77
     6
 78
     2
 67
     7
 79
     3
170
     0
171
     0
290
     0
174
     0
 93
        1
 44
0.0
173
     0
291
     0
 45
0.0
1001
ACAD
1000
AcDbSavedByObjectVersion
1070
     0
  0
VISUALSTYLE
  5
3F
102
{ACAD_XDICTIONARY
360
386
102
}
102
{ACAD_REACTORS
330
2A
102
}
330
2A
100
AcDbVisualStyle
  2

 70
    24
 71
     1
 72
     2
 73
     2
 90
        0
 40
-0.6
 41
-30.0
 62
     5
 63
     7
421
 16777215
 74
     2
 91
        2
 64
     7
 65
     7
 75
     1
175
     1
 42
40.0
 92
       11
 66
     7
 43
1.0
 76
     1
 77
     6
 78
     2
 67
     7
 79
     6
170
     0
171
     0
290
     0
174
     0
 93
        1
 44
0.0
173
     0
291
     0
 45
0.0
1001
ACAD
1000
AcDbSavedByObjectVersion
1070
     0
  0
VISUALSTYLE
  5
37
102
{ACAD_XDICTIONARY
360
376
102
}
102
{ACAD_REACTORS
330
2A
102
}
330
2A
100
AcDbVisualStyle
  2

 70
    13
 71
     2
 72
     2
 73
     0
 90
        0
 40
-0.6
 41
-30.0
 62
     5
 63
     7
421
 16777215
 74
     1
 91
        4
 64
     7
 65
   257
 75
     1
175
     1
 42
1.0
 92
       12
 66
     7
 43
1.0
 76
     1
 77
     6
 78
     2
 67
     7
 79
     5
170
     0
171
     0
290
     0
174
     0
 93
        1
 44
0.0
173
     0
291
     1
 45
0.0
1001
ACAD
1000
AcDbSavedByObjectVersion
1070
     0
  0
VISUALSTYLE
  5
30
102
{ACAD_XDICTIONARY
360
368
102
}
102
{ACAD_REACTORS
330
2A
102
}
330
2A
100
AcDbVisualStyle
  2

 70
     5
 71
     0
 72
     2
 73
     0
 90
        0
 40
-0.6
 41
-30.0
 62
     5
 63
     7
421
 16777215
 74
     1
 91
        4
 64
     7
 65
   257
 75
     1
175
     1
 42
1.0
 92
        0
 66
   257
 43
1.0
 76
     1
 77
     6
 78
     2
 67
     7
 79
     3
170
     0
171
     0
290
     0
174
     0
 93
        1
 44
0.0
173
     0
291
     0
 45
0.0
1001
ACAD
1000
AcDbSavedByObjectVersion
1070
     0
  0
VISUALSTYLE
  5
40
102
{ACAD_XDICTIONARY
360
388
102
}
102
{ACAD_REACTORS
330
2A
102
}
330
2A
100
AcDbVisualStyle
  2

 70
    25
 71
     2
 72
     2
 73
     1
 90
        1
 40
0.5
 41
-30.0
 62
     5
 63
     7
421
 16777215
 74
     1
 91
        0
 64
     7
 65
   257
 75
     1
175
     1
 42
1.0
 92
        8
 66
     7
 43
1.0
 76
     1
 77
     6
 78
     2
 67
     7
 79
     3
170
     0
171
     0
290
     0
174
     0
 93
       13
 44
0.0
173
     0
291
     0
 45
0.0
1001
ACAD
1000
AcDbSavedByObjectVersion
1070
     0
  0
DICTIONARYVAR
  5
2AC
102
{ACAD_REACTORS
330
2AB
102
}
330
2AB
100
DictionaryVariables
280
     0
  1
1:1
  0
DICTIONARYVAR
  5
2ED
102
{ACAD_REACTORS
330
2AB
102
}
330
2AB
100
DictionaryVariables
280
     0
  1
STANDARD
  0
DICTIONARYVAR
  5
2EC
102
{ACAD_REACTORS
330
2AB
102
}
330
2AB
100
DictionaryVariables
280
     0
  1
STANDARD
  0
DICTIONARYVAR
  5
358
102
{ACAD_REACTORS
330
2AB
102
}
330
2AB
100
DictionaryVariables
280
     0
  1
Metric50
  0
DICTIONARYVAR
  5
359
102
{ACAD_REACTORS
330
2AB
102
}
330
2AB
100
DictionaryVariables
280
     0
  1
Metric50
  0
DICTIONARYVAR
  5
2AD
102
{ACAD_REACTORS
330
2AB
102
}
330
2AB
100
DictionaryVariables
280
     0
  1
1
  0
DICTIONARYVAR
  5
35A
102
{ACAD_REACTORS
330
2AB
102
}
330
2AB
100
DictionaryVariables
280
     0
  1
2
  0
DICTIONARY
  5
391
330
2F4
100
AcDbDictionary
280
     1
281
     1
  3
ACAD_XREC_ROUNDTRIP
360
392
  0
DICTIONARY
  5
2E1
330
45
100
AcDbDictionary
280
     1
281
     1
  3
ACAD_XREC_ROUNDTRIP
360
2E2
  0
DICTIONARY
  5
2DF
330
44
100
AcDbDictionary
280
     1
281
     1
  3
ACAD_XREC_ROUNDTRIP
360
2E0
  0
DICTIONARY
  5
2E3
330
46
100
AcDbDictionary
280
     1
281
     1
  3
ACAD_XREC_ROUNDTRIP
360
2E4
  0
DICTIONARY
  5
38F
330
2F3
100
AcDbDictionary
280
     1
281
     1
  3
ACAD_XREC_ROUNDTRIP
360
390
  0
DICTIONARY
  5
2E5
330
6A
100
AcDbDictionary
280
     1
281
     1
  3
ACAD_ROUNDTRIP_2008_TABLESTYLE_CELLSTYLEMAP
360
35C
  3
ACAD_XREC_ROUNDTRIP
360
38E
  0
DICTIONARY
  5
366
330
2F
100
AcDbDictionary
280
     1
281
     1
  3
ACAD_XREC_ROUNDTRIP
360
367
  0
DICTIONARY
  5
36C
330
32
100
AcDbDictionary
280
     1
281
     1
  3
ACAD_XREC_ROUNDTRIP
360
36D
  0
DICTIONARY
  5
374
330
36
100
AcDbDictionary
280
     1
281
     1
  3
ACAD_XREC_ROUNDTRIP
360
375
  0
DICTIONARY
  5
37C
330
3A
100
AcDbDictionary
280
     1
281
     1
  3
ACAD_XREC_ROUNDTRIP
360
37D
  0
DICTIONARY
  5
370
330
34
100
AcDbDictionary
280
     1
281
     1
  3
ACAD_XREC_ROUNDTRIP
360
371
  0
DICTIONARY
  5
372
330
35
100
AcDbDictionary
280
     1
281
     1
  3
ACAD_XREC_ROUNDTRIP
360
373
  0
DICTIONARY
  5
382
330
3D
100
AcDbDictionary
280
     1
281
     1
  3
ACAD_XREC_ROUNDTRIP
360
383
  0
DICTIONARY
  5
37A
330
39
100
AcDbDictionary
280
     1
281
     1
  3
ACAD_XREC_ROUNDTRIP
360
37B
  0
DICTIONARY
  5
35E
330
2B
100
AcDbDictionary
280
     1
281
     1
  3
ACAD_XREC_ROUNDTRIP
360
35F
  0
DICTIONARY
  5
360
330
2C
100
AcDbDictionary
280
     1
281
     1
  3
ACAD_XREC_ROUNDTRIP
360
361
  0
DICTIONARY
  5
362
330
2D
100
AcDbDictionary
280
     1
281
     1
  3
ACAD_XREC_ROUNDTRIP
360
363
  0
DICTIONARY
  5
364
330
2E
100
AcDbDictionary
280
     1
281
     1
  3
ACAD_XREC_ROUNDTRIP
360
365
  0
DICTIONARY
  5
36A
330
31
100
AcDbDictionary
280
     1
281
     1
  3
ACAD_XREC_ROUNDTRIP
360
36B
  0
DICTIONARY
  5
37E
330
3B
100
AcDbDictionary
280
     1
281
     1
  3
ACAD_XREC_ROUNDTRIP
360
37F
  0
DICTIONARY
  5
378
330
38
100
AcDbDictionary
280
     1
281
     1
  3
ACAD_XREC_ROUNDTRIP
360
379
  0
DICTIONARY
  5
380
330
3C
100
AcDbDictionary
280
     1
281
     1
  3
ACAD_XREC_ROUNDTRIP
360
381
  0
DICTIONARY
  5
36E
330
33
100
AcDbDictionary
280
     1
281
     1
  3
ACAD_XREC_ROUNDTRIP
360
36F
  0
DICTIONARY
  5
38C
330
42
100
AcDbDictionary
280
     1
281
     1
  3
ACAD_XREC_ROUNDTRIP
360
38D
  0
DICTIONARY
  5
38A
330
41
100
AcDbDictionary
280
     1
281
     1
  3
ACAD_XREC_ROUNDTRIP
360
38B
  0
DICTIONARY
  5
384
330
3E
100
AcDbDictionary
280
     1
281
     1
  3
ACAD_XREC_ROUNDTRIP
360
385
  0
DICTIONARY
  5
386
330
3F
100
AcDbDictionary
280
     1
281
     1
  3
ACAD_XREC_ROUNDTRIP
360
387
  0
DICTIONARY
  5
376
330
37
100
AcDbDictionary
280
     1
281
     1
  3
ACAD_XREC_ROUNDTRIP
360
377
  0
DICTIONARY
  5
368
330
30
100
AcDbDictionary
280
     1
281
     1
  3
ACAD_XREC_ROUNDTRIP
360
369
  0
DICTIONARY
  5
388
330
40
100
AcDbDictionary
280
     1
281
     1
  3
ACAD_XREC_ROUNDTRIP
360
389
  0
XRECORD
  5
392
102
{ACAD_REACTORS
330
391
102
}
330
391
100
AcDbXrecord
280
     1
102
DISPLAYNAME
  1
Metric50
102
FLAGS
 90
        0
  0
XRECORD
  5
2E2
102
{ACAD_REACTORS
330
2E1
102
}
330
2E1
100
AcDbXrecord
280
     1
102
MATERIAL
148
0.0
149
0.0
149
0.0
 93
        0
 94
      127
282
     0
 72
     1
 77
     1
171
     1
175
     1
179
     1
273
     0
  0
XRECORD
  5
2E0
102
{ACAD_REACTORS
330
2DF
102
}
330
2DF
100
AcDbXrecord
280
     1
102
MATERIAL
148
0.0
149
0.0
149
0.0
 93
        0
 94
      127
282
     0
 72
     1
 77
     1
171
     1
175
     1
179
     1
273
     0
  0
XRECORD
  5
2E4
102
{ACAD_REACTORS
330
2E3
102
}
330
2E3
100
AcDbXrecord
280
     1
102
MATERIAL
148
0.0
149
0.0
149
0.0
 93
        0
 94
      127
282
     0
 72
     1
 77
     1
171
     1
175
     1
179
     1
273
     0
  0
XRECORD
  5
390
102
{ACAD_REACTORS
330
38F
102
}
330
38F
100
AcDbXrecord
280
     1
102
DISPLAYNAME
  1
Metric50
102
FLAGS
 90
        0
  0
CELLSTYLEMAP
  5
35C
102
{ACAD_REACTORS
330
2E5
102
}
330
2E5
100
AcDbCellStyleMap
 90
        3
300
CELLSTYLE
  1
TABLEFORMAT_BEGIN
 90
        5
170
     1
 91
        0
 92
    32768
 62
   257
 93
        1
300
CONTENTFORMAT
  1
CONTENTFORMAT_BEGIN
 90
        0
 91
        0
 92
        4
 93
        0
300

 40
0.0
140
1.0
 94
        5
 62
     0
340
11
144
0.25
309
CONTENTFORMAT_END
171
     1
301
MARGIN
  1
CELLMARGIN_BEGIN
 40
0.06
 40
0.06
 40
0.06
 40
0.06
 40
0.18
 40
0.18
309
CELLMARGIN_END
 94
        6
 95
        1
302
GRIDFORMAT
  1
GRIDFORMAT_BEGIN
 90
        0
 91
        1
 62
     0
 92
       -2
340
14
 93
        0
 40
0.045
309
GRIDFORMAT_END
 95
        2
302
GRIDFORMAT
  1
GRIDFORMAT_BEGIN
 90
        0
 91
        1
 62
     0
 92
       -2
340
14
 93
        0
 40
0.045
309
GRIDFORMAT_END
 95
        4
302
GRIDFORMAT
  1
GRIDFORMAT_BEGIN
 90
        0
 91
        1
 62
     0
 92
       -2
340
14
 93
        0
 40
0.045
309
GRIDFORMAT_END
 95
        8
302
GRIDFORMAT
  1
GRIDFORMAT_BEGIN
 90
        0
 91
        1
 62
     0
 92
       -2
340
14
 93
        0
 40
0.045
309
GRIDFORMAT_END
 95
       16
302
GRIDFORMAT
  1
GRIDFORMAT_BEGIN
 90
        0
 91
        1
 62
     0
 92
       -2
340
14
 93
        0
 40
0.045
309
GRIDFORMAT_END
 95
       32
302
GRIDFORMAT
  1
GRIDFORMAT_BEGIN
 90
        0
 91
        1
 62
     0
 92
       -2
340
14
 93
        0
 40
0.045
309
GRIDFORMAT_END
309
TABLEFORMAT_END
  1
CELLSTYLE_BEGIN
 90
        1
 91
        1
300
_TITLE
309
CELLSTYLE_END
300
CELLSTYLE
  1
TABLEFORMAT_BEGIN
 90
        5
170
     1
 91
        0
 92
        0
 62
   257
 93
        1
300
CONTENTFORMAT
  1
CONTENTFORMAT_BEGIN
 90
        0
 91
        0
 92
        4
 93
        0
300

 40
0.0
140
1.0
 94
        5
 62
     0
340
11
144
0.18
309
CONTENTFORMAT_END
171
     1
301
MARGIN
  1
CELLMARGIN_BEGIN
 40
0.06
 40
0.06
 40
0.06
 40
0.06
 40
0.18
 40
0.18
309
CELLMARGIN_END
 94
        6
 95
        1
302
GRIDFORMAT
  1
GRIDFORMAT_BEGIN
 90
        0
 91
        1
 62
     0
 92
       -2
340
14
 93
        0
 40
0.045
309
GRIDFORMAT_END
 95
        2
302
GRIDFORMAT
  1
GRIDFORMAT_BEGIN
 90
        0
 91
        1
 62
     0
 92
       -2
340
14
 93
        0
 40
0.045
309
GRIDFORMAT_END
 95
        4
302
GRIDFORMAT
  1
GRIDFORMAT_BEGIN
 90
        0
 91
        1
 62
     0
 92
       -2
340
14
 93
        0
 40
0.045
309
GRIDFORMAT_END
 95
        8
302
GRIDFORMAT
  1
GRIDFORMAT_BEGIN
 90
        0
 91
        1
 62
     0
 92
       -2
340
14
 93
        0
 40
0.045
309
GRIDFORMAT_END
 95
       16
302
GRIDFORMAT
  1
GRIDFORMAT_BEGIN
 90
        0
 91
        1
 62
     0
 92
       -2
340
14
 93
        0
 40
0.045
309
GRIDFORMAT_END
 95
       32
302
GRIDFORMAT
  1
GRIDFORMAT_BEGIN
 90
        0
 91
        1
 62
     0
 92
       -2
340
14
 93
        0
 40
0.045
309
GRIDFORMAT_END
309
TABLEFORMAT_END
  1
CELLSTYLE_BEGIN
 90
        2
 91
        1
300
_HEADER
309
CELLSTYLE_END
300
CELLSTYLE
  1
TABLEFORMAT_BEGIN
 90
        5
170
     1
 91
        0
 92
        0
 62
   257
 93
        1
300
CONTENTFORMAT
  1
CONTENTFORMAT_BEGIN
 90
        0
 91
        0
 92
        4
 93
        0
300

 40
0.0
140
1.0
 94
        2
 62
     0
340
11
144
0.18
309
CONTENTFORMAT_END
171
     1
301
MARGIN
  1
CELLMARGIN_BEGIN
 40
0.06
 40
0.06
 40
0.06
 40
0.06
 40
0.18
 40
0.18
309
CELLMARGIN_END
 94
        6
 95
        1
302
GRIDFORMAT
  1
GRIDFORMAT_BEGIN
 90
        0
 91
        1
 62
     0
 92
       -2
340
14
 93
        0
 40
0.045
309
GRIDFORMAT_END
 95
        2
302
GRIDFORMAT
  1
GRIDFORMAT_BEGIN
 90
        0
 91
        1
 62
     0
 92
       -2
340
14
 93
        0
 40
0.045
309
GRIDFORMAT_END
 95
        4
302
GRIDFORMAT
  1
GRIDFORMAT_BEGIN
 90
        0
 91
        1
 62
     0
 92
       -2
340
14
 93
        0
 40
0.045
309
GRIDFORMAT_END
 95
        8
302
GRIDFORMAT
  1
GRIDFORMAT_BEGIN
 90
        0
 91
        1
 62
     0
 92
       -2
340
14
 93
        0
 40
0.045
309
GRIDFORMAT_END
 95
       16
302
GRIDFORMAT
  1
GRIDFORMAT_BEGIN
 90
        0
 91
        1
 62
     0
 92
       -2
340
14
 93
        0
 40
0.045
309
GRIDFORMAT_END
 95
       32
302
GRIDFORMAT
  1
GRIDFORMAT_BEGIN
 90
        0
 91
        1
 62
     0
 92
       -2
340
14
 93
        0
 40
0.045
309
GRIDFORMAT_END
309
TABLEFORMAT_END
  1
CELLSTYLE_BEGIN
 90
        3
 91
        2
300
_DATA
309
CELLSTYLE_END
  0
XRECORD
  5
38E
102
{ACAD_REACTORS
330
2E5
102
}
330
2E5
100
AcDbXrecord
280
     1
102
ACAD_ROUNDTRIP_PRE2007_TABLESTYLE
 90
        4
 91
        0
  1

 92
        4
 93
        0
  2

 94
        4
 95
        0
  3

  0
XRECORD
  5
367
102
{ACAD_REACTORS
330
366
102
}
330
366
100
AcDbXrecord
280
     1
102
RTVSPost2010Prop28
280
     1
102
RTVSPost2010PropOp28
 70
     1
102
RTVSPost2010Prop29
280
     1
102
RTVSPost2010PropOp29
 70
     1
102
RTVSPost2010Prop30
280
     0
102
RTVSPost2010PropOp30
 70
     1
102
RTVSPost2010Prop31
280
     0
102
RTVSPost2010PropOp31
 70
     1
102
RTVSPost2010Prop32
280
     0
102
RTVSPost2010PropOp32
 70
     1
102
RTVSPost2010Prop33
280
     0
102
RTVSPost2010PropOp33
 70
     1
102
RTVSPost2010Prop34
280
     0
102
RTVSPost2010PropOp34
 70
     1
102
RTVSPost2010Prop35
280
     0
102
RTVSPost2010PropOp35
 70
     1
102
RTVSPost2010Prop36
280
     0
102
RTVSPost2010PropOp36
 70
     1
102
RTVSPost2010Prop37
 90
       50
102
RTVSPost2010PropOp37
 70
     1
102
RTVSPost2010Prop38
140
0.0
102
RTVSPost2010PropOp38
 70
     1
102
RTVSPost2010Prop39
140
1.0
102
RTVSPost2010PropOp39
 70
     1
102
RTVSPost2010Prop40
 90
        0
102
RTVSPost2010PropOp40
 70
     1
102
RTVSPost2010Prop41ColorIndex
 90
       18
102
RTVSPost2010Prop41ColorRGB
 90
        0
102
RTVSPost2010PropOp41
 70
     1
102
RTVSPost2010Prop42
 90
       50
102
RTVSPost2010PropOp42
 70
     1
102
RTVSPost2010Prop43
 90
        3
102
RTVSPost2010PropOp43
 70
     1
102
RTVSPost2010Prop44ColorIndex
 90
        5
102
RTVSPost2010Prop44ColorRGB
 90
      255
102
RTVSPost2010PropOp44
 70
     1
102
RTVSPost2010Prop45
280
     0
102
RTVSPost2010PropOp45
 70
     1
102
RTVSPost2010Prop46
 90
       50
102
RTVSPost2010PropOp46
 70
     1
102
RTVSPost2010Prop47
 90
       50
102
RTVSPost2010PropOp47
 70
     1
102
RTVSPost2010Prop48
 90
       50
102
RTVSPost2010PropOp48
 70
     1
102
RTVSPost2010Prop49
280
     0
102
RTVSPost2010PropOp49
 70
     1
102
RTVSPost2010Prop50
 90
       50
102
RTVSPost2010PropOp50
 70
     1
102
RTVSPost2010Prop51ColorIndex
 90
      256
102
RTVSPost2010Prop51ColorRGB
 90
-16777216
102
RTVSPost2010PropOp51
 70
     0
102
RTVSPost2010Prop52
140
1.0
102
RTVSPost2010PropOp52
 70
     0
102
RTVSPost2010Prop53
 90
        2
102
RTVSPost2010PropOp53
 70
     1
102
RTVSPost2010Prop54
  1
strokes_ogs.tif
102
RTVSPost2010PropOp54
 70
     1
102
RTVSPost2010Prop55
280
     0
102
RTVSPost2010PropOp55
 70
     1
102
RTVSPost2010Prop56
140
1.0
102
RTVSPost2010PropOp56
 70
     1
102
RTVSPost2010Prop57
140
1.0
102
RTVSPost2010PropOp57
 70
     1
102
RTVSPropertyOp0
 70
     1
102
RTVSPropertyOp1
 70
     1
102
RTVSPropertyOp2
 70
     1
102
RTVSPropertyOp3
 70
     1
102
RTVSPropertyOp4
 70
     1
102
RTVSPropertyOp5
 70
     1
102
RTVSPropertyOp6
 70
     1
102
RTVSPropertyOp7
 70
     1
102
RTVSPropertyOp8
 70
     1
102
RTVSPropertyOp9
 70
     1
102
RTVSPropertyOp10
 70
     1
102
RTVSPropertyOp11
 70
     1
102
RTVSPropertyOp12
 70
     1
102
RTVSPropertyOp13
 70
     1
102
RTVSPropertyOp14
 70
     1
102
RTVSPropertyOp15
 70
     1
102
RTVSPropertyOp16
 70
     1
102
RTVSPropertyOp17
 70
     1
102
RTVSPropertyOp18
 70
     1
102
RTVSPropertyOp19
 70
     1
102
RTVSPropertyOp20
 70
     1
102
RTVSPropertyOp21
 70
     1
102
RTVSPropertyOp22
 70
     1
102
RTVSPropertyOp23
 70
     1
102
RTVSPropertyOp24
 70
     1
102
RTVSPropertyOp25
 70
     1
102
RTVSPropertyOp26
 70
     1
102
RTVSPropertyOp27
 70
     1
102
RTVSPropertyOp28
 70
     1
102
RTVSPropertyOp29
 70
     1
102
RTVSPropertyOp30
 70
     1
102
RTVSPropertyOp31
 70
     1
102
RTVSPropertyOp32
 70
     1
102
RTVSPropertyOp33
 70
     1
102
RTVSPropertyOp34
 70
     1
102
RTVSPropertyOp35
 70
     1
102
RTVSPropertyOp36
 70
     1
102
RTVSPropertyOp37
 70
     1
102
RTVSPropertyOp38
 70
     1
102
RTVSPropertyOp39
 70
     1
102
RTVSPropertyOp40
 70
     1
102
RTVSPropertyOp41
 70
     1
102
RTVSPropertyOp42
 70
     1
102
RTVSPropertyOp43
 70
     1
102
RTVSPropertyOp44
 70
     1
102
RTVSPropertyOp45
 70
     1
102
RTVSPropertyOp46
 70
     1
102
RTVSPropertyOp47
 70
     1
102
RTVSPropertyOp48
 70
     1
102
RTVSPropertyOp49
 70
     1
102
RTVSPropertyOp50
 70
     1
102
RTVSPropertyOp51
 70
     0
102
RTVSPropertyOp52
 70
     0
102
RTVSPropertyOp53
 70
     1
102
RTVSPropertyOp54
 70
     1
102
RTVSPropertyOp55
 70
     1
102
RTVSPropertyOp56
 70
     1
102
RTVSPropertyOp57
 70
     1
102
RTVSPropertyOp58
 70
     1
102
RTVSPropertyOp59
 70
     1
102
RTVSPropertyOp60
 70
     1
102
RTVSPropertyOp61
 70
     1
102
RTVSPropertyOp62
 70
     1
  0
XRECORD
  5
36D
102
{ACAD_REACTORS
330
36C
102
}
330
36C
100
AcDbXrecord
280
     1
102
RTVSPost2010Prop28
280
     0
102
RTVSPost2010PropOp28
 70
     1
102
RTVSPost2010Prop29
280
     1
102
RTVSPost2010PropOp29
 70
     1
102
RTVSPost2010Prop30
280
     1
102
RTVSPost2010PropOp30
 70
     1
102
RTVSPost2010Prop31
280
     0
102
RTVSPost2010PropOp31
 70
     1
102
RTVSPost2010Prop32
280
     0
102
RTVSPost2010PropOp32
 70
     1
102
RTVSPost2010Prop33
280
     0
102
RTVSPost2010PropOp33
 70
     1
102
RTVSPost2010Prop34
280
     0
102
RTVSPost2010PropOp34
 70
     1
102
RTVSPost2010Prop35
280
     0
102
RTVSPost2010PropOp35
 70
     1
102
RTVSPost2010Prop36
280
     0
102
RTVSPost2010PropOp36
 70
     1
102
RTVSPost2010Prop37
 90
       50
102
RTVSPost2010PropOp37
 70
     1
102
RTVSPost2010Prop38
140
0.0
102
RTVSPost2010PropOp38
 70
     1
102
RTVSPost2010Prop39
140
1.0
102
RTVSPost2010PropOp39
 70
     1
102
RTVSPost2010Prop40
 90
        0
102
RTVSPost2010PropOp40
 70
     1
102
RTVSPost2010Prop41ColorIndex
 90
       18
102
RTVSPost2010Prop41ColorRGB
 90
        0
102
RTVSPost2010PropOp41
 70
     1
102
RTVSPost2010Prop42
 90
       50
102
RTVSPost2010PropOp42
 70
     1
102
RTVSPost2010Prop43
 90
        3
102
RTVSPost2010PropOp43
 70
     1
102
RTVSPost2010Prop44ColorIndex
 90
        5
102
RTVSPost2010Prop44ColorRGB
 90
      255
102
RTVSPost2010PropOp44
 70
     1
102
RTVSPost2010Prop45
280
     0
102
RTVSPost2010PropOp45
 70
     1
102
RTVSPost2010Prop46
 90
       50
102
RTVSPost2010PropOp46
 70
     1
102
RTVSPost2010Prop47
 90
       50
102
RTVSPost2010PropOp47
 70
     1
102
RTVSPost2010Prop48
 90
       50
102
RTVSPost2010PropOp48
 70
     1
102
RTVSPost2010Prop49
280
     0
102
RTVSPost2010PropOp49
 70
     1
102
RTVSPost2010Prop50
 90
       50
102
RTVSPost2010PropOp50
 70
     1
102
RTVSPost2010Prop51ColorIndex
 90
      256
102
RTVSPost2010Prop51ColorRGB
 90
-16777216
102
RTVSPost2010PropOp51
 70
     0
102
RTVSPost2010Prop52
140
1.0
102
RTVSPost2010PropOp52
 70
     0
102
RTVSPost2010Prop53
 90
        2
102
RTVSPost2010PropOp53
 70
     1
102
RTVSPost2010Prop54
  1
strokes_ogs.tif
102
RTVSPost2010PropOp54
 70
     1
102
RTVSPost2010Prop55
280
     0
102
RTVSPost2010PropOp55
 70
     1
102
RTVSPost2010Prop56
140
1.0
102
RTVSPost2010PropOp56
 70
     1
102
RTVSPost2010Prop57
140
1.0
102
RTVSPost2010PropOp57
 70
     1
102
RTVSPropertyOp0
 70
     1
102
RTVSPropertyOp1
 70
     1
102
RTVSPropertyOp2
 70
     1
102
RTVSPropertyOp3
 70
     1
102
RTVSPropertyOp4
 70
     1
102
RTVSPropertyOp5
 70
     1
102
RTVSPropertyOp6
 70
     1
102
RTVSPropertyOp7
 70
     1
102
RTVSPropertyOp8
 70
     1
102
RTVSPropertyOp9
 70
     1
102
RTVSPropertyOp10
 70
     1
102
RTVSPropertyOp11
 70
     1
102
RTVSPropertyOp12
 70
     1
102
RTVSPropertyOp13
 70
     1
102
RTVSPropertyOp14
 70
     1
102
RTVSPropertyOp15
 70
     1
102
RTVSPropertyOp16
 70
     1
102
RTVSPropertyOp17
 70
     1
102
RTVSPropertyOp18
 70
     1
102
RTVSPropertyOp19
 70
     1
102
RTVSPropertyOp20
 70
     1
102
RTVSPropertyOp21
 70
     1
102
RTVSPropertyOp22
 70
     1
102
RTVSPropertyOp23
 70
     1
102
RTVSPropertyOp24
 70
     1
102
RTVSPropertyOp25
 70
     1
102
RTVSPropertyOp26
 70
     1
102
RTVSPropertyOp27
 70
     1
102
RTVSPropertyOp28
 70
     1
102
RTVSPropertyOp29
 70
     1
102
RTVSPropertyOp30
 70
     1
102
RTVSPropertyOp31
 70
     1
102
RTVSPropertyOp32
 70
     1
102
RTVSPropertyOp33
 70
     1
102
RTVSPropertyOp34
 70
     1
102
RTVSPropertyOp35
 70
     1
102
RTVSPropertyOp36
 70
     1
102
RTVSPropertyOp37
 70
     1
102
RTVSPropertyOp38
 70
     1
102
RTVSPropertyOp39
 70
     1
102
RTVSPropertyOp40
 70
     1
102
RTVSPropertyOp41
 70
     1
102
RTVSPropertyOp42
 70
     1
102
RTVSPropertyOp43
 70
     1
102
RTVSPropertyOp44
 70
     1
102
RTVSPropertyOp45
 70
     1
102
RTVSPropertyOp46
 70
     1
102
RTVSPropertyOp47
 70
     1
102
RTVSPropertyOp48
 70
     1
102
RTVSPropertyOp49
 70
     1
102
RTVSPropertyOp50
 70
     1
102
RTVSPropertyOp51
 70
     0
102
RTVSPropertyOp52
 70
     0
102
RTVSPropertyOp53
 70
     1
102
RTVSPropertyOp54
 70
     1
102
RTVSPropertyOp55
 70
     1
102
RTVSPropertyOp56
 70
     1
102
RTVSPropertyOp57
 70
     1
102
RTVSPropertyOp58
 70
     1
102
RTVSPropertyOp59
 70
     1
102
RTVSPropertyOp60
 70
     1
102
RTVSPropertyOp61
 70
     1
102
RTVSPropertyOp62
 70
     1
  0
XRECORD
  5
375
102
{ACAD_REACTORS
330
374
102
}
330
374
100
AcDbXrecord
280
     1
102
RTVSPost2010Prop28
280
     0
102
RTVSPost2010PropOp28
 70
     1
102
RTVSPost2010Prop29
280
     1
102
RTVSPost2010PropOp29
 70
     1
102
RTVSPost2010Prop30
280
     1
102
RTVSPost2010PropOp30
 70
     1
102
RTVSPost2010Prop31
280
     0
102
RTVSPost2010PropOp31
 70
     1
102
RTVSPost2010Prop32
280
     0
102
RTVSPost2010PropOp32
 70
     1
102
RTVSPost2010Prop33
280
     0
102
RTVSPost2010PropOp33
 70
     1
102
RTVSPost2010Prop34
280
     0
102
RTVSPost2010PropOp34
 70
     1
102
RTVSPost2010Prop35
280
     0
102
RTVSPost2010PropOp35
 70
     1
102
RTVSPost2010Prop36
280
     0
102
RTVSPost2010PropOp36
 70
     1
102
RTVSPost2010Prop37
 90
       50
102
RTVSPost2010PropOp37
 70
     1
102
RTVSPost2010Prop38
140
0.0
102
RTVSPost2010PropOp38
 70
     1
102
RTVSPost2010Prop39
140
1.0
102
RTVSPost2010PropOp39
 70
     1
102
RTVSPost2010Prop40
 90
        0
102
RTVSPost2010PropOp40
 70
     1
102
RTVSPost2010Prop41ColorIndex
 90
       18
102
RTVSPost2010Prop41ColorRGB
 90
        0
102
RTVSPost2010PropOp41
 70
     1
102
RTVSPost2010Prop42
 90
       50
102
RTVSPost2010PropOp42
 70
     1
102
RTVSPost2010Prop43
 90
        3
102
RTVSPost2010PropOp43
 70
     1
102
RTVSPost2010Prop44ColorIndex
 90
        5
102
RTVSPost2010Prop44ColorRGB
 90
      255
102
RTVSPost2010PropOp44
 70
     1
102
RTVSPost2010Prop45
280
     0
102
RTVSPost2010PropOp45
 70
     1
102
RTVSPost2010Prop46
 90
       50
102
RTVSPost2010PropOp46
 70
     1
102
RTVSPost2010Prop47
 90
       50
102
RTVSPost2010PropOp47
 70
     1
102
RTVSPost2010Prop48
 90
       50
102
RTVSPost2010PropOp48
 70
     1
102
RTVSPost2010Prop49
280
     0
102
RTVSPost2010PropOp49
 70
     1
102
RTVSPost2010Prop50
 90
       50
102
RTVSPost2010PropOp50
 70
     1
102
RTVSPost2010Prop51ColorIndex
 90
      256
102
RTVSPost2010Prop51ColorRGB
 90
-16777216
102
RTVSPost2010PropOp51
 70
     0
102
RTVSPost2010Prop52
140
1.0
102
RTVSPost2010PropOp52
 70
     0
102
RTVSPost2010Prop53
 90
        2
102
RTVSPost2010PropOp53
 70
     1
102
RTVSPost2010Prop54
  1
strokes_ogs.tif
102
RTVSPost2010PropOp54
 70
     1
102
RTVSPost2010Prop55
280
     0
102
RTVSPost2010PropOp55
 70
     1
102
RTVSPost2010Prop56
140
1.0
102
RTVSPost2010PropOp56
 70
     1
102
RTVSPost2010Prop57
140
1.0
102
RTVSPost2010PropOp57
 70
     1
102
RTVSPropertyOp0
 70
     1
102
RTVSPropertyOp1
 70
     1
102
RTVSPropertyOp2
 70
     1
102
RTVSPropertyOp3
 70
     1
102
RTVSPropertyOp4
 70
     1
102
RTVSPropertyOp5
 70
     1
102
RTVSPropertyOp6
 70
     1
102
RTVSPropertyOp7
 70
     1
102
RTVSPropertyOp8
 70
     1
102
RTVSPropertyOp9
 70
     1
102
RTVSPropertyOp10
 70
     1
102
RTVSPropertyOp11
 70
     1
102
RTVSPropertyOp12
 70
     1
102
RTVSPropertyOp13
 70
     1
102
RTVSPropertyOp14
 70
     1
102
RTVSPropertyOp15
 70
     1
102
RTVSPropertyOp16
 70
     1
102
RTVSPropertyOp17
 70
     1
102
RTVSPropertyOp18
 70
     1
102
RTVSPropertyOp19
 70
     1
102
RTVSPropertyOp20
 70
     1
102
RTVSPropertyOp21
 70
     1
102
RTVSPropertyOp22
 70
     1
102
RTVSPropertyOp23
 70
     1
102
RTVSPropertyOp24
 70
     1
102
RTVSPropertyOp25
 70
     1
102
RTVSPropertyOp26
 70
     1
102
RTVSPropertyOp27
 70
     1
102
RTVSPropertyOp28
 70
     1
102
RTVSPropertyOp29
 70
     1
102
RTVSPropertyOp30
 70
     1
102
RTVSPropertyOp31
 70
     1
102
RTVSPropertyOp32
 70
     1
102
RTVSPropertyOp33
 70
     1
102
RTVSPropertyOp34
 70
     1
102
RTVSPropertyOp35
 70
     1
102
RTVSPropertyOp36
 70
     1
102
RTVSPropertyOp37
 70
     1
102
RTVSPropertyOp38
 70
     1
102
RTVSPropertyOp39
 70
     1
102
RTVSPropertyOp40
 70
     1
102
RTVSPropertyOp41
 70
     1
102
RTVSPropertyOp42
 70
     1
102
RTVSPropertyOp43
 70
     1
102
RTVSPropertyOp44
 70
     1
102
RTVSPropertyOp45
 70
     1
102
RTVSPropertyOp46
 70
     1
102
RTVSPropertyOp47
 70
     1
102
RTVSPropertyOp48
 70
     1
102
RTVSPropertyOp49
 70
     1
102
RTVSPropertyOp50
 70
     1
102
RTVSPropertyOp51
 70
     0
102
RTVSPropertyOp52
 70
     0
102
RTVSPropertyOp53
 70
     1
102
RTVSPropertyOp54
 70
     1
102
RTVSPropertyOp55
 70
     1
102
RTVSPropertyOp56
 70
     1
102
RTVSPropertyOp57
 70
     1
102
RTVSPropertyOp58
 70
     1
102
RTVSPropertyOp59
 70
     1
102
RTVSPropertyOp60
 70
     1
102
RTVSPropertyOp61
 70
     1
102
RTVSPropertyOp62
 70
     1
  0
XRECORD
  5
37D
102
{ACAD_REACTORS
330
37C
102
}
330
37C
100
AcDbXrecord
280
     1
102
RTVSPost2010Prop28
280
     0
102
RTVSPost2010PropOp28
 70
     1
102
RTVSPost2010Prop29
280
     1
102
RTVSPost2010PropOp29
 70
     1
102
RTVSPost2010Prop30
280
     1
102
RTVSPost2010PropOp30
 70
     1
102
RTVSPost2010Prop31
280
     0
102
RTVSPost2010PropOp31
 70
     1
102
RTVSPost2010Prop32
280
     0
102
RTVSPost2010PropOp32
 70
     1
102
RTVSPost2010Prop33
280
     0
102
RTVSPost2010PropOp33
 70
     1
102
RTVSPost2010Prop34
280
     0
102
RTVSPost2010PropOp34
 70
     1
102
RTVSPost2010Prop35
280
     0
102
RTVSPost2010PropOp35
 70
     1
102
RTVSPost2010Prop36
280
     0
102
RTVSPost2010PropOp36
 70
     1
102
RTVSPost2010Prop37
 90
       50
102
RTVSPost2010PropOp37
 70
     1
102
RTVSPost2010Prop38
140
0.0
102
RTVSPost2010PropOp38
 70
     1
102
RTVSPost2010Prop39
140
1.0
102
RTVSPost2010PropOp39
 70
     1
102
RTVSPost2010Prop40
 90
        0
102
RTVSPost2010PropOp40
 70
     1
102
RTVSPost2010Prop41ColorIndex
 90
       18
102
RTVSPost2010Prop41ColorRGB
 90
        0
102
RTVSPost2010PropOp41
 70
     1
102
RTVSPost2010Prop42
 90
       50
102
RTVSPost2010PropOp42
 70
     1
102
RTVSPost2010Prop43
 90
        3
102
RTVSPost2010PropOp43
 70
     1
102
RTVSPost2010Prop44ColorIndex
 90
        5
102
RTVSPost2010Prop44ColorRGB
 90
      255
102
RTVSPost2010PropOp44
 70
     1
102
RTVSPost2010Prop45
280
     0
102
RTVSPost2010PropOp45
 70
     1
102
RTVSPost2010Prop46
 90
       50
102
RTVSPost2010PropOp46
 70
     1
102
RTVSPost2010Prop47
 90
       50
102
RTVSPost2010PropOp47
 70
     1
102
RTVSPost2010Prop48
 90
       50
102
RTVSPost2010PropOp48
 70
     1
102
RTVSPost2010Prop49
280
     0
102
RTVSPost2010PropOp49
 70
     1
102
RTVSPost2010Prop50
 90
       50
102
RTVSPost2010PropOp50
 70
     1
102
RTVSPost2010Prop51ColorIndex
 90
      256
102
RTVSPost2010Prop51ColorRGB
 90
-16777216
102
RTVSPost2010PropOp51
 70
     0
102
RTVSPost2010Prop52
140
1.0
102
RTVSPost2010PropOp52
 70
     0
102
RTVSPost2010Prop53
 90
        2
102
RTVSPost2010PropOp53
 70
     1
102
RTVSPost2010Prop54
  1
strokes_ogs.tif
102
RTVSPost2010PropOp54
 70
     1
102
RTVSPost2010Prop55
280
     0
102
RTVSPost2010PropOp55
 70
     1
102
RTVSPost2010Prop56
140
1.0
102
RTVSPost2010PropOp56
 70
     1
102
RTVSPost2010Prop57
140
1.0
102
RTVSPost2010PropOp57
 70
     1
102
RTVSPropertyOp0
 70
     1
102
RTVSPropertyOp1
 70
     1
102
RTVSPropertyOp2
 70
     1
102
RTVSPropertyOp3
 70
     1
102
RTVSPropertyOp4
 70
     1
102
RTVSPropertyOp5
 70
     1
102
RTVSPropertyOp6
 70
     1
102
RTVSPropertyOp7
 70
     1
102
RTVSPropertyOp8
 70
     1
102
RTVSPropertyOp9
 70
     1
102
RTVSPropertyOp10
 70
     1
102
RTVSPropertyOp11
 70
     1
102
RTVSPropertyOp12
 70
     1
102
RTVSPropertyOp13
 70
     1
102
RTVSPropertyOp14
 70
     1
102
RTVSPropertyOp15
 70
     1
102
RTVSPropertyOp16
 70
     1
102
RTVSPropertyOp17
 70
     1
102
RTVSPropertyOp18
 70
     1
102
RTVSPropertyOp19
 70
     1
102
RTVSPropertyOp20
 70
     1
102
RTVSPropertyOp21
 70
     1
102
RTVSPropertyOp22
 70
     1
102
RTVSPropertyOp23
 70
     1
102
RTVSPropertyOp24
 70
     1
102
RTVSPropertyOp25
 70
     1
102
RTVSPropertyOp26
 70
     1
102
RTVSPropertyOp27
 70
     1
102
RTVSPropertyOp28
 70
     1
102
RTVSPropertyOp29
 70
     1
102
RTVSPropertyOp30
 70
     1
102
RTVSPropertyOp31
 70
     1
102
RTVSPropertyOp32
 70
     1
102
RTVSPropertyOp33
 70
     1
102
RTVSPropertyOp34
 70
     1
102
RTVSPropertyOp35
 70
     1
102
RTVSPropertyOp36
 70
     1
102
RTVSPropertyOp37
 70
     1
102
RTVSPropertyOp38
 70
     1
102
RTVSPropertyOp39
 70
     1
102
RTVSPropertyOp40
 70
     1
102
RTVSPropertyOp41
 70
     1
102
RTVSPropertyOp42
 70
     1
102
RTVSPropertyOp43
 70
     1
102
RTVSPropertyOp44
 70
     1
102
RTVSPropertyOp45
 70
     1
102
RTVSPropertyOp46
 70
     1
102
RTVSPropertyOp47
 70
     1
102
RTVSPropertyOp48
 70
     1
102
RTVSPropertyOp49
 70
     1
102
RTVSPropertyOp50
 70
     1
102
RTVSPropertyOp51
 70
     0
102
RTVSPropertyOp52
 70
     0
102
RTVSPropertyOp53
 70
     1
102
RTVSPropertyOp54
 70
     1
102
RTVSPropertyOp55
 70
     1
102
RTVSPropertyOp56
 70
     1
102
RTVSPropertyOp57
 70
     1
102
RTVSPropertyOp58
 70
     1
102
RTVSPropertyOp59
 70
     1
102
RTVSPropertyOp60
 70
     1
102
RTVSPropertyOp61
 70
     1
102
RTVSPropertyOp62
 70
     1
  0
XRECORD
  5
371
102
{ACAD_REACTORS
330
370
102
}
330
370
100
AcDbXrecord
280
     1
102
RTVSPost2010Prop28
280
     0
102
RTVSPost2010PropOp28
 70
     1
102
RTVSPost2010Prop29
280
     1
102
RTVSPost2010PropOp29
 70
     1
102
RTVSPost2010Prop30
280
     1
102
RTVSPost2010PropOp30
 70
     1
102
RTVSPost2010Prop31
280
     0
102
RTVSPost2010PropOp31
 70
     1
102
RTVSPost2010Prop32
280
     0
102
RTVSPost2010PropOp32
 70
     1
102
RTVSPost2010Prop33
280
     0
102
RTVSPost2010PropOp33
 70
     1
102
RTVSPost2010Prop34
280
     0
102
RTVSPost2010PropOp34
 70
     1
102
RTVSPost2010Prop35
280
     0
102
RTVSPost2010PropOp35
 70
     1
102
RTVSPost2010Prop36
280
     0
102
RTVSPost2010PropOp36
 70
     1
102
RTVSPost2010Prop37
 90
       50
102
RTVSPost2010PropOp37
 70
     1
102
RTVSPost2010Prop38
140
0.0
102
RTVSPost2010PropOp38
 70
     1
102
RTVSPost2010Prop39
140
1.0
102
RTVSPost2010PropOp39
 70
     1
102
RTVSPost2010Prop40
 90
        0
102
RTVSPost2010PropOp40
 70
     1
102
RTVSPost2010Prop41ColorIndex
 90
       18
102
RTVSPost2010Prop41ColorRGB
 90
        0
102
RTVSPost2010PropOp41
 70
     1
102
RTVSPost2010Prop42
 90
       50
102
RTVSPost2010PropOp42
 70
     1
102
RTVSPost2010Prop43
 90
        3
102
RTVSPost2010PropOp43
 70
     1
102
RTVSPost2010Prop44ColorIndex
 90
        5
102
RTVSPost2010Prop44ColorRGB
 90
      255
102
RTVSPost2010PropOp44
 70
     1
102
RTVSPost2010Prop45
280
     0
102
RTVSPost2010PropOp45
 70
     1
102
RTVSPost2010Prop46
 90
       50
102
RTVSPost2010PropOp46
 70
     1
102
RTVSPost2010Prop47
 90
       50
102
RTVSPost2010PropOp47
 70
     1
102
RTVSPost2010Prop48
 90
       50
102
RTVSPost2010PropOp48
 70
     1
102
RTVSPost2010Prop49
280
     0
102
RTVSPost2010PropOp49
 70
     1
102
RTVSPost2010Prop50
 90
       50
102
RTVSPost2010PropOp50
 70
     1
102
RTVSPost2010Prop51ColorIndex
 90
      256
102
RTVSPost2010Prop51ColorRGB
 90
-16777216
102
RTVSPost2010PropOp51
 70
     0
102
RTVSPost2010Prop52
140
1.0
102
RTVSPost2010PropOp52
 70
     0
102
RTVSPost2010Prop53
 90
        2
102
RTVSPost2010PropOp53
 70
     1
102
RTVSPost2010Prop54
  1
strokes_ogs.tif
102
RTVSPost2010PropOp54
 70
     1
102
RTVSPost2010Prop55
280
     0
102
RTVSPost2010PropOp55
 70
     1
102
RTVSPost2010Prop56
140
1.0
102
RTVSPost2010PropOp56
 70
     1
102
RTVSPost2010Prop57
140
1.0
102
RTVSPost2010PropOp57
 70
     1
102
RTVSPropertyOp0
 70
     1
102
RTVSPropertyOp1
 70
     1
102
RTVSPropertyOp2
 70
     1
102
RTVSPropertyOp3
 70
     1
102
RTVSPropertyOp4
 70
     1
102
RTVSPropertyOp5
 70
     1
102
RTVSPropertyOp6
 70
     1
102
RTVSPropertyOp7
 70
     1
102
RTVSPropertyOp8
 70
     1
102
RTVSPropertyOp9
 70
     1
102
RTVSPropertyOp10
 70
     1
102
RTVSPropertyOp11
 70
     1
102
RTVSPropertyOp12
 70
     1
102
RTVSPropertyOp13
 70
     1
102
RTVSPropertyOp14
 70
     1
102
RTVSPropertyOp15
 70
     1
102
RTVSPropertyOp16
 70
     1
102
RTVSPropertyOp17
 70
     1
102
RTVSPropertyOp18
 70
     1
102
RTVSPropertyOp19
 70
     1
102
RTVSPropertyOp20
 70
     1
102
RTVSPropertyOp21
 70
     1
102
RTVSPropertyOp22
 70
     1
102
RTVSPropertyOp23
 70
     1
102
RTVSPropertyOp24
 70
     1
102
RTVSPropertyOp25
 70
     1
102
RTVSPropertyOp26
 70
     1
102
RTVSPropertyOp27
 70
     1
102
RTVSPropertyOp28
 70
     1
102
RTVSPropertyOp29
 70
     1
102
RTVSPropertyOp30
 70
     1
102
RTVSPropertyOp31
 70
     1
102
RTVSPropertyOp32
 70
     1
102
RTVSPropertyOp33
 70
     1
102
RTVSPropertyOp34
 70
     1
102
RTVSPropertyOp35
 70
     1
102
RTVSPropertyOp36
 70
     1
102
RTVSPropertyOp37
 70
     1
102
RTVSPropertyOp38
 70
     1
102
RTVSPropertyOp39
 70
     1
102
RTVSPropertyOp40
 70
     1
102
RTVSPropertyOp41
 70
     1
102
RTVSPropertyOp42
 70
     1
102
RTVSPropertyOp43
 70
     1
102
RTVSPropertyOp44
 70
     1
102
RTVSPropertyOp45
 70
     1
102
RTVSPropertyOp46
 70
     1
102
RTVSPropertyOp47
 70
     1
102
RTVSPropertyOp48
 70
     1
102
RTVSPropertyOp49
 70
     1
102
RTVSPropertyOp50
 70
     1
102
RTVSPropertyOp51
 70
     0
102
RTVSPropertyOp52
 70
     0
102
RTVSPropertyOp53
 70
     1
102
RTVSPropertyOp54
 70
     1
102
RTVSPropertyOp55
 70
     1
102
RTVSPropertyOp56
 70
     1
102
RTVSPropertyOp57
 70
     1
102
RTVSPropertyOp58
 70
     1
102
RTVSPropertyOp59
 70
     1
102
RTVSPropertyOp60
 70
     1
102
RTVSPropertyOp61
 70
     1
102
RTVSPropertyOp62
 70
     1
  0
XRECORD
  5
373
102
{ACAD_REACTORS
330
372
102
}
330
372
100
AcDbXrecord
280
     1
102
RTVSPost2010Prop28
280
     0
102
RTVSPost2010PropOp28
 70
     1
102
RTVSPost2010Prop29
280
     1
102
RTVSPost2010PropOp29
 70
     1
102
RTVSPost2010Prop30
280
     1
102
RTVSPost2010PropOp30
 70
     1
102
RTVSPost2010Prop31
280
     0
102
RTVSPost2010PropOp31
 70
     1
102
RTVSPost2010Prop32
280
     0
102
RTVSPost2010PropOp32
 70
     1
102
RTVSPost2010Prop33
280
     0
102
RTVSPost2010PropOp33
 70
     1
102
RTVSPost2010Prop34
280
     0
102
RTVSPost2010PropOp34
 70
     1
102
RTVSPost2010Prop35
280
     0
102
RTVSPost2010PropOp35
 70
     1
102
RTVSPost2010Prop36
280
     0
102
RTVSPost2010PropOp36
 70
     1
102
RTVSPost2010Prop37
 90
       50
102
RTVSPost2010PropOp37
 70
     1
102
RTVSPost2010Prop38
140
0.0
102
RTVSPost2010PropOp38
 70
     1
102
RTVSPost2010Prop39
140
1.0
102
RTVSPost2010PropOp39
 70
     1
102
RTVSPost2010Prop40
 90
        0
102
RTVSPost2010PropOp40
 70
     1
102
RTVSPost2010Prop41ColorIndex
 90
       18
102
RTVSPost2010Prop41ColorRGB
 90
        0
102
RTVSPost2010PropOp41
 70
     1
102
RTVSPost2010Prop42
 90
       50
102
RTVSPost2010PropOp42
 70
     1
102
RTVSPost2010Prop43
 90
        3
102
RTVSPost2010PropOp43
 70
     1
102
RTVSPost2010Prop44ColorIndex
 90
        5
102
RTVSPost2010Prop44ColorRGB
 90
      255
102
RTVSPost2010PropOp44
 70
     1
102
RTVSPost2010Prop45
280
     0
102
RTVSPost2010PropOp45
 70
     1
102
RTVSPost2010Prop46
 90
       50
102
RTVSPost2010PropOp46
 70
     1
102
RTVSPost2010Prop47
 90
       50
102
RTVSPost2010PropOp47
 70
     1
102
RTVSPost2010Prop48
 90
       50
102
RTVSPost2010PropOp48
 70
     1
102
RTVSPost2010Prop49
280
     0
102
RTVSPost2010PropOp49
 70
     1
102
RTVSPost2010Prop50
 90
       50
102
RTVSPost2010PropOp50
 70
     1
102
RTVSPost2010Prop51ColorIndex
 90
      256
102
RTVSPost2010Prop51ColorRGB
 90
-16777216
102
RTVSPost2010PropOp51
 70
     0
102
RTVSPost2010Prop52
140
1.0
102
RTVSPost2010PropOp52
 70
     0
102
RTVSPost2010Prop53
 90
        2
102
RTVSPost2010PropOp53
 70
     1
102
RTVSPost2010Prop54
  1
strokes_ogs.tif
102
RTVSPost2010PropOp54
 70
     1
102
RTVSPost2010Prop55
280
     0
102
RTVSPost2010PropOp55
 70
     1
102
RTVSPost2010Prop56
140
1.0
102
RTVSPost2010PropOp56
 70
     1
102
RTVSPost2010Prop57
140
1.0
102
RTVSPost2010PropOp57
 70
     1
102
RTVSPropertyOp0
 70
     1
102
RTVSPropertyOp1
 70
     1
102
RTVSPropertyOp2
 70
     1
102
RTVSPropertyOp3
 70
     1
102
RTVSPropertyOp4
 70
     1
102
RTVSPropertyOp5
 70
     1
102
RTVSPropertyOp6
 70
     1
102
RTVSPropertyOp7
 70
     1
102
RTVSPropertyOp8
 70
     1
102
RTVSPropertyOp9
 70
     1
102
RTVSPropertyOp10
 70
     1
102
RTVSPropertyOp11
 70
     1
102
RTVSPropertyOp12
 70
     1
102
RTVSPropertyOp13
 70
     1
102
RTVSPropertyOp14
 70
     1
102
RTVSPropertyOp15
 70
     1
102
RTVSPropertyOp16
 70
     1
102
RTVSPropertyOp17
 70
     1
102
RTVSPropertyOp18
 70
     1
102
RTVSPropertyOp19
 70
     1
102
RTVSPropertyOp20
 70
     1
102
RTVSPropertyOp21
 70
     1
102
RTVSPropertyOp22
 70
     1
102
RTVSPropertyOp23
 70
     1
102
RTVSPropertyOp24
 70
     1
102
RTVSPropertyOp25
 70
     1
102
RTVSPropertyOp26
 70
     1
102
RTVSPropertyOp27
 70
     1
102
RTVSPropertyOp28
 70
     1
102
RTVSPropertyOp29
 70
     1
102
RTVSPropertyOp30
 70
     1
102
RTVSPropertyOp31
 70
     1
102
RTVSPropertyOp32
 70
     1
102
RTVSPropertyOp33
 70
     1
102
RTVSPropertyOp34
 70
     1
102
RTVSPropertyOp35
 70
     1
102
RTVSPropertyOp36
 70
     1
102
RTVSPropertyOp37
 70
     1
102
RTVSPropertyOp38
 70
     1
102
RTVSPropertyOp39
 70
     1
102
RTVSPropertyOp40
 70
     1
102
RTVSPropertyOp41
 70
     1
102
RTVSPropertyOp42
 70
     1
102
RTVSPropertyOp43
 70
     1
102
RTVSPropertyOp44
 70
     1
102
RTVSPropertyOp45
 70
     1
102
RTVSPropertyOp46
 70
     1
102
RTVSPropertyOp47
 70
     1
102
RTVSPropertyOp48
 70
     1
102
RTVSPropertyOp49
 70
     1
102
RTVSPropertyOp50
 70
     1
102
RTVSPropertyOp51
 70
     0
102
RTVSPropertyOp52
 70
     0
102
RTVSPropertyOp53
 70
     1
102
RTVSPropertyOp54
 70
     1
102
RTVSPropertyOp55
 70
     1
102
RTVSPropertyOp56
 70
     1
102
RTVSPropertyOp57
 70
     1
102
RTVSPropertyOp58
 70
     1
102
RTVSPropertyOp59
 70
     1
102
RTVSPropertyOp60
 70
     1
102
RTVSPropertyOp61
 70
     1
102
RTVSPropertyOp62
 70
     1
  0
XRECORD
  5
383
102
{ACAD_REACTORS
330
382
102
}
330
382
100
AcDbXrecord
280
     1
102
RTVSPost2010Prop28
280
     0
102
RTVSPost2010PropOp28
 70
     0
102
RTVSPost2010Prop29
280
     1
102
RTVSPost2010PropOp29
 70
     0
102
RTVSPost2010Prop30
280
     1
102
RTVSPost2010PropOp30
 70
     0
102
RTVSPost2010Prop31
280
     0
102
RTVSPost2010PropOp31
 70
     0
102
RTVSPost2010Prop32
280
     0
102
RTVSPost2010PropOp32
 70
     0
102
RTVSPost2010Prop33
280
     0
102
RTVSPost2010PropOp33
 70
     0
102
RTVSPost2010Prop34
280
     0
102
RTVSPost2010PropOp34
 70
     0
102
RTVSPost2010Prop35
280
     0
102
RTVSPost2010PropOp35
 70
     0
102
RTVSPost2010Prop36
280
     0
102
RTVSPost2010PropOp36
 70
     0
102
RTVSPost2010Prop37
 90
       50
102
RTVSPost2010PropOp37
 70
     0
102
RTVSPost2010Prop38
140
0.0
102
RTVSPost2010PropOp38
 70
     0
102
RTVSPost2010Prop39
140
1.0
102
RTVSPost2010PropOp39
 70
     0
102
RTVSPost2010Prop40
 90
        0
102
RTVSPost2010PropOp40
 70
     0
102
RTVSPost2010Prop41ColorIndex
 90
       18
102
RTVSPost2010Prop41ColorRGB
 90
        0
102
RTVSPost2010PropOp41
 70
     0
102
RTVSPost2010Prop42
 90
       50
102
RTVSPost2010PropOp42
 70
     0
102
RTVSPost2010Prop43
 90
        3
102
RTVSPost2010PropOp43
 70
     0
102
RTVSPost2010Prop44ColorIndex
 90
        5
102
RTVSPost2010Prop44ColorRGB
 90
      255
102
RTVSPost2010PropOp44
 70
     0
102
RTVSPost2010Prop45
280
     0
102
RTVSPost2010PropOp45
 70
     0
102
RTVSPost2010Prop46
 90
       50
102
RTVSPost2010PropOp46
 70
     0
102
RTVSPost2010Prop47
 90
       50
102
RTVSPost2010PropOp47
 70
     0
102
RTVSPost2010Prop48
 90
       50
102
RTVSPost2010PropOp48
 70
     0
102
RTVSPost2010Prop49
280
     0
102
RTVSPost2010PropOp49
 70
     0
102
RTVSPost2010Prop50
 90
       50
102
RTVSPost2010PropOp50
 70
     0
102
RTVSPost2010Prop51ColorIndex
 90
      256
102
RTVSPost2010Prop51ColorRGB
 90
-16777216
102
RTVSPost2010PropOp51
 70
     0
102
RTVSPost2010Prop52
140
1.0
102
RTVSPost2010PropOp52
 70
     0
102
RTVSPost2010Prop53
 90
        2
102
RTVSPost2010PropOp53
 70
     0
102
RTVSPost2010Prop54
  1
strokes_ogs.tif
102
RTVSPost2010PropOp54
 70
     0
102
RTVSPost2010Prop55
280
     0
102
RTVSPost2010PropOp55
 70
     0
102
RTVSPost2010Prop56
140
1.0
102
RTVSPost2010PropOp56
 70
     0
102
RTVSPost2010Prop57
140
1.0
102
RTVSPost2010PropOp57
 70
     0
102
RTVSPropertyOp0
 70
     0
102
RTVSPropertyOp1
 70
     0
102
RTVSPropertyOp2
 70
     0
102
RTVSPropertyOp3
 70
     0
102
RTVSPropertyOp4
 70
     0
102
RTVSPropertyOp5
 70
     0
102
RTVSPropertyOp6
 70
     0
102
RTVSPropertyOp7
 70
     0
102
RTVSPropertyOp8
 70
     0
102
RTVSPropertyOp9
 70
     0
102
RTVSPropertyOp10
 70
     0
102
RTVSPropertyOp11
 70
     0
102
RTVSPropertyOp12
 70
     0
102
RTVSPropertyOp13
 70
     0
102
RTVSPropertyOp14
 70
     2
102
RTVSPropertyOp15
 70
     0
102
RTVSPropertyOp16
 70
     0
102
RTVSPropertyOp17
 70
     0
102
RTVSPropertyOp18
 70
     0
102
RTVSPropertyOp19
 70
     0
102
RTVSPropertyOp20
 70
     0
102
RTVSPropertyOp21
 70
     0
102
RTVSPropertyOp22
 70
     0
102
RTVSPropertyOp23
 70
     0
102
RTVSPropertyOp24
 70
     0
102
RTVSPropertyOp25
 70
     0
102
RTVSPropertyOp26
 70
     0
102
RTVSPropertyOp27
 70
     0
102
RTVSPropertyOp28
 70
     0
102
RTVSPropertyOp29
 70
     0
102
RTVSPropertyOp30
 70
     0
102
RTVSPropertyOp31
 70
     0
102
RTVSPropertyOp32
 70
     0
102
RTVSPropertyOp33
 70
     0
102
RTVSPropertyOp34
 70
     0
102
RTVSPropertyOp35
 70
     0
102
RTVSPropertyOp36
 70
     0
102
RTVSPropertyOp37
 70
     0
102
RTVSPropertyOp38
 70
     0
102
RTVSPropertyOp39
 70
     0
102
RTVSPropertyOp40
 70
     0
102
RTVSPropertyOp41
 70
     0
102
RTVSPropertyOp42
 70
     0
102
RTVSPropertyOp43
 70
     0
102
RTVSPropertyOp44
 70
     0
102
RTVSPropertyOp45
 70
     0
102
RTVSPropertyOp46
 70
     0
102
RTVSPropertyOp47
 70
     0
102
RTVSPropertyOp48
 70
     0
102
RTVSPropertyOp49
 70
     0
102
RTVSPropertyOp50
 70
     0
102
RTVSPropertyOp51
 70
     0
102
RTVSPropertyOp52
 70
     0
102
RTVSPropertyOp53
 70
     0
102
RTVSPropertyOp54
 70
     0
102
RTVSPropertyOp55
 70
     0
102
RTVSPropertyOp56
 70
     0
102
RTVSPropertyOp57
 70
     0
102
RTVSPropertyOp58
 70
     1
102
RTVSPropertyOp59
 70
     1
102
RTVSPropertyOp60
 70
     1
102
RTVSPropertyOp61
 70
     1
102
RTVSPropertyOp62
 70
     1
  0
XRECORD
  5
37B
102
{ACAD_REACTORS
330
37A
102
}
330
37A
100
AcDbXrecord
280
     1
102
RTVSPost2010Prop28
280
     0
102
RTVSPost2010PropOp28
 70
     1
102
RTVSPost2010Prop29
280
     1
102
RTVSPost2010PropOp29
 70
     1
102
RTVSPost2010Prop30
280
     1
102
RTVSPost2010PropOp30
 70
     1
102
RTVSPost2010Prop31
280
     0
102
RTVSPost2010PropOp31
 70
     1
102
RTVSPost2010Prop32
280
     0
102
RTVSPost2010PropOp32
 70
     1
102
RTVSPost2010Prop33
280
     0
102
RTVSPost2010PropOp33
 70
     1
102
RTVSPost2010Prop34
280
     0
102
RTVSPost2010PropOp34
 70
     1
102
RTVSPost2010Prop35
280
     0
102
RTVSPost2010PropOp35
 70
     1
102
RTVSPost2010Prop36
280
     0
102
RTVSPost2010PropOp36
 70
     1
102
RTVSPost2010Prop37
 90
       50
102
RTVSPost2010PropOp37
 70
     1
102
RTVSPost2010Prop38
140
0.0
102
RTVSPost2010PropOp38
 70
     1
102
RTVSPost2010Prop39
140
1.0
102
RTVSPost2010PropOp39
 70
     1
102
RTVSPost2010Prop40
 90
        0
102
RTVSPost2010PropOp40
 70
     1
102
RTVSPost2010Prop41ColorIndex
 90
       18
102
RTVSPost2010Prop41ColorRGB
 90
        0
102
RTVSPost2010PropOp41
 70
     1
102
RTVSPost2010Prop42
 90
       50
102
RTVSPost2010PropOp42
 70
     1
102
RTVSPost2010Prop43
 90
        3
102
RTVSPost2010PropOp43
 70
     1
102
RTVSPost2010Prop44ColorIndex
 90
        5
102
RTVSPost2010Prop44ColorRGB
 90
      255
102
RTVSPost2010PropOp44
 70
     1
102
RTVSPost2010Prop45
280
     0
102
RTVSPost2010PropOp45
 70
     1
102
RTVSPost2010Prop46
 90
       50
102
RTVSPost2010PropOp46
 70
     1
102
RTVSPost2010Prop47
 90
       50
102
RTVSPost2010PropOp47
 70
     1
102
RTVSPost2010Prop48
 90
       50
102
RTVSPost2010PropOp48
 70
     1
102
RTVSPost2010Prop49
280
     0
102
RTVSPost2010PropOp49
 70
     1
102
RTVSPost2010Prop50
 90
       50
102
RTVSPost2010PropOp50
 70
     1
102
RTVSPost2010Prop51ColorIndex
 90
      256
102
RTVSPost2010Prop51ColorRGB
 90
-16777216
102
RTVSPost2010PropOp51
 70
     0
102
RTVSPost2010Prop52
140
1.0
102
RTVSPost2010PropOp52
 70
     0
102
RTVSPost2010Prop53
 90
        2
102
RTVSPost2010PropOp53
 70
     1
102
RTVSPost2010Prop54
  1
strokes_ogs.tif
102
RTVSPost2010PropOp54
 70
     1
102
RTVSPost2010Prop55
280
     0
102
RTVSPost2010PropOp55
 70
     1
102
RTVSPost2010Prop56
140
1.0
102
RTVSPost2010PropOp56
 70
     1
102
RTVSPost2010Prop57
140
1.0
102
RTVSPost2010PropOp57
 70
     1
102
RTVSPropertyOp0
 70
     1
102
RTVSPropertyOp1
 70
     1
102
RTVSPropertyOp2
 70
     1
102
RTVSPropertyOp3
 70
     1
102
RTVSPropertyOp4
 70
     1
102
RTVSPropertyOp5
 70
     1
102
RTVSPropertyOp6
 70
     1
102
RTVSPropertyOp7
 70
     1
102
RTVSPropertyOp8
 70
     1
102
RTVSPropertyOp9
 70
     1
102
RTVSPropertyOp10
 70
     1
102
RTVSPropertyOp11
 70
     1
102
RTVSPropertyOp12
 70
     1
102
RTVSPropertyOp13
 70
     1
102
RTVSPropertyOp14
 70
     1
102
RTVSPropertyOp15
 70
     1
102
RTVSPropertyOp16
 70
     1
102
RTVSPropertyOp17
 70
     1
102
RTVSPropertyOp18
 70
     1
102
RTVSPropertyOp19
 70
     1
102
RTVSPropertyOp20
 70
     1
102
RTVSPropertyOp21
 70
     1
102
RTVSPropertyOp22
 70
     1
102
RTVSPropertyOp23
 70
     1
102
RTVSPropertyOp24
 70
     1
102
RTVSPropertyOp25
 70
     1
102
RTVSPropertyOp26
 70
     1
102
RTVSPropertyOp27
 70
     1
102
RTVSPropertyOp28
 70
     1
102
RTVSPropertyOp29
 70
     1
102
RTVSPropertyOp30
 70
     1
102
RTVSPropertyOp31
 70
     1
102
RTVSPropertyOp32
 70
     1
102
RTVSPropertyOp33
 70
     1
102
RTVSPropertyOp34
 70
     1
102
RTVSPropertyOp35
 70
     1
102
RTVSPropertyOp36
 70
     1
102
RTVSPropertyOp37
 70
     1
102
RTVSPropertyOp38
 70
     1
102
RTVSPropertyOp39
 70
     1
102
RTVSPropertyOp40
 70
     1
102
RTVSPropertyOp41
 70
     1
102
RTVSPropertyOp42
 70
     1
102
RTVSPropertyOp43
 70
     1
102
RTVSPropertyOp44
 70
     1
102
RTVSPropertyOp45
 70
     1
102
RTVSPropertyOp46
 70
     1
102
RTVSPropertyOp47
 70
     1
102
RTVSPropertyOp48
 70
     1
102
RTVSPropertyOp49
 70
     1
102
RTVSPropertyOp50
 70
     1
102
RTVSPropertyOp51
 70
     0
102
RTVSPropertyOp52
 70
     0
102
RTVSPropertyOp53
 70
     1
102
RTVSPropertyOp54
 70
     1
102
RTVSPropertyOp55
 70
     1
102
RTVSPropertyOp56
 70
     1
102
RTVSPropertyOp57
 70
     1
102
RTVSPropertyOp58
 70
     1
102
RTVSPropertyOp59
 70
     1
102
RTVSPropertyOp60
 70
     1
102
RTVSPropertyOp61
 70
     1
102
RTVSPropertyOp62
 70
     1
  0
XRECORD
  5
35F
102
{ACAD_REACTORS
330
35E
102
}
330
35E
100
AcDbXrecord
280
     1
102
RTVSPost2010Prop28
280
     0
102
RTVSPost2010PropOp28
 70
     1
102
RTVSPost2010Prop29
280
     1
102
RTVSPost2010PropOp29
 70
     1
102
RTVSPost2010Prop30
280
     1
102
RTVSPost2010PropOp30
 70
     1
102
RTVSPost2010Prop31
280
     0
102
RTVSPost2010PropOp31
 70
     1
102
RTVSPost2010Prop32
280
     0
102
RTVSPost2010PropOp32
 70
     1
102
RTVSPost2010Prop33
280
     0
102
RTVSPost2010PropOp33
 70
     1
102
RTVSPost2010Prop34
280
     0
102
RTVSPost2010PropOp34
 70
     1
102
RTVSPost2010Prop35
280
     0
102
RTVSPost2010PropOp35
 70
     1
102
RTVSPost2010Prop36
280
     0
102
RTVSPost2010PropOp36
 70
     1
102
RTVSPost2010Prop37
 90
       50
102
RTVSPost2010PropOp37
 70
     1
102
RTVSPost2010Prop38
140
0.0
102
RTVSPost2010PropOp38
 70
     1
102
RTVSPost2010Prop39
140
1.0
102
RTVSPost2010PropOp39
 70
     1
102
RTVSPost2010Prop40
 90
        0
102
RTVSPost2010PropOp40
 70
     1
102
RTVSPost2010Prop41ColorIndex
 90
       18
102
RTVSPost2010Prop41ColorRGB
 90
        0
102
RTVSPost2010PropOp41
 70
     1
102
RTVSPost2010Prop42
 90
       50
102
RTVSPost2010PropOp42
 70
     1
102
RTVSPost2010Prop43
 90
        3
102
RTVSPost2010PropOp43
 70
     1
102
RTVSPost2010Prop44ColorIndex
 90
        5
102
RTVSPost2010Prop44ColorRGB
 90
      255
102
RTVSPost2010PropOp44
 70
     1
102
RTVSPost2010Prop45
280
     0
102
RTVSPost2010PropOp45
 70
     1
102
RTVSPost2010Prop46
 90
       50
102
RTVSPost2010PropOp46
 70
     1
102
RTVSPost2010Prop47
 90
       50
102
RTVSPost2010PropOp47
 70
     1
102
RTVSPost2010Prop48
 90
       50
102
RTVSPost2010PropOp48
 70
     1
102
RTVSPost2010Prop49
280
     0
102
RTVSPost2010PropOp49
 70
     1
102
RTVSPost2010Prop50
 90
       50
102
RTVSPost2010PropOp50
 70
     1
102
RTVSPost2010Prop51ColorIndex
 90
      256
102
RTVSPost2010Prop51ColorRGB
 90
-16777216
102
RTVSPost2010PropOp51
 70
     0
102
RTVSPost2010Prop52
140
1.0
102
RTVSPost2010PropOp52
 70
     0
102
RTVSPost2010Prop53
 90
        2
102
RTVSPost2010PropOp53
 70
     1
102
RTVSPost2010Prop54
  1
strokes_ogs.tif
102
RTVSPost2010PropOp54
 70
     1
102
RTVSPost2010Prop55
280
     0
102
RTVSPost2010PropOp55
 70
     1
102
RTVSPost2010Prop56
140
1.0
102
RTVSPost2010PropOp56
 70
     1
102
RTVSPost2010Prop57
140
1.0
102
RTVSPost2010PropOp57
 70
     1
102
RTVSPropertyOp0
 70
     1
102
RTVSPropertyOp1
 70
     1
102
RTVSPropertyOp2
 70
     1
102
RTVSPropertyOp3
 70
     1
102
RTVSPropertyOp4
 70
     1
102
RTVSPropertyOp5
 70
     1
102
RTVSPropertyOp6
 70
     1
102
RTVSPropertyOp7
 70
     1
102
RTVSPropertyOp8
 70
     1
102
RTVSPropertyOp9
 70
     1
102
RTVSPropertyOp10
 70
     1
102
RTVSPropertyOp11
 70
     1
102
RTVSPropertyOp12
 70
     1
102
RTVSPropertyOp13
 70
     1
102
RTVSPropertyOp14
 70
     1
102
RTVSPropertyOp15
 70
     1
102
RTVSPropertyOp16
 70
     1
102
RTVSPropertyOp17
 70
     1
102
RTVSPropertyOp18
 70
     1
102
RTVSPropertyOp19
 70
     1
102
RTVSPropertyOp20
 70
     1
102
RTVSPropertyOp21
 70
     1
102
RTVSPropertyOp22
 70
     1
102
RTVSPropertyOp23
 70
     1
102
RTVSPropertyOp24
 70
     1
102
RTVSPropertyOp25
 70
     1
102
RTVSPropertyOp26
 70
     1
102
RTVSPropertyOp27
 70
     1
102
RTVSPropertyOp28
 70
     1
102
RTVSPropertyOp29
 70
     1
102
RTVSPropertyOp30
 70
     1
102
RTVSPropertyOp31
 70
     1
102
RTVSPropertyOp32
 70
     1
102
RTVSPropertyOp33
 70
     1
102
RTVSPropertyOp34
 70
     1
102
RTVSPropertyOp35
 70
     1
102
RTVSPropertyOp36
 70
     1
102
RTVSPropertyOp37
 70
     1
102
RTVSPropertyOp38
 70
     1
102
RTVSPropertyOp39
 70
     1
102
RTVSPropertyOp40
 70
     1
102
RTVSPropertyOp41
 70
     1
102
RTVSPropertyOp42
 70
     1
102
RTVSPropertyOp43
 70
     1
102
RTVSPropertyOp44
 70
     1
102
RTVSPropertyOp45
 70
     1
102
RTVSPropertyOp46
 70
     1
102
RTVSPropertyOp47
 70
     1
102
RTVSPropertyOp48
 70
     1
102
RTVSPropertyOp49
 70
     1
102
RTVSPropertyOp50
 70
     1
102
RTVSPropertyOp51
 70
     0
102
RTVSPropertyOp52
 70
     0
102
RTVSPropertyOp53
 70
     1
102
RTVSPropertyOp54
 70
     1
102
RTVSPropertyOp55
 70
     1
102
RTVSPropertyOp56
 70
     1
102
RTVSPropertyOp57
 70
     1
102
RTVSPropertyOp58
 70
     1
102
RTVSPropertyOp59
 70
     1
102
RTVSPropertyOp60
 70
     1
102
RTVSPropertyOp61
 70
     1
102
RTVSPropertyOp62
 70
     1
  0
XRECORD
  5
361
102
{ACAD_REACTORS
330
360
102
}
330
360
100
AcDbXrecord
280
     1
102
RTVSPost2010Prop28
280
     0
102
RTVSPost2010PropOp28
 70
     1
102
RTVSPost2010Prop29
280
     1
102
RTVSPost2010PropOp29
 70
     1
102
RTVSPost2010Prop30
280
     1
102
RTVSPost2010PropOp30
 70
     1
102
RTVSPost2010Prop31
280
     0
102
RTVSPost2010PropOp31
 70
     1
102
RTVSPost2010Prop32
280
     0
102
RTVSPost2010PropOp32
 70
     1
102
RTVSPost2010Prop33
280
     0
102
RTVSPost2010PropOp33
 70
     1
102
RTVSPost2010Prop34
280
     0
102
RTVSPost2010PropOp34
 70
     1
102
RTVSPost2010Prop35
280
     0
102
RTVSPost2010PropOp35
 70
     1
102
RTVSPost2010Prop36
280
     0
102
RTVSPost2010PropOp36
 70
     1
102
RTVSPost2010Prop37
 90
       50
102
RTVSPost2010PropOp37
 70
     1
102
RTVSPost2010Prop38
140
0.0
102
RTVSPost2010PropOp38
 70
     1
102
RTVSPost2010Prop39
140
1.0
102
RTVSPost2010PropOp39
 70
     1
102
RTVSPost2010Prop40
 90
        0
102
RTVSPost2010PropOp40
 70
     1
102
RTVSPost2010Prop41ColorIndex
 90
       18
102
RTVSPost2010Prop41ColorRGB
 90
        0
102
RTVSPost2010PropOp41
 70
     1
102
RTVSPost2010Prop42
 90
       50
102
RTVSPost2010PropOp42
 70
     1
102
RTVSPost2010Prop43
 90
        3
102
RTVSPost2010PropOp43
 70
     1
102
RTVSPost2010Prop44ColorIndex
 90
        5
102
RTVSPost2010Prop44ColorRGB
 90
      255
102
RTVSPost2010PropOp44
 70
     1
102
RTVSPost2010Prop45
280
     0
102
RTVSPost2010PropOp45
 70
     1
102
RTVSPost2010Prop46
 90
       50
102
RTVSPost2010PropOp46
 70
     1
102
RTVSPost2010Prop47
 90
       50
102
RTVSPost2010PropOp47
 70
     1
102
RTVSPost2010Prop48
 90
       50
102
RTVSPost2010PropOp48
 70
     1
102
RTVSPost2010Prop49
280
     0
102
RTVSPost2010PropOp49
 70
     1
102
RTVSPost2010Prop50
 90
       50
102
RTVSPost2010PropOp50
 70
     1
102
RTVSPost2010Prop51ColorIndex
 90
      256
102
RTVSPost2010Prop51ColorRGB
 90
-16777216
102
RTVSPost2010PropOp51
 70
     0
102
RTVSPost2010Prop52
140
1.0
102
RTVSPost2010PropOp52
 70
     0
102
RTVSPost2010Prop53
 90
        2
102
RTVSPost2010PropOp53
 70
     1
102
RTVSPost2010Prop54
  1
strokes_ogs.tif
102
RTVSPost2010PropOp54
 70
     1
102
RTVSPost2010Prop55
280
     0
102
RTVSPost2010PropOp55
 70
     1
102
RTVSPost2010Prop56
140
1.0
102
RTVSPost2010PropOp56
 70
     1
102
RTVSPost2010Prop57
140
1.0
102
RTVSPost2010PropOp57
 70
     1
102
RTVSPropertyOp0
 70
     1
102
RTVSPropertyOp1
 70
     1
102
RTVSPropertyOp2
 70
     1
102
RTVSPropertyOp3
 70
     1
102
RTVSPropertyOp4
 70
     1
102
RTVSPropertyOp5
 70
     1
102
RTVSPropertyOp6
 70
     1
102
RTVSPropertyOp7
 70
     1
102
RTVSPropertyOp8
 70
     1
102
RTVSPropertyOp9
 70
     1
102
RTVSPropertyOp10
 70
     1
102
RTVSPropertyOp11
 70
     1
102
RTVSPropertyOp12
 70
     1
102
RTVSPropertyOp13
 70
     1
102
RTVSPropertyOp14
 70
     1
102
RTVSPropertyOp15
 70
     1
102
RTVSPropertyOp16
 70
     1
102
RTVSPropertyOp17
 70
     1
102
RTVSPropertyOp18
 70
     1
102
RTVSPropertyOp19
 70
     1
102
RTVSPropertyOp20
 70
     1
102
RTVSPropertyOp21
 70
     1
102
RTVSPropertyOp22
 70
     1
102
RTVSPropertyOp23
 70
     1
102
RTVSPropertyOp24
 70
     1
102
RTVSPropertyOp25
 70
     1
102
RTVSPropertyOp26
 70
     1
102
RTVSPropertyOp27
 70
     1
102
RTVSPropertyOp28
 70
     1
102
RTVSPropertyOp29
 70
     1
102
RTVSPropertyOp30
 70
     1
102
RTVSPropertyOp31
 70
     1
102
RTVSPropertyOp32
 70
     1
102
RTVSPropertyOp33
 70
     1
102
RTVSPropertyOp34
 70
     1
102
RTVSPropertyOp35
 70
     1
102
RTVSPropertyOp36
 70
     1
102
RTVSPropertyOp37
 70
     1
102
RTVSPropertyOp38
 70
     1
102
RTVSPropertyOp39
 70
     1
102
RTVSPropertyOp40
 70
     1
102
RTVSPropertyOp41
 70
     1
102
RTVSPropertyOp42
 70
     1
102
RTVSPropertyOp43
 70
     1
102
RTVSPropertyOp44
 70
     1
102
RTVSPropertyOp45
 70
     1
102
RTVSPropertyOp46
 70
     1
102
RTVSPropertyOp47
 70
     1
102
RTVSPropertyOp48
 70
     1
102
RTVSPropertyOp49
 70
     1
102
RTVSPropertyOp50
 70
     1
102
RTVSPropertyOp51
 70
     0
102
RTVSPropertyOp52
 70
     0
102
RTVSPropertyOp53
 70
     1
102
RTVSPropertyOp54
 70
     1
102
RTVSPropertyOp55
 70
     1
102
RTVSPropertyOp56
 70
     1
102
RTVSPropertyOp57
 70
     1
102
RTVSPropertyOp58
 70
     1
102
RTVSPropertyOp59
 70
     1
102
RTVSPropertyOp60
 70
     1
102
RTVSPropertyOp61
 70
     1
102
RTVSPropertyOp62
 70
     1
  0
XRECORD
  5
363
102
{ACAD_REACTORS
330
362
102
}
330
362
100
AcDbXrecord
280
     1
102
RTVSPost2010Prop28
280
     0
102
RTVSPost2010PropOp28
 70
     1
102
RTVSPost2010Prop29
280
     1
102
RTVSPost2010PropOp29
 70
     1
102
RTVSPost2010Prop30
280
     1
102
RTVSPost2010PropOp30
 70
     1
102
RTVSPost2010Prop31
280
     0
102
RTVSPost2010PropOp31
 70
     1
102
RTVSPost2010Prop32
280
     0
102
RTVSPost2010PropOp32
 70
     1
102
RTVSPost2010Prop33
280
     0
102
RTVSPost2010PropOp33
 70
     1
102
RTVSPost2010Prop34
280
     0
102
RTVSPost2010PropOp34
 70
     1
102
RTVSPost2010Prop35
280
     0
102
RTVSPost2010PropOp35
 70
     1
102
RTVSPost2010Prop36
280
     0
102
RTVSPost2010PropOp36
 70
     1
102
RTVSPost2010Prop37
 90
       50
102
RTVSPost2010PropOp37
 70
     1
102
RTVSPost2010Prop38
140
0.0
102
RTVSPost2010PropOp38
 70
     1
102
RTVSPost2010Prop39
140
1.0
102
RTVSPost2010PropOp39
 70
     1
102
RTVSPost2010Prop40
 90
        0
102
RTVSPost2010PropOp40
 70
     1
102
RTVSPost2010Prop41ColorIndex
 90
       18
102
RTVSPost2010Prop41ColorRGB
 90
        0
102
RTVSPost2010PropOp41
 70
     1
102
RTVSPost2010Prop42
 90
       50
102
RTVSPost2010PropOp42
 70
     1
102
RTVSPost2010Prop43
 90
        3
102
RTVSPost2010PropOp43
 70
     1
102
RTVSPost2010Prop44ColorIndex
 90
        5
102
RTVSPost2010Prop44ColorRGB
 90
      255
102
RTVSPost2010PropOp44
 70
     1
102
RTVSPost2010Prop45
280
     0
102
RTVSPost2010PropOp45
 70
     1
102
RTVSPost2010Prop46
 90
       50
102
RTVSPost2010PropOp46
 70
     1
102
RTVSPost2010Prop47
 90
       50
102
RTVSPost2010PropOp47
 70
     1
102
RTVSPost2010Prop48
 90
       50
102
RTVSPost2010PropOp48
 70
     1
102
RTVSPost2010Prop49
280
     0
102
RTVSPost2010PropOp49
 70
     1
102
RTVSPost2010Prop50
 90
       50
102
RTVSPost2010PropOp50
 70
     1
102
RTVSPost2010Prop51ColorIndex
 90
      256
102
RTVSPost2010Prop51ColorRGB
 90
-16777216
102
RTVSPost2010PropOp51
 70
     0
102
RTVSPost2010Prop52
140
1.0
102
RTVSPost2010PropOp52
 70
     0
102
RTVSPost2010Prop53
 90
        2
102
RTVSPost2010PropOp53
 70
     1
102
RTVSPost2010Prop54
  1
strokes_ogs.tif
102
RTVSPost2010PropOp54
 70
     1
102
RTVSPost2010Prop55
280
     0
102
RTVSPost2010PropOp55
 70
     1
102
RTVSPost2010Prop56
140
1.0
102
RTVSPost2010PropOp56
 70
     1
102
RTVSPost2010Prop57
140
1.0
102
RTVSPost2010PropOp57
 70
     1
102
RTVSPropertyOp0
 70
     1
102
RTVSPropertyOp1
 70
     1
102
RTVSPropertyOp2
 70
     1
102
RTVSPropertyOp3
 70
     1
102
RTVSPropertyOp4
 70
     1
102
RTVSPropertyOp5
 70
     1
102
RTVSPropertyOp6
 70
     1
102
RTVSPropertyOp7
 70
     1
102
RTVSPropertyOp8
 70
     1
102
RTVSPropertyOp9
 70
     1
102
RTVSPropertyOp10
 70
     1
102
RTVSPropertyOp11
 70
     1
102
RTVSPropertyOp12
 70
     1
102
RTVSPropertyOp13
 70
     1
102
RTVSPropertyOp14
 70
     1
102
RTVSPropertyOp15
 70
     1
102
RTVSPropertyOp16
 70
     1
102
RTVSPropertyOp17
 70
     1
102
RTVSPropertyOp18
 70
     1
102
RTVSPropertyOp19
 70
     1
102
RTVSPropertyOp20
 70
     1
102
RTVSPropertyOp21
 70
     1
102
RTVSPropertyOp22
 70
     1
102
RTVSPropertyOp23
 70
     1
102
RTVSPropertyOp24
 70
     1
102
RTVSPropertyOp25
 70
     1
102
RTVSPropertyOp26
 70
     1
102
RTVSPropertyOp27
 70
     1
102
RTVSPropertyOp28
 70
     1
102
RTVSPropertyOp29
 70
     1
102
RTVSPropertyOp30
 70
     1
102
RTVSPropertyOp31
 70
     1
102
RTVSPropertyOp32
 70
     1
102
RTVSPropertyOp33
 70
     1
102
RTVSPropertyOp34
 70
     1
102
RTVSPropertyOp35
 70
     1
102
RTVSPropertyOp36
 70
     1
102
RTVSPropertyOp37
 70
     1
102
RTVSPropertyOp38
 70
     1
102
RTVSPropertyOp39
 70
     1
102
RTVSPropertyOp40
 70
     1
102
RTVSPropertyOp41
 70
     1
102
RTVSPropertyOp42
 70
     1
102
RTVSPropertyOp43
 70
     1
102
RTVSPropertyOp44
 70
     1
102
RTVSPropertyOp45
 70
     1
102
RTVSPropertyOp46
 70
     1
102
RTVSPropertyOp47
 70
     1
102
RTVSPropertyOp48
 70
     1
102
RTVSPropertyOp49
 70
     1
102
RTVSPropertyOp50
 70
     1
102
RTVSPropertyOp51
 70
     0
102
RTVSPropertyOp52
 70
     0
102
RTVSPropertyOp53
 70
     1
102
RTVSPropertyOp54
 70
     1
102
RTVSPropertyOp55
 70
     1
102
RTVSPropertyOp56
 70
     1
102
RTVSPropertyOp57
 70
     1
102
RTVSPropertyOp58
 70
     1
102
RTVSPropertyOp59
 70
     1
102
RTVSPropertyOp60
 70
     1
102
RTVSPropertyOp61
 70
     1
102
RTVSPropertyOp62
 70
     1
  0
XRECORD
  5
365
102
{ACAD_REACTORS
330
364
102
}
330
364
100
AcDbXrecord
280
     1
102
RTVSPost2010Prop28
280
     0
102
RTVSPost2010PropOp28
 70
     1
102
RTVSPost2010Prop29
280
     1
102
RTVSPost2010PropOp29
 70
     1
102
RTVSPost2010Prop30
280
     1
102
RTVSPost2010PropOp30
 70
     1
102
RTVSPost2010Prop31
280
     0
102
RTVSPost2010PropOp31
 70
     1
102
RTVSPost2010Prop32
280
     0
102
RTVSPost2010PropOp32
 70
     1
102
RTVSPost2010Prop33
280
     0
102
RTVSPost2010PropOp33
 70
     1
102
RTVSPost2010Prop34
280
     0
102
RTVSPost2010PropOp34
 70
     1
102
RTVSPost2010Prop35
280
     0
102
RTVSPost2010PropOp35
 70
     1
102
RTVSPost2010Prop36
280
     0
102
RTVSPost2010PropOp36
 70
     1
102
RTVSPost2010Prop37
 90
       50
102
RTVSPost2010PropOp37
 70
     1
102
RTVSPost2010Prop38
140
0.0
102
RTVSPost2010PropOp38
 70
     1
102
RTVSPost2010Prop39
140
1.0
102
RTVSPost2010PropOp39
 70
     1
102
RTVSPost2010Prop40
 90
        0
102
RTVSPost2010PropOp40
 70
     1
102
RTVSPost2010Prop41ColorIndex
 90
       18
102
RTVSPost2010Prop41ColorRGB
 90
        0
102
RTVSPost2010PropOp41
 70
     1
102
RTVSPost2010Prop42
 90
       50
102
RTVSPost2010PropOp42
 70
     1
102
RTVSPost2010Prop43
 90
        3
102
RTVSPost2010PropOp43
 70
     1
102
RTVSPost2010Prop44ColorIndex
 90
        5
102
RTVSPost2010Prop44ColorRGB
 90
      255
102
RTVSPost2010PropOp44
 70
     1
102
RTVSPost2010Prop45
280
     0
102
RTVSPost2010PropOp45
 70
     1
102
RTVSPost2010Prop46
 90
       50
102
RTVSPost2010PropOp46
 70
     1
102
RTVSPost2010Prop47
 90
       50
102
RTVSPost2010PropOp47
 70
     1
102
RTVSPost2010Prop48
 90
       50
102
RTVSPost2010PropOp48
 70
     1
102
RTVSPost2010Prop49
280
     0
102
RTVSPost2010PropOp49
 70
     1
102
RTVSPost2010Prop50
 90
       50
102
RTVSPost2010PropOp50
 70
     1
102
RTVSPost2010Prop51ColorIndex
 90
      256
102
RTVSPost2010Prop51ColorRGB
 90
-16777216
102
RTVSPost2010PropOp51
 70
     0
102
RTVSPost2010Prop52
140
1.0
102
RTVSPost2010PropOp52
 70
     0
102
RTVSPost2010Prop53
 90
        2
102
RTVSPost2010PropOp53
 70
     1
102
RTVSPost2010Prop54
  1
strokes_ogs.tif
102
RTVSPost2010PropOp54
 70
     1
102
RTVSPost2010Prop55
280
     0
102
RTVSPost2010PropOp55
 70
     1
102
RTVSPost2010Prop56
140
1.0
102
RTVSPost2010PropOp56
 70
     1
102
RTVSPost2010Prop57
140
1.0
102
RTVSPost2010PropOp57
 70
     1
102
RTVSPropertyOp0
 70
     1
102
RTVSPropertyOp1
 70
     1
102
RTVSPropertyOp2
 70
     1
102
RTVSPropertyOp3
 70
     1
102
RTVSPropertyOp4
 70
     1
102
RTVSPropertyOp5
 70
     1
102
RTVSPropertyOp6
 70
     1
102
RTVSPropertyOp7
 70
     1
102
RTVSPropertyOp8
 70
     1
102
RTVSPropertyOp9
 70
     1
102
RTVSPropertyOp10
 70
     1
102
RTVSPropertyOp11
 70
     1
102
RTVSPropertyOp12
 70
     1
102
RTVSPropertyOp13
 70
     1
102
RTVSPropertyOp14
 70
     1
102
RTVSPropertyOp15
 70
     1
102
RTVSPropertyOp16
 70
     1
102
RTVSPropertyOp17
 70
     1
102
RTVSPropertyOp18
 70
     1
102
RTVSPropertyOp19
 70
     1
102
RTVSPropertyOp20
 70
     1
102
RTVSPropertyOp21
 70
     1
102
RTVSPropertyOp22
 70
     1
102
RTVSPropertyOp23
 70
     1
102
RTVSPropertyOp24
 70
     1
102
RTVSPropertyOp25
 70
     1
102
RTVSPropertyOp26
 70
     1
102
RTVSPropertyOp27
 70
     1
102
RTVSPropertyOp28
 70
     1
102
RTVSPropertyOp29
 70
     1
102
RTVSPropertyOp30
 70
     1
102
RTVSPropertyOp31
 70
     1
102
RTVSPropertyOp32
 70
     1
102
RTVSPropertyOp33
 70
     1
102
RTVSPropertyOp34
 70
     1
102
RTVSPropertyOp35
 70
     1
102
RTVSPropertyOp36
 70
     1
102
RTVSPropertyOp37
 70
     1
102
RTVSPropertyOp38
 70
     1
102
RTVSPropertyOp39
 70
     1
102
RTVSPropertyOp40
 70
     1
102
RTVSPropertyOp41
 70
     1
102
RTVSPropertyOp42
 70
     1
102
RTVSPropertyOp43
 70
     1
102
RTVSPropertyOp44
 70
     1
102
RTVSPropertyOp45
 70
     1
102
RTVSPropertyOp46
 70
     1
102
RTVSPropertyOp47
 70
     1
102
RTVSPropertyOp48
 70
     1
102
RTVSPropertyOp49
 70
     1
102
RTVSPropertyOp50
 70
     1
102
RTVSPropertyOp51
 70
     0
102
RTVSPropertyOp52
 70
     0
102
RTVSPropertyOp53
 70
     1
102
RTVSPropertyOp54
 70
     1
102
RTVSPropertyOp55
 70
     1
102
RTVSPropertyOp56
 70
     1
102
RTVSPropertyOp57
 70
     1
102
RTVSPropertyOp58
 70
     1
102
RTVSPropertyOp59
 70
     1
102
RTVSPropertyOp60
 70
     1
102
RTVSPropertyOp61
 70
     1
102
RTVSPropertyOp62
 70
     1
  0
XRECORD
  5
36B
102
{ACAD_REACTORS
330
36A
102
}
330
36A
100
AcDbXrecord
280
     1
102
RTVSPost2010Prop28
280
     0
102
RTVSPost2010PropOp28
 70
     1
102
RTVSPost2010Prop29
280
     1
102
RTVSPost2010PropOp29
 70
     1
102
RTVSPost2010Prop30
280
     1
102
RTVSPost2010PropOp30
 70
     1
102
RTVSPost2010Prop31
280
     0
102
RTVSPost2010PropOp31
 70
     1
102
RTVSPost2010Prop32
280
     0
102
RTVSPost2010PropOp32
 70
     1
102
RTVSPost2010Prop33
280
     0
102
RTVSPost2010PropOp33
 70
     1
102
RTVSPost2010Prop34
280
     0
102
RTVSPost2010PropOp34
 70
     1
102
RTVSPost2010Prop35
280
     0
102
RTVSPost2010PropOp35
 70
     1
102
RTVSPost2010Prop36
280
     0
102
RTVSPost2010PropOp36
 70
     1
102
RTVSPost2010Prop37
 90
       50
102
RTVSPost2010PropOp37
 70
     1
102
RTVSPost2010Prop38
140
0.0
102
RTVSPost2010PropOp38
 70
     1
102
RTVSPost2010Prop39
140
1.0
102
RTVSPost2010PropOp39
 70
     1
102
RTVSPost2010Prop40
 90
        0
102
RTVSPost2010PropOp40
 70
     1
102
RTVSPost2010Prop41ColorIndex
 90
       18
102
RTVSPost2010Prop41ColorRGB
 90
        0
102
RTVSPost2010PropOp41
 70
     1
102
RTVSPost2010Prop42
 90
       50
102
RTVSPost2010PropOp42
 70
     1
102
RTVSPost2010Prop43
 90
        3
102
RTVSPost2010PropOp43
 70
     1
102
RTVSPost2010Prop44ColorIndex
 90
        5
102
RTVSPost2010Prop44ColorRGB
 90
      255
102
RTVSPost2010PropOp44
 70
     1
102
RTVSPost2010Prop45
280
     0
102
RTVSPost2010PropOp45
 70
     1
102
RTVSPost2010Prop46
 90
       50
102
RTVSPost2010PropOp46
 70
     1
102
RTVSPost2010Prop47
 90
       50
102
RTVSPost2010PropOp47
 70
     1
102
RTVSPost2010Prop48
 90
       50
102
RTVSPost2010PropOp48
 70
     1
102
RTVSPost2010Prop49
280
     0
102
RTVSPost2010PropOp49
 70
     1
102
RTVSPost2010Prop50
 90
       50
102
RTVSPost2010PropOp50
 70
     1
102
RTVSPost2010Prop51ColorIndex
 90
      256
102
RTVSPost2010Prop51ColorRGB
 90
-16777216
102
RTVSPost2010PropOp51
 70
     0
102
RTVSPost2010Prop52
140
1.0
102
RTVSPost2010PropOp52
 70
     0
102
RTVSPost2010Prop53
 90
        2
102
RTVSPost2010PropOp53
 70
     1
102
RTVSPost2010Prop54
  1
strokes_ogs.tif
102
RTVSPost2010PropOp54
 70
     1
102
RTVSPost2010Prop55
280
     0
102
RTVSPost2010PropOp55
 70
     1
102
RTVSPost2010Prop56
140
1.0
102
RTVSPost2010PropOp56
 70
     1
102
RTVSPost2010Prop57
140
1.0
102
RTVSPost2010PropOp57
 70
     1
102
RTVSPropertyOp0
 70
     1
102
RTVSPropertyOp1
 70
     1
102
RTVSPropertyOp2
 70
     1
102
RTVSPropertyOp3
 70
     1
102
RTVSPropertyOp4
 70
     1
102
RTVSPropertyOp5
 70
     1
102
RTVSPropertyOp6
 70
     1
102
RTVSPropertyOp7
 70
     1
102
RTVSPropertyOp8
 70
     1
102
RTVSPropertyOp9
 70
     1
102
RTVSPropertyOp10
 70
     1
102
RTVSPropertyOp11
 70
     1
102
RTVSPropertyOp12
 70
     1
102
RTVSPropertyOp13
 70
     1
102
RTVSPropertyOp14
 70
     1
102
RTVSPropertyOp15
 70
     1
102
RTVSPropertyOp16
 70
     1
102
RTVSPropertyOp17
 70
     1
102
RTVSPropertyOp18
 70
     1
102
RTVSPropertyOp19
 70
     1
102
RTVSPropertyOp20
 70
     1
102
RTVSPropertyOp21
 70
     1
102
RTVSPropertyOp22
 70
     1
102
RTVSPropertyOp23
 70
     1
102
RTVSPropertyOp24
 70
     1
102
RTVSPropertyOp25
 70
     1
102
RTVSPropertyOp26
 70
     1
102
RTVSPropertyOp27
 70
     1
102
RTVSPropertyOp28
 70
     1
102
RTVSPropertyOp29
 70
     1
102
RTVSPropertyOp30
 70
     1
102
RTVSPropertyOp31
 70
     1
102
RTVSPropertyOp32
 70
     1
102
RTVSPropertyOp33
 70
     1
102
RTVSPropertyOp34
 70
     1
102
RTVSPropertyOp35
 70
     1
102
RTVSPropertyOp36
 70
     1
102
RTVSPropertyOp37
 70
     1
102
RTVSPropertyOp38
 70
     1
102
RTVSPropertyOp39
 70
     1
102
RTVSPropertyOp40
 70
     1
102
RTVSPropertyOp41
 70
     1
102
RTVSPropertyOp42
 70
     1
102
RTVSPropertyOp43
 70
     1
102
RTVSPropertyOp44
 70
     1
102
RTVSPropertyOp45
 70
     1
102
RTVSPropertyOp46
 70
     1
102
RTVSPropertyOp47
 70
     1
102
RTVSPropertyOp48
 70
     1
102
RTVSPropertyOp49
 70
     1
102
RTVSPropertyOp50
 70
     1
102
RTVSPropertyOp51
 70
     0
102
RTVSPropertyOp52
 70
     0
102
RTVSPropertyOp53
 70
     1
102
RTVSPropertyOp54
 70
     1
102
RTVSPropertyOp55
 70
     1
102
RTVSPropertyOp56
 70
     1
102
RTVSPropertyOp57
 70
     1
102
RTVSPropertyOp58
 70
     1
102
RTVSPropertyOp59
 70
     1
102
RTVSPropertyOp60
 70
     1
102
RTVSPropertyOp61
 70
     1
102
RTVSPropertyOp62
 70
     1
  0
XRECORD
  5
37F
102
{ACAD_REACTORS
330
37E
102
}
330
37E
100
AcDbXrecord
280
     1
102
RTVSPost2010Prop28
280
     0
102
RTVSPost2010PropOp28
 70
     0
102
RTVSPost2010Prop29
280
     1
102
RTVSPost2010PropOp29
 70
     0
102
RTVSPost2010Prop30
280
     1
102
RTVSPost2010PropOp30
 70
     0
102
RTVSPost2010Prop31
280
     0
102
RTVSPost2010PropOp31
 70
     0
102
RTVSPost2010Prop32
280
     0
102
RTVSPost2010PropOp32
 70
     0
102
RTVSPost2010Prop33
280
     0
102
RTVSPost2010PropOp33
 70
     0
102
RTVSPost2010Prop34
280
     0
102
RTVSPost2010PropOp34
 70
     0
102
RTVSPost2010Prop35
280
     0
102
RTVSPost2010PropOp35
 70
     0
102
RTVSPost2010Prop36
280
     0
102
RTVSPost2010PropOp36
 70
     0
102
RTVSPost2010Prop37
 90
       50
102
RTVSPost2010PropOp37
 70
     0
102
RTVSPost2010Prop38
140
0.0
102
RTVSPost2010PropOp38
 70
     0
102
RTVSPost2010Prop39
140
1.0
102
RTVSPost2010PropOp39
 70
     0
102
RTVSPost2010Prop40
 90
        0
102
RTVSPost2010PropOp40
 70
     0
102
RTVSPost2010Prop41ColorIndex
 90
       18
102
RTVSPost2010Prop41ColorRGB
 90
        0
102
RTVSPost2010PropOp41
 70
     0
102
RTVSPost2010Prop42
 90
       50
102
RTVSPost2010PropOp42
 70
     0
102
RTVSPost2010Prop43
 90
        3
102
RTVSPost2010PropOp43
 70
     0
102
RTVSPost2010Prop44ColorIndex
 90
        5
102
RTVSPost2010Prop44ColorRGB
 90
      255
102
RTVSPost2010PropOp44
 70
     0
102
RTVSPost2010Prop45
280
     0
102
RTVSPost2010PropOp45
 70
     0
102
RTVSPost2010Prop46
 90
       50
102
RTVSPost2010PropOp46
 70
     0
102
RTVSPost2010Prop47
 90
       50
102
RTVSPost2010PropOp47
 70
     0
102
RTVSPost2010Prop48
 90
       50
102
RTVSPost2010PropOp48
 70
     0
102
RTVSPost2010Prop49
280
     0
102
RTVSPost2010PropOp49
 70
     0
102
RTVSPost2010Prop50
 90
       50
102
RTVSPost2010PropOp50
 70
     0
102
RTVSPost2010Prop51ColorIndex
 90
      256
102
RTVSPost2010Prop51ColorRGB
 90
-16777216
102
RTVSPost2010PropOp51
 70
     0
102
RTVSPost2010Prop52
140
1.0
102
RTVSPost2010PropOp52
 70
     0
102
RTVSPost2010Prop53
 90
        2
102
RTVSPost2010PropOp53
 70
     0
102
RTVSPost2010Prop54
  1
strokes_ogs.tif
102
RTVSPost2010PropOp54
 70
     0
102
RTVSPost2010Prop55
280
     0
102
RTVSPost2010PropOp55
 70
     0
102
RTVSPost2010Prop56
140
1.0
102
RTVSPost2010PropOp56
 70
     0
102
RTVSPost2010Prop57
140
1.0
102
RTVSPost2010PropOp57
 70
     0
102
RTVSPropertyOp0
 70
     0
102
RTVSPropertyOp1
 70
     0
102
RTVSPropertyOp2
 70
     0
102
RTVSPropertyOp3
 70
     0
102
RTVSPropertyOp4
 70
     0
102
RTVSPropertyOp5
 70
     0
102
RTVSPropertyOp6
 70
     0
102
RTVSPropertyOp7
 70
     0
102
RTVSPropertyOp8
 70
     0
102
RTVSPropertyOp9
 70
     0
102
RTVSPropertyOp10
 70
     0
102
RTVSPropertyOp11
 70
     0
102
RTVSPropertyOp12
 70
     0
102
RTVSPropertyOp13
 70
     0
102
RTVSPropertyOp14
 70
     2
102
RTVSPropertyOp15
 70
     0
102
RTVSPropertyOp16
 70
     0
102
RTVSPropertyOp17
 70
     0
102
RTVSPropertyOp18
 70
     0
102
RTVSPropertyOp19
 70
     0
102
RTVSPropertyOp20
 70
     0
102
RTVSPropertyOp21
 70
     0
102
RTVSPropertyOp22
 70
     0
102
RTVSPropertyOp23
 70
     0
102
RTVSPropertyOp24
 70
     0
102
RTVSPropertyOp25
 70
     0
102
RTVSPropertyOp26
 70
     0
102
RTVSPropertyOp27
 70
     0
102
RTVSPropertyOp28
 70
     0
102
RTVSPropertyOp29
 70
     0
102
RTVSPropertyOp30
 70
     0
102
RTVSPropertyOp31
 70
     0
102
RTVSPropertyOp32
 70
     0
102
RTVSPropertyOp33
 70
     0
102
RTVSPropertyOp34
 70
     0
102
RTVSPropertyOp35
 70
     0
102
RTVSPropertyOp36
 70
     0
102
RTVSPropertyOp37
 70
     0
102
RTVSPropertyOp38
 70
     0
102
RTVSPropertyOp39
 70
     0
102
RTVSPropertyOp40
 70
     0
102
RTVSPropertyOp41
 70
     0
102
RTVSPropertyOp42
 70
     0
102
RTVSPropertyOp43
 70
     0
102
RTVSPropertyOp44
 70
     0
102
RTVSPropertyOp45
 70
     0
102
RTVSPropertyOp46
 70
     0
102
RTVSPropertyOp47
 70
     0
102
RTVSPropertyOp48
 70
     0
102
RTVSPropertyOp49
 70
     0
102
RTVSPropertyOp50
 70
     0
102
RTVSPropertyOp51
 70
     0
102
RTVSPropertyOp52
 70
     0
102
RTVSPropertyOp53
 70
     0
102
RTVSPropertyOp54
 70
     0
102
RTVSPropertyOp55
 70
     0
102
RTVSPropertyOp56
 70
     0
102
RTVSPropertyOp57
 70
     0
102
RTVSPropertyOp58
 70
     1
102
RTVSPropertyOp59
 70
     1
102
RTVSPropertyOp60
 70
     1
102
RTVSPropertyOp61
 70
     1
102
RTVSPropertyOp62
 70
     1
  0
XRECORD
  5
379
102
{ACAD_REACTORS
330
378
102
}
330
378
100
AcDbXrecord
280
     1
102
RTVSPost2010Prop28
280
     0
102
RTVSPost2010PropOp28
 70
     1
102
RTVSPost2010Prop29
280
     1
102
RTVSPost2010PropOp29
 70
     1
102
RTVSPost2010Prop30
280
     1
102
RTVSPost2010PropOp30
 70
     1
102
RTVSPost2010Prop31
280
     0
102
RTVSPost2010PropOp31
 70
     1
102
RTVSPost2010Prop32
280
     0
102
RTVSPost2010PropOp32
 70
     1
102
RTVSPost2010Prop33
280
     0
102
RTVSPost2010PropOp33
 70
     1
102
RTVSPost2010Prop34
280
     0
102
RTVSPost2010PropOp34
 70
     1
102
RTVSPost2010Prop35
280
     0
102
RTVSPost2010PropOp35
 70
     1
102
RTVSPost2010Prop36
280
     0
102
RTVSPost2010PropOp36
 70
     1
102
RTVSPost2010Prop37
 90
       50
102
RTVSPost2010PropOp37
 70
     1
102
RTVSPost2010Prop38
140
0.0
102
RTVSPost2010PropOp38
 70
     1
102
RTVSPost2010Prop39
140
1.0
102
RTVSPost2010PropOp39
 70
     1
102
RTVSPost2010Prop40
 90
        0
102
RTVSPost2010PropOp40
 70
     1
102
RTVSPost2010Prop41ColorIndex
 90
       18
102
RTVSPost2010Prop41ColorRGB
 90
        0
102
RTVSPost2010PropOp41
 70
     1
102
RTVSPost2010Prop42
 90
       50
102
RTVSPost2010PropOp42
 70
     1
102
RTVSPost2010Prop43
 90
        3
102
RTVSPost2010PropOp43
 70
     1
102
RTVSPost2010Prop44ColorIndex
 90
        5
102
RTVSPost2010Prop44ColorRGB
 90
      255
102
RTVSPost2010PropOp44
 70
     1
102
RTVSPost2010Prop45
280
     0
102
RTVSPost2010PropOp45
 70
     1
102
RTVSPost2010Prop46
 90
       50
102
RTVSPost2010PropOp46
 70
     1
102
RTVSPost2010Prop47
 90
       50
102
RTVSPost2010PropOp47
 70
     1
102
RTVSPost2010Prop48
 90
       50
102
RTVSPost2010PropOp48
 70
     1
102
RTVSPost2010Prop49
280
     0
102
RTVSPost2010PropOp49
 70
     1
102
RTVSPost2010Prop50
 90
       50
102
RTVSPost2010PropOp50
 70
     1
102
RTVSPost2010Prop51ColorIndex
 90
      256
102
RTVSPost2010Prop51ColorRGB
 90
-16777216
102
RTVSPost2010PropOp51
 70
     0
102
RTVSPost2010Prop52
140
1.0
102
RTVSPost2010PropOp52
 70
     0
102
RTVSPost2010Prop53
 90
        2
102
RTVSPost2010PropOp53
 70
     1
102
RTVSPost2010Prop54
  1
strokes_ogs.tif
102
RTVSPost2010PropOp54
 70
     1
102
RTVSPost2010Prop55
280
     0
102
RTVSPost2010PropOp55
 70
     1
102
RTVSPost2010Prop56
140
1.0
102
RTVSPost2010PropOp56
 70
     1
102
RTVSPost2010Prop57
140
1.0
102
RTVSPost2010PropOp57
 70
     1
102
RTVSPropertyOp0
 70
     1
102
RTVSPropertyOp1
 70
     1
102
RTVSPropertyOp2
 70
     1
102
RTVSPropertyOp3
 70
     1
102
RTVSPropertyOp4
 70
     1
102
RTVSPropertyOp5
 70
     1
102
RTVSPropertyOp6
 70
     1
102
RTVSPropertyOp7
 70
     1
102
RTVSPropertyOp8
 70
     1
102
RTVSPropertyOp9
 70
     1
102
RTVSPropertyOp10
 70
     1
102
RTVSPropertyOp11
 70
     1
102
RTVSPropertyOp12
 70
     1
102
RTVSPropertyOp13
 70
     1
102
RTVSPropertyOp14
 70
     1
102
RTVSPropertyOp15
 70
     1
102
RTVSPropertyOp16
 70
     1
102
RTVSPropertyOp17
 70
     1
102
RTVSPropertyOp18
 70
     1
102
RTVSPropertyOp19
 70
     1
102
RTVSPropertyOp20
 70
     1
102
RTVSPropertyOp21
 70
     1
102
RTVSPropertyOp22
 70
     1
102
RTVSPropertyOp23
 70
     1
102
RTVSPropertyOp24
 70
     1
102
RTVSPropertyOp25
 70
     1
102
RTVSPropertyOp26
 70
     1
102
RTVSPropertyOp27
 70
     1
102
RTVSPropertyOp28
 70
     1
102
RTVSPropertyOp29
 70
     1
102
RTVSPropertyOp30
 70
     1
102
RTVSPropertyOp31
 70
     1
102
RTVSPropertyOp32
 70
     1
102
RTVSPropertyOp33
 70
     1
102
RTVSPropertyOp34
 70
     1
102
RTVSPropertyOp35
 70
     1
102
RTVSPropertyOp36
 70
     1
102
RTVSPropertyOp37
 70
     1
102
RTVSPropertyOp38
 70
     1
102
RTVSPropertyOp39
 70
     1
102
RTVSPropertyOp40
 70
     1
102
RTVSPropertyOp41
 70
     1
102
RTVSPropertyOp42
 70
     1
102
RTVSPropertyOp43
 70
     1
102
RTVSPropertyOp44
 70
     1
102
RTVSPropertyOp45
 70
     1
102
RTVSPropertyOp46
 70
     1
102
RTVSPropertyOp47
 70
     1
102
RTVSPropertyOp48
 70
     1
102
RTVSPropertyOp49
 70
     1
102
RTVSPropertyOp50
 70
     1
102
RTVSPropertyOp51
 70
     0
102
RTVSPropertyOp52
 70
     0
102
RTVSPropertyOp53
 70
     1
102
RTVSPropertyOp54
 70
     1
102
RTVSPropertyOp55
 70
     1
102
RTVSPropertyOp56
 70
     1
102
RTVSPropertyOp57
 70
     1
102
RTVSPropertyOp58
 70
     1
102
RTVSPropertyOp59
 70
     1
102
RTVSPropertyOp60
 70
     1
102
RTVSPropertyOp61
 70
     1
102
RTVSPropertyOp62
 70
     1
  0
XRECORD
  5
381
102
{ACAD_REACTORS
330
380
102
}
330
380
100
AcDbXrecord
280
     1
102
RTVSPost2010Prop28
280
     0
102
RTVSPost2010PropOp28
 70
     0
102
RTVSPost2010Prop29
280
     1
102
RTVSPost2010PropOp29
 70
     0
102
RTVSPost2010Prop30
280
     1
102
RTVSPost2010PropOp30
 70
     0
102
RTVSPost2010Prop31
280
     0
102
RTVSPost2010PropOp31
 70
     0
102
RTVSPost2010Prop32
280
     0
102
RTVSPost2010PropOp32
 70
     0
102
RTVSPost2010Prop33
280
     0
102
RTVSPost2010PropOp33
 70
     0
102
RTVSPost2010Prop34
280
     0
102
RTVSPost2010PropOp34
 70
     0
102
RTVSPost2010Prop35
280
     0
102
RTVSPost2010PropOp35
 70
     0
102
RTVSPost2010Prop36
280
     0
102
RTVSPost2010PropOp36
 70
     0
102
RTVSPost2010Prop37
 90
       50
102
RTVSPost2010PropOp37
 70
     0
102
RTVSPost2010Prop38
140
0.0
102
RTVSPost2010PropOp38
 70
     0
102
RTVSPost2010Prop39
140
1.0
102
RTVSPost2010PropOp39
 70
     0
102
RTVSPost2010Prop40
 90
        0
102
RTVSPost2010PropOp40
 70
     0
102
RTVSPost2010Prop41ColorIndex
 90
       18
102
RTVSPost2010Prop41ColorRGB
 90
        0
102
RTVSPost2010PropOp41
 70
     0
102
RTVSPost2010Prop42
 90
       50
102
RTVSPost2010PropOp42
 70
     0
102
RTVSPost2010Prop43
 90
        3
102
RTVSPost2010PropOp43
 70
     0
102
RTVSPost2010Prop44ColorIndex
 90
        5
102
RTVSPost2010Prop44ColorRGB
 90
      255
102
RTVSPost2010PropOp44
 70
     0
102
RTVSPost2010Prop45
280
     0
102
RTVSPost2010PropOp45
 70
     0
102
RTVSPost2010Prop46
 90
       50
102
RTVSPost2010PropOp46
 70
     0
102
RTVSPost2010Prop47
 90
       50
102
RTVSPost2010PropOp47
 70
     0
102
RTVSPost2010Prop48
 90
       50
102
RTVSPost2010PropOp48
 70
     0
102
RTVSPost2010Prop49
280
     0
102
RTVSPost2010PropOp49
 70
     0
102
RTVSPost2010Prop50
 90
       50
102
RTVSPost2010PropOp50
 70
     0
102
RTVSPost2010Prop51ColorIndex
 90
      256
102
RTVSPost2010Prop51ColorRGB
 90
-16777216
102
RTVSPost2010PropOp51
 70
     0
102
RTVSPost2010Prop52
140
1.0
102
RTVSPost2010PropOp52
 70
     0
102
RTVSPost2010Prop53
 90
        2
102
RTVSPost2010PropOp53
 70
     0
102
RTVSPost2010Prop54
  1
strokes_ogs.tif
102
RTVSPost2010PropOp54
 70
     0
102
RTVSPost2010Prop55
280
     0
102
RTVSPost2010PropOp55
 70
     0
102
RTVSPost2010Prop56
140
1.0
102
RTVSPost2010PropOp56
 70
     0
102
RTVSPost2010Prop57
140
1.0
102
RTVSPost2010PropOp57
 70
     0
102
RTVSPropertyOp0
 70
     0
102
RTVSPropertyOp1
 70
     0
102
RTVSPropertyOp2
 70
     0
102
RTVSPropertyOp3
 70
     0
102
RTVSPropertyOp4
 70
     0
102
RTVSPropertyOp5
 70
     0
102
RTVSPropertyOp6
 70
     0
102
RTVSPropertyOp7
 70
     0
102
RTVSPropertyOp8
 70
     0
102
RTVSPropertyOp9
 70
     0
102
RTVSPropertyOp10
 70
     0
102
RTVSPropertyOp11
 70
     0
102
RTVSPropertyOp12
 70
     0
102
RTVSPropertyOp13
 70
     0
102
RTVSPropertyOp14
 70
     2
102
RTVSPropertyOp15
 70
     0
102
RTVSPropertyOp16
 70
     0
102
RTVSPropertyOp17
 70
     0
102
RTVSPropertyOp18
 70
     0
102
RTVSPropertyOp19
 70
     0
102
RTVSPropertyOp20
 70
     0
102
RTVSPropertyOp21
 70
     0
102
RTVSPropertyOp22
 70
     0
102
RTVSPropertyOp23
 70
     0
102
RTVSPropertyOp24
 70
     0
102
RTVSPropertyOp25
 70
     0
102
RTVSPropertyOp26
 70
     0
102
RTVSPropertyOp27
 70
     0
102
RTVSPropertyOp28
 70
     0
102
RTVSPropertyOp29
 70
     0
102
RTVSPropertyOp30
 70
     0
102
RTVSPropertyOp31
 70
     0
102
RTVSPropertyOp32
 70
     0
102
RTVSPropertyOp33
 70
     0
102
RTVSPropertyOp34
 70
     0
102
RTVSPropertyOp35
 70
     0
102
RTVSPropertyOp36
 70
     0
102
RTVSPropertyOp37
 70
     0
102
RTVSPropertyOp38
 70
     0
102
RTVSPropertyOp39
 70
     0
102
RTVSPropertyOp40
 70
     0
102
RTVSPropertyOp41
 70
     0
102
RTVSPropertyOp42
 70
     0
102
RTVSPropertyOp43
 70
     0
102
RTVSPropertyOp44
 70
     0
102
RTVSPropertyOp45
 70
     0
102
RTVSPropertyOp46
 70
     0
102
RTVSPropertyOp47
 70
     0
102
RTVSPropertyOp48
 70
     0
102
RTVSPropertyOp49
 70
     0
102
RTVSPropertyOp50
 70
     0
102
RTVSPropertyOp51
 70
     0
102
RTVSPropertyOp52
 70
     0
102
RTVSPropertyOp53
 70
     0
102
RTVSPropertyOp54
 70
     0
102
RTVSPropertyOp55
 70
     0
102
RTVSPropertyOp56
 70
     0
102
RTVSPropertyOp57
 70
     0
102
RTVSPropertyOp58
 70
     1
102
RTVSPropertyOp59
 70
     1
102
RTVSPropertyOp60
 70
     1
102
RTVSPropertyOp61
 70
     1
102
RTVSPropertyOp62
 70
     1
  0
XRECORD
  5
36F
102
{ACAD_REACTORS
330
36E
102
}
330
36E
100
AcDbXrecord
280
     1
102
RTVSPost2010Prop28
280
     0
102
RTVSPost2010PropOp28
 70
     1
102
RTVSPost2010Prop29
280
     1
102
RTVSPost2010PropOp29
 70
     1
102
RTVSPost2010Prop30
280
     1
102
RTVSPost2010PropOp30
 70
     1
102
RTVSPost2010Prop31
280
     0
102
RTVSPost2010PropOp31
 70
     1
102
RTVSPost2010Prop32
280
     0
102
RTVSPost2010PropOp32
 70
     1
102
RTVSPost2010Prop33
280
     0
102
RTVSPost2010PropOp33
 70
     1
102
RTVSPost2010Prop34
280
     0
102
RTVSPost2010PropOp34
 70
     1
102
RTVSPost2010Prop35
280
     0
102
RTVSPost2010PropOp35
 70
     1
102
RTVSPost2010Prop36
280
     0
102
RTVSPost2010PropOp36
 70
     1
102
RTVSPost2010Prop37
 90
       50
102
RTVSPost2010PropOp37
 70
     1
102
RTVSPost2010Prop38
140
0.0
102
RTVSPost2010PropOp38
 70
     1
102
RTVSPost2010Prop39
140
1.0
102
RTVSPost2010PropOp39
 70
     1
102
RTVSPost2010Prop40
 90
        0
102
RTVSPost2010PropOp40
 70
     1
102
RTVSPost2010Prop41ColorIndex
 90
       18
102
RTVSPost2010Prop41ColorRGB
 90
        0
102
RTVSPost2010PropOp41
 70
     1
102
RTVSPost2010Prop42
 90
       50
102
RTVSPost2010PropOp42
 70
     1
102
RTVSPost2010Prop43
 90
        3
102
RTVSPost2010PropOp43
 70
     1
102
RTVSPost2010Prop44ColorIndex
 90
        5
102
RTVSPost2010Prop44ColorRGB
 90
      255
102
RTVSPost2010PropOp44
 70
     1
102
RTVSPost2010Prop45
280
     0
102
RTVSPost2010PropOp45
 70
     1
102
RTVSPost2010Prop46
 90
       50
102
RTVSPost2010PropOp46
 70
     1
102
RTVSPost2010Prop47
 90
       50
102
RTVSPost2010PropOp47
 70
     1
102
RTVSPost2010Prop48
 90
       50
102
RTVSPost2010PropOp48
 70
     1
102
RTVSPost2010Prop49
280
     0
102
RTVSPost2010PropOp49
 70
     1
102
RTVSPost2010Prop50
 90
       50
102
RTVSPost2010PropOp50
 70
     1
102
RTVSPost2010Prop51ColorIndex
 90
      256
102
RTVSPost2010Prop51ColorRGB
 90
-16777216
102
RTVSPost2010PropOp51
 70
     0
102
RTVSPost2010Prop52
140
1.0
102
RTVSPost2010PropOp52
 70
     0
102
RTVSPost2010Prop53
 90
        2
102
RTVSPost2010PropOp53
 70
     1
102
RTVSPost2010Prop54
  1
strokes_ogs.tif
102
RTVSPost2010PropOp54
 70
     1
102
RTVSPost2010Prop55
280
     0
102
RTVSPost2010PropOp55
 70
     1
102
RTVSPost2010Prop56
140
1.0
102
RTVSPost2010PropOp56
 70
     1
102
RTVSPost2010Prop57
140
1.0
102
RTVSPost2010PropOp57
 70
     1
102
RTVSPropertyOp0
 70
     1
102
RTVSPropertyOp1
 70
     1
102
RTVSPropertyOp2
 70
     1
102
RTVSPropertyOp3
 70
     1
102
RTVSPropertyOp4
 70
     1
102
RTVSPropertyOp5
 70
     1
102
RTVSPropertyOp6
 70
     1
102
RTVSPropertyOp7
 70
     1
102
RTVSPropertyOp8
 70
     1
102
RTVSPropertyOp9
 70
     1
102
RTVSPropertyOp10
 70
     1
102
RTVSPropertyOp11
 70
     1
102
RTVSPropertyOp12
 70
     1
102
RTVSPropertyOp13
 70
     1
102
RTVSPropertyOp14
 70
     1
102
RTVSPropertyOp15
 70
     1
102
RTVSPropertyOp16
 70
     1
102
RTVSPropertyOp17
 70
     1
102
RTVSPropertyOp18
 70
     1
102
RTVSPropertyOp19
 70
     1
102
RTVSPropertyOp20
 70
     1
102
RTVSPropertyOp21
 70
     1
102
RTVSPropertyOp22
 70
     1
102
RTVSPropertyOp23
 70
     1
102
RTVSPropertyOp24
 70
     1
102
RTVSPropertyOp25
 70
     1
102
RTVSPropertyOp26
 70
     1
102
RTVSPropertyOp27
 70
     1
102
RTVSPropertyOp28
 70
     1
102
RTVSPropertyOp29
 70
     1
102
RTVSPropertyOp30
 70
     1
102
RTVSPropertyOp31
 70
     1
102
RTVSPropertyOp32
 70
     1
102
RTVSPropertyOp33
 70
     1
102
RTVSPropertyOp34
 70
     1
102
RTVSPropertyOp35
 70
     1
102
RTVSPropertyOp36
 70
     1
102
RTVSPropertyOp37
 70
     1
102
RTVSPropertyOp38
 70
     1
102
RTVSPropertyOp39
 70
     1
102
RTVSPropertyOp40
 70
     1
102
RTVSPropertyOp41
 70
     1
102
RTVSPropertyOp42
 70
     1
102
RTVSPropertyOp43
 70
     1
102
RTVSPropertyOp44
 70
     1
102
RTVSPropertyOp45
 70
     1
102
RTVSPropertyOp46
 70
     1
102
RTVSPropertyOp47
 70
     1
102
RTVSPropertyOp48
 70
     1
102
RTVSPropertyOp49
 70
     1
102
RTVSPropertyOp50
 70
     1
102
RTVSPropertyOp51
 70
     0
102
RTVSPropertyOp52
 70
     0
102
RTVSPropertyOp53
 70
     1
102
RTVSPropertyOp54
 70
     1
102
RTVSPropertyOp55
 70
     1
102
RTVSPropertyOp56
 70
     1
102
RTVSPropertyOp57
 70
     1
102
RTVSPropertyOp58
 70
     1
102
RTVSPropertyOp59
 70
     1
102
RTVSPropertyOp60
 70
     1
102
RTVSPropertyOp61
 70
     1
102
RTVSPropertyOp62
 70
     1
  0
XRECORD
  5
38D
102
{ACAD_REACTORS
330
38C
102
}
330
38C
100
AcDbXrecord
280
     1
102
RTVSPost2010Prop28
280
     0
102
RTVSPost2010PropOp28
 70
     1
102
RTVSPost2010Prop29
280
     1
102
RTVSPost2010PropOp29
 70
     1
102
RTVSPost2010Prop30
280
     1
102
RTVSPost2010PropOp30
 70
     1
102
RTVSPost2010Prop31
280
     0
102
RTVSPost2010PropOp31
 70
     1
102
RTVSPost2010Prop32
280
     0
102
RTVSPost2010PropOp32
 70
     1
102
RTVSPost2010Prop33
280
     0
102
RTVSPost2010PropOp33
 70
     1
102
RTVSPost2010Prop34
280
     0
102
RTVSPost2010PropOp34
 70
     1
102
RTVSPost2010Prop35
280
     0
102
RTVSPost2010PropOp35
 70
     1
102
RTVSPost2010Prop36
280
     0
102
RTVSPost2010PropOp36
 70
     1
102
RTVSPost2010Prop37
 90
       50
102
RTVSPost2010PropOp37
 70
     1
102
RTVSPost2010Prop38
140
0.0
102
RTVSPost2010PropOp38
 70
     1
102
RTVSPost2010Prop39
140
1.0
102
RTVSPost2010PropOp39
 70
     1
102
RTVSPost2010Prop40
 90
        0
102
RTVSPost2010PropOp40
 70
     1
102
RTVSPost2010Prop41ColorIndex
 90
       18
102
RTVSPost2010Prop41ColorRGB
 90
        0
102
RTVSPost2010PropOp41
 70
     1
102
RTVSPost2010Prop42
 90
       50
102
RTVSPost2010PropOp42
 70
     1
102
RTVSPost2010Prop43
 90
        3
102
RTVSPost2010PropOp43
 70
     1
102
RTVSPost2010Prop44ColorIndex
 90
        5
102
RTVSPost2010Prop44ColorRGB
 90
      255
102
RTVSPost2010PropOp44
 70
     1
102
RTVSPost2010Prop45
280
     0
102
RTVSPost2010PropOp45
 70
     1
102
RTVSPost2010Prop46
 90
       50
102
RTVSPost2010PropOp46
 70
     1
102
RTVSPost2010Prop47
 90
       50
102
RTVSPost2010PropOp47
 70
     1
102
RTVSPost2010Prop48
 90
       50
102
RTVSPost2010PropOp48
 70
     1
102
RTVSPost2010Prop49
280
     0
102
RTVSPost2010PropOp49
 70
     1
102
RTVSPost2010Prop50
 90
       50
102
RTVSPost2010PropOp50
 70
     1
102
RTVSPost2010Prop51ColorIndex
 90
      256
102
RTVSPost2010Prop51ColorRGB
 90
-16777216
102
RTVSPost2010PropOp51
 70
     0
102
RTVSPost2010Prop52
140
1.0
102
RTVSPost2010PropOp52
 70
     0
102
RTVSPost2010Prop53
 90
        2
102
RTVSPost2010PropOp53
 70
     1
102
RTVSPost2010Prop54
  1
strokes_ogs.tif
102
RTVSPost2010PropOp54
 70
     1
102
RTVSPost2010Prop55
280
     0
102
RTVSPost2010PropOp55
 70
     1
102
RTVSPost2010Prop56
140
1.0
102
RTVSPost2010PropOp56
 70
     1
102
RTVSPost2010Prop57
140
1.0
102
RTVSPost2010PropOp57
 70
     1
102
RTVSPropertyOp0
 70
     1
102
RTVSPropertyOp1
 70
     1
102
RTVSPropertyOp2
 70
     1
102
RTVSPropertyOp3
 70
     1
102
RTVSPropertyOp4
 70
     1
102
RTVSPropertyOp5
 70
     1
102
RTVSPropertyOp6
 70
     1
102
RTVSPropertyOp7
 70
     1
102
RTVSPropertyOp8
 70
     1
102
RTVSPropertyOp9
 70
     1
102
RTVSPropertyOp10
 70
     1
102
RTVSPropertyOp11
 70
     1
102
RTVSPropertyOp12
 70
     1
102
RTVSPropertyOp13
 70
     1
102
RTVSPropertyOp14
 70
     1
102
RTVSPropertyOp15
 70
     1
102
RTVSPropertyOp16
 70
     1
102
RTVSPropertyOp17
 70
     1
102
RTVSPropertyOp18
 70
     1
102
RTVSPropertyOp19
 70
     1
102
RTVSPropertyOp20
 70
     1
102
RTVSPropertyOp21
 70
     1
102
RTVSPropertyOp22
 70
     1
102
RTVSPropertyOp23
 70
     1
102
RTVSPropertyOp24
 70
     1
102
RTVSPropertyOp25
 70
     1
102
RTVSPropertyOp26
 70
     1
102
RTVSPropertyOp27
 70
     1
102
RTVSPropertyOp28
 70
     1
102
RTVSPropertyOp29
 70
     1
102
RTVSPropertyOp30
 70
     1
102
RTVSPropertyOp31
 70
     1
102
RTVSPropertyOp32
 70
     1
102
RTVSPropertyOp33
 70
     1
102
RTVSPropertyOp34
 70
     1
102
RTVSPropertyOp35
 70
     1
102
RTVSPropertyOp36
 70
     1
102
RTVSPropertyOp37
 70
     1
102
RTVSPropertyOp38
 70
     1
102
RTVSPropertyOp39
 70
     1
102
RTVSPropertyOp40
 70
     1
102
RTVSPropertyOp41
 70
     1
102
RTVSPropertyOp42
 70
     1
102
RTVSPropertyOp43
 70
     1
102
RTVSPropertyOp44
 70
     1
102
RTVSPropertyOp45
 70
     1
102
RTVSPropertyOp46
 70
     1
102
RTVSPropertyOp47
 70
     1
102
RTVSPropertyOp48
 70
     1
102
RTVSPropertyOp49
 70
     1
102
RTVSPropertyOp50
 70
     1
102
RTVSPropertyOp51
 70
     0
102
RTVSPropertyOp52
 70
     0
102
RTVSPropertyOp53
 70
     1
102
RTVSPropertyOp54
 70
     1
102
RTVSPropertyOp55
 70
     1
102
RTVSPropertyOp56
 70
     1
102
RTVSPropertyOp57
 70
     1
102
RTVSPropertyOp58
 70
     1
102
RTVSPropertyOp59
 70
     1
102
RTVSPropertyOp60
 70
     1
102
RTVSPropertyOp61
 70
     1
102
RTVSPropertyOp62
 70
     1
  0
XRECORD
  5
38B
102
{ACAD_REACTORS
330
38A
102
}
330
38A
100
AcDbXrecord
280
     1
102
RTVSPost2010Prop28
280
     0
102
RTVSPost2010PropOp28
 70
     1
102
RTVSPost2010Prop29
280
     1
102
RTVSPost2010PropOp29
 70
     1
102
RTVSPost2010Prop30
280
     1
102
RTVSPost2010PropOp30
 70
     1
102
RTVSPost2010Prop31
280
     0
102
RTVSPost2010PropOp31
 70
     1
102
RTVSPost2010Prop32
280
     0
102
RTVSPost2010PropOp32
 70
     1
102
RTVSPost2010Prop33
280
     0
102
RTVSPost2010PropOp33
 70
     1
102
RTVSPost2010Prop34
280
     0
102
RTVSPost2010PropOp34
 70
     1
102
RTVSPost2010Prop35
280
     0
102
RTVSPost2010PropOp35
 70
     1
102
RTVSPost2010Prop36
280
     0
102
RTVSPost2010PropOp36
 70
     1
102
RTVSPost2010Prop37
 90
       50
102
RTVSPost2010PropOp37
 70
     1
102
RTVSPost2010Prop38
140
0.0
102
RTVSPost2010PropOp38
 70
     1
102
RTVSPost2010Prop39
140
1.0
102
RTVSPost2010PropOp39
 70
     1
102
RTVSPost2010Prop40
 90
        0
102
RTVSPost2010PropOp40
 70
     1
102
RTVSPost2010Prop41ColorIndex
 90
       18
102
RTVSPost2010Prop41ColorRGB
 90
        0
102
RTVSPost2010PropOp41
 70
     1
102
RTVSPost2010Prop42
 90
       50
102
RTVSPost2010PropOp42
 70
     1
102
RTVSPost2010Prop43
 90
        3
102
RTVSPost2010PropOp43
 70
     1
102
RTVSPost2010Prop44ColorIndex
 90
        5
102
RTVSPost2010Prop44ColorRGB
 90
      255
102
RTVSPost2010PropOp44
 70
     1
102
RTVSPost2010Prop45
280
     0
102
RTVSPost2010PropOp45
 70
     1
102
RTVSPost2010Prop46
 90
       50
102
RTVSPost2010PropOp46
 70
     1
102
RTVSPost2010Prop47
 90
       50
102
RTVSPost2010PropOp47
 70
     1
102
RTVSPost2010Prop48
 90
       50
102
RTVSPost2010PropOp48
 70
     1
102
RTVSPost2010Prop49
280
     0
102
RTVSPost2010PropOp49
 70
     1
102
RTVSPost2010Prop50
 90
       50
102
RTVSPost2010PropOp50
 70
     1
102
RTVSPost2010Prop51ColorIndex
 90
      256
102
RTVSPost2010Prop51ColorRGB
 90
-16777216
102
RTVSPost2010PropOp51
 70
     0
102
RTVSPost2010Prop52
140
1.0
102
RTVSPost2010PropOp52
 70
     0
102
RTVSPost2010Prop53
 90
        2
102
RTVSPost2010PropOp53
 70
     1
102
RTVSPost2010Prop54
  1
strokes_ogs.tif
102
RTVSPost2010PropOp54
 70
     1
102
RTVSPost2010Prop55
280
     0
102
RTVSPost2010PropOp55
 70
     1
102
RTVSPost2010Prop56
140
1.0
102
RTVSPost2010PropOp56
 70
     1
102
RTVSPost2010Prop57
140
1.0
102
RTVSPost2010PropOp57
 70
     1
102
RTVSPropertyOp0
 70
     1
102
RTVSPropertyOp1
 70
     1
102
RTVSPropertyOp2
 70
     1
102
RTVSPropertyOp3
 70
     1
102
RTVSPropertyOp4
 70
     1
102
RTVSPropertyOp5
 70
     1
102
RTVSPropertyOp6
 70
     1
102
RTVSPropertyOp7
 70
     1
102
RTVSPropertyOp8
 70
     1
102
RTVSPropertyOp9
 70
     1
102
RTVSPropertyOp10
 70
     1
102
RTVSPropertyOp11
 70
     1
102
RTVSPropertyOp12
 70
     1
102
RTVSPropertyOp13
 70
     1
102
RTVSPropertyOp14
 70
     1
102
RTVSPropertyOp15
 70
     1
102
RTVSPropertyOp16
 70
     1
102
RTVSPropertyOp17
 70
     1
102
RTVSPropertyOp18
 70
     1
102
RTVSPropertyOp19
 70
     1
102
RTVSPropertyOp20
 70
     1
102
RTVSPropertyOp21
 70
     1
102
RTVSPropertyOp22
 70
     1
102
RTVSPropertyOp23
 70
     1
102
RTVSPropertyOp24
 70
     1
102
RTVSPropertyOp25
 70
     1
102
RTVSPropertyOp26
 70
     1
102
RTVSPropertyOp27
 70
     1
102
RTVSPropertyOp28
 70
     1
102
RTVSPropertyOp29
 70
     1
102
RTVSPropertyOp30
 70
     1
102
RTVSPropertyOp31
 70
     1
102
RTVSPropertyOp32
 70
     1
102
RTVSPropertyOp33
 70
     1
102
RTVSPropertyOp34
 70
     1
102
RTVSPropertyOp35
 70
     1
102
RTVSPropertyOp36
 70
     1
102
RTVSPropertyOp37
 70
     1
102
RTVSPropertyOp38
 70
     1
102
RTVSPropertyOp39
 70
     1
102
RTVSPropertyOp40
 70
     1
102
RTVSPropertyOp41
 70
     1
102
RTVSPropertyOp42
 70
     1
102
RTVSPropertyOp43
 70
     1
102
RTVSPropertyOp44
 70
     1
102
RTVSPropertyOp45
 70
     1
102
RTVSPropertyOp46
 70
     1
102
RTVSPropertyOp47
 70
     1
102
RTVSPropertyOp48
 70
     1
102
RTVSPropertyOp49
 70
     1
102
RTVSPropertyOp50
 70
     1
102
RTVSPropertyOp51
 70
     0
102
RTVSPropertyOp52
 70
     0
102
RTVSPropertyOp53
 70
     1
102
RTVSPropertyOp54
 70
     1
102
RTVSPropertyOp55
 70
     1
102
RTVSPropertyOp56
 70
     1
102
RTVSPropertyOp57
 70
     1
102
RTVSPropertyOp58
 70
     1
102
RTVSPropertyOp59
 70
     1
102
RTVSPropertyOp60
 70
     1
102
RTVSPropertyOp61
 70
     1
102
RTVSPropertyOp62
 70
     1
  0
XRECORD
  5
385
102
{ACAD_REACTORS
330
384
102
}
330
384
100
AcDbXrecord
280
     1
102
RTVSPost2010Prop28
280
     0
102
RTVSPost2010PropOp28
 70
     1
102
RTVSPost2010Prop29
280
     1
102
RTVSPost2010PropOp29
 70
     1
102
RTVSPost2010Prop30
280
     1
102
RTVSPost2010PropOp30
 70
     1
102
RTVSPost2010Prop31
280
     0
102
RTVSPost2010PropOp31
 70
     1
102
RTVSPost2010Prop32
280
     0
102
RTVSPost2010PropOp32
 70
     1
102
RTVSPost2010Prop33
280
     0
102
RTVSPost2010PropOp33
 70
     1
102
RTVSPost2010Prop34
280
     0
102
RTVSPost2010PropOp34
 70
     1
102
RTVSPost2010Prop35
280
     0
102
RTVSPost2010PropOp35
 70
     1
102
RTVSPost2010Prop36
280
     0
102
RTVSPost2010PropOp36
 70
     1
102
RTVSPost2010Prop37
 90
       50
102
RTVSPost2010PropOp37
 70
     1
102
RTVSPost2010Prop38
140
0.0
102
RTVSPost2010PropOp38
 70
     1
102
RTVSPost2010Prop39
140
1.0
102
RTVSPost2010PropOp39
 70
     1
102
RTVSPost2010Prop40
 90
        0
102
RTVSPost2010PropOp40
 70
     1
102
RTVSPost2010Prop41ColorIndex
 90
       18
102
RTVSPost2010Prop41ColorRGB
 90
        0
102
RTVSPost2010PropOp41
 70
     1
102
RTVSPost2010Prop42
 90
       50
102
RTVSPost2010PropOp42
 70
     1
102
RTVSPost2010Prop43
 90
        3
102
RTVSPost2010PropOp43
 70
     1
102
RTVSPost2010Prop44ColorIndex
 90
        5
102
RTVSPost2010Prop44ColorRGB
 90
      255
102
RTVSPost2010PropOp44
 70
     1
102
RTVSPost2010Prop45
280
     0
102
RTVSPost2010PropOp45
 70
     1
102
RTVSPost2010Prop46
 90
       50
102
RTVSPost2010PropOp46
 70
     1
102
RTVSPost2010Prop47
 90
       50
102
RTVSPost2010PropOp47
 70
     1
102
RTVSPost2010Prop48
 90
       50
102
RTVSPost2010PropOp48
 70
     1
102
RTVSPost2010Prop49
280
     0
102
RTVSPost2010PropOp49
 70
     1
102
RTVSPost2010Prop50
 90
       50
102
RTVSPost2010PropOp50
 70
     1
102
RTVSPost2010Prop51ColorIndex
 90
      256
102
RTVSPost2010Prop51ColorRGB
 90
-16777216
102
RTVSPost2010PropOp51
 70
     0
102
RTVSPost2010Prop52
140
1.0
102
RTVSPost2010PropOp52
 70
     0
102
RTVSPost2010Prop53
 90
        2
102
RTVSPost2010PropOp53
 70
     1
102
RTVSPost2010Prop54
  1
strokes_ogs.tif
102
RTVSPost2010PropOp54
 70
     1
102
RTVSPost2010Prop55
280
     0
102
RTVSPost2010PropOp55
 70
     1
102
RTVSPost2010Prop56
140
1.0
102
RTVSPost2010PropOp56
 70
     1
102
RTVSPost2010Prop57
140
1.0
102
RTVSPost2010PropOp57
 70
     1
102
RTVSPropertyOp0
 70
     1
102
RTVSPropertyOp1
 70
     1
102
RTVSPropertyOp2
 70
     1
102
RTVSPropertyOp3
 70
     1
102
RTVSPropertyOp4
 70
     1
102
RTVSPropertyOp5
 70
     1
102
RTVSPropertyOp6
 70
     1
102
RTVSPropertyOp7
 70
     1
102
RTVSPropertyOp8
 70
     1
102
RTVSPropertyOp9
 70
     1
102
RTVSPropertyOp10
 70
     1
102
RTVSPropertyOp11
 70
     1
102
RTVSPropertyOp12
 70
     1
102
RTVSPropertyOp13
 70
     1
102
RTVSPropertyOp14
 70
     1
102
RTVSPropertyOp15
 70
     1
102
RTVSPropertyOp16
 70
     1
102
RTVSPropertyOp17
 70
     1
102
RTVSPropertyOp18
 70
     1
102
RTVSPropertyOp19
 70
     1
102
RTVSPropertyOp20
 70
     1
102
RTVSPropertyOp21
 70
     1
102
RTVSPropertyOp22
 70
     1
102
RTVSPropertyOp23
 70
     1
102
RTVSPropertyOp24
 70
     1
102
RTVSPropertyOp25
 70
     1
102
RTVSPropertyOp26
 70
     1
102
RTVSPropertyOp27
 70
     1
102
RTVSPropertyOp28
 70
     1
102
RTVSPropertyOp29
 70
     1
102
RTVSPropertyOp30
 70
     1
102
RTVSPropertyOp31
 70
     1
102
RTVSPropertyOp32
 70
     1
102
RTVSPropertyOp33
 70
     1
102
RTVSPropertyOp34
 70
     1
102
RTVSPropertyOp35
 70
     1
102
RTVSPropertyOp36
 70
     1
102
RTVSPropertyOp37
 70
     1
102
RTVSPropertyOp38
 70
     1
102
RTVSPropertyOp39
 70
     1
102
RTVSPropertyOp40
 70
     1
102
RTVSPropertyOp41
 70
     1
102
RTVSPropertyOp42
 70
     1
102
RTVSPropertyOp43
 70
     1
102
RTVSPropertyOp44
 70
     1
102
RTVSPropertyOp45
 70
     1
102
RTVSPropertyOp46
 70
     1
102
RTVSPropertyOp47
 70
     1
102
RTVSPropertyOp48
 70
     1
102
RTVSPropertyOp49
 70
     1
102
RTVSPropertyOp50
 70
     1
102
RTVSPropertyOp51
 70
     0
102
RTVSPropertyOp52
 70
     0
102
RTVSPropertyOp53
 70
     1
102
RTVSPropertyOp54
 70
     1
102
RTVSPropertyOp55
 70
     1
102
RTVSPropertyOp56
 70
     1
102
RTVSPropertyOp57
 70
     1
102
RTVSPropertyOp58
 70
     1
102
RTVSPropertyOp59
 70
     1
102
RTVSPropertyOp60
 70
     1
102
RTVSPropertyOp61
 70
     1
102
RTVSPropertyOp62
 70
     1
  0
XRECORD
  5
387
102
{ACAD_REACTORS
330
386
102
}
330
386
100
AcDbXrecord
280
     1
102
RTVSPost2010Prop28
280
     0
102
RTVSPost2010PropOp28
 70
     1
102
RTVSPost2010Prop29
280
     1
102
RTVSPost2010PropOp29
 70
     1
102
RTVSPost2010Prop30
280
     1
102
RTVSPost2010PropOp30
 70
     1
102
RTVSPost2010Prop31
280
     0
102
RTVSPost2010PropOp31
 70
     1
102
RTVSPost2010Prop32
280
     0
102
RTVSPost2010PropOp32
 70
     1
102
RTVSPost2010Prop33
280
     0
102
RTVSPost2010PropOp33
 70
     1
102
RTVSPost2010Prop34
280
     0
102
RTVSPost2010PropOp34
 70
     1
102
RTVSPost2010Prop35
280
     0
102
RTVSPost2010PropOp35
 70
     1
102
RTVSPost2010Prop36
280
     0
102
RTVSPost2010PropOp36
 70
     1
102
RTVSPost2010Prop37
 90
       50
102
RTVSPost2010PropOp37
 70
     1
102
RTVSPost2010Prop38
140
0.0
102
RTVSPost2010PropOp38
 70
     1
102
RTVSPost2010Prop39
140
1.0
102
RTVSPost2010PropOp39
 70
     1
102
RTVSPost2010Prop40
 90
        0
102
RTVSPost2010PropOp40
 70
     1
102
RTVSPost2010Prop41ColorIndex
 90
       18
102
RTVSPost2010Prop41ColorRGB
 90
        0
102
RTVSPost2010PropOp41
 70
     1
102
RTVSPost2010Prop42
 90
       50
102
RTVSPost2010PropOp42
 70
     1
102
RTVSPost2010Prop43
 90
        3
102
RTVSPost2010PropOp43
 70
     1
102
RTVSPost2010Prop44ColorIndex
 90
        5
102
RTVSPost2010Prop44ColorRGB
 90
      255
102
RTVSPost2010PropOp44
 70
     1
102
RTVSPost2010Prop45
280
     0
102
RTVSPost2010PropOp45
 70
     1
102
RTVSPost2010Prop46
 90
       50
102
RTVSPost2010PropOp46
 70
     1
102
RTVSPost2010Prop47
 90
       50
102
RTVSPost2010PropOp47
 70
     1
102
RTVSPost2010Prop48
 90
       50
102
RTVSPost2010PropOp48
 70
     1
102
RTVSPost2010Prop49
280
     0
102
RTVSPost2010PropOp49
 70
     1
102
RTVSPost2010Prop50
 90
       50
102
RTVSPost2010PropOp50
 70
     1
102
RTVSPost2010Prop51ColorIndex
 90
      256
102
RTVSPost2010Prop51ColorRGB
 90
-16777216
102
RTVSPost2010PropOp51
 70
     0
102
RTVSPost2010Prop52
140
1.0
102
RTVSPost2010PropOp52
 70
     0
102
RTVSPost2010Prop53
 90
        2
102
RTVSPost2010PropOp53
 70
     1
102
RTVSPost2010Prop54
  1
strokes_ogs.tif
102
RTVSPost2010PropOp54
 70
     1
102
RTVSPost2010Prop55
280
     0
102
RTVSPost2010PropOp55
 70
     1
102
RTVSPost2010Prop56
140
1.0
102
RTVSPost2010PropOp56
 70
     1
102
RTVSPost2010Prop57
140
1.0
102
RTVSPost2010PropOp57
 70
     1
102
RTVSPropertyOp0
 70
     1
102
RTVSPropertyOp1
 70
     1
102
RTVSPropertyOp2
 70
     1
102
RTVSPropertyOp3
 70
     1
102
RTVSPropertyOp4
 70
     1
102
RTVSPropertyOp5
 70
     1
102
RTVSPropertyOp6
 70
     1
102
RTVSPropertyOp7
 70
     1
102
RTVSPropertyOp8
 70
     1
102
RTVSPropertyOp9
 70
     1
102
RTVSPropertyOp10
 70
     1
102
RTVSPropertyOp11
 70
     1
102
RTVSPropertyOp12
 70
     1
102
RTVSPropertyOp13
 70
     1
102
RTVSPropertyOp14
 70
     1
102
RTVSPropertyOp15
 70
     1
102
RTVSPropertyOp16
 70
     1
102
RTVSPropertyOp17
 70
     1
102
RTVSPropertyOp18
 70
     1
102
RTVSPropertyOp19
 70
     1
102
RTVSPropertyOp20
 70
     1
102
RTVSPropertyOp21
 70
     1
102
RTVSPropertyOp22
 70
     1
102
RTVSPropertyOp23
 70
     1
102
RTVSPropertyOp24
 70
     1
102
RTVSPropertyOp25
 70
     1
102
RTVSPropertyOp26
 70
     1
102
RTVSPropertyOp27
 70
     1
102
RTVSPropertyOp28
 70
     1
102
RTVSPropertyOp29
 70
     1
102
RTVSPropertyOp30
 70
     1
102
RTVSPropertyOp31
 70
     1
102
RTVSPropertyOp32
 70
     1
102
RTVSPropertyOp33
 70
     1
102
RTVSPropertyOp34
 70
     1
102
RTVSPropertyOp35
 70
     1
102
RTVSPropertyOp36
 70
     1
102
RTVSPropertyOp37
 70
     1
102
RTVSPropertyOp38
 70
     1
102
RTVSPropertyOp39
 70
     1
102
RTVSPropertyOp40
 70
     1
102
RTVSPropertyOp41
 70
     1
102
RTVSPropertyOp42
 70
     1
102
RTVSPropertyOp43
 70
     1
102
RTVSPropertyOp44
 70
     1
102
RTVSPropertyOp45
 70
     1
102
RTVSPropertyOp46
 70
     1
102
RTVSPropertyOp47
 70
     1
102
RTVSPropertyOp48
 70
     1
102
RTVSPropertyOp49
 70
     1
102
RTVSPropertyOp50
 70
     1
102
RTVSPropertyOp51
 70
     0
102
RTVSPropertyOp52
 70
     0
102
RTVSPropertyOp53
 70
     1
102
RTVSPropertyOp54
 70
     1
102
RTVSPropertyOp55
 70
     1
102
RTVSPropertyOp56
 70
     1
102
RTVSPropertyOp57
 70
     1
102
RTVSPropertyOp58
 70
     1
102
RTVSPropertyOp59
 70
     1
102
RTVSPropertyOp60
 70
     1
102
RTVSPropertyOp61
 70
     1
102
RTVSPropertyOp62
 70
     1
  0
XRECORD
  5
377
102
{ACAD_REACTORS
330
376
102
}
330
376
100
AcDbXrecord
280
     1
102
RTVSPost2010Prop28
280
     0
102
RTVSPost2010PropOp28
 70
     1
102
RTVSPost2010Prop29
280
     1
102
RTVSPost2010PropOp29
 70
     1
102
RTVSPost2010Prop30
280
     1
102
RTVSPost2010PropOp30
 70
     1
102
RTVSPost2010Prop31
280
     0
102
RTVSPost2010PropOp31
 70
     1
102
RTVSPost2010Prop32
280
     0
102
RTVSPost2010PropOp32
 70
     1
102
RTVSPost2010Prop33
280
     0
102
RTVSPost2010PropOp33
 70
     1
102
RTVSPost2010Prop34
280
     0
102
RTVSPost2010PropOp34
 70
     1
102
RTVSPost2010Prop35
280
     0
102
RTVSPost2010PropOp35
 70
     1
102
RTVSPost2010Prop36
280
     0
102
RTVSPost2010PropOp36
 70
     1
102
RTVSPost2010Prop37
 90
       50
102
RTVSPost2010PropOp37
 70
     1
102
RTVSPost2010Prop38
140
0.0
102
RTVSPost2010PropOp38
 70
     1
102
RTVSPost2010Prop39
140
1.0
102
RTVSPost2010PropOp39
 70
     1
102
RTVSPost2010Prop40
 90
        0
102
RTVSPost2010PropOp40
 70
     1
102
RTVSPost2010Prop41ColorIndex
 90
       18
102
RTVSPost2010Prop41ColorRGB
 90
        0
102
RTVSPost2010PropOp41
 70
     1
102
RTVSPost2010Prop42
 90
       50
102
RTVSPost2010PropOp42
 70
     1
102
RTVSPost2010Prop43
 90
        3
102
RTVSPost2010PropOp43
 70
     1
102
RTVSPost2010Prop44ColorIndex
 90
        5
102
RTVSPost2010Prop44ColorRGB
 90
      255
102
RTVSPost2010PropOp44
 70
     1
102
RTVSPost2010Prop45
280
     0
102
RTVSPost2010PropOp45
 70
     1
102
RTVSPost2010Prop46
 90
       50
102
RTVSPost2010PropOp46
 70
     1
102
RTVSPost2010Prop47
 90
       50
102
RTVSPost2010PropOp47
 70
     1
102
RTVSPost2010Prop48
 90
       50
102
RTVSPost2010PropOp48
 70
     1
102
RTVSPost2010Prop49
280
     0
102
RTVSPost2010PropOp49
 70
     1
102
RTVSPost2010Prop50
 90
       50
102
RTVSPost2010PropOp50
 70
     1
102
RTVSPost2010Prop51ColorIndex
 90
      256
102
RTVSPost2010Prop51ColorRGB
 90
-16777216
102
RTVSPost2010PropOp51
 70
     0
102
RTVSPost2010Prop52
140
1.0
102
RTVSPost2010PropOp52
 70
     0
102
RTVSPost2010Prop53
 90
        2
102
RTVSPost2010PropOp53
 70
     1
102
RTVSPost2010Prop54
  1
strokes_ogs.tif
102
RTVSPost2010PropOp54
 70
     1
102
RTVSPost2010Prop55
280
     0
102
RTVSPost2010PropOp55
 70
     1
102
RTVSPost2010Prop56
140
1.0
102
RTVSPost2010PropOp56
 70
     1
102
RTVSPost2010Prop57
140
1.0
102
RTVSPost2010PropOp57
 70
     1
102
RTVSPropertyOp0
 70
     1
102
RTVSPropertyOp1
 70
     1
102
RTVSPropertyOp2
 70
     1
102
RTVSPropertyOp3
 70
     1
102
RTVSPropertyOp4
 70
     1
102
RTVSPropertyOp5
 70
     1
102
RTVSPropertyOp6
 70
     1
102
RTVSPropertyOp7
 70
     1
102
RTVSPropertyOp8
 70
     1
102
RTVSPropertyOp9
 70
     1
102
RTVSPropertyOp10
 70
     1
102
RTVSPropertyOp11
 70
     1
102
RTVSPropertyOp12
 70
     1
102
RTVSPropertyOp13
 70
     1
102
RTVSPropertyOp14
 70
     1
102
RTVSPropertyOp15
 70
     1
102
RTVSPropertyOp16
 70
     1
102
RTVSPropertyOp17
 70
     1
102
RTVSPropertyOp18
 70
     1
102
RTVSPropertyOp19
 70
     1
102
RTVSPropertyOp20
 70
     1
102
RTVSPropertyOp21
 70
     1
102
RTVSPropertyOp22
 70
     1
102
RTVSPropertyOp23
 70
     1
102
RTVSPropertyOp24
 70
     1
102
RTVSPropertyOp25
 70
     1
102
RTVSPropertyOp26
 70
     1
102
RTVSPropertyOp27
 70
     1
102
RTVSPropertyOp28
 70
     1
102
RTVSPropertyOp29
 70
     1
102
RTVSPropertyOp30
 70
     1
102
RTVSPropertyOp31
 70
     1
102
RTVSPropertyOp32
 70
     1
102
RTVSPropertyOp33
 70
     1
102
RTVSPropertyOp34
 70
     1
102
RTVSPropertyOp35
 70
     1
102
RTVSPropertyOp36
 70
     1
102
RTVSPropertyOp37
 70
     1
102
RTVSPropertyOp38
 70
     1
102
RTVSPropertyOp39
 70
     1
102
RTVSPropertyOp40
 70
     1
102
RTVSPropertyOp41
 70
     1
102
RTVSPropertyOp42
 70
     1
102
RTVSPropertyOp43
 70
     1
102
RTVSPropertyOp44
 70
     1
102
RTVSPropertyOp45
 70
     1
102
RTVSPropertyOp46
 70
     1
102
RTVSPropertyOp47
 70
     1
102
RTVSPropertyOp48
 70
     1
102
RTVSPropertyOp49
 70
     1
102
RTVSPropertyOp50
 70
     1
102
RTVSPropertyOp51
 70
     0
102
RTVSPropertyOp52
 70
     0
102
RTVSPropertyOp53
 70
     1
102
RTVSPropertyOp54
 70
     1
102
RTVSPropertyOp55
 70
     1
102
RTVSPropertyOp56
 70
     1
102
RTVSPropertyOp57
 70
     1
102
RTVSPropertyOp58
 70
     1
102
RTVSPropertyOp59
 70
     1
102
RTVSPropertyOp60
 70
     1
102
RTVSPropertyOp61
 70
     1
102
RTVSPropertyOp62
 70
     1
  0
XRECORD
  5
369
102
{ACAD_REACTORS
330
368
102
}
330
368
100
AcDbXrecord
280
     1
102
RTVSPost2010Prop28
280
     0
102
RTVSPost2010PropOp28
 70
     1
102
RTVSPost2010Prop29
280
     1
102
RTVSPost2010PropOp29
 70
     1
102
RTVSPost2010Prop30
280
     1
102
RTVSPost2010PropOp30
 70
     1
102
RTVSPost2010Prop31
280
     0
102
RTVSPost2010PropOp31
 70
     1
102
RTVSPost2010Prop32
280
     0
102
RTVSPost2010PropOp32
 70
     1
102
RTVSPost2010Prop33
280
     0
102
RTVSPost2010PropOp33
 70
     1
102
RTVSPost2010Prop34
280
     0
102
RTVSPost2010PropOp34
 70
     1
102
RTVSPost2010Prop35
280
     0
102
RTVSPost2010PropOp35
 70
     1
102
RTVSPost2010Prop36
280
     0
102
RTVSPost2010PropOp36
 70
     1
102
RTVSPost2010Prop37
 90
       50
102
RTVSPost2010PropOp37
 70
     1
102
RTVSPost2010Prop38
140
0.0
102
RTVSPost2010PropOp38
 70
     1
102
RTVSPost2010Prop39
140
1.0
102
RTVSPost2010PropOp39
 70
     1
102
RTVSPost2010Prop40
 90
        0
102
RTVSPost2010PropOp40
 70
     1
102
RTVSPost2010Prop41ColorIndex
 90
       18
102
RTVSPost2010Prop41ColorRGB
 90
        0
102
RTVSPost2010PropOp41
 70
     1
102
RTVSPost2010Prop42
 90
       50
102
RTVSPost2010PropOp42
 70
     1
102
RTVSPost2010Prop43
 90
        3
102
RTVSPost2010PropOp43
 70
     1
102
RTVSPost2010Prop44ColorIndex
 90
        5
102
RTVSPost2010Prop44ColorRGB
 90
      255
102
RTVSPost2010PropOp44
 70
     1
102
RTVSPost2010Prop45
280
     0
102
RTVSPost2010PropOp45
 70
     1
102
RTVSPost2010Prop46
 90
       50
102
RTVSPost2010PropOp46
 70
     1
102
RTVSPost2010Prop47
 90
       50
102
RTVSPost2010PropOp47
 70
     1
102
RTVSPost2010Prop48
 90
       50
102
RTVSPost2010PropOp48
 70
     1
102
RTVSPost2010Prop49
280
     0
102
RTVSPost2010PropOp49
 70
     1
102
RTVSPost2010Prop50
 90
       50
102
RTVSPost2010PropOp50
 70
     1
102
RTVSPost2010Prop51ColorIndex
 90
      256
102
RTVSPost2010Prop51ColorRGB
 90
-16777216
102
RTVSPost2010PropOp51
 70
     0
102
RTVSPost2010Prop52
140
1.0
102
RTVSPost2010PropOp52
 70
     0
102
RTVSPost2010Prop53
 90
        2
102
RTVSPost2010PropOp53
 70
     1
102
RTVSPost2010Prop54
  1
strokes_ogs.tif
102
RTVSPost2010PropOp54
 70
     1
102
RTVSPost2010Prop55
280
     0
102
RTVSPost2010PropOp55
 70
     1
102
RTVSPost2010Prop56
140
1.0
102
RTVSPost2010PropOp56
 70
     1
102
RTVSPost2010Prop57
140
1.0
102
RTVSPost2010PropOp57
 70
     1
102
RTVSPropertyOp0
 70
     1
102
RTVSPropertyOp1
 70
     1
102
RTVSPropertyOp2
 70
     1
102
RTVSPropertyOp3
 70
     1
102
RTVSPropertyOp4
 70
     1
102
RTVSPropertyOp5
 70
     1
102
RTVSPropertyOp6
 70
     1
102
RTVSPropertyOp7
 70
     1
102
RTVSPropertyOp8
 70
     1
102
RTVSPropertyOp9
 70
     1
102
RTVSPropertyOp10
 70
     1
102
RTVSPropertyOp11
 70
     1
102
RTVSPropertyOp12
 70
     1
102
RTVSPropertyOp13
 70
     1
102
RTVSPropertyOp14
 70
     1
102
RTVSPropertyOp15
 70
     1
102
RTVSPropertyOp16
 70
     1
102
RTVSPropertyOp17
 70
     1
102
RTVSPropertyOp18
 70
     1
102
RTVSPropertyOp19
 70
     1
102
RTVSPropertyOp20
 70
     1
102
RTVSPropertyOp21
 70
     1
102
RTVSPropertyOp22
 70
     1
102
RTVSPropertyOp23
 70
     1
102
RTVSPropertyOp24
 70
     1
102
RTVSPropertyOp25
 70
     1
102
RTVSPropertyOp26
 70
     1
102
RTVSPropertyOp27
 70
     1
102
RTVSPropertyOp28
 70
     1
102
RTVSPropertyOp29
 70
     1
102
RTVSPropertyOp30
 70
     1
102
RTVSPropertyOp31
 70
     1
102
RTVSPropertyOp32
 70
     1
102
RTVSPropertyOp33
 70
     1
102
RTVSPropertyOp34
 70
     1
102
RTVSPropertyOp35
 70
     1
102
RTVSPropertyOp36
 70
     1
102
RTVSPropertyOp37
 70
     1
102
RTVSPropertyOp38
 70
     1
102
RTVSPropertyOp39
 70
     1
102
RTVSPropertyOp40
 70
     1
102
RTVSPropertyOp41
 70
     1
102
RTVSPropertyOp42
 70
     1
102
RTVSPropertyOp43
 70
     1
102
RTVSPropertyOp44
 70
     1
102
RTVSPropertyOp45
 70
     1
102
RTVSPropertyOp46
 70
     1
102
RTVSPropertyOp47
 70
     1
102
RTVSPropertyOp48
 70
     1
102
RTVSPropertyOp49
 70
     1
102
RTVSPropertyOp50
 70
     1
102
RTVSPropertyOp51
 70
     0
102
RTVSPropertyOp52
 70
     0
102
RTVSPropertyOp53
 70
     1
102
RTVSPropertyOp54
 70
     1
102
RTVSPropertyOp55
 70
     1
102
RTVSPropertyOp56
 70
     1
102
RTVSPropertyOp57
 70
     1
102
RTVSPropertyOp58
 70
     1
102
RTVSPropertyOp59
 70
     1
102
RTVSPropertyOp60
 70
     1
102
RTVSPropertyOp61
 70
     1
102
RTVSPropertyOp62
 70
     1
  0
XRECORD
  5
389
102
{ACAD_REACTORS
330
388
102
}
330
388
100
AcDbXrecord
280
     1
102
RTVSPost2010Prop28
280
     0
102
RTVSPost2010PropOp28
 70
     1
102
RTVSPost2010Prop29
280
     1
102
RTVSPost2010PropOp29
 70
     1
102
RTVSPost2010Prop30
280
     1
102
RTVSPost2010PropOp30
 70
     1
102
RTVSPost2010Prop31
280
     0
102
RTVSPost2010PropOp31
 70
     1
102
RTVSPost2010Prop32
280
     0
102
RTVSPost2010PropOp32
 70
     1
102
RTVSPost2010Prop33
280
     0
102
RTVSPost2010PropOp33
 70
     1
102
RTVSPost2010Prop34
280
     0
102
RTVSPost2010PropOp34
 70
     1
102
RTVSPost2010Prop35
280
     0
102
RTVSPost2010PropOp35
 70
     1
102
RTVSPost2010Prop36
280
     0
102
RTVSPost2010PropOp36
 70
     1
102
RTVSPost2010Prop37
 90
       50
102
RTVSPost2010PropOp37
 70
     1
102
RTVSPost2010Prop38
140
0.0
102
RTVSPost2010PropOp38
 70
     1
102
RTVSPost2010Prop39
140
1.0
102
RTVSPost2010PropOp39
 70
     1
102
RTVSPost2010Prop40
 90
        0
102
RTVSPost2010PropOp40
 70
     1
102
RTVSPost2010Prop41ColorIndex
 90
       18
102
RTVSPost2010Prop41ColorRGB
 90
        0
102
RTVSPost2010PropOp41
 70
     1
102
RTVSPost2010Prop42
 90
       50
102
RTVSPost2010PropOp42
 70
     1
102
RTVSPost2010Prop43
 90
        3
102
RTVSPost2010PropOp43
 70
     1
102
RTVSPost2010Prop44ColorIndex
 90
        5
102
RTVSPost2010Prop44ColorRGB
 90
      255
102
RTVSPost2010PropOp44
 70
     1
102
RTVSPost2010Prop45
280
     0
102
RTVSPost2010PropOp45
 70
     1
102
RTVSPost2010Prop46
 90
       50
102
RTVSPost2010PropOp46
 70
     1
102
RTVSPost2010Prop47
 90
       50
102
RTVSPost2010PropOp47
 70
     1
102
RTVSPost2010Prop48
 90
       50
102
RTVSPost2010PropOp48
 70
     1
102
RTVSPost2010Prop49
280
     0
102
RTVSPost2010PropOp49
 70
     1
102
RTVSPost2010Prop50
 90
       50
102
RTVSPost2010PropOp50
 70
     1
102
RTVSPost2010Prop51ColorIndex
 90
      256
102
RTVSPost2010Prop51ColorRGB
 90
-16777216
102
RTVSPost2010PropOp51
 70
     0
102
RTVSPost2010Prop52
140
1.0
102
RTVSPost2010PropOp52
 70
     0
102
RTVSPost2010Prop53
 90
        2
102
RTVSPost2010PropOp53
 70
     1
102
RTVSPost2010Prop54
  1
strokes_ogs.tif
102
RTVSPost2010PropOp54
 70
     1
102
RTVSPost2010Prop55
280
     0
102
RTVSPost2010PropOp55
 70
     1
102
RTVSPost2010Prop56
140
1.0
102
RTVSPost2010PropOp56
 70
     1
102
RTVSPost2010Prop57
140
1.0
102
RTVSPost2010PropOp57
 70
     1
102
RTVSPropertyOp0
 70
     1
102
RTVSPropertyOp1
 70
     1
102
RTVSPropertyOp2
 70
     1
102
RTVSPropertyOp3
 70
     1
102
RTVSPropertyOp4
 70
     1
102
RTVSPropertyOp5
 70
     1
102
RTVSPropertyOp6
 70
     1
102
RTVSPropertyOp7
 70
     1
102
RTVSPropertyOp8
 70
     1
102
RTVSPropertyOp9
 70
     1
102
RTVSPropertyOp10
 70
     1
102
RTVSPropertyOp11
 70
     1
102
RTVSPropertyOp12
 70
     1
102
RTVSPropertyOp13
 70
     1
102
RTVSPropertyOp14
 70
     1
102
RTVSPropertyOp15
 70
     1
102
RTVSPropertyOp16
 70
     1
102
RTVSPropertyOp17
 70
     1
102
RTVSPropertyOp18
 70
     1
102
RTVSPropertyOp19
 70
     1
102
RTVSPropertyOp20
 70
     1
102
RTVSPropertyOp21
 70
     1
102
RTVSPropertyOp22
 70
     1
102
RTVSPropertyOp23
 70
     1
102
RTVSPropertyOp24
 70
     1
102
RTVSPropertyOp25
 70
     1
102
RTVSPropertyOp26
 70
     1
102
RTVSPropertyOp27
 70
     1
102
RTVSPropertyOp28
 70
     1
102
RTVSPropertyOp29
 70
     1
102
RTVSPropertyOp30
 70
     1
102
RTVSPropertyOp31
 70
     1
102
RTVSPropertyOp32
 70
     1
102
RTVSPropertyOp33
 70
     1
102
RTVSPropertyOp34
 70
     1
102
RTVSPropertyOp35
 70
     1
102
RTVSPropertyOp36
 70
     1
102
RTVSPropertyOp37
 70
     1
102
RTVSPropertyOp38
 70
     1
102
RTVSPropertyOp39
 70
     1
102
RTVSPropertyOp40
 70
     1
102
RTVSPropertyOp41
 70
     1
102
RTVSPropertyOp42
 70
     1
102
RTVSPropertyOp43
 70
     1
102
RTVSPropertyOp44
 70
     1
102
RTVSPropertyOp45
 70
     1
102
RTVSPropertyOp46
 70
     1
102
RTVSPropertyOp47
 70
     1
102
RTVSPropertyOp48
 70
     1
102
RTVSPropertyOp49
 70
     1
102
RTVSPropertyOp50
 70
     1
102
RTVSPropertyOp51
 70
     0
102
RTVSPropertyOp52
 70
     0
102
RTVSPropertyOp53
 70
     1
102
RTVSPropertyOp54
 70
     1
102
RTVSPropertyOp55
 70
     1
102
RTVSPropertyOp56
 70
     1
102
RTVSPropertyOp57
 70
     1
102
RTVSPropertyOp58
 70
     1
102
RTVSPropertyOp59
 70
     1
102
RTVSPropertyOp60
 70
     1
102
RTVSPropertyOp61
 70
     1
102
RTVSPropertyOp62
 70
     1
  0
ENDSEC
  0
EOF
