  0
SECTION
  2
HEADER
  9
$ACADVER
  1
AC1018
  9
$ACADMAINTVER
 70
   104
  9
$DWGCODEPAGE
  3
ANSI_1250
  9
$LASTSAVEDBY
  1
wq7085
  9
$INSBASE
 10
0.0
 20
0.0
 30
0.0
  9
$EXTMIN
 10
188.6658343333333
 20
122.034924
 30
0.0
  9
$EXTMAX
 10
372.403968
 20
345.2288016666667
 30
0.0
  9
$LIMMIN
 10
-0.5
 20
-0.5
  9
$LIMMAX
 10
5.0
 20
5.0
  9
$ORTHOMODE
 70
     0
  9
$REGENMODE
 70
     1
  9
$FILLMODE
 70
     1
  9
$QTEXTMODE
 70
     0
  9
$MIRRTEXT
 70
     1
  9
$LTSCALE
 40
1.0
  9
$ATTMODE
 70
     1
  9
$TEXTSIZE
 40
0.2
  9
$TRACEWID
 40
0.05
  9
$TEXTSTYLE
  7
Standard
  9
$CLAYER
  8
0
  9
$CELTYPE
  6
ByLayer
  9
$CECOLOR
 62
   256
  9
$CELTSCALE
 40
1.0
  9
$DISPSILH
 70
     0
  9
$DIMSCALE
 40
1.0
  9
$DIMASZ
 40
0.18
  9
$DIMEXO
 40
0.0625
  9
$DIMDLI
 40
0.38
  9
$DIMRND
 40
0.0
  9
$DIMDLE
 40
0.0
  9
$DIMEXE
 40
0.18
  9
$DIMTP
 40
0.0
  9
$DIMTM
 40
0.0
  9
$DIMTXT
 40
0.18
  9
$DIMCEN
 40
0.09
  9
$DIMTSZ
 40
0.0
  9
$DIMTOL
 70
     0
  9
$DIMLIM
 70
     0
  9
$DIMTIH
 70
     1
  9
$DIMTOH
 70
     1
  9
$DIMSE1
 70
     0
  9
$DIMSE2
 70
     0
  9
$DIMTAD
 70
     0
  9
$DIMZIN
 70
     0
  9
$DIMBLK
  1

  9
$DIMASO
 70
     1
  9
$DIMSHO
 70
     1
  9
$DIMPOST
  1

  9
$DIMAPOST
  1

  9
$DIMALT
 70
     0
  9
$DIMALTD
 70
     2
  9
$DIMALTF
 40
25.4
  9
$DIMLFAC
 40
1.0
  9
$DIMTOFL
 70
     0
  9
$DIMTVP
 40
0.0
  9
$DIMTIX
 70
     0
  9
$DIMSOXD
 70
     0
  9
$DIMSAH
 70
     0
  9
$DIMBLK1
  1

  9
$DIMBLK2
  1

  9
$DIMSTYLE
  2
Standard
  9
$DIMCLRD
 70
     0
  9
$DIMCLRE
 70
     0
  9
$DIMCLRT
 70
     0
  9
$DIMTFAC
 40
1.0
  9
$DIMGAP
 40
0.09
  9
$DIMJUST
 70
     0
  9
$DIMSD1
 70
     0
  9
$DIMSD2
 70
     0
  9
$DIMTOLJ
 70
     1
  9
$DIMTZIN
 70
     0
  9
$DIMALTZ
 70
     0
  9
$DIMALTTZ
 70
     0
  9
$DIMUPT
 70
     0
  9
$DIMDEC
 70
     4
  9
$DIMTDEC
 70
     4
  9
$DIMALTU
 70
     2
  9
$DIMALTTD
 70
     2
  9
$DIMTXSTY
  7
Standard
  9
$DIMAUNIT
 70
     0
  9
$DIMADEC
 70
     0
  9
$DIMALTRND
 40
0.0
  9
$DIMAZIN
 70
     0
  9
$DIMDSEP
 70
    46
  9
$DIMATFIT
 70
     3
  9
$DIMFRAC
 70
     0
  9
$DIMLDRBLK
  1

  9
$DIMLUNIT
 70
     2
  9
$DIMLWD
 70
    -2
  9
$DIMLWE
 70
    -2
  9
$DIMTMOVE
 70
     0
  9
$LUNITS
 70
     2
  9
$LUPREC
 70
     4
  9
$SKETCHINC
 40
0.1
  9
$FILLETRAD
 40
0.5
  9
$AUNITS
 70
     0
  9
$AUPREC
 70
     0
  9
$MENU
  1
.
  9
$ELEVATION
 40
0.0
  9
$PELEVATION
 40
0.0
  9
$THICKNESS
 40
0.0
  9
$LIMCHECK
 70
     0
  9
$CHAMFERA
 40
0.0
  9
$CHAMFERB
 40
0.0
  9
$CHAMFERC
 40
0.0
  9
$CHAMFERD
 40
0.0
  9
$SKPOLY
 70
     0
  9
$TDCREATE
 40
2459003.503784722
  9
$TDUCREATE
 40
2459003.420461308
  9
$TDUPDATE
 40
2459003.505104166
  9
$TDUUPDATE
 40
2459003.421770834
  9
$TDINDWG
 40
0.0004745486
  9
$TDUSRTIMER
 40
0.0004745486
  9
$USRTIMER
 70
     1
  9
$ANGBASE
 50
0.0
  9
$ANGDIR
 70
     0
  9
$PDMODE
 70
     0
  9
$PDSIZE
 40
0.0
  9
$PLINEWID
 40
0.0
  9
$SPLFRAME
 70
     0
  9
$SPLINETYPE
 70
     6
  9
$SPLINESEGS
 70
     8
  9
$HANDSEED
  5
3A5
  9
$SURFTAB1
 70
     6
  9
$SURFTAB2
 70
     6
  9
$SURFTYPE
 70
     6
  9
$SURFU
 70
     6
  9
$SURFV
 70
     6
  9
$UCSBASE
  2

  9
$UCSNAME
  2

  9
$UCSORG
 10
274.404842
 20
288.907994
 30
0.0
  9
$UCSXDIR
 10
1.0
 20
0.0
 30
0.0
  9
$UCSYDIR
 10
0.0
 20
1.0
 30
0.0
  9
$UCSORTHOREF
  2

  9
$UCSORTHOVIEW
 70
     0
  9
$UCSORGTOP
 10
0.0
 20
0.0
 30
0.0
  9
$UCSORGBOTTOM
 10
0.0
 20
0.0
 30
0.0
  9
$UCSORGLEFT
 10
0.0
 20
0.0
 30
0.0
  9
$UCSORGRIGHT
 10
0.0
 20
0.0
 30
0.0
  9
$UCSORGFRONT
 10
0.0
 20
0.0
 30
0.0
  9
$UCSORGBACK
 10
0.0
 20
0.0
 30
0.0
  9
$PUCSBASE
  2

  9
$PUCSNAME
  2

  9
$PUCSORG
 10
0.0
 20
0.0
 30
0.0
  9
$PUCSXDIR
 10
1.0
 20
0.0
 30
0.0
  9
$PUCSYDIR
 10
0.0
 20
1.0
 30
0.0
  9
$PUCSORTHOREF
  2

  9
$PUCSORTHOVIEW
 70
     0
  9
$PUCSORGTOP
 10
0.0
 20
0.0
 30
0.0
  9
$PUCSORGBOTTOM
 10
0.0
 20
0.0
 30
0.0
  9
$PUCSORGLEFT
 10
0.0
 20
0.0
 30
0.0
  9
$PUCSORGRIGHT
 10
0.0
 20
0.0
 30
0.0
  9
$PUCSORGFRONT
 10
0.0
 20
0.0
 30
0.0
  9
$PUCSORGBACK
 10
0.0
 20
0.0
 30
0.0
  9
$USERI1
 70
     0
  9
$USERI2
 70
     0
  9
$USERI3
 70
     0
  9
$USERI4
 70
     0
  9
$USERI5
 70
     0
  9
$USERR1
 40
0.0
  9
$USERR2
 40
0.0
  9
$USERR3
 40
0.0
  9
$USERR4
 40
0.0
  9
$USERR5
 40
0.0
  9
$WORLDVIEW
 70
     1
  9
$SHADEDGE
 70
     3
  9
$SHADEDIF
 70
    70
  9
$TILEMODE
 70
     1
  9
$MAXACTVP
 70
    64
  9
$PINSBASE
 10
0.0
 20
0.0
 30
0.0
  9
$PLIMCHECK
 70
     0
  9
$PEXTMIN
 10
-0.5
 20
-0.5
 30
-0.5
  9
$PEXTMAX
 10
5.0
 20
5.0
 30
5.0
  9
$PLIMMIN
 10
-0.5
 20
-0.5
  9
$PLIMMAX
 10
5.0
 20
5.0
  9
$UNITMODE
 70
     0
  9
$VISRETAIN
 70
     1
  9
$PLINEGEN
 70
     0
  9
$PSLTSCALE
 70
     1
  9
$TREEDEPTH
 70
  3020
  9
$CMLSTYLE
  2
Standard
  9
$CMLJUST
 70
     0
  9
$CMLSCALE
 40
1.0
  9
$PROXYGRAPHICS
 70
     1
  9
$MEASUREMENT
 70
     1
  9
$CELWEIGHT
370
    13
  9
$ENDCAPS
280
     0
  9
$JOINSTYLE
280
     0
  9
$LWDISPLAY
290
     0
  9
$INSUNITS
 70
     4
  9
$HYPERLINKBASE
  1

  9
$STYLESHEET
  1

  9
$XEDIT
290
     1
  9
$CEPSNTYPE
380
     0
  9
$PSTYLEMODE
290
     1
  9
$FINGERPRINTGUID
  2
{E0911B83-A1EB-43F8-A84D-6992D0921B55}
  9
$VERSIONGUID
  2
{C28C836A-DBE0-3149-9619-0766EDC6412A}
  9
$EXTNAMES
290
     1
  9
$PSVPSCALE
 40
0.0
  9
$OLESTARTUP
290
     0
  9
$SORTENTS
280
   127
  9
$INDEXCTL
280
     0
  9
$HIDETEXT
280
     1
  9
$XCLIPFRAME
290
     0
  9
$HALOGAP
280
     0
  9
$OBSCOLOR
 70
   257
  9
$OBSLTYPE
280
     0
  9
$INTERSECTIONDISPLAY
280
     0
  9
$INTERSECTIONCOLOR
 70
   257
  9
$DIMASSOC
280
     2
  9
$PROJECTNAME
  1

  0
ENDSEC
  0
SECTION
  2
CLASSES
  0
CLASS
  1
ACDBDICTIONARYWDFLT
  2
AcDbDictionaryWithDefault
  3
ObjectDBX Classes
 90
        0
 91
        1
280
     0
281
     0
  0
CLASS
  1
VISUALSTYLE
  2
AcDbVisualStyle
  3
ObjectDBX Classes
 90
     4095
 91
       24
280
     0
281
     0
  0
CLASS
  1
MATERIAL
  2
AcDbMaterial
  3
ObjectDBX Classes
 90
     1153
 91
        3
280
     0
281
     0
  0
CLASS
  1
SCALE
  2
AcDbScale
  3
ObjectDBX Classes
 90
     1153
 91
       33
280
     0
281
     0
  0
CLASS
  1
TABLESTYLE
  2
AcDbTableStyle
  3
ObjectDBX Classes
 90
     4095
 91
        1
280
     0
281
     0
  0
CLASS
  1
MLEADERSTYLE
  2
AcDbMLeaderStyle
  3
ACDB_MLEADERSTYLE_CLASS
 90
     4095
 91
        1
280
     0
281
     0
  0
CLASS
  1
SUN
  2
AcDbSun
  3
SCENEOE
 90
     1153
 91
        0
280
     0
281
     0
  0
CLASS
  1
DIMASSOC
  2
AcDbDimAssoc
  3
"AcDbDimAssoc|Product Desc:     AcDim ARX App For Dimension|Company:          Autodesk, Inc.|WEB Address:      www.autodesk.com"
 90
        0
 91
        7
280
     0
281
     0
  0
CLASS
  1
DICTIONARYVAR
  2
AcDbDictionaryVar
  3
ObjectDBX Classes
 90
        0
 91
        8
280
     0
281
     0
  0
CLASS
  1
CELLSTYLEMAP
  2
AcDbCellStyleMap
  3
ObjectDBX Classes
 90
     1152
 91
        2
280
     0
281
     0
  0
CLASS
  1
ACDBSECTIONVIEWSTYLE
  2
AcDbSectionViewStyle
  3
ObjectDBX Classes
 90
     1025
 91
        1
280
     0
281
     0
  0
CLASS
  1
ACDBDETAILVIEWSTYLE
  2
AcDbDetailViewStyle
  3
ObjectDBX Classes
 90
     1025
 91
        1
280
     0
281
     0
  0
CLASS
  1
SORTENTSTABLE
  2
AcDbSortentsTable
  3
ObjectDBX Classes
 90
        0
 91
        1
280
     0
281
     0
  0
ENDSEC
  0
SECTION
  2
TABLES
  0
TABLE
  2
VPORT
  5
8
330
0
100
AcDbSymbolTable
 70
    16
  0
VPORT
  5
29
330
8
100
AcDbSymbolTableRecord
100
AcDbViewportTableRecord
  2
*Active
 70
     0
 10
0.0
 20
0.0
 11
1.0
 21
1.0
 12
308.702078752738
 22
298.0183535156897
 13
0.0
 23
0.0
 14
0.5
 24
0.5
 15
0.5
 25
0.5
 16
0.0
 26
0.0
 36
1.0
 17
0.0
 27
0.0
 37
0.0
 40
203.9615407401451
 41
2.283154121863799
 42
50.0
 43
369.033542
 44
-369.033542
 50
0.0
 51
0.0
 71
     0
 72
   100
 73
     1
 74
     3
 75
     0
 76
     0
 77
     0
 78
     0
281
     0
 65
     1
110
274.404842
120
288.907994
130
0.0
111
1.0
121
0.0
131
0.0
112
0.0
122
1.0
132
0.0
 79
     0
146
0.0
1001
ACAD_NAV_VCDISPLAY
1070
     3
  0
VPORT
  5
2A7
330
8
100
AcDbSymbolTableRecord
100
AcDbViewportTableRecord
  2
L1
 70
     0
 10
0.0
 20
0.0
 11
1.0
 21
1.0
 12
280.0306930000001
 22
233.565612
 13
0.0
 23
0.0
 14
0.5
 24
0.5
 15
0.5
 25
0.5
 16
0.0
 26
0.0
 36
1.0
 17
0.0
 27
0.0
 37
0.0
 40
207.433333
 41
0.085602
 42
50.0
 43
369.033542
 44
-369.033542
 50
0.0
 51
0.0
 71
     0
 72
   100
 73
     1
 74
     3
 75
     0
 76
     0
 77
     0
 78
     0
281
     0
 65
     1
110
0.0
120
0.0
130
0.0
111
1.0
121
0.0
131
0.0
112
0.0
122
1.0
132
0.0
 79
     0
146
0.0
  0
VPORT
  5
2A8
330
8
100
AcDbSymbolTableRecord
100
AcDbViewportTableRecord
  2
L2
 70
     0
 10
0.0
 20
0.0
 11
0.5
 21
1.0
 12
0.0
 22
0.0
 13
0.0
 23
0.0
 14
0.5
 24
0.5
 15
0.5
 25
0.5
 16
0.0
 26
-1.0
 36
0.0
 17
0.0
 27
0.0
 37
0.0
 40
1319.735116
 41
0.013455
 42
50.0
 43
679.920199
 44
-679.920199
 50
0.0
 51
0.0
 71
     0
 72
   100
 73
     1
 74
     3
 75
     0
 76
     0
 77
     0
 78
     0
281
     0
 65
     1
110
0.0
120
0.0
130
0.0
111
1.0
121
0.0
131
0.0
112
0.0
122
1.0
132
0.0
 79
     0
146
0.0
  0
VPORT
  5
2A9
330
8
100
AcDbSymbolTableRecord
100
AcDbViewportTableRecord
  2
L2
 70
     0
 10
0.5
 20
0.0
 11
1.0
 21
1.0
 12
0.0
 22
0.0
 13
0.0
 23
0.0
 14
0.5
 24
0.5
 15
0.5
 25
0.5
 16
1.0
 26
0.0
 36
0.0
 17
0.0
 27
0.0
 37
0.0
 40
1319.735116
 41
0.013455
 42
50.0
 43
667.9688169999999
 44
-667.9688169999999
 50
0.0
 51
0.0
 71
     0
 72
   100
 73
     1
 74
     3
 75
     0
 76
     0
 77
     0
 78
     0
281
     0
 65
     1
110
0.0
120
0.0
130
0.0
111
1.0
121
0.0
131
0.0
112
0.0
122
1.0
132
0.0
 79
     0
146
0.0
  0
VPORT
  5
2AA
330
8
100
AcDbSymbolTableRecord
100
AcDbViewportTableRecord
  2
L3
 70
     0
 10
0.0
 20
0.5
 11
1.0
 21
1.0
 12
280.0306930000001
 22
233.565612
 13
0.0
 23
0.0
 14
0.5
 24
0.5
 15
0.5
 25
0.5
 16
0.0
 26
0.0
 36
1.0
 17
0.0
 27
0.0
 37
0.0
 40
207.433333
 41
0.085602
 42
50.0
 43
369.033542
 44
-369.033542
 50
0.0
 51
0.0
 71
     0
 72
   100
 73
     1
 74
     3
 75
     0
 76
     0
 77
     0
 78
     0
281
     0
 65
     1
110
0.0
120
0.0
130
0.0
111
1.0
121
0.0
131
0.0
112
0.0
122
1.0
132
0.0
 79
     0
146
0.0
  0
VPORT
  5
2AB
330
8
100
AcDbSymbolTableRecord
100
AcDbViewportTableRecord
  2
L3
 70
     0
 10
0.0
 20
0.0
 11
1.0
 21
0.5
 12
0.0
 22
0.0
 13
0.0
 23
0.0
 14
0.5
 24
0.5
 15
0.5
 25
0.5
 16
0.0
 26
-1.0
 36
0.0
 17
0.0
 27
0.0
 37
0.0
 40
1319.735116
 41
0.013455
 42
50.0
 43
679.920199
 44
-679.920199
 50
0.0
 51
0.0
 71
     0
 72
   100
 73
     1
 74
     3
 75
     0
 76
     0
 77
     0
 78
     0
281
     0
 65
     1
110
0.0
120
0.0
130
0.0
111
1.0
121
0.0
131
0.0
112
0.0
122
1.0
132
0.0
 79
     0
146
0.0
  0
VPORT
  5
2AC
330
8
100
AcDbSymbolTableRecord
100
AcDbViewportTableRecord
  2
L4
 70
     0
 10
0.0
 20
0.5
 11
0.5
 21
1.0
 12
280.0306930000001
 22
233.565612
 13
0.0
 23
0.0
 14
0.5
 24
0.5
 15
0.5
 25
0.5
 16
0.0
 26
0.0
 36
1.0
 17
0.0
 27
0.0
 37
0.0
 40
207.433333
 41
0.085602
 42
50.0
 43
369.033542
 44
-369.033542
 50
0.0
 51
0.0
 71
     0
 72
   100
 73
     1
 74
     3
 75
     0
 76
     0
 77
     0
 78
     0
281
     0
 65
     1
110
0.0
120
0.0
130
0.0
111
1.0
121
0.0
131
0.0
112
0.0
122
1.0
132
0.0
 79
     0
146
0.0
  0
VPORT
  5
2AD
330
8
100
AcDbSymbolTableRecord
100
AcDbViewportTableRecord
  2
L4
 70
     0
 10
0.0
 20
0.0
 11
0.5
 21
0.5
 12
0.0
 22
0.0
 13
0.0
 23
0.0
 14
0.5
 24
0.5
 15
0.5
 25
0.5
 16
0.0
 26
-1.0
 36
0.0
 17
0.0
 27
0.0
 37
0.0
 40
1319.735116
 41
0.013455
 42
50.0
 43
679.920199
 44
-679.920199
 50
0.0
 51
0.0
 71
     0
 72
   100
 73
     1
 74
     3
 75
     0
 76
     0
 77
     0
 78
     0
281
     0
 65
     1
110
0.0
120
0.0
130
0.0
111
1.0
121
0.0
131
0.0
112
0.0
122
1.0
132
0.0
 79
     0
146
0.0
  0
VPORT
  5
2AE
330
8
100
AcDbSymbolTableRecord
100
AcDbViewportTableRecord
  2
L4
 70
     0
 10
0.5
 20
0.0
 11
1.0
 21
0.5
 12
0.0
 22
0.0
 13
0.0
 23
0.0
 14
0.5
 24
0.5
 15
0.5
 25
0.5
 16
1.0
 26
0.0
 36
0.0
 17
0.0
 27
0.0
 37
0.0
 40
1319.735116
 41
0.013455
 42
50.0
 43
667.9688169999999
 44
-667.9688169999999
 50
0.0
 51
0.0
 71
     0
 72
   100
 73
     1
 74
     3
 75
     0
 76
     0
 77
     0
 78
     0
281
     0
 65
     1
110
0.0
120
0.0
130
0.0
111
1.0
121
0.0
131
0.0
112
0.0
122
1.0
132
0.0
 79
     0
146
0.0
  0
VPORT
  5
2AF
330
8
100
AcDbSymbolTableRecord
100
AcDbViewportTableRecord
  2
L4
 70
     0
 10
0.5
 20
0.5
 11
1.0
 21
1.0
 12
0.0
 22
0.0
 13
0.0
 23
0.0
 14
0.5
 24
0.5
 15
0.5
 25
0.5
 16
0.5773502691896259
 26
-0.5773502691896259
 36
0.5773502691896259
 17
0.0
 27
0.0
 37
0.0
 40
1296.074958
 41
0.0137
 42
50.0
 43
675.1032679999999
 44
-675.1032679999999
 50
0.0
 51
0.0
 71
     0
 72
   100
 73
     1
 74
     3
 75
     0
 76
     0
 77
     0
 78
     0
281
     0
 65
     1
110
0.0
120
0.0
130
0.0
111
1.0
121
0.0
131
0.0
112
0.0
122
1.0
132
0.0
 79
     0
146
0.0
  0
VPORT
  5
2B0
330
8
100
AcDbSymbolTableRecord
100
AcDbViewportTableRecord
  2
L6
 70
     0
 10
0.0
 20
0.5
 11
0.333333
 21
1.0
 12
0.0
 22
0.0
 13
0.0
 23
0.0
 14
0.5
 24
0.5
 15
0.5
 25
0.5
 16
0.7188730927569434
 26
-0.5850486126764433
 36
0.3754192287502549
 17
0.0
 27
0.0
 37
0.0
 40
1367.812327
 41
0.012982
 42
50.0
 43
708.2012429999999
 44
-708.2012429999999
 50
0.0
 51
0.0
 71
     0
 72
   100
 73
     1
 74
     3
 75
     0
 76
     0
 77
     0
 78
     0
281
     0
 65
     1
110
0.0
120
0.0
130
0.0
111
1.0
121
0.0
131
0.0
112
0.0
122
1.0
132
0.0
 79
     0
146
0.0
  0
VPORT
  5
2B1
330
8
100
AcDbSymbolTableRecord
100
AcDbViewportTableRecord
  2
L6
 70
     0
 10
0.0
 20
0.0
 11
0.333333
 21
0.5
 12
0.0
 22
0.0
 13
0.0
 23
0.0
 14
0.5
 24
0.5
 15
0.5
 25
0.5
 16
-1.0
 26
0.0
 36
0.0
 17
0.0
 27
0.0
 37
0.0
 40
1319.735116
 41
0.013455
 42
50.0
 43
667.9688169999999
 44
-667.9688169999999
 50
0.0
 51
0.0
 71
     0
 72
   100
 73
     1
 74
     3
 75
     0
 76
     0
 77
     0
 78
     0
281
     0
 65
     1
110
0.0
120
0.0
130
0.0
111
1.0
121
0.0
131
0.0
112
0.0
122
1.0
132
0.0
 79
     0
146
0.0
  0
VPORT
  5
2B2
330
8
100
AcDbSymbolTableRecord
100
AcDbViewportTableRecord
  2
L6
 70
     0
 10
0.333333
 20
0.5
 11
0.666667
 21
1.0
 12
280.0306930000001
 22
233.565612
 13
0.0
 23
0.0
 14
0.5
 24
0.5
 15
0.5
 25
0.5
 16
0.0
 26
0.0
 36
1.0
 17
0.0
 27
0.0
 37
0.0
 40
207.433333
 41
0.085602
 42
50.0
 43
369.033542
 44
-369.033542
 50
0.0
 51
0.0
 71
     0
 72
   100
 73
     1
 74
     3
 75
     0
 76
     0
 77
     0
 78
     0
281
     0
 65
     1
110
0.0
120
0.0
130
0.0
111
1.0
121
0.0
131
0.0
112
0.0
122
1.0
132
0.0
 79
     0
146
0.0
  0
VPORT
  5
2B3
330
8
100
AcDbSymbolTableRecord
100
AcDbViewportTableRecord
  2
L6
 70
     0
 10
0.333333
 20
0.0
 11
0.666667
 21
0.5
 12
0.0
 22
0.0
 13
0.0
 23
0.0
 14
0.5
 24
0.5
 15
0.5
 25
0.5
 16
0.0
 26
-1.0
 36
0.0
 17
0.0
 27
0.0
 37
0.0
 40
1319.735116
 41
0.013455
 42
50.0
 43
679.920199
 44
-679.920199
 50
0.0
 51
0.0
 71
     0
 72
   100
 73
     1
 74
     3
 75
     0
 76
     0
 77
     0
 78
     0
281
     0
 65
     1
110
0.0
120
0.0
130
0.0
111
1.0
121
0.0
131
0.0
112
0.0
122
1.0
132
0.0
 79
     0
146
0.0
  0
VPORT
  5
2B4
330
8
100
AcDbSymbolTableRecord
100
AcDbViewportTableRecord
  2
L6
 70
     0
 10
0.666667
 20
0.5
 11
1.0
 21
1.0
 12
0.0
 22
0.0
 13
0.0
 23
0.0
 14
0.5
 24
0.5
 15
0.5
 25
0.5
 16
0.5773502691896259
 26
-0.5773502691896259
 36
0.5773502691896259
 17
0.0
 27
0.0
 37
0.0
 40
1296.074958
 41
0.0137
 42
50.0
 43
675.1032679999999
 44
-675.1032679999999
 50
0.0
 51
0.0
 71
     0
 72
   100
 73
     1
 74
     3
 75
     0
 76
     0
 77
     0
 78
     0
281
     0
 65
     1
110
0.0
120
0.0
130
0.0
111
1.0
121
0.0
131
0.0
112
0.0
122
1.0
132
0.0
 79
     0
146
0.0
  0
VPORT
  5
2B5
330
8
100
AcDbSymbolTableRecord
100
AcDbViewportTableRecord
  2
L6
 70
     0
 10
0.666667
 20
0.0
 11
1.0
 21
0.5
 12
0.0
 22
0.0
 13
0.0
 23
0.0
 14
0.5
 24
0.5
 15
0.5
 25
0.5
 16
1.0
 26
0.0
 36
0.0
 17
0.0
 27
0.0
 37
0.0
 40
1319.735116
 41
0.013455
 42
50.0
 43
667.9688169999999
 44
-667.9688169999999
 50
0.0
 51
0.0
 71
     0
 72
   100
 73
     1
 74
     3
 75
     0
 76
     0
 77
     0
 78
     0
281
     0
 65
     1
110
0.0
120
0.0
130
0.0
111
1.0
121
0.0
131
0.0
112
0.0
122
1.0
132
0.0
 79
     0
146
0.0
  0
ENDTAB
  0
TABLE
  2
LTYPE
  5
5
330
0
100
AcDbSymbolTable
 70
     7
  0
LTYPE
  5
14
330
5
100
AcDbSymbolTableRecord
100
AcDbLinetypeTableRecord
  2
ByBlock
 70
     0
  3

 72
    65
 73
     0
 40
0.0
  0
LTYPE
  5
15
330
5
100
AcDbSymbolTableRecord
100
AcDbLinetypeTableRecord
  2
ByLayer
 70
     0
  3

 72
    65
 73
     0
 40
0.0
  0
LTYPE
  5
16
330
5
100
AcDbSymbolTableRecord
100
AcDbLinetypeTableRecord
  2
Continuous
 70
     0
  3
Solid line
 72
    65
 73
     0
 40
0.0
  0
LTYPE
  5
6E
330
5
100
AcDbSymbolTableRecord
100
AcDbLinetypeTableRecord
  2
CENTER
 70
     0
  3
____ _ ____ _ ____ _ ____
 72
    65
 73
     4
 40
47.4
 49
22.0
 74
     4
 75
     0
340
0
 46
0.0
 50
0.0
 44
0.0
 45
0.0
 49
-8.5
 74
     4
 75
     0
340
0
 46
0.0
 50
0.0
 44
0.0
 45
0.0
 49
8.5
 74
     4
 75
     0
340
0
 46
0.0
 50
0.0
 44
0.0
 45
0.0
 49
-8.5
 74
     4
 75
     0
340
0
 46
0.0
 50
0.0
 44
0.0
 45
0.0
  0
LTYPE
  5
6F
330
5
100
AcDbSymbolTableRecord
100
AcDbLinetypeTableRecord
  2
DASHDOT
 70
     0
  3
_._._._._._._._._._._._._._._._.
 72
    65
 73
     4
 40
70.0
 49
31.0
 74
     4
 75
     0
340
0
 46
0.0
 50
0.0
 44
0.0
 45
0.0
 49
-13.0
 74
     4
 75
     0
340
0
 46
0.0
 50
0.0
 44
0.0
 45
0.0
 49
13.0
 74
     4
 75
     0
340
0
 46
0.0
 50
0.0
 44
0.0
 45
0.0
 49
-13.0
 74
     4
 75
     0
340
0
 46
0.0
 50
0.0
 44
0.0
 45
0.0
  0
LTYPE
  5
70
330
5
100
AcDbSymbolTableRecord
100
AcDbLinetypeTableRecord
  2
DASHED
 70
     0
  3
__ __ __ __ __ __ __ __ __
 72
    65
 73
     2
 40
25.72
 49
12.86
 74
     4
 75
     0
340
0
 46
0.0
 50
0.0
 44
0.0
 45
0.0
 49
-12.86
 74
     4
 75
     0
340
0
 46
0.0
 50
0.0
 44
0.0
 45
0.0
  0
LTYPE
  5
71
330
5
100
AcDbSymbolTableRecord
100
AcDbLinetypeTableRecord
  2
DOT
 70
     0
  3
.........................
 72
    65
 73
     2
 40
10.0
 49
0.0
 74
     4
 75
     0
340
0
 46
0.0
 50
0.0
 44
0.0
 45
0.0
 49
-10.0
 74
     4
 75
     0
340
0
 46
0.0
 50
0.0
 44
0.0
 45
0.0
  0
LTYPE
  5
72
330
5
100
AcDbSymbolTableRecord
100
AcDbLinetypeTableRecord
  2
PHANTOM
 70
     0
  3
____ _ _ ____ _ _ _____ _ _ ____
 72
    65
 73
     6
 40
50.5
 49
18.0
 74
     4
 75
     0
340
0
 46
0.0
 50
0.0
 44
0.0
 45
0.0
 49
-6.5
 74
     4
 75
     0
340
0
 46
0.0
 50
0.0
 44
0.0
 45
0.0
 49
6.5
 74
     4
 75
     0
340
0
 46
0.0
 50
0.0
 44
0.0
 45
0.0
 49
-6.5
 74
     4
 75
     0
340
0
 46
0.0
 50
0.0
 44
0.0
 45
0.0
 49
6.5
 74
     4
 75
     0
340
0
 46
0.0
 50
0.0
 44
0.0
 45
0.0
 49
-6.5
 74
     4
 75
     0
340
0
 46
0.0
 50
0.0
 44
0.0
 45
0.0
  0
LTYPE
  5
347
330
5
100
AcDbSymbolTableRecord
100
AcDbLinetypeTableRecord
  2
CENTER2
 70
     0
  3
Center (.5x) ___ _ ___ _ ___ _ ___ _ ___ _ ___
 72
    65
 73
     4
 40
1.125
 49
0.75
 74
     0
 49
-0.125
 74
     0
 49
0.125
 74
     0
 49
-0.125
 74
     0
  0
ENDTAB
  0
TABLE
  2
LAYER
  5
2
330
0
100
AcDbSymbolTable
 70
    22
  0
LAYER
  5
10
102
{ACAD_XDICTIONARY
360
352
102
}
330
2
100
AcDbSymbolTableRecord
100
AcDbLayerTableRecord
  2
0
 70
     0
 62
     7
  6
Continuous
370
    -3
390
F
  0
LAYER
  5
201
330
2
100
AcDbSymbolTableRecord
100
AcDbLayerTableRecord
  2
Defpoints
 70
     0
 62
     7
  6
Continuous
290
     0
370
    -3
390
F
  0
LAYER
  5
344
102
{ACAD_XDICTIONARY
360
354
102
}
330
2
100
AcDbSymbolTableRecord
100
AcDbLayerTableRecord
  2
1
 70
     0
 62
     4
  6
Continuous
370
    -3
390
F
  0
LAYER
  5
345
102
{ACAD_XDICTIONARY
360
356
102
}
330
2
100
AcDbSymbolTableRecord
100
AcDbLayerTableRecord
  2
2
 70
     0
 62
     7
  6
Continuous
370
    -3
390
F
  0
LAYER
  5
346
102
{ACAD_XDICTIONARY
360
358
102
}
330
2
100
AcDbSymbolTableRecord
100
AcDbLayerTableRecord
  2
4
 70
     0
 62
     2
  6
CENTER2
370
    -3
390
F
  0
LAYER
  5
348
102
{ACAD_XDICTIONARY
360
35A
102
}
330
2
100
AcDbSymbolTableRecord
100
AcDbLayerTableRecord
  2
SK1
 70
     0
 62
     4
  6
Continuous
370
    -3
390
F
  0
LAYER
  5
349
102
{ACAD_XDICTIONARY
360
35C
102
}
330
2
100
AcDbSymbolTableRecord
100
AcDbLayerTableRecord
  2
SK2
 70
     0
 62
     7
  6
Continuous
370
    -3
390
F
  0
LAYER
  5
34B
102
{ACAD_XDICTIONARY
360
35E
102
}
330
2
100
AcDbSymbolTableRecord
100
AcDbLayerTableRecord
  2
SK4
 70
     0
 62
     2
  6
CENTER2
370
    -3
390
F
  0
LAYER
  5
34C
102
{ACAD_XDICTIONARY
360
360
102
}
330
2
100
AcDbSymbolTableRecord
100
AcDbLayerTableRecord
  2
SK6
 70
     0
 62
     5
  6
Continuous
370
    -3
390
F
  0
LAYER
  5
34D
102
{ACAD_XDICTIONARY
360
362
102
}
330
2
100
AcDbSymbolTableRecord
100
AcDbLayerTableRecord
  2
CUT
 70
     0
 62
     1
  6
Continuous
370
    -3
390
F
  0
LAYER
  5
34E
102
{ACAD_XDICTIONARY
360
364
102
}
330
2
100
AcDbSymbolTableRecord
100
AcDbLayerTableRecord
  2
NOCUT
 70
     0
 62
     7
  6
Continuous
370
    -3
390
F
  0
LAYER
  5
34F
102
{ACAD_XDICTIONARY
360
366
102
}
330
2
100
AcDbSymbolTableRecord
100
AcDbLayerTableRecord
  2
80
 70
     0
 62
     6
  6
Continuous
370
    -3
390
F
  0
LAYER
  5
350
102
{ACAD_XDICTIONARY
360
368
102
}
330
2
100
AcDbSymbolTableRecord
100
AcDbLayerTableRecord
  2
81
 70
     0
 62
     3
  6
Continuous
370
    -3
390
F
  0
ENDTAB
  0
TABLE
  2
STYLE
  5
3
330
0
100
AcDbSymbolTable
 70
     3
  0
STYLE
  5
11
330
3
100
AcDbSymbolTableRecord
100
AcDbTextStyleTableRecord
  2
Standard
 70
     0
 40
0.0
 41
1.0
 50
0.0
 71
     0
 42
0.2
  3
txt
  4

  0
STYLE
  5
1FA
330
3
100
AcDbSymbolTableRecord
100
AcDbTextStyleTableRecord
  2
cesky
 70
     0
 40
0.0
 41
1.0
 50
0.0
 71
     0
 42
0.2
  3
simplex.shx
  4

  0
STYLE
  5
1FB
330
3
100
AcDbSymbolTableRecord
100
AcDbTextStyleTableRecord
  2
DWGDirectTextStyle
 70
     0
 40
0.0
 41
1.0
 50
0.0
 71
     0
 42
0.2
  3
simplex
  4

  0
ENDTAB
  0
TABLE
  2
VIEW
  5
6
330
0
100
AcDbSymbolTable
 70
     0
  0
ENDTAB
  0
TABLE
  2
UCS
  5
7
330
0
100
AcDbSymbolTable
 70
     0
  0
ENDTAB
  0
TABLE
  2
APPID
  5
9
330
0
100
AcDbSymbolTable
 70
     7
  0
APPID
  5
12
330
9
100
AcDbSymbolTableRecord
100
AcDbRegAppTableRecord
  2
ACAD
 70
     0
  0
APPID
  5
1FD
330
9
100
AcDbSymbolTableRecord
100
AcDbRegAppTableRecord
  2
ACAD_DSTYLE_DIMBREAK
 70
     0
  0
APPID
  5
2B6
330
9
100
AcDbSymbolTableRecord
100
AcDbRegAppTableRecord
  2
ACAD_DSTYLE_DIM_LINETYPE
 70
     0
  0
APPID
  5
2B7
330
9
100
AcDbSymbolTableRecord
100
AcDbRegAppTableRecord
  2
ACAD_DSTYLE_DIM_EXT1_LINETYPE
 70
     0
  0
APPID
  5
2B8
330
9
100
AcDbSymbolTableRecord
100
AcDbRegAppTableRecord
  2
ACAD_DSTYLE_DIM_EXT2_LINETYPE
 70
     0
  0
APPID
  5
2F8
330
9
100
AcDbSymbolTableRecord
100
AcDbRegAppTableRecord
  2
ACAD_MLEADERVER
 70
     0
  0
APPID
  5
36D
330
9
100
AcDbSymbolTableRecord
100
AcDbRegAppTableRecord
  2
ACAD_NAV_VCDISPLAY
 70
     0
  0
ENDTAB
  0
TABLE
  2
DIMSTYLE
  5
A
330
0
100
AcDbSymbolTable
 70
     1
100
AcDbDimStyleTable
 71
     0
  0
DIMSTYLE
105
27
330
A
100
AcDbSymbolTableRecord
100
AcDbDimStyleTableRecord
  2
Standard
 70
     0
340
11
1001
ACAD_DSTYLE_DIMBREAK
1070
   391
1040
6.349999999999999
  0
ENDTAB
  0
TABLE
  2
BLOCK_RECORD
  5
1
330
0
100
AcDbSymbolTable
 70
    16
  0
BLOCK_RECORD
  5
1F
102
{ACAD_XDICTIONARY
360
308
102
}
330
1
100
AcDbSymbolTableRecord
100
AcDbBlockTableRecord
  2
*Model_Space
340
22
  0
BLOCK_RECORD
  5
1B
330
1
100
AcDbSymbolTableRecord
100
AcDbBlockTableRecord
  2
*Paper_Space
340
1E
  0
BLOCK_RECORD
  5
23
330
1
100
AcDbSymbolTableRecord
100
AcDbBlockTableRecord
  2
*Paper_Space0
340
26
  0
BLOCK_RECORD
  5
1F4
330
1
100
AcDbSymbolTableRecord
100
AcDbBlockTableRecord
  2
ASSORTED_DRAFT1
340
0
  0
BLOCK_RECORD
  5
202
330
1
100
AcDbSymbolTableRecord
100
AcDbBlockTableRecord
  2
*D2
340
0
  0
BLOCK_RECORD
  5
20E
330
1
100
AcDbSymbolTableRecord
100
AcDbBlockTableRecord
  2
_U0
340
0
  0
BLOCK_RECORD
  5
21A
330
1
100
AcDbSymbolTableRecord
100
AcDbBlockTableRecord
  2
*D4
340
0
  0
BLOCK_RECORD
  5
226
330
1
100
AcDbSymbolTableRecord
100
AcDbBlockTableRecord
  2
_U1
340
0
  0
BLOCK_RECORD
  5
232
330
1
100
AcDbSymbolTableRecord
100
AcDbBlockTableRecord
  2
*D6
340
0
  0
BLOCK_RECORD
  5
23E
330
1
100
AcDbSymbolTableRecord
100
AcDbBlockTableRecord
  2
_U2
340
0
  0
BLOCK_RECORD
  5
24A
330
1
100
AcDbSymbolTableRecord
100
AcDbBlockTableRecord
  2
*D8
340
0
  0
BLOCK_RECORD
  5
256
330
1
100
AcDbSymbolTableRecord
100
AcDbBlockTableRecord
  2
_U3
340
0
  0
BLOCK_RECORD
  5
262
330
1
100
AcDbSymbolTableRecord
100
AcDbBlockTableRecord
  2
*D10
340
0
  0
BLOCK_RECORD
  5
26D
330
1
100
AcDbSymbolTableRecord
100
AcDbBlockTableRecord
  2
_U4
340
0
  0
BLOCK_RECORD
  5
278
330
1
100
AcDbSymbolTableRecord
100
AcDbBlockTableRecord
  2
*D12
340
0
  0
BLOCK_RECORD
  5
284
330
1
100
AcDbSymbolTableRecord
100
AcDbBlockTableRecord
  2
_U5
340
0
  0
BLOCK_RECORD
  5
291
330
1
100
AcDbSymbolTableRecord
100
AcDbBlockTableRecord
  2
*D14
340
0
  0
BLOCK_RECORD
  5
29D
330
1
100
AcDbSymbolTableRecord
100
AcDbBlockTableRecord
  2
_U6
340
0
  0
ENDTAB
  0
ENDSEC
  0
SECTION
  2
BLOCKS
  0
BLOCK
  5
20
330
1F
100
AcDbEntity
  8
0
100
AcDbBlockBegin
  2
*Model_Space
 70
     0
 10
0.0
 20
0.0
 30
0.0
  3
*Model_Space
  1

  0
ENDBLK
  5
21
330
1F
100
AcDbEntity
  8
0
100
AcDbBlockEnd
  0
BLOCK
  5
1C
330
1B
100
AcDbEntity
 67
     1
  8
0
100
AcDbBlockBegin
  2
*Paper_Space
 70
     0
 10
0.0
 20
0.0
 30
0.0
  3
*Paper_Space
  1

  0
ENDBLK
  5
1D
330
1B
100
AcDbEntity
 67
     1
  8
0
100
AcDbBlockEnd
  0
BLOCK
  5
24
330
23
100
AcDbEntity
 67
     1
  8
0
100
AcDbBlockBegin
  2
*Paper_Space0
 70
     0
 10
0.0
 20
0.0
 30
0.0
  3
*Paper_Space0
  1

  0
ENDBLK
  5
25
330
23
100
AcDbEntity
 67
     1
  8
0
100
AcDbBlockEnd
  0
BLOCK
  5
1F7
330
1F4
100
AcDbEntity
  8
0
100
AcDbBlockBegin
  2
ASSORTED_DRAFT1
 70
     0
 10
0.0
 20
0.0
 30
0.0
  3
ASSORTED_DRAFT1
  1

  0
SOLID
  5
1F5
330
1F4
100
AcDbEntity
  8
0
 62
   254
370
    13
100
AcDbTrace
 10
270.185042
 20
161.034924
 30
0.0
 11
265.185046
 21
159.92645
 31
0.0
 12
265.1850379999999
 22
162.143397
 32
0.0
 13
270.185042
 23
161.034924
 33
0.0
  0
ENDBLK
  5
1F8
330
1F4
100
AcDbEntity
  8
0
100
AcDbBlockEnd
  0
BLOCK
  5
203
330
202
100
AcDbEntity
  8
0
100
AcDbBlockBegin
  2
*D2
 70
     1
 10
0.0
 20
0.0
 30
0.0
  3
*D2
  1

  0
LINE
  5
205
330
202
100
AcDbEntity
  8
0
 62
   254
370
    -2
100
AcDbLine
 10
354.904842
 20
298.1579939999999
 30
0.0
 11
354.904842
 21
328.5109970000001
 31
0.0
  0
LINE
  5
206
330
202
100
AcDbEntity
  8
0
 62
   254
370
    -2
100
AcDbLine
 10
274.404842
 20
288.907994
 30
0.0
 11
274.404842
 21
328.5109970000001
 31
0.0
  0
LINE
  5
207
330
202
100
AcDbEntity
  8
0
 62
   254
370
    -2
100
AcDbLine
 10
351.404842
 20
327.510997
 30
0.0
 11
277.904842
 21
327.510997
 31
0.0
  0
SOLID
  5
208
330
202
100
AcDbEntity
  8
0
 62
   254
100
AcDbTrace
 10
351.404842
 20
326.927663
 30
0.0
 11
351.404842
 21
328.09433
 31
0.0
 12
354.904842
 22
327.510997
 32
0.0
 13
354.904842
 23
327.510997
 33
0.0
  0
SOLID
  5
209
330
202
100
AcDbEntity
  8
0
 62
   254
100
AcDbTrace
 10
277.904842
 20
328.09433
 30
0.0
 11
277.904842
 21
326.927663
 31
0.0
 12
274.404842
 22
327.510997
 32
0.0
 13
274.404842
 23
327.510997
 33
0.0
  0
MTEXT
  5
20A
330
202
100
AcDbEntity
  8
0
 62
   254
370
    13
100
AcDbMText
 10
314.654842
 20
332.7609970000001
 30
0.0
 40
3.5
 41
0.0
 71
     5
 72
     1
  1
\A1;80.5
  7
cesky
 73
     1
 44
1.0
  0
POINT
  5
20B
330
202
100
AcDbEntity
  8
Defpoints
 62
     0
100
AcDbPoint
 10
354.904842
 20
298.1579939999999
 30
0.0
  0
POINT
  5
20C
330
202
100
AcDbEntity
  8
Defpoints
 62
     0
100
AcDbPoint
 10
274.404842
 20
288.907994
 30
0.0
  0
POINT
  5
20D
330
202
100
AcDbEntity
  8
Defpoints
 62
     0
100
AcDbPoint
 10
274.404842
 20
327.510997
 30
0.0
  0
ENDBLK
  5
204
330
202
100
AcDbEntity
  8
0
100
AcDbBlockEnd
  0
BLOCK
  5
215
330
20E
100
AcDbEntity
  8
0
100
AcDbBlockBegin
  2
_U0
 70
     0
 10
0.0
 20
0.0
 30
0.0
  3
_U0
  1

  0
ENDBLK
  5
216
330
20E
100
AcDbEntity
  8
0
100
AcDbBlockEnd
  0
BLOCK
  5
21B
330
21A
100
AcDbEntity
  8
0
100
AcDbBlockBegin
  2
*D4
 70
     1
 10
0.0
 20
0.0
 30
0.0
  3
*D4
  1

  0
LINE
  5
21D
330
21A
100
AcDbEntity
  8
0
 62
   254
370
    -2
100
AcDbLine
 10
354.904842
 20
300.157994
 30
0.0
 11
354.904842
 21
341.687968
 31
0.0
  0
LINE
  5
21E
330
21A
100
AcDbEntity
  8
0
 62
   254
370
    -2
100
AcDbLine
 10
218.404842
 20
299.407994
 30
0.0
 11
218.404842
 21
341.687968
 31
0.0
  0
LINE
  5
21F
330
21A
100
AcDbEntity
  8
0
 62
   254
370
    -2
100
AcDbLine
 10
351.404842
 20
340.687968
 30
0.0
 11
221.904842
 21
340.687968
 31
0.0
  0
SOLID
  5
220
330
21A
100
AcDbEntity
  8
0
 62
   254
100
AcDbTrace
 10
351.404842
 20
340.104634
 30
0.0
 11
351.404842
 21
341.271301
 31
0.0
 12
354.904842
 22
340.687968
 32
0.0
 13
354.904842
 23
340.687968
 33
0.0
  0
SOLID
  5
221
330
21A
100
AcDbEntity
  8
0
 62
   254
100
AcDbTrace
 10
221.904842
 20
341.271301
 30
0.0
 11
221.904842
 21
340.104634
 31
0.0
 12
218.404842
 22
340.687968
 32
0.0
 13
218.404842
 23
340.687968
 33
0.0
  0
MTEXT
  5
222
330
21A
100
AcDbEntity
  8
0
 62
   254
370
    13
100
AcDbMText
 10
286.654842
 20
345.937968
 30
0.0
 40
3.5
 41
0.0
 71
     5
 72
     1
  1
\A1;136.5
  7
cesky
 73
     1
 44
1.0
  0
POINT
  5
223
330
21A
100
AcDbEntity
  8
Defpoints
 62
     0
100
AcDbPoint
 10
354.904842
 20
300.157994
 30
0.0
  0
POINT
  5
224
330
21A
100
AcDbEntity
  8
Defpoints
 62
     0
100
AcDbPoint
 10
218.404842
 20
299.407994
 30
0.0
  0
POINT
  5
225
330
21A
100
AcDbEntity
  8
Defpoints
 62
     0
100
AcDbPoint
 10
218.404842
 20
340.687968
 30
0.0
  0
ENDBLK
  5
21C
330
21A
100
AcDbEntity
  8
0
100
AcDbBlockEnd
  0
BLOCK
  5
22D
330
226
100
AcDbEntity
  8
0
100
AcDbBlockBegin
  2
_U1
 70
     0
 10
0.0
 20
0.0
 30
0.0
  3
_U1
  1

  0
ENDBLK
  5
22E
330
226
100
AcDbEntity
  8
0
100
AcDbBlockEnd
  0
BLOCK
  5
233
330
232
100
AcDbEntity
  8
0
100
AcDbBlockBegin
  2
*D6
 70
     1
 10
0.0
 20
0.0
 30
0.0
  3
*D6
  1

  0
LINE
  5
235
330
232
100
AcDbEntity
  8
0
 62
   254
370
    -2
100
AcDbLine
 10
274.404842
 20
288.907994
 30
0.0
 11
274.404842
 21
328.5109970000001
 31
0.0
  0
LINE
  5
236
330
232
100
AcDbEntity
  8
0
 62
   254
370
    -2
100
AcDbLine
 10
218.404842
 20
294.157994
 30
0.0
 11
218.404842
 21
328.5109970000001
 31
0.0
  0
LINE
  5
237
330
232
100
AcDbEntity
  8
0
 62
   254
370
    -2
100
AcDbLine
 10
270.904842
 20
327.510997
 30
0.0
 11
221.904842
 21
327.510997
 31
0.0
  0
SOLID
  5
238
330
232
100
AcDbEntity
  8
0
 62
   254
100
AcDbTrace
 10
270.904842
 20
326.927663
 30
0.0
 11
270.904842
 21
328.09433
 31
0.0
 12
274.404842
 22
327.510997
 32
0.0
 13
274.404842
 23
327.510997
 33
0.0
  0
SOLID
  5
239
330
232
100
AcDbEntity
  8
0
 62
   254
100
AcDbTrace
 10
221.904842
 20
328.09433
 30
0.0
 11
221.904842
 21
326.927663
 31
0.0
 12
218.404842
 22
327.510997
 32
0.0
 13
218.404842
 23
327.510997
 33
0.0
  0
MTEXT
  5
23A
330
232
100
AcDbEntity
  8
0
 62
   254
370
    13
100
AcDbMText
 10
246.404842
 20
332.7609970000001
 30
0.0
 40
3.5
 41
0.0
 71
     5
 72
     1
  1
\A1;56
  7
cesky
 73
     1
 44
1.0
  0
POINT
  5
23B
330
232
100
AcDbEntity
  8
Defpoints
 62
     0
100
AcDbPoint
 10
274.404842
 20
288.907994
 30
0.0
  0
POINT
  5
23C
330
232
100
AcDbEntity
  8
Defpoints
 62
     0
100
AcDbPoint
 10
218.404842
 20
294.157994
 30
0.0
  0
POINT
  5
23D
330
232
100
AcDbEntity
  8
Defpoints
 62
     0
100
AcDbPoint
 10
218.404842
 20
327.510997
 30
0.0
  0
ENDBLK
  5
234
330
232
100
AcDbEntity
  8
0
100
AcDbBlockEnd
  0
BLOCK
  5
245
330
23E
100
AcDbEntity
  8
0
100
AcDbBlockBegin
  2
_U2
 70
     0
 10
0.0
 20
0.0
 30
0.0
  3
_U2
  1

  0
ENDBLK
  5
246
330
23E
100
AcDbEntity
  8
0
100
AcDbBlockEnd
  0
BLOCK
  5
24B
330
24A
100
AcDbEntity
  8
0
100
AcDbBlockBegin
  2
*D8
 70
     1
 10
0.0
 20
0.0
 30
0.0
  3
*D8
  1

  0
LINE
  5
24D
330
24A
100
AcDbEntity
  8
0
 62
   254
370
    -2
100
AcDbLine
 10
354.904842
 20
298.1579939999999
 30
0.0
 11
354.904842
 21
314.724509
 31
0.0
  0
LINE
  5
24E
330
24A
100
AcDbEntity
  8
0
 62
   254
370
    -2
100
AcDbLine
 10
293.671902
 20
297.855832
 30
0.0
 11
293.671902
 21
314.724509
 31
0.0
  0
LINE
  5
24F
330
24A
100
AcDbEntity
  8
0
 62
   254
370
    -2
100
AcDbLine
 10
351.404842
 20
313.724509
 30
0.0
 11
297.171902
 21
313.724509
 31
0.0
  0
SOLID
  5
250
330
24A
100
AcDbEntity
  8
0
 62
   254
100
AcDbTrace
 10
351.404842
 20
313.141176
 30
0.0
 11
351.404842
 21
314.307842
 31
0.0
 12
354.904842
 22
313.724509
 32
0.0
 13
354.904842
 23
313.724509
 33
0.0
  0
SOLID
  5
251
330
24A
100
AcDbEntity
  8
0
 62
   254
100
AcDbTrace
 10
297.171902
 20
314.307842
 30
0.0
 11
297.171902
 21
313.141176
 31
0.0
 12
293.671902
 22
313.724509
 32
0.0
 13
293.671902
 23
313.724509
 33
0.0
  0
MTEXT
  5
252
330
24A
100
AcDbEntity
  8
0
 62
   254
370
    13
100
AcDbMText
 10
324.288372
 20
318.974509
 30
0.0
 40
3.5
 41
0.0
 71
     5
 72
     1
  1
\A1;61.2
  7
cesky
 73
     1
 44
1.0
  0
POINT
  5
253
330
24A
100
AcDbEntity
  8
Defpoints
 62
     0
100
AcDbPoint
 10
354.904842
 20
298.1579939999999
 30
0.0
  0
POINT
  5
254
330
24A
100
AcDbEntity
  8
Defpoints
 62
     0
100
AcDbPoint
 10
293.671902
 20
297.855832
 30
0.0
  0
POINT
  5
255
330
24A
100
AcDbEntity
  8
Defpoints
 62
     0
100
AcDbPoint
 10
293.671902
 20
313.724509
 30
0.0
  0
ENDBLK
  5
24C
330
24A
100
AcDbEntity
  8
0
100
AcDbBlockEnd
  0
BLOCK
  5
25D
330
256
100
AcDbEntity
  8
0
100
AcDbBlockBegin
  2
_U3
 70
     0
 10
0.0
 20
0.0
 30
0.0
  3
_U3
  1

  0
ENDBLK
  5
25E
330
256
100
AcDbEntity
  8
0
100
AcDbBlockEnd
  0
BLOCK
  5
263
330
262
100
AcDbEntity
  8
0
100
AcDbBlockBegin
  2
*D10
 70
     1
 10
0.0
 20
0.0
 30
0.0
  3
*D10
  1

  0
LINE
  5
265
330
262
100
AcDbEntity
  8
0
 62
   254
370
    -2
100
AcDbLine
 10
293.953832
 20
288.907994
 30
0.0
 11
372.403968
 21
288.907994
 31
0.0
  0
LINE
  5
266
330
262
100
AcDbEntity
  8
0
 62
   254
370
    -2
100
AcDbLine
 10
330.83929
 20
298.1579939999999
 30
0.0
 11
372.403968
 21
298.1579939999999
 31
0.0
  0
LINE
  5
267
330
262
100
AcDbEntity
  8
0
 62
   254
370
    -2
100
AcDbLine
 10
371.403968
 20
301.657994
 30
0.0
 11
371.403968
 21
305.157994
 31
0.0
  0
SOLID
  5
268
330
262
100
AcDbEntity
  8
0
 62
   254
100
AcDbTrace
 10
370.820635
 20
301.657994
 30
0.0
 11
371.987301
 21
301.657994
 31
0.0
 12
371.403968
 22
298.1579939999999
 32
0.0
 13
371.403968
 23
298.1579939999999
 33
0.0
  0
MTEXT
  5
269
330
262
100
AcDbEntity
  8
0
 62
   254
370
    13
100
AcDbMText
 10
366.153968
 20
273.407994
 30
0.0
 40
3.5
 41
0.0
 71
     5
 72
     1
  1
\A1;18.5
  7
cesky
 11
0.0
 21
1.0
 31
0.0
 73
     1
 44
1.0
  0
POINT
  5
26A
330
262
100
AcDbEntity
  8
Defpoints
 62
     0
100
AcDbPoint
 10
293.953832
 20
288.907994
 30
0.0
  0
POINT
  5
26B
330
262
100
AcDbEntity
  8
Defpoints
 62
     0
100
AcDbPoint
 10
330.83929
 20
298.1579939999999
 30
0.0
  0
POINT
  5
26C
330
262
100
AcDbEntity
  8
Defpoints
 62
     0
100
AcDbPoint
 10
371.403968
 20
298.1579939999999
 30
0.0
  0
ENDBLK
  5
264
330
262
100
AcDbEntity
  8
0
100
AcDbBlockEnd
  0
BLOCK
  5
273
330
26D
100
AcDbEntity
  8
0
100
AcDbBlockBegin
  2
_U4
 70
     0
 10
0.0
 20
0.0
 30
0.0
  3
_U4
  1

  0
ENDBLK
  5
274
330
26D
100
AcDbEntity
  8
0
100
AcDbBlockEnd
  0
BLOCK
  5
279
330
278
100
AcDbEntity
  8
0
100
AcDbBlockBegin
  2
*D12
 70
     1
 10
0.0
 20
0.0
 30
0.0
  3
*D12
  1

  0
LINE
  5
27B
330
278
100
AcDbEntity
  8
0
 62
    95
370
    -2
100
AcDbLine
 10
220.404842
 20
301.407994
 30
0.0
 11
205.304739
 21
301.407994
 31
0.0
  0
LINE
  5
27C
330
278
100
AcDbEntity
  8
0
 62
    95
370
    -2
100
AcDbLine
 10
220.404842
 20
276.407994
 30
0.0
 11
205.304739
 21
276.407994
 31
0.0
  0
LINE
  5
27D
330
278
100
AcDbEntity
  8
0
 62
    95
370
    -2
100
AcDbLine
 10
206.304739
 20
297.907994
 30
0.0
 11
206.304739
 21
279.907994
 31
0.0
  0
SOLID
  5
27E
330
278
100
AcDbEntity
  8
0
 62
    95
100
AcDbTrace
 10
206.888073
 20
297.907994
 30
0.0
 11
205.721406
 21
297.907994
 31
0.0
 12
206.304739
 22
301.407994
 32
0.0
 13
206.304739
 23
301.407994
 33
0.0
  0
SOLID
  5
27F
330
278
100
AcDbEntity
  8
0
 62
    95
100
AcDbTrace
 10
205.721406
 20
279.907994
 30
0.0
 11
206.888073
 21
279.907994
 31
0.0
 12
206.304739
 22
276.407994
 32
0.0
 13
206.304739
 23
276.407994
 33
0.0
  0
MTEXT
  5
280
330
278
100
AcDbEntity
  8
0
 62
    95
370
    13
100
AcDbMText
 10
201.054739
 20
288.907994
 30
0.0
 40
3.5
 41
0.0
 71
     5
 72
     1
  1
\A1;25
  7
cesky
 11
0.0
 21
1.0
 31
0.0
 73
     1
 44
1.0
  0
POINT
  5
281
330
278
100
AcDbEntity
  8
Defpoints
 62
     0
100
AcDbPoint
 10
220.404842
 20
301.407994
 30
0.0
  0
POINT
  5
282
330
278
100
AcDbEntity
  8
Defpoints
 62
     0
100
AcDbPoint
 10
220.404842
 20
276.407994
 30
0.0
  0
POINT
  5
283
330
278
100
AcDbEntity
  8
Defpoints
 62
     0
100
AcDbPoint
 10
206.304739
 20
276.407994
 30
0.0
  0
ENDBLK
  5
27A
330
278
100
AcDbEntity
  8
0
100
AcDbBlockEnd
  0
BLOCK
  5
28C
330
284
100
AcDbEntity
  8
0
100
AcDbBlockBegin
  2
_U5
 70
     0
 10
0.0
 20
0.0
 30
0.0
  3
_U5
  1

  0
ENDBLK
  5
28D
330
284
100
AcDbEntity
  8
0
100
AcDbBlockEnd
  0
BLOCK
  5
292
330
291
100
AcDbEntity
  8
0
100
AcDbBlockBegin
  2
*D14
 70
     1
 10
0.0
 20
0.0
 30
0.0
  3
*D14
  1

  0
LINE
  5
294
330
291
100
AcDbEntity
  8
0
 62
    95
370
    -2
100
AcDbLine
 10
277.154842
 20
306.407994
 30
0.0
 11
192.519918
 21
306.407994
 31
0.0
  0
LINE
  5
295
330
291
100
AcDbEntity
  8
0
 62
    95
370
    -2
100
AcDbLine
 10
277.154842
 20
271.407994
 30
0.0
 11
192.519918
 21
271.407994
 31
0.0
  0
LINE
  5
296
330
291
100
AcDbEntity
  8
0
 62
    95
370
    -2
100
AcDbLine
 10
193.519918
 20
302.907994
 30
0.0
 11
193.519918
 21
274.907994
 31
0.0
  0
SOLID
  5
297
330
291
100
AcDbEntity
  8
0
 62
    95
100
AcDbTrace
 10
194.103251
 20
302.907994
 30
0.0
 11
192.936584
 21
302.907994
 31
0.0
 12
193.519918
 22
306.407994
 32
0.0
 13
193.519918
 23
306.407994
 33
0.0
  0
SOLID
  5
298
330
291
100
AcDbEntity
  8
0
 62
    95
100
AcDbTrace
 10
192.936584
 20
274.907994
 30
0.0
 11
194.103251
 21
274.907994
 31
0.0
 12
193.519918
 22
271.407994
 32
0.0
 13
193.519918
 23
271.407994
 33
0.0
  0
MTEXT
  5
299
330
291
100
AcDbEntity
  8
0
 62
    95
370
    13
100
AcDbMText
 10
188.269918
 20
288.907994
 30
0.0
 40
3.5
 41
0.0
 71
     5
 72
     1
  1
\A1;35
  7
cesky
 11
0.0
 21
1.0
 31
0.0
 73
     1
 44
1.0
  0
POINT
  5
29A
330
291
100
AcDbEntity
  8
Defpoints
 62
     0
100
AcDbPoint
 10
277.154842
 20
306.407994
 30
0.0
  0
POINT
  5
29B
330
291
100
AcDbEntity
  8
Defpoints
 62
     0
100
AcDbPoint
 10
277.154842
 20
271.407994
 30
0.0
  0
POINT
  5
29C
330
291
100
AcDbEntity
  8
Defpoints
 62
     0
100
AcDbPoint
 10
193.519918
 20
271.407994
 30
0.0
  0
ENDBLK
  5
293
330
291
100
AcDbEntity
  8
0
100
AcDbBlockEnd
  0
BLOCK
  5
2A5
330
29D
100
AcDbEntity
  8
0
100
AcDbBlockBegin
  2
_U6
 70
     0
 10
0.0
 20
0.0
 30
0.0
  3
_U6
  1

  0
ENDBLK
  5
2A6
330
29D
100
AcDbEntity
  8
0
100
AcDbBlockEnd
  0
ENDSEC
  0
SECTION
  2
ENTITIES
  0
POINT
  5
73
102
{ACAD_REACTORS
330
351
102
}
330
1F
100
AcDbEntity
  8
80
100
AcDbPoint
 10
274.404842
 20
288.907994
 30
0.0
  0
POINT
  5
76
330
1F
100
AcDbEntity
  8
SK4
 60
     1
100
AcDbPoint
 10
220.404842
 20
288.907994
 30
0.0
  0
POINT
  5
78
330
1F
100
AcDbEntity
  8
SK4
 60
     1
100
AcDbPoint
 10
274.404842
 20
288.907994
 30
0.0
  0
POINT
  5
79
330
1F
100
AcDbEntity
  8
4
 60
     1
100
AcDbPoint
 10
293.953832
 20
288.907994
 30
0.0
  0
POINT
  5
7A
330
1F
100
AcDbEntity
  8
4
 60
     1
100
AcDbPoint
 10
354.288013
 20
288.907994
 30
0.0
  0
POINT
  5
7B
330
1F
100
AcDbEntity
  8
SK6
 60
     1
100
AcDbPoint
 10
274.404842
 20
288.907994
 30
0.0
  0
POINT
  5
7C
330
1F
100
AcDbEntity
  8
SK6
 60
     1
100
AcDbPoint
 10
293.671902
 20
297.855832
 30
0.0
  0
LINE
  5
7D
330
1F
100
AcDbEntity
  8
1
100
AcDbLine
 10
349.012017
 20
297.657994
 30
0.0
 11
342.531616
 21
297.657994
 31
0.0
  0
LINE
  5
7F
330
1F
100
AcDbEntity
  8
1
100
AcDbLine
 10
350.968964
 20
294.57346
 30
0.0
 11
350.988335
 21
294.640181
 31
0.0
  0
LINE
  5
81
330
1F
100
AcDbEntity
  8
1
100
AcDbLine
 10
352.197394
 20
294.311837
 30
0.0
 11
352.216809
 21
294.378709
 31
0.0
  0
LINE
  5
82
330
1F
100
AcDbEntity
  8
1
100
AcDbLine
 10
352.472442
 20
295.535152
 30
0.0
 11
352.453071
 21
295.468431
 31
0.0
  0
LINE
  5
83
330
1F
100
AcDbEntity
  8
1
100
AcDbLine
 10
288.154842
 20
297.415423
 30
0.0
 11
288.154842
 21
287.415737
 31
0.0
  0
LINE
  5
84
330
1F
100
AcDbEntity
  8
1
100
AcDbLine
 10
352.220328
 20
294.209421
 30
0.0
 11
352.214081
 21
294.202547
 31
0.0
  0
LINE
  5
85
330
1F
100
AcDbEntity
  8
1
100
AcDbLine
 10
351.224642
 20
295.730054
 30
0.0
 11
351.244057
 21
295.796926
 31
0.0
  0
LINE
  5
86
330
1F
100
AcDbEntity
  8
1
100
AcDbLine
 10
353.673127
 20
280.157994
 30
0.0
 11
344.6753950000001
 21
280.157994
 31
0.0
  0
LINE
  5
87
330
1F
100
AcDbEntity
  8
1
100
AcDbLine
 10
274.904842
 20
271.407994
 30
0.0
 11
274.904842
 21
288.907994
 31
0.0
  0
LINE
  5
88
330
1F
100
AcDbEntity
  8
1
100
AcDbLine
 10
274.904842
 20
288.907994
 30
0.0
 11
274.904842
 21
306.407994
 31
0.0
  0
LINE
  5
89
330
1F
100
AcDbEntity
  8
1
100
AcDbLine
 10
279.404842
 20
271.407994
 30
0.0
 11
279.404842
 21
274.876755
 31
0.0
  0
LINE
  5
8A
330
1F
100
AcDbEntity
  8
1
100
AcDbLine
 10
279.404842
 20
306.407994
 30
0.0
 11
279.404842
 21
281.379462
 31
0.0
  0
LINE
  5
8B
330
1F
100
AcDbEntity
  8
1
100
AcDbLine
 10
350.262184
 20
295.500187
 30
0.0
 11
350.249201
 21
295.455468
 31
0.0
  0
LINE
  5
8C
330
1F
100
AcDbEntity
  8
1
100
AcDbLine
 10
353.178253
 20
294.605085
 30
0.0
 11
353.191236
 21
294.649804
 31
0.0
  0
LINE
  5
8D
330
1F
100
AcDbEntity
  8
SK1
100
AcDbLine
 10
218.404842
 20
278.407994
 30
0.0
 11
220.404842
 21
276.407994
 31
0.0
  0
LINE
  5
8E
330
1F
100
AcDbEntity
  8
SK1
100
AcDbLine
 10
220.404842
 20
301.407994
 30
0.0
 11
218.404842
 21
299.407994
 31
0.0
  0
LINE
  5
8F
330
1F
100
AcDbEntity
  8
1
100
AcDbLine
 10
279.404842
 20
271.407994
 30
0.0
 11
284.054337
 21
276.057488
 31
0.0
  0
LINE
  5
90
330
1F
100
AcDbEntity
  8
1
100
AcDbLine
 10
284.054337
 20
301.758499
 30
0.0
 11
279.404842
 21
306.407994
 31
0.0
  0
LINE
  5
91
330
1F
100
AcDbEntity
  8
SK1
100
AcDbLine
 10
274.404842
 20
301.407994
 30
0.0
 11
220.404842
 21
301.407994
 31
0.0
  0
LINE
  5
92
330
1F
100
AcDbEntity
  8
1
100
AcDbLine
 10
274.904842
 20
271.407994
 30
0.0
 11
274.404842
 21
271.907994
 31
0.0
  0
LINE
  5
93
330
1F
100
AcDbEntity
  8
1
100
AcDbLine
 10
274.404842
 20
305.907994
 30
0.0
 11
274.904842
 21
306.407994
 31
0.0
  0
LINE
  5
94
330
1F
100
AcDbEntity
  8
1
100
AcDbLine
 10
279.404842
 20
306.407994
 30
0.0
 11
274.904842
 21
306.407994
 31
0.0
  0
LINE
  5
99
330
1F
100
AcDbEntity
  8
80
100
AcDbLine
 10
275.404416
 20
288.907994
 30
0.0
 11
273.405268
 21
288.907994
 31
0.0
  0
LINE
  5
9A
330
1F
100
AcDbEntity
  8
1
100
AcDbLine
 10
350.764093
 20
295.055488
 30
0.0
 11
350.745349
 21
294.990927
 31
0.0
  0
LINE
  5
9B
330
1F
100
AcDbEntity
  8
1
100
AcDbLine
 10
350.834817
 20
295.043822
 30
0.0
 11
350.815634
 21
294.97775
 31
0.0
  0
LINE
  5
9C
330
1F
100
AcDbEntity
  8
1
100
AcDbLine
 10
352.578655
 20
294.586713
 30
0.0
 11
352.597373
 21
294.651186
 31
0.0
  0
LINE
  5
9D
330
1F
100
AcDbEntity
  8
1
100
AcDbLine
 10
352.503418
 20
294.6042
 30
0.0
 11
352.5226120000001
 21
294.6703129999999
 31
0.0
  0
LINE
  5
9E
330
1F
100
AcDbEntity
  8
1
100
AcDbLine
 10
351.306152
 20
294.2718220000001
 30
0.0
 11
351.287116
 21
294.206252
 31
0.0
  0
LINE
  5
9F
330
1F
100
AcDbEntity
  8
1
100
AcDbLine
 10
351.227707
 20
295.751698
 30
0.0
 11
351.247012
 21
295.818192
 31
0.0
  0
LINE
  5
A0
330
1F
100
AcDbEntity
  8
1
100
AcDbLine
 10
351.750937
 20
294.112115
 30
0.0
 11
351.7700319999999
 21
294.177885
 31
0.0
  0
LINE
  5
A1
330
1F
100
AcDbEntity
  8
1
100
AcDbLine
 10
354.1255060000001
 20
292.28945
 30
0.0
 11
350.528153
 21
292.132639
 31
0.0
  0
LINE
  5
A2
330
1F
100
AcDbEntity
  8
1
100
AcDbLine
 10
350.52285
 20
292.114374
 30
0.0
 11
350.528153
 21
292.132639
 31
0.0
  0
LINE
  5
A3
330
1F
100
AcDbEntity
  8
1
100
AcDbLine
 10
353.958463
 20
289.4627470000001
 30
0.0
 11
354.066656
 21
289.460858
 31
0.0
  0
LINE
  5
A4
330
1F
100
AcDbEntity
  8
1
100
AcDbLine
 10
354.066656
 20
289.460858
 30
0.0
 11
354.22268
 21
289.672288
 31
0.0
  0
LINE
  5
A5
330
1F
100
AcDbEntity
  8
1
100
AcDbLine
 10
354.22268
 20
289.910898
 30
0.0
 11
354.22268
 21
289.672288
 31
0.0
  0
LINE
  5
A6
330
1F
100
AcDbEntity
  8
1
100
AcDbLine
 10
354.22268
 20
289.910898
 30
0.0
 11
354.264842
 21
289.910163
 31
0.0
  0
LINE
  5
A7
330
1F
100
AcDbEntity
  8
1
100
AcDbLine
 10
354.264842
 20
292.483496
 30
0.0
 11
354.264842
 21
289.910163
 31
0.0
  0
LINE
  5
A8
330
1F
100
AcDbEntity
  8
1
100
AcDbLine
 10
354.1255060000001
 20
292.28945
 30
0.0
 11
354.123921
 21
292.47736
 31
0.0
  0
LINE
  5
A9
330
1F
100
AcDbEntity
  8
1
100
AcDbLine
 10
354.1255060000001
 20
292.28945
 30
0.0
 11
354.082952
 21
292.269561
 31
0.0
  0
LINE
  5
AA
330
1F
100
AcDbEntity
  8
1
100
AcDbLine
 10
354.002713
 20
291.795003
 30
0.0
 11
354.017242
 21
291.801793
 31
0.0
  0
LINE
  5
AB
330
1F
100
AcDbEntity
  8
1
100
AcDbLine
 10
353.118922
 20
285.732994
 30
0.0
 11
353.37665
 21
285.732994
 31
0.0
  0
LINE
  5
AC
330
1F
100
AcDbEntity
  8
1
100
AcDbLine
 10
353.673127
 20
280.157994
 30
0.0
 11
353.976632
 21
283.017547
 31
0.0
  0
LINE
  5
AD
330
1F
100
AcDbEntity
  8
1
100
AcDbLine
 10
353.976632
 20
283.017547
 30
0.0
 11
353.934541
 21
283.01822
 31
0.0
  0
LINE
  5
AE
330
1F
100
AcDbEntity
  8
1
100
AcDbLine
 10
353.959823
 20
283.256421
 30
0.0
 11
353.934541
 21
283.01822
 31
0.0
  0
LINE
  5
AF
330
1F
100
AcDbEntity
  8
1
100
AcDbLine
 10
353.959823
 20
283.256421
 30
0.0
 11
353.826755
 21
283.4726970000001
 31
0.0
  0
LINE
  5
B0
330
1F
100
AcDbEntity
  8
1
100
AcDbLine
 10
353.826755
 20
283.4726970000001
 30
0.0
 11
353.718745
 21
283.474425
 31
0.0
  0
LINE
  5
B1
330
1F
100
AcDbEntity
  8
1
100
AcDbLine
 10
353.708445
 20
283.774629
 30
0.0
 11
353.916301
 21
285.732994
 31
0.0
  0
LINE
  5
B2
330
1F
100
AcDbEntity
  8
1
100
AcDbLine
 10
353.6797620000001
 20
285.732994
 30
0.0
 11
353.916301
 21
285.732994
 31
0.0
  0
LINE
  5
B3
330
1F
100
AcDbEntity
  8
1
100
AcDbLine
 10
353.916301
 20
285.732994
 30
0.0
 11
353.916301
 21
289.163437
 31
0.0
  0
LINE
  5
B4
330
1F
100
AcDbEntity
  8
1
100
AcDbLine
 10
348.955443
 20
297.546336
 30
0.0
 11
348.954302
 21
297.572666
 31
0.0
  0
LINE
  5
B5
330
1F
100
AcDbEntity
  8
SK1
100
AcDbLine
 10
220.404842
 20
301.407994
 30
0.0
 11
220.404842
 21
276.407994
 31
0.0
  0
LINE
  5
B6
330
1F
100
AcDbEntity
  8
SK1
100
AcDbLine
 10
218.404842
 20
299.407994
 30
0.0
 11
218.404842
 21
278.407994
 31
0.0
  0
LINE
  5
B7
330
1F
100
AcDbEntity
  8
1
100
AcDbLine
 10
348.901599
 20
293.609064
 30
0.0
 11
348.896368
 21
293.591047
 31
0.0
  0
LINE
  5
B8
330
1F
100
AcDbEntity
  8
1
100
AcDbLine
 10
348.901599
 20
293.609064
 30
0.0
 11
348.729852
 21
297.573212
 31
0.0
  0
LINE
  5
B9
330
1F
100
AcDbEntity
  8
1
100
AcDbLine
 10
348.725876
 20
297.526226
 30
0.0
 11
348.896368
 21
293.591047
 31
0.0
  0
LINE
  5
BA
330
1F
100
AcDbEntity
  8
1
100
AcDbLine
 10
354.082952
 20
292.269561
 30
0.0
 11
350.52285
 21
292.114374
 31
0.0
  0
LINE
  5
BB
330
1F
100
AcDbEntity
  8
1
100
AcDbLine
 10
354.002713
 20
291.795003
 30
0.0
 11
349.994007
 21
291.62026
 31
0.0
  0
LINE
  5
BC
330
1F
100
AcDbEntity
  8
1
100
AcDbLine
 10
354.002713
 20
291.795003
 30
0.0
 11
353.048704
 21
290.205456
 31
0.0
  0
LINE
  5
BD
330
1F
100
AcDbEntity
  8
1
100
AcDbLine
 10
354.904667
 20
288.56653
 30
0.0
 11
354.833191
 21
284.471676
 31
0.0
  0
LINE
  5
BF
330
1F
100
AcDbEntity
  8
1
100
AcDbLine
 10
354.465845
 20
284.577011
 30
0.0
 11
354.833191
 21
284.471676
 31
0.0
  0
LINE
  5
C0
330
1F
100
AcDbEntity
  8
1
100
AcDbLine
 10
354.833191
 20
284.471676
 30
0.0
 11
354.415211
 21
283.77604
 31
0.0
  0
LINE
  5
C1
330
1F
100
AcDbEntity
  8
1
100
AcDbLine
 10
354.533869
 20
288.4740799999999
 30
0.0
 11
354.904667
 21
288.56653
 31
0.0
  0
LINE
  5
C2
330
1F
100
AcDbEntity
  8
1
100
AcDbLine
 10
354.497974
 20
289.300225
 30
0.0
 11
354.904667
 21
288.56653
 31
0.0
  0
LINE
  5
C3
330
1F
100
AcDbEntity
  8
1
100
AcDbLine
 10
354.223078
 20
289.034761
 30
0.0
 11
354.497974
 21
289.300225
 31
0.0
  0
LINE
  5
C4
330
1F
100
AcDbEntity
  8
1
100
AcDbLine
 10
354.1170370000001
 20
289.529115
 30
0.0
 11
354.497974
 21
289.300225
 31
0.0
  0
LINE
  5
C5
330
1F
100
AcDbEntity
  8
1
100
AcDbLine
 10
354.149747
 20
284.050936
 30
0.0
 11
354.415211
 21
283.77604
 31
0.0
  0
LINE
  5
C6
330
1F
100
AcDbEntity
  8
1
100
AcDbLine
 10
354.415211
 20
283.77604
 30
0.0
 11
353.837243
 21
283.455667
 31
0.0
  0
LINE
  5
C7
330
1F
100
AcDbEntity
  8
1
100
AcDbLine
 10
354.465845
 20
284.577011
 30
0.0
 11
354.149747
 21
284.050936
 31
0.0
  0
LINE
  5
C8
330
1F
100
AcDbEntity
  8
1
100
AcDbLine
 10
354.465845
 20
284.577011
 30
0.0
 11
353.885166
 21
284.743518
 31
0.0
  0
LINE
  5
C9
330
1F
100
AcDbEntity
  8
1
100
AcDbLine
 10
354.533869
 20
288.4740799999999
 30
0.0
 11
354.465845
 21
284.577011
 31
0.0
  0
LINE
  5
CA
330
1F
100
AcDbEntity
  8
1
100
AcDbLine
 10
353.917026
 20
289.218656
 30
0.0
 11
354.223078
 21
289.034761
 31
0.0
  0
LINE
  5
CB
330
1F
100
AcDbEntity
  8
1
100
AcDbLine
 10
353.7954299999999
 20
284.594172
 30
0.0
 11
353.885166
 21
284.743518
 31
0.0
  0
LINE
  5
CC
330
1F
100
AcDbEntity
  8
1
100
AcDbLine
 10
353.885166
 20
284.743518
 30
0.0
 11
353.899709
 21
285.576672
 31
0.0
  0
LINE
  5
CD
330
1F
100
AcDbEntity
  8
1
100
AcDbLine
 10
353.916301
 20
286.527216
 30
0.0
 11
353.947733
 21
288.327939
 31
0.0
  0
LINE
  5
CE
330
1F
100
AcDbEntity
  8
1
100
AcDbLine
 10
354.149747
 20
284.050936
 30
0.0
 11
353.778572
 21
284.435299
 31
0.0
  0
LINE
  5
CF
330
1F
100
AcDbEntity
  8
1
100
AcDbLine
 10
354.149747
 20
284.050936
 30
0.0
 11
353.7120220000001
 21
283.808301
 31
0.0
  0
LINE
  5
D0
330
1F
100
AcDbEntity
  8
1
100
AcDbLine
 10
354.223078
 20
289.034761
 30
0.0
 11
353.916307
 21
288.738516
 31
0.0
  0
LINE
  5
D1
330
1F
100
AcDbEntity
  8
1
100
AcDbLine
 10
353.947733
 20
288.327939
 30
0.0
 11
353.916299
 21
288.384646
 31
0.0
  0
LINE
  5
D2
330
1F
100
AcDbEntity
  8
1
100
AcDbLine
 10
354.533869
 20
288.4740799999999
 30
0.0
 11
353.947733
 21
288.327939
 31
0.0
  0
LINE
  5
D3
330
1F
100
AcDbEntity
  8
1
100
AcDbLine
 10
354.223078
 20
289.034761
 30
0.0
 11
354.533869
 21
288.4740799999999
 31
0.0
  0
LINE
  5
D4
330
1F
100
AcDbEntity
  8
1
100
AcDbLine
 10
354.482414
 20
297.657906
 30
0.0
 11
354.69599
 21
292.888888
 31
0.0
  0
LINE
  5
D5
330
1F
100
AcDbEntity
  8
1
100
AcDbLine
 10
349.301982
 20
297.818677
 30
0.0
 11
354.078676
 21
298.026897
 31
0.0
  0
LINE
  5
D6
330
1F
100
AcDbEntity
  8
1
100
AcDbLine
 10
349.146379
 20
292.646976
 30
0.0
 11
348.932803
 21
297.415994
 31
0.0
  0
LINE
  5
D7
330
1F
100
AcDbEntity
  8
1
100
AcDbLine
 10
354.326811
 20
292.486204
 30
0.0
 11
349.550117
 21
292.277984
 31
0.0
  0
LINE
  5
D8
330
1F
100
AcDbEntity
  8
1
100
AcDbLine
 10
349.881286
 20
296.907785
 30
0.0
 11
353.577031
 21
297.068886
 31
0.0
  0
LINE
  5
D9
330
1F
100
AcDbEntity
  8
1
100
AcDbLine
 10
350.046531
 20
293.217979
 30
0.0
 11
349.881286
 21
296.907785
 31
0.0
  0
LINE
  5
DA
330
1F
100
AcDbEntity
  8
1
100
AcDbLine
 10
353.742276
 20
293.379079
 30
0.0
 11
350.046531
 21
293.217979
 31
0.0
  0
LINE
  5
DB
330
1F
100
AcDbEntity
  8
1
100
AcDbLine
 10
353.577031
 20
297.068886
 30
0.0
 11
353.742276
 21
293.379079
 31
0.0
  0
LINE
  5
DC
330
1F
100
AcDbEntity
  8
1
100
AcDbLine
 10
274.404842
 20
305.907994
 30
0.0
 11
274.404842
 21
288.907994
 31
0.0
  0
LINE
  5
DD
330
1F
100
AcDbEntity
  8
1
100
AcDbLine
 10
274.404842
 20
288.907994
 30
0.0
 11
274.404842
 21
271.907994
 31
0.0
  0
LINE
  5
DE
330
1F
100
AcDbEntity
  8
80
100
AcDbLine
 10
274.404842
 20
287.90842
 30
0.0
 11
274.404842
 21
289.907567
 31
0.0
  0
LINE
  5
DF
330
1F
100
AcDbEntity
  8
SK1
100
AcDbLine
 10
220.404842
 20
276.407994
 30
0.0
 11
274.404842
 21
276.407994
 31
0.0
  0
LINE
  5
E0
330
1F
100
AcDbEntity
  8
81
100
AcDbLine
 10
354.904842
 20
300.157994
 30
0.0
 11
354.904842
 21
296.157994
 31
0.0
  0
LINE
  5
E1
330
1F
100
AcDbEntity
  8
81
100
AcDbLine
 10
352.904842
 20
298.1579939999999
 30
0.0
 11
356.904842
 21
298.1579939999999
 31
0.0
  0
LINE
  5
E2
330
1F
100
AcDbEntity
  8
1
100
AcDbLine
 10
274.904842
 20
271.407994
 30
0.0
 11
279.404842
 21
271.407994
 31
0.0
  0
LINE
  5
124
330
1F
100
AcDbEntity
  8
NOCUT
100
AcDbLine
 10
279.404842
 20
306.407994
 30
0.0
 11
284.054337
 21
301.758499
 31
0.0
  0
LINE
  5
125
330
1F
100
AcDbEntity
  8
NOCUT
100
AcDbLine
 10
354.047284
 20
297.657994
 30
0.0
 11
354.264842
 21
292.715186
 31
0.0
  0
LINE
  5
126
330
1F
100
AcDbEntity
  8
NOCUT
100
AcDbLine
 10
354.264842
 20
292.715186
 30
0.0
 11
354.264842
 21
288.907994
 31
0.0
  0
LINE
  5
127
330
1F
100
AcDbEntity
  8
NOCUT
100
AcDbLine
 10
354.264842
 20
288.907994
 30
0.0
 11
218.404842
 21
288.907994
 31
0.0
  0
LINE
  5
128
330
1F
100
AcDbEntity
  8
NOCUT
100
AcDbLine
 10
293.953832
 20
297.657994
 30
0.0
 11
354.047284
 21
297.657994
 31
0.0
  0
LINE
  5
129
330
1F
100
AcDbEntity
  8
NOCUT
100
AcDbLine
 10
274.404842
 20
301.407994
 30
0.0
 11
274.404842
 21
305.907994
 31
0.0
  0
LINE
  5
12A
330
1F
100
AcDbEntity
  8
NOCUT
100
AcDbLine
 10
274.404842
 20
305.907994
 30
0.0
 11
274.904842
 21
306.407994
 31
0.0
  0
LINE
  5
12B
330
1F
100
AcDbEntity
  8
NOCUT
100
AcDbLine
 10
218.404842
 20
299.407994
 30
0.0
 11
220.404842
 21
301.407994
 31
0.0
  0
LINE
  5
12C
330
1F
100
AcDbEntity
  8
NOCUT
100
AcDbLine
 10
279.404842
 20
306.407994
 30
0.0
 11
274.904842
 21
306.407994
 31
0.0
  0
LINE
  5
12D
330
1F
100
AcDbEntity
  8
NOCUT
100
AcDbLine
 10
274.404842
 20
301.407994
 30
0.0
 11
220.404842
 21
301.407994
 31
0.0
  0
LINE
  5
12E
330
1F
100
AcDbEntity
  8
NOCUT
100
AcDbLine
 10
218.404842
 20
299.407994
 30
0.0
 11
218.404842
 21
288.907994
 31
0.0
  0
CIRCLE
  5
137
330
1F
100
AcDbEntity
  8
1
100
AcDbCircle
 10
351.596261
 20
286.681244
 30
0.0
 40
0.7000000000000009
  0
ARC
  5
138
330
1F
100
AcDbEntity
  8
1
100
AcDbCircle
 10
293.953832
 20
266.157994
 30
0.0
 40
14.0
100
AcDbArc
 50
96.578399
 51
135.0
  0
ARC
  5
139
330
1F
100
AcDbEntity
  8
1
100
AcDbCircle
 10
293.953832
 20
311.657994
 30
0.0
 40
14.0
100
AcDbArc
 50
225.0
 51
255.894381
  0
ARC
  5
13A
330
1F
100
AcDbEntity
  8
1
100
AcDbCircle
 10
351.596261
 20
286.681244
 30
0.0
 40
1.1
100
AcDbArc
 50
75.0
 51
345.0
  0
ARC
  5
149
330
1F
100
AcDbEntity
  8
NOCUT
100
AcDbCircle
 10
293.953832
 20
311.657994
 30
0.0
 40
14.0
100
AcDbArc
 50
225.0
 51
270.0
  0
ELLIPSE
  5
14A
330
1F
100
AcDbEntity
  8
1
100
AcDbEllipse
 10
297.300037
 20
273.666158
 30
0.0
 11
-20.77097966549207
 21
3.152412910338149
 31
0.0
210
0.0
220
0.0
230
1.0
 40
0.583404
 41
5.057414918532749
 42
5.520497035647006
  0
ELLIPSE
  5
14B
330
1F
100
AcDbEntity
  8
1
100
AcDbEllipse
 10
297.300037
 20
273.666158
 30
0.0
 11
-20.77097966549207
 21
3.152412910338149
 31
0.0
210
0.0
220
0.0
230
1.0
 40
0.583404
 41
5.947430029558616
 42
6.160375751635547
  0
ELLIPSE
  5
14C
330
1F
100
AcDbEntity
  8
1
100
AcDbEllipse
 10
349.431111
 20
304.221344
 30
0.0
 11
-12.10034834364611
 21
3.513057067914043
 31
0.0
210
0.0
220
0.0
230
0.9999999999999998
 40
0.998043
 41
1.688190722302234
 42
1.89694514188087
  0
ELLIPSE
  5
14D
330
1F
100
AcDbEntity
  8
1
100
AcDbEllipse
 10
351.72671
 20
295.074995
 30
0.0
 11
-1.464526287623834
 21
0.4251914308388021
 31
0.0
210
0.0
220
0.0
230
0.9999999999999998
 40
0.998043
 41
3.141682243305083
 42
6.283176765871712
  0
ELLIPSE
  5
14E
330
1F
100
AcDbEntity
  8
1
100
AcDbEllipse
 10
351.713727
 20
295.030277
 30
0.0
 11
1.464526287623835
 21
-0.4251914308388029
 31
0.0
210
0.0
220
0.0
230
0.9999999999999998
 40
0.998043
 41
0.0
 42
6.283185307179585
  0
ELLIPSE
  5
14F
330
1F
100
AcDbEntity
  8
1
100
AcDbEllipse
 10
351.360591
 20
294.165096
 30
0.0
 11
-0.0808842510859804
 21
0.023482876847074
 31
0.0
210
0.0
220
0.0
230
0.9999999999999998
 40
0.998043
 41
5.247275564398667
 42
6.086303756576428
  0
ELLIPSE
  5
150
330
1F
100
AcDbEntity
  8
1
100
AcDbEllipse
 10
351.211117
 20
294.242737
 30
0.0
 11
-0.0808842510859806
 21
0.023482876847074
 31
0.0
210
0.0
220
0.0
230
1.0
 40
0.998043
 41
1.582084135210726
 42
2.944711102986785
  0
ELLIPSE
  5
151
330
1F
100
AcDbEntity
  8
1
100
AcDbEllipse
 10
351.304106
 20
294.577104
 30
0.0
 11
-0.4148322450692029
 21
0.120436974965622
 31
0.0
210
0.0
220
0.0
230
1.0
 40
0.9980429999999998
 41
0.6421466415745881
 42
1.582084135210692
  0
ELLIPSE
  5
152
330
1F
100
AcDbEntity
  8
1
100
AcDbEllipse
 10
350.978723
 20
294.455131
 30
0.0
 11
-0.0808842510859803
 21
0.023482876847074
 31
0.0
210
0.0
220
0.0
230
0.9999999999999998
 40
0.998043
 41
5.562704980978094
 42
6.925331948753943
  0
ELLIPSE
  5
153
330
1F
100
AcDbEntity
  8
1
100
AcDbEllipse
 10
350.88808
 20
294.596942
 30
0.0
 11
-0.0808842510859804
 21
0.023482876847074
 31
0.0
210
0.0
220
0.0
230
0.9999999999999998
 40
0.998043
 41
2.421112327388414
 42
3.260140519566063
  0
ELLIPSE
  5
154
330
1F
100
AcDbEntity
  8
1
100
AcDbEllipse
 10
350.545032
 20
294.653797
 30
0.0
 11
-0.4148322450692027
 21
0.1204369749656219
 31
0.0
210
0.0
220
0.0
230
1.0
 40
0.9980430000000001
 41
3.260140519566076
 42
4.200078013202176
  0
ELLIPSE
  5
155
330
1F
100
AcDbEntity
  8
1
100
AcDbEllipse
 10
350.793072
 20
294.896775
 30
0.0
 11
-0.0808842510859804
 21
0.023482876847074
 31
0.0
210
0.0
220
0.0
230
0.9999999999999998
 40
0.998043
 41
4.200078013202219
 42
5.039106205379701
  0
ELLIPSE
  5
156
330
1F
100
AcDbEntity
  8
1
100
AcDbEllipse
 10
350.785549
 20
295.064759
 30
0.0
 11
-0.0808842510859806
 21
0.023482876847074
 31
0.0
210
0.0
220
0.0
230
1.0
 40
0.998043
 41
0.5348865840141506
 42
1.897513551790456
  0
ELLIPSE
  5
157
330
1F
100
AcDbEntity
  8
1
100
AcDbEllipse
 10
351.122178
 20
295.151242
 30
0.0
 11
-0.4148322450692029
 21
0.120436974965622
 31
0.0
210
0.0
220
0.0
230
1.0
 40
0.9980429999999998
 41
5.878134397557553
 42
6.818071891193692
  0
ELLIPSE
  5
158
330
1F
100
AcDbEntity
  8
1
100
AcDbEllipse
 10
350.853384
 20
295.37169
 30
0.0
 11
-0.0808842510859803
 21
0.023482876847074
 31
0.0
210
0.0
220
0.0
230
0.9999999999999998
 40
0.998043
 41
4.515507429781584
 42
5.878134397557477
  0
ELLIPSE
  5
159
330
1F
100
AcDbEntity
  8
1
100
AcDbEllipse
 10
350.930996
 20
295.520836
 30
0.0
 11
-0.0808842510859804
 21
0.023482876847074
 31
0.0
210
0.0
220
0.0
230
0.9999999999999998
 40
0.998043
 41
1.3739147761916
 42
2.212942968369253
  0
ELLIPSE
  5
15A
330
1F
100
AcDbEntity
  8
1
100
AcDbEllipse
 10
350.808479
 20
295.8458100000001
 30
0.0
 11
-0.4148322450692027
 21
0.1204369749656219
 31
0.0
210
0.0
220
0.0
230
1.0
 40
0.9980430000000001
 41
2.212942968369461
 42
3.152880462005591
  0
ELLIPSE
  5
15B
330
1F
100
AcDbEntity
  8
1
100
AcDbEllipse
 10
351.143498
 20
295.752624
 30
0.0
 11
-0.0808842510859804
 21
0.023482876847074
 31
0.0
210
0.0
220
0.0
230
0.9999999999999998
 40
0.998043
 41
3.152880462005683
 42
3.991908654183183
  0
ELLIPSE
  5
15C
330
1F
100
AcDbEntity
  8
1
100
AcDbEllipse
 10
351.285449
 20
295.842968
 30
0.0
 11
-0.0808842510859806
 21
0.023482876847074
 31
0.0
210
0.0
220
0.0
230
1.0
 40
0.998043
 41
5.770874339997035
 42
7.133501307772948
  0
ELLIPSE
  5
15D
330
1F
100
AcDbEntity
  8
1
100
AcDbEllipse
 10
351.52909
 20
295.595082
 30
0.0
 11
-0.4148322450692029
 21
0.120436974965622
 31
0.0
210
0.0
220
0.0
230
1.0
 40
0.9980429999999998
 41
4.830936846360964
 42
5.770874339997063
  0
ELLIPSE
  5
15E
330
1F
100
AcDbEntity
  8
1
100
AcDbEllipse
 10
351.585679
 20
295.937504
 30
0.0
 11
-0.0808842510859803
 21
0.023482876847074
 31
0.0
210
0.0
220
0.0
230
0.9999999999999998
 40
0.998043
 41
3.468309878584953
 42
4.830936846360748
  0
ELLIPSE
  5
15F
330
1F
100
AcDbEntity
  8
1
100
AcDbEllipse
 10
351.7539339999999
 20
295.944839
 30
0.0
 11
-0.0808842510859804
 21
0.023482876847074
 31
0.0
210
0.0
220
0.0
230
0.9999999999999998
 40
0.998043
 41
0.3267172249951606
 42
1.165745417172991
  0
ELLIPSE
  5
160
330
1F
100
AcDbEntity
  8
1
100
AcDbEllipse
 10
351.974465
 20
296.212957
 30
0.0
 11
-0.4148322450692027
 21
0.1204369749656219
 31
0.0
210
0.0
220
0.0
230
1.0
 40
0.9980430000000001
 41
1.165745417172876
 42
2.105682910809048
  0
ELLIPSE
  5
161
330
1F
100
AcDbEntity
  8
1
100
AcDbEllipse
 10
314.154038
 20
288.907993
 30
0.0
 11
71.26121695681056
 21
-7.115416184908012
 31
0.0
210
0.0
220
0.0
230
1.0
 40
0.071462
 41
4.432124347192849
 42
4.489483603864476
  0
ELLIPSE
  5
162
330
1F
100
AcDbEntity
  8
1
100
AcDbEllipse
 10
297.904842
 20
283.010644
 30
0.0
 11
-0.9886409802927996
 21
-4.901284424728451
 31
0.0
210
0.0
220
0.0
230
0.9999999999999998
 40
0.142198
 41
4.201699852659531
 42
5.348332758452957
  0
ELLIPSE
  5
163
330
1F
100
AcDbEntity
  8
1
100
AcDbEllipse
 10
349.679885
 20
292.832422
 30
0.0
 11
-1.056379617302438
 21
0.3066954583099558
 31
0.0
210
0.0
220
0.0
230
0.9999999999999998
 40
0.9980430000000001
 41
2.733665185986033
 42
2.945522769249888
  0
ELLIPSE
  5
164
330
1F
100
AcDbEntity
  8
1
100
AcDbEllipse
 10
353.958463
 20
289.162701
 30
0.0
 11
0.000105497329201
 21
-0.3000466005985855
 31
0.0
210
0.0
220
0.0
230
1.0
 40
0.140519
 41
3.139090475968913
 42
4.709886802767381
  0
ELLIPSE
  5
165
330
1F
100
AcDbEntity
  8
1
100
AcDbEllipse
 10
354.013029
 20
292.301206
 30
0.0
 11
0.0003738521157044
 21
0.5004814630072009
 31
0.0
210
0.0
220
0.0
230
1.0
 40
0.140037
 41
3.207076017541353
 42
4.649223260752283
  0
ELLIPSE
  5
166
330
1F
100
AcDbEntity
  8
1
100
AcDbEllipse
 10
353.750536
 20
283.773955
 30
0.0
 11
0.0323262014611829
 21
0.2994966855051676
 31
0.0
210
0.0
220
0.0
230
1.0
 40
0.139171
 41
1.583568179247138
 42
3.154364506042516
  0
ELLIPSE
  5
167
330
1F
100
AcDbEntity
  8
1
100
AcDbEllipse
 10
354.601827
 20
288.907994
 30
0.0
 11
0.9470892324277759
 21
8.749010420597887
 31
0.0
210
0.0
220
0.0
230
0.9999999999999998
 40
0.138944
 41
1.957168253466731
 42
3.156632395651087
  0
ELLIPSE
  5
168
330
1F
100
AcDbEntity
  8
1
100
AcDbEllipse
 10
354.264842
 20
288.907994
 30
0.0
 11
0.0
 21
8.750000000155168
 31
0.0
210
0.0
220
0.0
230
1.0
 40
0.140541
 41
1.421966010400395
 42
1.94212851139858
  0
ELLIPSE
  5
169
330
1F
100
AcDbEntity
  8
1
100
AcDbEllipse
 10
349.719639
 20
292.969349
 30
0.0
 11
-1.056379617302438
 21
0.3066954583099557
 31
0.0
210
0.0
220
0.0
230
0.9999999999999998
 40
0.9980430000000001
 41
0.0735242203945377
 42
1.897513326378699
  0
ELLIPSE
  5
16A
330
1F
100
AcDbEntity
  8
1
100
AcDbEllipse
 10
349.719639
 20
292.969349
 30
0.0
 11
-1.056379617302438
 21
0.3066954583099557
 31
0.0
210
0.0
220
0.0
230
0.9999999999999998
 40
0.9980430000000001
 41
1.897513326378699
 42
2.796696315791692
  0
ELLIPSE
  5
16B
330
1F
100
AcDbEntity
  8
1
100
AcDbEllipse
 10
349.679885
 20
292.832422
 30
0.0
 11
-1.056379617302438
 21
0.3066954583099558
 31
0.0
210
0.0
220
0.0
230
0.9999999999999998
 40
0.9980430000000001
 41
5.55368002083734
 42
5.78057693738242
  0
ELLIPSE
  5
16C
330
1F
100
AcDbEntity
  8
1
100
AcDbEllipse
 10
349.674654
 20
292.814405
 30
0.0
 11
1.056379617302438
 21
-0.3066954583099561
 31
0.0
210
0.0
220
0.0
230
0.9999999999999996
 40
0.9980430000000001
 41
2.638984283792602
 42
4.062328256389582
  0
ELLIPSE
  5
16D
330
1F
100
AcDbEntity
  8
1
100
AcDbEllipse
 10
349.119283
 20
288.907996
 30
0.0
 11
0.3688416781100962
 21
-8.749994850704974
 31
0.0
210
0.0
220
0.0
230
1.0
 40
0.01997
 41
3.280070820598948
 42
3.314515582445312
  0
ELLIPSE
  5
16E
330
1F
100
AcDbEntity
  8
1
100
AcDbEllipse
 10
291.827015
 20
288.909623
 30
0.0
 11
501.7152037670118
 21
-0.5258610706450338
 31
0.0
210
0.0
220
0.0
230
1.0
 40
0.017405
 41
1.457161367203631
 42
1.460144067684912
  0
ELLIPSE
  5
16F
330
1F
100
AcDbEntity
  8
1
100
AcDbEllipse
 10
348.760089
 20
290.670833
 30
0.0
 11
-2.417094866149875
 21
-0.1164070286122901
 31
0.0
210
0.0
220
0.0
230
1.0
 40
0.221493
 41
2.118163074434076
 42
4.158854622176898
  0
ELLIPSE
  5
170
330
1F
100
AcDbEntity
  8
1
100
AcDbEllipse
 10
285.24972
 20
288.907994
 30
0.0
 11
186.3246282474779
 21
8.53310259703119
 31
0.0
210
0.0
220
0.0
230
0.9999999999999996
 40
0.010391
 41
5.067102848473755
 42
5.084338406559521
  0
ELLIPSE
  5
171
330
1F
100
AcDbEntity
  8
1
100
AcDbEllipse
 10
352.061444
 20
295.876794
 30
0.0
 11
-0.0808842510859804
 21
0.023482876847074
 31
0.0
210
0.0
220
0.0
230
0.9999999999999998
 40
0.998043
 41
2.105682910809228
 42
2.944711102986785
  0
ELLIPSE
  5
172
330
1F
100
AcDbEntity
  8
1
100
AcDbEllipse
 10
352.210918
 20
295.799153
 30
0.0
 11
-0.0808842510859806
 21
0.023482876847074
 31
0.0
210
0.0
220
0.0
230
1.0
 40
0.998043
 41
4.723676788800518
 42
6.086303756576462
  0
ELLIPSE
  5
173
330
1F
100
AcDbEntity
  8
1
100
AcDbEllipse
 10
352.11793
 20
295.464786
 30
0.0
 11
-0.4148322450692029
 21
0.120436974965622
 31
0.0
210
0.0
220
0.0
230
1.0
 40
0.9980429999999998
 41
3.783739295164381
 42
4.723676788800484
  0
ELLIPSE
  5
174
330
1F
100
AcDbEntity
  8
1
100
AcDbEllipse
 10
352.443313
 20
295.586759
 30
0.0
 11
-0.0808842510859803
 21
0.023482876847074
 31
0.0
210
0.0
220
0.0
230
0.9999999999999998
 40
0.998043
 41
2.421112327388414
 42
3.783739295164318
  0
ELLIPSE
  5
175
330
1F
100
AcDbEntity
  8
1
100
AcDbEllipse
 10
352.533955
 20
295.444948
 30
0.0
 11
-0.0808842510859804
 21
0.023482876847074
 31
0.0
210
0.0
220
0.0
230
0.9999999999999998
 40
0.998043
 41
5.562704980978094
 42
6.401733173155877
  0
ELLIPSE
  5
176
330
1F
100
AcDbEntity
  8
1
100
AcDbEllipse
 10
352.877004
 20
295.388093
 30
0.0
 11
-0.4148322450692027
 21
0.1204369749656219
 31
0.0
210
0.0
220
0.0
230
1.0
 40
0.9980430000000001
 41
0.1185478659762912
 42
1.058485359612443
  0
ELLIPSE
  5
177
330
1F
100
AcDbEntity
  8
1
100
AcDbEllipse
 10
352.628964
 20
295.145115
 30
0.0
 11
-0.0808842510859804
 21
0.023482876847074
 31
0.0
210
0.0
220
0.0
230
0.9999999999999998
 40
0.998043
 41
1.058485359612173
 42
1.897513551789601
  0
ELLIPSE
  5
178
330
1F
100
AcDbEntity
  8
1
100
AcDbEllipse
 10
352.636487
 20
294.977131
 30
0.0
 11
-0.0808842510859806
 21
0.023482876847074
 31
0.0
210
0.0
220
0.0
230
1.0
 40
0.998043
 41
3.676479237603893
 42
5.039106205380088
  0
ELLIPSE
  5
179
330
1F
100
AcDbEntity
  8
1
100
AcDbEllipse
 10
352.299858
 20
294.890648
 30
0.0
 11
-0.4148322450692029
 21
0.120436974965622
 31
0.0
210
0.0
220
0.0
230
1.0
 40
0.9980429999999998
 41
2.736541743967745
 42
3.676479237603874
  0
ELLIPSE
  5
17A
330
1F
100
AcDbEntity
  8
1
100
AcDbEllipse
 10
352.568652
 20
294.6702
 30
0.0
 11
-0.0808842510859803
 21
0.023482876847074
 31
0.0
210
0.0
220
0.0
230
0.9999999999999998
 40
0.998043
 41
1.373914776191939
 42
2.736541743967829
  0
ELLIPSE
  5
17B
330
1F
100
AcDbEntity
  8
1
100
AcDbEllipse
 10
352.49104
 20
294.521054
 30
0.0
 11
-0.0808842510859804
 21
0.023482876847074
 31
0.0
210
0.0
220
0.0
230
0.9999999999999998
 40
0.998043
 41
4.515507429781584
 42
5.354535621959021
  0
ELLIPSE
  5
17C
330
1F
100
AcDbEntity
  8
1
100
AcDbEllipse
 10
352.613556
 20
294.196081
 30
0.0
 11
-0.4148322450692027
 21
0.1204369749656219
 31
0.0
210
0.0
220
0.0
230
1.0
 40
0.9980430000000001
 41
5.354535621959266
 42
6.294473115595376
  0
ELLIPSE
  5
17D
330
1F
100
AcDbEntity
  8
1
100
AcDbEllipse
 10
352.278537
 20
294.289266
 30
0.0
 11
-0.0808842510859804
 21
0.023482876847074
 31
0.0
210
0.0
220
0.0
230
0.9999999999999998
 40
0.998043
 41
0.0112878084158473
 42
0.8503160005933908
  0
ELLIPSE
  5
17E
330
1F
100
AcDbEntity
  8
1
100
AcDbEllipse
 10
352.1365859999999
 20
294.198923
 30
0.0
 11
-0.0808842510859806
 21
0.023482876847074
 31
0.0
210
0.0
220
0.0
230
1.0
 40
0.998043
 41
2.629281686407085
 42
3.99190865418331
  0
ELLIPSE
  5
17F
330
1F
100
AcDbEntity
  8
1
100
AcDbEllipse
 10
351.892946
 20
294.446808
 30
0.0
 11
-0.4148322450692029
 21
0.120436974965622
 31
0.0
210
0.0
220
0.0
230
1.0
 40
0.9980429999999998
 41
1.68934419277117
 42
2.629281686407276
  0
ELLIPSE
  5
180
330
1F
100
AcDbEntity
  8
1
100
AcDbEllipse
 10
351.8363569999999
 20
294.104386
 30
0.0
 11
-0.0808842510859803
 21
0.023482876847074
 31
0.0
210
0.0
220
0.0
230
0.9999999999999998
 40
0.998043
 41
0.3267172249951207
 42
1.689344192771118
  0
ELLIPSE
  5
181
330
1F
100
AcDbEntity
  8
1
100
AcDbEllipse
 10
351.668102
 20
294.097051
 30
0.0
 11
-0.0808842510859804
 21
0.023482876847074
 31
0.0
210
0.0
220
0.0
230
0.9999999999999998
 40
0.998043
 41
3.468309878585018
 42
4.307338070762819
  0
ELLIPSE
  5
182
330
1F
100
AcDbEntity
  8
1
100
AcDbEllipse
 10
351.4475700000001
 20
293.828933
 30
0.0
 11
-0.4148322450692027
 21
0.1204369749656219
 31
0.0
210
0.0
220
0.0
230
1.0
 40
0.9980430000000001
 41
4.307338070762705
 42
5.247275564398805
  0
ELLIPSE
  5
183
330
1F
100
AcDbEntity
  8
1
100
AcDbEllipse
 10
351.711018
 20
295.020945
 30
0.0
 11
1.104396872634366
 21
-0.3206361609604087
 31
0.0
210
0.0
220
0.0
230
1.0
 40
0.9980429999999998
 41
0.0
 42
6.283185307179585
  0
ELLIPSE
  5
184
330
1F
100
AcDbEntity
  8
1
100
AcDbEllipse
 10
351.823986
 20
295.185471
 30
0.0
 11
1.538183838893569
 21
-0.4465762020655968
 31
0.0
210
0.0
220
0.0
230
1.0
 40
0.998043
 41
2.150902614737451
 42
3.276181700922939
  0
ELLIPSE
  5
185
330
1F
100
AcDbEntity
  8
1
100
AcDbEllipse
 10
351.823986
 20
295.185471
 30
0.0
 11
1.538183838893569
 21
-0.4465762020655968
 31
0.0
210
0.0
220
0.0
230
1.0
 40
0.998043
 41
5.479518323515915
 42
6.283185307179585
  0
ELLIPSE
  5
186
330
1F
100
AcDbEntity
  8
1
100
AcDbEllipse
 10
351.823986
 20
295.185471
 30
0.0
 11
1.538183838893569
 21
-0.4465762020655968
 31
0.0
210
0.0
220
0.0
230
1.0
 40
0.998043
 41
0.0
 42
0.9906730199109155
  0
ELLIPSE
  5
187
330
1F
100
AcDbEntity
  8
1
100
AcDbEllipse
 10
349.590193
 20
292.693553
 30
0.0
 11
0.763303727887795
 21
0.8338791567162303
 31
0.0
210
0.0
220
0.0
230
0.9999999999999998
 40
0.01961
 41
0.9087373659653259
 42
1.531105854551115
  0
ELLIPSE
  5
188
330
1F
100
AcDbEntity
  8
1
100
AcDbEllipse
 10
351.814658
 20
295.153342
 30
0.0
 11
1.56511015048915
 21
-0.4543936356284399
 31
0.0
210
0.0
220
0.0
230
1.0
 40
0.998043
 41
1.897513328192726
 42
3.492264448235468
  0
ELLIPSE
  5
189
330
1F
100
AcDbEntity
  8
1
100
AcDbEllipse
 10
351.814658
 20
295.153342
 30
0.0
 11
1.56511015048915
 21
-0.4543936356284399
 31
0.0
210
0.0
220
0.0
230
1.0
 40
0.998043
 41
5.125205695732646
 42
6.283185307179585
  0
ELLIPSE
  5
18A
330
1F
100
AcDbEntity
  8
1
100
AcDbEllipse
 10
351.814658
 20
295.153342
 30
0.0
 11
1.56511015048915
 21
-0.4543936356284399
 31
0.0
210
0.0
220
0.0
230
1.0
 40
0.998043
 41
0.0
 42
1.89751325635723
  0
ELLIPSE
  5
18B
330
1F
100
AcDbEntity
  8
1
100
AcDbEllipse
 10
349.383292
 20
297.313527
 30
0.0
 11
0.8343754050216801
 21
-0.7637579761692699
 31
0.0
210
0.0
220
0.0
230
1.0
 40
0.039664
 41
0.9680117005228767
 42
1.590380188932676
  0
ELLIPSE
  5
18C
330
1F
100
AcDbEntity
  8
1
100
AcDbEllipse
 10
354.010702
 20
297.515239
 30
0.0
 11
0.7633037276556954
 21
0.8338791564693696
 31
0.0
210
0.0
220
0.0
230
0.9999999999999998
 40
0.01961
 41
1.531105854339809
 42
2.153474343102913
  0
ELLIPSE
  5
18D
330
1F
100
AcDbEntity
  8
1
100
AcDbEllipse
 10
354.217604
 20
292.895265
 30
0.0
 11
0.8343754048149818
 21
-0.7637579759888097
 31
0.0
210
0.0
220
0.0
230
1.0
 40
0.039664
 41
1.590380189085595
 42
2.212748677638344
  0
ELLIPSE
  5
18E
330
1F
100
AcDbEntity
  8
1
100
AcDbEllipse
 10
351.811781
 20
295.143432
 30
0.0
 11
-1.656595308951551
 21
0.4809542414406128
 31
0.0
210
0.0
220
0.0
230
0.9999999999999998
 40
0.998043
 41
0.0
 42
6.283185307179585
  0
SPLINE
  5
194
330
1F
100
AcDbEntity
  8
1
100
AcDbSpline
210
0.0
220
0.0
230
1.0
 70
     8
 71
     3
 72
    24
 73
    20
 74
     0
 42
0.000000001
 43
0.0000000001
 40
0.0
 40
0.0
 40
0.0
 40
0.0
 40
0.1250000000000005
 40
0.1250000000000005
 40
0.2500000000000007
 40
0.2500000000000007
 40
0.3750000000000009
 40
0.3750000000000009
 40
0.5000000000000013
 40
0.5000000000000013
 40
0.6250000000000015
 40
0.6250000000000015
 40
0.7500000000000016
 40
0.7500000000000016
 40
0.8125000000000012
 40
0.8125000000000012
 40
0.8750000000000007
 40
0.8750000000000007
 40
1.0
 40
1.0
 40
1.0
 40
1.0
 10
279.4048419452957
 20
281.3794621076206
 30
0.0
 10
279.2379729285086
 20
281.2933703333616
 30
0.0
 10
279.0776754346595
 20
281.2003154741981
 30
0.0
 10
278.769959212119
 20
281.0009622588199
 30
0.0
 10
278.6225404779378
 20
280.8946629484396
 30
0.0
 10
278.3408298654987
 20
280.6689968524958
 30
0.0
 10
278.2065340367436
 20
280.5496322182121
 30
0.0
 10
277.9518767686048
 20
280.2974933006913
 30
0.0
 10
277.834078303573
 20
280.1672532768369
 30
0.0
 10
277.6172278974245
 20
279.8990584128035
 30
0.0
 10
277.5181755743766
 20
279.7611025835715
 30
0.0
 10
277.3392593606213
 20
279.4777434845843
 30
0.0
 10
277.2593895442398
 20
279.3323416525301
 30
0.0
 10
277.1549355773428
 20
279.1085851552151
 30
0.0
 10
277.1229965017495
 20
279.0337168691773
 30
0.0
 10
277.064925071582
 20
278.8836989465275
 30
0.0
 10
277.0387748214268
 20
278.8085109199827
 30
0.0
 10
276.9689782900962
 20
278.5824691242575
 30
0.0
 10
276.9339553906533
 20
278.4311426583814
 30
0.0
 10
276.9107921194839
 20
278.2792808185097
 30
0.0
  0
SPLINE
  5
195
330
1F
100
AcDbEntity
  8
1
100
AcDbSpline
210
0.0
220
0.0
230
1.0
 70
     8
 71
     3
 72
    14
 73
    10
 74
     0
 42
0.000000001
 43
0.0000000001
 40
0.0
 40
0.0
 40
0.0
 40
0.0
 40
0.25
 40
0.25
 40
0.5
 40
0.5
 40
0.75
 40
0.75
 40
1.0
 40
1.0
 40
1.0
 40
1.0
 10
284.0543368819074
 20
284.5816795757884
 30
0.0
 10
284.310727574041
 20
284.719436282915
 30
0.0
 10
284.5757076882764
 20
284.8486374378294
 30
0.0
 10
285.1226368849152
 20
285.0896831175491
 30
0.0
 10
285.4045862905107
 20
285.2015294475016
 30
0.0
 10
285.9856200622387
 20
285.4071534895245
 30
0.0
 10
286.2847038862124
 20
285.5009346909441
 30
0.0
 10
286.9005496861787
 20
285.6691707054948
 30
0.0
 10
287.2173104757844
 20
285.7436309072356
 30
0.0
 10
287.543383955635
 20
285.8074599899489
 30
0.0
  0
SPLINE
  5
196
330
1F
100
AcDbEntity
  8
1
100
AcDbSpline
210
0.0
220
0.0
230
1.0
 70
     8
 71
     3
 72
    21
 73
    17
 74
     0
 42
0.000000001
 43
0.0000000001
 40
0.0
 40
0.0
 40
0.0
 40
0.0
 40
0.1250000000000003
 40
0.1250000000000003
 40
0.2500000000000007
 40
0.3750000000000011
 40
0.3750000000000011
 40
0.500000000000001
 40
0.500000000000001
 40
0.6250000000000008
 40
0.6250000000000008
 40
0.7500000000000006
 40
0.7500000000000006
 40
0.8750000000000003
 40
0.8750000000000003
 40
1.0
 40
1.0
 40
1.0
 40
1.0
 10
284.0543368819074
 20
284.5816795757884
 30
0.0
 10
283.8563864204575
 20
284.4753223460598
 30
0.0
 10
283.6587041456115
 20
284.367312406063
 30
0.0
 10
283.2640670868132
 20
284.146948080403
 30
0.0
 10
282.8701580056898
 20
283.9222377430667
 30
0.0
 10
282.478109916556
 20
283.6864266326062
 30
0.0
 10
282.0871943325429
 20
283.4437133594498
 30
0.0
 10
281.8923029902614
 20
283.3189064139561
 30
0.0
 10
281.5038476203032
 20
283.0608846067081
 30
0.0
 10
281.3102836761212
 20
282.9276719149549
 30
0.0
 10
280.9246660246765
 20
282.6511369084745
 30
0.0
 10
280.7326122809535
 20
282.5078189161729
 30
0.0
 10
280.3501853276327
 20
282.2090817813923
 30
0.0
 10
280.1598119392957
 20
282.0536707210971
 30
0.0
 10
279.7809064784573
 20
281.728287721921
 30
0.0
 10
279.5923740119204
 20
281.5583314225291
 30
0.0
 10
279.4048419452957
 20
281.3794621076206
 30
0.0
  0
SPLINE
  5
197
330
1F
100
AcDbEntity
  8
1
100
AcDbSpline
210
0.0
220
0.0
230
1.0
 70
     8
 71
     3
 72
    20
 73
    16
 74
     0
 42
0.000000001
 43
0.0000000001
 40
0.0
 40
0.0
 40
0.0
 40
0.0
 40
0.2500000000000115
 40
0.2500000000000115
 40
0.3750000000000095
 40
0.3750000000000095
 40
0.5000000000000077
 40
0.5000000000000077
 40
0.6250000000000058
 40
0.6250000000000058
 40
0.7500000000000038
 40
0.7500000000000038
 40
0.8750000000000019
 40
0.8750000000000019
 40
1.0
 40
1.0
 40
1.0
 40
1.0
 10
351.3048744063744
 20
294.2694295967272
 30
0.0
 10
351.3004781355447
 20
294.2608904181241
 30
0.0
 10
351.2948404136482
 20
294.2532927746797
 30
0.0
 10
351.2845261216401
 20
294.2433092088237
 30
0.0
 10
351.2807762700445
 20
294.2402380321988
 30
0.0
 10
351.2728955906527
 20
294.2348150111105
 30
0.0
 10
351.2687349325387
 20
294.2324318214192
 30
0.0
 10
351.259953575414
 20
294.2283534641515
 30
0.0
 10
351.2553556144648
 20
294.2266778185283
 30
0.0
 10
351.2460116757372
 20
294.2241581547234
 30
0.0
 10
351.2412293667257
 20
294.2232956673531
 30
0.0
 10
351.231432097584
 20
294.2224131267604
 30
0.0
 10
351.2264968951001
 20
294.2224059361938
 30
0.0
 10
351.216743142034
 20
294.2232541292963
 30
0.0
 10
351.2118950164013
 20
294.2241062152339
 30
0.0
 10
351.2070778023506
 20
294.2254141612641
 30
0.0
  0
SPLINE
  5
198
330
1F
100
AcDbEntity
  8
1
100
AcDbSpline
210
0.0
220
0.0
230
1.0
 70
     8
 71
     3
 72
    14
 73
    10
 74
     0
 42
0.000000001
 43
0.0000000001
 40
0.0
 40
0.0
 40
0.0
 40
0.0
 40
0.25
 40
0.25
 40
0.5
 40
0.5
 40
0.75
 40
0.75
 40
1.0
 40
1.0
 40
1.0
 40
1.0
 10
351.3048744063744
 20
294.2694295967272
 30
0.0
 10
351.3076104513424
 20
294.2747440046773
 30
0.0
 10
351.3108918347144
 20
294.2797746312692
 30
0.0
 10
351.318367450627
 20
294.289020938506
 30
0.0
 10
351.3225363683169
 20
294.2932218285135
 30
0.0
 10
351.3317503046633
 20
294.3007683367603
 30
0.0
 10
351.336823144801
 20
294.3041114926889
 30
0.0
 10
351.3474416021394
 20
294.3096003762863
 30
0.0
 10
351.3530352003452
 20
294.3117941615079
 30
0.0
 10
351.3589395005744
 20
294.3133900972271
 30
0.0
  0
SPLINE
  5
199
330
1F
100
AcDbEntity
  8
1
100
AcDbSpline
210
0.0
220
0.0
230
1.0
 70
     8
 71
     3
 72
    19
 73
    15
 74
     0
 42
0.000000001
 43
0.0000000001
 40
0.0
 40
0.0
 40
0.0
 40
0.0
 40
0.2499999999999991
 40
0.2499999999999991
 40
0.3749999999999988
 40
0.3749999999999988
 40
0.4999999999999984
 40
0.6249999999999978
 40
0.6249999999999978
 40
0.6874999999999983
 40
0.6874999999999983
 40
0.7499999999999986
 40
0.7499999999999986
 40
1.0
 40
1.0
 40
1.0
 40
1.0
 10
352.2140806153277
 20
294.2025465881793
 30
0.0
 10
352.1897566282925
 20
294.178574764083
 30
0.0
 10
352.1630232990284
 20
294.1578258167727
 30
0.0
 10
352.1193302599992
 20
294.1315111836595
 30
0.0
 10
352.1041320509456
 20
294.1235527804769
 30
0.0
 10
352.0732721196048
 20
294.1096582130129
 30
0.0
 10
352.041769243062
 20
294.0976662613285
 30
0.0
 10
352.0089947341834
 20
294.0894369541123
 30
0.0
 10
351.9839224193536
 20
294.0847192330585
 30
0.0
 10
351.9754753465743
 20
294.083390797391
 30
0.0
 10
351.9586457168331
 20
294.081256828801
 30
0.0
 10
351.9502348370372
 20
294.0804452219067
 30
0.0
 10
351.9081999149664
 20
294.0776391010171
 30
0.0
 10
351.8746332706405
 20
294.0793490045548
 30
0.0
 10
351.8411335709497
 20
294.0851123262099
 30
0.0
  0
SPLINE
  5
19A
330
1F
100
AcDbEntity
  8
1
100
AcDbSpline
210
0.0
220
0.0
230
1.0
 70
     8
 71
     3
 72
    20
 73
    16
 74
     0
 42
0.000000001
 43
0.0000000001
 40
0.0
 40
0.0
 40
0.0
 40
0.0
 40
0.1249999999999887
 40
0.1249999999999887
 40
0.2499999999999772
 40
0.3124999999999744
 40
0.3124999999999744
 40
0.3749999999999715
 40
0.3749999999999715
 40
0.4999999999999605
 40
0.6249999999999496
 40
0.6249999999999496
 40
0.7499999999999387
 40
0.7499999999999387
 40
1.0
 40
1.0
 40
1.0
 40
1.0
 10
352.2168087883555
 20
294.3787094416782
 30
0.0
 10
352.2213636524626
 20
294.3950773840473
 30
0.0
 10
352.2268764877377
 20
294.411220958937
 30
0.0
 10
352.2396622312111
 20
294.4425984619782
 30
0.0
 10
352.2505933190696
 20
294.4655406816187
 30
0.0
 10
352.2635863130623
 20
294.4875831191039
 30
0.0
 10
352.2727216674825
 20
294.5020722275671
 30
0.0
 10
352.2775455561338
 20
294.5092405460968
 30
0.0
 10
352.2925677457168
 20
294.5301728686303
 30
0.0
 10
352.3140654199904
 20
294.5566023052566
 30
0.0
 10
352.3384183643399
 20
294.5801492095052
 30
0.0
 10
352.3642202707903
 20
294.6022350966703
 30
0.0
 10
352.3779023752759
 20
294.6125661491739
 30
0.0
 10
352.4199053124196
 20
294.6404688040656
 30
0.0
 10
352.4495289535356
 20
294.6553431309372
 30
0.0
 10
352.4807803622427
 20
294.6666374432594
 30
0.0
  0
SPLINE
  5
19B
330
1F
100
AcDbEntity
  8
1
100
AcDbSpline
210
0.0
220
0.0
230
1.0
 70
     8
 71
     3
 72
    14
 73
    10
 74
     0
 42
0.000000001
 43
0.0000000001
 40
0.0
 40
0.0
 40
0.0
 40
0.0
 40
0.25
 40
0.25
 40
0.5
 40
0.5
 40
0.75
 40
0.75
 40
1.0
 40
1.0
 40
1.0
 40
1.0
 10
352.4807803622427
 20
294.6666374432594
 30
0.0
 10
352.4864436716971
 20
294.6686841729398
 30
0.0
 10
352.4923019896003
 20
294.6700833504122
 30
0.0
 10
352.5039648127564
 20
294.6715828632382
 30
0.0
 10
352.5097919160283
 20
294.6717015745036
 30
0.0
 10
352.5214413739878
 20
294.6707118365846
 30
0.0
 10
352.5272475740757
 20
294.669587108814
 30
0.0
 10
352.5383442471015
 20
294.6662171810307
 30
0.0
 10
352.5437028447826
 20
294.6639692422605
 30
0.0
 10
352.548865962429
 20
294.6611399815757
 30
0.0
  0
SPLINE
  5
19C
330
1F
100
AcDbEntity
  8
1
100
AcDbSpline
210
0.0
220
0.0
230
1.0
 70
     8
 71
     3
 72
    18
 73
    14
 74
     0
 42
0.000000001
 43
0.0000000001
 40
0.0
 40
0.0
 40
0.0
 40
0.0
 40
0.125
 40
0.125
 40
0.25
 40
0.25
 40
0.375
 40
0.375
 40
0.5
 40
0.5
 40
0.75
 40
0.75
 40
1.0
 40
1.0
 40
1.0
 40
1.0
 10
352.6522386136917
 20
294.6804690969855
 30
0.0
 10
352.6490813272772
 20
294.6766496642268
 30
0.0
 10
352.6456392647164
 20
294.6731820134264
 30
0.0
 10
352.6382157019957
 20
294.6669143196518
 30
0.0
 10
352.6341906229358
 20
294.6640926090778
 30
0.0
 10
352.6258375374987
 20
294.659279377074
 30
0.0
 10
352.6215144108754
 20
294.6572776061841
 30
0.0
 10
352.6125899678293
 20
294.6540468655631
 30
0.0
 10
352.6079435820287
 20
294.6528117760237
 30
0.0
 10
352.5939269307468
 20
294.6503660673947
 30
0.0
 10
352.5845212347828
 20
294.6503698352486
 30
0.0
 10
352.5659465280166
 20
294.6535266636109
 30
0.0
 10
352.5571581680409
 20
294.6565960581296
 30
0.0
 10
352.548865962429
 20
294.6611399815757
 30
0.0
  0
SPLINE
  5
19D
330
1F
100
AcDbEntity
  8
1
100
AcDbSpline
210
0.0
220
0.0
230
1.0
 70
     8
 71
     3
 72
    10
 73
     6
 74
     0
 42
0.000000001
 43
0.0000000001
 40
0.0
 40
0.0
 40
0.0
 40
0.0
 40
0.1421407035813132
 40
0.1421407035813132
 40
1.0
 40
1.0
 40
1.0
 40
1.0
 10
352.7136150115671
 20
294.7799682721966
 30
0.0
 10
352.7113614073808
 20
294.7748541819994
 30
0.0
 10
352.7090133637561
 20
294.7697977267875
 30
0.0
 10
352.691838563042
 20
294.7346244083392
 30
0.0
 10
352.6737536206868
 20
294.7064962328657
 30
0.0
 10
352.6522386136917
 20
294.6804690969855
 30
0.0
  0
SPLINE
  5
19E
330
1F
100
AcDbEntity
  8
1
100
AcDbSpline
210
0.0
220
0.0
230
1.0
 70
     8
 71
     3
 72
    14
 73
    10
 74
     0
 42
0.000000001
 43
0.0000000001
 40
0.0
 40
0.0
 40
0.0
 40
0.0
 40
0.1303361722905663
 40
0.1303361722905663
 40
0.4202241148603775
 40
0.4202241148603775
 40
0.7101120574301888
 40
0.7101120574301888
 40
1.0
 40
1.0
 40
1.0
 40
1.0
 10
352.4724454026683
 20
295.5351577009391
 30
0.0
 10
352.4731852531778
 20
295.5377060112562
 30
0.0
 10
352.474044381368
 20
295.5402009467998
 30
0.0
 10
352.4771683335427
 20
295.5480167386407
 30
0.0
 10
352.4798615991632
 20
295.5530868521274
 30
0.0
 10
352.4862972822353
 20
295.5626050942743
 30
0.0
 10
352.4900459042421
 20
295.5670311398494
 30
0.0
 10
352.4982562659066
 20
295.5748757226457
 30
0.0
 10
352.5027530241796
 20
295.5783514562762
 30
0.0
 10
352.5076544134758
 20
295.5813664795006
 30
0.0
  0
SPLINE
  5
19F
330
1F
100
AcDbEntity
  8
1
100
AcDbSpline
210
0.0
220
0.0
230
1.0
 70
     8
 71
     3
 72
     8
 73
     4
 74
     0
 42
0.000000001
 43
0.0000000001
 40
0.0
 40
0.0
 40
0.0
 40
0.0
 40
1.0
 40
1.0
 40
1.0
 40
1.0
 10
352.5257967240278
 20
295.5965929023158
 30
0.0
 10
352.5205253600685
 20
295.5906352785692
 30
0.0
 10
352.5144750535903
 20
295.5855621038652
 30
0.0
 10
352.5076544134758
 20
295.5813664795006
 30
0.0
  0
SPLINE
  5
1A0
330
1F
100
AcDbEntity
  8
1
100
AcDbSpline
210
0.0
220
0.0
230
1.0
 70
     8
 71
     3
 72
    18
 73
    14
 74
     0
 42
0.000000001
 43
0.0000000001
 40
0.0
 40
0.0
 40
0.0
 40
0.0
 40
0.125
 40
0.125
 40
0.25
 40
0.25
 40
0.375
 40
0.375
 40
0.5
 40
0.5
 40
0.75
 40
0.75
 40
1.0
 40
1.0
 40
1.0
 40
1.0
 10
351.8411335709497
 20
294.0851123262099
 30
0.0
 10
351.836217728201
 20
294.0859580526858
 30
0.0
 10
351.8314586792569
 20
294.0872315347888
 30
0.0
 10
351.8222384513817
 20
294.0905894989721
 30
0.0
 10
351.8177360695252
 20
294.0927013057058
 30
0.0
 10
351.8092888069596
 20
294.0976118014655
 30
0.0
 10
351.8053389093045
 20
294.10040033616
 30
0.0
 10
351.7979619814338
 20
294.1066121604001
 30
0.0
 10
351.7945066637054
 20
294.1100716584592
 30
0.0
 10
351.7851823234901
 20
294.1211588466367
 30
0.0
 10
351.78034353428
 20
294.129427925538
 30
0.0
 10
351.7734941431069
 20
294.1473596331739
 30
0.0
 10
351.7716100984249
 20
294.1566408110496
 30
0.0
 10
351.7712495192446
 20
294.1662316015352
 30
0.0
  0
SPLINE
  5
1A1
330
1F
100
AcDbEntity
  8
1
100
AcDbSpline
210
0.0
220
0.0
230
1.0
 70
     8
 71
     3
 72
    14
 73
    10
 74
     0
 42
0.000000001
 43
0.0000000001
 40
0.0
 40
0.0
 40
0.0
 40
0.0
 40
0.25
 40
0.25
 40
0.5
 40
0.5
 40
0.75
 40
0.75
 40
1.0
 40
1.0
 40
1.0
 40
1.0
 10
351.7409311560826
 20
294.2288642039265
 30
0.0
 10
351.7456052993278
 20
294.2249248604491
 30
0.0
 10
351.7498236373516
 20
294.2204851541609
 30
0.0
 10
351.7571167111841
 20
294.2109932469812
 30
0.0
 10
351.7602182912542
 20
294.2059312222528
 30
0.0
 10
351.7653635886564
 20
294.1951901961679
 30
0.0
 10
351.7673856653727
 20
294.1895154155499
 30
0.0
 10
351.7701999353123
 20
294.1780525976723
 30
0.0
 10
351.7710250098589
 20
294.1722031678312
 30
0.0
 10
351.7712495192446
 20
294.1662316015352
 30
0.0
  0
SPLINE
  5
1A2
330
1F
100
AcDbEntity
  8
1
100
AcDbSpline
210
0.0
220
0.0
230
1.0
 70
     8
 71
     3
 72
    19
 73
    15
 74
     0
 42
0.000000001
 43
0.0000000001
 40
0.0
 40
0.0
 40
0.0
 40
0.0
 40
0.2499999999998851
 40
0.2499999999998851
 40
0.3749999999998722
 40
0.3749999999998722
 40
0.4999999999998594
 40
0.6249999999998467
 40
0.6249999999998467
 40
0.6874999999998427
 40
0.6874999999998427
 40
0.7499999999998386
 40
0.7499999999998386
 40
1.0
 40
1.0
 40
1.0
 40
1.0
 10
351.2070778023506
 20
294.2254141612641
 30
0.0
 10
351.1742450256079
 20
294.2343287537124
 30
0.0
 10
351.1429635124852
 20
294.2469738616627
 30
0.0
 10
351.0983601378585
 20
294.2715028991157
 30
0.0
 10
351.0838713228131
 20
294.2806424039051
 30
0.0
 10
351.0563967705608
 20
294.3003511387888
 30
0.0
 10
351.0302321666617
 20
294.3215844940637
 30
0.0
 10
351.0066582804844
 20
294.3458329291871
 30
0.0
 10
350.9899791449513
 20
294.365184622941
 30
0.0
 10
350.9845839855629
 20
294.3718369516092
 30
0.0
 10
350.9742751597628
 20
294.3853513946814
 30
0.0
 10
350.9693420059505
 20
294.3922350021192
 30
0.0
 10
350.9457608969177
 20
294.4272725545724
 30
0.0
 10
350.9303224606933
 20
294.4572597211582
 30
0.0
 10
350.9183958913208
 20
294.4892515649852
 30
0.0
  0
SPLINE
  5
1A3
330
1F
100
AcDbEntity
  8
1
100
AcDbSpline
210
0.0
220
0.0
230
1.0
 70
     8
 71
     3
 72
    20
 73
    16
 74
     0
 42
0.000000001
 43
0.0000000001
 40
0.0
 40
0.0
 40
0.0
 40
0.0
 40
0.1249999999999889
 40
0.1249999999999889
 40
0.2499999999999778
 40
0.3124999999999724
 40
0.3124999999999724
 40
0.3749999999999669
 40
0.3749999999999669
 40
0.499999999999956
 40
0.6249999999999451
 40
0.6249999999999451
 40
0.7499999999999343
 40
0.7499999999999343
 40
1.0
 40
1.0
 40
1.0
 40
1.0
 10
351.3589395005738
 20
294.3133900972272
 30
0.0
 10
351.3752490303112
 20
294.3177985724165
 30
0.0
 10
351.3918594932462
 20
294.3212503366515
 30
0.0
 10
351.4252127717243
 20
294.3261368702628
 30
0.0
 10
351.450416099187
 20
294.3283168458959
 30
0.0
 10
351.4759196364377
 20
294.328215309341
 30
0.0
 10
351.492991846149
 20
294.3276238740565
 30
0.0
 10
351.5015957163866
 20
294.3270628013256
 30
0.0
 10
351.5272047148853
 20
294.3245983345179
 30
0.0
 10
351.5608508243914
 20
294.3192528966662
 30
0.0
 10
351.5935246969145
 20
294.3098983834541
 30
0.0
 10
351.6257058372991
 20
294.2985111482118
 30
0.0
 10
351.6415950032238
 20
294.2917608605627
 30
0.0
 10
351.6871234287344
 20
294.2690753284238
 30
0.0
 10
351.7151384255287
 20
294.2506021823195
 30
0.0
 10
351.7409311560826
 20
294.2288642039265
 30
0.0
  0
SPLINE
  5
1A4
330
1F
100
AcDbEntity
  8
1
100
AcDbSpline
210
0.0
220
0.0
230
1.0
 70
     8
 71
     3
 72
    10
 73
     6
 74
     0
 42
0.000000001
 43
0.0000000001
 40
0.0
 40
0.0
 40
0.0
 40
0.0
 40
0.8075069295968473
 40
0.8075069295968473
 40
1.0
 40
1.0
 40
1.0
 40
1.0
 10
350.9183958913208
 20
294.4892515649853
 30
0.0
 10
350.9166457440824
 20
294.4939461620128
 30
0.0
 10
350.915339358851
 20
294.4987248671367
 30
0.0
 10
350.9142426892702
 20
294.5047412661744
 30
0.0
 10
350.9140556526035
 20
294.5059067274101
 30
0.0
 10
350.9138928089008
 20
294.507076890422
 30
0.0
  0
SPLINE
  5
1A5
330
1F
100
AcDbEntity
  8
1
100
AcDbSpline
210
0.0
220
0.0
230
1.0
 70
     8
 71
     3
 72
     8
 73
     4
 74
     0
 42
0.000000001
 43
0.0000000001
 40
0.0
 40
0.0
 40
0.0
 40
0.0
 40
1.0
 40
1.0
 40
1.0
 40
1.0
 10
350.9905835466345
 20
294.650044646125
 30
0.0
 10
350.9900254349588
 20
294.6467031182054
 30
0.0
 10
350.9892691881753
 20
294.6434026859233
 30
0.0
 10
350.988332660194
 20
294.6401768828805
 30
0.0
  0
SPLINE
  5
1A6
330
1F
100
AcDbEntity
  8
1
100
AcDbSpline
210
0.0
220
0.0
230
1.0
 70
     8
 71
     3
 72
    20
 73
    16
 74
     0
 42
0.000000001
 43
0.0000000001
 40
0.0
 40
0.0
 40
0.0
 40
0.0
 40
0.1250000000000221
 40
0.1250000000000221
 40
0.2500000000000442
 40
0.3125000000000579
 40
0.3125000000000579
 40
0.3750000000000716
 40
0.3750000000000716
 40
0.5000000000000573
 40
0.625000000000043
 40
0.625000000000043
 40
0.7500000000000286
 40
0.7500000000000286
 40
1.0
 40
1.0
 40
1.0
 40
1.0
 10
350.8725634650132
 20
295.0224985410069
 30
0.0
 10
350.8843866953117
 20
295.0107751098857
 30
0.0
 10
350.8955466666868
 20
294.9982974358097
 30
0.0
 10
350.9162227802854
 20
294.9721798105573
 30
0.0
 10
350.9305647784038
 20
294.951657772394
 30
0.0
 10
350.9431257171974
 20
294.9296879627224
 30
0.0
 10
350.9510916015856
 20
294.9147079467545
 30
0.0
 10
350.9548838650686
 20
294.9070211400099
 30
0.0
 10
350.9655004700868
 20
294.8837258927138
 30
0.0
 10
350.9776686774121
 20
294.8520181404513
 30
0.0
 10
350.9859696200552
 20
294.8190487069614
 30
0.0
 10
350.9923092558262
 20
294.7854403205418
 30
0.0
 10
350.994486671077
 20
294.7682565341273
 30
0.0
 10
350.9978980433272
 20
294.717274167388
 30
0.0
 10
350.996179459945
 20
294.6835485152902
 30
0.0
 10
350.9905835466345
 20
294.6500446461249
 30
0.0
  0
SPLINE
  5
1A7
330
1F
100
AcDbEntity
  8
1
100
AcDbSpline
210
0.0
220
0.0
230
1.0
 70
     8
 71
     3
 72
    14
 73
    10
 74
     0
 42
0.000000001
 43
0.0000000001
 40
0.0
 40
0.0
 40
0.0
 40
0.0
 40
0.25
 40
0.25
 40
0.5
 40
0.5
 40
0.75
 40
0.75
 40
1.0
 40
1.0
 40
1.0
 40
1.0
 10
350.8083303458118
 20
295.0462801428713
 30
0.0
 10
350.8142180311003
 20
295.046663202485
 30
0.0
 10
350.8201332907898
 20
295.0464331676601
 30
0.0
 10
350.8317178647931
 20
295.0447722687148
 30
0.0
 10
350.8373628510786
 20
295.0433554740781
 30
0.0
 10
350.8483561677284
 20
295.0393311048383
 30
0.0
 10
350.8537154433252
 20
295.0366987106376
 30
0.0
 10
350.863646422749
 20
295.0304129073228
 30
0.0
 10
350.8682829313288
 20
295.0267429429631
 30
0.0
 10
350.8725634650133
 20
295.0224985410065
 30
0.0
  0
SPLINE
  5
1A8
330
1F
100
AcDbEntity
  8
1
100
AcDbSpline
210
0.0
220
0.0
230
1.0
 70
     8
 71
     3
 72
    20
 73
    16
 74
     0
 42
0.000000001
 43
0.0000000001
 40
0.0
 40
0.0
 40
0.0
 40
0.0
 40
0.25
 40
0.25
 40
0.375
 40
0.375
 40
0.5
 40
0.5
 40
0.625
 40
0.625
 40
0.75
 40
0.75
 40
0.875
 40
0.875
 40
1.0
 40
1.0
 40
1.0
 40
1.0
 10
350.8083303458118
 20
295.0462801428713
 30
0.0
 10
350.7988706733745
 20
295.0456646856429
 30
0.0
 10
350.789601217155
 20
295.0465963726466
 30
0.0
 10
350.7759856681035
 20
295.0503112675056
 30
0.0
 10
350.7715119636879
 20
295.0519486242817
 30
0.0
 10
350.7629912865068
 20
295.055918798201
 30
0.0
 10
350.7589027026737
 20
295.0582611066777
 30
0.0
 10
350.7510864823849
 20
295.0636925678337
 30
0.0
 10
350.7473864354349
 20
295.0667724975129
 30
0.0
 10
350.7406243499316
 20
295.0734851879421
 30
0.0
 10
350.7375285254315
 20
295.0771396470934
 30
0.0
 10
350.7319424252953
 20
295.0850791726126
 30
0.0
 10
350.7295022231517
 20
295.0893029495679
 30
0.0
 10
350.7254173415478
 20
295.0980916870394
 30
0.0
 10
350.7237551364966
 20
295.1026804519275
 30
0.0
 10
350.7224981210858
 20
295.1074759088457
 30
0.0
  0
SPLINE
  5
1A9
330
1F
100
AcDbEntity
  8
1
100
AcDbSpline
210
0.0
220
0.0
230
1.0
 70
     8
 71
     3
 72
    12
 73
     8
 74
     0
 42
0.000000001
 43
0.0000000001
 40
0.0
 40
0.0
 40
0.0
 40
0.0
 40
0.5651704661287004
 40
0.5651704661287004
 40
0.8477556991930503
 40
0.8477556991930503
 40
1.0
 40
1.0
 40
1.0
 40
1.0
 10
350.7224981210858
 20
295.1074759088457
 30
0.0
 10
350.7139306627304
 20
295.1401603748297
 30
0.0
 10
350.709338841078
 20
295.1734045756936
 30
0.0
 10
350.7083844722824
 20
295.2240965474979
 30
0.0
 10
350.7090827100113
 20
295.241156038886
 30
0.0
 10
350.7116760102622
 20
295.26697077617
 30
0.0
 10
350.7128685054335
 20
295.2759579900782
 30
0.0
 10
350.7143437947299
 20
295.2848943548584
 30
0.0
  0
SPLINE
  5
1AA
330
1F
100
AcDbEntity
  8
1
100
AcDbSpline
210
0.0
220
0.0
230
1.0
 70
     8
 71
     3
 72
    14
 73
    10
 74
     0
 42
0.000000001
 43
0.0000000001
 40
0.0
 40
0.0
 40
0.0
 40
0.0
 40
0.25
 40
0.25
 40
0.5
 40
0.5
 40
0.75
 40
0.75
 40
1.0
 40
1.0
 40
1.0
 40
1.0
 10
351.2334939097287
 20
295.8633086456043
 30
0.0
 10
351.2366830647987
 20
295.8585053614592
 30
0.0
 10
351.239353911572
 20
295.8533726423849
 30
0.0
 10
351.2435357809699
 20
295.8427150037678
 30
0.0
 10
351.2450469742993
 20
295.8372181624906
 30
0.0
 10
351.2468937388687
 20
295.8258808429402
 30
0.0
 10
351.2472131668868
 20
295.8200182029894
 30
0.0
 10
351.2465857740514
 20
295.8084498804939
 30
0.0
 10
351.2456560744727
 20
295.8026810319944
 30
0.0
 10
351.2440567172337
 20
295.7969263292373
 30
0.0
  0
SPLINE
  5
1AB
330
1F
100
AcDbEntity
  8
1
100
AcDbSpline
210
0.0
220
0.0
230
1.0
 70
     8
 71
     3
 72
    10
 73
     6
 74
     0
 42
0.000000001
 43
0.0000000001
 40
0.0
 40
0.0
 40
0.0
 40
0.0
 40
0.7558547052966135
 40
0.7558547052966135
 40
1.0
 40
1.0
 40
1.0
 40
1.0
 10
351.2334939097287
 20
295.8633086456043
 30
0.0
 10
351.2283696115348
 20
295.8710265080881
 30
0.0
 10
351.2246790467677
 20
295.8793562837958
 30
0.0
 10
351.2216922500222
 20
295.8911816278326
 30
0.0
 10
351.2211206370375
 20
295.8941285927573
 30
0.0
 10
351.2207139889287
 20
295.8970948601638
 30
0.0
  0
SPLINE
  5
1AC
330
1F
100
AcDbEntity
  8
1
100
AcDbSpline
210
0.0
220
0.0
230
1.0
 70
    28
 71
     4
 72
    13
 73
     8
 74
     0
 42
0.000000001
 43
0.0000000001
 40
0.0
 40
0.0
 40
0.0
 40
0.0
 40
0.0
 40
0.3778715048712105
 40
0.3778715048712105
 40
0.3778715048712105
 40
1.0
 40
1.0
 40
1.0
 40
1.0
 40
1.0
 10
297.9048419452957
 20
285.5180183546822
 30
0.0
 41
1.003890036569829
 10
297.9048419452956
 20
285.100132062529
 30
0.0
 41
1.001322355758458
 10
297.9048419452957
 20
284.6305326418599
 30
0.0
 41
0.9963783876196492
 10
297.9048419452957
 20
284.1228607446386
 30
0.0
 41
0.9917160648716759
 10
297.9048419452957
 20
282.7205927207376
 30
0.0
 41
0.9828581707032071
 10
297.9048419452957
 20
281.8023473585447
 30
0.0
 41
0.9809123940549667
 10
297.9048419452957
 20
280.9482499861086
 30
0.0
 41
0.9871440382974057
 10
297.9048419452957
 20
280.2343653546822
 30
0.0
 41
0.994230149455069
  0
SPLINE
  5
1AD
330
1F
100
AcDbEntity
  8
1
100
AcDbSpline
210
0.0
220
0.0
230
1.0
 70
     8
 71
     3
 72
     8
 73
     4
 74
     0
 42
0.000000001
 43
0.0000000001
 40
0.0
 40
0.0
 40
0.0
 40
0.0
 40
1.0
 40
1.0
 40
1.0
 40
1.0
 10
346.5880318755958
 20
291.9248119594986
 30
0.0
 10
346.443409455315
 20
291.9631979097042
 30
0.0
 10
346.2990341062941
 20
292.0042087964385
 30
0.0
 10
346.1548921890431
 20
292.0478898026719
 30
0.0
  0
SPLINE
  5
1AE
330
1F
100
AcDbEntity
  8
1
100
AcDbSpline
210
0.0
220
0.0
230
1.0
 70
     8
 71
     3
 72
    44
 73
    40
 74
     0
 42
0.000000001
 43
0.0000000001
 40
0.0
 40
0.0
 40
0.0
 40
0.0
 40
0.0625000000000028
 40
0.0625000000000028
 40
0.1250000000000059
 40
0.1250000000000059
 40
0.2500000000000119
 40
0.2500000000000119
 40
0.2812500000000135
 40
0.2812500000000135
 40
0.312500000000015
 40
0.312500000000015
 40
0.3750000000000181
 40
0.3750000000000181
 40
0.5000000000000162
 40
0.5000000000000162
 40
0.5625000000000119
 40
0.5625000000000119
 40
0.5937500000000097
 40
0.5937500000000097
 40
0.6250000000000076
 40
0.6250000000000076
 40
0.6875000000000085
 40
0.6875000000000085
 40
0.7500000000000093
 40
0.7500000000000093
 40
0.7812500000000082
 40
0.7812500000000082
 40
0.8125000000000072
 40
0.8125000000000072
 40
0.8750000000000067
 40
0.8750000000000067
 40
0.9375000000000062
 40
0.9375000000000062
 40
0.9531250000000047
 40
0.9531250000000047
 40
0.9687500000000031
 40
0.9687500000000031
 40
1.0
 40
1.0
 40
1.0
 40
1.0
 10
345.8226031363662
 20
292.6967468233798
 30
0.0
 10
345.8905881337334
 20
292.7336894452972
 30
0.0
 10
345.9582412897155
 20
292.7720776841331
 30
0.0
 10
346.0915182325425
 20
292.8512484184211
 30
0.0
 10
346.157273096241
 20
292.892098021188
 30
0.0
 10
346.3516842516893
 20
293.0187294273796
 30
0.0
 10
346.477507665479
 20
293.1085644154608
 30
0.0
 10
346.6291383592949
 20
293.2289399357451
 30
0.0
 10
346.6591804583187
 20
293.2534214341225
 30
0.0
 10
346.7186661855235
 20
293.3032407024397
 30
0.0
 10
346.7481435804984
 20
293.328608925311
 30
0.0
 10
346.8353148665371
 20
293.4057922407612
 30
0.0
 10
346.8917611603518
 20
293.4586854517869
 30
0.0
 10
347.0556817693538
 20
293.6220354417167
 30
0.0
 10
347.1577952816788
 20
293.7371130407536
 30
0.0
 10
347.2977655572722
 20
293.9211073605792
 30
0.0
 10
347.3422103343348
 20
293.9843454493505
 30
0.0
 10
347.4050882087163
 20
294.0824688158631
 30
0.0
 10
347.4254528057762
 20
294.1157932874771
 30
0.0
 10
347.4644930401699
 20
294.1830440777828
 30
0.0
 10
347.4831993629284
 20
294.2170117970637
 30
0.0
 10
347.5367795506071
 20
294.3199828976362
 30
0.0
 10
347.56912153097
 20
294.3900513208259
 30
0.0
 10
347.6263868670976
 20
294.5333088252943
 30
0.0
 10
347.6513136337694
 20
294.6064964717685
 30
0.0
 10
347.682451360815
 20
294.7189080347044
 30
0.0
 10
347.691810011068
 20
294.7569493856322
 30
0.0
 10
347.7081049084242
 20
294.8330370499231
 30
0.0
 10
347.7150637535331
 20
294.8711332702737
 30
0.0
 10
347.7323371250915
 20
294.9855807422924
 30
0.0
 10
347.7390547824799
 20
295.0620905274859
 30
0.0
 10
347.7425506201033
 20
295.2155481845323
 30
0.0
 10
347.7393297791826
 20
295.2924960132426
 30
0.0
 10
347.7287444867408
 20
295.3889699004646
 30
0.0
 10
347.7262989009072
 20
295.4082791578905
 30
0.0
 10
347.7207396279325
 20
295.4469271195904
 30
0.0
 10
347.7176227149538
 20
295.4662788009368
 30
0.0
 10
347.7073131923869
 20
295.5240650712432
 30
0.0
 10
347.6991499872774
 20
295.5623292537812
 30
0.0
 10
347.6897107260414
 20
295.6003362869084
 30
0.0
  0
SPLINE
  5
1AF
330
1F
100
AcDbEntity
  8
1
100
AcDbSpline
210
0.0
220
0.0
230
1.0
 70
    12
 71
     3
 72
    10
 73
     6
 74
     0
 42
0.000000001
 43
0.0000000001
 40
0.0
 40
0.0
 40
0.0
 40
0.0
 40
0.0668551347808686
 40
0.5509942378808147
 40
1.0
 40
1.0
 40
1.0
 40
1.0
 10
322.1706254621096
 20
295.3010159758991
 30
0.0
 41
1.002783308226799
 10
322.7417602908425
 20
295.3528998756959
 30
0.0
 41
1.00239935016201
 10
327.4700664811025
 20
295.7264916499399
 30
0.0
 41
0.9994361119161812
 10
335.9277984540046
 20
295.3006124332812
 30
0.0
 41
1.003913321132456
 10
343.9840944479982
 20
294.9894533415444
 30
0.0
 41
1.000240782725367
 10
347.6897107260414
 20
295.6003362869084
 30
0.0
 41
1.001216421120378
  0
SPLINE
  5
1B0
330
1F
100
AcDbEntity
  8
1
100
AcDbSpline
210
0.0
220
0.0
230
1.0
 70
     8
 71
     3
 72
    19
 73
    15
 74
     0
 42
0.000000001
 43
0.0000000001
 40
0.0
 40
0.0
 40
0.0
 40
0.0
 40
0.2499999999999982
 40
0.2499999999999982
 40
0.4999999999999963
 40
0.4999999999999963
 40
0.5624999999999958
 40
0.5937499999999963
 40
0.5937499999999963
 40
0.6249999999999967
 40
0.6249999999999967
 40
0.7499999999999983
 40
0.7499999999999983
 40
1.0
 40
1.0
 40
1.0
 40
1.0
 10
287.543383955635
 20
285.8074599899489
 30
0.0
 10
288.0382639175648
 20
285.9043330445673
 30
0.0
 10
288.5445317502643
 20
285.9804024720691
 30
0.0
 10
289.5793644710733
 20
286.0918085477917
 30
0.0
 10
290.1079325812345
 20
286.1271393098937
 30
0.0
 10
290.7827706016993
 20
286.1454936177828
 30
0.0
 10
290.9862843290733
 20
286.149059237017
 30
0.0
 10
291.191405172449
 20
286.14968893937
 30
0.0
 10
291.3285114177875
 20
286.1494528813921
 30
0.0
 10
291.397248572159
 20
286.1490063079823
 30
0.0
 10
291.7408548793503
 20
286.1451417460019
 30
0.0
 10
292.0162651876452
 20
286.1368338611027
 30
0.0
 10
292.8440353597543
 20
286.0966243729537
 30
0.0
 10
293.3979296506924
 20
286.0494848033237
 30
0.0
 10
293.9538318185191
 20
285.9824055701886
 30
0.0
  0
SPLINE
  5
1B1
330
1F
100
AcDbEntity
  8
1
100
AcDbSpline
210
0.0
220
0.0
230
1.0
 70
     8
 71
     3
 72
    21
 73
    17
 74
     0
 42
0.000000001
 43
0.0000000001
 40
0.0
 40
0.0
 40
0.0
 40
0.0
 40
0.125
 40
0.125
 40
0.25
 40
0.25
 40
0.375
 40
0.375
 40
0.5
 40
0.625
 40
0.625
 40
0.75
 40
0.75
 40
0.875
 40
0.875
 40
1.0
 40
1.0
 40
1.0
 40
1.0
 10
279.4048419452957
 20
274.876754771682
 30
0.0
 10
279.5937219277792
 20
274.9390850323816
 30
0.0
 10
279.7840598396326
 20
275.0093518085056
 30
0.0
 10
280.1669510697791
 20
275.1622286570958
 30
0.0
 10
280.359505986329
 20
275.2448514802381
 30
0.0
 10
280.7461904253245
 20
275.4197641900198
 30
0.0
 10
280.9403205275563
 20
275.5120600949272
 30
0.0
 10
281.32953731326
 20
275.7041845016436
 30
0.0
 10
281.7197104984442
 20
275.9038463428933
 30
0.0
 10
282.1105932461691
 20
276.1151556085749
 30
0.0
 10
282.5012566210583
 20
276.3309688657339
 30
0.0
 10
282.6964778754584
 20
276.4411265462941
 30
0.0
 10
283.0861808873814
 20
276.6650246796501
 30
0.0
 10
283.280661256264
 20
276.7787640128935
 30
0.0
 10
283.668451970707
 20
277.0093348810219
 30
0.0
 10
283.8617607408491
 20
277.1261656253716
 30
0.0
 10
284.0543368819074
 20
277.2445279420522
 30
0.0
  0
SPLINE
  5
1B2
330
1F
100
AcDbEntity
  8
1
100
AcDbSpline
210
0.0
220
0.0
230
1.0
 70
     8
 71
     3
 72
    37
 73
    33
 74
     0
 42
0.000000001
 43
0.0000000001
 40
0.0
 40
0.0
 40
0.0
 40
0.0
 40
0.1249999999999957
 40
0.1249999999999957
 40
0.2499999999999915
 40
0.2499999999999915
 40
0.2656249999999912
 40
0.2656249999999912
 40
0.2812499999999911
 40
0.2812499999999911
 40
0.3124999999999906
 40
0.3124999999999906
 40
0.3749999999999899
 40
0.3749999999999899
 40
0.4999999999999891
 40
0.4999999999999891
 40
0.531249999999989
 40
0.531249999999989
 40
0.5468749999999895
 40
0.5468749999999895
 40
0.5624999999999898
 40
0.624999999999991
 40
0.624999999999991
 40
0.7499999999999934
 40
0.7499999999999934
 40
0.8124999999999948
 40
0.8124999999999948
 40
0.8437499999999953
 40
0.8437499999999953
 40
0.874999999999996
 40
0.874999999999996
 40
1.0
 40
1.0
 40
1.0
 40
1.0
 10
276.9107921194839
 20
278.2792808185096
 30
0.0
 10
276.883443413654
 20
278.0883380269669
 30
0.0
 10
276.8754859679865
 20
277.9014228784546
 30
0.0
 10
276.8962552137735
 20
277.5353752222099
 30
0.0
 10
276.9249916219258
 20
277.356243787786
 30
0.0
 10
276.9781107045397
 20
277.159023958479
 30
0.0
 10
276.9843030410375
 20
277.137170487206
 30
0.0
 10
276.9972711808713
 20
277.0935831006435
 30
0.0
 10
277.0040430049956
 20
277.07186504902
 30
0.0
 10
277.0251412540541
 20
277.0071681591477
 30
0.0
 10
277.0402761107419
 20
276.964557598489
 30
0.0
 10
277.0888126609998
 20
276.8382386536335
 30
0.0
 10
277.1253420126412
 20
276.7560413989285
 30
0.0
 10
277.2470062386386
 20
276.5151655850357
 30
0.0
 10
277.3441596504127
 20
276.3621838410669
 30
0.0
 10
277.4851539687087
 20
276.1797009121058
 30
0.0
 10
277.5143350848097
 20
276.1436430858294
 30
0.0
 10
277.5595844404285
 20
276.0902046943603
 30
0.0
 10
277.5749205747649
 20
276.0724931501036
 30
0.0
 10
277.6059726228397
 20
276.0374110212401
 30
0.0
 10
277.6846175466691
 20
275.9504810906784
 30
0.0
 10
277.7682617927382
 20
275.8673434971199
 30
0.0
 10
277.9782329522893
 20
275.6745943254801
 30
0.0
 10
278.1304701330301
 20
275.5551070866193
 30
0.0
 10
278.3766018987696
 20
275.3880250965988
 30
0.0
 10
278.4616197768437
 20
275.334363710229
 30
0.0
 10
278.5936302693099
 20
275.2568133632036
 30
0.0
 10
278.6383541160669
 20
275.231472803767
 30
0.0
 10
278.7288456128241
 20
275.1819988335516
 30
0.0
 10
278.7746657876429
 20
275.1578341246044
 30
0.0
 10
279.0066091604991
 20
275.0397889475969
 30
0.0
 10
279.2012181980026
 20
274.954201077944
 30
0.0
 10
279.4048419452957
 20
274.876754771682
 30
0.0
  0
SPLINE
  5
1B3
330
1F
100
AcDbEntity
  8
1
100
AcDbSpline
210
0.0
220
0.0
230
1.0
 70
     8
 71
     3
 72
    62
 73
    58
 74
     0
 42
0.000000001
 43
0.0000000001
 40
0.0
 40
0.0
 40
0.0
 40
0.0
 40
0.0624999999999994
 40
0.0624999999999994
 40
0.1249999999999988
 40
0.1249999999999988
 40
0.1874999999999983
 40
0.1874999999999983
 40
0.2187499999999979
 40
0.2187499999999979
 40
0.2499999999999977
 40
0.2499999999999977
 40
0.3124999999999974
 40
0.3124999999999974
 40
0.3437499999999974
 40
0.3437499999999974
 40
0.3749999999999973
 40
0.3749999999999973
 40
0.4062499999999973
 40
0.4062499999999973
 40
0.4218749999999973
 40
0.4218749999999973
 40
0.4374999999999973
 40
0.4374999999999973
 40
0.4687499999999968
 40
0.4687499999999968
 40
0.4843749999999968
 40
0.4843749999999968
 40
0.4999999999999967
 40
0.4999999999999967
 40
0.5312499999999969
 40
0.5312499999999969
 40
0.5624999999999974
 40
0.5624999999999974
 40
0.5937499999999977
 40
0.5937499999999977
 40
0.6249999999999979
 40
0.6249999999999979
 40
0.6874999999999986
 40
0.6874999999999986
 40
0.7031249999999987
 40
0.7031249999999987
 40
0.7187499999999988
 40
0.7187499999999988
 40
0.7499999999999984
 40
0.7499999999999984
 40
0.8124999999999982
 40
0.8124999999999982
 40
0.843749999999998
 40
0.843749999999998
 40
0.8749999999999984
 40
0.8749999999999984
 40
0.9062499999999987
 40
0.9374999999999992
 40
0.9687499999999996
 40
0.9687499999999996
 40
1.0
 40
1.0
 40
1.0
 40
1.0
 10
297.9048419452957
 20
285.5144678028507
 30
0.0
 10
298.8912963026614
 20
285.3689174515465
 30
0.0
 10
299.8773009867043
 20
285.2230791136338
 30
0.0
 10
301.8480838143577
 20
284.9295517641443
 30
0.0
 10
302.8328622864647
 20
284.7818584043468
 30
0.0
 10
304.8006844451705
 20
284.48272490401
 30
0.0
 10
305.7837262360748
 20
284.3312679725534
 30
0.0
 10
307.2564823987873
 20
284.0996005810676
 30
0.0
 10
307.7470989005317
 20
284.0216300724045
 30
0.0
 10
308.7276364073823
 20
283.8639458782004
 30
0.0
 10
309.2176386414776
 20
283.7842172115835
 30
0.0
 10
310.6856004015059
 20
283.5422816310506
 30
0.0
 10
311.6616175855273
 20
283.3772245296984
 30
0.0
 10
313.1209550313798
 20
283.1241023145306
 30
0.0
 10
313.6066221414966
 20
283.0388241836029
 30
0.0
 10
314.5763280222407
 20
282.8667606127607
 30
0.0
 10
315.0603662544342
 20
282.7799743236409
 30
0.0
 10
316.0268002180029
 20
282.6054277849586
 30
0.0
 10
316.5091955040958
 20
282.5176674155886
 30
0.0
 10
317.231600629738
 20
282.3858843865515
 30
0.0
 10
317.4722049830909
 20
282.3419349321263
 30
0.0
 10
317.95303418234
 20
282.2541133273949
 30
0.0
 10
318.1932572297807
 20
282.2102376244309
 30
0.0
 10
318.9135392673999
 20
282.0793143812482
 30
0.0
 10
319.3932169622528
 20
281.9929989717469
 30
0.0
 10
320.1126305377948
 20
281.8668883507662
 30
0.0
 10
320.3524242512607
 20
281.8254038995362
 30
0.0
 10
320.8318918815809
 20
281.7438117034429
 30
0.0
 10
321.0715879766174
 20
281.7036998868271
 30
0.0
 10
321.7906999596835
 20
281.5856980601886
 30
0.0
 10
322.2701440233787
 20
281.5101611202637
 30
0.0
 10
323.2297226795357
 20
281.3663247055756
 30
0.0
 10
323.7098676482385
 20
281.2980395215843
 30
0.0
 10
324.6712836732427
 20
281.1690312158103
 30
0.0
 10
325.1525081396108
 20
281.108213123565
 30
0.0
 10
326.1159418017882
 20
280.9933994734695
 30
0.0
 10
326.5981517032506
 20
280.9394075272315
 30
0.0
 10
328.0463189796051
 20
280.7871339639121
 30
0.0
 10
329.013792036314
 20
280.6985526656621
 30
0.0
 10
330.2263196406657
 20
280.6027196258444
 30
0.0
 10
330.4689862567395
 20
280.5842982388193
 30
0.0
 10
330.9546640575383
 20
280.5489129991282
 30
0.0
 10
331.1977034584152
 20
280.5319473745029
 30
0.0
 10
331.9270834103137
 20
280.4832021895526
 30
0.0
 10
332.4137229466922
 20
280.4535729599016
 30
0.0
 10
333.8750790883961
 20
280.3727546711631
 30
0.0
 10
334.8512304721789
 20
280.3296732334693
 30
0.0
 10
336.3195366897081
 20
280.2784595490879
 30
0.0
 10
336.8096937300489
 20
280.2636365037415
 30
0.0
 10
337.7911233640627
 20
280.2375627055375
 30
0.0
 10
338.2823845453347
 20
280.2263025239123
 30
0.0
 10
339.2655806704538
 20
280.2066369252342
 30
0.0
 10
340.2494502298525
 20
280.1898273117193
 30
0.0
 10
341.7259844735669
 20
280.1718946759783
 30
0.0
 10
342.7099499389811
 20
280.164453783059
 30
0.0
 10
343.6932713625063
 20
280.1593640404457
 30
0.0
 10
344.1846102457377
 20
280.1579935137005
 30
0.0
 10
344.6753947783196
 20
280.1579935137005
 30
0.0
  0
SPLINE
  5
1B4
330
1F
100
AcDbEntity
  8
1
100
AcDbSpline
210
0.0
220
0.0
230
1.0
 70
     8
 71
     3
 72
    64
 73
    60
 74
     0
 42
0.000000001
 43
0.0000000001
 40
0.0
 40
0.0
 40
0.0
 40
0.0
 40
0.0625000000000006
 40
0.0625000000000006
 40
0.0937500000000009
 40
0.0937500000000009
 40
0.1250000000000012
 40
0.1250000000000012
 40
0.1562500000000016
 40
0.1562500000000016
 40
0.1875000000000016
 40
0.1875000000000016
 40
0.2187500000000017
 40
0.2187500000000017
 40
0.2500000000000018
 40
0.2500000000000018
 40
0.312500000000002
 40
0.312500000000002
 40
0.3437500000000021
 40
0.3437500000000021
 40
0.3750000000000022
 40
0.3750000000000022
 40
0.4062500000000023
 40
0.4062500000000023
 40
0.4375000000000024
 40
0.4375000000000024
 40
0.4687500000000024
 40
0.4687500000000024
 40
0.5000000000000026
 40
0.5000000000000026
 40
0.5312500000000027
 40
0.5312500000000027
 40
0.5625000000000028
 40
0.5625000000000028
 40
0.5937500000000028
 40
0.5937500000000028
 40
0.6250000000000029
 40
0.6250000000000029
 40
0.6562500000000029
 40
0.6562500000000029
 40
0.6875000000000031
 40
0.6875000000000031
 40
0.7500000000000028
 40
0.7500000000000028
 40
0.7812500000000031
 40
0.7812500000000031
 40
0.8125000000000033
 40
0.8125000000000033
 40
0.8437500000000028
 40
0.8437500000000028
 40
0.8750000000000023
 40
0.8750000000000023
 40
0.9062500000000017
 40
0.9062500000000017
 40
0.9375000000000012
 40
0.9375000000000012
 40
0.9687500000000005
 40
0.9687500000000005
 40
1.0
 40
1.0
 40
1.0
 40
1.0
 10
297.9048419452957
 20
297.50884934999
 30
0.0
 10
298.9120398006114
 20
297.4854618661368
 30
0.0
 10
299.9169645167256
 20
297.4568544410177
 30
0.0
 10
301.4208840827315
 20
297.4031147725087
 30
0.0
 10
301.9216164949237
 20
297.383394130941
 30
0.0
 10
302.9219726148221
 20
297.3398431030058
 30
0.0
 10
303.4215962531649
 20
297.3160114802681
 30
0.0
 10
304.4198100687844
 20
297.2637857931831
 30
0.0
 10
304.9184002231653
 20
297.2353903296127
 30
0.0
 10
305.9146597427809
 20
297.1736684076014
 30
0.0
 10
306.4123218855632
 20
297.1403399488968
 30
0.0
 10
307.4062428024527
 20
297.0685603270927
 30
0.0
 10
307.9025828896074
 20
297.0301034312656
 30
0.0
 10
308.8942391262952
 20
296.9479914070052
 30
0.0
 10
309.3895557172252
 20
296.9043359637124
 30
0.0
 10
310.8743524142087
 20
296.7657471707474
 30
0.0
 10
311.8626805949631
 20
296.6631167610621
 30
0.0
 10
313.3445329961481
 20
296.4960520554358
 30
0.0
 10
313.838377781109
 20
296.4381976674801
 30
0.0
 10
314.8261133162422
 20
296.3187056357654
 30
0.0
 10
315.3200045658083
 20
296.2570700704894
 30
0.0
 10
316.3080557799722
 20
296.1306120999163
 30
0.0
 10
316.8022160908484
 20
296.0657917872152
 30
0.0
 10
317.7909789881758
 20
295.9335411523739
 30
0.0
 10
318.2856186214157
 20
295.8662200676261
 30
0.0
 10
319.2751218511611
 20
295.7285135717409
 30
0.0
 10
319.7699656176634
 20
295.6580715332645
 30
0.0
 10
320.7596037838422
 20
295.5133089145351
 30
0.0
 10
321.2544059954045
 20
295.4389846654504
 30
0.0
 10
322.2438855339008
 20
295.2861979765423
 30
0.0
 10
322.7384288320785
 20
295.2077574521894
 30
0.0
 10
323.727223791072
 20
295.0469991946206
 30
0.0
 10
324.2214716173921
 20
294.9646666881958
 30
0.0
 10
325.2099293968041
 20
294.7968691408174
 30
0.0
 10
325.7041481105179
 20
294.7114330244582
 30
0.0
 10
326.6927704351198
 20
294.5381799584907
 30
0.0
 10
327.1871730839785
 20
294.4503617006146
 30
0.0
 10
328.1762683040166
 20
294.2727681830468
 30
0.0
 10
328.6709600725732
 20
294.182991520355
 30
0.0
 10
329.6606669996064
 20
294.0016782160236
 30
0.0
 10
330.1556728525586
 20
293.9101417308243
 30
0.0
 10
331.640763916541
 20
293.6329830948666
 30
0.0
 10
332.6310656148221
 20
293.4448553255893
 30
0.0
 10
334.1165118115642
 20
293.1563837152328
 30
0.0
 10
334.6116560724136
 20
293.0591635671513
 30
0.0
 10
335.6018280003967
 20
292.8621562298515
 30
0.0
 10
336.0968569993981
 20
292.7623750482522
 30
0.0
 10
337.0866442696432
 20
292.5595686468918
 30
0.0
 10
337.581420245363
 20
292.4564828762427
 30
0.0
 10
338.5703646371817
 20
292.2464770076567
 30
0.0
 10
339.0645388659652
 20
292.1395422622567
 30
0.0
 10
340.0524289629965
 20
291.9222701425479
 30
0.0
 10
340.5461412126661
 20
291.8119149518897
 30
0.0
 10
341.5335861037684
 20
291.5896789778316
 30
0.0
 10
342.0273154827072
 20
291.4777806067256
 30
0.0
 10
343.0157288983075
 20
291.2563321547004
 30
0.0
 10
343.510431520261
 20
291.1467724538148
 30
0.0
 10
344.5014092979524
 20
290.9364647608658
 30
0.0
 10
344.9977522236491
 20
290.8357176642706
 30
0.0
 10
345.4956776750586
 20
290.7436948292061
 30
0.0
  0
SPLINE
  5
1B5
330
1F
100
AcDbEntity
  8
1
100
AcDbSpline
210
0.0
220
0.0
230
1.0
 70
     8
 71
     3
 72
    39
 73
    35
 74
     0
 42
0.000000001
 43
0.0000000001
 40
0.0
 40
0.0
 40
0.0
 40
0.0
 40
0.0509320564430458
 40
0.1018641128860915
 40
0.1527961693291373
 40
0.203728225772183
 40
0.203728225772183
 40
0.2546602822152288
 40
0.2546602822152288
 40
0.3055923386582745
 40
0.3055923386582745
 40
0.3565243951013203
 40
0.3565243951013203
 40
0.3819904233228428
 40
0.3819904233228428
 40
0.4074564515443654
 40
0.4074564515443654
 40
0.5093205644304563
 40
0.5093205644304563
 40
0.6111846773165471
 40
0.6111846773165471
 40
0.713048790202638
 40
0.713048790202638
 40
0.7639808466456836
 40
0.7639808466456836
 40
0.8149129030887289
 40
0.8149129030887289
 40
0.8658449595317742
 40
0.8658449595317742
 40
0.9167770159748199
 40
0.9167770159748199
 40
0.9677090724178651
 40
0.9677090724178651
 40
1.0
 40
1.0
 40
1.0
 40
1.0
 10
347.2388134055047
 20
297.5306995169394
 30
0.0
 10
346.7464013702923
 20
297.5630907555743
 30
0.0
 10
345.7561383897184
 20
297.6119642156739
 30
0.0
 10
344.2549670564555
 20
297.6494808224259
 30
0.0
 10
342.7391396360984
 20
297.6609418237671
 30
0.0
 10
341.7199545140723
 20
297.6562559165714
 30
0.0
 10
340.6972130913372
 20
297.647208105261
 30
0.0
 10
340.1840646334072
 20
297.6405029354509
 30
0.0
 10
339.1551560490278
 20
297.623818051559
 30
0.0
 10
338.639396621418
 20
297.6138381577824
 30
0.0
 10
337.6063783940923
 20
297.5909862110467
 30
0.0
 10
337.0891206493332
 20
297.5781147061371
 30
0.0
 10
336.3130499113325
 20
297.5563941681904
 30
0.0
 10
336.0543336214242
 20
297.5487383190836
 30
0.0
 10
335.5369867271653
 20
297.5325562070205
 30
0.0
 10
335.2783442644638
 20
297.5240337810963
 30
0.0
 10
333.9852994841608
 20
297.4792276797511
 30
0.0
 10
332.9514095131384
 20
297.436371686449
 30
0.0
 10
330.8849422081377
 20
297.3354483647564
 30
0.0
 10
329.8523620429358
 20
297.2773712712728
 30
0.0
 10
327.7884578151105
 20
297.1448085445778
 30
0.0
 10
326.7571103966051
 20
297.0703691090717
 30
0.0
 10
325.2110534706456
 20
296.9452553093331
 30
0.0
 10
324.6958649667823
 20
296.9013016960733
 30
0.0
 10
323.6659085393691
 20
296.8084568195254
 30
0.0
 10
323.1511498595293
 20
296.7595312892091
 30
0.0
 10
322.1225644691287
 20
296.65642187585
 30
0.0
 10
321.6086790874847
 20
296.6022327724214
 30
0.0
 10
320.5816915338251
 20
296.488404301068
 30
0.0
 10
320.0685907416899
 20
296.4287593955307
 30
0.0
 10
319.0430568770972
 20
296.304072555554
 30
0.0
 10
318.5306244984396
 20
296.2390258544841
 30
0.0
 10
317.6936636947496
 20
296.1287030559089
 30
0.0
 10
317.3690027694291
 20
296.084912353046
 30
0.0
 10
317.0443907507117
 20
296.0402285965652
 30
0.0
  0
SPLINE
  5
1B6
330
1F
100
AcDbEntity
  8
1
100
AcDbSpline
210
0.0
220
0.0
230
1.0
 70
     8
 71
     3
 72
    34
 73
    30
 74
     0
 42
0.000000001
 43
0.0000000001
 40
0.0
 40
0.0
 40
0.0
 40
0.0
 40
0.062499999999999
 40
0.062499999999999
 40
0.1249999999999981
 40
0.1249999999999981
 40
0.1874999999999971
 40
0.1874999999999971
 40
0.2499999999999962
 40
0.3124999999999952
 40
0.3124999999999952
 40
0.3437499999999947
 40
0.3437499999999947
 40
0.3749999999999945
 40
0.3749999999999945
 40
0.4374999999999952
 40
0.4374999999999952
 40
0.4999999999999958
 40
0.4999999999999958
 40
0.6249999999999968
 40
0.6249999999999968
 40
0.7499999999999978
 40
0.7499999999999978
 40
0.8749999999999989
 40
0.8749999999999989
 40
0.9062499999999992
 40
0.9062499999999992
 40
0.9374999999999992
 40
1.0
 40
1.0
 40
1.0
 40
1.0
 10
293.9538318185191
 20
280.1695722632754
 30
0.0
 10
293.7048123970903
 20
280.1668030002978
 30
0.0
 10
293.4588981304278
 20
280.157556225444
 30
0.0
 10
292.9726380821442
 20
280.127804174576
 30
0.0
 10
292.7322934715835
 20
280.1072984498844
 30
0.0
 10
292.2566531737718
 20
280.0564880785465
 30
0.0
 10
292.0213581819167
 20
280.0261832095271
 30
0.0
 10
291.5553889207312
 20
279.9570081466612
 30
0.0
 10
291.0940409627991
 20
279.8792676454739
 30
0.0
 10
290.6412300923102
 20
279.7864218638408
 30
0.0
 10
290.3046094041526
 20
279.711722449559
 30
0.0
 10
290.1927872457682
 20
279.6859483955219
 30
0.0
 10
289.9710297253422
 20
279.6330138355403
 30
0.0
 10
289.8610162477417
 20
279.6058380381686
 30
0.0
 10
289.5334490597868
 20
279.5223191716619
 30
0.0
 10
289.3183636453678
 20
279.4639910253981
 30
0.0
 10
288.894254735643
 20
279.3425808814299
 30
0.0
 10
288.685232141193
 20
279.2794974192249
 30
0.0
 10
288.0666968062405
 20
279.0836463301809
 30
0.0
 10
287.6656661437597
 20
278.9443320476593
 30
0.0
 10
286.8846750482532
 20
278.6494028131476
 30
0.0
 10
286.5047292455391
 20
278.4937640161652
 30
0.0
 10
285.7658041680494
 20
278.1658669886655
 30
0.0
 10
285.406833350193
 20
277.9935966586262
 30
0.0
 10
284.9718413852535
 20
277.7671059303347
 30
0.0
 10
284.8855285480358
 20
277.7212453353544
 30
0.0
 10
284.714688557083
 20
277.6285932180733
 30
0.0
 10
284.4609600132171
 20
277.4881423838527
 30
0.0
 10
284.2148928368665
 20
277.3432098176022
 30
0.0
 10
284.0543368819074
 20
277.2445279420523
 30
0.0
  0
SPLINE
  5
1BD
330
1F
100
AcDbEntity
  8
1
100
AcDbSpline
210
0.0
220
0.0
230
1.0
 70
     8
 71
     3
 72
   103
 73
    99
 74
     0
 42
0.000000001
 43
0.0000000001
 40
0.0
 40
0.0
 40
0.0
 40
0.0
 40
0.0156249999999993
 40
0.0156249999999993
 40
0.0312499999999986
 40
0.0312499999999986
 40
0.0624999999999983
 40
0.0624999999999983
 40
0.0781249999999983
 40
0.0781249999999983
 40
0.0937499999999983
 40
0.0937499999999983
 40
0.1093749999999983
 40
0.1093749999999983
 40
0.1249999999999983
 40
0.1249999999999983
 40
0.1562499999999983
 40
0.1562499999999983
 40
0.1718749999999981
 40
0.1718749999999981
 40
0.1874999999999978
 40
0.1874999999999978
 40
0.2031249999999976
 40
0.2031249999999976
 40
0.2187499999999974
 40
0.2343749999999972
 40
0.2343749999999972
 40
0.2499999999999969
 40
0.2499999999999969
 40
0.2656249999999967
 40
0.2656249999999967
 40
0.2812499999999965
 40
0.2812499999999965
 40
0.3124999999999968
 40
0.3124999999999968
 40
0.3281249999999969
 40
0.3281249999999969
 40
0.343749999999997
 40
0.343749999999997
 40
0.3749999999999966
 40
0.3749999999999966
 40
0.3906249999999961
 40
0.3906249999999961
 40
0.4062499999999958
 40
0.4062499999999958
 40
0.4218749999999952
 40
0.4218749999999952
 40
0.4374999999999948
 40
0.4374999999999948
 40
0.4687499999999939
 40
0.4687499999999939
 40
0.4843749999999937
 40
0.4843749999999937
 40
0.4999999999999936
 40
0.4999999999999936
 40
0.5312499999999944
 40
0.5312499999999944
 40
0.5468749999999947
 40
0.5468749999999947
 40
0.5624999999999952
 40
0.5624999999999952
 40
0.5937499999999958
 40
0.5937499999999958
 40
0.6093749999999961
 40
0.6093749999999961
 40
0.6249999999999966
 40
0.6249999999999966
 40
0.6562499999999972
 40
0.6562499999999972
 40
0.6874999999999977
 40
0.6874999999999977
 40
0.7031249999999975
 40
0.7031249999999975
 40
0.7187499999999974
 40
0.7187499999999974
 40
0.7499999999999976
 40
0.7499999999999976
 40
0.7656249999999983
 40
0.7656249999999983
 40
0.7812499999999991
 40
0.7812499999999991
 40
0.8125000000000001
 40
0.8125000000000001
 40
0.8437500000000012
 40
0.8437500000000012
 40
0.859375000000001
 40
0.859375000000001
 40
0.8750000000000008
 40
0.8750000000000008
 40
0.9062500000000007
 40
0.9062500000000007
 40
0.9218750000000005
 40
0.9218750000000005
 40
0.9375000000000003
 40
0.9375000000000003
 40
0.9687500000000001
 40
0.9687500000000001
 40
1.0
 40
1.0
 40
1.0
 40
1.0
 10
353.3766496060096
 20
285.7329935137008
 30
0.0
 10
353.3723008455417
 20
285.7095763532485
 30
0.0
 10
353.3680022111123
 20
285.6856340577571
 30
0.0
 10
353.3595759138411
 20
285.6370915974758
 30
0.0
 10
353.355440962689
 20
285.6124539374381
 30
0.0
 10
353.3432704897713
 20
285.5374426606437
 30
0.0
 10
353.3354534253147
 20
285.4858460431445
 30
0.0
 10
353.3243673253555
 20
285.4073455732337
 30
0.0
 10
353.3207718972076
 20
285.3809547426557
 30
0.0
 10
353.3137818907695
 20
285.3277228863602
 30
0.0
 10
353.3103858514047
 20
285.3008654513012
 30
0.0
 10
353.3038452837557
 20
285.2470964673055
 30
0.0
 10
353.3006941954582
 20
285.2201366245034
 30
0.0
 10
353.2946298135354
 20
285.1660666143003
 30
0.0
 10
353.2917131122464
 20
285.1389230328178
 30
0.0
 10
353.2833466376956
 20
285.05749126924
 30
0.0
 10
353.2783086779364
 20
285.0035058200226
 30
0.0
 10
353.2715560583724
 20
284.9229783140281
 30
0.0
 10
353.2694403909995
 20
284.896212186452
 30
0.0
 10
353.265508858868
 20
284.8432232586125
 30
0.0
 10
353.2636886588252
 20
284.8169505714516
 30
0.0
 10
353.2603383117193
 20
284.7648471066398
 30
0.0
 10
353.2588061315246
 20
284.7389776837354
 30
0.0
 10
353.2560444108447
 20
284.6878719257293
 30
0.0
 10
353.2535892413767
 20
284.6374888017423
 30
0.0
 10
353.2517408560601
 20
284.5885360517101
 30
0.0
 10
353.2501966449943
 20
284.5403003324794
 30
0.0
 10
353.2495778190777
 20
284.5165595620476
 30
0.0
 10
353.2486522013077
 20
284.4701279391282
 30
0.0
 10
353.2483439495349
 20
284.4473948509086
 30
0.0
 10
353.2480354165398
 20
284.4028905489527
 30
0.0
 10
353.2480354977978
 20
284.381084347468
 30
0.0
 10
353.2484992771092
 20
284.3173976880281
 30
0.0
 10
353.2494215098988
 20
284.2773102199951
 30
0.0
 10
353.2517186360786
 20
284.2207120775498
 30
0.0
 10
353.2526362172062
 20
284.2024819137785
 30
0.0
 10
353.254754538745
 20
284.1675520150067
 30
0.0
 10
353.2559569443517
 20
284.1508085306756
 30
0.0
 10
353.2599862496152
 20
284.1027039627668
 30
0.0
 10
353.2632335185232
 20
284.0734601054082
 30
0.0
 10
353.2689474537733
 20
284.0338403226457
 30
0.0
 10
353.2709930331536
 20
284.0213435562094
 30
0.0
 10
353.2753716678166
 20
283.9977979206734
 30
0.0
 10
353.2777024630949
 20
283.9867701095337
 30
0.0
 10
353.2826052804529
 20
283.9663950338561
 30
0.0
 10
353.2851825579505
 20
283.9570180506131
 30
0.0
 10
353.2905884401812
 20
283.9398825504647
 30
0.0
 10
353.2934218029871
 20
283.9321132090727
 30
0.0
 10
353.3022700756833
 20
283.9113349451183
 30
0.0
 10
353.3085957038594
 20
283.9009139972554
 30
0.0
 10
353.3187121325607
 20
283.8903314675561
 30
0.0
 10
353.3221892729031
 20
283.8876481172182
 30
0.0
 10
353.3293554922642
 20
283.883985363384
 30
0.0
 10
353.333052393285
 20
283.8830063506994
 30
0.0
 10
353.3444079208653
 20
283.882679519469
 30
0.0
 10
353.3523073198873
 20
283.8859149085416
 30
0.0
 10
353.3646512092531
 20
283.8959607093483
 30
0.0
 10
353.3688490995415
 20
283.9001817508072
 30
0.0
 10
353.3773515449643
 20
283.9103071717983
 30
0.0
 10
353.3816633404213
 20
283.9162164846506
 30
0.0
 10
353.3947806398299
 20
283.936486952936
 30
0.0
 10
353.4037890948549
 20
283.9534457515605
 30
0.0
 10
353.4174838552876
 20
283.9836749305917
 30
0.0
 10
353.422085770897
 20
283.9945590663171
 30
0.0
 10
353.4313641215397
 20
284.0179543620907
 30
0.0
 10
353.4360466611187
 20
284.0304848229393
 30
0.0
 10
353.4501108136633
 20
284.0702777526222
 30
0.0
 10
353.4595351976837
 20
284.0997912641976
 30
0.0
 10
353.4784818389476
 20
284.1648689691729
 30
0.0
 10
353.4879063204013
 20
284.2000990636014
 30
0.0
 10
353.5019569304481
 20
284.2569346896444
 30
0.0
 10
353.5066342096117
 20
284.2765835946768
 30
0.0
 10
353.5158995250623
 20
284.3169726134359
 30
0.0
 10
353.5204927455288
 20
284.3377312986902
 30
0.0
 10
353.5341542041617
 20
284.4016983226259
 30
0.0
 10
353.5431303740253
 20
284.4467434632362
 30
0.0
 10
353.5561733400116
 20
284.5168123041846
 30
0.0
 10
353.5604566595545
 20
284.5406108617477
 30
0.0
 10
353.5688940009931
 20
284.5890968353343
 30
0.0
 10
353.5730541800924
 20
284.6138241882671
 30
0.0
 10
353.5852548043767
 20
284.6888440441175
 30
0.0
 10
353.5930381119388
 20
284.7400843491914
 30
0.0
 10
353.607898104543
 20
284.8450391886434
 30
0.0
 10
353.6148921822752
 20
284.8981705690965
 30
0.0
 10
353.6247324423527
 20
284.9788328894164
 30
0.0
 10
353.627907227549
 20
285.0059164825092
 30
0.0
 10
353.6339935060935
 20
285.0600236976333
 30
0.0
 10
353.6369103479192
 20
285.0870885265718
 30
0.0
 10
353.6452835300348
 20
285.168316539892
 30
0.0
 10
353.6503721343792
 20
285.2226448835955
 30
0.0
 10
353.6571420812317
 20
285.3030588547404
 30
0.0
 10
353.6592594223902
 20
285.3297255688615
 30
0.0
 10
353.6632149910409
 20
285.3827826180481
 30
0.0
 10
353.6650540414174
 20
285.4091932534574
 30
0.0
 10
353.6701128309189
 20
285.4874414302957
 30
0.0
 10
353.6728932904972
 20
285.5385394064559
 30
0.0
 10
353.6772519510073
 20
285.6382505090584
 30
0.0
 10
353.6788130766813
 20
285.686444376444
 30
0.0
 10
353.6797623051765
 20
285.7329935137008
 30
0.0
  0
SPLINE
  5
1BE
330
1F
100
AcDbEntity
  8
1
100
AcDbSpline
210
0.0
220
0.0
230
1.0
 70
     8
 71
     3
 72
    56
 73
    52
 74
     0
 42
0.000000001
 43
0.0000000001
 40
0.0
 40
0.0
 40
0.0
 40
0.0
 40
0.0624999999999994
 40
0.0624999999999994
 40
0.0937499999999992
 40
0.0937499999999992
 40
0.1249999999999989
 40
0.1249999999999989
 40
0.1874999999999983
 40
0.1874999999999983
 40
0.2187499999999977
 40
0.2187499999999977
 40
0.249999999999997
 40
0.249999999999997
 40
0.3124999999999965
 40
0.3124999999999965
 40
0.374999999999996
 40
0.374999999999996
 40
0.4062499999999958
 40
0.4062499999999958
 40
0.4374999999999957
 40
0.4687499999999953
 40
0.4687499999999953
 40
0.4999999999999952
 40
0.4999999999999952
 40
0.5312499999999949
 40
0.5312499999999949
 40
0.5624999999999946
 40
0.5624999999999946
 40
0.6249999999999952
 40
0.6249999999999952
 40
0.6562499999999954
 40
0.6562499999999954
 40
0.6874999999999957
 40
0.6874999999999957
 40
0.718749999999996
 40
0.718749999999996
 40
0.7499999999999963
 40
0.7812499999999965
 40
0.7812499999999965
 40
0.8124999999999968
 40
0.8124999999999968
 40
0.8437499999999969
 40
0.8437499999999969
 40
0.8749999999999973
 40
0.8749999999999973
 40
0.9374999999999975
 40
0.9374999999999975
 40
0.9687499999999987
 40
0.9687499999999987
 40
1.0
 40
1.0
 40
1.0
 40
1.0
 10
353.6797623051768
 20
285.7329935137009
 30
0.0
 10
353.6758076881263
 20
285.7799381764329
 30
0.0
 10
353.6714551514724
 20
285.8248304129654
 30
0.0
 10
353.6643359701187
 20
285.8891236703931
 30
0.0
 10
353.6618599600229
 20
285.9100734342235
 30
0.0
 10
353.6567594999728
 20
285.9505543103268
 30
0.0
 10
353.6541300661711
 20
285.9701347202408
 30
0.0
 10
353.6460086367275
 20
286.026933226146
 30
0.0
 10
353.6402844532624
 20
286.0622164333861
 30
0.0
 10
353.6312336620659
 20
286.1112702971494
 30
0.0
 10
353.6281390770941
 20
286.1269744668979
 30
0.0
 10
353.6217917263655
 20
286.1570646398485
 30
0.0
 10
353.6185331566099
 20
286.1714701932393
 30
0.0
 10
353.6086130061435
 20
286.2122609494706
 30
0.0
 10
353.6017811912805
 20
286.2363694363071
 30
0.0
 10
353.5876773439817
 20
286.2783668935717
 30
0.0
 10
353.5804668877722
 20
286.2960658342812
 30
0.0
 10
353.5694427072737
 20
286.317605640348
 30
0.0
 10
353.5657249425154
 20
286.3239616725809
 30
0.0
 10
353.558253137962
 20
286.3349287621054
 30
0.0
 10
353.5507476807243
 20
286.3441550827829
 30
0.0
 10
353.5431751100959
 20
286.3499097962933
 30
0.0
 10
353.5355686504264
 20
286.3539115147986
 30
0.0
 10
353.5317506175072
 20
286.3550308695105
 30
0.0
 10
353.5241348580446
 20
286.3554927296963
 30
0.0
 10
353.5203304512061
 20
286.3548395082449
 30
0.0
 10
353.51272860532
 20
286.3517591599247
 30
0.0
 10
353.5089263015856
 20
286.3493275717297
 30
0.0
 10
353.4975635468016
 20
286.339359891692
 30
0.0
 10
353.4900845764648
 20
286.3292052909935
 30
0.0
 10
353.4790112074859
 20
286.3086804491467
 30
0.0
 10
353.4753426083448
 20
286.3009457865043
 30
0.0
 10
353.468107553694
 20
286.2838073067981
 30
0.0
 10
353.4645344155495
 20
286.2743926004196
 30
0.0
 10
353.457477107345
 20
286.2538686410114
 30
0.0
 10
353.4539895347597
 20
286.2427474561715
 30
0.0
 10
353.4471196051283
 20
286.2188370661735
 30
0.0
 10
353.4403779296447
 20
286.1933430698918
 30
0.0
 10
353.4338914640098
 20
286.164697893497
 30
0.0
 10
353.4275336216159
 20
286.1344645534779
 30
0.0
 10
353.4244177766615
 20
286.1185421053701
 30
0.0
 10
353.4183614637815
 20
286.0853364077494
 30
0.0
 10
353.4154150539292
 20
286.0680266825664
 30
0.0
 10
353.4096858316183
 20
286.0319925782631
 30
0.0
 10
353.4068995534978
 20
286.0132429644697
 30
0.0
 10
353.3988132492221
 20
285.9550156189137
 30
0.0
 10
353.3938123890865
 20
285.9137830459218
 30
0.0
 10
353.3868958415301
 20
285.8483143527535
 30
0.0
 10
353.3846890988713
 20
285.825888156986
 30
0.0
 10
353.3805044556744
 20
285.7801588837235
 30
0.0
 10
353.3785221065256
 20
285.7568153684508
 30
0.0
 10
353.3766496060096
 20
285.7329935137008
 30
0.0
  0
SPLINE
  5
1BF
330
1F
100
AcDbEntity
  8
1
100
AcDbSpline
210
0.0
220
0.0
230
1.0
 70
     8
 71
     3
 72
    14
 73
    10
 74
     0
 42
0.000000001
 43
0.0000000001
 40
0.0
 40
0.0
 40
0.0
 40
0.0
 40
0.2500000000000024
 40
0.2500000000000024
 40
0.3749999999999989
 40
0.3749999999999989
 40
0.4999999999999954
 40
0.4999999999999954
 40
1.0
 40
1.0
 40
1.0
 40
1.0
 10
297.9048419452952
 20
297.50884934999
 30
0.0
 10
297.8137189178319
 20
297.50884934999
 30
0.0
 10
297.7223008740167
 20
297.5093771801046
 30
0.0
 10
297.5847205719363
 20
297.5109670249373
 30
0.0
 10
297.5388937883181
 20
297.5116287925431
 30
0.0
 10
297.4475742898354
 20
297.5132047856872
 30
0.0
 10
297.4020398318757
 20
297.5141194741302
 30
0.0
 10
297.1749884813242
 20
297.519302493486
 30
0.0
 10
296.9953290677259
 20
297.5254135450984
 30
0.0
 10
296.8176244052428
 20
297.533072664116
 30
0.0
  0
SPLINE
  5
1C0
330
1F
100
AcDbEntity
  8
1
100
AcDbSpline
210
0.0
220
0.0
230
1.0
 70
     8
 71
     3
 72
    10
 73
     6
 74
     0
 42
0.000000001
 43
0.0000000001
 40
0.0
 40
0.0
 40
0.0
 40
0.0
 40
0.5
 40
0.5
 40
1.0
 40
1.0
 40
1.0
 40
1.0
 10
296.8176244052426
 20
297.5330726641178
 30
0.0
 10
296.3373489647355
 20
297.5432635793663
 30
0.0
 10
295.8587129359322
 20
297.5545135503018
 30
0.0
 10
294.90424383997
 20
297.5773643664336
 30
0.0
 10
294.4284082251603
 20
297.5889640964357
 30
0.0
 10
293.9538318185191
 20
297.5999096883905
 30
0.0
  0
SPLINE
  5
1C1
330
1F
100
AcDbEntity
  8
1
100
AcDbSpline
210
0.0
220
0.0
230
1.0
 70
    24
 71
     3
 72
    14
 73
    10
 74
     0
 42
0.000000001
 43
0.0000000001
 40
0.0
 40
0.0
 40
0.0
 40
0.0
 40
0.3003455083105003
 40
0.3003455083105003
 40
0.6006910166210002
 40
0.6006910166210002
 40
0.9010365249314997
 40
0.9010365249314997
 40
1.0
 40
1.0
 40
1.0
 40
1.0
 10
348.5548419452957
 20
291.3125853187814
 30
0.0
 10
348.5548419452958
 20
291.1578084533821
 30
0.0
 10
348.5548419452958
 20
291.0139843770766
 30
0.0
 10
348.5548419452957
 20
290.7508415341869
 30
0.0
 10
348.5548419452958
 20
290.6315242071221
 30
0.0
 10
348.5548419452958
 20
290.4195544948195
 30
0.0
 10
348.5548419452958
 20
290.3269032691592
 30
0.0
 10
348.5548419452958
 20
290.2225639082102
 30
0.0
 10
348.5548419452958
 20
290.198243402042
 30
0.0
 10
348.5548419452958
 20
290.1754823187798
 30
0.0
  0
SPLINE
  5
1C2
330
1F
100
AcDbEntity
  8
1
100
AcDbSpline
210
0.0
220
0.0
230
1.0
 70
     8
 71
     3
 72
    14
 73
    10
 74
     0
 42
0.000000001
 43
0.0000000001
 40
0.0
 40
0.0
 40
0.0
 40
0.0
 40
0.1750449946334668
 40
0.1750449946334668
 40
0.5875224973167319
 40
0.5875224973167319
 40
0.7937612486583662
 40
0.7937612486583662
 40
1.0
 40
1.0
 40
1.0
 40
1.0
 10
290.5412662085452
 20
298.0802573813564
 30
0.0
 10
290.7313552605635
 20
298.0324757767391
 30
0.0
 10
290.9228918824898
 20
297.9876746516886
 30
0.0
 10
291.5707935366038
 20
297.8479466577455
 30
0.0
 10
292.0339698522876
 20
297.767448384337
 30
0.0
 10
292.7427851816826
 20
297.6787042494321
 30
0.0
 10
292.9814055440748
 20
297.6544767084777
 30
0.0
 10
293.4637087552012
 20
297.6179218303617
 30
0.0
 10
293.7073907539894
 20
297.6055935852204
 30
0.0
 10
293.9538318185191
 20
297.5999096883905
 30
0.0
  0
SPLINE
  5
1C3
330
1F
100
AcDbEntity
  8
1
100
AcDbSpline
210
0.0
220
0.0
230
1.0
 70
     9
 71
     3
 72
   120
 73
   116
 74
     0
 42
0.000000001
 43
0.0000000001
 40
0.0
 40
0.0
 40
0.0
 40
0.0
 40
0.0312500000000444
 40
0.0312500000000444
 40
0.0468750000000666
 40
0.0468750000000666
 40
0.0546875000000777
 40
0.0546875000000777
 40
0.0625000000000888
 40
0.0625000000000888
 40
0.0937500000001331
 40
0.0937500000001331
 40
0.1015625000001412
 40
0.1015625000001412
 40
0.1093750000001493
 40
0.1093750000001493
 40
0.1250000000001599
 40
0.1250000000001599
 40
0.1562500000001811
 40
0.1562500000001811
 40
0.1718750000001898
 40
0.1718750000001898
 40
0.1875000000001985
 40
0.2031250000002073
 40
0.2031250000002073
 40
0.218750000000216
 40
0.218750000000216
 40
0.2500000000002322
 40
0.2500000000002322
 40
0.2578125000002361
 40
0.2578125000002361
 40
0.26562500000024
 40
0.26562500000024
 40
0.281250000000247
 40
0.281250000000247
 40
0.3125000000002593
 40
0.3125000000002593
 40
0.3281250000002654
 40
0.3281250000002654
 40
0.3437500000002714
 40
0.3437500000002714
 40
0.3750000000002836
 40
0.3750000000002836
 40
0.3828125000002852
 40
0.3828125000002852
 40
0.3906250000002868
 40
0.40625000000029
 40
0.4218750000002933
 40
0.4218750000002933
 40
0.4296875000002949
 40
0.4296875000002949
 40
0.4375000000002965
 40
0.4375000000002965
 40
0.4687500000003026
 40
0.4687500000003026
 40
0.4843750000003057
 40
0.4843750000003057
 40
0.4921875000003072
 40
0.4921875000003072
 40
0.5000000000003086
 40
0.5000000000003086
 40
0.5312500000003072
 40
0.5312500000003072
 40
0.5390625000003031
 40
0.5390625000003031
 40
0.5468750000002992
 40
0.5625000000002914
 40
0.5781250000002837
 40
0.5781250000002837
 40
0.5937500000002759
 40
0.5937500000002759
 40
0.6250000000002545
 40
0.6250000000002545
 40
0.6328125000002489
 40
0.6328125000002489
 40
0.6406250000002434
 40
0.6406250000002434
 40
0.6562500000002328
 40
0.6562500000002328
 40
0.6875000000002112
 40
0.6875000000002112
 40
0.6953125000002065
 40
0.6953125000002065
 40
0.7031250000002017
 40
0.7187500000001903
 40
0.7343750000001789
 40
0.7343750000001789
 40
0.7421875000001728
 40
0.7421875000001728
 40
0.7500000000001667
 40
0.7500000000001667
 40
0.7812500000001414
 40
0.7812500000001414
 40
0.7968750000001288
 40
0.7968750000001288
 40
0.8125000000001161
 40
0.8125000000001161
 40
0.8437500000000934
 40
0.8437500000000934
 40
0.8593750000000801
 40
0.8593750000000801
 40
0.8750000000000667
 40
0.8750000000000667
 40
0.9062500000000401
 40
0.9062500000000401
 40
0.9218750000000296
 40
0.9218750000000296
 40
0.9375000000000191
 40
0.9531250000000092
 40
0.9531250000000092
 40
0.9609375000000039
 40
0.9609375000000039
 40
0.9687499999999987
 40
0.9687499999999987
 40
1.0
 40
1.0
 40
1.0
 40
1.0
 10
351.6115316100778
 20
287.5561106208126
 30
0.0
 10
351.6703772488287
 20
287.5550834663675
 30
0.0
 10
351.7281036818961
 20
287.5481973058295
 30
0.0
 10
351.8130835333507
 20
287.5294504244825
 30
0.0
 10
351.8411397569642
 20
287.5217877241155
 30
0.0
 10
351.8828084125739
 20
287.5081230240553
 30
0.0
 10
351.8966678886235
 20
287.5031898534206
 30
0.0
 10
351.9240149047527
 20
287.4926727716997
 30
0.0
 10
351.9374998936239
 20
287.4870928142138
 30
0.0
 10
352.0040009851479
 20
287.457619561851
 30
0.0
 10
352.0542724322934
 20
287.4290511518302
 30
0.0
 10
352.1134697422034
 20
287.3871689548062
 30
0.0
 10
352.1251254323694
 20
287.3784811206503
 30
0.0
 10
352.1480629303736
 20
287.3604728367401
 30
0.0
 10
352.1593482246838
 20
287.3511459958558
 30
0.0
 10
352.1922622916993
 20
287.3225336060054
 30
0.0
 10
352.2130837910262
 20
287.3025180432736
 30
0.0
 10
352.272285238478
 20
287.2397462036523
 30
0.0
 10
352.3074325032665
 20
287.1942900543652
 30
0.0
 10
352.3535091595904
 20
287.1206059356457
 30
0.0
 10
352.3675258400452
 20
287.0954794745874
 30
0.0
 10
352.3929008115677
 20
287.0442942603933
 30
0.0
 10
352.4156466508825
 20
286.9921286857676
 30
0.0
 10
352.4332141573105
 20
286.9380461356211
 30
0.0
 10
352.4481605350439
 20
286.8829990783078
 30
0.0
 10
352.4543198488716
 20
286.854923458627
 30
0.0
 10
352.4684934691692
 20
286.7709941138114
 30
0.0
 10
352.4724220241067
 20
286.7148893788528
 30
0.0
 10
352.4706055698244
 20
286.6445833752016
 30
0.0
 10
352.4699029694233
 20
286.6305132642672
 30
0.0
 10
352.4678115870198
 20
286.6023549645706
 30
0.0
 10
352.4664184120277
 20
286.5882334595428
 30
0.0
 10
352.4612237857597
 20
286.5460954153821
 30
0.0
 10
352.4564295636519
 20
286.5184022605559
 30
0.0
 10
352.4381893135656
 20
286.4364737819517
 30
0.0
 10
352.4209218163757
 20
286.3833797725302
 30
0.0
 10
352.3872274002195
 20
286.3060269639014
 30
0.0
 10
352.3746335241243
 20
286.2805550678589
 30
0.0
 10
352.3473006160626
 20
286.2314052219543
 30
0.0
 10
352.3325171086055
 20
286.2076037664189
 30
0.0
 10
352.2848543089635
 20
286.1384755666045
 30
0.0
 10
352.2486980658769
 20
286.0954016945139
 30
0.0
 10
352.1976535330552
 20
286.045511626008
 30
0.0
 10
352.1871777928613
 20
286.0357635701347
 30
0.0
 10
352.1658608674325
 20
286.0168760645222
 30
0.0
 10
352.1332641507734
 20
285.9893901069554
 30
0.0
 10
352.0758652937516
 20
285.9477438830562
 30
0.0
 10
352.0266489511647
 20
285.9188686041134
 30
0.0
 10
351.9884540700695
 20
285.8989295828447
 30
0.0
 10
351.975508270567
 20
285.8925700257667
 30
0.0
 10
351.9491753277675
 20
285.8804402645053
 30
0.0
 10
351.9357741566076
 20
285.8746671602711
 30
0.0
 10
351.8684769417219
 20
285.8476437296929
 30
0.0
 10
351.8130870122319
 20
285.831558084888
 30
0.0
 10
351.7276714297862
 20
285.8156834438298
 30
0.0
 10
351.6988084263447
 20
285.81177745969
 30
0.0
 10
351.6549006130738
 20
285.808087492323
 30
0.0
 10
351.6402038296067
 20
285.8072255877045
 30
0.0
 10
351.6109639934418
 20
285.8062451463609
 30
0.0
 10
351.5963808070204
 20
285.8061229475267
 30
0.0
 10
351.5236455788008
 20
285.8073223684381
 30
0.0
 10
351.4660305069821
 20
285.8140215622166
 30
0.0
 10
351.3947332819545
 20
285.8296425898396
 30
0.0
 10
351.3804686195634
 20
285.8331447659662
 30
0.0
 10
351.3522805408369
 20
285.8408194753142
 30
0.0
 10
351.3104868859849
 20
285.8533382967668
 30
0.0
 10
351.2431994413746
 20
285.879093215179
 30
0.0
 10
351.1918245485783
 20
285.9047874511109
 30
0.0
 10
351.1416777218907
 20
285.9330410348307
 30
0.0
 10
351.1171370992079
 20
285.9485194737332
 30
0.0
 10
351.0468325712772
 20
285.9978466048588
 30
0.0
 10
351.0038864404791
 20
286.0347744495713
 30
0.0
 10
350.9549073015808
 20
286.0858523652064
 30
0.0
 10
350.9453489024675
 20
286.0963161856737
 30
0.0
 10
350.9267108844012
 20
286.1177462149804
 30
0.0
 10
350.9176140994097
 20
286.1287362010558
 30
0.0
 10
350.8912973275822
 20
286.1621526904632
 30
0.0
 10
350.8749774263486
 20
286.1850975010401
 30
0.0
 10
350.8295581199063
 20
286.2558786619599
 30
0.0
 10
350.8039655280955
 20
286.3056437650865
 30
0.0
 10
350.7779216288606
 20
286.371171377252
 30
0.0
 10
350.7730068445969
 20
286.3844668398894
 30
0.0
 10
350.7638757320304
 20
286.4111331573995
 30
0.0
 10
350.7511927734597
 20
286.4513313212194
 30
0.0
 10
350.7350184176082
 20
286.5193074062143
 30
0.0
 10
350.7273137805493
 20
286.57472984141
 30
0.0
 10
350.7235318093345
 20
286.6166957680362
 30
0.0
 10
350.7226044824833
 20
286.6307510266537
 30
0.0
 10
350.7214293951175
 20
286.6589974658897
 30
0.0
 10
350.7211823793261
 20
286.6732268772998
 30
0.0
 10
350.7216832156729
 20
286.7441890187872
 30
0.0
 10
350.7275527708936
 20
286.8002218153149
 30
0.0
 10
350.7444117309634
 20
286.8831704043547
 30
0.0
 10
350.7513830004008
 20
286.9106350410507
 30
0.0
 10
350.7681178344861
 20
286.9651770217652
 30
0.0
 10
350.7779387425816
 20
286.9923595061219
 30
0.0
 10
350.8110525113578
 20
287.071562203628
 30
0.0
 10
350.8380714243962
 20
287.1217650348217
 30
0.0
 10
350.8860278669367
 20
287.1931183651816
 30
0.0
 10
350.9032595769201
 20
287.2162398817982
 30
0.0
 10
350.9403258572709
 20
287.2610893467732
 30
0.0
 10
350.9598754167833
 20
287.2824676537878
 30
0.0
 10
351.021315283937
 20
287.3433526144673
 30
0.0
 10
351.0660424503077
 20
287.3797277896395
 30
0.0
 10
351.1389158809575
 20
287.4277740072208
 30
0.0
 10
351.1642829929599
 20
287.4427345952205
 30
0.0
 10
351.2158647858306
 20
287.4697689430375
 30
0.0
 10
351.2685244419933
 20
287.4940943203491
 30
0.0
 10
351.3233013116414
 20
287.5130877702977
 30
0.0
 10
351.3651872915467
 20
287.525306432872
 30
0.0
 10
351.3792834186473
 20
287.5290409712507
 30
0.0
 10
351.407748611778
 20
287.5358211113563
 30
0.0
 10
351.422152608501
 20
287.5388726342172
 30
0.0
 10
351.4943555822501
 20
287.5522730221737
 30
0.0
 10
351.552685971327
 20
287.5571377752578
 30
0.0
 10
351.6115316100779
 20
287.5561106208126
 30
0.0
  0
SPLINE
  5
1C4
330
1F
100
AcDbEntity
  8
1
100
AcDbSpline
210
0.0
220
0.0
230
1.0
 70
     8
 71
     3
 72
    43
 73
    39
 74
     0
 42
0.000000001
 43
0.0000000001
 40
0.0
 40
0.0
 40
0.0
 40
0.0
 40
0.1249999999999851
 40
0.1249999999999851
 40
0.2499999999999702
 40
0.2499999999999702
 40
0.3749999999999553
 40
0.3749999999999553
 40
0.4374999999999349
 40
0.4374999999999349
 40
0.468749999999925
 40
0.468749999999925
 40
0.4999999999999151
 40
0.4999999999999151
 40
0.5624999999998957
 40
0.5624999999998957
 40
0.5937499999998951
 40
0.5937499999998951
 40
0.6249999999998947
 40
0.6249999999998947
 40
0.6874999999999063
 40
0.6874999999999063
 40
0.7499999999999179
 40
0.7499999999999179
 40
0.7656249999999206
 40
0.7656249999999206
 40
0.7812499999999233
 40
0.8124999999999298
 40
0.8124999999999298
 40
0.8437499999999364
 40
0.8437499999999364
 40
0.8749999999999429
 40
0.8749999999999429
 40
0.9062499999999495
 40
0.9062499999999495
 40
0.9374999999999563
 40
0.9374999999999563
 40
1.0
 40
1.0
 40
1.0
 40
1.0
 10
346.1548921890431
 20
292.0478898026719
 30
0.0
 10
346.1148820244506
 20
292.0600145494652
 30
0.0
 10
346.0758016519297
 20
292.0734841018013
 30
0.0
 10
345.9997633252096
 20
292.1035024084205
 30
0.0
 10
345.9628004722765
 20
292.1200440732452
 30
0.0
 10
345.8914637849558
 20
292.156893997102
 30
0.0
 10
345.8570753741944
 20
292.1771812140854
 30
0.0
 10
345.8081311909011
 20
292.2114560972092
 30
0.0
 10
345.7922604959356
 20
292.2235279684276
 30
0.0
 10
345.7692908696561
 20
292.2428539676088
 30
0.0
 10
345.7617539064884
 20
292.2495201385567
 30
0.0
 10
345.7471286006418
 20
292.2632007153573
 30
0.0
 10
345.7400387378265
 20
292.2702139167283
 30
0.0
 10
345.7195116435938
 20
292.291829350743
 30
0.0
 10
345.7068053421709
 20
292.30699859611
 30
0.0
 10
345.6896653252223
 20
292.3312377270582
 30
0.0
 10
345.6842742289851
 20
292.3395667637018
 30
0.0
 10
345.674257685394
 20
292.3568162484695
 30
0.0
 10
345.6696290613456
 20
292.3657547615474
 30
0.0
 10
345.6573527425816
 20
292.393133089416
 30
0.0
 10
345.6511867903511
 20
292.4122540157108
 30
0.0
 10
345.6445660538055
 20
292.4529379823282
 30
0.0
 10
345.6442673033542
 20
292.4737240769933
 30
0.0
 10
345.6485950527301
 20
292.5002841276747
 30
0.0
 10
345.6497035561786
 20
292.5056390717627
 30
0.0
 10
345.6523661764941
 20
292.5162000337862
 30
0.0
 10
345.6570375133396
 20
292.5318935614728
 30
0.0
 10
345.6637058740627
 20
292.5471499060163
 30
0.0
 10
345.6743368592196
 20
292.5671089572246
 30
0.0
 10
345.6805582797824
 20
292.5769214346418
 30
0.0
 10
345.6942043102627
 20
292.5955435923819
 30
0.0
 10
345.7016693318496
 20
292.604443308277
 30
0.0
 10
345.7177193008122
 20
292.6215243391418
 30
0.0
 10
345.7263289015692
 20
292.6297165687911
 30
0.0
 10
345.7441009829603
 20
292.6451126894952
 30
0.0
 10
345.7533130065567
 20
292.6523732785267
 30
0.0
 10
345.7817566951352
 20
292.6730710879137
 30
0.0
 10
345.8017874886938
 20
292.6854357307611
 30
0.0
 10
345.8226031363659
 20
292.6967468233801
 30
0.0
  0
SPLINE
  5
1C5
330
1F
100
AcDbEntity
  8
1
100
AcDbSpline
210
0.0
220
0.0
230
1.0
 70
     8
 71
     3
 72
    10
 73
     6
 74
     0
 42
0.000000001
 43
0.0000000001
 40
0.0
 40
0.0
 40
0.0
 40
0.0
 40
0.5
 40
0.5
 40
1.0
 40
1.0
 40
1.0
 40
1.0
 10
296.7569443623006
 20
280.2126901788692
 30
0.0
 10
296.9437206398601
 20
280.2192577747437
 30
0.0
 10
297.1327526008758
 20
280.2247616763057
 30
0.0
 10
297.5153450930852
 20
280.2323152405662
 30
0.0
 10
297.7089047117281
 20
280.2343653546822
 30
0.0
 10
297.9048419452957
 20
280.2343653546822
 30
0.0
  0
SPLINE
  5
1C6
330
1F
100
AcDbEntity
  8
1
100
AcDbSpline
210
0.0
220
0.0
230
1.0
 70
     8
 71
     3
 72
    28
 73
    24
 74
     0
 42
0.000000001
 43
0.0000000001
 40
0.0
 40
0.0
 40
0.0
 40
0.0
 40
0.0381895290786507
 40
0.0381895290786507
 40
0.0947666156034358
 40
0.0947666156034358
 40
0.2079207886530059
 40
0.2079207886530059
 40
0.2644978751777909
 40
0.2644978751777909
 40
0.3210749617025758
 40
0.3210749617025758
 40
0.4342291347521467
 40
0.4342291347521467
 40
0.5473833078017176
 40
0.5473833078017176
 40
0.6605374808512885
 40
0.6605374808512885
 40
0.7736916539008588
 40
0.7736916539008588
 40
0.8868458269504293
 40
0.8868458269504293
 40
1.0
 40
1.0
 40
1.0
 40
1.0
 10
319.6706355959258
 20
281.9410784675454
 30
0.0
 10
319.3981958631393
 20
281.8944922304832
 30
0.0
 10
319.1255402704389
 20
281.8492431388547
 30
0.0
 10
318.44835225514
 20
281.740274174381
 30
0.0
 10
318.043531474834
 20
281.6781492595947
 30
0.0
 10
316.8274130081463
 20
281.5001371882486
 30
0.0
 10
316.0144980672482
 20
281.3924959287505
 30
0.0
 10
314.7923158967442
 20
281.2447659161454
 30
0.0
 10
314.3844520499047
 20
281.1978212475293
 30
0.0
 10
313.5678370198506
 20
281.1081694710706
 30
0.0
 10
313.1590369286078
 20
281.0654581146374
 30
0.0
 10
311.9318559063299
 20
280.9432806772809
 30
0.0
 10
311.1126348604155
 20
280.8697446116211
 30
0.0
 10
309.4719947778562
 20
280.7365713971073
 30
0.0
 10
308.6505735939655
 20
280.6769461687146
 30
0.0
 10
307.0053946992334
 20
280.5700883611181
 30
0.0
 10
306.1815714369325
 20
280.5228598131042
 30
0.0
 10
304.531656374674
 20
280.4394074150181
 30
0.0
 10
303.7057950283193
 20
280.4031967995372
 30
0.0
 10
302.0520525467994
 20
280.3403327939755
 30
0.0
 10
301.2241705177613
 20
280.3136791515866
 30
0.0
 10
299.5661980717133
 20
280.268396191931
 30
0.0
 10
298.7361069324267
 20
280.2497650860565
 30
0.0
 10
297.9048419452957
 20
280.2343653546823
 30
0.0
  0
SPLINE
  5
1C7
330
1F
100
AcDbEntity
  8
1
100
AcDbSpline
210
0.0
220
0.0
230
1.0
 70
     8
 71
     3
 72
    10
 73
     6
 74
     0
 42
0.000000001
 43
0.0000000001
 40
0.0
 40
0.0
 40
0.0
 40
0.0
 40
0.5
 40
0.5
 40
1.0
 40
1.0
 40
1.0
 40
1.0
 10
293.9538318185191
 20
280.1695722632754
 30
0.0
 10
294.4186839746397
 20
280.1747417310165
 30
0.0
 10
294.8845197803102
 20
280.1813783217879
 30
0.0
 10
295.8186623508094
 20
280.1962565960567
 30
0.0
 10
296.2869749461344
 20
280.2044992858059
 30
0.0
 10
296.7569443623014
 20
280.2126901788692
 30
0.0
  0
SPLINE
  5
1C8
330
1F
100
AcDbEntity
  8
1
100
AcDbSpline
210
0.0
220
0.0
230
1.0
 70
     8
 71
     3
 72
    35
 73
    31
 74
     0
 42
0.000000001
 43
0.0000000001
 40
0.0
 40
0.0
 40
0.0
 40
0.0
 40
0.1250000000000574
 40
0.1250000000000574
 40
0.156250000000057
 40
0.156250000000057
 40
0.1875000000000566
 40
0.1875000000000566
 40
0.2500000000000559
 40
0.2500000000000559
 40
0.3750000000000543
 40
0.3750000000000543
 40
0.4375000000000537
 40
0.4375000000000537
 40
0.5000000000000528
 40
0.5000000000000528
 40
0.6250000000000512
 40
0.6250000000000512
 40
0.6562500000000446
 40
0.6562500000000446
 40
0.6875000000000381
 40
0.7500000000000248
 40
0.7500000000000248
 40
0.8750000000000227
 40
0.8750000000000227
 40
0.906250000000017
 40
0.906250000000017
 40
0.9375000000000111
 40
0.9375000000000111
 40
1.0
 40
1.0
 40
1.0
 40
1.0
 10
349.9857492267817
 20
291.7503628306268
 30
0.0
 10
349.9322183568088
 20
291.7335274358412
 30
0.0
 10
349.8775162884107
 20
291.7207990478464
 30
0.0
 10
349.8069074270995
 20
291.7104511132279
 30
0.0
 10
349.7926727570362
 20
291.7086630770726
 30
0.0
 10
349.7639548904349
 20
291.7056750661892
 30
0.0
 10
349.7494179749752
 20
291.7044721127286
 30
0.0
 10
349.7057820952747
 20
291.7018130551945
 30
0.0
 10
349.6769797458622
 20
291.7013157257055
 30
0.0
 10
349.5913872410583
 20
291.7034380903362
 30
0.0
 10
349.5354155535247
 20
291.7096426016472
 30
0.0
 10
349.4525750321963
 20
291.7256565073591
 30
0.0
 10
349.4255777696273
 20
291.7320343651111
 30
0.0
 10
349.3726379433534
 20
291.7466978468689
 30
0.0
 10
349.3466748346663
 20
291.7549888074508
 30
0.0
 10
349.2699949098925
 20
291.7826610805992
 30
0.0
 10
349.2204681289459
 20
291.8048125199083
 30
0.0
 10
349.1599793220579
 20
291.8373768507851
 30
0.0
 10
349.1479350911718
 20
291.8441477505076
 30
0.0
 10
349.1241377476399
 20
291.8581049620728
 30
0.0
 10
349.0888411435013
 20
291.8796821361648
 30
0.0
 10
349.054695994934
 20
291.9031882817058
 30
0.0
 10
348.9878632630214
 20
291.9528520199927
 30
0.0
 10
348.9452410823191
 20
291.9894608380198
 30
0.0
 10
348.8943142811252
 20
292.0402970403698
 30
0.0
 10
348.8842829503701
 20
292.0506872630798
 30
0.0
 10
348.8646669630249
 20
292.0717695718392
 30
0.0
 10
348.8550608745723
 20
292.0824828790691
 30
0.0
 10
348.8268447321616
 20
292.1151382484441
 30
0.0
 10
348.8088358791974
 20
292.1375948504283
 30
0.0
 10
348.7916306218468
 20
292.1607457935449
 30
0.0
  0
SPLINE
  5
1C9
330
1F
100
AcDbEntity
  8
1
100
AcDbSpline
210
0.0
220
0.0
230
1.0
 70
    12
 71
     2
 72
     6
 73
     3
 74
     0
 42
0.000000001
 43
0.0000000001
 40
0.0
 40
0.0
 40
0.0
 40
1.0
 40
1.0
 40
1.0
 10
348.7298515850287
 20
297.5732118111086
 30
0.0
 41
0.5000005921030042
 10
348.8420790220916
 20
297.5729391771649
 30
0.0
 41
0.4999994078969959
 10
348.9543024505172
 20
297.5726656708019
 30
0.0
 41
0.5000005921030042
  0
SPLINE
  5
1CA
330
1F
100
AcDbEntity
  8
1
100
AcDbSpline
210
0.0
220
0.0
230
1.0
 70
     8
 71
     3
 72
     8
 73
     4
 74
     0
 42
0.000000001
 43
0.0000000001
 40
0.0
 40
0.0
 40
0.0
 40
0.0
 40
1.0
 40
1.0
 40
1.0
 40
1.0
 10
347.689710726041
 20
295.6003362869084
 30
0.0
 10
347.5264450342669
 20
296.2407921501726
 30
0.0
 10
347.3769042838578
 20
296.8844219315153
 30
0.0
 10
347.2388134055024
 20
297.53069951695
 30
0.0
  0
SPLINE
  5
1CB
330
1F
100
AcDbEntity
  8
1
100
AcDbSpline
210
0.0
220
0.0
230
1.0
 70
     8
 71
     3
 72
    16
 73
    12
 74
     0
 42
0.000000001
 43
0.0000000001
 40
0.0
 40
0.0
 40
0.0
 40
0.0
 40
0.2500000000000132
 40
0.2500000000000132
 40
0.5000000000000263
 40
0.5000000000000263
 40
0.7500000000000396
 40
0.7500000000000396
 40
0.8750000000000197
 40
0.8750000000000197
 40
1.0
 40
1.0
 40
1.0
 40
1.0
 10
350.5228504397763
 20
292.114373591681
 30
0.0
 10
350.4870236451125
 20
292.0708607335135
 30
0.0
 10
350.4483385668125
 20
292.0303919053339
 30
0.0
 10
350.3652718674116
 20
291.9551984806344
 30
0.0
 10
350.32207774827
 20
291.9215349136439
 30
0.0
 10
350.2323263119615
 20
291.86103302958
 30
0.0
 10
350.1857553966802
 20
291.8341829513717
 30
0.0
 10
350.1128016752647
 20
291.7987941749045
 30
0.0
 10
350.0879588442198
 20
291.7878233935639
 30
0.0
 10
350.0375412328438
 20
291.7677365151585
 30
0.0
 10
350.0119101879041
 20
291.7585904217103
 30
0.0
 10
349.9857492267822
 20
291.7503628306271
 30
0.0
  0
SPLINE
  5
1CC
330
1F
100
AcDbEntity
  8
1
100
AcDbSpline
210
0.0
220
0.0
230
1.0
 70
     8
 71
     3
 72
    17
 73
    13
 74
     0
 42
0.000000001
 43
0.0000000001
 40
0.0
 40
0.0
 40
0.0
 40
0.0
 40
0.2499999999999999
 40
0.2499999999999999
 40
0.4999999999999999
 40
0.4999999999999999
 40
0.7499999999999997
 40
0.7499999999999997
 40
0.8124999999999932
 40
0.8124999999999932
 40
0.8749999999999868
 40
1.0
 40
1.0
 40
1.0
 40
1.0
 10
350.0088155164978
 20
291.1874504308638
 30
0.0
 10
349.8976555617733
 20
291.197247712005
 30
0.0
 10
349.7836311154468
 20
291.2067498488248
 30
0.0
 10
349.5504499740094
 20
291.2259626961039
 30
0.0
 10
349.4312896083202
 20
291.2356698522513
 30
0.0
 10
349.1881122145371
 20
291.2558777049992
 30
0.0
 10
349.0640940786772
 20
291.26637652304
 30
0.0
 10
348.9060584500184
 20
291.2802839020612
 30
0.0
 10
348.8743017726159
 20
291.2831042541019
 30
0.0
 10
348.8107293447576
 20
291.2888069386011
 30
0.0
 10
348.7151913047619
 20
291.2974617523215
 30
0.0
 10
348.6191216958362
 20
291.30644030978
 30
0.0
 10
348.5548419452957
 20
291.3125853187813
 30
0.0
  0
SPLINE
  5
1CD
330
1F
100
AcDbEntity
  8
1
100
AcDbSpline
210
0.0
220
0.0
230
1.0
 70
     8
 71
     3
 72
    14
 73
    10
 74
     0
 42
0.000000001
 43
0.0000000001
 40
0.0
 40
0.0
 40
0.0
 40
0.0
 40
0.125
 40
0.125
 40
0.25
 40
0.25
 40
0.5
 40
0.75
 40
1.0
 40
1.0
 40
1.0
 40
1.0
 10
346.5880318755958
 20
291.9248119594986
 30
0.0
 10
346.727061952276
 20
291.8932893284687
 30
0.0
 10
346.8667862029603
 20
291.8640463680659
 30
0.0
 10
347.1476017406898
 20
291.810166392891
 30
0.0
 10
347.2881994696714
 20
291.7856238822484
 30
0.0
 10
347.7105566629528
 20
291.7191221626449
 30
0.0
 10
348.275202275044
 20
291.6494392878416
 30
0.0
 10
349.126633974773
 20
291.601401798906
 30
0.0
 10
349.697242642129
 20
291.6072316395794
 30
0.0
 10
349.9833076070927
 20
291.6197918784448
 30
0.0
  0
SPLINE
  5
1CE
330
1F
100
AcDbEntity
  8
1
100
AcDbSpline
210
0.0
220
0.0
230
1.0
 70
     8
 71
     3
 72
    14
 73
    10
 74
     0
 42
0.000000001
 43
0.0000000001
 40
0.0
 40
0.0
 40
0.0
 40
0.0
 40
0.25
 40
0.25
 40
0.5
 40
0.5
 40
0.75
 40
0.75
 40
1.0
 40
1.0
 40
1.0
 40
1.0
 10
348.5548419452957
 20
290.1799144236498
 30
0.0
 10
348.686466587637
 20
290.1739950731197
 30
0.0
 10
348.816282450384
 20
290.1717256228489
 30
0.0
 10
349.0723195817916
 20
290.174112063042
 30
0.0
 10
349.198541274448
 20
290.1787686559935
 30
0.0
 10
349.4472261648249
 20
290.1948013653117
 30
0.0
 10
349.5696915748104
 20
290.2061768794915
 30
0.0
 10
349.8104777407477
 20
290.2356043023677
 30
0.0
 10
349.9272533764304
 20
290.253469188681
 30
0.0
 10
350.0400592839956
 20
290.2742655790926
 30
0.0
  0
SPLINE
  5
1CF
330
1F
100
AcDbEntity
  8
1
100
AcDbSpline
210
0.0
220
0.0
230
1.0
 70
     8
 71
     3
 72
     8
 73
     4
 74
     0
 42
0.000000001
 43
0.0000000001
 40
0.0
 40
0.0
 40
0.0
 40
0.0
 40
1.0
 40
1.0
 40
1.0
 40
1.0
 10
349.983307607101
 20
291.6197918784453
 30
0.0
 10
349.9868735471302
 20
291.6199484479804
 30
0.0
 10
349.9904401250987
 20
291.6201044819175
 30
0.0
 10
349.9940073416931
 20
291.6202599796802
 30
0.0
  0
SPLINE
  5
1D0
330
1F
100
AcDbEntity
  8
1
100
AcDbSpline
210
0.0
220
0.0
230
1.0
 70
     8
 71
     3
 72
    18
 73
    14
 74
     0
 42
0.000000001
 43
0.0000000001
 40
0.0
 40
0.0
 40
0.0
 40
0.0
 40
0.1249999999999935
 40
0.1249999999999935
 40
0.1874999999999903
 40
0.1874999999999903
 40
0.249999999999987
 40
0.249999999999987
 40
0.4999999999999913
 40
0.4999999999999913
 40
0.7499999999999957
 40
0.7499999999999957
 40
1.0
 40
1.0
 40
1.0
 40
1.0
 10
345.4956776750681
 20
290.743694829208
 30
0.0
 10
345.6760452015246
 20
290.6776523357342
 30
0.0
 10
345.8585657788129
 20
290.615994131014
 30
0.0
 10
346.1355734249521
 20
290.5301936972849
 30
0.0
 10
346.228447389349
 20
290.5027084620307
 30
0.0
 10
346.4152745992981
 20
290.4499918056028
 30
0.0
 10
346.5093292212372
 20
290.4247372585995
 30
0.0
 10
346.9797832371332
 20
290.3047874681371
 30
0.0
 10
347.3583233431945
 20
290.2285110588016
 30
0.0
 10
348.1195566221534
 20
290.1139663771751
 30
0.0
 10
348.502250151312
 20
290.0756998143714
 30
0.0
 10
349.2717599118941
 20
290.0371261789193
 30
0.0
 10
349.6585756137604
 20
290.0368143109458
 30
0.0
 10
350.0475226835154
 20
290.056127245273
 30
0.0
  0
SPLINE
  5
1D1
330
1F
100
AcDbEntity
  8
1
100
AcDbSpline
210
0.0
220
0.0
230
1.0
 70
     8
 71
     3
 72
    19
 73
    15
 74
     0
 42
0.000000001
 43
0.0000000001
 40
0.0
 40
0.0
 40
0.0
 40
0.0
 40
0.125
 40
0.125
 40
0.2500000000000001
 40
0.2500000000000001
 40
0.500000000000013
 40
0.500000000000013
 40
0.625000000000013
 40
0.625000000000013
 40
0.687500000000013
 40
0.687500000000013
 40
0.7500000000000132
 40
1.0
 40
1.0
 40
1.0
 40
1.0
 10
348.5548419452961
 20
290.1799144236497
 30
0.0
 10
348.4243112932725
 20
290.1875895221727
 30
0.0
 10
348.2940989914843
 20
290.1973119709282
 30
0.0
 10
348.034328179157
 20
290.2207480118816
 30
0.0
 10
347.9047698688138
 20
290.2344607819087
 30
0.0
 10
347.5170801511424
 20
290.2815313450343
 30
0.0
 10
347.2599348321468
 20
290.3208088219029
 30
0.0
 10
346.876194107298
 20
290.3915644156403
 30
0.0
 10
346.7486099406009
 20
290.4171256506175
 30
0.0
 10
346.5577282865502
 20
290.4584530252759
 30
0.0
 10
346.4941789416152
 20
290.4727283842097
 30
0.0
 10
346.3675490817831
 20
290.5022059313893
 30
0.0
 10
346.0519559702095
 20
290.5782594342582
 30
0.0
 10
345.7412255475716
 20
290.6660330633562
 30
0.0
 10
345.4956776750728
 20
290.7436948292055
 30
0.0
  0
SPLINE
  5
1D2
330
1F
100
AcDbEntity
  8
1
100
AcDbSpline
210
0.0
220
0.0
230
1.0
 70
     8
 71
     3
 72
    12
 73
     8
 74
     0
 42
0.000000001
 43
0.0000000001
 40
0.0
 40
0.0
 40
0.0
 40
0.0
 40
0.4999999999999933
 40
0.4999999999999933
 40
0.7499999999999966
 40
0.7499999999999966
 40
1.0
 40
1.0
 40
1.0
 40
1.0
 10
346.588031875596
 20
291.9248119594986
 30
0.0
 10
346.9211180076305
 20
291.7979841561285
 30
0.0
 10
347.2520013368363
 20
291.6843864304042
 30
0.0
 10
347.7442304953968
 20
291.531970797448
 30
0.0
 10
347.9076160190576
 20
291.484165467929
 30
0.0
 10
348.2326673749423
 20
291.394224380468
 30
0.0
 10
348.3943391634425
 20
291.3520916593451
 30
0.0
 10
348.5548419452958
 20
291.3125853187813
 30
0.0
  0
SPLINE
  5
1D3
330
1F
100
AcDbEntity
  8
1
100
AcDbSpline
210
0.0
220
0.0
230
1.0
 70
     8
 71
     3
 72
    29
 73
    25
 74
     0
 42
0.000000001
 43
0.0000000001
 40
0.0
 40
0.0
 40
0.0
 40
0.0
 40
0.124999999999983
 40
0.124999999999983
 40
0.1874999999999744
 40
0.1874999999999744
 40
0.2499999999999659
 40
0.2499999999999659
 40
0.3749999999999566
 40
0.3749999999999566
 40
0.4374999999999316
 40
0.4374999999999316
 40
0.4999999999999066
 40
0.4999999999999066
 40
0.6249999999999131
 40
0.6249999999999131
 40
0.6874999999999164
 40
0.6874999999999164
 40
0.7499999999999196
 40
0.8124999999999227
 40
0.8124999999999227
 40
0.8749999999999259
 40
0.8749999999999259
 40
1.0
 40
1.0
 40
1.0
 40
1.0
 10
354.4824138610762
 20
297.6579058009489
 30
0.0
 10
354.4812745407446
 20
297.683346066733
 30
0.0
 10
354.4775681716278
 20
297.7082330799902
 30
0.0
 10
354.468392740628
 20
297.7447843029344
 30
0.0
 10
354.4647266294351
 20
297.7568370860802
 30
0.0
 10
354.4561611804824
 20
297.7806768663383
 30
0.0
 10
354.4512487315511
 20
297.7924722303736
 30
0.0
 10
354.43498502543
 20
297.8266970225263
 30
0.0
 10
354.4220379844126
 20
297.8482419127143
 30
0.0
 10
354.3995067685285
 20
297.87867970704
 30
0.0
 10
354.3914291331526
 20
297.8885579284257
 30
0.0
 10
354.374425563529
 20
297.9074047617391
 30
0.0
 10
354.3655272626072
 20
297.9163541509155
 30
0.0
 10
354.3376758625927
 20
297.9418197479438
 30
0.0
 10
354.3175777642977
 20
297.956967130991
 30
0.0
 10
354.2850570428456
 20
297.976850642904
 30
0.0
 10
354.2738660338368
 20
297.9829647879778
 30
0.0
 10
354.2511590796039
 20
297.99398182863
 30
0.0
 10
354.2280232507856
 20
298.0038529858239
 30
0.0
 10
354.2040353333185
 20
298.0114475000993
 30
0.0
 10
354.1796112496133
 20
298.0178766488009
 30
0.0
 10
354.1671214399507
 20
298.0205168334385
 30
0.0
 10
354.1294487111995
 20
298.026522444418
 30
0.0
 10
354.1041546277518
 20
298.0280077550283
 30
0.0
 10
354.0786761064329
 20
298.0268971263472
 30
0.0
  0
SPLINE
  5
1D4
330
1F
100
AcDbEntity
  8
1
100
AcDbSpline
210
0.0
220
0.0
230
1.0
 70
     8
 71
     3
 72
    29
 73
    25
 74
     0
 42
0.000000001
 43
0.0000000001
 40
0.0
 40
0.0
 40
0.0
 40
0.0
 40
0.1249999999999252
 40
0.1249999999999252
 40
0.1874999999999202
 40
0.1874999999999202
 40
0.2499999999999152
 40
0.2499999999999152
 40
0.3749999999998471
 40
0.3749999999998471
 40
0.4374999999998405
 40
0.4374999999998405
 40
0.4999999999998339
 40
0.4999999999998339
 40
0.6249999999998673
 40
0.6249999999998673
 40
0.6874999999998877
 40
0.6874999999998877
 40
0.749999999999908
 40
0.8124999999999284
 40
0.8124999999999284
 40
0.8749999999999486
 40
0.8749999999999486
 40
1.0
 40
1.0
 40
1.0
 40
1.0
 10
349.3019819929956
 20
297.8186772921713
 30
0.0
 10
349.2765007804953
 20
297.8175665461793
 30
0.0
 10
349.2515764302867
 20
297.8138924134306
 30
0.0
 10
349.214974286535
 20
297.8047704952195
 30
0.0
 10
349.2029053842373
 20
297.8011230884446
 30
0.0
 10
349.1790350998294
 20
297.7925968075896
 30
0.0
 10
349.1672253506922
 20
297.787704852785
 30
0.0
 10
349.1329609283651
 20
297.7715039332026
 30
0.0
 10
349.1113939326157
 20
297.7586008938652
 30
0.0
 10
349.0809293570629
 20
297.736138849416
 30
0.0
 10
349.0710432471926
 20
297.7280849277544
 30
0.0
 10
349.0521830337055
 20
297.7111292331753
 30
0.0
 10
349.0432281556905
 20
297.7022550277466
 30
0.0
 10
349.017749595763
 20
297.6744763749572
 30
0.0
 10
349.0025982074379
 20
297.6544273845586
 30
0.0
 10
348.9827158783668
 20
297.621981270577
 30
0.0
 10
348.9766033465294
 20
297.6108151714749
 30
0.0
 10
348.9655918797145
 20
297.5881573032494
 30
0.0
 10
348.9557286444924
 20
297.5650700669898
 30
0.0
 10
348.948146717466
 20
297.5411297616964
 30
0.0
 10
348.9417325440708
 20
297.5167527883264
 30
0.0
 10
348.9391010899973
 20
297.5042863902523
 30
0.0
 10
348.9331250561315
 20
297.4666822231348
 30
0.0
 10
348.9316638231337
 20
297.4414315008709
 30
0.0
 10
348.9328030231367
 20
297.4159939219435
 30
0.0
  0
SPLINE
  5
1D5
330
1F
100
AcDbEntity
  8
1
100
AcDbSpline
210
0.0
220
0.0
230
1.0
 70
     8
 71
     3
 72
    29
 73
    25
 74
     0
 42
0.000000001
 43
0.0000000001
 40
0.0
 40
0.0
 40
0.0
 40
0.0
 40
0.1249999999999553
 40
0.1249999999999553
 40
0.187499999999933
 40
0.187499999999933
 40
0.2499999999999106
 40
0.2499999999999106
 40
0.3749999999998659
 40
0.3749999999998659
 40
0.4374999999998649
 40
0.4374999999998649
 40
0.4999999999998638
 40
0.4999999999998638
 40
0.6249999999999138
 40
0.6249999999999138
 40
0.6874999999999395
 40
0.6874999999999395
 40
0.749999999999965
 40
0.8124999999999905
 40
0.8124999999999905
 40
0.8750000000000161
 40
0.8750000000000161
 40
1.0
 40
1.0
 40
1.0
 40
1.0
 10
349.1463793873355
 20
292.6469756574487
 30
0.0
 10
349.1475187076671
 20
292.6215353916646
 30
0.0
 10
349.1512250767839
 20
292.5966483784075
 30
0.0
 10
349.1604005077836
 20
292.5600971554633
 30
0.0
 10
349.1640666189767
 20
292.5480443723175
 30
0.0
 10
349.1726320679294
 20
292.5242045920593
 30
0.0
 10
349.1775445168607
 20
292.5124092280239
 30
0.0
 10
349.1938082229818
 20
292.4781844358712
 30
0.0
 10
349.2067552639992
 20
292.4566395456833
 30
0.0
 10
349.2292864798833
 20
292.4262017513576
 30
0.0
 10
349.2373641152591
 20
292.416323529972
 30
0.0
 10
349.2543676848827
 20
292.3974766966586
 30
0.0
 10
349.2632659858045
 20
292.3885273074821
 30
0.0
 10
349.291117385819
 20
292.3630617104538
 30
0.0
 10
349.3112154841142
 20
292.3479143274066
 30
0.0
 10
349.3437362055662
 20
292.3280308154936
 30
0.0
 10
349.3549272145749
 20
292.3219166704197
 30
0.0
 10
349.3776341688079
 20
292.3108996297676
 30
0.0
 10
349.4007699976261
 20
292.3010284725737
 30
0.0
 10
349.4247579150932
 20
292.2934339582983
 30
0.0
 10
349.4491819987984
 20
292.2870048095967
 30
0.0
 10
349.4616718084612
 20
292.2843646249591
 30
0.0
 10
349.4993445372122
 20
292.2783590139796
 30
0.0
 10
349.52463862066
 20
292.2768737033694
 30
0.0
 10
349.5501171419789
 20
292.2779843320506
 30
0.0
  0
SPLINE
  5
1D6
330
1F
100
AcDbEntity
  8
1
100
AcDbSpline
210
0.0
220
0.0
230
1.0
 70
     8
 71
     3
 72
    29
 73
    25
 74
     0
 42
0.000000001
 43
0.0000000001
 40
0.0
 40
0.0
 40
0.0
 40
0.0
 40
0.1250000000000002
 40
0.1250000000000002
 40
0.1874999999999669
 40
0.1874999999999669
 40
0.2499999999999336
 40
0.2499999999999336
 40
0.3749999999998677
 40
0.3749999999998677
 40
0.4374999999998625
 40
0.4374999999998625
 40
0.4999999999998572
 40
0.4999999999998572
 40
0.6249999999998949
 40
0.6249999999998949
 40
0.6874999999999146
 40
0.6874999999999146
 40
0.7499999999999342
 40
0.8124999999999536
 40
0.8124999999999536
 40
0.8749999999999733
 40
0.8749999999999733
 40
1.0
 40
1.0
 40
1.0
 40
1.0
 10
354.3268112554162
 20
292.4862041662263
 30
0.0
 10
354.3522924679164
 20
292.4873149122183
 30
0.0
 10
354.377216818125
 20
292.4909890449671
 30
0.0
 10
354.4138189618767
 20
292.5001109631781
 30
0.0
 10
354.4258878641745
 20
292.5037583699531
 30
0.0
 10
354.4497581485824
 20
292.5122846508082
 30
0.0
 10
354.4615678977196
 20
292.5171766056126
 30
0.0
 10
354.4958323200465
 20
292.533377525195
 30
0.0
 10
354.5173993157962
 20
292.5462805645325
 30
0.0
 10
354.5478638913488
 20
292.5687426089816
 30
0.0
 10
354.5577500012192
 20
292.5767965306432
 30
0.0
 10
354.5766102147062
 20
292.5937522252224
 30
0.0
 10
354.5855650927213
 20
292.602626430651
 30
0.0
 10
354.6110436526488
 20
292.6304050834405
 30
0.0
 10
354.6261950409739
 20
292.6504540738389
 30
0.0
 10
354.646077370045
 20
292.6829001878206
 30
0.0
 10
354.6521899018823
 20
292.6940662869227
 30
0.0
 10
354.6632013686972
 20
292.7167241551481
 30
0.0
 10
354.6730646039194
 20
292.7398113914078
 30
0.0
 10
354.6806465309458
 20
292.7637516967013
 30
0.0
 10
354.687060704341
 20
292.7881286700712
 30
0.0
 10
354.6896921584144
 20
292.8005950681454
 30
0.0
 10
354.6956681922803
 20
292.8381992352626
 30
0.0
 10
354.6971294252781
 20
292.8634499575268
 30
0.0
 10
354.6959902252751
 20
292.8888875364541
 30
0.0
  0
LINE
  5
1F2
330
1F
100
AcDbEntity
  8
SK4
100
AcDbLine
 10
214.904842
 20
288.907994
 30
0.0
 11
277.404842
 21
288.907994
 31
0.0
  0
LINE
  5
1F3
330
1F
100
AcDbEntity
  8
4
100
AcDbLine
 10
270.953832
 20
288.907994
 30
0.0
 11
359.088013
 21
288.907994
 31
0.0
  0
MTEXT
  5
1F9
330
1F
100
AcDbEntity
  8
SK6
100
AcDbMText
 10
258.520787
 20
241.27662
 30
0.0
 40
3.5
 41
0.0
 71
     7
 72
     5
  1
\W0.7625;803D-18,5-55,5-S25
  7
cesky
 73
     2
 44
0.8433729999999998
  0
MTEXT
  5
30A
330
1F
100
AcDbEntity
  8
2
100
AcDbMText
 10
310.315342
 20
327.385163
 30
0.0
 40
3.5
 41
0.0
 71
     7
 72
     5
  1
\W0.8459;80,5
  7
cesky
 73
     2
 44
0.8433729999999998
  0
LINE
  5
30B
330
1F
100
AcDbEntity
  8
2
100
AcDbLine
 10
354.904842
 20
298.1579939999999
 30
0.0
 11
354.904842
 21
328.5109970000001
 31
0.0
  0
LINE
  5
30C
330
1F
100
AcDbEntity
  8
2
100
AcDbLine
 10
274.404842
 20
289.907567
 30
0.0
 11
274.404842
 21
328.5109970000001
 31
0.0
  0
LINE
  5
30D
330
1F
100
AcDbEntity
  8
2
100
AcDbLine
 10
354.904842
 20
327.510997
 30
0.0
 11
274.404842
 21
327.510997
 31
0.0
  0
SOLID
  5
30E
330
1F
100
AcDbEntity
  8
2
100
AcDbTrace
 10
354.904842
 20
327.510997
 30
0.0
 11
351.404844
 21
326.893852
 31
0.0
 12
351.40484
 22
328.128141
 32
0.0
 13
351.40484
 23
328.128141
 33
0.0
  0
SOLID
  5
30F
330
1F
100
AcDbEntity
  8
2
100
AcDbTrace
 10
274.404842
 20
327.510997
 30
0.0
 11
277.90484
 21
328.128141
 31
0.0
 12
277.904844
 22
326.893852
 32
0.0
 13
277.904844
 23
326.893852
 33
0.0
  0
MTEXT
  5
310
330
1F
100
AcDbEntity
  8
2
100
AcDbMText
 10
281.052842
 20
340.562135
 30
0.0
 40
3.5
 41
0.0
 71
     7
 72
     5
  1
\W0.8654;136,5
  7
cesky
 73
     2
 44
0.8433729999999998
  0
LINE
  5
311
330
1F
100
AcDbEntity
  8
2
100
AcDbLine
 10
354.904842
 20
300.157994
 30
0.0
 11
354.904842
 21
341.687968
 31
0.0
  0
LINE
  5
312
330
1F
100
AcDbEntity
  8
2
100
AcDbLine
 10
218.404842
 20
299.407994
 30
0.0
 11
218.404842
 21
341.687968
 31
0.0
  0
LINE
  5
313
330
1F
100
AcDbEntity
  8
2
100
AcDbLine
 10
354.904842
 20
340.687968
 30
0.0
 11
218.404842
 21
340.687968
 31
0.0
  0
SOLID
  5
314
330
1F
100
AcDbEntity
  8
2
100
AcDbTrace
 10
354.904842
 20
340.687968
 30
0.0
 11
351.404844
 21
340.070823
 31
0.0
 12
351.40484
 22
341.305112
 32
0.0
 13
351.40484
 23
341.305112
 33
0.0
  0
SOLID
  5
315
330
1F
100
AcDbEntity
  8
2
100
AcDbTrace
 10
218.404842
 20
340.687968
 30
0.0
 11
221.90484
 21
341.305112
 31
0.0
 12
221.904844
 22
340.070823
 32
0.0
 13
221.904844
 23
340.070823
 33
0.0
  0
MTEXT
  5
316
330
1F
100
AcDbEntity
  8
2
100
AcDbMText
 10
244.590342
 20
327.385163
 30
0.0
 40
3.5
 41
0.0
 71
     7
 72
     5
  1
\W0.7259;56
  7
cesky
 73
     2
 44
0.8433729999999998
  0
LINE
  5
317
330
1F
100
AcDbEntity
  8
2
100
AcDbLine
 10
274.404842
 20
288.907994
 30
0.0
 11
274.404842
 21
328.5109970000001
 31
0.0
  0
LINE
  5
318
330
1F
100
AcDbEntity
  8
2
100
AcDbLine
 10
218.404842
 20
299.407994
 30
0.0
 11
218.404842
 21
328.5109970000001
 31
0.0
  0
LINE
  5
319
330
1F
100
AcDbEntity
  8
2
100
AcDbLine
 10
274.404842
 20
327.510997
 30
0.0
 11
218.404842
 21
327.510997
 31
0.0
  0
SOLID
  5
31A
330
1F
100
AcDbEntity
  8
2
100
AcDbTrace
 10
274.404842
 20
327.510997
 30
0.0
 11
270.904844
 21
326.893852
 31
0.0
 12
270.90484
 22
328.128141
 32
0.0
 13
270.90484
 23
328.128141
 33
0.0
  0
SOLID
  5
31B
330
1F
100
AcDbEntity
  8
2
100
AcDbTrace
 10
218.404842
 20
327.510997
 30
0.0
 11
221.90484
 21
328.128141
 31
0.0
 12
221.904844
 22
326.893852
 32
0.0
 13
221.904844
 23
326.893852
 33
0.0
  0
MTEXT
  5
31C
330
1F
100
AcDbEntity
  8
2
100
AcDbMText
 10
319.948872
 20
313.598676
 30
0.0
 40
3.5
 41
0.0
 71
     7
 72
     5
  1
\W0.9023;61,2
  7
cesky
 73
     2
 44
0.8433729999999998
  0
LINE
  5
31D
330
1F
100
AcDbEntity
  8
2
100
AcDbLine
 10
354.904842
 20
300.157994
 30
0.0
 11
354.904842
 21
314.724509
 31
0.0
  0
LINE
  5
31E
330
1F
100
AcDbEntity
  8
2
100
AcDbLine
 10
293.671902
 20
297.855832
 30
0.0
 11
293.671902
 21
314.724509
 31
0.0
  0
LINE
  5
31F
330
1F
100
AcDbEntity
  8
2
100
AcDbLine
 10
354.904842
 20
313.724509
 30
0.0
 11
293.671902
 21
313.724509
 31
0.0
  0
SOLID
  5
320
330
1F
100
AcDbEntity
  8
2
100
AcDbTrace
 10
354.904842
 20
313.724509
 30
0.0
 11
351.404844
 21
313.107365
 31
0.0
 12
351.40484
 22
314.341653
 32
0.0
 13
351.40484
 23
314.341653
 33
0.0
  0
SOLID
  5
321
330
1F
100
AcDbEntity
  8
2
100
AcDbTrace
 10
293.671902
 20
313.724509
 30
0.0
 11
297.171899
 21
314.341653
 31
0.0
 12
297.171904
 22
313.107365
 32
0.0
 13
297.171904
 23
313.107365
 33
0.0
  0
MTEXT
  5
322
330
1F
100
AcDbEntity
  8
2
100
AcDbMText
 10
371.216551
 20
281.084521
 30
0.0
 40
3.5
 41
0.0
 71
     7
 72
     5
  1
\W0.9023;18,5
  7
cesky
 11
0.0000000000000001
 21
1.0
 31
0.0
 73
     2
 44
0.8433729999999998
  0
MTEXT
  5
323
330
1F
100
AcDbEntity
  8
2
100
AcDbMText
 10
371.216551
 20
274.347021
 30
0.0
 40
3.5
 41
0.0
 71
     7
 72
     5
  1
\W3.0115;\H2.63;%%c\H3.50;
  7
cesky
 11
0.0000000000000001
 21
1.0
 31
0.0
 73
     2
 44
0.8433729999999998
  0
LINE
  5
324
330
1F
100
AcDbEntity
  8
2
100
AcDbLine
 10
356.904842
 20
298.1579939999999
 30
0.0
 11
372.403968
 21
298.1579939999999
 31
0.0
  0
LINE
  5
325
330
1F
100
AcDbEntity
  8
2
100
AcDbLine
 10
371.403968
 20
298.1579939999999
 30
0.0
 11
371.403968
 21
274.189521
 31
0.0
  0
SOLID
  5
326
330
1F
100
AcDbEntity
  8
2
100
AcDbTrace
 10
371.403968
 20
298.1579939999999
 30
0.0
 11
372.021112
 21
294.657996
 31
0.0
 12
370.786823
 22
294.657991
 32
0.0
 13
370.786823
 23
294.657991
 33
0.0
  0
MTEXT
  5
327
330
1F
100
AcDbEntity
  8
SK2
100
AcDbMText
 10
206.117323
 20
290.434244
 30
0.0
 40
3.5
 41
0.0
 71
     7
 72
     5
  1
\W0.7045;25
  7
cesky
 11
0.0000000000000001
 21
1.0
 31
0.0
 73
     2
 44
0.8433729999999998
  0
MTEXT
  5
328
330
1F
100
AcDbEntity
  8
SK2
100
AcDbMText
 10
206.117323
 20
283.696744
 30
0.0
 40
3.5
 41
0.0
 71
     7
 72
     5
  1
\W3.0115;\H2.63;%%c\H3.50;
  7
cesky
 11
0.0000000000000001
 21
1.0
 31
0.0
 73
     2
 44
0.8433729999999998
  0
LINE
  5
329
330
1F
100
AcDbEntity
  8
SK2
100
AcDbLine
 10
220.404842
 20
301.407994
 30
0.0
 11
205.304739
 21
301.407994
 31
0.0
  0
LINE
  5
32A
330
1F
100
AcDbEntity
  8
SK2
100
AcDbLine
 10
220.404842
 20
276.407994
 30
0.0
 11
205.304739
 21
276.407994
 31
0.0
  0
LINE
  5
32B
330
1F
100
AcDbEntity
  8
SK2
100
AcDbLine
 10
206.304739
 20
301.407994
 30
0.0
 11
206.304739
 21
276.407994
 31
0.0
  0
SOLID
  5
32C
330
1F
100
AcDbEntity
  8
SK2
100
AcDbTrace
 10
206.304739
 20
301.407994
 30
0.0
 11
206.921884
 21
297.9079959999999
 31
0.0
 12
205.687595
 22
297.907991
 32
0.0
 13
205.687595
 23
297.907991
 33
0.0
  0
SOLID
  5
32D
330
1F
100
AcDbEntity
  8
SK2
100
AcDbTrace
 10
206.304739
 20
276.407994
 30
0.0
 11
205.687595
 21
279.9079910000001
 31
0.0
 12
206.921884
 22
279.907996
 32
0.0
 13
206.921884
 23
279.907996
 33
0.0
  0
MTEXT
  5
32E
330
1F
100
AcDbEntity
  8
SK2
100
AcDbMText
 10
193.332501
 20
290.434244
 30
0.0
 40
3.5
 41
0.0
 71
     7
 72
     5
  1
\W0.7045;35
  7
cesky
 11
0.0000000000000001
 21
1.0
 31
0.0
 73
     2
 44
0.8433729999999998
  0
MTEXT
  5
32F
330
1F
100
AcDbEntity
  8
SK2
100
AcDbMText
 10
193.332501
 20
283.696744
 30
0.0
 40
3.5
 41
0.0
 71
     7
 72
     5
  1
\W3.0115;\H2.63;%%c\H3.50;
  7
cesky
 11
0.0000000000000001
 21
1.0
 31
0.0
 73
     2
 44
0.8433729999999998
  0
LINE
  5
330
330
1F
100
AcDbEntity
  8
SK2
100
AcDbLine
 10
274.904842
 20
306.407994
 30
0.0
 11
192.519918
 21
306.407994
 31
0.0
  0
LINE
  5
331
330
1F
100
AcDbEntity
  8
SK2
100
AcDbLine
 10
274.904842
 20
271.407994
 30
0.0
 11
192.519918
 21
271.407994
 31
0.0
  0
LINE
  5
332
330
1F
100
AcDbEntity
  8
SK2
100
AcDbLine
 10
193.519918
 20
306.407994
 30
0.0
 11
193.519918
 21
271.407994
 31
0.0
  0
SOLID
  5
333
330
1F
100
AcDbEntity
  8
SK2
100
AcDbTrace
 10
193.519918
 20
306.407994
 30
0.0
 11
194.137062
 21
302.907996
 31
0.0
 12
192.902773
 22
302.907991
 32
0.0
 13
192.902773
 23
302.907991
 33
0.0
  0
SOLID
  5
334
330
1F
100
AcDbEntity
  8
SK2
100
AcDbTrace
 10
193.519918
 20
271.407994
 30
0.0
 11
192.902773
 21
274.907991
 31
0.0
 12
194.137062
 22
274.9079959999999
 32
0.0
 13
194.137062
 23
274.9079959999999
 33
0.0
  0
LINE
  5
335
330
1F
100
AcDbEntity
  8
CUT
100
AcDbLine
 10
349.3019819929956
 20
297.9343248055546
 30
0.0
 11
354.0786761064329
 21
298.1553961452542
 31
0.0
  0
LINE
  5
338
330
1F
100
AcDbEntity
  8
CUT
100
AcDbLine
 10
354.4824138610762
 20
297.7891363369664
 30
0.0
 11
354.6713067165236
 21
293.6147944965549
 31
0.0
  0
LINE
  5
33A
330
1F
100
AcDbEntity
  8
CUT
100
AcDbLine
 10
354.6713067165236
 20
293.6147944965549
 30
0.0
 11
354.8331914855816
 21
293.3454375022521
 31
0.0
  0
LINE
  5
33B
330
1F
100
AcDbEntity
  8
CUT
100
AcDbLine
 10
354.904667
 20
289.263799
 30
0.0
 11
354.904667
 21
288.907994
 31
0.0
  0
LINE
  5
33C
330
1F
100
AcDbEntity
  8
CUT
100
AcDbLine
 10
354.904667
 20
288.907994
 30
0.0
 11
348.932803
 21
288.907994
 31
0.0
  0
LINE
  5
33D
330
1F
100
AcDbEntity
  8
CUT
100
AcDbLine
 10
348.932803
 20
288.907994
 30
0.0
 11
348.932803
 21
297.531972
 31
0.0
  0
ARC
  5
33E
330
1F
100
AcDbEntity
  8
CUT
100
AcDbCircle
 10
354.0938611036994
 20
297.7660543787477
 30
0.0
 40
0.389637774462774
100
AcDbArc
 50
8.947797602031283
 51
92.23350173312077
  0
ARC
  5
33F
330
1F
100
AcDbEntity
  8
CUT
100
AcDbCircle
 10
354.1180156277909
 20
297.7725605434481
 30
0.0
 40
0.364775039376694
100
AcDbArc
 50
2.604482376603078
 51
8.528393115073562
  0
LINE
  5
340
330
1F
100
AcDbEntity
  8
CUT
100
AcDbLine
 10
354.8331914855816
 20
293.3454375022521
 30
0.0
 11
354.8331914855816
 21
293.3454375022521
 31
0.0
  0
ARC
  5
341
330
1F
100
AcDbEntity
  8
CUT
100
AcDbCircle
 10
-2722.104064342434
 20
237.4219666182209
 30
0.0
 40
3077.445419645677
100
AcDbArc
 50
0.9652352116902426
 51
1.041238688471687
  0
LINE
  5
342
330
1F
100
AcDbEntity
  8
CUT
100
AcDbLine
 10
348.9328030231367
 20
297.5319721251457
 30
0.0
 11
348.9328030231367
 21
297.5319721251457
 31
0.0
  0
ARC
  5
343
330
1F
100
AcDbEntity
  8
CUT
100
AcDbCircle
 10
349.3229192557313
 20
297.5445672611579
 30
0.0
 40
0.3903195003903554
100
AcDbArc
 50
93.07489845955482
 51
181.8491861996577
  0
ENDSEC
  0
SECTION
  2
OBJECTS
  0
DICTIONARY
  5
C
330
0
100
AcDbDictionary
281
     1
  3
ACAD_CIP_PREVIOUS_PRODUCT_INFO
350
307
  3
ACAD_COLOR
350
302
  3
ACAD_DETAILVIEWSTYLE
350
2FE
  3
ACAD_GROUP
350
D
  3
ACAD_LAYOUT
350
1A
  3
ACAD_MATERIAL
350
43
  3
ACAD_MLEADERSTYLE
350
6B
  3
ACAD_MLINESTYLE
350
17
  3
ACAD_PLOTSETTINGS
350
19
  3
ACAD_PLOTSTYLENAME
350
E
  3
ACAD_SCALELIST
350
47
  3
ACAD_SECTIONVIEWSTYLE
350
2FF
  3
ACAD_TABLESTYLE
350
69
  3
ACAD_VISUALSTYLE
350
2A
  3
ACDB_RECOMPOSE_DATA
350
36F
  3
AcDbVariableDictionary
350
2BB
  0
DICTIONARY
  5
352
330
10
100
AcDbDictionary
280
     1
281
     1
  3
ADSK_XREC_LAYER_RECONCILED
360
353
  0
DICTIONARY
  5
354
330
344
100
AcDbDictionary
280
     1
281
     1
  3
ADSK_XREC_LAYER_RECONCILED
360
355
  0
DICTIONARY
  5
356
330
345
100
AcDbDictionary
280
     1
281
     1
  3
ADSK_XREC_LAYER_RECONCILED
360
357
  0
DICTIONARY
  5
358
330
346
100
AcDbDictionary
280
     1
281
     1
  3
ADSK_XREC_LAYER_RECONCILED
360
359
  0
DICTIONARY
  5
35A
330
348
100
AcDbDictionary
280
     1
281
     1
  3
ADSK_XREC_LAYER_RECONCILED
360
35B
  0
DICTIONARY
  5
35C
330
349
100
AcDbDictionary
280
     1
281
     1
  3
ADSK_XREC_LAYER_RECONCILED
360
35D
  0
DICTIONARY
  5
35E
330
34B
100
AcDbDictionary
280
     1
281
     1
  3
ADSK_XREC_LAYER_RECONCILED
360
35F
  0
DICTIONARY
  5
360
330
34C
100
AcDbDictionary
280
     1
281
     1
  3
ADSK_XREC_LAYER_RECONCILED
360
361
  0
DICTIONARY
  5
362
330
34D
100
AcDbDictionary
280
     1
281
     1
  3
ADSK_XREC_LAYER_RECONCILED
360
363
  0
DICTIONARY
  5
364
330
34E
100
AcDbDictionary
280
     1
281
     1
  3
ADSK_XREC_LAYER_RECONCILED
360
365
  0
DICTIONARY
  5
366
330
34F
100
AcDbDictionary
280
     1
281
     1
  3
ADSK_XREC_LAYER_RECONCILED
360
367
  0
DICTIONARY
  5
368
330
350
100
AcDbDictionary
280
     1
281
     1
  3
ADSK_XREC_LAYER_RECONCILED
360
369
  0
DICTIONARY
  5
308
330
1F
100
AcDbDictionary
280
     1
281
     1
  3
ACAD_SORTENTS
360
309
  0
XRECORD
  5
307
102
{ACAD_REACTORS
330
C
102
}
330
C
100
AcDbXrecord
280
     1
300
ACD
300
2019
300
87084ACD_2019_0F
  0
DICTIONARY
  5
302
102
{ACAD_REACTORS
330
C
102
}
330
C
100
AcDbDictionary
281
     1
  0
DICTIONARY
  5
2FE
102
{ACAD_REACTORS
330
C
102
}
330
C
100
AcDbDictionary
281
     1
  3
Metric50
350
304
  0
DICTIONARY
  5
D
102
{ACAD_REACTORS
330
C
102
}
330
C
100
AcDbDictionary
281
     1
  3
NULOVY_BOD
350
351
  0
DICTIONARY
  5
1A
102
{ACAD_REACTORS
330
C
102
}
330
C
100
AcDbDictionary
281
     1
  3
Layout1
350
1E
  3
Layout2
350
26
  3
Model
350
22
  0
DICTIONARY
  5
43
102
{ACAD_REACTORS
330
C
102
}
330
C
100
AcDbDictionary
281
     1
  3
ByBlock
350
45
  3
ByLayer
350
44
  3
Global
350
46
  0
DICTIONARY
  5
6B
102
{ACAD_REACTORS
330
C
102
}
330
C
100
AcDbDictionary
281
     1
  3
Standard
350
6C
  0
DICTIONARY
  5
17
102
{ACAD_REACTORS
330
C
102
}
330
C
100
AcDbDictionary
281
     1
  3
Standard
350
18
  0
DICTIONARY
  5
19
102
{ACAD_REACTORS
330
C
102
}
330
C
100
AcDbDictionary
281
     1
  0
ACDBDICTIONARYWDFLT
  5
E
102
{ACAD_REACTORS
330
C
102
}
330
C
100
AcDbDictionary
281
     1
  3
Normal
350
F
100
AcDbDictionaryWithDefault
340
F
  0
DICTIONARY
  5
47
102
{ACAD_REACTORS
330
C
102
}
330
C
100
AcDbDictionary
281
     1
  3
A0
350
48
  3
A1
350
49
  3
A2
350
4A
  3
A3
350
4B
  3
A4
350
4C
  3
A5
350
4D
  3
A6
350
4E
  3
A7
350
4F
  3
A8
350
50
  3
A9
350
51
  3
B0
350
52
  3
B1
350
53
  3
B2
350
54
  3
B3
350
55
  3
B4
350
56
  3
B5
350
57
  3
B6
350
58
  3
B7
350
59
  3
B8
350
5A
  3
B9
350
5B
  3
C0
350
5C
  3
C1
350
5D
  3
C2
350
5E
  3
C3
350
5F
  3
C4
350
60
  3
C5
350
61
  3
C6
350
62
  3
C7
350
63
  3
C8
350
64
  3
C9
350
65
  3
D0
350
66
  3
D1
350
67
  3
D2
350
68
  0
DICTIONARY
  5
2FF
102
{ACAD_REACTORS
330
C
102
}
330
C
100
AcDbDictionary
281
     1
  3
Metric50
350
303
  0
DICTIONARY
  5
69
102
{ACAD_REACTORS
330
C
102
}
330
C
100
AcDbDictionary
281
     1
  3
Standard
350
6A
  0
DICTIONARY
  5
2A
102
{ACAD_REACTORS
330
C
102
}
330
C
100
AcDbDictionary
281
     1
  3
2dWireframe
350
2F
  3
Basic
350
32
  3
Brighten
350
36
  3
ColorChange
350
3A
  3
Conceptual
350
34
  3
Dim
350
35
  3
EdgeColorOff
350
3D
  3
Facepattern
350
39
  3
Flat
350
2B
  3
FlatWithEdges
350
2C
  3
Gouraud
350
2D
  3
GouraudWithEdges
350
2E
  3
Hidden
350
31
  3
JitterOff
350
3B
  3
Linepattern
350
38
  3
OverhangOff
350
3C
  3
Realistic
350
33
  3
Shaded
350
42
  3
Shaded with edges
350
41
  3
Shades of Gray
350
3E
  3
Sketchy
350
3F
  3
Thicken
350
37
  3
Wireframe
350
30
  3
X-Ray
350
40
  0
XRECORD
  5
36F
102
{ACAD_REACTORS
330
C
102
}
330
C
100
AcDbXrecord
280
     1
 90
        1
330
6A
  0
DICTIONARY
  5
2BB
102
{ACAD_REACTORS
330
C
102
}
330
C
100
AcDbDictionary
281
     1
  3
CANNOSCALE
350
2BC
  3
CMLEADERSTYLE
350
2FD
  3
CTABLESTYLE
350
2FC
  3
CVIEWDETAILSTYLE
350
36A
  3
CVIEWSECTIONSTYLE
350
36B
  3
MSLTSCALE
350
2BD
  3
XCLIPFRAME
350
36C
  0
XRECORD
  5
353
102
{ACAD_REACTORS
330
352
102
}
330
352
100
AcDbXrecord
280
     1
290
     1
  0
XRECORD
  5
355
102
{ACAD_REACTORS
330
354
102
}
330
354
100
AcDbXrecord
280
     1
290
     1
  0
XRECORD
  5
357
102
{ACAD_REACTORS
330
356
102
}
330
356
100
AcDbXrecord
280
     1
290
     1
  0
XRECORD
  5
359
102
{ACAD_REACTORS
330
358
102
}
330
358
100
AcDbXrecord
280
     1
290
     1
  0
XRECORD
  5
35B
102
{ACAD_REACTORS
330
35A
102
}
330
35A
100
AcDbXrecord
280
     1
290
     1
  0
XRECORD
  5
35D
102
{ACAD_REACTORS
330
35C
102
}
330
35C
100
AcDbXrecord
280
     1
290
     1
  0
XRECORD
  5
35F
102
{ACAD_REACTORS
330
35E
102
}
330
35E
100
AcDbXrecord
280
     1
290
     1
  0
XRECORD
  5
361
102
{ACAD_REACTORS
330
360
102
}
330
360
100
AcDbXrecord
280
     1
290
     1
  0
XRECORD
  5
363
102
{ACAD_REACTORS
330
362
102
}
330
362
100
AcDbXrecord
280
     1
290
     1
  0
XRECORD
  5
365
102
{ACAD_REACTORS
330
364
102
}
330
364
100
AcDbXrecord
280
     1
290
     1
  0
XRECORD
  5
367
102
{ACAD_REACTORS
330
366
102
}
330
366
100
AcDbXrecord
280
     1
290
     1
  0
XRECORD
  5
369
102
{ACAD_REACTORS
330
368
102
}
330
368
100
AcDbXrecord
280
     1
290
     1
  0
SORTENTSTABLE
  5
309
102
{ACAD_REACTORS
330
308
102
}
330
308
100
AcDbSortentsTable
330
1F
331
30A
  5
275
331
30B
  5
28E
331
30C
  5
30A
331
30D
  5
30B
331
30E
  5
30C
331
30F
  5
30D
331
310
  5
30E
331
311
  5
30F
331
312
  5
310
331
313
  5
311
331
314
  5
312
331
315
  5
313
331
316
  5
314
331
317
  5
315
331
318
  5
316
331
319
  5
317
331
31A
  5
318
331
31B
  5
319
331
31C
  5
31A
331
31D
  5
31B
331
31E
  5
31C
331
31F
  5
31D
331
320
  5
31E
331
321
  5
31F
331
322
  5
320
331
323
  5
321
331
324
  5
322
331
325
  5
323
331
326
  5
324
331
338
  5
33D
331
33A
  5
340
331
33B
  5
341
331
33C
  5
342
331
33D
  5
343
331
33E
  5
338
331
33F
  5
33A
331
340
  5
33B
331
341
  5
33C
331
342
  5
33E
331
343
  5
33F
  0
ACDBDETAILVIEWSTYLE
  5
304
102
{ACAD_XDICTIONARY
360
3A3
102
}
102
{ACAD_REACTORS
330
2FE
102
}
330
2FE
100
AcDbModelDocViewStyle
 70
     0
  3
Metric50
290
     0
100
AcDbDetailViewStyle
 70
     0
 71
     0
 90
        3
 71
     1
340
11
 62
   256
 40
5.0
340
0
 62
   256
 40
5.0
300

 40
0.0
280
     1
 71
     2
340
16
 90
       25
 62
   256
 71
     3
340
11
 62
   256
 40
5.0
 90
        0
 40
15.0
 90
        1
300
%<\AcVar ViewDetailId>% (%<\AcVar ViewScale \f "%sn">%)
 71
     4
340
16
 90
       25
 62
   256
340
16
 90
       25
 62
   256
280
     0
  0
GROUP
  5
351
102
{ACAD_REACTORS
330
D
102
}
330
D
100
AcDbGroup
300

 70
     0
 71
     1
340
73
  0
LAYOUT
  5
1E
102
{ACAD_REACTORS
330
1A
102
}
330
1A
100
AcDbPlotSettings
  1

  2
none_device
  4

  6

 40
0.0
 41
0.0
 42
0.0
 43
0.0
 44
0.0
 45
0.0
 46
0.0
 47
0.0
 48
0.0
 49
0.0
140
0.0
141
0.0
142
1.0
143
1.0
 70
   688
 72
     0
 73
     0
 74
     5
  7

 75
    16
147
1.0
 76
     0
 77
     2
 78
   300
148
0.0
149
0.0
100
AcDbLayout
  1
Layout1
 70
     1
 71
     1
 10
-0.5
 20
-0.5
 11
5.0
 21
5.0
 12
0.0
 22
0.0
 32
0.0
 14
-0.5
 24
-0.5
 34
-0.5
 15
5.0
 25
5.0
 35
5.0
146
0.0
 13
0.0
 23
0.0
 33
0.0
 16
1.0
 26
0.0
 36
0.0
 17
0.0
 27
1.0
 37
0.0
 76
     0
330
1B
  0
LAYOUT
  5
26
102
{ACAD_REACTORS
330
1A
102
}
330
1A
100
AcDbPlotSettings
  1

  2
none_device
  4

  6

 40
0.0
 41
0.0
 42
0.0
 43
0.0
 44
0.0
 45
0.0
 46
0.0
 47
0.0
 48
0.0
 49
0.0
140
0.0
141
0.0
142
1.0
143
1.0
 70
   688
 72
     0
 73
     0
 74
     5
  7

 75
    16
147
1.0
 76
     0
 77
     2
 78
   300
148
0.0
149
0.0
100
AcDbLayout
  1
Layout2
 70
     1
 71
     2
 10
0.0
 20
0.0
 11
0.0
 21
0.0
 12
0.0
 22
0.0
 32
0.0
 14
0.0
 24
0.0
 34
0.0
 15
0.0
 25
0.0
 35
0.0
146
0.0
 13
0.0
 23
0.0
 33
0.0
 16
1.0
 26
0.0
 36
0.0
 17
0.0
 27
1.0
 37
0.0
 76
     0
330
23
  0
LAYOUT
  5
22
102
{ACAD_REACTORS
330
1A
102
}
330
1A
100
AcDbPlotSettings
  1

  2
none_device
  4
Letter_(8.50_x_11.00_Inches)
  6

 40
6.349999999999999
 41
6.349999999999999
 42
6.350005
 43
6.350005
 44
215.9
 45
279.4
 46
0.0
 47
0.0
 48
0.0
 49
0.0
140
0.0
141
0.0
142
1.0
143
1.0
 70
  1712
 72
     0
 73
     0
 74
     0
  7

 75
     0
147
1.0
 76
     0
 77
     2
 78
   300
148
0.0
149
0.0
100
AcDbLayout
  1
Model
 70
     1
 71
     0
 10
-0.5
 20
-0.5
 11
5.0
 21
5.0
 12
0.0
 22
0.0
 32
0.0
 14
-0.5
 24
-0.5
 34
-0.5
 15
5.0
 25
5.0
 35
5.0
146
0.0
 13
0.0
 23
0.0
 33
0.0
 16
1.0
 26
0.0
 36
0.0
 17
0.0
 27
1.0
 37
0.0
 76
     0
330
1F
331
29
  0
MATERIAL
  5
45
102
{ACAD_XDICTIONARY
360
2F1
102
}
102
{ACAD_REACTORS
330
43
102
}
330
43
100
AcDbMaterial
  1
ByBlock
  0
MATERIAL
  5
44
102
{ACAD_XDICTIONARY
360
2EF
102
}
102
{ACAD_REACTORS
330
43
102
}
330
43
100
AcDbMaterial
  1
ByLayer
  0
MATERIAL
  5
46
102
{ACAD_XDICTIONARY
360
2F3
102
}
102
{ACAD_REACTORS
330
43
102
}
330
43
100
AcDbMaterial
  1
Global
  0
MLEADERSTYLE
  5
6C
102
{ACAD_REACTORS
330
6B
102
}
330
6B
100
AcDbMLeaderStyle
170
     2
171
     1
172
     0
 90
        2
 40
0.0
 41
0.0
173
     1
 91
-1056964608
340
14
 92
       -2
290
     1
 42
0.09
291
     1
 43
0.36
  3
Standard
 44
0.18
300

342
11
174
     1
178
     6
175
     1
176
     0
 93
-1056964608
 45
0.18
292
     0
297
     0
 46
0.18
 94
-1056964608
 47
1.0
 49
1.0
140
1.0
293
     1
141
0.0
294
     1
177
     0
142
1.0
295
     0
296
     0
143
0.125
1001
ACAD_MLEADERVER
1070
     2
  0
MLINESTYLE
  5
18
102
{ACAD_REACTORS
330
17
102
}
330
17
100
AcDbMlineStyle
  2
STANDARD
 70
     0
  3

 62
   256
 51
90.0
 52
90.0
 71
     2
 49
0.5
 62
   256
  6
BYLAYER
 49
-0.5
 62
   256
  6
BYLAYER
  0
ACDBPLACEHOLDER
  5
F
102
{ACAD_REACTORS
330
E
102
}
330
E
  0
SCALE
  5
48
102
{ACAD_REACTORS
330
47
102
}
330
47
100
AcDbScale
 70
     0
300
1:1
140
1.0
141
1.0
290
     1
  0
SCALE
  5
49
102
{ACAD_REACTORS
330
47
102
}
330
47
100
AcDbScale
 70
     0
300
1:2
140
1.0
141
2.0
290
     0
  0
SCALE
  5
4A
102
{ACAD_REACTORS
330
47
102
}
330
47
100
AcDbScale
 70
     0
300
1:4
140
1.0
141
4.0
290
     0
  0
SCALE
  5
4B
102
{ACAD_REACTORS
330
47
102
}
330
47
100
AcDbScale
 70
     0
300
1:5
140
1.0
141
5.0
290
     0
  0
SCALE
  5
4C
102
{ACAD_REACTORS
330
47
102
}
330
47
100
AcDbScale
 70
     0
300
1:8
140
1.0
141
8.0
290
     0
  0
SCALE
  5
4D
102
{ACAD_REACTORS
330
47
102
}
330
47
100
AcDbScale
 70
     0
300
1:10
140
1.0
141
10.0
290
     0
  0
SCALE
  5
4E
102
{ACAD_REACTORS
330
47
102
}
330
47
100
AcDbScale
 70
     0
300
1:16
140
1.0
141
16.0
290
     0
  0
SCALE
  5
4F
102
{ACAD_REACTORS
330
47
102
}
330
47
100
AcDbScale
 70
     0
300
1:20
140
1.0
141
20.0
290
     0
  0
SCALE
  5
50
102
{ACAD_REACTORS
330
47
102
}
330
47
100
AcDbScale
 70
     0
300
1:30
140
1.0
141
30.0
290
     0
  0
SCALE
  5
51
102
{ACAD_REACTORS
330
47
102
}
330
47
100
AcDbScale
 70
     0
300
1:40
140
1.0
141
40.0
290
     0
  0
SCALE
  5
52
102
{ACAD_REACTORS
330
47
102
}
330
47
100
AcDbScale
 70
     0
300
1:50
140
1.0
141
50.0
290
     0
  0
SCALE
  5
53
102
{ACAD_REACTORS
330
47
102
}
330
47
100
AcDbScale
 70
     0
300
1:100
140
1.0
141
100.0
290
     0
  0
SCALE
  5
54
102
{ACAD_REACTORS
330
47
102
}
330
47
100
AcDbScale
 70
     0
300
2:1
140
2.0
141
1.0
290
     0
  0
SCALE
  5
55
102
{ACAD_REACTORS
330
47
102
}
330
47
100
AcDbScale
 70
     0
300
4:1
140
4.0
141
1.0
290
     0
  0
SCALE
  5
56
102
{ACAD_REACTORS
330
47
102
}
330
47
100
AcDbScale
 70
     0
300
8:1
140
8.0
141
1.0
290
     0
  0
SCALE
  5
57
102
{ACAD_REACTORS
330
47
102
}
330
47
100
AcDbScale
 70
     0
300
10:1
140
10.0
141
1.0
290
     0
  0
SCALE
  5
58
102
{ACAD_REACTORS
330
47
102
}
330
47
100
AcDbScale
 70
     0
300
100:1
140
100.0
141
1.0
290
     0
  0
SCALE
  5
59
102
{ACAD_REACTORS
330
47
102
}
330
47
100
AcDbScale
 70
     0
300
1/128" = 1'-0"
140
0.007812
141
12.0
290
     0
  0
SCALE
  5
5A
102
{ACAD_REACTORS
330
47
102
}
330
47
100
AcDbScale
 70
     0
300
1/64" = 1'-0"
140
0.015625
141
12.0
290
     0
  0
SCALE
  5
5B
102
{ACAD_REACTORS
330
47
102
}
330
47
100
AcDbScale
 70
     0
300
1/32" = 1'-0"
140
0.03125
141
12.0
290
     0
  0
SCALE
  5
5C
102
{ACAD_REACTORS
330
47
102
}
330
47
100
AcDbScale
 70
     0
300
1/16" = 1'-0"
140
0.0625
141
12.0
290
     0
  0
SCALE
  5
5D
102
{ACAD_REACTORS
330
47
102
}
330
47
100
AcDbScale
 70
     0
300
3/32" = 1'-0"
140
0.09375
141
12.0
290
     0
  0
SCALE
  5
5E
102
{ACAD_REACTORS
330
47
102
}
330
47
100
AcDbScale
 70
     0
300
1/8" = 1'-0"
140
0.125
141
12.0
290
     0
  0
SCALE
  5
5F
102
{ACAD_REACTORS
330
47
102
}
330
47
100
AcDbScale
 70
     0
300
3/16" = 1'-0"
140
0.1875
141
12.0
290
     0
  0
SCALE
  5
60
102
{ACAD_REACTORS
330
47
102
}
330
47
100
AcDbScale
 70
     0
300
1/4" = 1'-0"
140
0.25
141
12.0
290
     0
  0
SCALE
  5
61
102
{ACAD_REACTORS
330
47
102
}
330
47
100
AcDbScale
 70
     0
300
3/8" = 1'-0"
140
0.375
141
12.0
290
     0
  0
SCALE
  5
62
102
{ACAD_REACTORS
330
47
102
}
330
47
100
AcDbScale
 70
     0
300
1/2" = 1'-0"
140
0.5
141
12.0
290
     0
  0
SCALE
  5
63
102
{ACAD_REACTORS
330
47
102
}
330
47
100
AcDbScale
 70
     0
300
3/4" = 1'-0"
140
0.75
141
12.0
290
     0
  0
SCALE
  5
64
102
{ACAD_REACTORS
330
47
102
}
330
47
100
AcDbScale
 70
     0
300
1" = 1'-0"
140
1.0
141
12.0
290
     0
  0
SCALE
  5
65
102
{ACAD_REACTORS
330
47
102
}
330
47
100
AcDbScale
 70
     0
300
1-1/2" = 1'-0"
140
1.5
141
12.0
290
     0
  0
SCALE
  5
66
102
{ACAD_REACTORS
330
47
102
}
330
47
100
AcDbScale
 70
     0
300
3" = 1'-0"
140
3.0
141
12.0
290
     0
  0
SCALE
  5
67
102
{ACAD_REACTORS
330
47
102
}
330
47
100
AcDbScale
 70
     0
300
6" = 1'-0"
140
6.0
141
12.0
290
     0
  0
SCALE
  5
68
102
{ACAD_REACTORS
330
47
102
}
330
47
100
AcDbScale
 70
     0
300
1'-0" = 1'-0"
140
12.0
141
12.0
290
     0
  0
ACDBSECTIONVIEWSTYLE
  5
303
102
{ACAD_XDICTIONARY
360
3A1
102
}
102
{ACAD_REACTORS
330
2FF
102
}
330
2FF
100
AcDbModelDocViewStyle
 70
     0
  3
Metric50
290
     0
100
AcDbSectionViewStyle
 70
     0
 71
     0
 90
      102
 71
     1
340
11
 62
   256
 40
5.0
340
0
340
0
 62
   256
 40
5.0
300
I, O, Q, S, X, Z
 40
10.0
 90
        0
 40
2.5
 90
        0
 71
     2
340
16
 90
       25
 62
   256
340
16
 90
       50
 62
   256
 40
5.0
 40
2.5
 40
5.0
 71
     3
340
11
 62
   256
 40
5.0
 90
        0
 40
15.0
 90
        1
300
%<\AcVar ViewSectionStartId>%-%<\AcVar ViewSectionEndId>% (%<\AcVar ViewScale \f "%sn">%)
 71
     4
 62
   256
 62
   257
300
ANSI31
 40
1.0
 90
        0
290
     0
290
     0
 90
        6
 40
0.0
 40
1.570796326794896
 40
0.2617993877991494
 40
1.308996938995747
 40
-0.2617993877991494
 40
1.832595714594046
  0
TABLESTYLE
  5
6A
102
{ACAD_XDICTIONARY
360
2F5
102
}
102
{ACAD_REACTORS
330
69
102
}
330
69
100
AcDbTableStyle
  3
Standard
 70
     0
 71
     0
 40
0.06
 41
0.06
280
     0
281
     0
  7
Standard
140
0.18
170
     2
 62
     0
 63
     7
283
     0
274
    -2
284
     1
 64
     0
275
    -2
285
     1
 65
     0
276
    -2
286
     1
 66
     0
277
    -2
287
     1
 67
     0
278
    -2
288
     1
 68
     0
279
    -2
289
     1
 69
     0
  7
Standard
140
0.25
170
     5
 62
     0
 63
     7
283
     0
274
    -2
284
     1
 64
     0
275
    -2
285
     1
 65
     0
276
    -2
286
     1
 66
     0
277
    -2
287
     1
 67
     0
278
    -2
288
     1
 68
     0
279
    -2
289
     1
 69
     0
  7
Standard
140
0.18
170
     5
 62
     0
 63
     7
283
     0
274
    -2
284
     1
 64
     0
275
    -2
285
     1
 65
     0
276
    -2
286
     1
 66
     0
277
    -2
287
     1
 67
     0
278
    -2
288
     1
 68
     0
279
    -2
289
     1
 69
     0
  0
VISUALSTYLE
  5
2F
102
{ACAD_XDICTIONARY
360
378
102
}
102
{ACAD_REACTORS
330
2A
102
}
330
2A
100
AcDbVisualStyle
  2

 70
     4
 71
     0
 72
     2
 73
     0
 90
        0
 40
-0.6
 41
-30.0
 62
     5
 63
     7
421
 16777215
 74
     1
 91
        4
 64
     7
 65
   257
 75
     1
175
     1
 42
1.0
 92
        0
 66
   257
 43
1.0
 76
     1
 77
     6
 78
     2
 67
     7
 79
     5
170
     0
171
     0
290
     0
174
     0
 93
        1
 44
0.0
173
     0
291
     0
 45
0.0
1001
ACAD
1000
AcDbSavedByObjectVersion
1070
     0
  0
VISUALSTYLE
  5
32
102
{ACAD_XDICTIONARY
360
37E
102
}
102
{ACAD_REACTORS
330
2A
102
}
330
2A
100
AcDbVisualStyle
  2

 70
     7
 71
     1
 72
     0
 73
     1
 90
        0
 40
-0.6
 41
-30.0
 62
     5
 63
     7
421
 16777215
 74
     0
 91
        4
 64
     7
 65
   257
 75
     1
175
     1
 42
1.0
 92
        8
 66
     7
 43
1.0
 76
     1
 77
     6
 78
     2
 67
     7
 79
     5
170
     0
171
     0
290
     0
174
     0
 93
        1
 44
0.0
173
     0
291
     1
 45
0.0
1001
ACAD
1000
AcDbSavedByObjectVersion
1070
     0
  0
VISUALSTYLE
  5
36
102
{ACAD_XDICTIONARY
360
386
102
}
102
{ACAD_REACTORS
330
2A
102
}
330
2A
100
AcDbVisualStyle
  2

 70
    12
 71
     2
 72
     2
 73
     0
 90
        0
 40
-0.6
 41
-30.0
 62
     5
 63
     7
421
 16777215
 74
     1
 91
        4
 64
     7
 65
   257
 75
     1
175
     1
 42
1.0
 92
        8
 66
     7
 43
1.0
 76
     1
 77
     6
 78
     2
 67
     7
 79
     5
170
     0
171
     0
290
     0
174
     0
 93
        1
 44
50.0
173
     0
291
     1
 45
0.0
1001
ACAD
1000
AcDbSavedByObjectVersion
1070
     0
  0
VISUALSTYLE
  5
3A
102
{ACAD_XDICTIONARY
360
38E
102
}
102
{ACAD_REACTORS
330
2A
102
}
330
2A
100
AcDbVisualStyle
  2

 70
    16
 71
     2
 72
     2
 73
     3
 90
        0
 40
-0.6
 41
-30.0
 62
     5
 63
     8
421
  8421504
 74
     1
 91
        4
 64
     7
 65
   257
 75
     1
175
     1
 42
1.0
 92
        8
 66
     8
424
  8421504
 43
1.0
 76
     1
 77
     6
 78
     2
 67
     7
 79
     5
170
     0
171
     0
290
     0
174
     0
 93
        1
 44
0.0
173
     0
291
     1
 45
0.0
1001
ACAD
1000
AcDbSavedByObjectVersion
1070
     0
  0
VISUALSTYLE
  5
34
102
{ACAD_XDICTIONARY
360
382
102
}
102
{ACAD_REACTORS
330
2A
102
}
330
2A
100
AcDbVisualStyle
  2

 70
     9
 71
     3
 72
     2
 73
     0
 90
        0
 40
-0.6
 41
-30.0
 62
     5
 63
     7
421
 16777215
 74
     2
 91
        2
 64
     7
 65
   257
 75
     1
175
     1
 42
179.0
 92
        8
 66
     7
 43
1.0
 76
     1
 77
     6
 78
     2
 67
     7
 79
     3
170
     0
171
     0
290
     0
174
     0
 93
        1
 44
0.0
173
     0
291
     0
 45
0.0
1001
ACAD
1000
AcDbSavedByObjectVersion
1070
     0
  0
VISUALSTYLE
  5
35
102
{ACAD_XDICTIONARY
360
384
102
}
102
{ACAD_REACTORS
330
2A
102
}
330
2A
100
AcDbVisualStyle
  2

 70
    11
 71
     2
 72
     2
 73
     0
 90
        0
 40
-0.6
 41
-30.0
 62
     5
 63
     7
421
 16777215
 74
     1
 91
        4
 64
     7
 65
   257
 75
     1
175
     1
 42
1.0
 92
        8
 66
     7
 43
1.0
 76
     1
 77
     6
 78
     2
 67
     7
 79
     5
170
     0
171
     0
290
     0
174
     0
 93
        1
 44
-50.0
173
     0
291
     1
 45
0.0
1001
ACAD
1000
AcDbSavedByObjectVersion
1070
     0
  0
VISUALSTYLE
  5
3D
102
{ACAD_XDICTIONARY
360
394
102
}
102
{ACAD_REACTORS
330
2A
102
}
330
2A
100
AcDbVisualStyle
  2

 70
    22
 71
     2
 72
     2
 73
     0
 90
        0
 40
-0.6
 41
-30.0
 62
     5
 63
     7
421
 16777215
 74
     1
 91
        4
 64
     7
 65
   257
 75
     1
175
     1
 42
1.0
 92
        8
 66
     7
 43
1.0
 76
     1
 77
     6
 78
     2
 67
     7
 79
     5
170
     0
171
     0
290
     0
174
     0
 93
        1
 44
0.0
173
     0
291
     1
 45
0.0
1001
ACAD
1000
AcDbSavedByObjectVersion
1070
     0
  0
VISUALSTYLE
  5
39
102
{ACAD_XDICTIONARY
360
38C
102
}
102
{ACAD_REACTORS
330
2A
102
}
330
2A
100
AcDbVisualStyle
  2

 70
    15
 71
     2
 72
     2
 73
     0
 90
        0
 40
-0.6
 41
-30.0
 62
     5
 63
     7
421
 16777215
 74
     1
 91
        4
 64
     7
 65
   257
 75
     1
175
     1
 42
1.0
 92
        8
 66
     7
 43
1.0
 76
     1
 77
     6
 78
     2
 67
     7
 79
     5
170
     0
171
     0
290
     0
174
     0
 93
        1
 44
0.0
173
     0
291
     1
 45
0.0
1001
ACAD
1000
AcDbSavedByObjectVersion
1070
     0
  0
VISUALSTYLE
  5
2B
102
{ACAD_XDICTIONARY
360
370
102
}
102
{ACAD_REACTORS
330
2A
102
}
330
2A
100
AcDbVisualStyle
  2

 70
     0
 71
     2
 72
     1
 73
     1
 90
        2
 40
-0.6
 41
30.0
 62
     5
 63
     7
421
 16777215
 74
     0
 91
        0
 64
     7
 65
   257
 75
     1
175
     1
 42
1.0
 92
        8
 66
     7
 43
1.0
 76
     1
 77
     6
 78
     2
 67
     7
 79
     5
170
     0
171
     0
290
     0
174
     0
 93
       13
 44
0.0
173
     0
291
     1
 45
0.0
1001
ACAD
1000
AcDbSavedByObjectVersion
1070
     0
  0
VISUALSTYLE
  5
2C
102
{ACAD_XDICTIONARY
360
372
102
}
102
{ACAD_REACTORS
330
2A
102
}
330
2A
100
AcDbVisualStyle
  2

 70
     1
 71
     2
 72
     1
 73
     1
 90
        2
 40
-0.6
 41
30.0
 62
     5
 63
     7
421
 16777215
 74
     1
 91
        0
 64
     7
 65
   257
 75
     1
175
     1
 42
1.0
 92
        0
 66
   257
 43
1.0
 76
     1
 77
     6
 78
     2
 67
     7
 79
     5
170
     0
171
     0
290
     0
174
     0
 93
       13
 44
0.0
173
     0
291
     1
 45
0.0
1001
ACAD
1000
AcDbSavedByObjectVersion
1070
     0
  0
VISUALSTYLE
  5
2D
102
{ACAD_XDICTIONARY
360
374
102
}
102
{ACAD_REACTORS
330
2A
102
}
330
2A
100
AcDbVisualStyle
  2

 70
     2
 71
     2
 72
     2
 73
     1
 90
        2
 40
-0.6
 41
30.0
 62
     5
 63
     7
421
 16777215
 74
     0
 91
        0
 64
     7
 65
   257
 75
     1
175
     1
 42
1.0
 92
        0
 66
     7
 43
1.0
 76
     1
 77
     6
 78
     2
 67
     7
 79
     5
170
     0
171
     0
290
     0
174
     0
 93
       13
 44
0.0
173
     0
291
     1
 45
0.0
1001
ACAD
1000
AcDbSavedByObjectVersion
1070
     0
  0
VISUALSTYLE
  5
2E
102
{ACAD_XDICTIONARY
360
376
102
}
102
{ACAD_REACTORS
330
2A
102
}
330
2A
100
AcDbVisualStyle
  2

 70
     3
 71
     2
 72
     2
 73
     1
 90
        2
 40
-0.6
 41
30.0
 62
     5
 63
     7
421
 16777215
 74
     1
 91
        0
 64
     7
 65
   257
 75
     1
175
     1
 42
1.0
 92
        0
 66
   257
 43
1.0
 76
     1
 77
     6
 78
     2
 67
     7
 79
     5
170
     0
171
     0
290
     0
174
     0
 93
       13
 44
0.0
173
     0
291
     1
 45
0.0
1001
ACAD
1000
AcDbSavedByObjectVersion
1070
     0
  0
VISUALSTYLE
  5
31
102
{ACAD_XDICTIONARY
360
37C
102
}
102
{ACAD_REACTORS
330
2A
102
}
330
2A
100
AcDbVisualStyle
  2

 70
     6
 71
     1
 72
     2
 73
     2
 90
        0
 40
-0.6
 41
-30.0
 62
     5
 63
     7
421
 16777215
 74
     2
 91
        2
 64
     7
 65
   257
 75
     2
175
     1
 42
40.0
 92
        0
 66
   257
 43
1.0
 76
     1
 77
     6
 78
     2
 67
     7
 79
     3
170
     0
171
     0
290
     0
174
     0
 93
        1
 44
0.0
173
     0
291
     0
 45
0.0
1001
ACAD
1000
AcDbSavedByObjectVersion
1070
     0
  0
VISUALSTYLE
  5
3B
102
{ACAD_XDICTIONARY
360
390
102
}
102
{ACAD_REACTORS
330
2A
102
}
330
2A
100
AcDbVisualStyle
  2

 70
    20
 71
     2
 72
     2
 73
     0
 90
        0
 40
-0.6
 41
-30.0
 62
     5
 63
     7
421
 16777215
 74
     1
 91
        4
 64
     7
 65
   257
 75
     1
175
     1
 42
1.0
 92
       10
 66
     7
 43
1.0
 76
     1
 77
     6
 78
     2
 67
     7
 79
     5
170
     0
171
     0
290
     0
174
     0
 93
        1
 44
0.0
173
     0
291
     1
 45
0.0
1001
ACAD
1000
AcDbSavedByObjectVersion
1070
     0
  0
VISUALSTYLE
  5
38
102
{ACAD_XDICTIONARY
360
38A
102
}
102
{ACAD_REACTORS
330
2A
102
}
330
2A
100
AcDbVisualStyle
  2

 70
    14
 71
     2
 72
     2
 73
     0
 90
        0
 40
-0.6
 41
-30.0
 62
     5
 63
     7
421
 16777215
 74
     1
 91
        4
 64
     7
 65
   257
 75
     7
175
     7
 42
1.0
 92
        8
 66
     7
 43
1.0
 76
     1
 77
     6
 78
     2
 67
     7
 79
     5
170
     0
171
     0
290
     0
174
     0
 93
        1
 44
0.0
173
     0
291
     1
 45
0.0
1001
ACAD
1000
AcDbSavedByObjectVersion
1070
     0
  0
VISUALSTYLE
  5
3C
102
{ACAD_XDICTIONARY
360
392
102
}
102
{ACAD_REACTORS
330
2A
102
}
330
2A
100
AcDbVisualStyle
  2

 70
    21
 71
     2
 72
     2
 73
     0
 90
        0
 40
-0.6
 41
-30.0
 62
     5
 63
     7
421
 16777215
 74
     1
 91
        4
 64
     7
 65
   257
 75
     1
175
     1
 42
1.0
 92
        9
 66
     7
 43
1.0
 76
     1
 77
     6
 78
     2
 67
     7
 79
     5
170
     0
171
     0
290
     0
174
     0
 93
        1
 44
0.0
173
     0
291
     1
 45
0.0
1001
ACAD
1000
AcDbSavedByObjectVersion
1070
     0
  0
VISUALSTYLE
  5
33
102
{ACAD_XDICTIONARY
360
380
102
}
102
{ACAD_REACTORS
330
2A
102
}
330
2A
100
AcDbVisualStyle
  2

 70
     8
 71
     2
 72
     3
 73
     0
 90
        2
 40
-0.6
 41
30.0
 62
     5
 63
     7
421
 16777215
 74
     0
 91
        0
 64
     7
 65
   257
 75
     1
175
     1
 42
1.0
 92
        8
 66
   257
 43
1.0
 76
     1
 77
     6
 78
     2
 67
     7
 79
     3
170
     0
171
     0
290
     0
174
     0
 93
       13
 44
0.0
173
     0
291
     0
 45
0.0
1001
ACAD
1000
AcDbSavedByObjectVersion
1070
     0
  0
VISUALSTYLE
  5
42
102
{ACAD_XDICTIONARY
360
39E
102
}
102
{ACAD_REACTORS
330
2A
102
}
330
2A
100
AcDbVisualStyle
  2

 70
    27
 71
     2
 72
     2
 73
     1
 90
        2
 40
-0.6
 41
30.0
 62
     5
 63
     7
421
 16777215
 74
     0
 91
        4
 64
     7
 65
   257
 75
     1
175
     1
 42
1.0
 92
        8
 66
   257
 43
1.0
 76
     1
 77
     6
 78
     2
 67
     8
425
  7895160
 79
     3
170
     0
171
     0
290
     0
174
     0
 93
        5
 44
0.0
173
     0
291
     0
 45
0.0
1001
ACAD
1000
AcDbSavedByObjectVersion
1070
     0
  0
VISUALSTYLE
  5
41
102
{ACAD_XDICTIONARY
360
39C
102
}
102
{ACAD_REACTORS
330
2A
102
}
330
2A
100
AcDbVisualStyle
  2

 70
    26
 71
     2
 72
     2
 73
     1
 90
        2
 40
-0.6
 41
30.0
 62
     5
 63
     7
421
 16777215
 74
     1
 91
       10
 64
     7
 65
   257
 75
     2
175
     1
 42
1.0
 92
        8
 66
   257
 43
1.0
 76
     1
 77
     6
 78
     2
 67
     7
 79
     3
170
     0
171
     0
290
     0
174
     0
 93
        5
 44
0.0
173
     0
291
     0
 45
0.0
1001
ACAD
1000
AcDbSavedByObjectVersion
1070
     0
  0
VISUALSTYLE
  5
3E
102
{ACAD_XDICTIONARY
360
396
102
}
102
{ACAD_REACTORS
330
2A
102
}
330
2A
100
AcDbVisualStyle
  2

 70
    23
 71
     2
 72
     2
 73
     3
 90
        0
 40
-0.6
 41
-30.0
 62
     5
 63
     7
421
 16777215
 74
     2
 91
        2
 64
     7
 65
     7
 75
     1
175
     1
 42
40.0
 92
        8
 66
     7
 43
1.0
 76
     1
 77
     6
 78
     2
 67
     7
 79
     3
170
     0
171
     0
290
     0
174
     0
 93
        1
 44
0.0
173
     0
291
     0
 45
0.0
1001
ACAD
1000
AcDbSavedByObjectVersion
1070
     0
  0
VISUALSTYLE
  5
3F
102
{ACAD_XDICTIONARY
360
398
102
}
102
{ACAD_REACTORS
330
2A
102
}
330
2A
100
AcDbVisualStyle
  2

 70
    24
 71
     1
 72
     2
 73
     2
 90
        0
 40
-0.6
 41
-30.0
 62
     5
 63
     7
421
 16777215
 74
     2
 91
        2
 64
     7
 65
     7
 75
     1
175
     1
 42
40.0
 92
       11
 66
     7
 43
1.0
 76
     1
 77
     6
 78
     2
 67
     7
 79
     6
170
     0
171
     0
290
     0
174
     0
 93
        1
 44
0.0
173
     0
291
     0
 45
0.0
1001
ACAD
1000
AcDbSavedByObjectVersion
1070
     0
  0
VISUALSTYLE
  5
37
102
{ACAD_XDICTIONARY
360
388
102
}
102
{ACAD_REACTORS
330
2A
102
}
330
2A
100
AcDbVisualStyle
  2

 70
    13
 71
     2
 72
     2
 73
     0
 90
        0
 40
-0.6
 41
-30.0
 62
     5
 63
     7
421
 16777215
 74
     1
 91
        4
 64
     7
 65
   257
 75
     1
175
     1
 42
1.0
 92
       12
 66
     7
 43
1.0
 76
     1
 77
     6
 78
     2
 67
     7
 79
     5
170
     0
171
     0
290
     0
174
     0
 93
        1
 44
0.0
173
     0
291
     1
 45
0.0
1001
ACAD
1000
AcDbSavedByObjectVersion
1070
     0
  0
VISUALSTYLE
  5
30
102
{ACAD_XDICTIONARY
360
37A
102
}
102
{ACAD_REACTORS
330
2A
102
}
330
2A
100
AcDbVisualStyle
  2

 70
     5
 71
     0
 72
     2
 73
     0
 90
        0
 40
-0.6
 41
-30.0
 62
     5
 63
     7
421
 16777215
 74
     1
 91
        4
 64
     7
 65
   257
 75
     1
175
     1
 42
1.0
 92
        0
 66
   257
 43
1.0
 76
     1
 77
     6
 78
     2
 67
     7
 79
     3
170
     0
171
     0
290
     0
174
     0
 93
        1
 44
0.0
173
     0
291
     0
 45
0.0
1001
ACAD
1000
AcDbSavedByObjectVersion
1070
     0
  0
VISUALSTYLE
  5
40
102
{ACAD_XDICTIONARY
360
39A
102
}
102
{ACAD_REACTORS
330
2A
102
}
330
2A
100
AcDbVisualStyle
  2

 70
    25
 71
     2
 72
     2
 73
     1
 90
        1
 40
0.5
 41
-30.0
 62
     5
 63
     7
421
 16777215
 74
     1
 91
        0
 64
     7
 65
   257
 75
     1
175
     1
 42
1.0
 92
        8
 66
     7
 43
1.0
 76
     1
 77
     6
 78
     2
 67
     7
 79
     3
170
     0
171
     0
290
     0
174
     0
 93
       13
 44
0.0
173
     0
291
     0
 45
0.0
1001
ACAD
1000
AcDbSavedByObjectVersion
1070
     0
  0
DICTIONARYVAR
  5
2BC
102
{ACAD_REACTORS
330
2BB
102
}
330
2BB
100
DictionaryVariables
280
     0
  1
1:1
  0
DICTIONARYVAR
  5
2FD
102
{ACAD_REACTORS
330
2BB
102
}
330
2BB
100
DictionaryVariables
280
     0
  1
STANDARD
  0
DICTIONARYVAR
  5
2FC
102
{ACAD_REACTORS
330
2BB
102
}
330
2BB
100
DictionaryVariables
280
     0
  1
STANDARD
  0
DICTIONARYVAR
  5
36A
102
{ACAD_REACTORS
330
2BB
102
}
330
2BB
100
DictionaryVariables
280
     0
  1
Metric50
  0
DICTIONARYVAR
  5
36B
102
{ACAD_REACTORS
330
2BB
102
}
330
2BB
100
DictionaryVariables
280
     0
  1
Metric50
  0
DICTIONARYVAR
  5
2BD
102
{ACAD_REACTORS
330
2BB
102
}
330
2BB
100
DictionaryVariables
280
     0
  1
1
  0
DICTIONARYVAR
  5
36C
102
{ACAD_REACTORS
330
2BB
102
}
330
2BB
100
DictionaryVariables
280
     0
  1
2
  0
DICTIONARY
  5
3A3
330
304
100
AcDbDictionary
280
     1
281
     1
  3
ACAD_XREC_ROUNDTRIP
360
3A4
  0
DICTIONARY
  5
2F1
330
45
100
AcDbDictionary
280
     1
281
     1
  3
ACAD_XREC_ROUNDTRIP
360
2F2
  0
DICTIONARY
  5
2EF
330
44
100
AcDbDictionary
280
     1
281
     1
  3
ACAD_XREC_ROUNDTRIP
360
2F0
  0
DICTIONARY
  5
2F3
330
46
100
AcDbDictionary
280
     1
281
     1
  3
ACAD_XREC_ROUNDTRIP
360
2F4
  0
DICTIONARY
  5
3A1
330
303
100
AcDbDictionary
280
     1
281
     1
  3
ACAD_XREC_ROUNDTRIP
360
3A2
  0
DICTIONARY
  5
2F5
330
6A
100
AcDbDictionary
280
     1
281
     1
  3
ACAD_ROUNDTRIP_2008_TABLESTYLE_CELLSTYLEMAP
360
36E
  3
ACAD_XREC_ROUNDTRIP
360
3A0
  0
DICTIONARY
  5
378
330
2F
100
AcDbDictionary
280
     1
281
     1
  3
ACAD_XREC_ROUNDTRIP
360
379
  0
DICTIONARY
  5
37E
330
32
100
AcDbDictionary
280
     1
281
     1
  3
ACAD_XREC_ROUNDTRIP
360
37F
  0
DICTIONARY
  5
386
330
36
100
AcDbDictionary
280
     1
281
     1
  3
ACAD_XREC_ROUNDTRIP
360
387
  0
DICTIONARY
  5
38E
330
3A
100
AcDbDictionary
280
     1
281
     1
  3
ACAD_XREC_ROUNDTRIP
360
38F
  0
DICTIONARY
  5
382
330
34
100
AcDbDictionary
280
     1
281
     1
  3
ACAD_XREC_ROUNDTRIP
360
383
  0
DICTIONARY
  5
384
330
35
100
AcDbDictionary
280
     1
281
     1
  3
ACAD_XREC_ROUNDTRIP
360
385
  0
DICTIONARY
  5
394
330
3D
100
AcDbDictionary
280
     1
281
     1
  3
ACAD_XREC_ROUNDTRIP
360
395
  0
DICTIONARY
  5
38C
330
39
100
AcDbDictionary
280
     1
281
     1
  3
ACAD_XREC_ROUNDTRIP
360
38D
  0
DICTIONARY
  5
370
330
2B
100
AcDbDictionary
280
     1
281
     1
  3
ACAD_XREC_ROUNDTRIP
360
371
  0
DICTIONARY
  5
372
330
2C
100
AcDbDictionary
280
     1
281
     1
  3
ACAD_XREC_ROUNDTRIP
360
373
  0
DICTIONARY
  5
374
330
2D
100
AcDbDictionary
280
     1
281
     1
  3
ACAD_XREC_ROUNDTRIP
360
375
  0
DICTIONARY
  5
376
330
2E
100
AcDbDictionary
280
     1
281
     1
  3
ACAD_XREC_ROUNDTRIP
360
377
  0
DICTIONARY
  5
37C
330
31
100
AcDbDictionary
280
     1
281
     1
  3
ACAD_XREC_ROUNDTRIP
360
37D
  0
DICTIONARY
  5
390
330
3B
100
AcDbDictionary
280
     1
281
     1
  3
ACAD_XREC_ROUNDTRIP
360
391
  0
DICTIONARY
  5
38A
330
38
100
AcDbDictionary
280
     1
281
     1
  3
ACAD_XREC_ROUNDTRIP
360
38B
  0
DICTIONARY
  5
392
330
3C
100
AcDbDictionary
280
     1
281
     1
  3
ACAD_XREC_ROUNDTRIP
360
393
  0
DICTIONARY
  5
380
330
33
100
AcDbDictionary
280
     1
281
     1
  3
ACAD_XREC_ROUNDTRIP
360
381
  0
DICTIONARY
  5
39E
330
42
100
AcDbDictionary
280
     1
281
     1
  3
ACAD_XREC_ROUNDTRIP
360
39F
  0
DICTIONARY
  5
39C
330
41
100
AcDbDictionary
280
     1
281
     1
  3
ACAD_XREC_ROUNDTRIP
360
39D
  0
DICTIONARY
  5
396
330
3E
100
AcDbDictionary
280
     1
281
     1
  3
ACAD_XREC_ROUNDTRIP
360
397
  0
DICTIONARY
  5
398
330
3F
100
AcDbDictionary
280
     1
281
     1
  3
ACAD_XREC_ROUNDTRIP
360
399
  0
DICTIONARY
  5
388
330
37
100
AcDbDictionary
280
     1
281
     1
  3
ACAD_XREC_ROUNDTRIP
360
389
  0
DICTIONARY
  5
37A
330
30
100
AcDbDictionary
280
     1
281
     1
  3
ACAD_XREC_ROUNDTRIP
360
37B
  0
DICTIONARY
  5
39A
330
40
100
AcDbDictionary
280
     1
281
     1
  3
ACAD_XREC_ROUNDTRIP
360
39B
  0
XRECORD
  5
3A4
102
{ACAD_REACTORS
330
3A3
102
}
330
3A3
100
AcDbXrecord
280
     1
102
DISPLAYNAME
  1
Metric50
102
FLAGS
 90
        0
  0
XRECORD
  5
2F2
102
{ACAD_REACTORS
330
2F1
102
}
330
2F1
100
AcDbXrecord
280
     1
102
MATERIAL
148
0.0
149
0.0
149
0.0
 93
        0
 94
      127
282
     0
 72
     1
 77
     1
171
     1
175
     1
179
     1
273
     0
  0
XRECORD
  5
2F0
102
{ACAD_REACTORS
330
2EF
102
}
330
2EF
100
AcDbXrecord
280
     1
102
MATERIAL
148
0.0
149
0.0
149
0.0
 93
        0
 94
      127
282
     0
 72
     1
 77
     1
171
     1
175
     1
179
     1
273
     0
  0
XRECORD
  5
2F4
102
{ACAD_REACTORS
330
2F3
102
}
330
2F3
100
AcDbXrecord
280
     1
102
MATERIAL
148
0.0
149
0.0
149
0.0
 93
        0
 94
      127
282
     0
 72
     1
 77
     1
171
     1
175
     1
179
     1
273
     0
  0
XRECORD
  5
3A2
102
{ACAD_REACTORS
330
3A1
102
}
330
3A1
100
AcDbXrecord
280
     1
102
DISPLAYNAME
  1
Metric50
102
FLAGS
 90
        0
  0
CELLSTYLEMAP
  5
36E
102
{ACAD_REACTORS
330
2F5
102
}
330
2F5
100
AcDbCellStyleMap
 90
        3
300
CELLSTYLE
  1
TABLEFORMAT_BEGIN
 90
        5
170
     1
 91
        0
 92
    32768
 62
   257
 93
        1
300
CONTENTFORMAT
  1
CONTENTFORMAT_BEGIN
 90
        0
 91
        0
 92
        4
 93
        0
300

 40
0.0
140
1.0
 94
        5
 62
     0
340
11
144
0.25
309
CONTENTFORMAT_END
171
     1
301
MARGIN
  1
CELLMARGIN_BEGIN
 40
0.06
 40
0.06
 40
0.06
 40
0.06
 40
0.18
 40
0.18
309
CELLMARGIN_END
 94
        6
 95
        1
302
GRIDFORMAT
  1
GRIDFORMAT_BEGIN
 90
        0
 91
        1
 62
     0
 92
       -2
340
14
 93
        0
 40
0.045
309
GRIDFORMAT_END
 95
        2
302
GRIDFORMAT
  1
GRIDFORMAT_BEGIN
 90
        0
 91
        1
 62
     0
 92
       -2
340
14
 93
        0
 40
0.045
309
GRIDFORMAT_END
 95
        4
302
GRIDFORMAT
  1
GRIDFORMAT_BEGIN
 90
        0
 91
        1
 62
     0
 92
       -2
340
14
 93
        0
 40
0.045
309
GRIDFORMAT_END
 95
        8
302
GRIDFORMAT
  1
GRIDFORMAT_BEGIN
 90
        0
 91
        1
 62
     0
 92
       -2
340
14
 93
        0
 40
0.045
309
GRIDFORMAT_END
 95
       16
302
GRIDFORMAT
  1
GRIDFORMAT_BEGIN
 90
        0
 91
        1
 62
     0
 92
       -2
340
14
 93
        0
 40
0.045
309
GRIDFORMAT_END
 95
       32
302
GRIDFORMAT
  1
GRIDFORMAT_BEGIN
 90
        0
 91
        1
 62
     0
 92
       -2
340
14
 93
        0
 40
0.045
309
GRIDFORMAT_END
309
TABLEFORMAT_END
  1
CELLSTYLE_BEGIN
 90
        1
 91
        1
300
_TITLE
309
CELLSTYLE_END
300
CELLSTYLE
  1
TABLEFORMAT_BEGIN
 90
        5
170
     1
 91
        0
 92
        0
 62
   257
 93
        1
300
CONTENTFORMAT
  1
CONTENTFORMAT_BEGIN
 90
        0
 91
        0
 92
        4
 93
        0
300

 40
0.0
140
1.0
 94
        5
 62
     0
340
11
144
0.18
309
CONTENTFORMAT_END
171
     1
301
MARGIN
  1
CELLMARGIN_BEGIN
 40
0.06
 40
0.06
 40
0.06
 40
0.06
 40
0.18
 40
0.18
309
CELLMARGIN_END
 94
        6
 95
        1
302
GRIDFORMAT
  1
GRIDFORMAT_BEGIN
 90
        0
 91
        1
 62
     0
 92
       -2
340
14
 93
        0
 40
0.045
309
GRIDFORMAT_END
 95
        2
302
GRIDFORMAT
  1
GRIDFORMAT_BEGIN
 90
        0
 91
        1
 62
     0
 92
       -2
340
14
 93
        0
 40
0.045
309
GRIDFORMAT_END
 95
        4
302
GRIDFORMAT
  1
GRIDFORMAT_BEGIN
 90
        0
 91
        1
 62
     0
 92
       -2
340
14
 93
        0
 40
0.045
309
GRIDFORMAT_END
 95
        8
302
GRIDFORMAT
  1
GRIDFORMAT_BEGIN
 90
        0
 91
        1
 62
     0
 92
       -2
340
14
 93
        0
 40
0.045
309
GRIDFORMAT_END
 95
       16
302
GRIDFORMAT
  1
GRIDFORMAT_BEGIN
 90
        0
 91
        1
 62
     0
 92
       -2
340
14
 93
        0
 40
0.045
309
GRIDFORMAT_END
 95
       32
302
GRIDFORMAT
  1
GRIDFORMAT_BEGIN
 90
        0
 91
        1
 62
     0
 92
       -2
340
14
 93
        0
 40
0.045
309
GRIDFORMAT_END
309
TABLEFORMAT_END
  1
CELLSTYLE_BEGIN
 90
        2
 91
        1
300
_HEADER
309
CELLSTYLE_END
300
CELLSTYLE
  1
TABLEFORMAT_BEGIN
 90
        5
170
     1
 91
        0
 92
        0
 62
   257
 93
        1
300
CONTENTFORMAT
  1
CONTENTFORMAT_BEGIN
 90
        0
 91
        0
 92
        4
 93
        0
300

 40
0.0
140
1.0
 94
        2
 62
     0
340
11
144
0.18
309
CONTENTFORMAT_END
171
     1
301
MARGIN
  1
CELLMARGIN_BEGIN
 40
0.06
 40
0.06
 40
0.06
 40
0.06
 40
0.18
 40
0.18
309
CELLMARGIN_END
 94
        6
 95
        1
302
GRIDFORMAT
  1
GRIDFORMAT_BEGIN
 90
        0
 91
        1
 62
     0
 92
       -2
340
14
 93
        0
 40
0.045
309
GRIDFORMAT_END
 95
        2
302
GRIDFORMAT
  1
GRIDFORMAT_BEGIN
 90
        0
 91
        1
 62
     0
 92
       -2
340
14
 93
        0
 40
0.045
309
GRIDFORMAT_END
 95
        4
302
GRIDFORMAT
  1
GRIDFORMAT_BEGIN
 90
        0
 91
        1
 62
     0
 92
       -2
340
14
 93
        0
 40
0.045
309
GRIDFORMAT_END
 95
        8
302
GRIDFORMAT
  1
GRIDFORMAT_BEGIN
 90
        0
 91
        1
 62
     0
 92
       -2
340
14
 93
        0
 40
0.045
309
GRIDFORMAT_END
 95
       16
302
GRIDFORMAT
  1
GRIDFORMAT_BEGIN
 90
        0
 91
        1
 62
     0
 92
       -2
340
14
 93
        0
 40
0.045
309
GRIDFORMAT_END
 95
       32
302
GRIDFORMAT
  1
GRIDFORMAT_BEGIN
 90
        0
 91
        1
 62
     0
 92
       -2
340
14
 93
        0
 40
0.045
309
GRIDFORMAT_END
309
TABLEFORMAT_END
  1
CELLSTYLE_BEGIN
 90
        3
 91
        2
300
_DATA
309
CELLSTYLE_END
  0
XRECORD
  5
3A0
102
{ACAD_REACTORS
330
2F5
102
}
330
2F5
100
AcDbXrecord
280
     1
102
ACAD_ROUNDTRIP_PRE2007_TABLESTYLE
 90
        4
 91
        0
  1

 92
        4
 93
        0
  2

 94
        4
 95
        0
  3

  0
XRECORD
  5
379
102
{ACAD_REACTORS
330
378
102
}
330
378
100
AcDbXrecord
280
     1
102
RTVSPost2010Prop28
280
     1
102
RTVSPost2010PropOp28
 70
     1
102
RTVSPost2010Prop29
280
     1
102
RTVSPost2010PropOp29
 70
     1
102
RTVSPost2010Prop30
280
     0
102
RTVSPost2010PropOp30
 70
     1
102
RTVSPost2010Prop31
280
     0
102
RTVSPost2010PropOp31
 70
     1
102
RTVSPost2010Prop32
280
     0
102
RTVSPost2010PropOp32
 70
     1
102
RTVSPost2010Prop33
280
     0
102
RTVSPost2010PropOp33
 70
     1
102
RTVSPost2010Prop34
280
     0
102
RTVSPost2010PropOp34
 70
     1
102
RTVSPost2010Prop35
280
     0
102
RTVSPost2010PropOp35
 70
     1
102
RTVSPost2010Prop36
280
     0
102
RTVSPost2010PropOp36
 70
     1
102
RTVSPost2010Prop37
 90
       50
102
RTVSPost2010PropOp37
 70
     1
102
RTVSPost2010Prop38
140
0.0
102
RTVSPost2010PropOp38
 70
     1
102
RTVSPost2010Prop39
140
1.0
102
RTVSPost2010PropOp39
 70
     1
102
RTVSPost2010Prop40
 90
        0
102
RTVSPost2010PropOp40
 70
     1
102
RTVSPost2010Prop41ColorIndex
 90
       18
102
RTVSPost2010Prop41ColorRGB
 90
        0
102
RTVSPost2010PropOp41
 70
     1
102
RTVSPost2010Prop42
 90
       50
102
RTVSPost2010PropOp42
 70
     1
102
RTVSPost2010Prop43
 90
        3
102
RTVSPost2010PropOp43
 70
     1
102
RTVSPost2010Prop44ColorIndex
 90
        5
102
RTVSPost2010Prop44ColorRGB
 90
      255
102
RTVSPost2010PropOp44
 70
     1
102
RTVSPost2010Prop45
280
     0
102
RTVSPost2010PropOp45
 70
     1
102
RTVSPost2010Prop46
 90
       50
102
RTVSPost2010PropOp46
 70
     1
102
RTVSPost2010Prop47
 90
       50
102
RTVSPost2010PropOp47
 70
     1
102
RTVSPost2010Prop48
 90
       50
102
RTVSPost2010PropOp48
 70
     1
102
RTVSPost2010Prop49
280
     0
102
RTVSPost2010PropOp49
 70
     1
102
RTVSPost2010Prop50
 90
       50
102
RTVSPost2010PropOp50
 70
     1
102
RTVSPost2010Prop51ColorIndex
 90
      256
102
RTVSPost2010Prop51ColorRGB
 90
-16777216
102
RTVSPost2010PropOp51
 70
     0
102
RTVSPost2010Prop52
140
1.0
102
RTVSPost2010PropOp52
 70
     0
102
RTVSPost2010Prop53
 90
        2
102
RTVSPost2010PropOp53
 70
     1
102
RTVSPost2010Prop54
  1
strokes_ogs.tif
102
RTVSPost2010PropOp54
 70
     1
102
RTVSPost2010Prop55
280
     0
102
RTVSPost2010PropOp55
 70
     1
102
RTVSPost2010Prop56
140
1.0
102
RTVSPost2010PropOp56
 70
     1
102
RTVSPost2010Prop57
140
1.0
102
RTVSPost2010PropOp57
 70
     1
102
RTVSPropertyOp0
 70
     1
102
RTVSPropertyOp1
 70
     1
102
RTVSPropertyOp2
 70
     1
102
RTVSPropertyOp3
 70
     1
102
RTVSPropertyOp4
 70
     1
102
RTVSPropertyOp5
 70
     1
102
RTVSPropertyOp6
 70
     1
102
RTVSPropertyOp7
 70
     1
102
RTVSPropertyOp8
 70
     1
102
RTVSPropertyOp9
 70
     1
102
RTVSPropertyOp10
 70
     1
102
RTVSPropertyOp11
 70
     1
102
RTVSPropertyOp12
 70
     1
102
RTVSPropertyOp13
 70
     1
102
RTVSPropertyOp14
 70
     1
102
RTVSPropertyOp15
 70
     1
102
RTVSPropertyOp16
 70
     1
102
RTVSPropertyOp17
 70
     1
102
RTVSPropertyOp18
 70
     1
102
RTVSPropertyOp19
 70
     1
102
RTVSPropertyOp20
 70
     1
102
RTVSPropertyOp21
 70
     1
102
RTVSPropertyOp22
 70
     1
102
RTVSPropertyOp23
 70
     1
102
RTVSPropertyOp24
 70
     1
102
RTVSPropertyOp25
 70
     1
102
RTVSPropertyOp26
 70
     1
102
RTVSPropertyOp27
 70
     1
102
RTVSPropertyOp28
 70
     1
102
RTVSPropertyOp29
 70
     1
102
RTVSPropertyOp30
 70
     1
102
RTVSPropertyOp31
 70
     1
102
RTVSPropertyOp32
 70
     1
102
RTVSPropertyOp33
 70
     1
102
RTVSPropertyOp34
 70
     1
102
RTVSPropertyOp35
 70
     1
102
RTVSPropertyOp36
 70
     1
102
RTVSPropertyOp37
 70
     1
102
RTVSPropertyOp38
 70
     1
102
RTVSPropertyOp39
 70
     1
102
RTVSPropertyOp40
 70
     1
102
RTVSPropertyOp41
 70
     1
102
RTVSPropertyOp42
 70
     1
102
RTVSPropertyOp43
 70
     1
102
RTVSPropertyOp44
 70
     1
102
RTVSPropertyOp45
 70
     1
102
RTVSPropertyOp46
 70
     1
102
RTVSPropertyOp47
 70
     1
102
RTVSPropertyOp48
 70
     1
102
RTVSPropertyOp49
 70
     1
102
RTVSPropertyOp50
 70
     1
102
RTVSPropertyOp51
 70
     0
102
RTVSPropertyOp52
 70
     0
102
RTVSPropertyOp53
 70
     1
102
RTVSPropertyOp54
 70
     1
102
RTVSPropertyOp55
 70
     1
102
RTVSPropertyOp56
 70
     1
102
RTVSPropertyOp57
 70
     1
102
RTVSPropertyOp58
 70
     1
102
RTVSPropertyOp59
 70
     1
102
RTVSPropertyOp60
 70
     1
102
RTVSPropertyOp61
 70
     1
102
RTVSPropertyOp62
 70
     1
  0
XRECORD
  5
37F
102
{ACAD_REACTORS
330
37E
102
}
330
37E
100
AcDbXrecord
280
     1
102
RTVSPost2010Prop28
280
     0
102
RTVSPost2010PropOp28
 70
     1
102
RTVSPost2010Prop29
280
     1
102
RTVSPost2010PropOp29
 70
     1
102
RTVSPost2010Prop30
280
     1
102
RTVSPost2010PropOp30
 70
     1
102
RTVSPost2010Prop31
280
     0
102
RTVSPost2010PropOp31
 70
     1
102
RTVSPost2010Prop32
280
     0
102
RTVSPost2010PropOp32
 70
     1
102
RTVSPost2010Prop33
280
     0
102
RTVSPost2010PropOp33
 70
     1
102
RTVSPost2010Prop34
280
     0
102
RTVSPost2010PropOp34
 70
     1
102
RTVSPost2010Prop35
280
     0
102
RTVSPost2010PropOp35
 70
     1
102
RTVSPost2010Prop36
280
     0
102
RTVSPost2010PropOp36
 70
     1
102
RTVSPost2010Prop37
 90
       50
102
RTVSPost2010PropOp37
 70
     1
102
RTVSPost2010Prop38
140
0.0
102
RTVSPost2010PropOp38
 70
     1
102
RTVSPost2010Prop39
140
1.0
102
RTVSPost2010PropOp39
 70
     1
102
RTVSPost2010Prop40
 90
        0
102
RTVSPost2010PropOp40
 70
     1
102
RTVSPost2010Prop41ColorIndex
 90
       18
102
RTVSPost2010Prop41ColorRGB
 90
        0
102
RTVSPost2010PropOp41
 70
     1
102
RTVSPost2010Prop42
 90
       50
102
RTVSPost2010PropOp42
 70
     1
102
RTVSPost2010Prop43
 90
        3
102
RTVSPost2010PropOp43
 70
     1
102
RTVSPost2010Prop44ColorIndex
 90
        5
102
RTVSPost2010Prop44ColorRGB
 90
      255
102
RTVSPost2010PropOp44
 70
     1
102
RTVSPost2010Prop45
280
     0
102
RTVSPost2010PropOp45
 70
     1
102
RTVSPost2010Prop46
 90
       50
102
RTVSPost2010PropOp46
 70
     1
102
RTVSPost2010Prop47
 90
       50
102
RTVSPost2010PropOp47
 70
     1
102
RTVSPost2010Prop48
 90
       50
102
RTVSPost2010PropOp48
 70
     1
102
RTVSPost2010Prop49
280
     0
102
RTVSPost2010PropOp49
 70
     1
102
RTVSPost2010Prop50
 90
       50
102
RTVSPost2010PropOp50
 70
     1
102
RTVSPost2010Prop51ColorIndex
 90
      256
102
RTVSPost2010Prop51ColorRGB
 90
-16777216
102
RTVSPost2010PropOp51
 70
     0
102
RTVSPost2010Prop52
140
1.0
102
RTVSPost2010PropOp52
 70
     0
102
RTVSPost2010Prop53
 90
        2
102
RTVSPost2010PropOp53
 70
     1
102
RTVSPost2010Prop54
  1
strokes_ogs.tif
102
RTVSPost2010PropOp54
 70
     1
102
RTVSPost2010Prop55
280
     0
102
RTVSPost2010PropOp55
 70
     1
102
RTVSPost2010Prop56
140
1.0
102
RTVSPost2010PropOp56
 70
     1
102
RTVSPost2010Prop57
140
1.0
102
RTVSPost2010PropOp57
 70
     1
102
RTVSPropertyOp0
 70
     1
102
RTVSPropertyOp1
 70
     1
102
RTVSPropertyOp2
 70
     1
102
RTVSPropertyOp3
 70
     1
102
RTVSPropertyOp4
 70
     1
102
RTVSPropertyOp5
 70
     1
102
RTVSPropertyOp6
 70
     1
102
RTVSPropertyOp7
 70
     1
102
RTVSPropertyOp8
 70
     1
102
RTVSPropertyOp9
 70
     1
102
RTVSPropertyOp10
 70
     1
102
RTVSPropertyOp11
 70
     1
102
RTVSPropertyOp12
 70
     1
102
RTVSPropertyOp13
 70
     1
102
RTVSPropertyOp14
 70
     1
102
RTVSPropertyOp15
 70
     1
102
RTVSPropertyOp16
 70
     1
102
RTVSPropertyOp17
 70
     1
102
RTVSPropertyOp18
 70
     1
102
RTVSPropertyOp19
 70
     1
102
RTVSPropertyOp20
 70
     1
102
RTVSPropertyOp21
 70
     1
102
RTVSPropertyOp22
 70
     1
102
RTVSPropertyOp23
 70
     1
102
RTVSPropertyOp24
 70
     1
102
RTVSPropertyOp25
 70
     1
102
RTVSPropertyOp26
 70
     1
102
RTVSPropertyOp27
 70
     1
102
RTVSPropertyOp28
 70
     1
102
RTVSPropertyOp29
 70
     1
102
RTVSPropertyOp30
 70
     1
102
RTVSPropertyOp31
 70
     1
102
RTVSPropertyOp32
 70
     1
102
RTVSPropertyOp33
 70
     1
102
RTVSPropertyOp34
 70
     1
102
RTVSPropertyOp35
 70
     1
102
RTVSPropertyOp36
 70
     1
102
RTVSPropertyOp37
 70
     1
102
RTVSPropertyOp38
 70
     1
102
RTVSPropertyOp39
 70
     1
102
RTVSPropertyOp40
 70
     1
102
RTVSPropertyOp41
 70
     1
102
RTVSPropertyOp42
 70
     1
102
RTVSPropertyOp43
 70
     1
102
RTVSPropertyOp44
 70
     1
102
RTVSPropertyOp45
 70
     1
102
RTVSPropertyOp46
 70
     1
102
RTVSPropertyOp47
 70
     1
102
RTVSPropertyOp48
 70
     1
102
RTVSPropertyOp49
 70
     1
102
RTVSPropertyOp50
 70
     1
102
RTVSPropertyOp51
 70
     0
102
RTVSPropertyOp52
 70
     0
102
RTVSPropertyOp53
 70
     1
102
RTVSPropertyOp54
 70
     1
102
RTVSPropertyOp55
 70
     1
102
RTVSPropertyOp56
 70
     1
102
RTVSPropertyOp57
 70
     1
102
RTVSPropertyOp58
 70
     1
102
RTVSPropertyOp59
 70
     1
102
RTVSPropertyOp60
 70
     1
102
RTVSPropertyOp61
 70
     1
102
RTVSPropertyOp62
 70
     1
  0
XRECORD
  5
387
102
{ACAD_REACTORS
330
386
102
}
330
386
100
AcDbXrecord
280
     1
102
RTVSPost2010Prop28
280
     0
102
RTVSPost2010PropOp28
 70
     1
102
RTVSPost2010Prop29
280
     1
102
RTVSPost2010PropOp29
 70
     1
102
RTVSPost2010Prop30
280
     1
102
RTVSPost2010PropOp30
 70
     1
102
RTVSPost2010Prop31
280
     0
102
RTVSPost2010PropOp31
 70
     1
102
RTVSPost2010Prop32
280
     0
102
RTVSPost2010PropOp32
 70
     1
102
RTVSPost2010Prop33
280
     0
102
RTVSPost2010PropOp33
 70
     1
102
RTVSPost2010Prop34
280
     0
102
RTVSPost2010PropOp34
 70
     1
102
RTVSPost2010Prop35
280
     0
102
RTVSPost2010PropOp35
 70
     1
102
RTVSPost2010Prop36
280
     0
102
RTVSPost2010PropOp36
 70
     1
102
RTVSPost2010Prop37
 90
       50
102
RTVSPost2010PropOp37
 70
     1
102
RTVSPost2010Prop38
140
0.0
102
RTVSPost2010PropOp38
 70
     1
102
RTVSPost2010Prop39
140
1.0
102
RTVSPost2010PropOp39
 70
     1
102
RTVSPost2010Prop40
 90
        0
102
RTVSPost2010PropOp40
 70
     1
102
RTVSPost2010Prop41ColorIndex
 90
       18
102
RTVSPost2010Prop41ColorRGB
 90
        0
102
RTVSPost2010PropOp41
 70
     1
102
RTVSPost2010Prop42
 90
       50
102
RTVSPost2010PropOp42
 70
     1
102
RTVSPost2010Prop43
 90
        3
102
RTVSPost2010PropOp43
 70
     1
102
RTVSPost2010Prop44ColorIndex
 90
        5
102
RTVSPost2010Prop44ColorRGB
 90
      255
102
RTVSPost2010PropOp44
 70
     1
102
RTVSPost2010Prop45
280
     0
102
RTVSPost2010PropOp45
 70
     1
102
RTVSPost2010Prop46
 90
       50
102
RTVSPost2010PropOp46
 70
     1
102
RTVSPost2010Prop47
 90
       50
102
RTVSPost2010PropOp47
 70
     1
102
RTVSPost2010Prop48
 90
       50
102
RTVSPost2010PropOp48
 70
     1
102
RTVSPost2010Prop49
280
     0
102
RTVSPost2010PropOp49
 70
     1
102
RTVSPost2010Prop50
 90
       50
102
RTVSPost2010PropOp50
 70
     1
102
RTVSPost2010Prop51ColorIndex
 90
      256
102
RTVSPost2010Prop51ColorRGB
 90
-16777216
102
RTVSPost2010PropOp51
 70
     0
102
RTVSPost2010Prop52
140
1.0
102
RTVSPost2010PropOp52
 70
     0
102
RTVSPost2010Prop53
 90
        2
102
RTVSPost2010PropOp53
 70
     1
102
RTVSPost2010Prop54
  1
strokes_ogs.tif
102
RTVSPost2010PropOp54
 70
     1
102
RTVSPost2010Prop55
280
     0
102
RTVSPost2010PropOp55
 70
     1
102
RTVSPost2010Prop56
140
1.0
102
RTVSPost2010PropOp56
 70
     1
102
RTVSPost2010Prop57
140
1.0
102
RTVSPost2010PropOp57
 70
     1
102
RTVSPropertyOp0
 70
     1
102
RTVSPropertyOp1
 70
     1
102
RTVSPropertyOp2
 70
     1
102
RTVSPropertyOp3
 70
     1
102
RTVSPropertyOp4
 70
     1
102
RTVSPropertyOp5
 70
     1
102
RTVSPropertyOp6
 70
     1
102
RTVSPropertyOp7
 70
     1
102
RTVSPropertyOp8
 70
     1
102
RTVSPropertyOp9
 70
     1
102
RTVSPropertyOp10
 70
     1
102
RTVSPropertyOp11
 70
     1
102
RTVSPropertyOp12
 70
     1
102
RTVSPropertyOp13
 70
     1
102
RTVSPropertyOp14
 70
     1
102
RTVSPropertyOp15
 70
     1
102
RTVSPropertyOp16
 70
     1
102
RTVSPropertyOp17
 70
     1
102
RTVSPropertyOp18
 70
     1
102
RTVSPropertyOp19
 70
     1
102
RTVSPropertyOp20
 70
     1
102
RTVSPropertyOp21
 70
     1
102
RTVSPropertyOp22
 70
     1
102
RTVSPropertyOp23
 70
     1
102
RTVSPropertyOp24
 70
     1
102
RTVSPropertyOp25
 70
     1
102
RTVSPropertyOp26
 70
     1
102
RTVSPropertyOp27
 70
     1
102
RTVSPropertyOp28
 70
     1
102
RTVSPropertyOp29
 70
     1
102
RTVSPropertyOp30
 70
     1
102
RTVSPropertyOp31
 70
     1
102
RTVSPropertyOp32
 70
     1
102
RTVSPropertyOp33
 70
     1
102
RTVSPropertyOp34
 70
     1
102
RTVSPropertyOp35
 70
     1
102
RTVSPropertyOp36
 70
     1
102
RTVSPropertyOp37
 70
     1
102
RTVSPropertyOp38
 70
     1
102
RTVSPropertyOp39
 70
     1
102
RTVSPropertyOp40
 70
     1
102
RTVSPropertyOp41
 70
     1
102
RTVSPropertyOp42
 70
     1
102
RTVSPropertyOp43
 70
     1
102
RTVSPropertyOp44
 70
     1
102
RTVSPropertyOp45
 70
     1
102
RTVSPropertyOp46
 70
     1
102
RTVSPropertyOp47
 70
     1
102
RTVSPropertyOp48
 70
     1
102
RTVSPropertyOp49
 70
     1
102
RTVSPropertyOp50
 70
     1
102
RTVSPropertyOp51
 70
     0
102
RTVSPropertyOp52
 70
     0
102
RTVSPropertyOp53
 70
     1
102
RTVSPropertyOp54
 70
     1
102
RTVSPropertyOp55
 70
     1
102
RTVSPropertyOp56
 70
     1
102
RTVSPropertyOp57
 70
     1
102
RTVSPropertyOp58
 70
     1
102
RTVSPropertyOp59
 70
     1
102
RTVSPropertyOp60
 70
     1
102
RTVSPropertyOp61
 70
     1
102
RTVSPropertyOp62
 70
     1
  0
XRECORD
  5
38F
102
{ACAD_REACTORS
330
38E
102
}
330
38E
100
AcDbXrecord
280
     1
102
RTVSPost2010Prop28
280
     0
102
RTVSPost2010PropOp28
 70
     1
102
RTVSPost2010Prop29
280
     1
102
RTVSPost2010PropOp29
 70
     1
102
RTVSPost2010Prop30
280
     1
102
RTVSPost2010PropOp30
 70
     1
102
RTVSPost2010Prop31
280
     0
102
RTVSPost2010PropOp31
 70
     1
102
RTVSPost2010Prop32
280
     0
102
RTVSPost2010PropOp32
 70
     1
102
RTVSPost2010Prop33
280
     0
102
RTVSPost2010PropOp33
 70
     1
102
RTVSPost2010Prop34
280
     0
102
RTVSPost2010PropOp34
 70
     1
102
RTVSPost2010Prop35
280
     0
102
RTVSPost2010PropOp35
 70
     1
102
RTVSPost2010Prop36
280
     0
102
RTVSPost2010PropOp36
 70
     1
102
RTVSPost2010Prop37
 90
       50
102
RTVSPost2010PropOp37
 70
     1
102
RTVSPost2010Prop38
140
0.0
102
RTVSPost2010PropOp38
 70
     1
102
RTVSPost2010Prop39
140
1.0
102
RTVSPost2010PropOp39
 70
     1
102
RTVSPost2010Prop40
 90
        0
102
RTVSPost2010PropOp40
 70
     1
102
RTVSPost2010Prop41ColorIndex
 90
       18
102
RTVSPost2010Prop41ColorRGB
 90
        0
102
RTVSPost2010PropOp41
 70
     1
102
RTVSPost2010Prop42
 90
       50
102
RTVSPost2010PropOp42
 70
     1
102
RTVSPost2010Prop43
 90
        3
102
RTVSPost2010PropOp43
 70
     1
102
RTVSPost2010Prop44ColorIndex
 90
        5
102
RTVSPost2010Prop44ColorRGB
 90
      255
102
RTVSPost2010PropOp44
 70
     1
102
RTVSPost2010Prop45
280
     0
102
RTVSPost2010PropOp45
 70
     1
102
RTVSPost2010Prop46
 90
       50
102
RTVSPost2010PropOp46
 70
     1
102
RTVSPost2010Prop47
 90
       50
102
RTVSPost2010PropOp47
 70
     1
102
RTVSPost2010Prop48
 90
       50
102
RTVSPost2010PropOp48
 70
     1
102
RTVSPost2010Prop49
280
     0
102
RTVSPost2010PropOp49
 70
     1
102
RTVSPost2010Prop50
 90
       50
102
RTVSPost2010PropOp50
 70
     1
102
RTVSPost2010Prop51ColorIndex
 90
      256
102
RTVSPost2010Prop51ColorRGB
 90
-16777216
102
RTVSPost2010PropOp51
 70
     0
102
RTVSPost2010Prop52
140
1.0
102
RTVSPost2010PropOp52
 70
     0
102
RTVSPost2010Prop53
 90
        2
102
RTVSPost2010PropOp53
 70
     1
102
RTVSPost2010Prop54
  1
strokes_ogs.tif
102
RTVSPost2010PropOp54
 70
     1
102
RTVSPost2010Prop55
280
     0
102
RTVSPost2010PropOp55
 70
     1
102
RTVSPost2010Prop56
140
1.0
102
RTVSPost2010PropOp56
 70
     1
102
RTVSPost2010Prop57
140
1.0
102
RTVSPost2010PropOp57
 70
     1
102
RTVSPropertyOp0
 70
     1
102
RTVSPropertyOp1
 70
     1
102
RTVSPropertyOp2
 70
     1
102
RTVSPropertyOp3
 70
     1
102
RTVSPropertyOp4
 70
     1
102
RTVSPropertyOp5
 70
     1
102
RTVSPropertyOp6
 70
     1
102
RTVSPropertyOp7
 70
     1
102
RTVSPropertyOp8
 70
     1
102
RTVSPropertyOp9
 70
     1
102
RTVSPropertyOp10
 70
     1
102
RTVSPropertyOp11
 70
     1
102
RTVSPropertyOp12
 70
     1
102
RTVSPropertyOp13
 70
     1
102
RTVSPropertyOp14
 70
     1
102
RTVSPropertyOp15
 70
     1
102
RTVSPropertyOp16
 70
     1
102
RTVSPropertyOp17
 70
     1
102
RTVSPropertyOp18
 70
     1
102
RTVSPropertyOp19
 70
     1
102
RTVSPropertyOp20
 70
     1
102
RTVSPropertyOp21
 70
     1
102
RTVSPropertyOp22
 70
     1
102
RTVSPropertyOp23
 70
     1
102
RTVSPropertyOp24
 70
     1
102
RTVSPropertyOp25
 70
     1
102
RTVSPropertyOp26
 70
     1
102
RTVSPropertyOp27
 70
     1
102
RTVSPropertyOp28
 70
     1
102
RTVSPropertyOp29
 70
     1
102
RTVSPropertyOp30
 70
     1
102
RTVSPropertyOp31
 70
     1
102
RTVSPropertyOp32
 70
     1
102
RTVSPropertyOp33
 70
     1
102
RTVSPropertyOp34
 70
     1
102
RTVSPropertyOp35
 70
     1
102
RTVSPropertyOp36
 70
     1
102
RTVSPropertyOp37
 70
     1
102
RTVSPropertyOp38
 70
     1
102
RTVSPropertyOp39
 70
     1
102
RTVSPropertyOp40
 70
     1
102
RTVSPropertyOp41
 70
     1
102
RTVSPropertyOp42
 70
     1
102
RTVSPropertyOp43
 70
     1
102
RTVSPropertyOp44
 70
     1
102
RTVSPropertyOp45
 70
     1
102
RTVSPropertyOp46
 70
     1
102
RTVSPropertyOp47
 70
     1
102
RTVSPropertyOp48
 70
     1
102
RTVSPropertyOp49
 70
     1
102
RTVSPropertyOp50
 70
     1
102
RTVSPropertyOp51
 70
     0
102
RTVSPropertyOp52
 70
     0
102
RTVSPropertyOp53
 70
     1
102
RTVSPropertyOp54
 70
     1
102
RTVSPropertyOp55
 70
     1
102
RTVSPropertyOp56
 70
     1
102
RTVSPropertyOp57
 70
     1
102
RTVSPropertyOp58
 70
     1
102
RTVSPropertyOp59
 70
     1
102
RTVSPropertyOp60
 70
     1
102
RTVSPropertyOp61
 70
     1
102
RTVSPropertyOp62
 70
     1
  0
XRECORD
  5
383
102
{ACAD_REACTORS
330
382
102
}
330
382
100
AcDbXrecord
280
     1
102
RTVSPost2010Prop28
280
     0
102
RTVSPost2010PropOp28
 70
     1
102
RTVSPost2010Prop29
280
     1
102
RTVSPost2010PropOp29
 70
     1
102
RTVSPost2010Prop30
280
     1
102
RTVSPost2010PropOp30
 70
     1
102
RTVSPost2010Prop31
280
     0
102
RTVSPost2010PropOp31
 70
     1
102
RTVSPost2010Prop32
280
     0
102
RTVSPost2010PropOp32
 70
     1
102
RTVSPost2010Prop33
280
     0
102
RTVSPost2010PropOp33
 70
     1
102
RTVSPost2010Prop34
280
     0
102
RTVSPost2010PropOp34
 70
     1
102
RTVSPost2010Prop35
280
     0
102
RTVSPost2010PropOp35
 70
     1
102
RTVSPost2010Prop36
280
     0
102
RTVSPost2010PropOp36
 70
     1
102
RTVSPost2010Prop37
 90
       50
102
RTVSPost2010PropOp37
 70
     1
102
RTVSPost2010Prop38
140
0.0
102
RTVSPost2010PropOp38
 70
     1
102
RTVSPost2010Prop39
140
1.0
102
RTVSPost2010PropOp39
 70
     1
102
RTVSPost2010Prop40
 90
        0
102
RTVSPost2010PropOp40
 70
     1
102
RTVSPost2010Prop41ColorIndex
 90
       18
102
RTVSPost2010Prop41ColorRGB
 90
        0
102
RTVSPost2010PropOp41
 70
     1
102
RTVSPost2010Prop42
 90
       50
102
RTVSPost2010PropOp42
 70
     1
102
RTVSPost2010Prop43
 90
        3
102
RTVSPost2010PropOp43
 70
     1
102
RTVSPost2010Prop44ColorIndex
 90
        5
102
RTVSPost2010Prop44ColorRGB
 90
      255
102
RTVSPost2010PropOp44
 70
     1
102
RTVSPost2010Prop45
280
     0
102
RTVSPost2010PropOp45
 70
     1
102
RTVSPost2010Prop46
 90
       50
102
RTVSPost2010PropOp46
 70
     1
102
RTVSPost2010Prop47
 90
       50
102
RTVSPost2010PropOp47
 70
     1
102
RTVSPost2010Prop48
 90
       50
102
RTVSPost2010PropOp48
 70
     1
102
RTVSPost2010Prop49
280
     0
102
RTVSPost2010PropOp49
 70
     1
102
RTVSPost2010Prop50
 90
       50
102
RTVSPost2010PropOp50
 70
     1
102
RTVSPost2010Prop51ColorIndex
 90
      256
102
RTVSPost2010Prop51ColorRGB
 90
-16777216
102
RTVSPost2010PropOp51
 70
     0
102
RTVSPost2010Prop52
140
1.0
102
RTVSPost2010PropOp52
 70
     0
102
RTVSPost2010Prop53
 90
        2
102
RTVSPost2010PropOp53
 70
     1
102
RTVSPost2010Prop54
  1
strokes_ogs.tif
102
RTVSPost2010PropOp54
 70
     1
102
RTVSPost2010Prop55
280
     0
102
RTVSPost2010PropOp55
 70
     1
102
RTVSPost2010Prop56
140
1.0
102
RTVSPost2010PropOp56
 70
     1
102
RTVSPost2010Prop57
140
1.0
102
RTVSPost2010PropOp57
 70
     1
102
RTVSPropertyOp0
 70
     1
102
RTVSPropertyOp1
 70
     1
102
RTVSPropertyOp2
 70
     1
102
RTVSPropertyOp3
 70
     1
102
RTVSPropertyOp4
 70
     1
102
RTVSPropertyOp5
 70
     1
102
RTVSPropertyOp6
 70
     1
102
RTVSPropertyOp7
 70
     1
102
RTVSPropertyOp8
 70
     1
102
RTVSPropertyOp9
 70
     1
102
RTVSPropertyOp10
 70
     1
102
RTVSPropertyOp11
 70
     1
102
RTVSPropertyOp12
 70
     1
102
RTVSPropertyOp13
 70
     1
102
RTVSPropertyOp14
 70
     1
102
RTVSPropertyOp15
 70
     1
102
RTVSPropertyOp16
 70
     1
102
RTVSPropertyOp17
 70
     1
102
RTVSPropertyOp18
 70
     1
102
RTVSPropertyOp19
 70
     1
102
RTVSPropertyOp20
 70
     1
102
RTVSPropertyOp21
 70
     1
102
RTVSPropertyOp22
 70
     1
102
RTVSPropertyOp23
 70
     1
102
RTVSPropertyOp24
 70
     1
102
RTVSPropertyOp25
 70
     1
102
RTVSPropertyOp26
 70
     1
102
RTVSPropertyOp27
 70
     1
102
RTVSPropertyOp28
 70
     1
102
RTVSPropertyOp29
 70
     1
102
RTVSPropertyOp30
 70
     1
102
RTVSPropertyOp31
 70
     1
102
RTVSPropertyOp32
 70
     1
102
RTVSPropertyOp33
 70
     1
102
RTVSPropertyOp34
 70
     1
102
RTVSPropertyOp35
 70
     1
102
RTVSPropertyOp36
 70
     1
102
RTVSPropertyOp37
 70
     1
102
RTVSPropertyOp38
 70
     1
102
RTVSPropertyOp39
 70
     1
102
RTVSPropertyOp40
 70
     1
102
RTVSPropertyOp41
 70
     1
102
RTVSPropertyOp42
 70
     1
102
RTVSPropertyOp43
 70
     1
102
RTVSPropertyOp44
 70
     1
102
RTVSPropertyOp45
 70
     1
102
RTVSPropertyOp46
 70
     1
102
RTVSPropertyOp47
 70
     1
102
RTVSPropertyOp48
 70
     1
102
RTVSPropertyOp49
 70
     1
102
RTVSPropertyOp50
 70
     1
102
RTVSPropertyOp51
 70
     0
102
RTVSPropertyOp52
 70
     0
102
RTVSPropertyOp53
 70
     1
102
RTVSPropertyOp54
 70
     1
102
RTVSPropertyOp55
 70
     1
102
RTVSPropertyOp56
 70
     1
102
RTVSPropertyOp57
 70
     1
102
RTVSPropertyOp58
 70
     1
102
RTVSPropertyOp59
 70
     1
102
RTVSPropertyOp60
 70
     1
102
RTVSPropertyOp61
 70
     1
102
RTVSPropertyOp62
 70
     1
  0
XRECORD
  5
385
102
{ACAD_REACTORS
330
384
102
}
330
384
100
AcDbXrecord
280
     1
102
RTVSPost2010Prop28
280
     0
102
RTVSPost2010PropOp28
 70
     1
102
RTVSPost2010Prop29
280
     1
102
RTVSPost2010PropOp29
 70
     1
102
RTVSPost2010Prop30
280
     1
102
RTVSPost2010PropOp30
 70
     1
102
RTVSPost2010Prop31
280
     0
102
RTVSPost2010PropOp31
 70
     1
102
RTVSPost2010Prop32
280
     0
102
RTVSPost2010PropOp32
 70
     1
102
RTVSPost2010Prop33
280
     0
102
RTVSPost2010PropOp33
 70
     1
102
RTVSPost2010Prop34
280
     0
102
RTVSPost2010PropOp34
 70
     1
102
RTVSPost2010Prop35
280
     0
102
RTVSPost2010PropOp35
 70
     1
102
RTVSPost2010Prop36
280
     0
102
RTVSPost2010PropOp36
 70
     1
102
RTVSPost2010Prop37
 90
       50
102
RTVSPost2010PropOp37
 70
     1
102
RTVSPost2010Prop38
140
0.0
102
RTVSPost2010PropOp38
 70
     1
102
RTVSPost2010Prop39
140
1.0
102
RTVSPost2010PropOp39
 70
     1
102
RTVSPost2010Prop40
 90
        0
102
RTVSPost2010PropOp40
 70
     1
102
RTVSPost2010Prop41ColorIndex
 90
       18
102
RTVSPost2010Prop41ColorRGB
 90
        0
102
RTVSPost2010PropOp41
 70
     1
102
RTVSPost2010Prop42
 90
       50
102
RTVSPost2010PropOp42
 70
     1
102
RTVSPost2010Prop43
 90
        3
102
RTVSPost2010PropOp43
 70
     1
102
RTVSPost2010Prop44ColorIndex
 90
        5
102
RTVSPost2010Prop44ColorRGB
 90
      255
102
RTVSPost2010PropOp44
 70
     1
102
RTVSPost2010Prop45
280
     0
102
RTVSPost2010PropOp45
 70
     1
102
RTVSPost2010Prop46
 90
       50
102
RTVSPost2010PropOp46
 70
     1
102
RTVSPost2010Prop47
 90
       50
102
RTVSPost2010PropOp47
 70
     1
102
RTVSPost2010Prop48
 90
       50
102
RTVSPost2010PropOp48
 70
     1
102
RTVSPost2010Prop49
280
     0
102
RTVSPost2010PropOp49
 70
     1
102
RTVSPost2010Prop50
 90
       50
102
RTVSPost2010PropOp50
 70
     1
102
RTVSPost2010Prop51ColorIndex
 90
      256
102
RTVSPost2010Prop51ColorRGB
 90
-16777216
102
RTVSPost2010PropOp51
 70
     0
102
RTVSPost2010Prop52
140
1.0
102
RTVSPost2010PropOp52
 70
     0
102
RTVSPost2010Prop53
 90
        2
102
RTVSPost2010PropOp53
 70
     1
102
RTVSPost2010Prop54
  1
strokes_ogs.tif
102
RTVSPost2010PropOp54
 70
     1
102
RTVSPost2010Prop55
280
     0
102
RTVSPost2010PropOp55
 70
     1
102
RTVSPost2010Prop56
140
1.0
102
RTVSPost2010PropOp56
 70
     1
102
RTVSPost2010Prop57
140
1.0
102
RTVSPost2010PropOp57
 70
     1
102
RTVSPropertyOp0
 70
     1
102
RTVSPropertyOp1
 70
     1
102
RTVSPropertyOp2
 70
     1
102
RTVSPropertyOp3
 70
     1
102
RTVSPropertyOp4
 70
     1
102
RTVSPropertyOp5
 70
     1
102
RTVSPropertyOp6
 70
     1
102
RTVSPropertyOp7
 70
     1
102
RTVSPropertyOp8
 70
     1
102
RTVSPropertyOp9
 70
     1
102
RTVSPropertyOp10
 70
     1
102
RTVSPropertyOp11
 70
     1
102
RTVSPropertyOp12
 70
     1
102
RTVSPropertyOp13
 70
     1
102
RTVSPropertyOp14
 70
     1
102
RTVSPropertyOp15
 70
     1
102
RTVSPropertyOp16
 70
     1
102
RTVSPropertyOp17
 70
     1
102
RTVSPropertyOp18
 70
     1
102
RTVSPropertyOp19
 70
     1
102
RTVSPropertyOp20
 70
     1
102
RTVSPropertyOp21
 70
     1
102
RTVSPropertyOp22
 70
     1
102
RTVSPropertyOp23
 70
     1
102
RTVSPropertyOp24
 70
     1
102
RTVSPropertyOp25
 70
     1
102
RTVSPropertyOp26
 70
     1
102
RTVSPropertyOp27
 70
     1
102
RTVSPropertyOp28
 70
     1
102
RTVSPropertyOp29
 70
     1
102
RTVSPropertyOp30
 70
     1
102
RTVSPropertyOp31
 70
     1
102
RTVSPropertyOp32
 70
     1
102
RTVSPropertyOp33
 70
     1
102
RTVSPropertyOp34
 70
     1
102
RTVSPropertyOp35
 70
     1
102
RTVSPropertyOp36
 70
     1
102
RTVSPropertyOp37
 70
     1
102
RTVSPropertyOp38
 70
     1
102
RTVSPropertyOp39
 70
     1
102
RTVSPropertyOp40
 70
     1
102
RTVSPropertyOp41
 70
     1
102
RTVSPropertyOp42
 70
     1
102
RTVSPropertyOp43
 70
     1
102
RTVSPropertyOp44
 70
     1
102
RTVSPropertyOp45
 70
     1
102
RTVSPropertyOp46
 70
     1
102
RTVSPropertyOp47
 70
     1
102
RTVSPropertyOp48
 70
     1
102
RTVSPropertyOp49
 70
     1
102
RTVSPropertyOp50
 70
     1
102
RTVSPropertyOp51
 70
     0
102
RTVSPropertyOp52
 70
     0
102
RTVSPropertyOp53
 70
     1
102
RTVSPropertyOp54
 70
     1
102
RTVSPropertyOp55
 70
     1
102
RTVSPropertyOp56
 70
     1
102
RTVSPropertyOp57
 70
     1
102
RTVSPropertyOp58
 70
     1
102
RTVSPropertyOp59
 70
     1
102
RTVSPropertyOp60
 70
     1
102
RTVSPropertyOp61
 70
     1
102
RTVSPropertyOp62
 70
     1
  0
XRECORD
  5
395
102
{ACAD_REACTORS
330
394
102
}
330
394
100
AcDbXrecord
280
     1
102
RTVSPost2010Prop28
280
     0
102
RTVSPost2010PropOp28
 70
     0
102
RTVSPost2010Prop29
280
     1
102
RTVSPost2010PropOp29
 70
     0
102
RTVSPost2010Prop30
280
     1
102
RTVSPost2010PropOp30
 70
     0
102
RTVSPost2010Prop31
280
     0
102
RTVSPost2010PropOp31
 70
     0
102
RTVSPost2010Prop32
280
     0
102
RTVSPost2010PropOp32
 70
     0
102
RTVSPost2010Prop33
280
     0
102
RTVSPost2010PropOp33
 70
     0
102
RTVSPost2010Prop34
280
     0
102
RTVSPost2010PropOp34
 70
     0
102
RTVSPost2010Prop35
280
     0
102
RTVSPost2010PropOp35
 70
     0
102
RTVSPost2010Prop36
280
     0
102
RTVSPost2010PropOp36
 70
     0
102
RTVSPost2010Prop37
 90
       50
102
RTVSPost2010PropOp37
 70
     0
102
RTVSPost2010Prop38
140
0.0
102
RTVSPost2010PropOp38
 70
     0
102
RTVSPost2010Prop39
140
1.0
102
RTVSPost2010PropOp39
 70
     0
102
RTVSPost2010Prop40
 90
        0
102
RTVSPost2010PropOp40
 70
     0
102
RTVSPost2010Prop41ColorIndex
 90
       18
102
RTVSPost2010Prop41ColorRGB
 90
        0
102
RTVSPost2010PropOp41
 70
     0
102
RTVSPost2010Prop42
 90
       50
102
RTVSPost2010PropOp42
 70
     0
102
RTVSPost2010Prop43
 90
        3
102
RTVSPost2010PropOp43
 70
     0
102
RTVSPost2010Prop44ColorIndex
 90
        5
102
RTVSPost2010Prop44ColorRGB
 90
      255
102
RTVSPost2010PropOp44
 70
     0
102
RTVSPost2010Prop45
280
     0
102
RTVSPost2010PropOp45
 70
     0
102
RTVSPost2010Prop46
 90
       50
102
RTVSPost2010PropOp46
 70
     0
102
RTVSPost2010Prop47
 90
       50
102
RTVSPost2010PropOp47
 70
     0
102
RTVSPost2010Prop48
 90
       50
102
RTVSPost2010PropOp48
 70
     0
102
RTVSPost2010Prop49
280
     0
102
RTVSPost2010PropOp49
 70
     0
102
RTVSPost2010Prop50
 90
       50
102
RTVSPost2010PropOp50
 70
     0
102
RTVSPost2010Prop51ColorIndex
 90
      256
102
RTVSPost2010Prop51ColorRGB
 90
-16777216
102
RTVSPost2010PropOp51
 70
     0
102
RTVSPost2010Prop52
140
1.0
102
RTVSPost2010PropOp52
 70
     0
102
RTVSPost2010Prop53
 90
        2
102
RTVSPost2010PropOp53
 70
     0
102
RTVSPost2010Prop54
  1
strokes_ogs.tif
102
RTVSPost2010PropOp54
 70
     0
102
RTVSPost2010Prop55
280
     0
102
RTVSPost2010PropOp55
 70
     0
102
RTVSPost2010Prop56
140
1.0
102
RTVSPost2010PropOp56
 70
     0
102
RTVSPost2010Prop57
140
1.0
102
RTVSPost2010PropOp57
 70
     0
102
RTVSPropertyOp0
 70
     0
102
RTVSPropertyOp1
 70
     0
102
RTVSPropertyOp2
 70
     0
102
RTVSPropertyOp3
 70
     0
102
RTVSPropertyOp4
 70
     0
102
RTVSPropertyOp5
 70
     0
102
RTVSPropertyOp6
 70
     0
102
RTVSPropertyOp7
 70
     0
102
RTVSPropertyOp8
 70
     0
102
RTVSPropertyOp9
 70
     0
102
RTVSPropertyOp10
 70
     0
102
RTVSPropertyOp11
 70
     0
102
RTVSPropertyOp12
 70
     0
102
RTVSPropertyOp13
 70
     0
102
RTVSPropertyOp14
 70
     2
102
RTVSPropertyOp15
 70
     0
102
RTVSPropertyOp16
 70
     0
102
RTVSPropertyOp17
 70
     0
102
RTVSPropertyOp18
 70
     0
102
RTVSPropertyOp19
 70
     0
102
RTVSPropertyOp20
 70
     0
102
RTVSPropertyOp21
 70
     0
102
RTVSPropertyOp22
 70
     0
102
RTVSPropertyOp23
 70
     0
102
RTVSPropertyOp24
 70
     0
102
RTVSPropertyOp25
 70
     0
102
RTVSPropertyOp26
 70
     0
102
RTVSPropertyOp27
 70
     0
102
RTVSPropertyOp28
 70
     0
102
RTVSPropertyOp29
 70
     0
102
RTVSPropertyOp30
 70
     0
102
RTVSPropertyOp31
 70
     0
102
RTVSPropertyOp32
 70
     0
102
RTVSPropertyOp33
 70
     0
102
RTVSPropertyOp34
 70
     0
102
RTVSPropertyOp35
 70
     0
102
RTVSPropertyOp36
 70
     0
102
RTVSPropertyOp37
 70
     0
102
RTVSPropertyOp38
 70
     0
102
RTVSPropertyOp39
 70
     0
102
RTVSPropertyOp40
 70
     0
102
RTVSPropertyOp41
 70
     0
102
RTVSPropertyOp42
 70
     0
102
RTVSPropertyOp43
 70
     0
102
RTVSPropertyOp44
 70
     0
102
RTVSPropertyOp45
 70
     0
102
RTVSPropertyOp46
 70
     0
102
RTVSPropertyOp47
 70
     0
102
RTVSPropertyOp48
 70
     0
102
RTVSPropertyOp49
 70
     0
102
RTVSPropertyOp50
 70
     0
102
RTVSPropertyOp51
 70
     0
102
RTVSPropertyOp52
 70
     0
102
RTVSPropertyOp53
 70
     0
102
RTVSPropertyOp54
 70
     0
102
RTVSPropertyOp55
 70
     0
102
RTVSPropertyOp56
 70
     0
102
RTVSPropertyOp57
 70
     0
102
RTVSPropertyOp58
 70
     1
102
RTVSPropertyOp59
 70
     1
102
RTVSPropertyOp60
 70
     1
102
RTVSPropertyOp61
 70
     1
102
RTVSPropertyOp62
 70
     1
  0
XRECORD
  5
38D
102
{ACAD_REACTORS
330
38C
102
}
330
38C
100
AcDbXrecord
280
     1
102
RTVSPost2010Prop28
280
     0
102
RTVSPost2010PropOp28
 70
     1
102
RTVSPost2010Prop29
280
     1
102
RTVSPost2010PropOp29
 70
     1
102
RTVSPost2010Prop30
280
     1
102
RTVSPost2010PropOp30
 70
     1
102
RTVSPost2010Prop31
280
     0
102
RTVSPost2010PropOp31
 70
     1
102
RTVSPost2010Prop32
280
     0
102
RTVSPost2010PropOp32
 70
     1
102
RTVSPost2010Prop33
280
     0
102
RTVSPost2010PropOp33
 70
     1
102
RTVSPost2010Prop34
280
     0
102
RTVSPost2010PropOp34
 70
     1
102
RTVSPost2010Prop35
280
     0
102
RTVSPost2010PropOp35
 70
     1
102
RTVSPost2010Prop36
280
     0
102
RTVSPost2010PropOp36
 70
     1
102
RTVSPost2010Prop37
 90
       50
102
RTVSPost2010PropOp37
 70
     1
102
RTVSPost2010Prop38
140
0.0
102
RTVSPost2010PropOp38
 70
     1
102
RTVSPost2010Prop39
140
1.0
102
RTVSPost2010PropOp39
 70
     1
102
RTVSPost2010Prop40
 90
        0
102
RTVSPost2010PropOp40
 70
     1
102
RTVSPost2010Prop41ColorIndex
 90
       18
102
RTVSPost2010Prop41ColorRGB
 90
        0
102
RTVSPost2010PropOp41
 70
     1
102
RTVSPost2010Prop42
 90
       50
102
RTVSPost2010PropOp42
 70
     1
102
RTVSPost2010Prop43
 90
        3
102
RTVSPost2010PropOp43
 70
     1
102
RTVSPost2010Prop44ColorIndex
 90
        5
102
RTVSPost2010Prop44ColorRGB
 90
      255
102
RTVSPost2010PropOp44
 70
     1
102
RTVSPost2010Prop45
280
     0
102
RTVSPost2010PropOp45
 70
     1
102
RTVSPost2010Prop46
 90
       50
102
RTVSPost2010PropOp46
 70
     1
102
RTVSPost2010Prop47
 90
       50
102
RTVSPost2010PropOp47
 70
     1
102
RTVSPost2010Prop48
 90
       50
102
RTVSPost2010PropOp48
 70
     1
102
RTVSPost2010Prop49
280
     0
102
RTVSPost2010PropOp49
 70
     1
102
RTVSPost2010Prop50
 90
       50
102
RTVSPost2010PropOp50
 70
     1
102
RTVSPost2010Prop51ColorIndex
 90
      256
102
RTVSPost2010Prop51ColorRGB
 90
-16777216
102
RTVSPost2010PropOp51
 70
     0
102
RTVSPost2010Prop52
140
1.0
102
RTVSPost2010PropOp52
 70
     0
102
RTVSPost2010Prop53
 90
        2
102
RTVSPost2010PropOp53
 70
     1
102
RTVSPost2010Prop54
  1
strokes_ogs.tif
102
RTVSPost2010PropOp54
 70
     1
102
RTVSPost2010Prop55
280
     0
102
RTVSPost2010PropOp55
 70
     1
102
RTVSPost2010Prop56
140
1.0
102
RTVSPost2010PropOp56
 70
     1
102
RTVSPost2010Prop57
140
1.0
102
RTVSPost2010PropOp57
 70
     1
102
RTVSPropertyOp0
 70
     1
102
RTVSPropertyOp1
 70
     1
102
RTVSPropertyOp2
 70
     1
102
RTVSPropertyOp3
 70
     1
102
RTVSPropertyOp4
 70
     1
102
RTVSPropertyOp5
 70
     1
102
RTVSPropertyOp6
 70
     1
102
RTVSPropertyOp7
 70
     1
102
RTVSPropertyOp8
 70
     1
102
RTVSPropertyOp9
 70
     1
102
RTVSPropertyOp10
 70
     1
102
RTVSPropertyOp11
 70
     1
102
RTVSPropertyOp12
 70
     1
102
RTVSPropertyOp13
 70
     1
102
RTVSPropertyOp14
 70
     1
102
RTVSPropertyOp15
 70
     1
102
RTVSPropertyOp16
 70
     1
102
RTVSPropertyOp17
 70
     1
102
RTVSPropertyOp18
 70
     1
102
RTVSPropertyOp19
 70
     1
102
RTVSPropertyOp20
 70
     1
102
RTVSPropertyOp21
 70
     1
102
RTVSPropertyOp22
 70
     1
102
RTVSPropertyOp23
 70
     1
102
RTVSPropertyOp24
 70
     1
102
RTVSPropertyOp25
 70
     1
102
RTVSPropertyOp26
 70
     1
102
RTVSPropertyOp27
 70
     1
102
RTVSPropertyOp28
 70
     1
102
RTVSPropertyOp29
 70
     1
102
RTVSPropertyOp30
 70
     1
102
RTVSPropertyOp31
 70
     1
102
RTVSPropertyOp32
 70
     1
102
RTVSPropertyOp33
 70
     1
102
RTVSPropertyOp34
 70
     1
102
RTVSPropertyOp35
 70
     1
102
RTVSPropertyOp36
 70
     1
102
RTVSPropertyOp37
 70
     1
102
RTVSPropertyOp38
 70
     1
102
RTVSPropertyOp39
 70
     1
102
RTVSPropertyOp40
 70
     1
102
RTVSPropertyOp41
 70
     1
102
RTVSPropertyOp42
 70
     1
102
RTVSPropertyOp43
 70
     1
102
RTVSPropertyOp44
 70
     1
102
RTVSPropertyOp45
 70
     1
102
RTVSPropertyOp46
 70
     1
102
RTVSPropertyOp47
 70
     1
102
RTVSPropertyOp48
 70
     1
102
RTVSPropertyOp49
 70
     1
102
RTVSPropertyOp50
 70
     1
102
RTVSPropertyOp51
 70
     0
102
RTVSPropertyOp52
 70
     0
102
RTVSPropertyOp53
 70
     1
102
RTVSPropertyOp54
 70
     1
102
RTVSPropertyOp55
 70
     1
102
RTVSPropertyOp56
 70
     1
102
RTVSPropertyOp57
 70
     1
102
RTVSPropertyOp58
 70
     1
102
RTVSPropertyOp59
 70
     1
102
RTVSPropertyOp60
 70
     1
102
RTVSPropertyOp61
 70
     1
102
RTVSPropertyOp62
 70
     1
  0
XRECORD
  5
371
102
{ACAD_REACTORS
330
370
102
}
330
370
100
AcDbXrecord
280
     1
102
RTVSPost2010Prop28
280
     0
102
RTVSPost2010PropOp28
 70
     1
102
RTVSPost2010Prop29
280
     1
102
RTVSPost2010PropOp29
 70
     1
102
RTVSPost2010Prop30
280
     1
102
RTVSPost2010PropOp30
 70
     1
102
RTVSPost2010Prop31
280
     0
102
RTVSPost2010PropOp31
 70
     1
102
RTVSPost2010Prop32
280
     0
102
RTVSPost2010PropOp32
 70
     1
102
RTVSPost2010Prop33
280
     0
102
RTVSPost2010PropOp33
 70
     1
102
RTVSPost2010Prop34
280
     0
102
RTVSPost2010PropOp34
 70
     1
102
RTVSPost2010Prop35
280
     0
102
RTVSPost2010PropOp35
 70
     1
102
RTVSPost2010Prop36
280
     0
102
RTVSPost2010PropOp36
 70
     1
102
RTVSPost2010Prop37
 90
       50
102
RTVSPost2010PropOp37
 70
     1
102
RTVSPost2010Prop38
140
0.0
102
RTVSPost2010PropOp38
 70
     1
102
RTVSPost2010Prop39
140
1.0
102
RTVSPost2010PropOp39
 70
     1
102
RTVSPost2010Prop40
 90
        0
102
RTVSPost2010PropOp40
 70
     1
102
RTVSPost2010Prop41ColorIndex
 90
       18
102
RTVSPost2010Prop41ColorRGB
 90
        0
102
RTVSPost2010PropOp41
 70
     1
102
RTVSPost2010Prop42
 90
       50
102
RTVSPost2010PropOp42
 70
     1
102
RTVSPost2010Prop43
 90
        3
102
RTVSPost2010PropOp43
 70
     1
102
RTVSPost2010Prop44ColorIndex
 90
        5
102
RTVSPost2010Prop44ColorRGB
 90
      255
102
RTVSPost2010PropOp44
 70
     1
102
RTVSPost2010Prop45
280
     0
102
RTVSPost2010PropOp45
 70
     1
102
RTVSPost2010Prop46
 90
       50
102
RTVSPost2010PropOp46
 70
     1
102
RTVSPost2010Prop47
 90
       50
102
RTVSPost2010PropOp47
 70
     1
102
RTVSPost2010Prop48
 90
       50
102
RTVSPost2010PropOp48
 70
     1
102
RTVSPost2010Prop49
280
     0
102
RTVSPost2010PropOp49
 70
     1
102
RTVSPost2010Prop50
 90
       50
102
RTVSPost2010PropOp50
 70
     1
102
RTVSPost2010Prop51ColorIndex
 90
      256
102
RTVSPost2010Prop51ColorRGB
 90
-16777216
102
RTVSPost2010PropOp51
 70
     0
102
RTVSPost2010Prop52
140
1.0
102
RTVSPost2010PropOp52
 70
     0
102
RTVSPost2010Prop53
 90
        2
102
RTVSPost2010PropOp53
 70
     1
102
RTVSPost2010Prop54
  1
strokes_ogs.tif
102
RTVSPost2010PropOp54
 70
     1
102
RTVSPost2010Prop55
280
     0
102
RTVSPost2010PropOp55
 70
     1
102
RTVSPost2010Prop56
140
1.0
102
RTVSPost2010PropOp56
 70
     1
102
RTVSPost2010Prop57
140
1.0
102
RTVSPost2010PropOp57
 70
     1
102
RTVSPropertyOp0
 70
     1
102
RTVSPropertyOp1
 70
     1
102
RTVSPropertyOp2
 70
     1
102
RTVSPropertyOp3
 70
     1
102
RTVSPropertyOp4
 70
     1
102
RTVSPropertyOp5
 70
     1
102
RTVSPropertyOp6
 70
     1
102
RTVSPropertyOp7
 70
     1
102
RTVSPropertyOp8
 70
     1
102
RTVSPropertyOp9
 70
     1
102
RTVSPropertyOp10
 70
     1
102
RTVSPropertyOp11
 70
     1
102
RTVSPropertyOp12
 70
     1
102
RTVSPropertyOp13
 70
     1
102
RTVSPropertyOp14
 70
     1
102
RTVSPropertyOp15
 70
     1
102
RTVSPropertyOp16
 70
     1
102
RTVSPropertyOp17
 70
     1
102
RTVSPropertyOp18
 70
     1
102
RTVSPropertyOp19
 70
     1
102
RTVSPropertyOp20
 70
     1
102
RTVSPropertyOp21
 70
     1
102
RTVSPropertyOp22
 70
     1
102
RTVSPropertyOp23
 70
     1
102
RTVSPropertyOp24
 70
     1
102
RTVSPropertyOp25
 70
     1
102
RTVSPropertyOp26
 70
     1
102
RTVSPropertyOp27
 70
     1
102
RTVSPropertyOp28
 70
     1
102
RTVSPropertyOp29
 70
     1
102
RTVSPropertyOp30
 70
     1
102
RTVSPropertyOp31
 70
     1
102
RTVSPropertyOp32
 70
     1
102
RTVSPropertyOp33
 70
     1
102
RTVSPropertyOp34
 70
     1
102
RTVSPropertyOp35
 70
     1
102
RTVSPropertyOp36
 70
     1
102
RTVSPropertyOp37
 70
     1
102
RTVSPropertyOp38
 70
     1
102
RTVSPropertyOp39
 70
     1
102
RTVSPropertyOp40
 70
     1
102
RTVSPropertyOp41
 70
     1
102
RTVSPropertyOp42
 70
     1
102
RTVSPropertyOp43
 70
     1
102
RTVSPropertyOp44
 70
     1
102
RTVSPropertyOp45
 70
     1
102
RTVSPropertyOp46
 70
     1
102
RTVSPropertyOp47
 70
     1
102
RTVSPropertyOp48
 70
     1
102
RTVSPropertyOp49
 70
     1
102
RTVSPropertyOp50
 70
     1
102
RTVSPropertyOp51
 70
     0
102
RTVSPropertyOp52
 70
     0
102
RTVSPropertyOp53
 70
     1
102
RTVSPropertyOp54
 70
     1
102
RTVSPropertyOp55
 70
     1
102
RTVSPropertyOp56
 70
     1
102
RTVSPropertyOp57
 70
     1
102
RTVSPropertyOp58
 70
     1
102
RTVSPropertyOp59
 70
     1
102
RTVSPropertyOp60
 70
     1
102
RTVSPropertyOp61
 70
     1
102
RTVSPropertyOp62
 70
     1
  0
XRECORD
  5
373
102
{ACAD_REACTORS
330
372
102
}
330
372
100
AcDbXrecord
280
     1
102
RTVSPost2010Prop28
280
     0
102
RTVSPost2010PropOp28
 70
     1
102
RTVSPost2010Prop29
280
     1
102
RTVSPost2010PropOp29
 70
     1
102
RTVSPost2010Prop30
280
     1
102
RTVSPost2010PropOp30
 70
     1
102
RTVSPost2010Prop31
280
     0
102
RTVSPost2010PropOp31
 70
     1
102
RTVSPost2010Prop32
280
     0
102
RTVSPost2010PropOp32
 70
     1
102
RTVSPost2010Prop33
280
     0
102
RTVSPost2010PropOp33
 70
     1
102
RTVSPost2010Prop34
280
     0
102
RTVSPost2010PropOp34
 70
     1
102
RTVSPost2010Prop35
280
     0
102
RTVSPost2010PropOp35
 70
     1
102
RTVSPost2010Prop36
280
     0
102
RTVSPost2010PropOp36
 70
     1
102
RTVSPost2010Prop37
 90
       50
102
RTVSPost2010PropOp37
 70
     1
102
RTVSPost2010Prop38
140
0.0
102
RTVSPost2010PropOp38
 70
     1
102
RTVSPost2010Prop39
140
1.0
102
RTVSPost2010PropOp39
 70
     1
102
RTVSPost2010Prop40
 90
        0
102
RTVSPost2010PropOp40
 70
     1
102
RTVSPost2010Prop41ColorIndex
 90
       18
102
RTVSPost2010Prop41ColorRGB
 90
        0
102
RTVSPost2010PropOp41
 70
     1
102
RTVSPost2010Prop42
 90
       50
102
RTVSPost2010PropOp42
 70
     1
102
RTVSPost2010Prop43
 90
        3
102
RTVSPost2010PropOp43
 70
     1
102
RTVSPost2010Prop44ColorIndex
 90
        5
102
RTVSPost2010Prop44ColorRGB
 90
      255
102
RTVSPost2010PropOp44
 70
     1
102
RTVSPost2010Prop45
280
     0
102
RTVSPost2010PropOp45
 70
     1
102
RTVSPost2010Prop46
 90
       50
102
RTVSPost2010PropOp46
 70
     1
102
RTVSPost2010Prop47
 90
       50
102
RTVSPost2010PropOp47
 70
     1
102
RTVSPost2010Prop48
 90
       50
102
RTVSPost2010PropOp48
 70
     1
102
RTVSPost2010Prop49
280
     0
102
RTVSPost2010PropOp49
 70
     1
102
RTVSPost2010Prop50
 90
       50
102
RTVSPost2010PropOp50
 70
     1
102
RTVSPost2010Prop51ColorIndex
 90
      256
102
RTVSPost2010Prop51ColorRGB
 90
-16777216
102
RTVSPost2010PropOp51
 70
     0
102
RTVSPost2010Prop52
140
1.0
102
RTVSPost2010PropOp52
 70
     0
102
RTVSPost2010Prop53
 90
        2
102
RTVSPost2010PropOp53
 70
     1
102
RTVSPost2010Prop54
  1
strokes_ogs.tif
102
RTVSPost2010PropOp54
 70
     1
102
RTVSPost2010Prop55
280
     0
102
RTVSPost2010PropOp55
 70
     1
102
RTVSPost2010Prop56
140
1.0
102
RTVSPost2010PropOp56
 70
     1
102
RTVSPost2010Prop57
140
1.0
102
RTVSPost2010PropOp57
 70
     1
102
RTVSPropertyOp0
 70
     1
102
RTVSPropertyOp1
 70
     1
102
RTVSPropertyOp2
 70
     1
102
RTVSPropertyOp3
 70
     1
102
RTVSPropertyOp4
 70
     1
102
RTVSPropertyOp5
 70
     1
102
RTVSPropertyOp6
 70
     1
102
RTVSPropertyOp7
 70
     1
102
RTVSPropertyOp8
 70
     1
102
RTVSPropertyOp9
 70
     1
102
RTVSPropertyOp10
 70
     1
102
RTVSPropertyOp11
 70
     1
102
RTVSPropertyOp12
 70
     1
102
RTVSPropertyOp13
 70
     1
102
RTVSPropertyOp14
 70
     1
102
RTVSPropertyOp15
 70
     1
102
RTVSPropertyOp16
 70
     1
102
RTVSPropertyOp17
 70
     1
102
RTVSPropertyOp18
 70
     1
102
RTVSPropertyOp19
 70
     1
102
RTVSPropertyOp20
 70
     1
102
RTVSPropertyOp21
 70
     1
102
RTVSPropertyOp22
 70
     1
102
RTVSPropertyOp23
 70
     1
102
RTVSPropertyOp24
 70
     1
102
RTVSPropertyOp25
 70
     1
102
RTVSPropertyOp26
 70
     1
102
RTVSPropertyOp27
 70
     1
102
RTVSPropertyOp28
 70
     1
102
RTVSPropertyOp29
 70
     1
102
RTVSPropertyOp30
 70
     1
102
RTVSPropertyOp31
 70
     1
102
RTVSPropertyOp32
 70
     1
102
RTVSPropertyOp33
 70
     1
102
RTVSPropertyOp34
 70
     1
102
RTVSPropertyOp35
 70
     1
102
RTVSPropertyOp36
 70
     1
102
RTVSPropertyOp37
 70
     1
102
RTVSPropertyOp38
 70
     1
102
RTVSPropertyOp39
 70
     1
102
RTVSPropertyOp40
 70
     1
102
RTVSPropertyOp41
 70
     1
102
RTVSPropertyOp42
 70
     1
102
RTVSPropertyOp43
 70
     1
102
RTVSPropertyOp44
 70
     1
102
RTVSPropertyOp45
 70
     1
102
RTVSPropertyOp46
 70
     1
102
RTVSPropertyOp47
 70
     1
102
RTVSPropertyOp48
 70
     1
102
RTVSPropertyOp49
 70
     1
102
RTVSPropertyOp50
 70
     1
102
RTVSPropertyOp51
 70
     0
102
RTVSPropertyOp52
 70
     0
102
RTVSPropertyOp53
 70
     1
102
RTVSPropertyOp54
 70
     1
102
RTVSPropertyOp55
 70
     1
102
RTVSPropertyOp56
 70
     1
102
RTVSPropertyOp57
 70
     1
102
RTVSPropertyOp58
 70
     1
102
RTVSPropertyOp59
 70
     1
102
RTVSPropertyOp60
 70
     1
102
RTVSPropertyOp61
 70
     1
102
RTVSPropertyOp62
 70
     1
  0
XRECORD
  5
375
102
{ACAD_REACTORS
330
374
102
}
330
374
100
AcDbXrecord
280
     1
102
RTVSPost2010Prop28
280
     0
102
RTVSPost2010PropOp28
 70
     1
102
RTVSPost2010Prop29
280
     1
102
RTVSPost2010PropOp29
 70
     1
102
RTVSPost2010Prop30
280
     1
102
RTVSPost2010PropOp30
 70
     1
102
RTVSPost2010Prop31
280
     0
102
RTVSPost2010PropOp31
 70
     1
102
RTVSPost2010Prop32
280
     0
102
RTVSPost2010PropOp32
 70
     1
102
RTVSPost2010Prop33
280
     0
102
RTVSPost2010PropOp33
 70
     1
102
RTVSPost2010Prop34
280
     0
102
RTVSPost2010PropOp34
 70
     1
102
RTVSPost2010Prop35
280
     0
102
RTVSPost2010PropOp35
 70
     1
102
RTVSPost2010Prop36
280
     0
102
RTVSPost2010PropOp36
 70
     1
102
RTVSPost2010Prop37
 90
       50
102
RTVSPost2010PropOp37
 70
     1
102
RTVSPost2010Prop38
140
0.0
102
RTVSPost2010PropOp38
 70
     1
102
RTVSPost2010Prop39
140
1.0
102
RTVSPost2010PropOp39
 70
     1
102
RTVSPost2010Prop40
 90
        0
102
RTVSPost2010PropOp40
 70
     1
102
RTVSPost2010Prop41ColorIndex
 90
       18
102
RTVSPost2010Prop41ColorRGB
 90
        0
102
RTVSPost2010PropOp41
 70
     1
102
RTVSPost2010Prop42
 90
       50
102
RTVSPost2010PropOp42
 70
     1
102
RTVSPost2010Prop43
 90
        3
102
RTVSPost2010PropOp43
 70
     1
102
RTVSPost2010Prop44ColorIndex
 90
        5
102
RTVSPost2010Prop44ColorRGB
 90
      255
102
RTVSPost2010PropOp44
 70
     1
102
RTVSPost2010Prop45
280
     0
102
RTVSPost2010PropOp45
 70
     1
102
RTVSPost2010Prop46
 90
       50
102
RTVSPost2010PropOp46
 70
     1
102
RTVSPost2010Prop47
 90
       50
102
RTVSPost2010PropOp47
 70
     1
102
RTVSPost2010Prop48
 90
       50
102
RTVSPost2010PropOp48
 70
     1
102
RTVSPost2010Prop49
280
     0
102
RTVSPost2010PropOp49
 70
     1
102
RTVSPost2010Prop50
 90
       50
102
RTVSPost2010PropOp50
 70
     1
102
RTVSPost2010Prop51ColorIndex
 90
      256
102
RTVSPost2010Prop51ColorRGB
 90
-16777216
102
RTVSPost2010PropOp51
 70
     0
102
RTVSPost2010Prop52
140
1.0
102
RTVSPost2010PropOp52
 70
     0
102
RTVSPost2010Prop53
 90
        2
102
RTVSPost2010PropOp53
 70
     1
102
RTVSPost2010Prop54
  1
strokes_ogs.tif
102
RTVSPost2010PropOp54
 70
     1
102
RTVSPost2010Prop55
280
     0
102
RTVSPost2010PropOp55
 70
     1
102
RTVSPost2010Prop56
140
1.0
102
RTVSPost2010PropOp56
 70
     1
102
RTVSPost2010Prop57
140
1.0
102
RTVSPost2010PropOp57
 70
     1
102
RTVSPropertyOp0
 70
     1
102
RTVSPropertyOp1
 70
     1
102
RTVSPropertyOp2
 70
     1
102
RTVSPropertyOp3
 70
     1
102
RTVSPropertyOp4
 70
     1
102
RTVSPropertyOp5
 70
     1
102
RTVSPropertyOp6
 70
     1
102
RTVSPropertyOp7
 70
     1
102
RTVSPropertyOp8
 70
     1
102
RTVSPropertyOp9
 70
     1
102
RTVSPropertyOp10
 70
     1
102
RTVSPropertyOp11
 70
     1
102
RTVSPropertyOp12
 70
     1
102
RTVSPropertyOp13
 70
     1
102
RTVSPropertyOp14
 70
     1
102
RTVSPropertyOp15
 70
     1
102
RTVSPropertyOp16
 70
     1
102
RTVSPropertyOp17
 70
     1
102
RTVSPropertyOp18
 70
     1
102
RTVSPropertyOp19
 70
     1
102
RTVSPropertyOp20
 70
     1
102
RTVSPropertyOp21
 70
     1
102
RTVSPropertyOp22
 70
     1
102
RTVSPropertyOp23
 70
     1
102
RTVSPropertyOp24
 70
     1
102
RTVSPropertyOp25
 70
     1
102
RTVSPropertyOp26
 70
     1
102
RTVSPropertyOp27
 70
     1
102
RTVSPropertyOp28
 70
     1
102
RTVSPropertyOp29
 70
     1
102
RTVSPropertyOp30
 70
     1
102
RTVSPropertyOp31
 70
     1
102
RTVSPropertyOp32
 70
     1
102
RTVSPropertyOp33
 70
     1
102
RTVSPropertyOp34
 70
     1
102
RTVSPropertyOp35
 70
     1
102
RTVSPropertyOp36
 70
     1
102
RTVSPropertyOp37
 70
     1
102
RTVSPropertyOp38
 70
     1
102
RTVSPropertyOp39
 70
     1
102
RTVSPropertyOp40
 70
     1
102
RTVSPropertyOp41
 70
     1
102
RTVSPropertyOp42
 70
     1
102
RTVSPropertyOp43
 70
     1
102
RTVSPropertyOp44
 70
     1
102
RTVSPropertyOp45
 70
     1
102
RTVSPropertyOp46
 70
     1
102
RTVSPropertyOp47
 70
     1
102
RTVSPropertyOp48
 70
     1
102
RTVSPropertyOp49
 70
     1
102
RTVSPropertyOp50
 70
     1
102
RTVSPropertyOp51
 70
     0
102
RTVSPropertyOp52
 70
     0
102
RTVSPropertyOp53
 70
     1
102
RTVSPropertyOp54
 70
     1
102
RTVSPropertyOp55
 70
     1
102
RTVSPropertyOp56
 70
     1
102
RTVSPropertyOp57
 70
     1
102
RTVSPropertyOp58
 70
     1
102
RTVSPropertyOp59
 70
     1
102
RTVSPropertyOp60
 70
     1
102
RTVSPropertyOp61
 70
     1
102
RTVSPropertyOp62
 70
     1
  0
XRECORD
  5
377
102
{ACAD_REACTORS
330
376
102
}
330
376
100
AcDbXrecord
280
     1
102
RTVSPost2010Prop28
280
     0
102
RTVSPost2010PropOp28
 70
     1
102
RTVSPost2010Prop29
280
     1
102
RTVSPost2010PropOp29
 70
     1
102
RTVSPost2010Prop30
280
     1
102
RTVSPost2010PropOp30
 70
     1
102
RTVSPost2010Prop31
280
     0
102
RTVSPost2010PropOp31
 70
     1
102
RTVSPost2010Prop32
280
     0
102
RTVSPost2010PropOp32
 70
     1
102
RTVSPost2010Prop33
280
     0
102
RTVSPost2010PropOp33
 70
     1
102
RTVSPost2010Prop34
280
     0
102
RTVSPost2010PropOp34
 70
     1
102
RTVSPost2010Prop35
280
     0
102
RTVSPost2010PropOp35
 70
     1
102
RTVSPost2010Prop36
280
     0
102
RTVSPost2010PropOp36
 70
     1
102
RTVSPost2010Prop37
 90
       50
102
RTVSPost2010PropOp37
 70
     1
102
RTVSPost2010Prop38
140
0.0
102
RTVSPost2010PropOp38
 70
     1
102
RTVSPost2010Prop39
140
1.0
102
RTVSPost2010PropOp39
 70
     1
102
RTVSPost2010Prop40
 90
        0
102
RTVSPost2010PropOp40
 70
     1
102
RTVSPost2010Prop41ColorIndex
 90
       18
102
RTVSPost2010Prop41ColorRGB
 90
        0
102
RTVSPost2010PropOp41
 70
     1
102
RTVSPost2010Prop42
 90
       50
102
RTVSPost2010PropOp42
 70
     1
102
RTVSPost2010Prop43
 90
        3
102
RTVSPost2010PropOp43
 70
     1
102
RTVSPost2010Prop44ColorIndex
 90
        5
102
RTVSPost2010Prop44ColorRGB
 90
      255
102
RTVSPost2010PropOp44
 70
     1
102
RTVSPost2010Prop45
280
     0
102
RTVSPost2010PropOp45
 70
     1
102
RTVSPost2010Prop46
 90
       50
102
RTVSPost2010PropOp46
 70
     1
102
RTVSPost2010Prop47
 90
       50
102
RTVSPost2010PropOp47
 70
     1
102
RTVSPost2010Prop48
 90
       50
102
RTVSPost2010PropOp48
 70
     1
102
RTVSPost2010Prop49
280
     0
102
RTVSPost2010PropOp49
 70
     1
102
RTVSPost2010Prop50
 90
       50
102
RTVSPost2010PropOp50
 70
     1
102
RTVSPost2010Prop51ColorIndex
 90
      256
102
RTVSPost2010Prop51ColorRGB
 90
-16777216
102
RTVSPost2010PropOp51
 70
     0
102
RTVSPost2010Prop52
140
1.0
102
RTVSPost2010PropOp52
 70
     0
102
RTVSPost2010Prop53
 90
        2
102
RTVSPost2010PropOp53
 70
     1
102
RTVSPost2010Prop54
  1
strokes_ogs.tif
102
RTVSPost2010PropOp54
 70
     1
102
RTVSPost2010Prop55
280
     0
102
RTVSPost2010PropOp55
 70
     1
102
RTVSPost2010Prop56
140
1.0
102
RTVSPost2010PropOp56
 70
     1
102
RTVSPost2010Prop57
140
1.0
102
RTVSPost2010PropOp57
 70
     1
102
RTVSPropertyOp0
 70
     1
102
RTVSPropertyOp1
 70
     1
102
RTVSPropertyOp2
 70
     1
102
RTVSPropertyOp3
 70
     1
102
RTVSPropertyOp4
 70
     1
102
RTVSPropertyOp5
 70
     1
102
RTVSPropertyOp6
 70
     1
102
RTVSPropertyOp7
 70
     1
102
RTVSPropertyOp8
 70
     1
102
RTVSPropertyOp9
 70
     1
102
RTVSPropertyOp10
 70
     1
102
RTVSPropertyOp11
 70
     1
102
RTVSPropertyOp12
 70
     1
102
RTVSPropertyOp13
 70
     1
102
RTVSPropertyOp14
 70
     1
102
RTVSPropertyOp15
 70
     1
102
RTVSPropertyOp16
 70
     1
102
RTVSPropertyOp17
 70
     1
102
RTVSPropertyOp18
 70
     1
102
RTVSPropertyOp19
 70
     1
102
RTVSPropertyOp20
 70
     1
102
RTVSPropertyOp21
 70
     1
102
RTVSPropertyOp22
 70
     1
102
RTVSPropertyOp23
 70
     1
102
RTVSPropertyOp24
 70
     1
102
RTVSPropertyOp25
 70
     1
102
RTVSPropertyOp26
 70
     1
102
RTVSPropertyOp27
 70
     1
102
RTVSPropertyOp28
 70
     1
102
RTVSPropertyOp29
 70
     1
102
RTVSPropertyOp30
 70
     1
102
RTVSPropertyOp31
 70
     1
102
RTVSPropertyOp32
 70
     1
102
RTVSPropertyOp33
 70
     1
102
RTVSPropertyOp34
 70
     1
102
RTVSPropertyOp35
 70
     1
102
RTVSPropertyOp36
 70
     1
102
RTVSPropertyOp37
 70
     1
102
RTVSPropertyOp38
 70
     1
102
RTVSPropertyOp39
 70
     1
102
RTVSPropertyOp40
 70
     1
102
RTVSPropertyOp41
 70
     1
102
RTVSPropertyOp42
 70
     1
102
RTVSPropertyOp43
 70
     1
102
RTVSPropertyOp44
 70
     1
102
RTVSPropertyOp45
 70
     1
102
RTVSPropertyOp46
 70
     1
102
RTVSPropertyOp47
 70
     1
102
RTVSPropertyOp48
 70
     1
102
RTVSPropertyOp49
 70
     1
102
RTVSPropertyOp50
 70
     1
102
RTVSPropertyOp51
 70
     0
102
RTVSPropertyOp52
 70
     0
102
RTVSPropertyOp53
 70
     1
102
RTVSPropertyOp54
 70
     1
102
RTVSPropertyOp55
 70
     1
102
RTVSPropertyOp56
 70
     1
102
RTVSPropertyOp57
 70
     1
102
RTVSPropertyOp58
 70
     1
102
RTVSPropertyOp59
 70
     1
102
RTVSPropertyOp60
 70
     1
102
RTVSPropertyOp61
 70
     1
102
RTVSPropertyOp62
 70
     1
  0
XRECORD
  5
37D
102
{ACAD_REACTORS
330
37C
102
}
330
37C
100
AcDbXrecord
280
     1
102
RTVSPost2010Prop28
280
     0
102
RTVSPost2010PropOp28
 70
     1
102
RTVSPost2010Prop29
280
     1
102
RTVSPost2010PropOp29
 70
     1
102
RTVSPost2010Prop30
280
     1
102
RTVSPost2010PropOp30
 70
     1
102
RTVSPost2010Prop31
280
     0
102
RTVSPost2010PropOp31
 70
     1
102
RTVSPost2010Prop32
280
     0
102
RTVSPost2010PropOp32
 70
     1
102
RTVSPost2010Prop33
280
     0
102
RTVSPost2010PropOp33
 70
     1
102
RTVSPost2010Prop34
280
     0
102
RTVSPost2010PropOp34
 70
     1
102
RTVSPost2010Prop35
280
     0
102
RTVSPost2010PropOp35
 70
     1
102
RTVSPost2010Prop36
280
     0
102
RTVSPost2010PropOp36
 70
     1
102
RTVSPost2010Prop37
 90
       50
102
RTVSPost2010PropOp37
 70
     1
102
RTVSPost2010Prop38
140
0.0
102
RTVSPost2010PropOp38
 70
     1
102
RTVSPost2010Prop39
140
1.0
102
RTVSPost2010PropOp39
 70
     1
102
RTVSPost2010Prop40
 90
        0
102
RTVSPost2010PropOp40
 70
     1
102
RTVSPost2010Prop41ColorIndex
 90
       18
102
RTVSPost2010Prop41ColorRGB
 90
        0
102
RTVSPost2010PropOp41
 70
     1
102
RTVSPost2010Prop42
 90
       50
102
RTVSPost2010PropOp42
 70
     1
102
RTVSPost2010Prop43
 90
        3
102
RTVSPost2010PropOp43
 70
     1
102
RTVSPost2010Prop44ColorIndex
 90
        5
102
RTVSPost2010Prop44ColorRGB
 90
      255
102
RTVSPost2010PropOp44
 70
     1
102
RTVSPost2010Prop45
280
     0
102
RTVSPost2010PropOp45
 70
     1
102
RTVSPost2010Prop46
 90
       50
102
RTVSPost2010PropOp46
 70
     1
102
RTVSPost2010Prop47
 90
       50
102
RTVSPost2010PropOp47
 70
     1
102
RTVSPost2010Prop48
 90
       50
102
RTVSPost2010PropOp48
 70
     1
102
RTVSPost2010Prop49
280
     0
102
RTVSPost2010PropOp49
 70
     1
102
RTVSPost2010Prop50
 90
       50
102
RTVSPost2010PropOp50
 70
     1
102
RTVSPost2010Prop51ColorIndex
 90
      256
102
RTVSPost2010Prop51ColorRGB
 90
-16777216
102
RTVSPost2010PropOp51
 70
     0
102
RTVSPost2010Prop52
140
1.0
102
RTVSPost2010PropOp52
 70
     0
102
RTVSPost2010Prop53
 90
        2
102
RTVSPost2010PropOp53
 70
     1
102
RTVSPost2010Prop54
  1
strokes_ogs.tif
102
RTVSPost2010PropOp54
 70
     1
102
RTVSPost2010Prop55
280
     0
102
RTVSPost2010PropOp55
 70
     1
102
RTVSPost2010Prop56
140
1.0
102
RTVSPost2010PropOp56
 70
     1
102
RTVSPost2010Prop57
140
1.0
102
RTVSPost2010PropOp57
 70
     1
102
RTVSPropertyOp0
 70
     1
102
RTVSPropertyOp1
 70
     1
102
RTVSPropertyOp2
 70
     1
102
RTVSPropertyOp3
 70
     1
102
RTVSPropertyOp4
 70
     1
102
RTVSPropertyOp5
 70
     1
102
RTVSPropertyOp6
 70
     1
102
RTVSPropertyOp7
 70
     1
102
RTVSPropertyOp8
 70
     1
102
RTVSPropertyOp9
 70
     1
102
RTVSPropertyOp10
 70
     1
102
RTVSPropertyOp11
 70
     1
102
RTVSPropertyOp12
 70
     1
102
RTVSPropertyOp13
 70
     1
102
RTVSPropertyOp14
 70
     1
102
RTVSPropertyOp15
 70
     1
102
RTVSPropertyOp16
 70
     1
102
RTVSPropertyOp17
 70
     1
102
RTVSPropertyOp18
 70
     1
102
RTVSPropertyOp19
 70
     1
102
RTVSPropertyOp20
 70
     1
102
RTVSPropertyOp21
 70
     1
102
RTVSPropertyOp22
 70
     1
102
RTVSPropertyOp23
 70
     1
102
RTVSPropertyOp24
 70
     1
102
RTVSPropertyOp25
 70
     1
102
RTVSPropertyOp26
 70
     1
102
RTVSPropertyOp27
 70
     1
102
RTVSPropertyOp28
 70
     1
102
RTVSPropertyOp29
 70
     1
102
RTVSPropertyOp30
 70
     1
102
RTVSPropertyOp31
 70
     1
102
RTVSPropertyOp32
 70
     1
102
RTVSPropertyOp33
 70
     1
102
RTVSPropertyOp34
 70
     1
102
RTVSPropertyOp35
 70
     1
102
RTVSPropertyOp36
 70
     1
102
RTVSPropertyOp37
 70
     1
102
RTVSPropertyOp38
 70
     1
102
RTVSPropertyOp39
 70
     1
102
RTVSPropertyOp40
 70
     1
102
RTVSPropertyOp41
 70
     1
102
RTVSPropertyOp42
 70
     1
102
RTVSPropertyOp43
 70
     1
102
RTVSPropertyOp44
 70
     1
102
RTVSPropertyOp45
 70
     1
102
RTVSPropertyOp46
 70
     1
102
RTVSPropertyOp47
 70
     1
102
RTVSPropertyOp48
 70
     1
102
RTVSPropertyOp49
 70
     1
102
RTVSPropertyOp50
 70
     1
102
RTVSPropertyOp51
 70
     0
102
RTVSPropertyOp52
 70
     0
102
RTVSPropertyOp53
 70
     1
102
RTVSPropertyOp54
 70
     1
102
RTVSPropertyOp55
 70
     1
102
RTVSPropertyOp56
 70
     1
102
RTVSPropertyOp57
 70
     1
102
RTVSPropertyOp58
 70
     1
102
RTVSPropertyOp59
 70
     1
102
RTVSPropertyOp60
 70
     1
102
RTVSPropertyOp61
 70
     1
102
RTVSPropertyOp62
 70
     1
  0
XRECORD
  5
391
102
{ACAD_REACTORS
330
390
102
}
330
390
100
AcDbXrecord
280
     1
102
RTVSPost2010Prop28
280
     0
102
RTVSPost2010PropOp28
 70
     0
102
RTVSPost2010Prop29
280
     1
102
RTVSPost2010PropOp29
 70
     0
102
RTVSPost2010Prop30
280
     1
102
RTVSPost2010PropOp30
 70
     0
102
RTVSPost2010Prop31
280
     0
102
RTVSPost2010PropOp31
 70
     0
102
RTVSPost2010Prop32
280
     0
102
RTVSPost2010PropOp32
 70
     0
102
RTVSPost2010Prop33
280
     0
102
RTVSPost2010PropOp33
 70
     0
102
RTVSPost2010Prop34
280
     0
102
RTVSPost2010PropOp34
 70
     0
102
RTVSPost2010Prop35
280
     0
102
RTVSPost2010PropOp35
 70
     0
102
RTVSPost2010Prop36
280
     0
102
RTVSPost2010PropOp36
 70
     0
102
RTVSPost2010Prop37
 90
       50
102
RTVSPost2010PropOp37
 70
     0
102
RTVSPost2010Prop38
140
0.0
102
RTVSPost2010PropOp38
 70
     0
102
RTVSPost2010Prop39
140
1.0
102
RTVSPost2010PropOp39
 70
     0
102
RTVSPost2010Prop40
 90
        0
102
RTVSPost2010PropOp40
 70
     0
102
RTVSPost2010Prop41ColorIndex
 90
       18
102
RTVSPost2010Prop41ColorRGB
 90
        0
102
RTVSPost2010PropOp41
 70
     0
102
RTVSPost2010Prop42
 90
       50
102
RTVSPost2010PropOp42
 70
     0
102
RTVSPost2010Prop43
 90
        3
102
RTVSPost2010PropOp43
 70
     0
102
RTVSPost2010Prop44ColorIndex
 90
        5
102
RTVSPost2010Prop44ColorRGB
 90
      255
102
RTVSPost2010PropOp44
 70
     0
102
RTVSPost2010Prop45
280
     0
102
RTVSPost2010PropOp45
 70
     0
102
RTVSPost2010Prop46
 90
       50
102
RTVSPost2010PropOp46
 70
     0
102
RTVSPost2010Prop47
 90
       50
102
RTVSPost2010PropOp47
 70
     0
102
RTVSPost2010Prop48
 90
       50
102
RTVSPost2010PropOp48
 70
     0
102
RTVSPost2010Prop49
280
     0
102
RTVSPost2010PropOp49
 70
     0
102
RTVSPost2010Prop50
 90
       50
102
RTVSPost2010PropOp50
 70
     0
102
RTVSPost2010Prop51ColorIndex
 90
      256
102
RTVSPost2010Prop51ColorRGB
 90
-16777216
102
RTVSPost2010PropOp51
 70
     0
102
RTVSPost2010Prop52
140
1.0
102
RTVSPost2010PropOp52
 70
     0
102
RTVSPost2010Prop53
 90
        2
102
RTVSPost2010PropOp53
 70
     0
102
RTVSPost2010Prop54
  1
strokes_ogs.tif
102
RTVSPost2010PropOp54
 70
     0
102
RTVSPost2010Prop55
280
     0
102
RTVSPost2010PropOp55
 70
     0
102
RTVSPost2010Prop56
140
1.0
102
RTVSPost2010PropOp56
 70
     0
102
RTVSPost2010Prop57
140
1.0
102
RTVSPost2010PropOp57
 70
     0
102
RTVSPropertyOp0
 70
     0
102
RTVSPropertyOp1
 70
     0
102
RTVSPropertyOp2
 70
     0
102
RTVSPropertyOp3
 70
     0
102
RTVSPropertyOp4
 70
     0
102
RTVSPropertyOp5
 70
     0
102
RTVSPropertyOp6
 70
     0
102
RTVSPropertyOp7
 70
     0
102
RTVSPropertyOp8
 70
     0
102
RTVSPropertyOp9
 70
     0
102
RTVSPropertyOp10
 70
     0
102
RTVSPropertyOp11
 70
     0
102
RTVSPropertyOp12
 70
     0
102
RTVSPropertyOp13
 70
     0
102
RTVSPropertyOp14
 70
     2
102
RTVSPropertyOp15
 70
     0
102
RTVSPropertyOp16
 70
     0
102
RTVSPropertyOp17
 70
     0
102
RTVSPropertyOp18
 70
     0
102
RTVSPropertyOp19
 70
     0
102
RTVSPropertyOp20
 70
     0
102
RTVSPropertyOp21
 70
     0
102
RTVSPropertyOp22
 70
     0
102
RTVSPropertyOp23
 70
     0
102
RTVSPropertyOp24
 70
     0
102
RTVSPropertyOp25
 70
     0
102
RTVSPropertyOp26
 70
     0
102
RTVSPropertyOp27
 70
     0
102
RTVSPropertyOp28
 70
     0
102
RTVSPropertyOp29
 70
     0
102
RTVSPropertyOp30
 70
     0
102
RTVSPropertyOp31
 70
     0
102
RTVSPropertyOp32
 70
     0
102
RTVSPropertyOp33
 70
     0
102
RTVSPropertyOp34
 70
     0
102
RTVSPropertyOp35
 70
     0
102
RTVSPropertyOp36
 70
     0
102
RTVSPropertyOp37
 70
     0
102
RTVSPropertyOp38
 70
     0
102
RTVSPropertyOp39
 70
     0
102
RTVSPropertyOp40
 70
     0
102
RTVSPropertyOp41
 70
     0
102
RTVSPropertyOp42
 70
     0
102
RTVSPropertyOp43
 70
     0
102
RTVSPropertyOp44
 70
     0
102
RTVSPropertyOp45
 70
     0
102
RTVSPropertyOp46
 70
     0
102
RTVSPropertyOp47
 70
     0
102
RTVSPropertyOp48
 70
     0
102
RTVSPropertyOp49
 70
     0
102
RTVSPropertyOp50
 70
     0
102
RTVSPropertyOp51
 70
     0
102
RTVSPropertyOp52
 70
     0
102
RTVSPropertyOp53
 70
     0
102
RTVSPropertyOp54
 70
     0
102
RTVSPropertyOp55
 70
     0
102
RTVSPropertyOp56
 70
     0
102
RTVSPropertyOp57
 70
     0
102
RTVSPropertyOp58
 70
     1
102
RTVSPropertyOp59
 70
     1
102
RTVSPropertyOp60
 70
     1
102
RTVSPropertyOp61
 70
     1
102
RTVSPropertyOp62
 70
     1
  0
XRECORD
  5
38B
102
{ACAD_REACTORS
330
38A
102
}
330
38A
100
AcDbXrecord
280
     1
102
RTVSPost2010Prop28
280
     0
102
RTVSPost2010PropOp28
 70
     1
102
RTVSPost2010Prop29
280
     1
102
RTVSPost2010PropOp29
 70
     1
102
RTVSPost2010Prop30
280
     1
102
RTVSPost2010PropOp30
 70
     1
102
RTVSPost2010Prop31
280
     0
102
RTVSPost2010PropOp31
 70
     1
102
RTVSPost2010Prop32
280
     0
102
RTVSPost2010PropOp32
 70
     1
102
RTVSPost2010Prop33
280
     0
102
RTVSPost2010PropOp33
 70
     1
102
RTVSPost2010Prop34
280
     0
102
RTVSPost2010PropOp34
 70
     1
102
RTVSPost2010Prop35
280
     0
102
RTVSPost2010PropOp35
 70
     1
102
RTVSPost2010Prop36
280
     0
102
RTVSPost2010PropOp36
 70
     1
102
RTVSPost2010Prop37
 90
       50
102
RTVSPost2010PropOp37
 70
     1
102
RTVSPost2010Prop38
140
0.0
102
RTVSPost2010PropOp38
 70
     1
102
RTVSPost2010Prop39
140
1.0
102
RTVSPost2010PropOp39
 70
     1
102
RTVSPost2010Prop40
 90
        0
102
RTVSPost2010PropOp40
 70
     1
102
RTVSPost2010Prop41ColorIndex
 90
       18
102
RTVSPost2010Prop41ColorRGB
 90
        0
102
RTVSPost2010PropOp41
 70
     1
102
RTVSPost2010Prop42
 90
       50
102
RTVSPost2010PropOp42
 70
     1
102
RTVSPost2010Prop43
 90
        3
102
RTVSPost2010PropOp43
 70
     1
102
RTVSPost2010Prop44ColorIndex
 90
        5
102
RTVSPost2010Prop44ColorRGB
 90
      255
102
RTVSPost2010PropOp44
 70
     1
102
RTVSPost2010Prop45
280
     0
102
RTVSPost2010PropOp45
 70
     1
102
RTVSPost2010Prop46
 90
       50
102
RTVSPost2010PropOp46
 70
     1
102
RTVSPost2010Prop47
 90
       50
102
RTVSPost2010PropOp47
 70
     1
102
RTVSPost2010Prop48
 90
       50
102
RTVSPost2010PropOp48
 70
     1
102
RTVSPost2010Prop49
280
     0
102
RTVSPost2010PropOp49
 70
     1
102
RTVSPost2010Prop50
 90
       50
102
RTVSPost2010PropOp50
 70
     1
102
RTVSPost2010Prop51ColorIndex
 90
      256
102
RTVSPost2010Prop51ColorRGB
 90
-16777216
102
RTVSPost2010PropOp51
 70
     0
102
RTVSPost2010Prop52
140
1.0
102
RTVSPost2010PropOp52
 70
     0
102
RTVSPost2010Prop53
 90
        2
102
RTVSPost2010PropOp53
 70
     1
102
RTVSPost2010Prop54
  1
strokes_ogs.tif
102
RTVSPost2010PropOp54
 70
     1
102
RTVSPost2010Prop55
280
     0
102
RTVSPost2010PropOp55
 70
     1
102
RTVSPost2010Prop56
140
1.0
102
RTVSPost2010PropOp56
 70
     1
102
RTVSPost2010Prop57
140
1.0
102
RTVSPost2010PropOp57
 70
     1
102
RTVSPropertyOp0
 70
     1
102
RTVSPropertyOp1
 70
     1
102
RTVSPropertyOp2
 70
     1
102
RTVSPropertyOp3
 70
     1
102
RTVSPropertyOp4
 70
     1
102
RTVSPropertyOp5
 70
     1
102
RTVSPropertyOp6
 70
     1
102
RTVSPropertyOp7
 70
     1
102
RTVSPropertyOp8
 70
     1
102
RTVSPropertyOp9
 70
     1
102
RTVSPropertyOp10
 70
     1
102
RTVSPropertyOp11
 70
     1
102
RTVSPropertyOp12
 70
     1
102
RTVSPropertyOp13
 70
     1
102
RTVSPropertyOp14
 70
     1
102
RTVSPropertyOp15
 70
     1
102
RTVSPropertyOp16
 70
     1
102
RTVSPropertyOp17
 70
     1
102
RTVSPropertyOp18
 70
     1
102
RTVSPropertyOp19
 70
     1
102
RTVSPropertyOp20
 70
     1
102
RTVSPropertyOp21
 70
     1
102
RTVSPropertyOp22
 70
     1
102
RTVSPropertyOp23
 70
     1
102
RTVSPropertyOp24
 70
     1
102
RTVSPropertyOp25
 70
     1
102
RTVSPropertyOp26
 70
     1
102
RTVSPropertyOp27
 70
     1
102
RTVSPropertyOp28
 70
     1
102
RTVSPropertyOp29
 70
     1
102
RTVSPropertyOp30
 70
     1
102
RTVSPropertyOp31
 70
     1
102
RTVSPropertyOp32
 70
     1
102
RTVSPropertyOp33
 70
     1
102
RTVSPropertyOp34
 70
     1
102
RTVSPropertyOp35
 70
     1
102
RTVSPropertyOp36
 70
     1
102
RTVSPropertyOp37
 70
     1
102
RTVSPropertyOp38
 70
     1
102
RTVSPropertyOp39
 70
     1
102
RTVSPropertyOp40
 70
     1
102
RTVSPropertyOp41
 70
     1
102
RTVSPropertyOp42
 70
     1
102
RTVSPropertyOp43
 70
     1
102
RTVSPropertyOp44
 70
     1
102
RTVSPropertyOp45
 70
     1
102
RTVSPropertyOp46
 70
     1
102
RTVSPropertyOp47
 70
     1
102
RTVSPropertyOp48
 70
     1
102
RTVSPropertyOp49
 70
     1
102
RTVSPropertyOp50
 70
     1
102
RTVSPropertyOp51
 70
     0
102
RTVSPropertyOp52
 70
     0
102
RTVSPropertyOp53
 70
     1
102
RTVSPropertyOp54
 70
     1
102
RTVSPropertyOp55
 70
     1
102
RTVSPropertyOp56
 70
     1
102
RTVSPropertyOp57
 70
     1
102
RTVSPropertyOp58
 70
     1
102
RTVSPropertyOp59
 70
     1
102
RTVSPropertyOp60
 70
     1
102
RTVSPropertyOp61
 70
     1
102
RTVSPropertyOp62
 70
     1
  0
XRECORD
  5
393
102
{ACAD_REACTORS
330
392
102
}
330
392
100
AcDbXrecord
280
     1
102
RTVSPost2010Prop28
280
     0
102
RTVSPost2010PropOp28
 70
     0
102
RTVSPost2010Prop29
280
     1
102
RTVSPost2010PropOp29
 70
     0
102
RTVSPost2010Prop30
280
     1
102
RTVSPost2010PropOp30
 70
     0
102
RTVSPost2010Prop31
280
     0
102
RTVSPost2010PropOp31
 70
     0
102
RTVSPost2010Prop32
280
     0
102
RTVSPost2010PropOp32
 70
     0
102
RTVSPost2010Prop33
280
     0
102
RTVSPost2010PropOp33
 70
     0
102
RTVSPost2010Prop34
280
     0
102
RTVSPost2010PropOp34
 70
     0
102
RTVSPost2010Prop35
280
     0
102
RTVSPost2010PropOp35
 70
     0
102
RTVSPost2010Prop36
280
     0
102
RTVSPost2010PropOp36
 70
     0
102
RTVSPost2010Prop37
 90
       50
102
RTVSPost2010PropOp37
 70
     0
102
RTVSPost2010Prop38
140
0.0
102
RTVSPost2010PropOp38
 70
     0
102
RTVSPost2010Prop39
140
1.0
102
RTVSPost2010PropOp39
 70
     0
102
RTVSPost2010Prop40
 90
        0
102
RTVSPost2010PropOp40
 70
     0
102
RTVSPost2010Prop41ColorIndex
 90
       18
102
RTVSPost2010Prop41ColorRGB
 90
        0
102
RTVSPost2010PropOp41
 70
     0
102
RTVSPost2010Prop42
 90
       50
102
RTVSPost2010PropOp42
 70
     0
102
RTVSPost2010Prop43
 90
        3
102
RTVSPost2010PropOp43
 70
     0
102
RTVSPost2010Prop44ColorIndex
 90
        5
102
RTVSPost2010Prop44ColorRGB
 90
      255
102
RTVSPost2010PropOp44
 70
     0
102
RTVSPost2010Prop45
280
     0
102
RTVSPost2010PropOp45
 70
     0
102
RTVSPost2010Prop46
 90
       50
102
RTVSPost2010PropOp46
 70
     0
102
RTVSPost2010Prop47
 90
       50
102
RTVSPost2010PropOp47
 70
     0
102
RTVSPost2010Prop48
 90
       50
102
RTVSPost2010PropOp48
 70
     0
102
RTVSPost2010Prop49
280
     0
102
RTVSPost2010PropOp49
 70
     0
102
RTVSPost2010Prop50
 90
       50
102
RTVSPost2010PropOp50
 70
     0
102
RTVSPost2010Prop51ColorIndex
 90
      256
102
RTVSPost2010Prop51ColorRGB
 90
-16777216
102
RTVSPost2010PropOp51
 70
     0
102
RTVSPost2010Prop52
140
1.0
102
RTVSPost2010PropOp52
 70
     0
102
RTVSPost2010Prop53
 90
        2
102
RTVSPost2010PropOp53
 70
     0
102
RTVSPost2010Prop54
  1
strokes_ogs.tif
102
RTVSPost2010PropOp54
 70
     0
102
RTVSPost2010Prop55
280
     0
102
RTVSPost2010PropOp55
 70
     0
102
RTVSPost2010Prop56
140
1.0
102
RTVSPost2010PropOp56
 70
     0
102
RTVSPost2010Prop57
140
1.0
102
RTVSPost2010PropOp57
 70
     0
102
RTVSPropertyOp0
 70
     0
102
RTVSPropertyOp1
 70
     0
102
RTVSPropertyOp2
 70
     0
102
RTVSPropertyOp3
 70
     0
102
RTVSPropertyOp4
 70
     0
102
RTVSPropertyOp5
 70
     0
102
RTVSPropertyOp6
 70
     0
102
RTVSPropertyOp7
 70
     0
102
RTVSPropertyOp8
 70
     0
102
RTVSPropertyOp9
 70
     0
102
RTVSPropertyOp10
 70
     0
102
RTVSPropertyOp11
 70
     0
102
RTVSPropertyOp12
 70
     0
102
RTVSPropertyOp13
 70
     0
102
RTVSPropertyOp14
 70
     2
102
RTVSPropertyOp15
 70
     0
102
RTVSPropertyOp16
 70
     0
102
RTVSPropertyOp17
 70
     0
102
RTVSPropertyOp18
 70
     0
102
RTVSPropertyOp19
 70
     0
102
RTVSPropertyOp20
 70
     0
102
RTVSPropertyOp21
 70
     0
102
RTVSPropertyOp22
 70
     0
102
RTVSPropertyOp23
 70
     0
102
RTVSPropertyOp24
 70
     0
102
RTVSPropertyOp25
 70
     0
102
RTVSPropertyOp26
 70
     0
102
RTVSPropertyOp27
 70
     0
102
RTVSPropertyOp28
 70
     0
102
RTVSPropertyOp29
 70
     0
102
RTVSPropertyOp30
 70
     0
102
RTVSPropertyOp31
 70
     0
102
RTVSPropertyOp32
 70
     0
102
RTVSPropertyOp33
 70
     0
102
RTVSPropertyOp34
 70
     0
102
RTVSPropertyOp35
 70
     0
102
RTVSPropertyOp36
 70
     0
102
RTVSPropertyOp37
 70
     0
102
RTVSPropertyOp38
 70
     0
102
RTVSPropertyOp39
 70
     0
102
RTVSPropertyOp40
 70
     0
102
RTVSPropertyOp41
 70
     0
102
RTVSPropertyOp42
 70
     0
102
RTVSPropertyOp43
 70
     0
102
RTVSPropertyOp44
 70
     0
102
RTVSPropertyOp45
 70
     0
102
RTVSPropertyOp46
 70
     0
102
RTVSPropertyOp47
 70
     0
102
RTVSPropertyOp48
 70
     0
102
RTVSPropertyOp49
 70
     0
102
RTVSPropertyOp50
 70
     0
102
RTVSPropertyOp51
 70
     0
102
RTVSPropertyOp52
 70
     0
102
RTVSPropertyOp53
 70
     0
102
RTVSPropertyOp54
 70
     0
102
RTVSPropertyOp55
 70
     0
102
RTVSPropertyOp56
 70
     0
102
RTVSPropertyOp57
 70
     0
102
RTVSPropertyOp58
 70
     1
102
RTVSPropertyOp59
 70
     1
102
RTVSPropertyOp60
 70
     1
102
RTVSPropertyOp61
 70
     1
102
RTVSPropertyOp62
 70
     1
  0
XRECORD
  5
381
102
{ACAD_REACTORS
330
380
102
}
330
380
100
AcDbXrecord
280
     1
102
RTVSPost2010Prop28
280
     0
102
RTVSPost2010PropOp28
 70
     1
102
RTVSPost2010Prop29
280
     1
102
RTVSPost2010PropOp29
 70
     1
102
RTVSPost2010Prop30
280
     1
102
RTVSPost2010PropOp30
 70
     1
102
RTVSPost2010Prop31
280
     0
102
RTVSPost2010PropOp31
 70
     1
102
RTVSPost2010Prop32
280
     0
102
RTVSPost2010PropOp32
 70
     1
102
RTVSPost2010Prop33
280
     0
102
RTVSPost2010PropOp33
 70
     1
102
RTVSPost2010Prop34
280
     0
102
RTVSPost2010PropOp34
 70
     1
102
RTVSPost2010Prop35
280
     0
102
RTVSPost2010PropOp35
 70
     1
102
RTVSPost2010Prop36
280
     0
102
RTVSPost2010PropOp36
 70
     1
102
RTVSPost2010Prop37
 90
       50
102
RTVSPost2010PropOp37
 70
     1
102
RTVSPost2010Prop38
140
0.0
102
RTVSPost2010PropOp38
 70
     1
102
RTVSPost2010Prop39
140
1.0
102
RTVSPost2010PropOp39
 70
     1
102
RTVSPost2010Prop40
 90
        0
102
RTVSPost2010PropOp40
 70
     1
102
RTVSPost2010Prop41ColorIndex
 90
       18
102
RTVSPost2010Prop41ColorRGB
 90
        0
102
RTVSPost2010PropOp41
 70
     1
102
RTVSPost2010Prop42
 90
       50
102
RTVSPost2010PropOp42
 70
     1
102
RTVSPost2010Prop43
 90
        3
102
RTVSPost2010PropOp43
 70
     1
102
RTVSPost2010Prop44ColorIndex
 90
        5
102
RTVSPost2010Prop44ColorRGB
 90
      255
102
RTVSPost2010PropOp44
 70
     1
102
RTVSPost2010Prop45
280
     0
102
RTVSPost2010PropOp45
 70
     1
102
RTVSPost2010Prop46
 90
       50
102
RTVSPost2010PropOp46
 70
     1
102
RTVSPost2010Prop47
 90
       50
102
RTVSPost2010PropOp47
 70
     1
102
RTVSPost2010Prop48
 90
       50
102
RTVSPost2010PropOp48
 70
     1
102
RTVSPost2010Prop49
280
     0
102
RTVSPost2010PropOp49
 70
     1
102
RTVSPost2010Prop50
 90
       50
102
RTVSPost2010PropOp50
 70
     1
102
RTVSPost2010Prop51ColorIndex
 90
      256
102
RTVSPost2010Prop51ColorRGB
 90
-16777216
102
RTVSPost2010PropOp51
 70
     0
102
RTVSPost2010Prop52
140
1.0
102
RTVSPost2010PropOp52
 70
     0
102
RTVSPost2010Prop53
 90
        2
102
RTVSPost2010PropOp53
 70
     1
102
RTVSPost2010Prop54
  1
strokes_ogs.tif
102
RTVSPost2010PropOp54
 70
     1
102
RTVSPost2010Prop55
280
     0
102
RTVSPost2010PropOp55
 70
     1
102
RTVSPost2010Prop56
140
1.0
102
RTVSPost2010PropOp56
 70
     1
102
RTVSPost2010Prop57
140
1.0
102
RTVSPost2010PropOp57
 70
     1
102
RTVSPropertyOp0
 70
     1
102
RTVSPropertyOp1
 70
     1
102
RTVSPropertyOp2
 70
     1
102
RTVSPropertyOp3
 70
     1
102
RTVSPropertyOp4
 70
     1
102
RTVSPropertyOp5
 70
     1
102
RTVSPropertyOp6
 70
     1
102
RTVSPropertyOp7
 70
     1
102
RTVSPropertyOp8
 70
     1
102
RTVSPropertyOp9
 70
     1
102
RTVSPropertyOp10
 70
     1
102
RTVSPropertyOp11
 70
     1
102
RTVSPropertyOp12
 70
     1
102
RTVSPropertyOp13
 70
     1
102
RTVSPropertyOp14
 70
     1
102
RTVSPropertyOp15
 70
     1
102
RTVSPropertyOp16
 70
     1
102
RTVSPropertyOp17
 70
     1
102
RTVSPropertyOp18
 70
     1
102
RTVSPropertyOp19
 70
     1
102
RTVSPropertyOp20
 70
     1
102
RTVSPropertyOp21
 70
     1
102
RTVSPropertyOp22
 70
     1
102
RTVSPropertyOp23
 70
     1
102
RTVSPropertyOp24
 70
     1
102
RTVSPropertyOp25
 70
     1
102
RTVSPropertyOp26
 70
     1
102
RTVSPropertyOp27
 70
     1
102
RTVSPropertyOp28
 70
     1
102
RTVSPropertyOp29
 70
     1
102
RTVSPropertyOp30
 70
     1
102
RTVSPropertyOp31
 70
     1
102
RTVSPropertyOp32
 70
     1
102
RTVSPropertyOp33
 70
     1
102
RTVSPropertyOp34
 70
     1
102
RTVSPropertyOp35
 70
     1
102
RTVSPropertyOp36
 70
     1
102
RTVSPropertyOp37
 70
     1
102
RTVSPropertyOp38
 70
     1
102
RTVSPropertyOp39
 70
     1
102
RTVSPropertyOp40
 70
     1
102
RTVSPropertyOp41
 70
     1
102
RTVSPropertyOp42
 70
     1
102
RTVSPropertyOp43
 70
     1
102
RTVSPropertyOp44
 70
     1
102
RTVSPropertyOp45
 70
     1
102
RTVSPropertyOp46
 70
     1
102
RTVSPropertyOp47
 70
     1
102
RTVSPropertyOp48
 70
     1
102
RTVSPropertyOp49
 70
     1
102
RTVSPropertyOp50
 70
     1
102
RTVSPropertyOp51
 70
     0
102
RTVSPropertyOp52
 70
     0
102
RTVSPropertyOp53
 70
     1
102
RTVSPropertyOp54
 70
     1
102
RTVSPropertyOp55
 70
     1
102
RTVSPropertyOp56
 70
     1
102
RTVSPropertyOp57
 70
     1
102
RTVSPropertyOp58
 70
     1
102
RTVSPropertyOp59
 70
     1
102
RTVSPropertyOp60
 70
     1
102
RTVSPropertyOp61
 70
     1
102
RTVSPropertyOp62
 70
     1
  0
XRECORD
  5
39F
102
{ACAD_REACTORS
330
39E
102
}
330
39E
100
AcDbXrecord
280
     1
102
RTVSPost2010Prop28
280
     0
102
RTVSPost2010PropOp28
 70
     1
102
RTVSPost2010Prop29
280
     1
102
RTVSPost2010PropOp29
 70
     1
102
RTVSPost2010Prop30
280
     1
102
RTVSPost2010PropOp30
 70
     1
102
RTVSPost2010Prop31
280
     0
102
RTVSPost2010PropOp31
 70
     1
102
RTVSPost2010Prop32
280
     0
102
RTVSPost2010PropOp32
 70
     1
102
RTVSPost2010Prop33
280
     0
102
RTVSPost2010PropOp33
 70
     1
102
RTVSPost2010Prop34
280
     0
102
RTVSPost2010PropOp34
 70
     1
102
RTVSPost2010Prop35
280
     0
102
RTVSPost2010PropOp35
 70
     1
102
RTVSPost2010Prop36
280
     0
102
RTVSPost2010PropOp36
 70
     1
102
RTVSPost2010Prop37
 90
       50
102
RTVSPost2010PropOp37
 70
     1
102
RTVSPost2010Prop38
140
0.0
102
RTVSPost2010PropOp38
 70
     1
102
RTVSPost2010Prop39
140
1.0
102
RTVSPost2010PropOp39
 70
     1
102
RTVSPost2010Prop40
 90
        0
102
RTVSPost2010PropOp40
 70
     1
102
RTVSPost2010Prop41ColorIndex
 90
       18
102
RTVSPost2010Prop41ColorRGB
 90
        0
102
RTVSPost2010PropOp41
 70
     1
102
RTVSPost2010Prop42
 90
       50
102
RTVSPost2010PropOp42
 70
     1
102
RTVSPost2010Prop43
 90
        3
102
RTVSPost2010PropOp43
 70
     1
102
RTVSPost2010Prop44ColorIndex
 90
        5
102
RTVSPost2010Prop44ColorRGB
 90
      255
102
RTVSPost2010PropOp44
 70
     1
102
RTVSPost2010Prop45
280
     0
102
RTVSPost2010PropOp45
 70
     1
102
RTVSPost2010Prop46
 90
       50
102
RTVSPost2010PropOp46
 70
     1
102
RTVSPost2010Prop47
 90
       50
102
RTVSPost2010PropOp47
 70
     1
102
RTVSPost2010Prop48
 90
       50
102
RTVSPost2010PropOp48
 70
     1
102
RTVSPost2010Prop49
280
     0
102
RTVSPost2010PropOp49
 70
     1
102
RTVSPost2010Prop50
 90
       50
102
RTVSPost2010PropOp50
 70
     1
102
RTVSPost2010Prop51ColorIndex
 90
      256
102
RTVSPost2010Prop51ColorRGB
 90
-16777216
102
RTVSPost2010PropOp51
 70
     0
102
RTVSPost2010Prop52
140
1.0
102
RTVSPost2010PropOp52
 70
     0
102
RTVSPost2010Prop53
 90
        2
102
RTVSPost2010PropOp53
 70
     1
102
RTVSPost2010Prop54
  1
strokes_ogs.tif
102
RTVSPost2010PropOp54
 70
     1
102
RTVSPost2010Prop55
280
     0
102
RTVSPost2010PropOp55
 70
     1
102
RTVSPost2010Prop56
140
1.0
102
RTVSPost2010PropOp56
 70
     1
102
RTVSPost2010Prop57
140
1.0
102
RTVSPost2010PropOp57
 70
     1
102
RTVSPropertyOp0
 70
     1
102
RTVSPropertyOp1
 70
     1
102
RTVSPropertyOp2
 70
     1
102
RTVSPropertyOp3
 70
     1
102
RTVSPropertyOp4
 70
     1
102
RTVSPropertyOp5
 70
     1
102
RTVSPropertyOp6
 70
     1
102
RTVSPropertyOp7
 70
     1
102
RTVSPropertyOp8
 70
     1
102
RTVSPropertyOp9
 70
     1
102
RTVSPropertyOp10
 70
     1
102
RTVSPropertyOp11
 70
     1
102
RTVSPropertyOp12
 70
     1
102
RTVSPropertyOp13
 70
     1
102
RTVSPropertyOp14
 70
     1
102
RTVSPropertyOp15
 70
     1
102
RTVSPropertyOp16
 70
     1
102
RTVSPropertyOp17
 70
     1
102
RTVSPropertyOp18
 70
     1
102
RTVSPropertyOp19
 70
     1
102
RTVSPropertyOp20
 70
     1
102
RTVSPropertyOp21
 70
     1
102
RTVSPropertyOp22
 70
     1
102
RTVSPropertyOp23
 70
     1
102
RTVSPropertyOp24
 70
     1
102
RTVSPropertyOp25
 70
     1
102
RTVSPropertyOp26
 70
     1
102
RTVSPropertyOp27
 70
     1
102
RTVSPropertyOp28
 70
     1
102
RTVSPropertyOp29
 70
     1
102
RTVSPropertyOp30
 70
     1
102
RTVSPropertyOp31
 70
     1
102
RTVSPropertyOp32
 70
     1
102
RTVSPropertyOp33
 70
     1
102
RTVSPropertyOp34
 70
     1
102
RTVSPropertyOp35
 70
     1
102
RTVSPropertyOp36
 70
     1
102
RTVSPropertyOp37
 70
     1
102
RTVSPropertyOp38
 70
     1
102
RTVSPropertyOp39
 70
     1
102
RTVSPropertyOp40
 70
     1
102
RTVSPropertyOp41
 70
     1
102
RTVSPropertyOp42
 70
     1
102
RTVSPropertyOp43
 70
     1
102
RTVSPropertyOp44
 70
     1
102
RTVSPropertyOp45
 70
     1
102
RTVSPropertyOp46
 70
     1
102
RTVSPropertyOp47
 70
     1
102
RTVSPropertyOp48
 70
     1
102
RTVSPropertyOp49
 70
     1
102
RTVSPropertyOp50
 70
     1
102
RTVSPropertyOp51
 70
     0
102
RTVSPropertyOp52
 70
     0
102
RTVSPropertyOp53
 70
     1
102
RTVSPropertyOp54
 70
     1
102
RTVSPropertyOp55
 70
     1
102
RTVSPropertyOp56
 70
     1
102
RTVSPropertyOp57
 70
     1
102
RTVSPropertyOp58
 70
     1
102
RTVSPropertyOp59
 70
     1
102
RTVSPropertyOp60
 70
     1
102
RTVSPropertyOp61
 70
     1
102
RTVSPropertyOp62
 70
     1
  0
XRECORD
  5
39D
102
{ACAD_REACTORS
330
39C
102
}
330
39C
100
AcDbXrecord
280
     1
102
RTVSPost2010Prop28
280
     0
102
RTVSPost2010PropOp28
 70
     1
102
RTVSPost2010Prop29
280
     1
102
RTVSPost2010PropOp29
 70
     1
102
RTVSPost2010Prop30
280
     1
102
RTVSPost2010PropOp30
 70
     1
102
RTVSPost2010Prop31
280
     0
102
RTVSPost2010PropOp31
 70
     1
102
RTVSPost2010Prop32
280
     0
102
RTVSPost2010PropOp32
 70
     1
102
RTVSPost2010Prop33
280
     0
102
RTVSPost2010PropOp33
 70
     1
102
RTVSPost2010Prop34
280
     0
102
RTVSPost2010PropOp34
 70
     1
102
RTVSPost2010Prop35
280
     0
102
RTVSPost2010PropOp35
 70
     1
102
RTVSPost2010Prop36
280
     0
102
RTVSPost2010PropOp36
 70
     1
102
RTVSPost2010Prop37
 90
       50
102
RTVSPost2010PropOp37
 70
     1
102
RTVSPost2010Prop38
140
0.0
102
RTVSPost2010PropOp38
 70
     1
102
RTVSPost2010Prop39
140
1.0
102
RTVSPost2010PropOp39
 70
     1
102
RTVSPost2010Prop40
 90
        0
102
RTVSPost2010PropOp40
 70
     1
102
RTVSPost2010Prop41ColorIndex
 90
       18
102
RTVSPost2010Prop41ColorRGB
 90
        0
102
RTVSPost2010PropOp41
 70
     1
102
RTVSPost2010Prop42
 90
       50
102
RTVSPost2010PropOp42
 70
     1
102
RTVSPost2010Prop43
 90
        3
102
RTVSPost2010PropOp43
 70
     1
102
RTVSPost2010Prop44ColorIndex
 90
        5
102
RTVSPost2010Prop44ColorRGB
 90
      255
102
RTVSPost2010PropOp44
 70
     1
102
RTVSPost2010Prop45
280
     0
102
RTVSPost2010PropOp45
 70
     1
102
RTVSPost2010Prop46
 90
       50
102
RTVSPost2010PropOp46
 70
     1
102
RTVSPost2010Prop47
 90
       50
102
RTVSPost2010PropOp47
 70
     1
102
RTVSPost2010Prop48
 90
       50
102
RTVSPost2010PropOp48
 70
     1
102
RTVSPost2010Prop49
280
     0
102
RTVSPost2010PropOp49
 70
     1
102
RTVSPost2010Prop50
 90
       50
102
RTVSPost2010PropOp50
 70
     1
102
RTVSPost2010Prop51ColorIndex
 90
      256
102
RTVSPost2010Prop51ColorRGB
 90
-16777216
102
RTVSPost2010PropOp51
 70
     0
102
RTVSPost2010Prop52
140
1.0
102
RTVSPost2010PropOp52
 70
     0
102
RTVSPost2010Prop53
 90
        2
102
RTVSPost2010PropOp53
 70
     1
102
RTVSPost2010Prop54
  1
strokes_ogs.tif
102
RTVSPost2010PropOp54
 70
     1
102
RTVSPost2010Prop55
280
     0
102
RTVSPost2010PropOp55
 70
     1
102
RTVSPost2010Prop56
140
1.0
102
RTVSPost2010PropOp56
 70
     1
102
RTVSPost2010Prop57
140
1.0
102
RTVSPost2010PropOp57
 70
     1
102
RTVSPropertyOp0
 70
     1
102
RTVSPropertyOp1
 70
     1
102
RTVSPropertyOp2
 70
     1
102
RTVSPropertyOp3
 70
     1
102
RTVSPropertyOp4
 70
     1
102
RTVSPropertyOp5
 70
     1
102
RTVSPropertyOp6
 70
     1
102
RTVSPropertyOp7
 70
     1
102
RTVSPropertyOp8
 70
     1
102
RTVSPropertyOp9
 70
     1
102
RTVSPropertyOp10
 70
     1
102
RTVSPropertyOp11
 70
     1
102
RTVSPropertyOp12
 70
     1
102
RTVSPropertyOp13
 70
     1
102
RTVSPropertyOp14
 70
     1
102
RTVSPropertyOp15
 70
     1
102
RTVSPropertyOp16
 70
     1
102
RTVSPropertyOp17
 70
     1
102
RTVSPropertyOp18
 70
     1
102
RTVSPropertyOp19
 70
     1
102
RTVSPropertyOp20
 70
     1
102
RTVSPropertyOp21
 70
     1
102
RTVSPropertyOp22
 70
     1
102
RTVSPropertyOp23
 70
     1
102
RTVSPropertyOp24
 70
     1
102
RTVSPropertyOp25
 70
     1
102
RTVSPropertyOp26
 70
     1
102
RTVSPropertyOp27
 70
     1
102
RTVSPropertyOp28
 70
     1
102
RTVSPropertyOp29
 70
     1
102
RTVSPropertyOp30
 70
     1
102
RTVSPropertyOp31
 70
     1
102
RTVSPropertyOp32
 70
     1
102
RTVSPropertyOp33
 70
     1
102
RTVSPropertyOp34
 70
     1
102
RTVSPropertyOp35
 70
     1
102
RTVSPropertyOp36
 70
     1
102
RTVSPropertyOp37
 70
     1
102
RTVSPropertyOp38
 70
     1
102
RTVSPropertyOp39
 70
     1
102
RTVSPropertyOp40
 70
     1
102
RTVSPropertyOp41
 70
     1
102
RTVSPropertyOp42
 70
     1
102
RTVSPropertyOp43
 70
     1
102
RTVSPropertyOp44
 70
     1
102
RTVSPropertyOp45
 70
     1
102
RTVSPropertyOp46
 70
     1
102
RTVSPropertyOp47
 70
     1
102
RTVSPropertyOp48
 70
     1
102
RTVSPropertyOp49
 70
     1
102
RTVSPropertyOp50
 70
     1
102
RTVSPropertyOp51
 70
     0
102
RTVSPropertyOp52
 70
     0
102
RTVSPropertyOp53
 70
     1
102
RTVSPropertyOp54
 70
     1
102
RTVSPropertyOp55
 70
     1
102
RTVSPropertyOp56
 70
     1
102
RTVSPropertyOp57
 70
     1
102
RTVSPropertyOp58
 70
     1
102
RTVSPropertyOp59
 70
     1
102
RTVSPropertyOp60
 70
     1
102
RTVSPropertyOp61
 70
     1
102
RTVSPropertyOp62
 70
     1
  0
XRECORD
  5
397
102
{ACAD_REACTORS
330
396
102
}
330
396
100
AcDbXrecord
280
     1
102
RTVSPost2010Prop28
280
     0
102
RTVSPost2010PropOp28
 70
     1
102
RTVSPost2010Prop29
280
     1
102
RTVSPost2010PropOp29
 70
     1
102
RTVSPost2010Prop30
280
     1
102
RTVSPost2010PropOp30
 70
     1
102
RTVSPost2010Prop31
280
     0
102
RTVSPost2010PropOp31
 70
     1
102
RTVSPost2010Prop32
280
     0
102
RTVSPost2010PropOp32
 70
     1
102
RTVSPost2010Prop33
280
     0
102
RTVSPost2010PropOp33
 70
     1
102
RTVSPost2010Prop34
280
     0
102
RTVSPost2010PropOp34
 70
     1
102
RTVSPost2010Prop35
280
     0
102
RTVSPost2010PropOp35
 70
     1
102
RTVSPost2010Prop36
280
     0
102
RTVSPost2010PropOp36
 70
     1
102
RTVSPost2010Prop37
 90
       50
102
RTVSPost2010PropOp37
 70
     1
102
RTVSPost2010Prop38
140
0.0
102
RTVSPost2010PropOp38
 70
     1
102
RTVSPost2010Prop39
140
1.0
102
RTVSPost2010PropOp39
 70
     1
102
RTVSPost2010Prop40
 90
        0
102
RTVSPost2010PropOp40
 70
     1
102
RTVSPost2010Prop41ColorIndex
 90
       18
102
RTVSPost2010Prop41ColorRGB
 90
        0
102
RTVSPost2010PropOp41
 70
     1
102
RTVSPost2010Prop42
 90
       50
102
RTVSPost2010PropOp42
 70
     1
102
RTVSPost2010Prop43
 90
        3
102
RTVSPost2010PropOp43
 70
     1
102
RTVSPost2010Prop44ColorIndex
 90
        5
102
RTVSPost2010Prop44ColorRGB
 90
      255
102
RTVSPost2010PropOp44
 70
     1
102
RTVSPost2010Prop45
280
     0
102
RTVSPost2010PropOp45
 70
     1
102
RTVSPost2010Prop46
 90
       50
102
RTVSPost2010PropOp46
 70
     1
102
RTVSPost2010Prop47
 90
       50
102
RTVSPost2010PropOp47
 70
     1
102
RTVSPost2010Prop48
 90
       50
102
RTVSPost2010PropOp48
 70
     1
102
RTVSPost2010Prop49
280
     0
102
RTVSPost2010PropOp49
 70
     1
102
RTVSPost2010Prop50
 90
       50
102
RTVSPost2010PropOp50
 70
     1
102
RTVSPost2010Prop51ColorIndex
 90
      256
102
RTVSPost2010Prop51ColorRGB
 90
-16777216
102
RTVSPost2010PropOp51
 70
     0
102
RTVSPost2010Prop52
140
1.0
102
RTVSPost2010PropOp52
 70
     0
102
RTVSPost2010Prop53
 90
        2
102
RTVSPost2010PropOp53
 70
     1
102
RTVSPost2010Prop54
  1
strokes_ogs.tif
102
RTVSPost2010PropOp54
 70
     1
102
RTVSPost2010Prop55
280
     0
102
RTVSPost2010PropOp55
 70
     1
102
RTVSPost2010Prop56
140
1.0
102
RTVSPost2010PropOp56
 70
     1
102
RTVSPost2010Prop57
140
1.0
102
RTVSPost2010PropOp57
 70
     1
102
RTVSPropertyOp0
 70
     1
102
RTVSPropertyOp1
 70
     1
102
RTVSPropertyOp2
 70
     1
102
RTVSPropertyOp3
 70
     1
102
RTVSPropertyOp4
 70
     1
102
RTVSPropertyOp5
 70
     1
102
RTVSPropertyOp6
 70
     1
102
RTVSPropertyOp7
 70
     1
102
RTVSPropertyOp8
 70
     1
102
RTVSPropertyOp9
 70
     1
102
RTVSPropertyOp10
 70
     1
102
RTVSPropertyOp11
 70
     1
102
RTVSPropertyOp12
 70
     1
102
RTVSPropertyOp13
 70
     1
102
RTVSPropertyOp14
 70
     1
102
RTVSPropertyOp15
 70
     1
102
RTVSPropertyOp16
 70
     1
102
RTVSPropertyOp17
 70
     1
102
RTVSPropertyOp18
 70
     1
102
RTVSPropertyOp19
 70
     1
102
RTVSPropertyOp20
 70
     1
102
RTVSPropertyOp21
 70
     1
102
RTVSPropertyOp22
 70
     1
102
RTVSPropertyOp23
 70
     1
102
RTVSPropertyOp24
 70
     1
102
RTVSPropertyOp25
 70
     1
102
RTVSPropertyOp26
 70
     1
102
RTVSPropertyOp27
 70
     1
102
RTVSPropertyOp28
 70
     1
102
RTVSPropertyOp29
 70
     1
102
RTVSPropertyOp30
 70
     1
102
RTVSPropertyOp31
 70
     1
102
RTVSPropertyOp32
 70
     1
102
RTVSPropertyOp33
 70
     1
102
RTVSPropertyOp34
 70
     1
102
RTVSPropertyOp35
 70
     1
102
RTVSPropertyOp36
 70
     1
102
RTVSPropertyOp37
 70
     1
102
RTVSPropertyOp38
 70
     1
102
RTVSPropertyOp39
 70
     1
102
RTVSPropertyOp40
 70
     1
102
RTVSPropertyOp41
 70
     1
102
RTVSPropertyOp42
 70
     1
102
RTVSPropertyOp43
 70
     1
102
RTVSPropertyOp44
 70
     1
102
RTVSPropertyOp45
 70
     1
102
RTVSPropertyOp46
 70
     1
102
RTVSPropertyOp47
 70
     1
102
RTVSPropertyOp48
 70
     1
102
RTVSPropertyOp49
 70
     1
102
RTVSPropertyOp50
 70
     1
102
RTVSPropertyOp51
 70
     0
102
RTVSPropertyOp52
 70
     0
102
RTVSPropertyOp53
 70
     1
102
RTVSPropertyOp54
 70
     1
102
RTVSPropertyOp55
 70
     1
102
RTVSPropertyOp56
 70
     1
102
RTVSPropertyOp57
 70
     1
102
RTVSPropertyOp58
 70
     1
102
RTVSPropertyOp59
 70
     1
102
RTVSPropertyOp60
 70
     1
102
RTVSPropertyOp61
 70
     1
102
RTVSPropertyOp62
 70
     1
  0
XRECORD
  5
399
102
{ACAD_REACTORS
330
398
102
}
330
398
100
AcDbXrecord
280
     1
102
RTVSPost2010Prop28
280
     0
102
RTVSPost2010PropOp28
 70
     1
102
RTVSPost2010Prop29
280
     1
102
RTVSPost2010PropOp29
 70
     1
102
RTVSPost2010Prop30
280
     1
102
RTVSPost2010PropOp30
 70
     1
102
RTVSPost2010Prop31
280
     0
102
RTVSPost2010PropOp31
 70
     1
102
RTVSPost2010Prop32
280
     0
102
RTVSPost2010PropOp32
 70
     1
102
RTVSPost2010Prop33
280
     0
102
RTVSPost2010PropOp33
 70
     1
102
RTVSPost2010Prop34
280
     0
102
RTVSPost2010PropOp34
 70
     1
102
RTVSPost2010Prop35
280
     0
102
RTVSPost2010PropOp35
 70
     1
102
RTVSPost2010Prop36
280
     0
102
RTVSPost2010PropOp36
 70
     1
102
RTVSPost2010Prop37
 90
       50
102
RTVSPost2010PropOp37
 70
     1
102
RTVSPost2010Prop38
140
0.0
102
RTVSPost2010PropOp38
 70
     1
102
RTVSPost2010Prop39
140
1.0
102
RTVSPost2010PropOp39
 70
     1
102
RTVSPost2010Prop40
 90
        0
102
RTVSPost2010PropOp40
 70
     1
102
RTVSPost2010Prop41ColorIndex
 90
       18
102
RTVSPost2010Prop41ColorRGB
 90
        0
102
RTVSPost2010PropOp41
 70
     1
102
RTVSPost2010Prop42
 90
       50
102
RTVSPost2010PropOp42
 70
     1
102
RTVSPost2010Prop43
 90
        3
102
RTVSPost2010PropOp43
 70
     1
102
RTVSPost2010Prop44ColorIndex
 90
        5
102
RTVSPost2010Prop44ColorRGB
 90
      255
102
RTVSPost2010PropOp44
 70
     1
102
RTVSPost2010Prop45
280
     0
102
RTVSPost2010PropOp45
 70
     1
102
RTVSPost2010Prop46
 90
       50
102
RTVSPost2010PropOp46
 70
     1
102
RTVSPost2010Prop47
 90
       50
102
RTVSPost2010PropOp47
 70
     1
102
RTVSPost2010Prop48
 90
       50
102
RTVSPost2010PropOp48
 70
     1
102
RTVSPost2010Prop49
280
     0
102
RTVSPost2010PropOp49
 70
     1
102
RTVSPost2010Prop50
 90
       50
102
RTVSPost2010PropOp50
 70
     1
102
RTVSPost2010Prop51ColorIndex
 90
      256
102
RTVSPost2010Prop51ColorRGB
 90
-16777216
102
RTVSPost2010PropOp51
 70
     0
102
RTVSPost2010Prop52
140
1.0
102
RTVSPost2010PropOp52
 70
     0
102
RTVSPost2010Prop53
 90
        2
102
RTVSPost2010PropOp53
 70
     1
102
RTVSPost2010Prop54
  1
strokes_ogs.tif
102
RTVSPost2010PropOp54
 70
     1
102
RTVSPost2010Prop55
280
     0
102
RTVSPost2010PropOp55
 70
     1
102
RTVSPost2010Prop56
140
1.0
102
RTVSPost2010PropOp56
 70
     1
102
RTVSPost2010Prop57
140
1.0
102
RTVSPost2010PropOp57
 70
     1
102
RTVSPropertyOp0
 70
     1
102
RTVSPropertyOp1
 70
     1
102
RTVSPropertyOp2
 70
     1
102
RTVSPropertyOp3
 70
     1
102
RTVSPropertyOp4
 70
     1
102
RTVSPropertyOp5
 70
     1
102
RTVSPropertyOp6
 70
     1
102
RTVSPropertyOp7
 70
     1
102
RTVSPropertyOp8
 70
     1
102
RTVSPropertyOp9
 70
     1
102
RTVSPropertyOp10
 70
     1
102
RTVSPropertyOp11
 70
     1
102
RTVSPropertyOp12
 70
     1
102
RTVSPropertyOp13
 70
     1
102
RTVSPropertyOp14
 70
     1
102
RTVSPropertyOp15
 70
     1
102
RTVSPropertyOp16
 70
     1
102
RTVSPropertyOp17
 70
     1
102
RTVSPropertyOp18
 70
     1
102
RTVSPropertyOp19
 70
     1
102
RTVSPropertyOp20
 70
     1
102
RTVSPropertyOp21
 70
     1
102
RTVSPropertyOp22
 70
     1
102
RTVSPropertyOp23
 70
     1
102
RTVSPropertyOp24
 70
     1
102
RTVSPropertyOp25
 70
     1
102
RTVSPropertyOp26
 70
     1
102
RTVSPropertyOp27
 70
     1
102
RTVSPropertyOp28
 70
     1
102
RTVSPropertyOp29
 70
     1
102
RTVSPropertyOp30
 70
     1
102
RTVSPropertyOp31
 70
     1
102
RTVSPropertyOp32
 70
     1
102
RTVSPropertyOp33
 70
     1
102
RTVSPropertyOp34
 70
     1
102
RTVSPropertyOp35
 70
     1
102
RTVSPropertyOp36
 70
     1
102
RTVSPropertyOp37
 70
     1
102
RTVSPropertyOp38
 70
     1
102
RTVSPropertyOp39
 70
     1
102
RTVSPropertyOp40
 70
     1
102
RTVSPropertyOp41
 70
     1
102
RTVSPropertyOp42
 70
     1
102
RTVSPropertyOp43
 70
     1
102
RTVSPropertyOp44
 70
     1
102
RTVSPropertyOp45
 70
     1
102
RTVSPropertyOp46
 70
     1
102
RTVSPropertyOp47
 70
     1
102
RTVSPropertyOp48
 70
     1
102
RTVSPropertyOp49
 70
     1
102
RTVSPropertyOp50
 70
     1
102
RTVSPropertyOp51
 70
     0
102
RTVSPropertyOp52
 70
     0
102
RTVSPropertyOp53
 70
     1
102
RTVSPropertyOp54
 70
     1
102
RTVSPropertyOp55
 70
     1
102
RTVSPropertyOp56
 70
     1
102
RTVSPropertyOp57
 70
     1
102
RTVSPropertyOp58
 70
     1
102
RTVSPropertyOp59
 70
     1
102
RTVSPropertyOp60
 70
     1
102
RTVSPropertyOp61
 70
     1
102
RTVSPropertyOp62
 70
     1
  0
XRECORD
  5
389
102
{ACAD_REACTORS
330
388
102
}
330
388
100
AcDbXrecord
280
     1
102
RTVSPost2010Prop28
280
     0
102
RTVSPost2010PropOp28
 70
     1
102
RTVSPost2010Prop29
280
     1
102
RTVSPost2010PropOp29
 70
     1
102
RTVSPost2010Prop30
280
     1
102
RTVSPost2010PropOp30
 70
     1
102
RTVSPost2010Prop31
280
     0
102
RTVSPost2010PropOp31
 70
     1
102
RTVSPost2010Prop32
280
     0
102
RTVSPost2010PropOp32
 70
     1
102
RTVSPost2010Prop33
280
     0
102
RTVSPost2010PropOp33
 70
     1
102
RTVSPost2010Prop34
280
     0
102
RTVSPost2010PropOp34
 70
     1
102
RTVSPost2010Prop35
280
     0
102
RTVSPost2010PropOp35
 70
     1
102
RTVSPost2010Prop36
280
     0
102
RTVSPost2010PropOp36
 70
     1
102
RTVSPost2010Prop37
 90
       50
102
RTVSPost2010PropOp37
 70
     1
102
RTVSPost2010Prop38
140
0.0
102
RTVSPost2010PropOp38
 70
     1
102
RTVSPost2010Prop39
140
1.0
102
RTVSPost2010PropOp39
 70
     1
102
RTVSPost2010Prop40
 90
        0
102
RTVSPost2010PropOp40
 70
     1
102
RTVSPost2010Prop41ColorIndex
 90
       18
102
RTVSPost2010Prop41ColorRGB
 90
        0
102
RTVSPost2010PropOp41
 70
     1
102
RTVSPost2010Prop42
 90
       50
102
RTVSPost2010PropOp42
 70
     1
102
RTVSPost2010Prop43
 90
        3
102
RTVSPost2010PropOp43
 70
     1
102
RTVSPost2010Prop44ColorIndex
 90
        5
102
RTVSPost2010Prop44ColorRGB
 90
      255
102
RTVSPost2010PropOp44
 70
     1
102
RTVSPost2010Prop45
280
     0
102
RTVSPost2010PropOp45
 70
     1
102
RTVSPost2010Prop46
 90
       50
102
RTVSPost2010PropOp46
 70
     1
102
RTVSPost2010Prop47
 90
       50
102
RTVSPost2010PropOp47
 70
     1
102
RTVSPost2010Prop48
 90
       50
102
RTVSPost2010PropOp48
 70
     1
102
RTVSPost2010Prop49
280
     0
102
RTVSPost2010PropOp49
 70
     1
102
RTVSPost2010Prop50
 90
       50
102
RTVSPost2010PropOp50
 70
     1
102
RTVSPost2010Prop51ColorIndex
 90
      256
102
RTVSPost2010Prop51ColorRGB
 90
-16777216
102
RTVSPost2010PropOp51
 70
     0
102
RTVSPost2010Prop52
140
1.0
102
RTVSPost2010PropOp52
 70
     0
102
RTVSPost2010Prop53
 90
        2
102
RTVSPost2010PropOp53
 70
     1
102
RTVSPost2010Prop54
  1
strokes_ogs.tif
102
RTVSPost2010PropOp54
 70
     1
102
RTVSPost2010Prop55
280
     0
102
RTVSPost2010PropOp55
 70
     1
102
RTVSPost2010Prop56
140
1.0
102
RTVSPost2010PropOp56
 70
     1
102
RTVSPost2010Prop57
140
1.0
102
RTVSPost2010PropOp57
 70
     1
102
RTVSPropertyOp0
 70
     1
102
RTVSPropertyOp1
 70
     1
102
RTVSPropertyOp2
 70
     1
102
RTVSPropertyOp3
 70
     1
102
RTVSPropertyOp4
 70
     1
102
RTVSPropertyOp5
 70
     1
102
RTVSPropertyOp6
 70
     1
102
RTVSPropertyOp7
 70
     1
102
RTVSPropertyOp8
 70
     1
102
RTVSPropertyOp9
 70
     1
102
RTVSPropertyOp10
 70
     1
102
RTVSPropertyOp11
 70
     1
102
RTVSPropertyOp12
 70
     1
102
RTVSPropertyOp13
 70
     1
102
RTVSPropertyOp14
 70
     1
102
RTVSPropertyOp15
 70
     1
102
RTVSPropertyOp16
 70
     1
102
RTVSPropertyOp17
 70
     1
102
RTVSPropertyOp18
 70
     1
102
RTVSPropertyOp19
 70
     1
102
RTVSPropertyOp20
 70
     1
102
RTVSPropertyOp21
 70
     1
102
RTVSPropertyOp22
 70
     1
102
RTVSPropertyOp23
 70
     1
102
RTVSPropertyOp24
 70
     1
102
RTVSPropertyOp25
 70
     1
102
RTVSPropertyOp26
 70
     1
102
RTVSPropertyOp27
 70
     1
102
RTVSPropertyOp28
 70
     1
102
RTVSPropertyOp29
 70
     1
102
RTVSPropertyOp30
 70
     1
102
RTVSPropertyOp31
 70
     1
102
RTVSPropertyOp32
 70
     1
102
RTVSPropertyOp33
 70
     1
102
RTVSPropertyOp34
 70
     1
102
RTVSPropertyOp35
 70
     1
102
RTVSPropertyOp36
 70
     1
102
RTVSPropertyOp37
 70
     1
102
RTVSPropertyOp38
 70
     1
102
RTVSPropertyOp39
 70
     1
102
RTVSPropertyOp40
 70
     1
102
RTVSPropertyOp41
 70
     1
102
RTVSPropertyOp42
 70
     1
102
RTVSPropertyOp43
 70
     1
102
RTVSPropertyOp44
 70
     1
102
RTVSPropertyOp45
 70
     1
102
RTVSPropertyOp46
 70
     1
102
RTVSPropertyOp47
 70
     1
102
RTVSPropertyOp48
 70
     1
102
RTVSPropertyOp49
 70
     1
102
RTVSPropertyOp50
 70
     1
102
RTVSPropertyOp51
 70
     0
102
RTVSPropertyOp52
 70
     0
102
RTVSPropertyOp53
 70
     1
102
RTVSPropertyOp54
 70
     1
102
RTVSPropertyOp55
 70
     1
102
RTVSPropertyOp56
 70
     1
102
RTVSPropertyOp57
 70
     1
102
RTVSPropertyOp58
 70
     1
102
RTVSPropertyOp59
 70
     1
102
RTVSPropertyOp60
 70
     1
102
RTVSPropertyOp61
 70
     1
102
RTVSPropertyOp62
 70
     1
  0
XRECORD
  5
37B
102
{ACAD_REACTORS
330
37A
102
}
330
37A
100
AcDbXrecord
280
     1
102
RTVSPost2010Prop28
280
     0
102
RTVSPost2010PropOp28
 70
     1
102
RTVSPost2010Prop29
280
     1
102
RTVSPost2010PropOp29
 70
     1
102
RTVSPost2010Prop30
280
     1
102
RTVSPost2010PropOp30
 70
     1
102
RTVSPost2010Prop31
280
     0
102
RTVSPost2010PropOp31
 70
     1
102
RTVSPost2010Prop32
280
     0
102
RTVSPost2010PropOp32
 70
     1
102
RTVSPost2010Prop33
280
     0
102
RTVSPost2010PropOp33
 70
     1
102
RTVSPost2010Prop34
280
     0
102
RTVSPost2010PropOp34
 70
     1
102
RTVSPost2010Prop35
280
     0
102
RTVSPost2010PropOp35
 70
     1
102
RTVSPost2010Prop36
280
     0
102
RTVSPost2010PropOp36
 70
     1
102
RTVSPost2010Prop37
 90
       50
102
RTVSPost2010PropOp37
 70
     1
102
RTVSPost2010Prop38
140
0.0
102
RTVSPost2010PropOp38
 70
     1
102
RTVSPost2010Prop39
140
1.0
102
RTVSPost2010PropOp39
 70
     1
102
RTVSPost2010Prop40
 90
        0
102
RTVSPost2010PropOp40
 70
     1
102
RTVSPost2010Prop41ColorIndex
 90
       18
102
RTVSPost2010Prop41ColorRGB
 90
        0
102
RTVSPost2010PropOp41
 70
     1
102
RTVSPost2010Prop42
 90
       50
102
RTVSPost2010PropOp42
 70
     1
102
RTVSPost2010Prop43
 90
        3
102
RTVSPost2010PropOp43
 70
     1
102
RTVSPost2010Prop44ColorIndex
 90
        5
102
RTVSPost2010Prop44ColorRGB
 90
      255
102
RTVSPost2010PropOp44
 70
     1
102
RTVSPost2010Prop45
280
     0
102
RTVSPost2010PropOp45
 70
     1
102
RTVSPost2010Prop46
 90
       50
102
RTVSPost2010PropOp46
 70
     1
102
RTVSPost2010Prop47
 90
       50
102
RTVSPost2010PropOp47
 70
     1
102
RTVSPost2010Prop48
 90
       50
102
RTVSPost2010PropOp48
 70
     1
102
RTVSPost2010Prop49
280
     0
102
RTVSPost2010PropOp49
 70
     1
102
RTVSPost2010Prop50
 90
       50
102
RTVSPost2010PropOp50
 70
     1
102
RTVSPost2010Prop51ColorIndex
 90
      256
102
RTVSPost2010Prop51ColorRGB
 90
-16777216
102
RTVSPost2010PropOp51
 70
     0
102
RTVSPost2010Prop52
140
1.0
102
RTVSPost2010PropOp52
 70
     0
102
RTVSPost2010Prop53
 90
        2
102
RTVSPost2010PropOp53
 70
     1
102
RTVSPost2010Prop54
  1
strokes_ogs.tif
102
RTVSPost2010PropOp54
 70
     1
102
RTVSPost2010Prop55
280
     0
102
RTVSPost2010PropOp55
 70
     1
102
RTVSPost2010Prop56
140
1.0
102
RTVSPost2010PropOp56
 70
     1
102
RTVSPost2010Prop57
140
1.0
102
RTVSPost2010PropOp57
 70
     1
102
RTVSPropertyOp0
 70
     1
102
RTVSPropertyOp1
 70
     1
102
RTVSPropertyOp2
 70
     1
102
RTVSPropertyOp3
 70
     1
102
RTVSPropertyOp4
 70
     1
102
RTVSPropertyOp5
 70
     1
102
RTVSPropertyOp6
 70
     1
102
RTVSPropertyOp7
 70
     1
102
RTVSPropertyOp8
 70
     1
102
RTVSPropertyOp9
 70
     1
102
RTVSPropertyOp10
 70
     1
102
RTVSPropertyOp11
 70
     1
102
RTVSPropertyOp12
 70
     1
102
RTVSPropertyOp13
 70
     1
102
RTVSPropertyOp14
 70
     1
102
RTVSPropertyOp15
 70
     1
102
RTVSPropertyOp16
 70
     1
102
RTVSPropertyOp17
 70
     1
102
RTVSPropertyOp18
 70
     1
102
RTVSPropertyOp19
 70
     1
102
RTVSPropertyOp20
 70
     1
102
RTVSPropertyOp21
 70
     1
102
RTVSPropertyOp22
 70
     1
102
RTVSPropertyOp23
 70
     1
102
RTVSPropertyOp24
 70
     1
102
RTVSPropertyOp25
 70
     1
102
RTVSPropertyOp26
 70
     1
102
RTVSPropertyOp27
 70
     1
102
RTVSPropertyOp28
 70
     1
102
RTVSPropertyOp29
 70
     1
102
RTVSPropertyOp30
 70
     1
102
RTVSPropertyOp31
 70
     1
102
RTVSPropertyOp32
 70
     1
102
RTVSPropertyOp33
 70
     1
102
RTVSPropertyOp34
 70
     1
102
RTVSPropertyOp35
 70
     1
102
RTVSPropertyOp36
 70
     1
102
RTVSPropertyOp37
 70
     1
102
RTVSPropertyOp38
 70
     1
102
RTVSPropertyOp39
 70
     1
102
RTVSPropertyOp40
 70
     1
102
RTVSPropertyOp41
 70
     1
102
RTVSPropertyOp42
 70
     1
102
RTVSPropertyOp43
 70
     1
102
RTVSPropertyOp44
 70
     1
102
RTVSPropertyOp45
 70
     1
102
RTVSPropertyOp46
 70
     1
102
RTVSPropertyOp47
 70
     1
102
RTVSPropertyOp48
 70
     1
102
RTVSPropertyOp49
 70
     1
102
RTVSPropertyOp50
 70
     1
102
RTVSPropertyOp51
 70
     0
102
RTVSPropertyOp52
 70
     0
102
RTVSPropertyOp53
 70
     1
102
RTVSPropertyOp54
 70
     1
102
RTVSPropertyOp55
 70
     1
102
RTVSPropertyOp56
 70
     1
102
RTVSPropertyOp57
 70
     1
102
RTVSPropertyOp58
 70
     1
102
RTVSPropertyOp59
 70
     1
102
RTVSPropertyOp60
 70
     1
102
RTVSPropertyOp61
 70
     1
102
RTVSPropertyOp62
 70
     1
  0
XRECORD
  5
39B
102
{ACAD_REACTORS
330
39A
102
}
330
39A
100
AcDbXrecord
280
     1
102
RTVSPost2010Prop28
280
     0
102
RTVSPost2010PropOp28
 70
     1
102
RTVSPost2010Prop29
280
     1
102
RTVSPost2010PropOp29
 70
     1
102
RTVSPost2010Prop30
280
     1
102
RTVSPost2010PropOp30
 70
     1
102
RTVSPost2010Prop31
280
     0
102
RTVSPost2010PropOp31
 70
     1
102
RTVSPost2010Prop32
280
     0
102
RTVSPost2010PropOp32
 70
     1
102
RTVSPost2010Prop33
280
     0
102
RTVSPost2010PropOp33
 70
     1
102
RTVSPost2010Prop34
280
     0
102
RTVSPost2010PropOp34
 70
     1
102
RTVSPost2010Prop35
280
     0
102
RTVSPost2010PropOp35
 70
     1
102
RTVSPost2010Prop36
280
     0
102
RTVSPost2010PropOp36
 70
     1
102
RTVSPost2010Prop37
 90
       50
102
RTVSPost2010PropOp37
 70
     1
102
RTVSPost2010Prop38
140
0.0
102
RTVSPost2010PropOp38
 70
     1
102
RTVSPost2010Prop39
140
1.0
102
RTVSPost2010PropOp39
 70
     1
102
RTVSPost2010Prop40
 90
        0
102
RTVSPost2010PropOp40
 70
     1
102
RTVSPost2010Prop41ColorIndex
 90
       18
102
RTVSPost2010Prop41ColorRGB
 90
        0
102
RTVSPost2010PropOp41
 70
     1
102
RTVSPost2010Prop42
 90
       50
102
RTVSPost2010PropOp42
 70
     1
102
RTVSPost2010Prop43
 90
        3
102
RTVSPost2010PropOp43
 70
     1
102
RTVSPost2010Prop44ColorIndex
 90
        5
102
RTVSPost2010Prop44ColorRGB
 90
      255
102
RTVSPost2010PropOp44
 70
     1
102
RTVSPost2010Prop45
280
     0
102
RTVSPost2010PropOp45
 70
     1
102
RTVSPost2010Prop46
 90
       50
102
RTVSPost2010PropOp46
 70
     1
102
RTVSPost2010Prop47
 90
       50
102
RTVSPost2010PropOp47
 70
     1
102
RTVSPost2010Prop48
 90
       50
102
RTVSPost2010PropOp48
 70
     1
102
RTVSPost2010Prop49
280
     0
102
RTVSPost2010PropOp49
 70
     1
102
RTVSPost2010Prop50
 90
       50
102
RTVSPost2010PropOp50
 70
     1
102
RTVSPost2010Prop51ColorIndex
 90
      256
102
RTVSPost2010Prop51ColorRGB
 90
-16777216
102
RTVSPost2010PropOp51
 70
     0
102
RTVSPost2010Prop52
140
1.0
102
RTVSPost2010PropOp52
 70
     0
102
RTVSPost2010Prop53
 90
        2
102
RTVSPost2010PropOp53
 70
     1
102
RTVSPost2010Prop54
  1
strokes_ogs.tif
102
RTVSPost2010PropOp54
 70
     1
102
RTVSPost2010Prop55
280
     0
102
RTVSPost2010PropOp55
 70
     1
102
RTVSPost2010Prop56
140
1.0
102
RTVSPost2010PropOp56
 70
     1
102
RTVSPost2010Prop57
140
1.0
102
RTVSPost2010PropOp57
 70
     1
102
RTVSPropertyOp0
 70
     1
102
RTVSPropertyOp1
 70
     1
102
RTVSPropertyOp2
 70
     1
102
RTVSPropertyOp3
 70
     1
102
RTVSPropertyOp4
 70
     1
102
RTVSPropertyOp5
 70
     1
102
RTVSPropertyOp6
 70
     1
102
RTVSPropertyOp7
 70
     1
102
RTVSPropertyOp8
 70
     1
102
RTVSPropertyOp9
 70
     1
102
RTVSPropertyOp10
 70
     1
102
RTVSPropertyOp11
 70
     1
102
RTVSPropertyOp12
 70
     1
102
RTVSPropertyOp13
 70
     1
102
RTVSPropertyOp14
 70
     1
102
RTVSPropertyOp15
 70
     1
102
RTVSPropertyOp16
 70
     1
102
RTVSPropertyOp17
 70
     1
102
RTVSPropertyOp18
 70
     1
102
RTVSPropertyOp19
 70
     1
102
RTVSPropertyOp20
 70
     1
102
RTVSPropertyOp21
 70
     1
102
RTVSPropertyOp22
 70
     1
102
RTVSPropertyOp23
 70
     1
102
RTVSPropertyOp24
 70
     1
102
RTVSPropertyOp25
 70
     1
102
RTVSPropertyOp26
 70
     1
102
RTVSPropertyOp27
 70
     1
102
RTVSPropertyOp28
 70
     1
102
RTVSPropertyOp29
 70
     1
102
RTVSPropertyOp30
 70
     1
102
RTVSPropertyOp31
 70
     1
102
RTVSPropertyOp32
 70
     1
102
RTVSPropertyOp33
 70
     1
102
RTVSPropertyOp34
 70
     1
102
RTVSPropertyOp35
 70
     1
102
RTVSPropertyOp36
 70
     1
102
RTVSPropertyOp37
 70
     1
102
RTVSPropertyOp38
 70
     1
102
RTVSPropertyOp39
 70
     1
102
RTVSPropertyOp40
 70
     1
102
RTVSPropertyOp41
 70
     1
102
RTVSPropertyOp42
 70
     1
102
RTVSPropertyOp43
 70
     1
102
RTVSPropertyOp44
 70
     1
102
RTVSPropertyOp45
 70
     1
102
RTVSPropertyOp46
 70
     1
102
RTVSPropertyOp47
 70
     1
102
RTVSPropertyOp48
 70
     1
102
RTVSPropertyOp49
 70
     1
102
RTVSPropertyOp50
 70
     1
102
RTVSPropertyOp51
 70
     0
102
RTVSPropertyOp52
 70
     0
102
RTVSPropertyOp53
 70
     1
102
RTVSPropertyOp54
 70
     1
102
RTVSPropertyOp55
 70
     1
102
RTVSPropertyOp56
 70
     1
102
RTVSPropertyOp57
 70
     1
102
RTVSPropertyOp58
 70
     1
102
RTVSPropertyOp59
 70
     1
102
RTVSPropertyOp60
 70
     1
102
RTVSPropertyOp61
 70
     1
102
RTVSPropertyOp62
 70
     1
  0
ENDSEC
  0
EOF
