  0
SECTION
  2
HEADER
  9
$ACADVER
  1
AC1018
  9
$ACADMAINTVER
 70
   104
  9
$DWGCODEPAGE
  3
ANSI_1250
  9
$LASTSAVEDBY
  1
wq7085
  9
$INSBASE
 10
0.0
 20
0.0
 30
0.0
  9
$EXTMIN
 10
186.4339033333333
 20
118.534924
 30
0.0
  9
$EXTMAX
 10
398.338957
 20
345.2288016666667
 30
0.0
  9
$LIMMIN
 10
-0.5
 20
-0.5
  9
$LIMMAX
 10
5.0
 20
5.0
  9
$ORTHOMODE
 70
     0
  9
$REGENMODE
 70
     1
  9
$FILLMODE
 70
     1
  9
$QTEXTMODE
 70
     0
  9
$MIRRTEXT
 70
     1
  9
$LTSCALE
 40
1.0
  9
$ATTMODE
 70
     1
  9
$TEXTSIZE
 40
0.2
  9
$TRACEWID
 40
0.05
  9
$TEXTSTYLE
  7
Standard
  9
$CLAYER
  8
0
  9
$CELTYPE
  6
ByLayer
  9
$CECOLOR
 62
   256
  9
$CELTSCALE
 40
1.0
  9
$DISPSILH
 70
     0
  9
$DIMSCALE
 40
1.0
  9
$DIMASZ
 40
0.18
  9
$DIMEXO
 40
0.0625
  9
$DIMDLI
 40
0.38
  9
$DIMRND
 40
0.0
  9
$DIMDLE
 40
0.0
  9
$DIMEXE
 40
0.18
  9
$DIMTP
 40
0.0
  9
$DIMTM
 40
0.0
  9
$DIMTXT
 40
0.18
  9
$DIMCEN
 40
0.09
  9
$DIMTSZ
 40
0.0
  9
$DIMTOL
 70
     0
  9
$DIMLIM
 70
     0
  9
$DIMTIH
 70
     1
  9
$DIMTOH
 70
     1
  9
$DIMSE1
 70
     0
  9
$DIMSE2
 70
     0
  9
$DIMTAD
 70
     0
  9
$DIMZIN
 70
     0
  9
$DIMBLK
  1

  9
$DIMASO
 70
     1
  9
$DIMSHO
 70
     1
  9
$DIMPOST
  1

  9
$DIMAPOST
  1

  9
$DIMALT
 70
     0
  9
$DIMALTD
 70
     2
  9
$DIMALTF
 40
25.4
  9
$DIMLFAC
 40
1.0
  9
$DIMTOFL
 70
     0
  9
$DIMTVP
 40
0.0
  9
$DIMTIX
 70
     0
  9
$DIMSOXD
 70
     0
  9
$DIMSAH
 70
     0
  9
$DIMBLK1
  1

  9
$DIMBLK2
  1

  9
$DIMSTYLE
  2
Standard
  9
$DIMCLRD
 70
     0
  9
$DIMCLRE
 70
     0
  9
$DIMCLRT
 70
     0
  9
$DIMTFAC
 40
1.0
  9
$DIMGAP
 40
0.09
  9
$DIMJUST
 70
     0
  9
$DIMSD1
 70
     0
  9
$DIMSD2
 70
     0
  9
$DIMTOLJ
 70
     1
  9
$DIMTZIN
 70
     0
  9
$DIMALTZ
 70
     0
  9
$DIMALTTZ
 70
     0
  9
$DIMUPT
 70
     0
  9
$DIMDEC
 70
     4
  9
$DIMTDEC
 70
     4
  9
$DIMALTU
 70
     2
  9
$DIMALTTD
 70
     2
  9
$DIMTXSTY
  7
Standard
  9
$DIMAUNIT
 70
     0
  9
$DIMADEC
 70
     0
  9
$DIMALTRND
 40
0.0
  9
$DIMAZIN
 70
     0
  9
$DIMDSEP
 70
    46
  9
$DIMATFIT
 70
     3
  9
$DIMFRAC
 70
     0
  9
$DIMLDRBLK
  1

  9
$DIMLUNIT
 70
     2
  9
$DIMLWD
 70
    -2
  9
$DIMLWE
 70
    -2
  9
$DIMTMOVE
 70
     0
  9
$LUNITS
 70
     2
  9
$LUPREC
 70
     4
  9
$SKETCHINC
 40
0.1
  9
$FILLETRAD
 40
0.5
  9
$AUNITS
 70
     0
  9
$AUPREC
 70
     0
  9
$MENU
  1
.
  9
$ELEVATION
 40
0.0
  9
$PELEVATION
 40
0.0
  9
$THICKNESS
 40
0.0
  9
$LIMCHECK
 70
     0
  9
$CHAMFERA
 40
0.0
  9
$CHAMFERB
 40
0.0
  9
$CHAMFERC
 40
0.0
  9
$CHAMFERD
 40
0.0
  9
$SKPOLY
 70
     0
  9
$TDCREATE
 40
2458955.411724538
  9
$TDUCREATE
 40
2458955.328400949
  9
$TDUPDATE
 40
2458955.417569445
  9
$TDUUPDATE
 40
2458955.334236111
  9
$TDINDWG
 40
0.0009490856
  9
$TDUSRTIMER
 40
0.0009375116
  9
$USRTIMER
 70
     1
  9
$ANGBASE
 50
0.0
  9
$ANGDIR
 70
     0
  9
$PDMODE
 70
     0
  9
$PDSIZE
 40
0.0
  9
$PLINEWID
 40
0.0
  9
$SPLFRAME
 70
     0
  9
$SPLINETYPE
 70
     6
  9
$SPLINESEGS
 70
     8
  9
$HANDSEED
  5
396
  9
$SURFTAB1
 70
     6
  9
$SURFTAB2
 70
     6
  9
$SURFTYPE
 70
     6
  9
$SURFU
 70
     6
  9
$SURFV
 70
     6
  9
$UCSBASE
  2

  9
$UCSNAME
  2

  9
$UCSORG
 10
274.404842
 20
288.907994
 30
0.0
  9
$UCSXDIR
 10
1.0
 20
0.0
 30
0.0
  9
$UCSYDIR
 10
0.0
 20
1.0
 30
0.0
  9
$UCSORTHOREF
  2

  9
$UCSORTHOVIEW
 70
     0
  9
$UCSORGTOP
 10
0.0
 20
0.0
 30
0.0
  9
$UCSORGBOTTOM
 10
0.0
 20
0.0
 30
0.0
  9
$UCSORGLEFT
 10
0.0
 20
0.0
 30
0.0
  9
$UCSORGRIGHT
 10
0.0
 20
0.0
 30
0.0
  9
$UCSORGFRONT
 10
0.0
 20
0.0
 30
0.0
  9
$UCSORGBACK
 10
0.0
 20
0.0
 30
0.0
  9
$PUCSBASE
  2

  9
$PUCSNAME
  2

  9
$PUCSORG
 10
0.0
 20
0.0
 30
0.0
  9
$PUCSXDIR
 10
1.0
 20
0.0
 30
0.0
  9
$PUCSYDIR
 10
0.0
 20
1.0
 30
0.0
  9
$PUCSORTHOREF
  2

  9
$PUCSORTHOVIEW
 70
     0
  9
$PUCSORGTOP
 10
0.0
 20
0.0
 30
0.0
  9
$PUCSORGBOTTOM
 10
0.0
 20
0.0
 30
0.0
  9
$PUCSORGLEFT
 10
0.0
 20
0.0
 30
0.0
  9
$PUCSORGRIGHT
 10
0.0
 20
0.0
 30
0.0
  9
$PUCSORGFRONT
 10
0.0
 20
0.0
 30
0.0
  9
$PUCSORGBACK
 10
0.0
 20
0.0
 30
0.0
  9
$USERI1
 70
     0
  9
$USERI2
 70
     0
  9
$USERI3
 70
     0
  9
$USERI4
 70
     0
  9
$USERI5
 70
     0
  9
$USERR1
 40
0.0
  9
$USERR2
 40
0.0
  9
$USERR3
 40
0.0
  9
$USERR4
 40
0.0
  9
$USERR5
 40
0.0
  9
$WORLDVIEW
 70
     1
  9
$SHADEDGE
 70
     3
  9
$SHADEDIF
 70
    70
  9
$TILEMODE
 70
     1
  9
$MAXACTVP
 70
    64
  9
$PINSBASE
 10
0.0
 20
0.0
 30
0.0
  9
$PLIMCHECK
 70
     0
  9
$PEXTMIN
 10
-0.5
 20
-0.5
 30
-0.5
  9
$PEXTMAX
 10
5.0
 20
5.0
 30
5.0
  9
$PLIMMIN
 10
-0.5
 20
-0.5
  9
$PLIMMAX
 10
5.0
 20
5.0
  9
$UNITMODE
 70
     0
  9
$VISRETAIN
 70
     1
  9
$PLINEGEN
 70
     0
  9
$PSLTSCALE
 70
     1
  9
$TREEDEPTH
 70
  3020
  9
$CMLSTYLE
  2
Standard
  9
$CMLJUST
 70
     0
  9
$CMLSCALE
 40
1.0
  9
$PROXYGRAPHICS
 70
     1
  9
$MEASUREMENT
 70
     1
  9
$CELWEIGHT
370
    13
  9
$ENDCAPS
280
     0
  9
$JOINSTYLE
280
     0
  9
$LWDISPLAY
290
     0
  9
$INSUNITS
 70
     4
  9
$HYPERLINKBASE
  1

  9
$STYLESHEET
  1

  9
$XEDIT
290
     1
  9
$CEPSNTYPE
380
     0
  9
$PSTYLEMODE
290
     1
  9
$FINGERPRINTGUID
  2
{B52B7328-2F8A-4FF2-B4A9-6B063C8869B9}
  9
$VERSIONGUID
  2
{40786ACA-4559-C34E-85F6-1AA07061DDBE}
  9
$EXTNAMES
290
     1
  9
$PSVPSCALE
 40
0.0
  9
$OLESTARTUP
290
     0
  9
$SORTENTS
280
   127
  9
$INDEXCTL
280
     0
  9
$HIDETEXT
280
     1
  9
$XCLIPFRAME
290
     0
  9
$HALOGAP
280
     0
  9
$OBSCOLOR
 70
   257
  9
$OBSLTYPE
280
     0
  9
$INTERSECTIONDISPLAY
280
     0
  9
$INTERSECTIONCOLOR
 70
   257
  9
$DIMASSOC
280
     2
  9
$PROJECTNAME
  1

  0
ENDSEC
  0
SECTION
  2
CLASSES
  0
CLASS
  1
ACDBDICTIONARYWDFLT
  2
AcDbDictionaryWithDefault
  3
ObjectDBX Classes
 90
        0
 91
        1
280
     0
281
     0
  0
CLASS
  1
VISUALSTYLE
  2
AcDbVisualStyle
  3
ObjectDBX Classes
 90
     4095
 91
       24
280
     0
281
     0
  0
CLASS
  1
MATERIAL
  2
AcDbMaterial
  3
ObjectDBX Classes
 90
     1153
 91
        3
280
     0
281
     0
  0
CLASS
  1
SCALE
  2
AcDbScale
  3
ObjectDBX Classes
 90
     1153
 91
       33
280
     0
281
     0
  0
CLASS
  1
TABLESTYLE
  2
AcDbTableStyle
  3
ObjectDBX Classes
 90
     4095
 91
        1
280
     0
281
     0
  0
CLASS
  1
MLEADERSTYLE
  2
AcDbMLeaderStyle
  3
ACDB_MLEADERSTYLE_CLASS
 90
     4095
 91
        1
280
     0
281
     0
  0
CLASS
  1
SUN
  2
AcDbSun
  3
SCENEOE
 90
     1153
 91
        0
280
     0
281
     0
  0
CLASS
  1
DIMASSOC
  2
AcDbDimAssoc
  3
"AcDbDimAssoc|Product Desc:     AcDim ARX App For Dimension|Company:          Autodesk, Inc.|WEB Address:      www.autodesk.com"
 90
        0
 91
        7
280
     0
281
     0
  0
CLASS
  1
DICTIONARYVAR
  2
AcDbDictionaryVar
  3
ObjectDBX Classes
 90
        0
 91
        8
280
     0
281
     0
  0
CLASS
  1
CELLSTYLEMAP
  2
AcDbCellStyleMap
  3
ObjectDBX Classes
 90
     1152
 91
        2
280
     0
281
     0
  0
CLASS
  1
ACDBSECTIONVIEWSTYLE
  2
AcDbSectionViewStyle
  3
ObjectDBX Classes
 90
     1025
 91
        1
280
     0
281
     0
  0
CLASS
  1
ACDBDETAILVIEWSTYLE
  2
AcDbDetailViewStyle
  3
ObjectDBX Classes
 90
     1025
 91
        1
280
     0
281
     0
  0
CLASS
  1
SORTENTSTABLE
  2
AcDbSortentsTable
  3
ObjectDBX Classes
 90
        0
 91
        1
280
     0
281
     0
  0
ENDSEC
  0
SECTION
  2
TABLES
  0
TABLE
  2
VPORT
  5
8
330
0
100
AcDbSymbolTable
 70
    16
  0
VPORT
  5
29
330
8
100
AcDbSymbolTableRecord
100
AcDbViewportTableRecord
  2
*Active
 70
     0
 10
0.0
 20
0.0
 11
1.0
 21
1.0
 12
277.4127207725384
 22
306.9222743032633
 13
0.0
 23
0.0
 14
0.5
 24
0.5
 15
0.5
 25
0.5
 16
0.0
 26
0.0
 36
1.0
 17
0.0
 27
0.0
 37
0.0
 40
202.5677760223494
 41
2.283154121863799
 42
50.0
 43
407.009558
 44
-407.009558
 50
0.0
 51
0.0
 71
     0
 72
   100
 73
     1
 74
     3
 75
     0
 76
     0
 77
     0
 78
     0
281
     0
 65
     1
110
274.404842
120
288.907994
130
0.0
111
1.0
121
0.0
131
0.0
112
0.0
122
1.0
132
0.0
 79
     0
146
0.0
1001
ACAD_NAV_VCDISPLAY
1070
     3
  0
VPORT
  5
29A
330
8
100
AcDbSymbolTableRecord
100
AcDbViewportTableRecord
  2
L1
 70
     0
 10
0.0
 20
0.0
 11
1.0
 21
1.0
 12
291.882225
 22
231.843699
 13
0.0
 23
0.0
 14
0.5
 24
0.5
 15
0.5
 25
0.5
 16
0.0
 26
0.0
 36
1.0
 17
0.0
 27
0.0
 37
0.0
 40
207.433333
 41
0.085602
 42
50.0
 43
407.009558
 44
-407.009558
 50
0.0
 51
0.0
 71
     0
 72
   100
 73
     1
 74
     3
 75
     0
 76
     0
 77
     0
 78
     0
281
     0
 65
     1
110
0.0
120
0.0
130
0.0
111
1.0
121
0.0
131
0.0
112
0.0
122
1.0
132
0.0
 79
     0
146
0.0
  0
VPORT
  5
29B
330
8
100
AcDbSymbolTableRecord
100
AcDbViewportTableRecord
  2
L2
 70
     0
 10
0.0
 20
0.0
 11
0.5
 21
1.0
 12
0.0
 22
0.0
 13
0.0
 23
0.0
 14
0.5
 24
0.5
 15
0.5
 25
0.5
 16
0.0
 26
-1.0
 36
0.0
 17
0.0
 27
0.0
 37
0.0
 40
1319.143726
 41
0.013461
 42
50.0
 43
679.601336
 44
-679.601336
 50
0.0
 51
0.0
 71
     0
 72
   100
 73
     1
 74
     3
 75
     0
 76
     0
 77
     0
 78
     0
281
     0
 65
     1
110
0.0
120
0.0
130
0.0
111
1.0
121
0.0
131
0.0
112
0.0
122
1.0
132
0.0
 79
     0
146
0.0
  0
VPORT
  5
29C
330
8
100
AcDbSymbolTableRecord
100
AcDbViewportTableRecord
  2
L2
 70
     0
 10
0.5
 20
0.0
 11
1.0
 21
1.0
 12
0.0
 22
0.0
 13
0.0
 23
0.0
 14
0.5
 24
0.5
 15
0.5
 25
0.5
 16
1.0
 26
0.0
 36
0.0
 17
0.0
 27
0.0
 37
0.0
 40
1319.143726
 41
0.013461
 42
50.0
 43
667.6767099999999
 44
-667.6767099999999
 50
0.0
 51
0.0
 71
     0
 72
   100
 73
     1
 74
     3
 75
     0
 76
     0
 77
     0
 78
     0
281
     0
 65
     1
110
0.0
120
0.0
130
0.0
111
1.0
121
0.0
131
0.0
112
0.0
122
1.0
132
0.0
 79
     0
146
0.0
  0
VPORT
  5
29D
330
8
100
AcDbSymbolTableRecord
100
AcDbViewportTableRecord
  2
L3
 70
     0
 10
0.0
 20
0.5
 11
1.0
 21
1.0
 12
291.882225
 22
231.843699
 13
0.0
 23
0.0
 14
0.5
 24
0.5
 15
0.5
 25
0.5
 16
0.0
 26
0.0
 36
1.0
 17
0.0
 27
0.0
 37
0.0
 40
207.433333
 41
0.085602
 42
50.0
 43
407.009558
 44
-407.009558
 50
0.0
 51
0.0
 71
     0
 72
   100
 73
     1
 74
     3
 75
     0
 76
     0
 77
     0
 78
     0
281
     0
 65
     1
110
0.0
120
0.0
130
0.0
111
1.0
121
0.0
131
0.0
112
0.0
122
1.0
132
0.0
 79
     0
146
0.0
  0
VPORT
  5
29E
330
8
100
AcDbSymbolTableRecord
100
AcDbViewportTableRecord
  2
L3
 70
     0
 10
0.0
 20
0.0
 11
1.0
 21
0.5
 12
0.0
 22
0.0
 13
0.0
 23
0.0
 14
0.5
 24
0.5
 15
0.5
 25
0.5
 16
0.0
 26
-1.0
 36
0.0
 17
0.0
 27
0.0
 37
0.0
 40
1319.143726
 41
0.013461
 42
50.0
 43
679.601336
 44
-679.601336
 50
0.0
 51
0.0
 71
     0
 72
   100
 73
     1
 74
     3
 75
     0
 76
     0
 77
     0
 78
     0
281
     0
 65
     1
110
0.0
120
0.0
130
0.0
111
1.0
121
0.0
131
0.0
112
0.0
122
1.0
132
0.0
 79
     0
146
0.0
  0
VPORT
  5
29F
330
8
100
AcDbSymbolTableRecord
100
AcDbViewportTableRecord
  2
L4
 70
     0
 10
0.0
 20
0.5
 11
0.5
 21
1.0
 12
291.882225
 22
231.843699
 13
0.0
 23
0.0
 14
0.5
 24
0.5
 15
0.5
 25
0.5
 16
0.0
 26
0.0
 36
1.0
 17
0.0
 27
0.0
 37
0.0
 40
207.433333
 41
0.085602
 42
50.0
 43
407.009558
 44
-407.009558
 50
0.0
 51
0.0
 71
     0
 72
   100
 73
     1
 74
     3
 75
     0
 76
     0
 77
     0
 78
     0
281
     0
 65
     1
110
0.0
120
0.0
130
0.0
111
1.0
121
0.0
131
0.0
112
0.0
122
1.0
132
0.0
 79
     0
146
0.0
  0
VPORT
  5
2A0
330
8
100
AcDbSymbolTableRecord
100
AcDbViewportTableRecord
  2
L4
 70
     0
 10
0.0
 20
0.0
 11
0.5
 21
0.5
 12
0.0
 22
0.0
 13
0.0
 23
0.0
 14
0.5
 24
0.5
 15
0.5
 25
0.5
 16
0.0
 26
-1.0
 36
0.0
 17
0.0
 27
0.0
 37
0.0
 40
1319.143726
 41
0.013461
 42
50.0
 43
679.601336
 44
-679.601336
 50
0.0
 51
0.0
 71
     0
 72
   100
 73
     1
 74
     3
 75
     0
 76
     0
 77
     0
 78
     0
281
     0
 65
     1
110
0.0
120
0.0
130
0.0
111
1.0
121
0.0
131
0.0
112
0.0
122
1.0
132
0.0
 79
     0
146
0.0
  0
VPORT
  5
2A1
330
8
100
AcDbSymbolTableRecord
100
AcDbViewportTableRecord
  2
L4
 70
     0
 10
0.5
 20
0.0
 11
1.0
 21
0.5
 12
0.0
 22
0.0
 13
0.0
 23
0.0
 14
0.5
 24
0.5
 15
0.5
 25
0.5
 16
1.0
 26
0.0
 36
0.0
 17
0.0
 27
0.0
 37
0.0
 40
1319.143726
 41
0.013461
 42
50.0
 43
667.6767099999999
 44
-667.6767099999999
 50
0.0
 51
0.0
 71
     0
 72
   100
 73
     1
 74
     3
 75
     0
 76
     0
 77
     0
 78
     0
281
     0
 65
     1
110
0.0
120
0.0
130
0.0
111
1.0
121
0.0
131
0.0
112
0.0
122
1.0
132
0.0
 79
     0
146
0.0
  0
VPORT
  5
2A2
330
8
100
AcDbSymbolTableRecord
100
AcDbViewportTableRecord
  2
L4
 70
     0
 10
0.5
 20
0.5
 11
1.0
 21
1.0
 12
0.0
 22
0.0
 13
0.0
 23
0.0
 14
0.5
 24
0.5
 15
0.5
 25
0.5
 16
0.5773502691896259
 26
-0.5773502691896259
 36
0.5773502691896259
 17
0.0
 27
0.0
 37
0.0
 40
1295.484074
 41
0.013707
 42
50.0
 43
674.79345
 44
-674.79345
 50
0.0
 51
0.0
 71
     0
 72
   100
 73
     1
 74
     3
 75
     0
 76
     0
 77
     0
 78
     0
281
     0
 65
     1
110
0.0
120
0.0
130
0.0
111
1.0
121
0.0
131
0.0
112
0.0
122
1.0
132
0.0
 79
     0
146
0.0
  0
VPORT
  5
2A3
330
8
100
AcDbSymbolTableRecord
100
AcDbViewportTableRecord
  2
L6
 70
     0
 10
0.0
 20
0.5
 11
0.333333
 21
1.0
 12
0.0
 22
0.0
 13
0.0
 23
0.0
 14
0.5
 24
0.5
 15
0.5
 25
0.5
 16
0.7188730927569434
 26
-0.5850486126764433
 36
0.3754192287502549
 17
0.0
 27
0.0
 37
0.0
 40
1367.187154
 41
0.012988
 42
50.0
 43
707.8776949999999
 44
-707.8776949999999
 50
0.0
 51
0.0
 71
     0
 72
   100
 73
     1
 74
     3
 75
     0
 76
     0
 77
     0
 78
     0
281
     0
 65
     1
110
0.0
120
0.0
130
0.0
111
1.0
121
0.0
131
0.0
112
0.0
122
1.0
132
0.0
 79
     0
146
0.0
  0
VPORT
  5
2A4
330
8
100
AcDbSymbolTableRecord
100
AcDbViewportTableRecord
  2
L6
 70
     0
 10
0.0
 20
0.0
 11
0.333333
 21
0.5
 12
0.0
 22
0.0
 13
0.0
 23
0.0
 14
0.5
 24
0.5
 15
0.5
 25
0.5
 16
-1.0
 26
0.0
 36
0.0
 17
0.0
 27
0.0
 37
0.0
 40
1319.143726
 41
0.013461
 42
50.0
 43
667.6767099999999
 44
-667.6767099999999
 50
0.0
 51
0.0
 71
     0
 72
   100
 73
     1
 74
     3
 75
     0
 76
     0
 77
     0
 78
     0
281
     0
 65
     1
110
0.0
120
0.0
130
0.0
111
1.0
121
0.0
131
0.0
112
0.0
122
1.0
132
0.0
 79
     0
146
0.0
  0
VPORT
  5
2A5
330
8
100
AcDbSymbolTableRecord
100
AcDbViewportTableRecord
  2
L6
 70
     0
 10
0.333333
 20
0.5
 11
0.666667
 21
1.0
 12
291.882225
 22
231.843699
 13
0.0
 23
0.0
 14
0.5
 24
0.5
 15
0.5
 25
0.5
 16
0.0
 26
0.0
 36
1.0
 17
0.0
 27
0.0
 37
0.0
 40
207.433333
 41
0.085602
 42
50.0
 43
407.009558
 44
-407.009558
 50
0.0
 51
0.0
 71
     0
 72
   100
 73
     1
 74
     3
 75
     0
 76
     0
 77
     0
 78
     0
281
     0
 65
     1
110
0.0
120
0.0
130
0.0
111
1.0
121
0.0
131
0.0
112
0.0
122
1.0
132
0.0
 79
     0
146
0.0
  0
VPORT
  5
2A6
330
8
100
AcDbSymbolTableRecord
100
AcDbViewportTableRecord
  2
L6
 70
     0
 10
0.333333
 20
0.0
 11
0.666667
 21
0.5
 12
0.0
 22
0.0
 13
0.0
 23
0.0
 14
0.5
 24
0.5
 15
0.5
 25
0.5
 16
0.0
 26
-1.0
 36
0.0
 17
0.0
 27
0.0
 37
0.0
 40
1319.143726
 41
0.013461
 42
50.0
 43
679.601336
 44
-679.601336
 50
0.0
 51
0.0
 71
     0
 72
   100
 73
     1
 74
     3
 75
     0
 76
     0
 77
     0
 78
     0
281
     0
 65
     1
110
0.0
120
0.0
130
0.0
111
1.0
121
0.0
131
0.0
112
0.0
122
1.0
132
0.0
 79
     0
146
0.0
  0
VPORT
  5
2A7
330
8
100
AcDbSymbolTableRecord
100
AcDbViewportTableRecord
  2
L6
 70
     0
 10
0.666667
 20
0.5
 11
1.0
 21
1.0
 12
0.0
 22
0.0
 13
0.0
 23
0.0
 14
0.5
 24
0.5
 15
0.5
 25
0.5
 16
0.5773502691896259
 26
-0.5773502691896259
 36
0.5773502691896259
 17
0.0
 27
0.0
 37
0.0
 40
1295.484074
 41
0.013707
 42
50.0
 43
674.79345
 44
-674.79345
 50
0.0
 51
0.0
 71
     0
 72
   100
 73
     1
 74
     3
 75
     0
 76
     0
 77
     0
 78
     0
281
     0
 65
     1
110
0.0
120
0.0
130
0.0
111
1.0
121
0.0
131
0.0
112
0.0
122
1.0
132
0.0
 79
     0
146
0.0
  0
VPORT
  5
2A8
330
8
100
AcDbSymbolTableRecord
100
AcDbViewportTableRecord
  2
L6
 70
     0
 10
0.666667
 20
0.0
 11
1.0
 21
0.5
 12
0.0
 22
0.0
 13
0.0
 23
0.0
 14
0.5
 24
0.5
 15
0.5
 25
0.5
 16
1.0
 26
0.0
 36
0.0
 17
0.0
 27
0.0
 37
0.0
 40
1319.143726
 41
0.013461
 42
50.0
 43
667.6767099999999
 44
-667.6767099999999
 50
0.0
 51
0.0
 71
     0
 72
   100
 73
     1
 74
     3
 75
     0
 76
     0
 77
     0
 78
     0
281
     0
 65
     1
110
0.0
120
0.0
130
0.0
111
1.0
121
0.0
131
0.0
112
0.0
122
1.0
132
0.0
 79
     0
146
0.0
  0
ENDTAB
  0
TABLE
  2
LTYPE
  5
5
330
0
100
AcDbSymbolTable
 70
     7
  0
LTYPE
  5
14
330
5
100
AcDbSymbolTableRecord
100
AcDbLinetypeTableRecord
  2
ByBlock
 70
     0
  3

 72
    65
 73
     0
 40
0.0
  0
LTYPE
  5
15
330
5
100
AcDbSymbolTableRecord
100
AcDbLinetypeTableRecord
  2
ByLayer
 70
     0
  3

 72
    65
 73
     0
 40
0.0
  0
LTYPE
  5
16
330
5
100
AcDbSymbolTableRecord
100
AcDbLinetypeTableRecord
  2
Continuous
 70
     0
  3
Solid line
 72
    65
 73
     0
 40
0.0
  0
LTYPE
  5
6E
330
5
100
AcDbSymbolTableRecord
100
AcDbLinetypeTableRecord
  2
CENTER
 70
     0
  3
____ _ ____ _ ____ _ ____
 72
    65
 73
     4
 40
47.4
 49
22.0
 74
     4
 75
     0
340
0
 46
0.0
 50
0.0
 44
0.0
 45
0.0
 49
-8.5
 74
     4
 75
     0
340
0
 46
0.0
 50
0.0
 44
0.0
 45
0.0
 49
8.5
 74
     4
 75
     0
340
0
 46
0.0
 50
0.0
 44
0.0
 45
0.0
 49
-8.5
 74
     4
 75
     0
340
0
 46
0.0
 50
0.0
 44
0.0
 45
0.0
  0
LTYPE
  5
6F
330
5
100
AcDbSymbolTableRecord
100
AcDbLinetypeTableRecord
  2
DASHDOT
 70
     0
  3
_._._._._._._._._._._._._._._._.
 72
    65
 73
     4
 40
70.0
 49
31.0
 74
     4
 75
     0
340
0
 46
0.0
 50
0.0
 44
0.0
 45
0.0
 49
-13.0
 74
     4
 75
     0
340
0
 46
0.0
 50
0.0
 44
0.0
 45
0.0
 49
13.0
 74
     4
 75
     0
340
0
 46
0.0
 50
0.0
 44
0.0
 45
0.0
 49
-13.0
 74
     4
 75
     0
340
0
 46
0.0
 50
0.0
 44
0.0
 45
0.0
  0
LTYPE
  5
70
330
5
100
AcDbSymbolTableRecord
100
AcDbLinetypeTableRecord
  2
DASHED
 70
     0
  3
__ __ __ __ __ __ __ __ __
 72
    65
 73
     2
 40
25.72
 49
12.86
 74
     4
 75
     0
340
0
 46
0.0
 50
0.0
 44
0.0
 45
0.0
 49
-12.86
 74
     4
 75
     0
340
0
 46
0.0
 50
0.0
 44
0.0
 45
0.0
  0
LTYPE
  5
71
330
5
100
AcDbSymbolTableRecord
100
AcDbLinetypeTableRecord
  2
DOT
 70
     0
  3
.........................
 72
    65
 73
     2
 40
10.0
 49
0.0
 74
     4
 75
     0
340
0
 46
0.0
 50
0.0
 44
0.0
 45
0.0
 49
-10.0
 74
     4
 75
     0
340
0
 46
0.0
 50
0.0
 44
0.0
 45
0.0
  0
LTYPE
  5
72
330
5
100
AcDbSymbolTableRecord
100
AcDbLinetypeTableRecord
  2
PHANTOM
 70
     0
  3
____ _ _ ____ _ _ _____ _ _ ____
 72
    65
 73
     6
 40
50.5
 49
18.0
 74
     4
 75
     0
340
0
 46
0.0
 50
0.0
 44
0.0
 45
0.0
 49
-6.5
 74
     4
 75
     0
340
0
 46
0.0
 50
0.0
 44
0.0
 45
0.0
 49
6.5
 74
     4
 75
     0
340
0
 46
0.0
 50
0.0
 44
0.0
 45
0.0
 49
-6.5
 74
     4
 75
     0
340
0
 46
0.0
 50
0.0
 44
0.0
 45
0.0
 49
6.5
 74
     4
 75
     0
340
0
 46
0.0
 50
0.0
 44
0.0
 45
0.0
 49
-6.5
 74
     4
 75
     0
340
0
 46
0.0
 50
0.0
 44
0.0
 45
0.0
  0
LTYPE
  5
336
330
5
100
AcDbSymbolTableRecord
100
AcDbLinetypeTableRecord
  2
CENTER2
 70
     0
  3
Center (.5x) ___ _ ___ _ ___ _ ___ _ ___ _ ___
 72
    65
 73
     4
 40
1.125
 49
0.75
 74
     0
 49
-0.125
 74
     0
 49
0.125
 74
     0
 49
-0.125
 74
     0
  0
ENDTAB
  0
TABLE
  2
LAYER
  5
2
330
0
100
AcDbSymbolTable
 70
    22
  0
LAYER
  5
10
102
{ACAD_XDICTIONARY
360
341
102
}
330
2
100
AcDbSymbolTableRecord
100
AcDbLayerTableRecord
  2
0
 70
     0
 62
     7
  6
Continuous
370
    -3
390
F
  0
LAYER
  5
86
102
{ACAD_XDICTIONARY
360
343
102
}
330
2
100
AcDbSymbolTableRecord
100
AcDbLayerTableRecord
  2
95
 70
     0
 62
     7
420
 16777215
  6
Continuous
370
    -3
390
F
  0
LAYER
  5
1F4
330
2
100
AcDbSymbolTableRecord
100
AcDbLayerTableRecord
  2
Defpoints
 70
     0
 62
     7
  6
Continuous
290
     0
370
    -3
390
F
  0
LAYER
  5
333
102
{ACAD_XDICTIONARY
360
345
102
}
330
2
100
AcDbSymbolTableRecord
100
AcDbLayerTableRecord
  2
1
 70
     0
 62
     4
  6
Continuous
370
    -3
390
F
  0
LAYER
  5
334
102
{ACAD_XDICTIONARY
360
347
102
}
330
2
100
AcDbSymbolTableRecord
100
AcDbLayerTableRecord
  2
2
 70
     0
 62
     7
  6
Continuous
370
    -3
390
F
  0
LAYER
  5
335
102
{ACAD_XDICTIONARY
360
349
102
}
330
2
100
AcDbSymbolTableRecord
100
AcDbLayerTableRecord
  2
4
 70
     0
 62
     2
  6
CENTER2
370
    -3
390
F
  0
LAYER
  5
337
102
{ACAD_XDICTIONARY
360
34B
102
}
330
2
100
AcDbSymbolTableRecord
100
AcDbLayerTableRecord
  2
SK1
 70
     0
 62
     4
  6
Continuous
370
    -3
390
F
  0
LAYER
  5
338
102
{ACAD_XDICTIONARY
360
34D
102
}
330
2
100
AcDbSymbolTableRecord
100
AcDbLayerTableRecord
  2
SK2
 70
     0
 62
     7
  6
Continuous
370
    -3
390
F
  0
LAYER
  5
33A
102
{ACAD_XDICTIONARY
360
34F
102
}
330
2
100
AcDbSymbolTableRecord
100
AcDbLayerTableRecord
  2
SK4
 70
     0
 62
     2
  6
CENTER2
370
    -3
390
F
  0
LAYER
  5
33B
102
{ACAD_XDICTIONARY
360
351
102
}
330
2
100
AcDbSymbolTableRecord
100
AcDbLayerTableRecord
  2
SK6
 70
     0
 62
     5
  6
Continuous
370
    -3
390
F
  0
LAYER
  5
33C
102
{ACAD_XDICTIONARY
360
353
102
}
330
2
100
AcDbSymbolTableRecord
100
AcDbLayerTableRecord
  2
CUT
 70
     0
 62
     1
  6
Continuous
370
    -3
390
F
  0
LAYER
  5
33D
102
{ACAD_XDICTIONARY
360
355
102
}
330
2
100
AcDbSymbolTableRecord
100
AcDbLayerTableRecord
  2
NOCUT
 70
     0
 62
     7
  6
Continuous
370
    -3
390
F
  0
LAYER
  5
33E
102
{ACAD_XDICTIONARY
360
357
102
}
330
2
100
AcDbSymbolTableRecord
100
AcDbLayerTableRecord
  2
80
 70
     0
 62
     6
  6
Continuous
370
    -3
390
F
  0
LAYER
  5
33F
102
{ACAD_XDICTIONARY
360
359
102
}
330
2
100
AcDbSymbolTableRecord
100
AcDbLayerTableRecord
  2
81
 70
     0
 62
     3
  6
Continuous
370
    -3
390
F
  0
ENDTAB
  0
TABLE
  2
STYLE
  5
3
330
0
100
AcDbSymbolTable
 70
     3
  0
STYLE
  5
11
330
3
100
AcDbSymbolTableRecord
100
AcDbTextStyleTableRecord
  2
Standard
 70
     0
 40
0.0
 41
1.0
 50
0.0
 71
     0
 42
0.2
  3
txt
  4

  0
STYLE
  5
1E8
330
3
100
AcDbSymbolTableRecord
100
AcDbTextStyleTableRecord
  2
cesky
 70
     0
 40
0.0
 41
1.0
 50
0.0
 71
     0
 42
0.2
  3
simplex.shx
  4

  0
STYLE
  5
1E9
330
3
100
AcDbSymbolTableRecord
100
AcDbTextStyleTableRecord
  2
DWGDirectTextStyle
 70
     0
 40
0.0
 41
1.0
 50
0.0
 71
     0
 42
0.2
  3
simplex
  4

  0
ENDTAB
  0
TABLE
  2
VIEW
  5
6
330
0
100
AcDbSymbolTable
 70
     0
  0
ENDTAB
  0
TABLE
  2
UCS
  5
7
330
0
100
AcDbSymbolTable
 70
     0
  0
ENDTAB
  0
TABLE
  2
APPID
  5
9
330
0
100
AcDbSymbolTable
 70
     7
  0
APPID
  5
12
330
9
100
AcDbSymbolTableRecord
100
AcDbRegAppTableRecord
  2
ACAD
 70
     0
  0
APPID
  5
1F0
330
9
100
AcDbSymbolTableRecord
100
AcDbRegAppTableRecord
  2
ACAD_DSTYLE_DIMBREAK
 70
     0
  0
APPID
  5
2A9
330
9
100
AcDbSymbolTableRecord
100
AcDbRegAppTableRecord
  2
ACAD_DSTYLE_DIM_LINETYPE
 70
     0
  0
APPID
  5
2AA
330
9
100
AcDbSymbolTableRecord
100
AcDbRegAppTableRecord
  2
ACAD_DSTYLE_DIM_EXT1_LINETYPE
 70
     0
  0
APPID
  5
2AB
330
9
100
AcDbSymbolTableRecord
100
AcDbRegAppTableRecord
  2
ACAD_DSTYLE_DIM_EXT2_LINETYPE
 70
     0
  0
APPID
  5
2EB
330
9
100
AcDbSymbolTableRecord
100
AcDbRegAppTableRecord
  2
ACAD_MLEADERVER
 70
     0
  0
APPID
  5
35E
330
9
100
AcDbSymbolTableRecord
100
AcDbRegAppTableRecord
  2
ACAD_NAV_VCDISPLAY
 70
     0
  0
ENDTAB
  0
TABLE
  2
DIMSTYLE
  5
A
330
0
100
AcDbSymbolTable
 70
     1
100
AcDbDimStyleTable
 71
     0
  0
DIMSTYLE
105
27
330
A
100
AcDbSymbolTableRecord
100
AcDbDimStyleTableRecord
  2
Standard
 70
     0
340
11
1001
ACAD_DSTYLE_DIMBREAK
1070
   391
1040
6.349999999999999
  0
ENDTAB
  0
TABLE
  2
BLOCK_RECORD
  5
1
330
0
100
AcDbSymbolTable
 70
    16
  0
BLOCK_RECORD
  5
1F
102
{ACAD_XDICTIONARY
360
2FB
102
}
330
1
100
AcDbSymbolTableRecord
100
AcDbBlockTableRecord
  2
*Model_Space
340
22
  0
BLOCK_RECORD
  5
1B
330
1
100
AcDbSymbolTableRecord
100
AcDbBlockTableRecord
  2
*Paper_Space
340
1E
  0
BLOCK_RECORD
  5
23
330
1
100
AcDbSymbolTableRecord
100
AcDbBlockTableRecord
  2
*Paper_Space0
340
26
  0
BLOCK_RECORD
  5
1EB
330
1
100
AcDbSymbolTableRecord
100
AcDbBlockTableRecord
  2
ASSORTED_DRAFT1
340
0
  0
BLOCK_RECORD
  5
1F5
330
1
100
AcDbSymbolTableRecord
100
AcDbBlockTableRecord
  2
*D2
340
0
  0
BLOCK_RECORD
  5
200
330
1
100
AcDbSymbolTableRecord
100
AcDbBlockTableRecord
  2
_U0
340
0
  0
BLOCK_RECORD
  5
20B
330
1
100
AcDbSymbolTableRecord
100
AcDbBlockTableRecord
  2
*D4
340
0
  0
BLOCK_RECORD
  5
217
330
1
100
AcDbSymbolTableRecord
100
AcDbBlockTableRecord
  2
_U1
340
0
  0
BLOCK_RECORD
  5
224
330
1
100
AcDbSymbolTableRecord
100
AcDbBlockTableRecord
  2
*D6
340
0
  0
BLOCK_RECORD
  5
230
330
1
100
AcDbSymbolTableRecord
100
AcDbBlockTableRecord
  2
_U2
340
0
  0
BLOCK_RECORD
  5
23D
330
1
100
AcDbSymbolTableRecord
100
AcDbBlockTableRecord
  2
*D8
340
0
  0
BLOCK_RECORD
  5
249
330
1
100
AcDbSymbolTableRecord
100
AcDbBlockTableRecord
  2
_U3
340
0
  0
BLOCK_RECORD
  5
255
330
1
100
AcDbSymbolTableRecord
100
AcDbBlockTableRecord
  2
*D10
340
0
  0
BLOCK_RECORD
  5
261
330
1
100
AcDbSymbolTableRecord
100
AcDbBlockTableRecord
  2
_U4
340
0
  0
BLOCK_RECORD
  5
26D
330
1
100
AcDbSymbolTableRecord
100
AcDbBlockTableRecord
  2
*D12
340
0
  0
BLOCK_RECORD
  5
279
330
1
100
AcDbSymbolTableRecord
100
AcDbBlockTableRecord
  2
_U5
340
0
  0
BLOCK_RECORD
  5
285
330
1
100
AcDbSymbolTableRecord
100
AcDbBlockTableRecord
  2
*D14
340
0
  0
BLOCK_RECORD
  5
291
330
1
100
AcDbSymbolTableRecord
100
AcDbBlockTableRecord
  2
_U6
340
0
  0
ENDTAB
  0
ENDSEC
  0
SECTION
  2
BLOCKS
  0
BLOCK
  5
20
330
1F
100
AcDbEntity
  8
0
100
AcDbBlockBegin
  2
*Model_Space
 70
     0
 10
0.0
 20
0.0
 30
0.0
  3
*Model_Space
  1

  0
ENDBLK
  5
21
330
1F
100
AcDbEntity
  8
0
100
AcDbBlockEnd
  0
BLOCK
  5
1C
330
1B
100
AcDbEntity
 67
     1
  8
0
100
AcDbBlockBegin
  2
*Paper_Space
 70
     0
 10
0.0
 20
0.0
 30
0.0
  3
*Paper_Space
  1

  0
ENDBLK
  5
1D
330
1B
100
AcDbEntity
 67
     1
  8
0
100
AcDbBlockEnd
  0
BLOCK
  5
24
330
23
100
AcDbEntity
 67
     1
  8
0
100
AcDbBlockBegin
  2
*Paper_Space0
 70
     0
 10
0.0
 20
0.0
 30
0.0
  3
*Paper_Space0
  1

  0
ENDBLK
  5
25
330
23
100
AcDbEntity
 67
     1
  8
0
100
AcDbBlockEnd
  0
BLOCK
  5
1EE
330
1EB
100
AcDbEntity
  8
0
100
AcDbBlockBegin
  2
ASSORTED_DRAFT1
 70
     0
 10
0.0
 20
0.0
 30
0.0
  3
ASSORTED_DRAFT1
  1

  0
SOLID
  5
1EC
330
1EB
100
AcDbEntity
  8
0
 62
   254
370
    13
100
AcDbTrace
 10
270.185042
 20
169.2725
 30
0.0
 11
265.185046
 21
168.164026
 31
0.0
 12
265.1850379999999
 22
170.380973
 32
0.0
 13
270.185042
 23
169.2725
 33
0.0
  0
ENDBLK
  5
1EF
330
1EB
100
AcDbEntity
  8
0
100
AcDbBlockEnd
  0
BLOCK
  5
1F6
330
1F5
100
AcDbEntity
  8
0
100
AcDbBlockBegin
  2
*D2
 70
     1
 10
0.0
 20
0.0
 30
0.0
  3
*D2
  1

  0
LINE
  5
1F8
330
1F5
100
AcDbEntity
  8
0
 62
   254
370
    -2
100
AcDbLine
 10
286.168717
 20
288.907994
 30
0.0
 11
398.338957
 21
288.907994
 31
0.0
  0
LINE
  5
1F9
330
1F5
100
AcDbEntity
  8
0
 62
   254
370
    -2
100
AcDbLine
 10
330.83929
 20
308.907994
 30
0.0
 11
398.338957
 21
308.907994
 31
0.0
  0
LINE
  5
1FA
330
1F5
100
AcDbEntity
  8
0
 62
   254
370
    -2
100
AcDbLine
 10
397.338957
 20
288.907994
 30
0.0
 11
397.338957
 21
308.907994
 31
0.0
  0
SOLID
  5
1FB
330
1F5
100
AcDbEntity
  8
0
 62
   254
100
AcDbTrace
 10
397.922291
 20
305.407994
 30
0.0
 11
396.755624
 21
305.407994
 31
0.0
 12
397.338957
 22
308.907994
 32
0.0
 13
397.338957
 23
308.907994
 33
0.0
  0
MTEXT
  5
1FC
330
1F5
100
AcDbEntity
  8
0
 62
   254
370
    13
100
AcDbMText
 10
392.088957
 20
279.07466
 30
0.0
 40
3.5
 41
0.0
 71
     5
 72
     1
  1
\A1;40
  7
cesky
 11
0.0
 21
1.0
 31
0.0
 73
     1
 44
1.0
  0
POINT
  5
1FD
330
1F5
100
AcDbEntity
  8
Defpoints
 62
     0
100
AcDbPoint
 10
286.168717
 20
288.907994
 30
0.0
  0
POINT
  5
1FE
330
1F5
100
AcDbEntity
  8
Defpoints
 62
     0
100
AcDbPoint
 10
330.83929
 20
308.907994
 30
0.0
  0
POINT
  5
1FF
330
1F5
100
AcDbEntity
  8
Defpoints
 62
     0
100
AcDbPoint
 10
397.338957
 20
308.907994
 30
0.0
  0
ENDBLK
  5
1F7
330
1F5
100
AcDbEntity
  8
0
100
AcDbBlockEnd
  0
BLOCK
  5
206
330
200
100
AcDbEntity
  8
0
100
AcDbBlockBegin
  2
_U0
 70
     0
 10
0.0
 20
0.0
 30
0.0
  3
_U0
  1

  0
ENDBLK
  5
207
330
200
100
AcDbEntity
  8
0
100
AcDbBlockEnd
  0
BLOCK
  5
20C
330
20B
100
AcDbEntity
  8
0
100
AcDbBlockBegin
  2
*D4
 70
     1
 10
0.0
 20
0.0
 30
0.0
  3
*D4
  1

  0
LINE
  5
20E
330
20B
100
AcDbEntity
  8
0
 62
    95
370
    -2
100
AcDbLine
 10
216.404842
 20
304.907994
 30
0.0
 11
203.037875
 21
304.907994
 31
0.0
  0
LINE
  5
20F
330
20B
100
AcDbEntity
  8
0
 62
    95
370
    -2
100
AcDbLine
 10
216.404842
 20
272.907994
 30
0.0
 11
203.037875
 21
272.907994
 31
0.0
  0
LINE
  5
210
330
20B
100
AcDbEntity
  8
0
 62
    95
370
    -2
100
AcDbLine
 10
204.037875
 20
301.407994
 30
0.0
 11
204.037875
 21
276.407994
 31
0.0
  0
SOLID
  5
211
330
20B
100
AcDbEntity
  8
0
 62
    95
100
AcDbTrace
 10
204.621208
 20
301.407994
 30
0.0
 11
203.454542
 21
301.407994
 31
0.0
 12
204.037875
 22
304.907994
 32
0.0
 13
204.037875
 23
304.907994
 33
0.0
  0
SOLID
  5
212
330
20B
100
AcDbEntity
  8
0
 62
    95
100
AcDbTrace
 10
203.454542
 20
276.407994
 30
0.0
 11
204.621208
 21
276.407994
 31
0.0
 12
204.037875
 22
272.907994
 32
0.0
 13
204.037875
 23
272.907994
 33
0.0
  0
MTEXT
  5
213
330
20B
100
AcDbEntity
  8
0
 62
    95
370
    13
100
AcDbMText
 10
198.787875
 20
288.907994
 30
0.0
 40
3.5
 41
0.0
 71
     5
 72
     1
  1
\A1;32
  7
cesky
 11
0.0
 21
1.0
 31
0.0
 73
     1
 44
1.0
  0
POINT
  5
214
330
20B
100
AcDbEntity
  8
Defpoints
 62
     0
100
AcDbPoint
 10
216.404842
 20
304.907994
 30
0.0
  0
POINT
  5
215
330
20B
100
AcDbEntity
  8
Defpoints
 62
     0
100
AcDbPoint
 10
216.404842
 20
272.907994
 30
0.0
  0
POINT
  5
216
330
20B
100
AcDbEntity
  8
Defpoints
 62
     0
100
AcDbPoint
 10
204.037875
 20
272.907994
 30
0.0
  0
ENDBLK
  5
20D
330
20B
100
AcDbEntity
  8
0
100
AcDbBlockEnd
  0
BLOCK
  5
21F
330
217
100
AcDbEntity
  8
0
100
AcDbBlockBegin
  2
_U1
 70
     0
 10
0.0
 20
0.0
 30
0.0
  3
_U1
  1

  0
ENDBLK
  5
220
330
217
100
AcDbEntity
  8
0
100
AcDbBlockEnd
  0
BLOCK
  5
225
330
224
100
AcDbEntity
  8
0
100
AcDbBlockBegin
  2
*D6
 70
     1
 10
0.0
 20
0.0
 30
0.0
  3
*D6
  1

  0
LINE
  5
227
330
224
100
AcDbEntity
  8
0
 62
    95
370
    -2
100
AcDbLine
 10
277.154842
 20
309.907994
 30
0.0
 11
190.287987
 21
309.907994
 31
0.0
  0
LINE
  5
228
330
224
100
AcDbEntity
  8
0
 62
    95
370
    -2
100
AcDbLine
 10
277.154842
 20
267.907994
 30
0.0
 11
190.287987
 21
267.907994
 31
0.0
  0
LINE
  5
229
330
224
100
AcDbEntity
  8
0
 62
    95
370
    -2
100
AcDbLine
 10
191.287987
 20
306.407994
 30
0.0
 11
191.287987
 21
271.407994
 31
0.0
  0
SOLID
  5
22A
330
224
100
AcDbEntity
  8
0
 62
    95
100
AcDbTrace
 10
191.87132
 20
306.407994
 30
0.0
 11
190.704653
 21
306.407994
 31
0.0
 12
191.287987
 22
309.907994
 32
0.0
 13
191.287987
 23
309.907994
 33
0.0
  0
SOLID
  5
22B
330
224
100
AcDbEntity
  8
0
 62
    95
100
AcDbTrace
 10
190.704653
 20
271.407994
 30
0.0
 11
191.87132
 21
271.407994
 31
0.0
 12
191.287987
 22
267.907994
 32
0.0
 13
191.287987
 23
267.907994
 33
0.0
  0
MTEXT
  5
22C
330
224
100
AcDbEntity
  8
0
 62
    95
370
    13
100
AcDbMText
 10
186.037987
 20
288.907994
 30
0.0
 40
3.5
 41
0.0
 71
     5
 72
     1
  1
\A1;42
  7
cesky
 11
0.0
 21
1.0
 31
0.0
 73
     1
 44
1.0
  0
POINT
  5
22D
330
224
100
AcDbEntity
  8
Defpoints
 62
     0
100
AcDbPoint
 10
277.154842
 20
309.907994
 30
0.0
  0
POINT
  5
22E
330
224
100
AcDbEntity
  8
Defpoints
 62
     0
100
AcDbPoint
 10
277.154842
 20
267.907994
 30
0.0
  0
POINT
  5
22F
330
224
100
AcDbEntity
  8
Defpoints
 62
     0
100
AcDbPoint
 10
191.287987
 20
267.907994
 30
0.0
  0
ENDBLK
  5
226
330
224
100
AcDbEntity
  8
0
100
AcDbBlockEnd
  0
BLOCK
  5
238
330
230
100
AcDbEntity
  8
0
100
AcDbBlockBegin
  2
_U2
 70
     0
 10
0.0
 20
0.0
 30
0.0
  3
_U2
  1

  0
ENDBLK
  5
239
330
230
100
AcDbEntity
  8
0
100
AcDbBlockEnd
  0
BLOCK
  5
23E
330
23D
100
AcDbEntity
  8
0
100
AcDbBlockBegin
  2
*D8
 70
     1
 10
0.0
 20
0.0
 30
0.0
  3
*D8
  1

  0
LINE
  5
240
330
23D
100
AcDbEntity
  8
0
 62
   254
370
    -2
100
AcDbLine
 10
379.404842
 20
310.907994
 30
0.0
 11
379.404842
 21
341.687968
 31
0.0
  0
LINE
  5
241
330
23D
100
AcDbEntity
  8
0
 62
   254
370
    -2
100
AcDbLine
 10
214.404842
 20
302.907994
 30
0.0
 11
214.404842
 21
341.687968
 31
0.0
  0
LINE
  5
242
330
23D
100
AcDbEntity
  8
0
 62
   254
370
    -2
100
AcDbLine
 10
375.904842
 20
340.687968
 30
0.0
 11
217.904842
 21
340.687968
 31
0.0
  0
SOLID
  5
243
330
23D
100
AcDbEntity
  8
0
 62
   254
100
AcDbTrace
 10
375.904842
 20
340.104634
 30
0.0
 11
375.904842
 21
341.271301
 31
0.0
 12
379.404842
 22
340.687968
 32
0.0
 13
379.404842
 23
340.687968
 33
0.0
  0
SOLID
  5
244
330
23D
100
AcDbEntity
  8
0
 62
   254
100
AcDbTrace
 10
217.904842
 20
341.271301
 30
0.0
 11
217.904842
 21
340.104634
 31
0.0
 12
214.404842
 22
340.687968
 32
0.0
 13
214.404842
 23
340.687968
 33
0.0
  0
MTEXT
  5
245
330
23D
100
AcDbEntity
  8
0
 62
   254
370
    13
100
AcDbMText
 10
296.904842
 20
345.937968
 30
0.0
 40
3.5
 41
0.0
 71
     5
 72
     1
  1
\A1;165
  7
cesky
 73
     1
 44
1.0
  0
POINT
  5
246
330
23D
100
AcDbEntity
  8
Defpoints
 62
     0
100
AcDbPoint
 10
379.404842
 20
310.907994
 30
0.0
  0
POINT
  5
247
330
23D
100
AcDbEntity
  8
Defpoints
 62
     0
100
AcDbPoint
 10
214.404842
 20
302.907994
 30
0.0
  0
POINT
  5
248
330
23D
100
AcDbEntity
  8
Defpoints
 62
     0
100
AcDbPoint
 10
214.404842
 20
340.687968
 30
0.0
  0
ENDBLK
  5
23F
330
23D
100
AcDbEntity
  8
0
100
AcDbBlockEnd
  0
BLOCK
  5
250
330
249
100
AcDbEntity
  8
0
100
AcDbBlockBegin
  2
_U3
 70
     0
 10
0.0
 20
0.0
 30
0.0
  3
_U3
  1

  0
ENDBLK
  5
251
330
249
100
AcDbEntity
  8
0
100
AcDbBlockEnd
  0
BLOCK
  5
256
330
255
100
AcDbEntity
  8
0
100
AcDbBlockBegin
  2
*D10
 70
     1
 10
0.0
 20
0.0
 30
0.0
  3
*D10
  1

  0
LINE
  5
258
330
255
100
AcDbEntity
  8
0
 62
   254
370
    -2
100
AcDbLine
 10
274.404842
 20
288.907994
 30
0.0
 11
274.404842
 21
328.5109970000001
 31
0.0
  0
LINE
  5
259
330
255
100
AcDbEntity
  8
0
 62
   254
370
    -2
100
AcDbLine
 10
214.404842
 20
295.907994
 30
0.0
 11
214.404842
 21
328.5109970000001
 31
0.0
  0
LINE
  5
25A
330
255
100
AcDbEntity
  8
0
 62
   254
370
    -2
100
AcDbLine
 10
270.904842
 20
327.510997
 30
0.0
 11
217.904842
 21
327.510997
 31
0.0
  0
SOLID
  5
25B
330
255
100
AcDbEntity
  8
0
 62
   254
100
AcDbTrace
 10
270.904842
 20
326.927663
 30
0.0
 11
270.904842
 21
328.09433
 31
0.0
 12
274.404842
 22
327.510997
 32
0.0
 13
274.404842
 23
327.510997
 33
0.0
  0
SOLID
  5
25C
330
255
100
AcDbEntity
  8
0
 62
   254
100
AcDbTrace
 10
217.904842
 20
328.09433
 30
0.0
 11
217.904842
 21
326.927663
 31
0.0
 12
214.404842
 22
327.510997
 32
0.0
 13
214.404842
 23
327.510997
 33
0.0
  0
MTEXT
  5
25D
330
255
100
AcDbEntity
  8
0
 62
   254
370
    13
100
AcDbMText
 10
244.404842
 20
332.7609970000001
 30
0.0
 40
3.5
 41
0.0
 71
     5
 72
     1
  1
\A1;60
  7
cesky
 73
     1
 44
1.0
  0
POINT
  5
25E
330
255
100
AcDbEntity
  8
Defpoints
 62
     0
100
AcDbPoint
 10
274.404842
 20
288.907994
 30
0.0
  0
POINT
  5
25F
330
255
100
AcDbEntity
  8
Defpoints
 62
     0
100
AcDbPoint
 10
214.404842
 20
295.907994
 30
0.0
  0
POINT
  5
260
330
255
100
AcDbEntity
  8
Defpoints
 62
     0
100
AcDbPoint
 10
214.404842
 20
327.510997
 30
0.0
  0
ENDBLK
  5
257
330
255
100
AcDbEntity
  8
0
100
AcDbBlockEnd
  0
BLOCK
  5
268
330
261
100
AcDbEntity
  8
0
100
AcDbBlockBegin
  2
_U4
 70
     0
 10
0.0
 20
0.0
 30
0.0
  3
_U4
  1

  0
ENDBLK
  5
269
330
261
100
AcDbEntity
  8
0
100
AcDbBlockEnd
  0
BLOCK
  5
26E
330
26D
100
AcDbEntity
  8
0
100
AcDbBlockBegin
  2
*D12
 70
     1
 10
0.0
 20
0.0
 30
0.0
  3
*D12
  1

  0
LINE
  5
270
330
26D
100
AcDbEntity
  8
0
 62
   254
370
    -2
100
AcDbLine
 10
379.404842
 20
308.907994
 30
0.0
 11
379.404842
 21
318.036339
 31
0.0
  0
LINE
  5
271
330
26D
100
AcDbEntity
  8
0
 62
   254
370
    -2
100
AcDbLine
 10
289.37063
 20
308.604824
 30
0.0
 11
289.37063
 21
318.036339
 31
0.0
  0
LINE
  5
272
330
26D
100
AcDbEntity
  8
0
 62
   254
370
    -2
100
AcDbLine
 10
375.904842
 20
317.036339
 30
0.0
 11
292.87063
 21
317.036339
 31
0.0
  0
SOLID
  5
273
330
26D
100
AcDbEntity
  8
0
 62
   254
100
AcDbTrace
 10
375.904842
 20
316.453006
 30
0.0
 11
375.904842
 21
317.619673
 31
0.0
 12
379.404842
 22
317.036339
 32
0.0
 13
379.404842
 23
317.036339
 33
0.0
  0
SOLID
  5
274
330
26D
100
AcDbEntity
  8
0
 62
   254
100
AcDbTrace
 10
292.87063
 20
317.619673
 30
0.0
 11
292.87063
 21
316.453006
 31
0.0
 12
289.37063
 22
317.036339
 32
0.0
 13
289.37063
 23
317.036339
 33
0.0
  0
MTEXT
  5
275
330
26D
100
AcDbEntity
  8
0
 62
   254
370
    13
100
AcDbMText
 10
334.387736
 20
322.286339
 30
0.0
 40
3.5
 41
0.0
 71
     5
 72
     1
  1
\A1;90
  7
cesky
 73
     1
 44
1.0
  0
POINT
  5
276
330
26D
100
AcDbEntity
  8
Defpoints
 62
     0
100
AcDbPoint
 10
379.404842
 20
308.907994
 30
0.0
  0
POINT
  5
277
330
26D
100
AcDbEntity
  8
Defpoints
 62
     0
100
AcDbPoint
 10
289.37063
 20
308.604824
 30
0.0
  0
POINT
  5
278
330
26D
100
AcDbEntity
  8
Defpoints
 62
     0
100
AcDbPoint
 10
289.37063
 20
317.036339
 30
0.0
  0
ENDBLK
  5
26F
330
26D
100
AcDbEntity
  8
0
100
AcDbBlockEnd
  0
BLOCK
  5
280
330
279
100
AcDbEntity
  8
0
100
AcDbBlockBegin
  2
_U5
 70
     0
 10
0.0
 20
0.0
 30
0.0
  3
_U5
  1

  0
ENDBLK
  5
281
330
279
100
AcDbEntity
  8
0
100
AcDbBlockEnd
  0
BLOCK
  5
286
330
285
100
AcDbEntity
  8
0
100
AcDbBlockBegin
  2
*D14
 70
     1
 10
0.0
 20
0.0
 30
0.0
  3
*D14
  1

  0
LINE
  5
288
330
285
100
AcDbEntity
  8
0
 62
   254
370
    -2
100
AcDbLine
 10
379.404842
 20
308.907994
 30
0.0
 11
379.404842
 21
328.5109970000001
 31
0.0
  0
LINE
  5
289
330
285
100
AcDbEntity
  8
0
 62
   254
370
    -2
100
AcDbLine
 10
274.404842
 20
288.907994
 30
0.0
 11
274.404842
 21
328.5109970000001
 31
0.0
  0
LINE
  5
28A
330
285
100
AcDbEntity
  8
0
 62
   254
370
    -2
100
AcDbLine
 10
375.904842
 20
327.510997
 30
0.0
 11
277.904842
 21
327.510997
 31
0.0
  0
SOLID
  5
28B
330
285
100
AcDbEntity
  8
0
 62
   254
100
AcDbTrace
 10
375.904842
 20
326.927663
 30
0.0
 11
375.904842
 21
328.09433
 31
0.0
 12
379.404842
 22
327.510997
 32
0.0
 13
379.404842
 23
327.510997
 33
0.0
  0
SOLID
  5
28C
330
285
100
AcDbEntity
  8
0
 62
   254
100
AcDbTrace
 10
277.904842
 20
328.09433
 30
0.0
 11
277.904842
 21
326.927663
 31
0.0
 12
274.404842
 22
327.510997
 32
0.0
 13
274.404842
 23
327.510997
 33
0.0
  0
MTEXT
  5
28D
330
285
100
AcDbEntity
  8
0
 62
   254
370
    13
100
AcDbMText
 10
326.904842
 20
332.7609970000001
 30
0.0
 40
3.5
 41
0.0
 71
     5
 72
     1
  1
\A1;105
  7
cesky
 73
     1
 44
1.0
  0
POINT
  5
28E
330
285
100
AcDbEntity
  8
Defpoints
 62
     0
100
AcDbPoint
 10
379.404842
 20
308.907994
 30
0.0
  0
POINT
  5
28F
330
285
100
AcDbEntity
  8
Defpoints
 62
     0
100
AcDbPoint
 10
274.404842
 20
288.907994
 30
0.0
  0
POINT
  5
290
330
285
100
AcDbEntity
  8
Defpoints
 62
     0
100
AcDbPoint
 10
274.404842
 20
327.510997
 30
0.0
  0
ENDBLK
  5
287
330
285
100
AcDbEntity
  8
0
100
AcDbBlockEnd
  0
BLOCK
  5
298
330
291
100
AcDbEntity
  8
0
100
AcDbBlockBegin
  2
_U6
 70
     0
 10
0.0
 20
0.0
 30
0.0
  3
_U6
  1

  0
ENDBLK
  5
299
330
291
100
AcDbEntity
  8
0
100
AcDbBlockEnd
  0
ENDSEC
  0
SECTION
  2
ENTITIES
  0
POINT
  5
73
102
{ACAD_REACTORS
330
340
102
}
330
1F
100
AcDbEntity
  8
80
100
AcDbPoint
 10
274.404842
 20
288.907994
 30
0.0
  0
POINT
  5
76
330
1F
100
AcDbEntity
  8
4
 60
     1
100
AcDbPoint
 10
286.168717
 20
288.907994
 30
0.0
  0
POINT
  5
78
330
1F
100
AcDbEntity
  8
4
 60
     1
100
AcDbPoint
 10
378.327157
 20
288.907994
 30
0.0
  0
POINT
  5
79
330
1F
100
AcDbEntity
  8
SK4
 60
     1
100
AcDbPoint
 10
216.404842
 20
288.907994
 30
0.0
  0
POINT
  5
7A
330
1F
100
AcDbEntity
  8
SK4
 60
     1
100
AcDbPoint
 10
274.404842
 20
288.907994
 30
0.0
  0
POINT
  5
7B
330
1F
100
AcDbEntity
  8
SK6
 60
     1
100
AcDbPoint
 10
274.404842
 20
288.907994
 30
0.0
  0
POINT
  5
7C
330
1F
100
AcDbEntity
  8
SK6
 60
     1
100
AcDbPoint
 10
289.37063
 20
308.604824
 30
0.0
  0
LINE
  5
7D
330
1F
100
AcDbEntity
  8
81
100
AcDbLine
 10
379.404842
 20
310.907994
 30
0.0
 11
379.404842
 21
306.907994
 31
0.0
  0
LINE
  5
7E
330
1F
100
AcDbEntity
  8
SK1
100
AcDbLine
 10
216.404842
 20
272.907994
 30
0.0
 11
274.404842
 21
272.907994
 31
0.0
  0
LINE
  5
80
330
1F
100
AcDbEntity
  8
80
100
AcDbLine
 10
274.404842
 20
287.90842
 30
0.0
 11
274.404842
 21
289.907567
 31
0.0
  0
LINE
  5
81
330
1F
100
AcDbEntity
  8
81
100
AcDbLine
 10
377.404842
 20
308.907994
 30
0.0
 11
381.404842
 21
308.907994
 31
0.0
  0
LINE
  5
82
330
1F
100
AcDbEntity
  8
1
100
AcDbLine
 10
274.904842
 20
267.907994
 30
0.0
 11
279.404842
 21
267.907994
 31
0.0
  0
LINE
  5
83
330
1F
100
AcDbEntity
  8
1
100
AcDbLine
 10
274.404842
 20
309.407994
 30
0.0
 11
274.404842
 21
288.907994
 31
0.0
  0
LINE
  5
84
330
1F
100
AcDbEntity
  8
1
100
AcDbLine
 10
274.404842
 20
288.907994
 30
0.0
 11
274.404842
 21
268.407994
 31
0.0
  0
LINE
  5
88
330
1F
100
AcDbEntity
  8
80
100
AcDbLine
 10
275.404416
 20
288.907994
 30
0.0
 11
273.405268
 21
288.907994
 31
0.0
  0
LINE
  5
89
330
1F
100
AcDbEntity
  8
1
100
AcDbLine
 10
377.527504
 20
277.985266
 30
0.0
 11
378.012841
 21
282.557994
 31
0.0
  0
LINE
  5
8A
330
1F
100
AcDbEntity
  8
1
100
AcDbLine
 10
378.012841
 20
282.557994
 30
0.0
 11
378.012841
 21
288.966448
 31
0.0
  0
LINE
  5
8B
330
1F
100
AcDbEntity
  8
1
100
AcDbLine
 10
377.9622310000001
 20
277.089134
 30
0.0
 11
377.720441
 21
277.482115
 31
0.0
  0
LINE
  5
8C
330
1F
100
AcDbEntity
  8
1
100
AcDbLine
 10
377.9622310000001
 20
277.089134
 30
0.0
 11
377.936949
 21
276.850934
 31
0.0
  0
LINE
  5
8D
330
1F
100
AcDbEntity
  8
1
100
AcDbLine
 10
378.25918
 20
289.462224
 30
0.0
 11
378.54268
 21
289.846397
 31
0.0
  0
LINE
  5
8E
330
1F
100
AcDbEntity
  8
1
100
AcDbLine
 10
378.54268
 20
290.085008
 30
0.0
 11
378.54268
 21
289.846397
 31
0.0
  0
LINE
  5
8F
330
1F
100
AcDbEntity
  8
1
100
AcDbLine
 10
377.189138
 20
269.407994
 30
0.0
 11
377.979039
 21
276.85026
 31
0.0
  0
LINE
  5
90
330
1F
100
AcDbEntity
  8
1
100
AcDbLine
 10
377.189138
 20
269.407994
 30
0.0
 11
359.067894
 21
269.407994
 31
0.0
  0
LINE
  5
91
330
1F
100
AcDbEntity
  8
1
100
AcDbLine
 10
378.584842
 20
296.229775
 30
0.0
 11
378.584842
 21
290.084272
 31
0.0
  0
LINE
  5
92
330
1F
100
AcDbEntity
  8
1
100
AcDbLine
 10
274.904842
 20
267.907994
 30
0.0
 11
274.904842
 21
288.907994
 31
0.0
  0
LINE
  5
93
330
1F
100
AcDbEntity
  8
1
100
AcDbLine
 10
274.904842
 20
288.907994
 30
0.0
 11
274.904842
 21
309.907994
 31
0.0
  0
LINE
  5
94
330
1F
100
AcDbEntity
  8
1
100
AcDbLine
 10
371.007939
 20
302.288779
 30
0.0
 11
371.04343
 21
302.3894
 31
0.0
  0
LINE
  5
96
330
1F
100
AcDbEntity
  8
1
100
AcDbLine
 10
373.595694
 20
301.939341
 30
0.0
 11
373.560203
 21
301.83872
 31
0.0
  0
LINE
  5
97
330
1F
100
AcDbEntity
  8
1
100
AcDbLine
 10
368.915229
 20
303.335397
 30
0.0
 11
368.8991
 21
303.289667
 31
0.0
  0
LINE
  5
98
330
1F
100
AcDbEntity
  8
1
100
AcDbLine
 10
375.689109
 20
300.894721
 30
0.0
 11
375.705239
 21
300.940451
 31
0.0
  0
LINE
  5
99
330
1F
100
AcDbEntity
  8
1
100
AcDbLine
 10
371.582068
 20
300.744997
 30
0.0
 11
371.616352
 21
300.842195
 31
0.0
  0
LINE
  5
9A
330
1F
100
AcDbEntity
  8
1
100
AcDbLine
 10
372.377836
 20
300.688975
 30
0.0
 11
372.3434220000001
 21
300.591407
 31
0.0
  0
LINE
  5
9B
330
1F
100
AcDbEntity
  8
1
100
AcDbLine
 10
372.224721
 20
303.536092
 30
0.0
 11
372.259135
 21
303.63366
 31
0.0
  0
LINE
  5
9C
330
1F
100
AcDbEntity
  8
1
100
AcDbLine
 10
373.0021220000001
 20
303.427997
 30
0.0
 11
372.986074
 21
303.382501
 31
0.0
  0
LINE
  5
9D
330
1F
100
AcDbEntity
  8
SK1
100
AcDbLine
 10
274.404842
 20
304.907994
 30
0.0
 11
216.404842
 21
304.907994
 31
0.0
  0
LINE
  5
9E
330
1F
100
AcDbEntity
  8
1
100
AcDbLine
 10
274.904842
 20
267.907994
 30
0.0
 11
274.404842
 21
268.407994
 31
0.0
  0
LINE
  5
9F
330
1F
100
AcDbEntity
  8
1
100
AcDbLine
 10
274.404842
 20
309.407994
 30
0.0
 11
274.904842
 21
309.907994
 31
0.0
  0
LINE
  5
A0
330
1F
100
AcDbEntity
  8
1
100
AcDbLine
 10
279.404842
 20
309.907994
 30
0.0
 11
274.904842
 21
309.907994
 31
0.0
  0
LINE
  5
A1
330
1F
100
AcDbEntity
  8
1
100
AcDbLine
 10
370.942114
 20
302.912294
 30
0.0
 11
370.908287
 21
302.81639
 31
0.0
  0
LINE
  5
A2
330
1F
100
AcDbEntity
  8
1
100
AcDbLine
 10
371.007245
 20
302.852654
 30
0.0
 11
370.972868
 21
302.755191
 31
0.0
  0
LINE
  5
A3
330
1F
100
AcDbEntity
  8
1
100
AcDbLine
 10
373.763261
 20
302.110525
 30
0.0
 11
373.797653
 21
302.208031
 31
0.0
  0
LINE
  5
A4
330
1F
100
AcDbEntity
  8
1
100
AcDbLine
 10
371.056052
 20
301.370344
 30
0.0
 11
371.021729
 21
301.273035
 31
0.0
  0
LINE
  5
A5
330
1F
100
AcDbEntity
  8
1
100
AcDbLine
 10
371.012741
 20
301.349783
 30
0.0
 11
370.978718
 21
301.253323
 31
0.0
  0
LINE
  5
A6
330
1F
100
AcDbEntity
  8
1
100
AcDbLine
 10
373.071756
 20
300.80162
 30
0.0
 11
373.106092
 21
300.898968
 31
0.0
  0
LINE
  5
A7
330
1F
100
AcDbEntity
  8
1
100
AcDbLine
 10
373.109328
 20
300.758667
 30
0.0
 11
373.143302
 21
300.85499
 31
0.0
  0
LINE
  5
A8
330
1F
100
AcDbEntity
  8
1
100
AcDbLine
 10
363.798234
 20
292.104623
 30
0.0
 11
363.830334
 21
291.166429
 31
0.0
  0
LINE
  5
A9
330
1F
100
AcDbEntity
  8
1
100
AcDbLine
 10
376.838242
 20
295.122591
 30
0.0
 11
367.285239
 21
294.78934
 31
0.0
  0
LINE
  5
AA
330
1F
100
AcDbEntity
  8
1
100
AcDbLine
 10
368.915229
 20
303.335397
 30
0.0
 11
368.915121
 21
303.33509
 31
0.0
  0
LINE
  5
AB
330
1F
100
AcDbEntity
  8
1
100
AcDbLine
 10
369.674378
 20
295.628003
 30
0.0
 11
378.38366
 21
295.931821
 31
0.0
  0
LINE
  5
AC
330
1F
100
AcDbEntity
  8
1
100
AcDbLine
 10
378.385434
 20
295.676271
 30
0.0
 11
378.38366
 21
295.931821
 31
0.0
  0
LINE
  5
AD
330
1F
100
AcDbEntity
  8
1
100
AcDbLine
 10
378.309513
 20
295.146222
 30
0.0
 11
367.293071
 21
294.76192
 31
0.0
  0
LINE
  5
AE
330
1F
100
AcDbEntity
  8
1
100
AcDbLine
 10
378.309513
 20
295.146222
 30
0.0
 11
375.861514
 21
291.090448
 31
0.0
  0
LINE
  5
AF
330
1F
100
AcDbEntity
  8
1
100
AcDbLine
 10
378.425665
 20
295.947939
 30
0.0
 11
369.679611
 21
295.642838
 31
0.0
  0
LINE
  5
B0
330
1F
100
AcDbEntity
  8
1
100
AcDbLine
 10
369.674378
 20
295.628003
 30
0.0
 11
369.679611
 21
295.642838
 31
0.0
  0
LINE
  5
B1
330
1F
100
AcDbEntity
  8
1
100
AcDbLine
 10
365.938075
 20
307.811238
 30
0.0
 11
365.919628
 21
308.348019
 31
0.0
  0
LINE
  5
B2
330
1F
100
AcDbEntity
  8
1
100
AcDbLine
 10
366.015587
 20
299.027319
 30
0.0
 11
366.010354
 21
299.012484
 31
0.0
  0
LINE
  5
B3
330
1F
100
AcDbEntity
  8
1
100
AcDbLine
 10
366.015587
 20
299.027319
 30
0.0
 11
365.695264
 21
308.348325
 31
0.0
  0
LINE
  5
B4
330
1F
100
AcDbEntity
  8
1
100
AcDbLine
 10
365.690407
 20
308.32256
 30
0.0
 11
366.010354
 21
299.012484
 31
0.0
  0
LINE
  5
B5
330
1F
100
AcDbEntity
  8
1
100
AcDbLine
 10
378.425665
 20
295.947939
 30
0.0
 11
378.424109
 21
296.172015
 31
0.0
  0
LINE
  5
B6
330
1F
100
AcDbEntity
  8
1
100
AcDbLine
 10
378.425665
 20
295.947939
 30
0.0
 11
378.38366
 21
295.931821
 31
0.0
  0
LINE
  5
B7
330
1F
100
AcDbEntity
  8
1
100
AcDbLine
 10
377.979039
 20
276.85026
 30
0.0
 11
377.936949
 21
276.850934
 31
0.0
  0
LINE
  5
B8
330
1F
100
AcDbEntity
  8
1
100
AcDbLine
 10
377.720441
 20
277.482115
 30
0.0
 11
377.54467
 21
277.484928
 31
0.0
  0
LINE
  5
B9
330
1F
100
AcDbEntity
  8
1
100
AcDbLine
 10
377.239913
 20
282.557994
 30
0.0
 11
378.012841
 21
282.557994
 31
0.0
  0
LINE
  5
BA
330
1F
100
AcDbEntity
  8
1
100
AcDbLine
 10
378.083111
 20
289.465297
 30
0.0
 11
378.25918
 21
289.462224
 31
0.0
  0
LINE
  5
BB
330
1F
100
AcDbEntity
  8
1
100
AcDbLine
 10
378.54268
 20
290.085008
 30
0.0
 11
378.584842
 21
290.084272
 31
0.0
  0
LINE
  5
BC
330
1F
100
AcDbEntity
  8
1
100
AcDbLine
 10
378.309513
 20
295.146222
 30
0.0
 11
378.318894
 21
295.149821
 31
0.0
  0
LINE
  5
BD
330
1F
100
AcDbEntity
  8
1
100
AcDbLine
 10
279.404842
 20
267.907994
 30
0.0
 11
279.404842
 21
269.081099
 31
0.0
  0
LINE
  5
BE
330
1F
100
AcDbEntity
  8
1
100
AcDbLine
 10
279.404842
 20
309.907994
 30
0.0
 11
279.404842
 21
277.384748
 31
0.0
  0
LINE
  5
BF
330
1F
100
AcDbEntity
  8
1
100
AcDbLine
 10
375.993673
 20
282.557994
 30
0.0
 11
376.619475
 21
282.557994
 31
0.0
  0
LINE
  5
C0
330
1F
100
AcDbEntity
  8
1
100
AcDbLine
 10
366.207894
 20
308.245968
 30
0.0
 11
366.20254
 21
308.401742
 31
0.0
  0
LINE
  5
C1
330
1F
100
AcDbEntity
  8
1
100
AcDbLine
 10
366.315194
 20
296.491631
 30
0.0
 11
365.916608
 21
307.618216
 31
0.0
  0
LINE
  5
C3
330
1F
100
AcDbEntity
  8
1
100
AcDbLine
 10
367.799395
 20
306.599446
 30
0.0
 11
376.79227
 21
306.913157
 31
0.0
  0
LINE
  5
C4
330
1F
100
AcDbEntity
  8
1
100
AcDbLine
 10
368.12121
 20
297.615932
 30
0.0
 11
367.799395
 21
306.599446
 31
0.0
  0
LINE
  5
C5
330
1F
100
AcDbEntity
  8
1
100
AcDbLine
 10
377.114084
 20
297.929643
 30
0.0
 11
368.12121
 21
297.615932
 31
0.0
  0
LINE
  5
C6
330
1F
100
AcDbEntity
  8
1
100
AcDbLine
 10
376.79227
 20
306.913157
 30
0.0
 11
377.114084
 21
297.929643
 31
0.0
  0
LINE
  5
C7
330
1F
100
AcDbEntity
  8
1
100
AcDbLine
 10
366.664726
 20
308.420358
 30
0.0
 11
377.802905
 21
308.808906
 31
0.0
  0
LINE
  5
C8
330
1F
100
AcDbEntity
  8
1
100
AcDbLine
 10
378.606553
 20
308.060897
 30
0.0
 11
379.005139
 21
296.934312
 31
0.0
  0
LINE
  5
C9
330
1F
100
AcDbEntity
  8
1
100
AcDbLine
 10
378.257021
 20
296.1321709999999
 30
0.0
 11
367.118842
 21
295.743622
 31
0.0
  0
LINE
  5
CA
330
1F
100
AcDbEntity
  8
95
100
AcDbLine
 10
379.404842
 20
288.907994
 30
0.0
 11
379.404842
 21
289.965627
 31
0.0
  0
LINE
  5
CB
330
1F
100
AcDbEntity
  8
1
100
AcDbLine
 10
378.172887
 20
289.463735
 30
0.0
 11
378.68309
 21
289.157174
 31
0.0
  0
LINE
  5
CC
330
1F
100
AcDbEntity
  8
1
100
AcDbLine
 10
378.506214
 20
277.928159
 30
0.0
 11
377.702061
 21
277.482409
 31
0.0
  0
LINE
  5
CD
330
1F
100
AcDbEntity
  8
1
100
AcDbLine
 10
378.025343
 20
278.426115
 30
0.0
 11
378.506214
 21
277.928159
 31
0.0
  0
LINE
  5
CE
330
1F
100
AcDbEntity
  8
1
100
AcDbLine
 10
379.253269
 20
279.171467
 30
0.0
 11
378.506214
 21
277.928159
 31
0.0
  0
LINE
  5
CF
330
1F
100
AcDbEntity
  8
1
100
AcDbLine
 10
378.587844
 20
279.362274
 30
0.0
 11
379.253269
 21
279.171467
 31
0.0
  0
LINE
  5
D0
330
1F
100
AcDbEntity
  8
1
100
AcDbLine
 10
379.404842
 20
287.855099
 30
0.0
 11
379.253269
 21
279.171467
 31
0.0
  0
LINE
  5
D1
330
1F
100
AcDbEntity
  8
1
100
AcDbLine
 10
378.185134
 20
288.676303
 30
0.0
 11
378.68309
 21
289.157174
 31
0.0
  0
LINE
  5
D2
330
1F
100
AcDbEntity
  8
1
100
AcDbLine
 10
378.733164
 20
287.68763
 30
0.0
 11
379.404842
 21
287.855099
 31
0.0
  0
LINE
  5
D3
330
1F
100
AcDbEntity
  8
1
100
AcDbLine
 10
378.68309
 20
289.157174
 30
0.0
 11
379.404842
 21
287.855099
 31
0.0
  0
LINE
  5
D4
330
1F
100
AcDbEntity
  8
1
100
AcDbLine
 10
378.012837
 20
288.77983
 30
0.0
 11
378.185134
 21
288.676303
 31
0.0
  0
LINE
  5
D5
330
1F
100
AcDbEntity
  8
1
100
AcDbLine
 10
378.025343
 20
278.426115
 30
0.0
 11
377.546084
 21
278.160457
 31
0.0
  0
LINE
  5
D6
330
1F
100
AcDbEntity
  8
1
100
AcDbLine
 10
378.733164
 20
287.68763
 30
0.0
 11
378.587844
 21
279.362274
 31
0.0
  0
LINE
  5
D7
330
1F
100
AcDbEntity
  8
1
100
AcDbLine
 10
378.185134
 20
288.676303
 30
0.0
 11
378.012834
 21
288.509916
 31
0.0
  0
LINE
  5
D8
330
1F
100
AcDbEntity
  8
1
100
AcDbLine
 10
378.733164
 20
287.68763
 30
0.0
 11
378.087218
 21
287.526578
 31
0.0
  0
LINE
  5
D9
330
1F
100
AcDbEntity
  8
1
100
AcDbLine
 10
378.185134
 20
288.676303
 30
0.0
 11
378.733164
 21
287.68763
 31
0.0
  0
LINE
  5
DA
330
1F
100
AcDbEntity
  8
1
100
AcDbLine
 10
378.587844
 20
279.362274
 30
0.0
 11
377.947912
 21
279.545771
 31
0.0
  0
LINE
  5
DB
330
1F
100
AcDbEntity
  8
1
100
AcDbLine
 10
378.025343
 20
278.426115
 30
0.0
 11
377.618967
 21
278.84693
 31
0.0
  0
LINE
  5
DC
330
1F
100
AcDbEntity
  8
1
100
AcDbLine
 10
378.587844
 20
279.362274
 30
0.0
 11
378.025343
 21
278.426115
 31
0.0
  0
LINE
  5
DD
330
1F
100
AcDbEntity
  8
1
100
AcDbLine
 10
377.638473
 20
279.030777
 30
0.0
 11
377.947912
 21
279.545771
 31
0.0
  0
LINE
  5
DE
330
1F
100
AcDbEntity
  8
1
100
AcDbLine
 10
377.947912
 20
279.545771
 30
0.0
 11
377.99806
 21
282.418737
 31
0.0
  0
LINE
  5
DF
330
1F
100
AcDbEntity
  8
1
100
AcDbLine
 10
378.012842
 20
283.265576
 30
0.0
 11
378.087218
 21
287.526578
 31
0.0
  0
LINE
  5
E0
330
1F
100
AcDbEntity
  8
1
100
AcDbLine
 10
378.087218
 20
287.526578
 30
0.0
 11
378.012835
 21
287.660769
 31
0.0
  0
LINE
  5
E1
330
1F
100
AcDbEntity
  8
1
100
AcDbLine
 10
286.168717
 20
269.407994
 30
0.0
 11
291.173387
 21
269.407994
 31
0.0
  0
LINE
  5
E2
330
1F
100
AcDbEntity
  8
1
100
AcDbLine
 10
366.132923
 20
308.407994
 30
0.0
 11
360.760092
 21
308.407994
 31
0.0
  0
LINE
  5
E3
330
1F
100
AcDbEntity
  8
SK1
100
AcDbLine
 10
214.404842
 20
302.907994
 30
0.0
 11
214.404842
 21
274.907994
 31
0.0
  0
LINE
  5
E4
330
1F
100
AcDbEntity
  8
SK1
100
AcDbLine
 10
214.404842
 20
274.907994
 30
0.0
 11
216.404842
 21
272.907994
 31
0.0
  0
LINE
  5
E5
330
1F
100
AcDbEntity
  8
SK1
100
AcDbLine
 10
216.404842
 20
304.907994
 30
0.0
 11
214.404842
 21
302.907994
 31
0.0
  0
LINE
  5
E6
330
1F
100
AcDbEntity
  8
SK1
100
AcDbLine
 10
216.404842
 20
304.907994
 30
0.0
 11
216.404842
 21
272.907994
 31
0.0
  0
LINE
  5
E7
330
1F
100
AcDbEntity
  8
1
100
AcDbLine
 10
295.924601
 20
308.407994
 30
0.0
 11
286.168717
 21
308.407994
 31
0.0
  0
LINE
  5
118
330
1F
100
AcDbEntity
  8
NOCUT
100
AcDbLine
 10
274.404842
 20
304.907994
 30
0.0
 11
216.404842
 21
304.907994
 31
0.0
  0
LINE
  5
119
330
1F
100
AcDbEntity
  8
NOCUT
100
AcDbLine
 10
279.404842
 20
309.907994
 30
0.0
 11
274.904842
 21
309.907994
 31
0.0
  0
LINE
  5
11A
330
1F
100
AcDbEntity
  8
NOCUT
100
AcDbLine
 10
378.584842
 20
288.907994
 30
0.0
 11
214.404842
 21
288.907994
 31
0.0
  0
LINE
  5
11B
330
1F
100
AcDbEntity
  8
NOCUT
100
AcDbLine
 10
274.404842
 20
304.907994
 30
0.0
 11
274.404842
 21
309.407994
 31
0.0
  0
LINE
  5
11C
330
1F
100
AcDbEntity
  8
NOCUT
100
AcDbLine
 10
274.404842
 20
309.407994
 30
0.0
 11
274.904842
 21
309.907994
 31
0.0
  0
LINE
  5
11D
330
1F
100
AcDbEntity
  8
NOCUT
100
AcDbLine
 10
286.168717
 20
308.407994
 30
0.0
 11
378.1647
 21
308.407994
 31
0.0
  0
LINE
  5
11E
330
1F
100
AcDbEntity
  8
NOCUT
100
AcDbLine
 10
378.1647
 20
308.407994
 30
0.0
 11
378.584842
 21
296.480006
 31
0.0
  0
LINE
  5
11F
330
1F
100
AcDbEntity
  8
NOCUT
100
AcDbLine
 10
378.584842
 20
296.480006
 30
0.0
 11
378.584842
 21
288.907994
 31
0.0
  0
LINE
  5
120
330
1F
100
AcDbEntity
  8
NOCUT
100
AcDbLine
 10
214.404842
 20
302.907994
 30
0.0
 11
214.404842
 21
288.907994
 31
0.0
  0
LINE
  5
121
330
1F
100
AcDbEntity
  8
NOCUT
100
AcDbLine
 10
214.404842
 20
302.907994
 30
0.0
 11
216.404842
 21
304.907994
 31
0.0
  0
ARC
  5
12A
330
1F
100
AcDbEntity
  8
1
100
AcDbCircle
 10
372.813137
 20
283.804045
 30
0.0
 40
1.75
100
AcDbArc
 50
75.0
 51
345.0
  0
CIRCLE
  5
12B
330
1F
100
AcDbEntity
  8
1
100
AcDbCircle
 10
372.813137
 20
283.804045
 30
0.0
 40
1.35
  0
ARC
  5
12C
330
1F
100
AcDbEntity
  8
1
100
AcDbCircle
 10
286.168717
 20
253.407994
 30
0.0
 40
16.0
100
AcDbArc
 50
90.0
 51
115.007833
  0
ARC
  5
12D
330
1F
100
AcDbEntity
  8
1
100
AcDbCircle
 10
286.168717
 20
324.407994
 30
0.0
 40
16.0
100
AcDbArc
 50
244.992167
 51
270.0
  0
ARC
  5
139
330
1F
100
AcDbEntity
  8
NOCUT
100
AcDbCircle
 10
286.168717
 20
324.407994
 30
0.0
 40
16.0
100
AcDbArc
 50
244.992167
 51
270.0
  0
ELLIPSE
  5
13A
330
1F
100
AcDbEntity
  8
1
100
AcDbEllipse
 10
372.294104
 20
302.092194
 30
0.0
 11
3.395004864809725
 21
-1.197473159581583
 31
0.0
210
0.0
220
0.0
230
1.0
 40
0.9986239999999998
 41
0.0
 42
6.283185307179585
  0
ELLIPSE
  5
13B
330
1F
100
AcDbEntity
  8
1
100
AcDbEllipse
 10
370.905622
 20
302.687791
 30
0.0
 11
-0.0898897536456661
 21
0.0317055708602405
 31
0.0
210
0.0
220
0.0
230
1.0
 40
0.998624
 41
3.886489476375021
 42
4.563221393255326
  0
ELLIPSE
  5
13C
330
1F
100
AcDbEntity
  8
1
100
AcDbEllipse
 10
370.99496
 20
302.855906
 30
0.0
 11
-0.089889753645666
 21
0.0317055708602404
 31
0.0
210
0.0
220
0.0
230
1.0
 40
0.998624
 41
0.2212980471867129
 42
1.421628739665668
  0
ELLIPSE
  5
13D
330
1F
100
AcDbEntity
  8
1
100
AcDbEllipse
 10
371.496983
 20
302.7963450000001
 30
0.0
 11
-0.5666776289729546
 21
0.1998763706833376
 31
0.0
210
0.0
220
0.0
230
0.9999999999999998
 40
0.9986239999999998
 41
5.239953310136228
 42
6.504483354366407
  0
ELLIPSE
  5
13E
330
1F
100
AcDbEntity
  8
1
100
AcDbEllipse
 10
371.402059
 20
303.292402
 30
0.0
 11
-0.0898897536456681
 21
0.0317055708602411
 31
0.0
210
0.0
220
0.0
230
1.0
 40
0.9986239999999998
 41
4.039622617657303
 42
5.239953310136113
  0
ELLIPSE
  5
13F
330
1F
100
AcDbEntity
  8
1
100
AcDbEllipse
 10
371.563615
 20
303.3933
 30
0.0
 11
-0.0898897536456681
 21
0.0317055708602411
 31
0.0
210
0.0
220
0.0
230
1.0
 40
0.9986239999999998
 41
0.8980299640674642
 42
1.574761880948188
  0
ELLIPSE
  5
140
330
1F
100
AcDbEntity
  8
1
100
AcDbEllipse
 10
371.729662
 20
303.870095
 30
0.0
 11
-0.5666776289729543
 21
0.1998763706833376
 31
0.0
210
0.0
220
0.0
230
1.0
 40
0.9986239999999998
 41
1.574761880948154
 42
2.839291925178306
  0
ELLIPSE
  5
141
330
1F
100
AcDbEntity
  8
1
100
AcDbEllipse
 10
372.134831
 20
303.567797
 30
0.0
 11
-0.0898897536456661
 21
0.0317055708602405
 31
0.0
210
0.0
220
0.0
230
1.0
 40
0.998624
 41
2.839291925178446
 42
3.516023842058973
  0
ELLIPSE
  5
142
330
1F
100
AcDbEntity
  8
1
100
AcDbEllipse
 10
372.325315
 20
303.574442
 30
0.0
 11
-0.089889753645666
 21
0.0317055708602404
 31
0.0
210
0.0
220
0.0
230
1.0
 40
0.998624
 41
5.457285803169696
 42
6.657616495648822
  0
ELLIPSE
  5
143
330
1F
100
AcDbEntity
  8
1
100
AcDbEllipse
 10
372.525066
 20
303.110408
 30
0.0
 11
-0.5666776289729546
 21
0.1998763706833376
 31
0.0
210
0.0
220
0.0
230
0.9999999999999998
 40
0.9986239999999998
 41
4.192755758939625
 42
5.457285803169802
  0
ELLIPSE
  5
144
330
1F
100
AcDbEntity
  8
1
100
AcDbEllipse
 10
372.907592
 20
303.440184
 30
0.0
 11
-0.0898897536456681
 21
0.0317055708602411
 31
0.0
210
0.0
220
0.0
230
1.0
 40
0.9986239999999998
 41
2.992425066460601
 42
4.192755758939518
  0
ELLIPSE
  5
145
330
1F
100
AcDbEntity
  8
1
100
AcDbEllipse
 10
373.075964
 20
303.350796
 30
0.0
 11
-0.0898897536456681
 21
0.0317055708602411
 31
0.0
210
0.0
220
0.0
230
1.0
 40
0.9986239999999998
 41
6.134017720050348
 42
6.810749636931139
  0
ELLIPSE
  5
146
330
1F
100
AcDbEntity
  8
1
100
AcDbEllipse
 10
373.572472
 20
303.445189
 30
0.0
 11
-0.5666776289729543
 21
0.1998763706833376
 31
0.0
210
0.0
220
0.0
230
1.0
 40
0.9986239999999998
 41
0.5275643297515349
 42
1.792094373981715
  0
ELLIPSE
  5
147
330
1F
100
AcDbEntity
  8
1
100
AcDbEllipse
 10
373.513281
 20
302.943756
 30
0.0
 11
-0.0898897536456661
 21
0.0317055708602405
 31
0.0
210
0.0
220
0.0
230
1.0
 40
0.998624
 41
1.79209437398161
 42
2.46882629086226
  0
ELLIPSE
  5
148
330
1F
100
AcDbEntity
  8
1
100
AcDbEllipse
 10
372.459618
 20
302.272704
 30
0.0
 11
3.588083700633127
 21
-1.265575189707758
 31
0.0
210
0.0
220
0.0
230
1.0
 40
0.9986239999999998
 41
1.945227451328575
 42
3.745261875445966
  0
ELLIPSE
  5
149
330
1F
100
AcDbEntity
  8
1
100
AcDbEllipse
 10
372.459618
 20
302.272704
 30
0.0
 11
3.588083700633127
 21
-1.265575189707758
 31
0.0
210
0.0
220
0.0
230
1.0
 40
0.9986239999999998
 41
4.874566385899286
 42
6.283185307179585
  0
ELLIPSE
  5
14A
330
1F
100
AcDbEntity
  8
1
100
AcDbEllipse
 10
372.459618
 20
302.272704
 30
0.0
 11
3.588083700633127
 21
-1.265575189707758
 31
0.0
210
0.0
220
0.0
230
1.0
 40
0.9986239999999998
 41
0.0
 42
1.945227440221053
  0
ELLIPSE
  5
14B
330
1F
100
AcDbEntity
  8
1
100
AcDbEllipse
 10
379.258813
 20
288.907994
 30
0.0
 11
2.110656003695415
 21
19.4977946516133
 31
0.0
210
0.0
220
0.0
230
1.0
 40
0.138944
 41
1.917525697828788
 42
3.156632395651093
  0
ELLIPSE
  5
14C
330
1F
100
AcDbEntity
  8
1
100
AcDbEllipse
 10
378.584842
 20
288.907994
 30
0.0
 11
0.0
 21
19.49999999999703
 31
0.0
210
0.0
220
0.0
230
1.0
 40
0.140541
 41
1.458640619187638
 42
1.90248595576774
  0
ELLIPSE
  5
14D
330
1F
100
AcDbEntity
  8
1
100
AcDbEllipse
 10
366.833024
 20
307.3417790000001
 30
0.0
 11
-11.88251702683405
 21
4.19115605853554
 31
0.0
210
0.0
220
0.0
230
0.9999999999999998
 40
0.9986239999999998
 41
1.42488882810037
 42
1.9452275152641
  0
ELLIPSE
  5
14E
330
1F
100
AcDbEntity
  8
1
100
AcDbEllipse
 10
302.904842
 20
276.222143
 30
0.0
 11
-2.246982534862956
 21
-9.744283939213847
 31
0.0
210
0.0
220
0.0
230
1.0
 40
0.205081
 41
4.481846433741238
 42
5.515617709707473
  0
ELLIPSE
  5
14F
330
1F
100
AcDbEntity
  8
1
100
AcDbEllipse
 10
377.597656
 20
277.984144
 30
0.0
 11
0.0538770024347938
 21
0.4991611425065159
 31
0.0
210
0.0
220
0.0
230
1.0
 40
0.139171
 41
1.583568179242841
 42
3.15436450604322
  0
ELLIPSE
  5
150
330
1F
100
AcDbEntity
  8
1
100
AcDbEllipse
 10
378.083111
 20
288.965221
 30
0.0
 11
0.0001758288824356
 21
-0.5000776676677075
 31
0.0
210
0.0
220
0.0
230
0.9999999999999996
 40
0.140519
 41
3.139090475970383
 42
4.709886802760476
  0
ELLIPSE
  5
151
330
1F
100
AcDbEntity
  8
1
100
AcDbEllipse
 10
373.614426
 20
302.782286
 30
0.0
 11
-0.089889753645666
 21
0.0317055708602404
 31
0.0
210
0.0
220
0.0
230
1.0
 40
0.998624
 41
4.410088251973276
 42
5.610418944452204
  0
ELLIPSE
  5
152
330
1F
100
AcDbEntity
  8
1
100
AcDbEllipse
 10
373.312154
 20
302.377812
 30
0.0
 11
-0.5666776289729546
 21
0.1998763706833376
 31
0.0
210
0.0
220
0.0
230
0.9999999999999998
 40
0.9986239999999998
 41
3.145558207743012
 42
4.410088251973201
  0
ELLIPSE
  5
153
330
1F
100
AcDbEntity
  8
1
100
AcDbEllipse
 10
373.789604
 20
302.211531
 30
0.0
 11
-0.0898897536456681
 21
0.0317055708602411
 31
0.0
210
0.0
220
0.0
230
1.0
 40
0.9986239999999998
 41
1.945227515264221
 42
3.145558207743122
  0
ELLIPSE
  5
154
330
1F
100
AcDbEntity
  8
1
100
AcDbEllipse
 10
373.796421
 20
302.021245
 30
0.0
 11
-0.0898897536456681
 21
0.0317055708602411
 31
0.0
210
0.0
220
0.0
230
1.0
 40
0.9986239999999998
 41
5.086820168853903
 42
5.763552085734559
  0
ELLIPSE
  5
155
330
1F
100
AcDbEntity
  8
1
100
AcDbEllipse
 10
374.126881
 20
301.638844
 30
0.0
 11
-0.5666776289729543
 21
0.1998763706833376
 31
0.0
210
0.0
220
0.0
230
1.0
 40
0.9986239999999998
 41
5.763552085734536
 42
7.028082129964723
  0
ELLIPSE
  5
156
330
1F
100
AcDbEntity
  8
1
100
AcDbEllipse
 10
373.662521
 20
301.439708
 30
0.0
 11
-0.0898897536456661
 21
0.0317055708602405
 31
0.0
210
0.0
220
0.0
230
1.0
 40
0.998624
 41
0.7448968227849166
 42
1.421628739665657
  0
ELLIPSE
  5
157
330
1F
100
AcDbEntity
  8
1
100
AcDbEllipse
 10
373.573183
 20
301.271593
 30
0.0
 11
-0.089889753645666
 21
0.0317055708602404
 31
0.0
210
0.0
220
0.0
230
1.0
 40
0.998624
 41
3.362890700776643
 42
4.563221393255755
  0
ELLIPSE
  5
158
330
1F
100
AcDbEntity
  8
1
100
AcDbEllipse
 10
373.07116
 20
301.331154
 30
0.0
 11
-0.5666776289729546
 21
0.1998763706833376
 31
0.0
210
0.0
220
0.0
230
0.9999999999999998
 40
0.9986239999999998
 41
2.098360656546435
 42
3.362890700776606
  0
ELLIPSE
  5
159
330
1F
100
AcDbEntity
  8
1
100
AcDbEllipse
 10
373.166084
 20
300.835096
 30
0.0
 11
-0.0898897536456681
 21
0.0317055708602411
 31
0.0
210
0.0
220
0.0
230
1.0
 40
0.9986239999999998
 41
0.8980299640674642
 42
2.098360656546359
  0
ELLIPSE
  5
15A
330
1F
100
AcDbEntity
  8
1
100
AcDbEllipse
 10
373.004528
 20
300.734199
 30
0.0
 11
-0.0898897536456681
 21
0.0317055708602411
 31
0.0
210
0.0
220
0.0
230
1.0
 40
0.9986239999999998
 41
4.039622617657303
 42
4.71635453453813
  0
ELLIPSE
  5
15B
330
1F
100
AcDbEntity
  8
1
100
AcDbEllipse
 10
372.838481
 20
300.257404
 30
0.0
 11
-0.5666776289729543
 21
0.1998763706833376
 31
0.0
210
0.0
220
0.0
230
1.0
 40
0.9986239999999998
 41
4.7163545345379
 42
5.980884578768111
  0
ELLIPSE
  5
15C
330
1F
100
AcDbEntity
  8
1
100
AcDbEllipse
 10
372.433312
 20
300.559701
 30
0.0
 11
-0.0898897536456661
 21
0.0317055708602405
 31
0.0
210
0.0
220
0.0
230
1.0
 40
0.998624
 41
5.98088457876824
 42
6.657616495648768
  0
ELLIPSE
  5
15D
330
1F
100
AcDbEntity
  8
1
100
AcDbEllipse
 10
372.242828
 20
300.553056
 30
0.0
 11
-0.089889753645666
 21
0.0317055708602404
 31
0.0
210
0.0
220
0.0
230
1.0
 40
0.998624
 41
2.315693149579953
 42
3.516023842058959
  0
ELLIPSE
  5
15E
330
1F
100
AcDbEntity
  8
1
100
AcDbEllipse
 10
372.043077
 20
301.017091
 30
0.0
 11
-0.5666776289729546
 21
0.1998763706833376
 31
0.0
210
0.0
220
0.0
230
0.9999999999999998
 40
0.9986239999999998
 41
1.051163105349812
 42
2.315693149579993
  0
ELLIPSE
  5
15F
330
1F
100
AcDbEntity
  8
1
100
AcDbEllipse
 10
371.660551
 20
300.687315
 30
0.0
 11
-0.0898897536456681
 21
0.0317055708602411
 31
0.0
210
0.0
220
0.0
230
1.0
 40
0.9986239999999998
 41
6.134017720050519
 42
7.334348412529387
  0
ELLIPSE
  5
160
330
1F
100
AcDbEntity
  8
1
100
AcDbEllipse
 10
371.492179
 20
300.776703
 30
0.0
 11
-0.0898897536456681
 21
0.0317055708602411
 31
0.0
210
0.0
220
0.0
230
1.0
 40
0.9986239999999998
 41
2.992425066460578
 42
3.669156983341292
  0
ELLIPSE
  5
161
330
1F
100
AcDbEntity
  8
1
100
AcDbEllipse
 10
370.995671
 20
300.682309
 30
0.0
 11
-0.5666776289729543
 21
0.1998763706833376
 31
0.0
210
0.0
220
0.0
230
1.0
 40
0.9986239999999998
 41
3.669156983341338
 42
4.933687027571508
  0
ELLIPSE
  5
162
330
1F
100
AcDbEntity
  8
1
100
AcDbEllipse
 10
371.054862
 20
301.183743
 30
0.0
 11
-0.0898897536456661
 21
0.0317055708602405
 31
0.0
210
0.0
220
0.0
230
1.0
 40
0.998624
 41
4.933687027571532
 42
5.610418944452053
  0
ELLIPSE
  5
163
330
1F
100
AcDbEntity
  8
1
100
AcDbEllipse
 10
370.953717
 20
301.345213
 30
0.0
 11
-0.089889753645666
 21
0.0317055708602404
 31
0.0
210
0.0
220
0.0
230
1.0
 40
0.998624
 41
1.268495598383364
 42
2.46882629086247
  0
ELLIPSE
  5
164
330
1F
100
AcDbEntity
  8
1
100
AcDbEllipse
 10
371.255989
 20
301.749687
 30
0.0
 11
-0.5666776289729546
 21
0.1998763706833376
 31
0.0
210
0.0
220
0.0
230
0.9999999999999998
 40
0.9986239999999998
 41
0.003965554153208
 42
1.268495598383412
  0
ELLIPSE
  5
165
330
1F
100
AcDbEntity
  8
1
100
AcDbEllipse
 10
370.778539
 20
301.915968
 30
0.0
 11
-0.0898897536456681
 21
0.0317055708602411
 31
0.0
210
0.0
220
0.0
230
1.0
 40
0.9986239999999998
 41
5.086820168854041
 42
6.287150861332839
  0
ELLIPSE
  5
166
330
1F
100
AcDbEntity
  8
1
100
AcDbEllipse
 10
370.771722
 20
302.106254
 30
0.0
 11
-0.0898897536456681
 21
0.0317055708602411
 31
0.0
210
0.0
220
0.0
230
1.0
 40
0.9986239999999998
 41
1.945227515264083
 42
2.621959432144701
  0
ELLIPSE
  5
167
330
1F
100
AcDbEntity
  8
1
100
AcDbEllipse
 10
370.441262
 20
302.488655
 30
0.0
 11
-0.5666776289729543
 21
0.1998763706833376
 31
0.0
210
0.0
220
0.0
230
1.0
 40
0.9986239999999998
 41
2.621959432144712
 42
3.886489476374928
  0
ELLIPSE
  5
168
330
1F
100
AcDbEntity
  8
1
100
AcDbEllipse
 10
372.284071
 20
302.063749
 30
0.0
 11
1.98041950447234
 21
-0.698526009755924
 31
0.0
210
0.0
220
0.0
230
1.0
 40
0.9986239999999998
 41
0.0
 42
6.283185307179585
  0
ELLIPSE
  5
169
330
1F
100
AcDbEntity
  8
1
100
AcDbEllipse
 10
366.841745
 20
307.366504
 30
0.0
 11
11.88251702683405
 21
-4.191156058535546
 31
0.0
210
0.0
220
0.0
230
0.9999999999999996
 40
0.9986239999999998
 41
4.66892926445766
 42
5.086260447982122
  0
ELLIPSE
  5
16A
330
1F
100
AcDbEntity
  8
1
100
AcDbEllipse
 10
372.310234
 20
302.137924
 30
0.0
 11
-3.395004864809727
 21
1.197473159581582
 31
0.0
210
0.0
220
0.0
230
1.0
 40
0.9986239999999998
 41
3.141585274248858
 42
5.872218228534566
  0
ELLIPSE
  5
16B
330
1F
100
AcDbEntity
  8
1
100
AcDbEllipse
 10
372.310234
 20
302.137924
 30
0.0
 11
-3.395004864809727
 21
1.197473159581582
 31
0.0
210
0.0
220
0.0
230
1.0
 40
0.9986239999999998
 41
5.872218228534575
 42
6.283185307179585
  0
ELLIPSE
  5
16C
330
1F
100
AcDbEntity
  8
1
100
AcDbEllipse
 10
366.844782
 20
288.907994
 30
0.0
 11
0.6521295242106003
 21
-19.49999599718192
 31
0.0
210
0.0
220
0.0
230
1.0
 40
0.0191
 41
3.010486210716365
 42
3.11563092454533
  0
ELLIPSE
  5
16D
330
1F
100
AcDbEntity
  8
1
100
AcDbEllipse
 10
367.954616
 20
297.44152
 30
0.0
 11
2.357642267228976
 21
-0.8315785830427662
 31
0.0
210
0.0
220
0.0
230
1.0
 40
0.9986239999999998
 41
5.637542175042126
 42
5.809792633311547
  0
ELLIPSE
  5
16E
330
1F
100
AcDbEntity
  8
1
100
AcDbEllipse
 10
366.668887
 20
288.907994
 30
0.0
 11
0.5467685261019517
 21
-19.49984856975005
 31
0.0
210
0.0
220
0.0
230
1.0
 40
0.140543
 41
3.112328928174389
 42
3.216101807630158
  0
ELLIPSE
  5
16F
330
1F
100
AcDbEntity
  8
1
100
AcDbEllipse
 10
373.943474
 20
288.907994
 30
0.0
 11
33.44445578571271
 21
-19.23804763402591
 31
0.0
210
0.0
220
0.0
230
1.0
 40
0.095248
 41
3.959746764851808
 42
4.361718050926274
  0
ELLIPSE
  5
170
330
1F
100
AcDbEntity
  8
1
100
AcDbEllipse
 10
208.0167
 20
288.907993
 30
0.0
 11
509.5222729939938
 21
19.01623173584342
 31
0.0
210
0.0
220
0.0
230
1.0
 40
0.008472
 41
5.030284670624863
 42
5.047757815778906
  0
ELLIPSE
  5
171
330
1F
100
AcDbEntity
  8
1
100
AcDbEllipse
 10
367.959848
 20
297.456355
 30
0.0
 11
-2.357642267228976
 21
0.8315785830427653
 31
0.0
210
0.0
220
0.0
230
1.0
 40
0.9986239999999998
 41
2.668199979721756
 42
2.776747666076901
  0
ELLIPSE
  5
172
330
1F
100
AcDbEntity
  8
1
100
AcDbEllipse
 10
368.041127
 20
297.686792
 30
0.0
 11
-2.357642267228975
 21
0.831578583042765
 31
0.0
210
0.0
220
0.0
230
1.0
 40
0.998624
 41
0.0520252572636118
 42
1.945227431237595
  0
ELLIPSE
  5
173
330
1F
100
AcDbEntity
  8
1
100
AcDbEllipse
 10
368.041127
 20
297.686792
 30
0.0
 11
-2.357642267228975
 21
0.831578583042765
 31
0.0
210
0.0
220
0.0
230
1.0
 40
0.998624
 41
1.945227431237595
 42
2.645311779347058
  0
ELLIPSE
  5
174
330
1F
100
AcDbEntity
  8
1
100
AcDbEllipse
 10
367.959848
 20
297.456355
 30
0.0
 11
-2.357642267228976
 21
0.8315785830427653
 31
0.0
210
0.0
220
0.0
230
1.0
 40
0.9986239999999998
 41
5.822888314034132
 42
5.942244189143312
  0
ELLIPSE
  5
175
330
1F
100
AcDbEntity
  8
1
100
AcDbEllipse
 10
367.954616
 20
297.44152
 30
0.0
 11
2.357642267228976
 21
-0.8315785830427662
 31
0.0
210
0.0
220
0.0
230
1.0
 40
0.9986239999999998
 41
2.800651535553506
 42
4.525803034523772
  0
ELLIPSE
  5
176
330
1F
100
AcDbEntity
  8
1
100
AcDbEllipse
 10
366.3743
 20
288.908214
 30
0.0
 11
0.6521217822990057
 21
-19.49977531177005
 31
0.0
210
0.0
220
0.0
230
1.0
 40
0.0191
 41
3.219203446217512
 42
3.234596531169736
  0
ELLIPSE
  5
177
330
1F
100
AcDbEntity
  8
1
100
AcDbEllipse
 10
315.265642
 20
288.478694
 30
0.0
 11
1130.14775015647
 21
-0.9564712880723412
 31
0.0
210
0.0
220
0.0
230
0.9999999999999998
 40
0.017614
 41
1.526178564620161
 42
1.527698998128389
  0
ELLIPSE
  5
178
330
1F
100
AcDbEntity
  8
1
100
AcDbEllipse
 10
378.315425
 20
295.649408
 30
0.0
 11
0.0003016037630932
 21
0.5003084758581373
 31
0.0
210
0.0
220
0.0
230
1.0
 40
0.140101
 41
3.195395734394841
 42
4.766192061188402
  0
ELLIPSE
  5
179
330
1F
100
AcDbEntity
  8
1
100
AcDbEllipse
 10
328.055966
 20
288.907994
 30
0.0
 11
126.684722522179
 21
-14.41725411840246
 31
0.0
210
0.0
220
0.0
230
1.0
 40
0.103642
 41
4.418136440465858
 42
4.524336295872527
  0
ELLIPSE
  5
17A
330
1F
100
AcDbEntity
  8
1
100
AcDbEllipse
 10
372.479414
 20
302.328829
 30
0.0
 11
3.531988007444661
 21
-1.245789330883938
 31
0.0
210
0.0
220
0.0
230
1.0
 40
0.9986239999999998
 41
1.945227552038378
 42
3.356097206659879
  0
ELLIPSE
  5
17B
330
1F
100
AcDbEntity
  8
1
100
AcDbEllipse
 10
372.479414
 20
302.328829
 30
0.0
 11
3.531988007444661
 21
-1.245789330883938
 31
0.0
210
0.0
220
0.0
230
1.0
 40
0.9986239999999998
 41
5.419043491545747
 42
6.283185307179585
  0
ELLIPSE
  5
17C
330
1F
100
AcDbEntity
  8
1
100
AcDbEllipse
 10
372.479414
 20
302.328829
 30
0.0
 11
3.531988007444661
 21
-1.245789330883938
 31
0.0
210
0.0
220
0.0
230
1.0
 40
0.9986239999999998
 41
0.0
 42
1.508938775396913
  0
ELLIPSE
  5
17D
330
1F
100
AcDbEntity
  8
1
100
AcDbEllipse
 10
372.479414
 20
302.328829
 30
0.0
 11
3.531988007444661
 21
-1.245789330883938
 31
0.0
210
0.0
220
0.0
230
1.0
 40
0.9986239999999998
 41
1.63254085945862
 42
1.945227552038378
  0
ELLIPSE
  5
17E
330
1F
100
AcDbEntity
  8
1
100
AcDbEllipse
 10
367.706923
 20
297.163641
 30
0.0
 11
0.4817434592792247
 21
0.5170545786674909
 31
0.0
210
0.0
220
0.0
230
1.0
 40
0.01483
 41
0.519873824241568
 42
1.536779664698049
  0
ELLIPSE
  5
17F
330
1F
100
AcDbEntity
  8
1
100
AcDbEllipse
 10
367.354697
 20
306.996081
 30
0.0
 11
0.5172967687003785
 21
-0.4819691094707981
 31
0.0
210
0.0
220
0.0
230
1.0
 40
0.033998
 41
0.5687050474078479
 42
1.585610887835085
  0
ELLIPSE
  5
180
330
1F
100
AcDbEntity
  8
1
100
AcDbEllipse
 10
377.197383
 20
307.339437
 30
0.0
 11
0.481743459461333
 21
0.517054578861444
 31
0.0
210
0.0
220
0.0
230
1.0
 40
0.01483
 41
1.536779664812756
 42
2.553685504947083
  0
ELLIPSE
  5
181
330
1F
100
AcDbEntity
  8
1
100
AcDbEllipse
 10
377.549608
 20
297.506997
 30
0.0
 11
0.517296768691009
 21
-0.4819691094567396
 31
0.0
210
0.0
220
0.0
230
1.0
 40
0.033998
 41
1.58561088766093
 42
2.602516728105383
  0
ELLIPSE
  5
182
330
1F
100
AcDbEntity
  8
1
100
AcDbEllipse
 10
372.45674
 20
302.264544
 30
0.0
 11
-3.677921936877201
 21
1.297262589546712
 31
0.0
210
0.0
220
0.0
230
1.0
 40
0.9986239999999998
 41
0.0
 42
6.283185307179585
  0
ELLIPSE
  5
183
330
1F
100
AcDbEntity
  8
1
100
AcDbEllipse
 10
301.401313
 20
265.138417
 30
0.0
 11
-25.9746508170617
 21
5.466412662277408
 31
0.0
210
0.0
220
0.0
230
1.0
 40
0.6740610000000001
 41
5.876953340959112
 42
6.132658885061081
  0
ELLIPSE
  5
184
330
1F
100
AcDbEntity
  8
1
100
AcDbEllipse
 10
367.05743
 20
292.658176
 30
0.0
 11
-3.869775423703379
 21
-0.1518793265949737
 31
0.0
210
0.0
220
0.0
230
1.0
 40
0.22151
 41
1.649152562129645
 42
4.631805785660868
  0
SPLINE
  5
18A
330
1F
100
AcDbEntity
  8
1
100
AcDbSpline
210
0.0
220
0.0
230
1.0
 70
     8
 71
     3
 72
    16
 73
    12
 74
     0
 42
0.000000001
 43
0.0000000001
 40
0.0
 40
0.0
 40
0.0
 40
0.0
 40
0.3587940320752848
 40
0.3587940320752848
 40
0.5381910481128989
 40
0.5381910481128989
 40
0.717588064150513
 40
0.717588064150513
 40
0.8969850801881268
 40
0.8969850801881268
 40
1.0
 40
1.0
 40
1.0
 40
1.0
 10
371.6220558734863
 20
300.7204690079981
 30
0.0
 10
371.6155890203862
 20
300.7280522979942
 30
0.0
 10
371.610402796414
 20
300.7365884106217
 30
0.0
 10
371.6047887387998
 20
300.749998041633
 30
0.0
 10
371.6032596240718
 20
300.7545943713814
 30
0.0
 10
371.6008909982897
 20
300.7640411503602
 30
0.0
 10
371.6000687264576
 20
300.7688457957913
 30
0.0
 10
371.5991481223667
 20
300.7783894410166
 30
0.0
 10
371.5990410706023
 20
300.7831620781689
 30
0.0
 10
371.5994203430182
 20
300.7906760260238
 30
0.0
 10
371.5996767216528
 20
300.7934290899394
 30
0.0
 10
371.600046744874
 20
300.7961630637771
 30
0.0
  0
SPLINE
  5
18B
330
1F
100
AcDbEntity
  8
1
100
AcDbSpline
210
0.0
220
0.0
230
1.0
 70
     8
 71
     3
 72
    10
 73
     6
 74
     0
 42
0.000000001
 43
0.0000000001
 40
0.0
 40
0.0
 40
0.0
 40
0.0
 40
0.6419716905421613
 40
0.6419716905421613
 40
1.0
 40
1.0
 40
1.0
 40
1.0
 10
371.6203590390508
 20
300.8925182898884
 30
0.0
 10
371.6223744506469
 20
300.8815514997895
 30
0.0
 10
371.6224766281208
 20
300.8705681200348
 30
0.0
 10
371.6198305354641
 20
300.8536786821829
 30
0.0
 10
371.618349799817
 20
300.8478150936843
 30
0.0
 10
371.6163395700077
 20
300.842133137262
 30
0.0
  0
SPLINE
  5
18C
330
1F
100
AcDbEntity
  8
1
100
AcDbSpline
210
0.0
220
0.0
230
1.0
 70
     8
 71
     3
 72
    10
 73
     6
 74
     0
 42
0.000000001
 43
0.0000000001
 40
0.0
 40
0.0
 40
0.0
 40
0.0
 40
0.1325035073268836
 40
0.1325035073268836
 40
1.0
 40
1.0
 40
1.0
 40
1.0
 10
372.3421813826748
 20
300.5796115599198
 30
0.0
 10
372.3411025221255
 20
300.578577197307
 30
0.0
 10
372.3399979533249
 20
300.5775660522504
 30
0.0
 10
372.3314806783684
 20
300.5701291714767
 30
0.0
 10
372.3232451881125
 20
300.5648760050856
 30
0.0
 10
372.3141105695221
 20
300.5608985382946
 30
0.0
  0
SPLINE
  5
18D
330
1F
100
AcDbEntity
  8
1
100
AcDbSpline
210
0.0
220
0.0
230
1.0
 70
     8
 71
     3
 72
     8
 73
     4
 74
     0
 42
0.000000001
 43
0.0000000001
 40
0.0
 40
0.0
 40
0.0
 40
0.0
 40
1.0
 40
1.0
 40
1.0
 40
1.0
 10
372.3777971830677
 20
300.6888702038655
 30
0.0
 10
372.3810277864188
 20
300.6980868662527
 30
0.0
 10
372.385570587158
 20
300.7067107115195
 30
0.0
 10
372.3914971855297
 20
300.7147131583796
 30
0.0
  0
SPLINE
  5
18E
330
1F
100
AcDbEntity
  8
1
100
AcDbSpline
210
0.0
220
0.0
230
1.0
 70
     8
 71
     3
 72
    20
 73
    16
 74
     0
 42
0.000000001
 43
0.0000000001
 40
0.0
 40
0.0
 40
0.0
 40
0.0
 40
0.1250000000000384
 40
0.1250000000000384
 40
0.2500000000000768
 40
0.2500000000000768
 40
0.3750000000001152
 40
0.3750000000001152
 40
0.5000000000001537
 40
0.5000000000001537
 40
0.6250000000001921
 40
0.6250000000001921
 40
0.7500000000002305
 40
0.7500000000002305
 40
1.0
 40
1.0
 40
1.0
 40
1.0
 10
371.0384840897126
 20
301.3614251817776
 30
0.0
 10
371.0344685166706
 20
301.3588513056899
 30
0.0
 10
371.0302954718024
 20
301.3565874674747
 30
0.0
 10
371.0216366305248
 20
301.3526758727069
 30
0.0
 10
371.0171431616348
 20
301.3510309979848
 30
0.0
 10
371.0080533974275
 20
301.3484390674192
 30
0.0
 10
371.0034316892717
 20
301.3474787513212
 30
0.0
 10
370.9940326959211
 20
301.3462406491608
 30
0.0
 10
370.9892172754309
 20
301.3459653915721
 30
0.0
 10
370.9796580899957
 20
301.3461431882052
 30
0.0
 10
370.9749098438563
 20
301.3465887283377
 30
0.0
 10
370.9654774792277
 20
301.3482000482022
 30
0.0
 10
370.9607626329172
 20
301.3493763438255
 30
0.0
 10
370.9469402721752
 20
301.3539966897273
 30
0.0
 10
370.9383257435638
 20
301.3584242296017
 30
0.0
 10
370.9303521047441
 20
301.3642838149599
 30
0.0
  0
SPLINE
  5
18F
330
1F
100
AcDbEntity
  8
1
100
AcDbSpline
210
0.0
220
0.0
230
1.0
 70
     8
 71
     3
 72
    10
 73
     6
 74
     0
 42
0.000000001
 43
0.0000000001
 40
0.0
 40
0.0
 40
0.0
 40
0.0
 40
0.4999999999999999
 40
0.4999999999999999
 40
1.0
 40
1.0
 40
1.0
 40
1.0
 10
371.0384840897126
 20
301.3614251817776
 30
0.0
 10
371.047662788449
 20
301.3673084848442
 30
0.0
 10
371.0575881694547
 20
301.3715611403156
 30
0.0
 10
371.078801741292
 20
301.3766823294474
 30
0.0
 10
371.0895958856186
 20
301.3774437903395
 30
0.0
 10
371.1005940745157
 20
301.3762981902296
 30
0.0
  0
SPLINE
  5
190
330
1F
100
AcDbEntity
  8
1
100
AcDbSpline
210
0.0
220
0.0
230
1.0
 70
     8
 71
     3
 72
    24
 73
    20
 74
     0
 42
0.000000001
 43
0.0000000001
 40
0.0
 40
0.0
 40
0.0
 40
0.0
 40
0.124999999999992
 40
0.124999999999992
 40
0.249999999999984
 40
0.249999999999984
 40
0.3125000000000039
 40
0.3125000000000039
 40
0.375000000000024
 40
0.375000000000024
 40
0.5000000000000192
 40
0.5000000000000192
 40
0.6250000000000144
 40
0.6250000000000144
 40
0.7500000000000096
 40
0.7500000000000096
 40
0.8750000000000047
 40
0.8750000000000047
 40
1.0
 40
1.0
 40
1.0
 40
1.0
 10
371.1005940745157
 20
301.3762981902296
 30
0.0
 10
371.131742447879
 20
301.3730536942238
 30
0.0
 10
371.1623741572786
 20
301.3674006454859
 30
0.0
 10
371.2226518987915
 20
301.3512775669923
 30
0.0
 10
371.252298356049
 20
301.3408098931422
 30
0.0
 10
371.2960055765716
 20
301.3211955409718
 30
0.0
 10
371.3103534472236
 20
301.3140375293955
 30
0.0
 10
371.3382619791364
 20
301.2986606111076
 30
0.0
 10
371.3518767672279
 20
301.2904179376552
 30
0.0
 10
371.39170522672
 20
301.2640261424376
 30
0.0
 10
371.4169473812685
 20
301.2441900940384
 30
0.0
 10
371.4644324951046
 20
301.1999798408135
 30
0.0
 10
371.4859847596347
 20
301.1762602378142
 30
0.0
 10
371.5249600243794
 20
301.1257728835731
 30
0.0
 10
371.5423877792694
 20
301.0989942747885
 30
0.0
 10
371.5730178404687
 20
301.0423633058239
 30
0.0
 10
371.585777399781
 20
301.013339350913
 30
0.0
 10
371.6065952128417
 20
300.9539473550469
 30
0.0
 10
371.6146509511428
 20
300.9235786460343
 30
0.0
 10
371.6203590390508
 20
300.8925182898884
 30
0.0
  0
SPLINE
  5
191
330
1F
100
AcDbEntity
  8
1
100
AcDbSpline
210
0.0
220
0.0
230
1.0
 70
     8
 71
     3
 72
    18
 73
    14
 74
     0
 42
0.000000001
 43
0.0000000001
 40
0.0
 40
0.0
 40
0.0
 40
0.0
 40
0.2499999999998053
 40
0.2499999999998053
 40
0.3749999999998741
 40
0.3749999999998741
 40
0.499999999999943
 40
0.499999999999943
 40
0.6250000000000121
 40
0.6250000000000121
 40
0.7500000000000809
 40
0.7500000000000809
 40
1.0
 40
1.0
 40
1.0
 40
1.0
 10
373.2176032979315
 20
300.8369010093562
 30
0.0
 10
373.2078747522565
 20
300.8351177065755
 30
0.0
 10
373.1979837137021
 20
300.8349238629041
 30
0.0
 10
373.1837299412798
 20
300.8368144628695
 30
0.0
 10
373.1790446063134
 20
300.8378049262845
 30
0.0
 10
373.1698075239251
 20
300.8405114669928
 30
0.0
 10
373.1653034779553
 20
300.8422194105488
 30
0.0
 10
373.1567185619485
 20
300.8462296038931
 30
0.0
 10
373.1526046537754
 20
300.8485412438679
 30
0.0
 10
373.1447293313279
 20
300.8537681413486
 30
0.0
 10
373.1409418671857
 20
300.8567104765227
 30
0.0
 10
373.1304168253969
 20
300.8662140576135
 30
0.0
 10
373.1244362590596
 20
300.8734508475738
 30
0.0
 10
373.1195007076491
 20
300.8815949008954
 30
0.0
  0
SPLINE
  5
192
330
1F
100
AcDbEntity
  8
1
100
AcDbSpline
210
0.0
220
0.0
230
1.0
 70
     8
 71
     3
 72
    24
 73
    20
 74
     0
 42
0.000000001
 43
0.0000000001
 40
0.0
 40
0.0
 40
0.0
 40
0.0
 40
0.1249999999999998
 40
0.1249999999999998
 40
0.2499999999999994
 40
0.2499999999999994
 40
0.312500000000021
 40
0.312500000000021
 40
0.3750000000000424
 40
0.3750000000000424
 40
0.500000000000034
 40
0.500000000000034
 40
0.6250000000000256
 40
0.6250000000000256
 40
0.7500000000000171
 40
0.7500000000000171
 40
0.8750000000000085
 40
0.8750000000000085
 40
1.0
 40
1.0
 40
1.0
 40
1.0
 10
372.3914971855297
 20
300.7147131583796
 30
0.0
 10
372.4103128442371
 20
300.74011918381
 30
0.0
 10
372.4309189472568
 20
300.763864699062
 30
0.0
 10
372.4757250003432
 20
300.808074037235
 30
0.0
 10
372.4999231775161
 20
300.8285394179062
 30
0.0
 10
372.5391502019527
 20
300.8566032406893
 30
0.0
 10
372.5526378802112
 20
300.8654531401028
 30
0.0
 10
372.5801068330192
 20
300.8819346839344
 30
0.0
 10
372.5941361321981
 20
300.8896012644433
 30
0.0
 10
372.6371092624713
 20
300.9108797545007
 30
0.0
 10
372.6669812020971
 20
300.9227973965992
 30
0.0
 10
372.7290155831151
 20
300.9417380918096
 30
0.0
 10
372.7602669423121
 20
300.9484918641312
 30
0.0
 10
372.8232183499257
 20
300.9568762232208
 30
0.0
 10
372.8549306450243
 20
300.9585054545083
 30
0.0
 10
372.9187830923224
 20
300.9565459771978
 30
0.0
 10
372.9499932339756
 20
300.9529906326962
 30
0.0
 10
373.011142058882
 20
300.9411230722132
 30
0.0
 10
373.041080004627
 20
300.932808335832
 30
0.0
 10
373.0704061161452
 20
300.922108897807
 30
0.0
  0
SPLINE
  5
193
330
1F
100
AcDbEntity
  8
1
100
AcDbSpline
210
0.0
220
0.0
230
1.0
 70
     8
 71
     3
 72
    10
 73
     6
 74
     0
 42
0.000000001
 43
0.0000000001
 40
0.0
 40
0.0
 40
0.0
 40
0.0
 40
0.5
 40
0.5
 40
1.0
 40
1.0
 40
1.0
 40
1.0
 10
373.0704061161452
 20
300.922108897807
 30
0.0
 10
373.080760897067
 20
300.9183310244034
 30
0.0
 10
373.0901563700399
 20
300.9128863253565
 30
0.0
 10
373.1068774513791
 20
300.89901740188
 30
0.0
 10
373.1138654183815
 20
300.890893577469
 30
0.0
 10
373.1195007076491
 20
300.8815949008954
 30
0.0
  0
SPLINE
  5
194
330
1F
100
AcDbEntity
  8
1
100
AcDbSpline
210
0.0
220
0.0
230
1.0
 70
     8
 71
     3
 72
    27
 73
    23
 74
     0
 42
0.000000001
 43
0.0000000001
 40
0.0
 40
0.0
 40
0.0
 40
0.0
 40
0.1358119458612254
 40
0.1358119458612254
 40
0.2037179187918614
 40
0.2037179187918614
 40
0.2716238917224975
 40
0.2716238917224975
 40
0.4074358375837693
 40
0.4074358375837693
 40
0.4753418105143922
 40
0.4753418105143922
 40
0.5432477834450151
 40
0.5432477834450151
 40
0.6790597293062679
 40
0.6790597293062679
 40
0.7469657022368984
 40
0.7469657022368984
 40
0.8148716751675287
 40
0.8148716751675287
 40
0.9506836210287959
 40
1.0
 40
1.0
 40
1.0
 40
1.0
 10
370.9303521047441
 20
301.3642838149599
 30
0.0
 10
370.9048499186546
 20
301.3830245981322
 30
0.0
 10
370.8810724200509
 20
301.4036261354732
 30
0.0
 10
370.8479572356231
 20
301.437270823808
 30
0.0
 10
370.8373459538291
 20
301.4489449009334
 30
0.0
 10
370.8169954354775
 20
301.4732292269268
 30
0.0
 10
370.8072332571165
 20
301.4858793484127
 30
0.0
 10
370.7797334769574
 20
301.5246425062155
 30
0.0
 10
370.763619614438
 20
301.5517222224279
 30
0.0
 10
370.7427257892861
 20
301.5941671672333
 30
0.0
 10
370.7363098802413
 20
301.6086211399144
 30
0.0
 10
370.7245979159421
 20
301.6381527349204
 30
0.0
 10
370.7192823969332
 20
301.6533020840132
 30
0.0
 10
370.7052815709574
 20
301.6990249897245
 30
0.0
 10
370.698479133305
 20
301.7299229825175
 30
0.0
 10
370.6919578338093
 20
301.7768752916264
 30
0.0
 10
370.6904007549007
 20
301.7926274368385
 30
0.0
 10
370.6885359077979
 20
301.8243371425647
 30
0.0
 10
370.6882298829472
 20
301.840353870383
 30
0.0
 10
370.6892340911188
 20
301.8883005003865
 30
0.0
 10
370.6935856774888
 20
301.9312360930932
 30
0.0
 10
370.7024180824275
 20
301.9733407030706
 30
0.0
 10
370.7050923261008
 20
301.9844972680612
 30
0.0
  0
SPLINE
  5
195
330
1F
100
AcDbEntity
  8
1
100
AcDbSpline
210
0.0
220
0.0
230
1.0
 70
     8
 71
     3
 72
    21
 73
    17
 74
     0
 42
0.000000001
 43
0.0000000001
 40
0.0
 40
0.0
 40
0.0
 40
0.0
 40
0.1243620819325637
 40
0.1243620819325637
 40
0.2119258737393311
 40
0.2119258737393311
 40
0.2994896655460986
 40
0.2994896655460986
 40
0.4746172491595886
 40
0.4746172491595886
 40
0.5621810409663031
 40
0.5621810409663031
 40
0.6497448327730179
 40
0.6497448327730179
 40
0.8248724163865091
 40
1.0
 40
1.0
 40
1.0
 40
1.0
 10
373.6374627411831
 20
301.1480731791818
 30
0.0
 10
373.6270775990457
 20
301.1281001415702
 30
0.0
 10
373.6156166495646
 20
301.1087984072262
 30
0.0
 10
373.5942732761047
 20
301.0770373283021
 30
0.0
 10
373.5849247793658
 20
301.064244833744
 30
0.0
 10
373.5651465050898
 20
301.0393345134225
 30
0.0
 10
373.5546643138318
 20
301.0271640446571
 30
0.0
 10
373.5220357534348
 20
300.9922247830864
 30
0.0
 10
373.4986957753717
 20
300.9709490726648
 30
0.0
 10
373.4613768880568
 20
300.9419700330188
 30
0.0
 10
373.4485505900632
 20
300.9328018084328
 30
0.0
 10
373.4221148522451
 20
300.9154611203426
 30
0.0
 10
373.4084536633269
 20
300.9072609451601
 30
0.0
 10
373.3666263123794
 20
300.8844001888527
 30
0.0
 10
373.3092143139414
 20
300.8588148132403
 30
0.0
 10
373.2486743330784
 20
300.8425965228715
 30
0.0
 10
373.2176032979315
 20
300.8369010093562
 30
0.0
  0
SPLINE
  5
196
330
1F
100
AcDbEntity
  8
1
100
AcDbSpline
210
0.0
220
0.0
230
1.0
 70
     8
 71
     3
 72
    18
 73
    14
 74
     0
 42
0.000000001
 43
0.0000000001
 40
0.0
 40
0.0
 40
0.0
 40
0.0
 40
0.2127774583477628
 40
0.2127774583477628
 40
0.4255549166955256
 40
0.4255549166955256
 40
0.5319436458694057
 40
0.5319436458694057
 40
0.6383323750432858
 40
0.6383323750432858
 40
0.8511098333910345
 40
0.8511098333910345
 40
1.0
 40
1.0
 40
1.0
 40
1.0
 10
371.0277411568275
 20
302.8233533407314
 30
0.0
 10
371.040226837125
 20
302.7951357950014
 30
0.0
 10
371.050391969346
 20
302.766132038736
 30
0.0
 10
371.0661121686554
 20
302.7065026834677
 30
0.0
 10
371.0716694537643
 20
302.6758779369108
 30
0.0
 10
371.0762854087767
 20
302.6285837130725
 30
0.0
 10
371.0771855510771
 20
302.6126900466211
 30
0.0
 10
371.077694078402
 20
302.5810277848013
 30
0.0
 10
371.0773086034508
 20
302.5652010881833
 30
0.0
 10
371.0742341979527
 20
302.5177303967824
 30
0.0
 10
371.0696291610071
 20
302.4860451691856
 30
0.0
 10
371.0572635877952
 20
302.4323753050325
 30
0.0
 10
371.0509739861367
 20
302.4107863812164
 30
0.0
 10
371.0435324611257
 20
302.3896829473612
 30
0.0
  0
SPLINE
  5
197
330
1F
100
AcDbEntity
  8
1
100
AcDbSpline
210
0.0
220
0.0
230
1.0
 70
     8
 71
     3
 72
    10
 73
     6
 74
     0
 42
0.000000001
 43
0.0000000001
 40
0.0
 40
0.0
 40
0.0
 40
0.0
 40
0.5
 40
0.5
 40
1.0
 40
1.0
 40
1.0
 40
1.0
 10
370.9844858276198
 20
302.8687955711279
 30
0.0
 10
370.9940488240392
 20
302.8639483294743
 30
0.0
 10
371.0025757466059
 20
302.85763696191
 30
0.0
 10
371.017383841395
 20
302.8421384377368
 30
0.0
 10
371.0233324355219
 20
302.8333170184879
 30
0.0
 10
371.0277411568275
 20
302.8233533407314
 30
0.0
  0
SPLINE
  5
198
330
1F
100
AcDbEntity
  8
1
100
AcDbSpline
210
0.0
220
0.0
230
1.0
 70
     8
 71
     3
 72
    20
 73
    16
 74
     0
 42
0.000000001
 43
0.0000000001
 40
0.0
 40
0.0
 40
0.0
 40
0.0
 40
0.125
 40
0.125
 40
0.25
 40
0.25
 40
0.375
 40
0.375
 40
0.5
 40
0.5
 40
0.625
 40
0.625
 40
0.75
 40
0.75
 40
1.0
 40
1.0
 40
1.0
 40
1.0
 10
370.9844858276198
 20
302.8687955711279
 30
0.0
 10
370.9803020717596
 20
302.8709162114362
 30
0.0
 10
370.9763079431997
 20
302.8733282783035
 30
0.0
 10
370.9686965548997
 20
302.8787312897247
 30
0.0
 10
370.965077579743
 20
302.8817305824849
 30
0.0
 10
370.9583899624549
 20
302.8881704023744
 30
0.0
 10
370.9552974598448
 20
302.8916258343406
 30
0.0
 10
370.9496237595818
 20
302.8990148821804
 30
0.0
 10
370.9470259846147
 20
302.9029823214432
 30
0.0
 10
370.9424919695646
 20
302.9112259062457
 30
0.0
 10
370.9405474415121
 20
302.9155014535579
 30
0.0
 10
370.9373100044954
 20
302.9243621563937
 30
0.0
 10
370.9360111403768
 20
302.9289784493371
 30
0.0
 10
370.933211699869
 20
302.9431078749363
 30
0.0
 10
370.9328003293795
 20
302.9526965571703
 30
0.0
 10
370.9339364338782
 20
302.9624619903517
 30
0.0
  0
SPLINE
  5
199
330
1F
100
AcDbEntity
  8
1
100
AcDbSpline
210
0.0
220
0.0
230
1.0
 70
     8
 71
     3
 72
    14
 73
    10
 74
     0
 42
0.000000001
 43
0.0000000001
 40
0.0
 40
0.0
 40
0.0
 40
0.0
 40
0.0909779694543868
 40
0.0909779694543868
 40
0.3939853129695911
 40
0.3939853129695911
 40
0.6969926564847954
 40
0.6969926564847954
 40
1.0
 40
1.0
 40
1.0
 40
1.0
 10
373.5957209593022
 20
301.9394243951648
 30
0.0
 10
373.5988940696025
 20
301.9484230210397
 30
0.0
 10
373.6022751164415
 20
301.9573205017838
 30
0.0
 10
373.6178017758677
 20
301.9954217623038
 30
0.0
 10
373.6320169241652
 20
302.0236340584968
 30
0.0
 10
373.6650585805235
 20
302.0777916166399
 30
0.0
 10
373.6834002385923
 20
302.1029511111686
 30
0.0
 10
373.7234830305439
 20
302.1497715664108
 30
0.0
 10
373.7452259192558
 20
302.1714306163783
 30
0.0
 10
373.7686913449359
 20
302.1913589168002
 30
0.0
  0
SPLINE
  5
19A
330
1F
100
AcDbEntity
  8
1
100
AcDbSpline
210
0.0
220
0.0
230
1.0
 70
     8
 71
     3
 72
    10
 73
     6
 74
     0
 42
0.000000001
 43
0.0000000001
 40
0.0
 40
0.0
 40
0.0
 40
0.0
 40
0.5
 40
0.5
 40
1.0
 40
1.0
 40
1.0
 40
1.0
 10
373.7686913449359
 20
302.1913589168002
 30
0.0
 10
373.7769771520716
 20
302.198395740086
 30
0.0
 10
373.7862083017244
 20
302.2037631911762
 30
0.0
 10
373.8062002307525
 20
302.2112136892623
 30
0.0
 10
373.8165354317443
 20
302.2131540109793
 30
0.0
 10
373.8272073934185
 20
302.2133352179378
 30
0.0
  0
SPLINE
  5
19B
330
1F
100
AcDbEntity
  8
1
100
AcDbSpline
210
0.0
220
0.0
230
1.0
 70
     8
 71
     3
 72
    16
 73
    12
 74
     0
 42
0.000000001
 43
0.0000000001
 40
0.0
 40
0.0
 40
0.0
 40
0.0
 40
0.0631184671097046
 40
0.0631184671097046
 40
0.2504947736876671
 40
0.2504947736876671
 40
0.4378710802656297
 40
0.4378710802656297
 40
0.6252473868435919
 40
0.6252473868435919
 40
1.0
 40
1.0
 40
1.0
 40
1.0
 10
373.8935601261766
 20
302.2427968349409
 30
0.0
 10
373.8924737359974
 20
302.2416290751094
 30
0.0
 10
373.8913560731705
 20
302.2404885284769
 30
0.0
 10
373.8867961203117
 20
302.2360704021743
 30
0.0
 10
373.8831378829989
 20
302.2330419062752
 30
0.0
 10
373.8755234365013
 20
302.2276506956453
 30
0.0
 10
373.8715426799158
 20
302.2252637637923
 30
0.0
 10
373.8632401585176
 20
302.2210983318061
 30
0.0
 10
373.858882411588
 20
302.2193108491542
 30
0.0
 10
373.8456409020686
 20
302.2150114157672
 30
0.0
 10
373.8365540272474
 20
302.213493921196
 30
0.0
 10
373.8272073934185
 20
302.2133352179378
 30
0.0
  0
SPLINE
  5
19C
330
1F
100
AcDbEntity
  8
1
100
AcDbSpline
210
0.0
220
0.0
230
1.0
 70
     8
 71
     3
 72
     8
 73
     4
 74
     0
 42
0.000000001
 43
0.0000000001
 40
0.0
 40
0.0
 40
0.0
 40
0.0
 40
1.0
 40
1.0
 40
1.0
 40
1.0
 10
370.9339364338782
 20
302.9624619903517
 30
0.0
 10
370.935216009016
 20
302.9734606313415
 30
0.0
 10
370.936800201123
 20
302.9843923611531
 30
0.0
 10
370.9386873195908
 20
302.9952573034099
 30
0.0
  0
SPLINE
  5
19D
330
1F
100
AcDbEntity
  8
1
100
AcDbSpline
210
0.0
220
0.0
230
1.0
 70
     8
 71
     3
 72
    10
 73
     6
 74
     0
 42
0.000000001
 43
0.0000000001
 40
0.0
 40
0.0
 40
0.0
 40
0.0
 40
0.6628244121305407
 40
0.6628244121305407
 40
1.0
 40
1.0
 40
1.0
 40
1.0
 10
372.2620051439353
 20
303.6435120880253
 30
0.0
 10
372.2615015745881
 20
303.6413405863311
 30
0.0
 10
372.2609168423502
 20
303.6391794667943
 30
0.0
 10
372.2599119263525
 20
303.6359359356739
 30
0.0
 10
372.2595538654335
 20
303.6348506001746
 30
0.0
 10
372.2591764480718
 20
303.633773614943
 30
0.0
  0
SPLINE
  5
19E
330
1F
100
AcDbEntity
  8
1
100
AcDbSpline
210
0.0
220
0.0
230
1.0
 70
     8
 71
     3
 72
    12
 73
     8
 74
     0
 42
0.000000001
 43
0.0000000001
 40
0.0
 40
0.0
 40
0.0
 40
0.0
 40
0.4340277847276179
 40
0.4340277847276179
 40
0.8680555694552356
 40
0.8680555694552356
 40
1.0
 40
1.0
 40
1.0
 40
1.0
 10
300.0260668826921
 20
308.3863972962085
 30
0.0
 10
299.4258604525475
 20
308.3916370759339
 30
0.0
 10
298.8289572519722
 20
308.3964078832814
 30
0.0
 10
297.6405267867819
 20
308.4038100451516
 30
0.0
 10
297.048994433517
 20
308.4064444788481
 30
0.0
 10
296.280708747591
 20
308.4078096965623
 30
0.0
 10
296.1018169192062
 20
308.4079819229891
 30
0.0
 10
295.9231429539535
 20
308.4079934898098
 30
0.0
  0
SPLINE
  5
1A4
330
1F
100
AcDbEntity
  8
1
100
AcDbSpline
210
0.0
220
0.0
230
1.0
 70
     9
 71
     3
 72
   133
 73
   129
 74
     0
 42
0.000000001
 43
0.0000000001
 40
0.0
 40
0.0
 40
0.0
 40
0.0
 40
0.0312499999999766
 40
0.0312499999999766
 40
0.0468749999999648
 40
0.0468749999999648
 40
0.0546874999999587
 40
0.0546874999999587
 40
0.0624999999999526
 40
0.0624999999999526
 40
0.09374999999993
 40
0.09374999999993
 40
0.1093749999999187
 40
0.1093749999999187
 40
0.1171874999999143
 40
0.1171874999999143
 40
0.1249999999999099
 40
0.1249999999999099
 40
0.156249999999886
 40
0.156249999999886
 40
0.1640624999998801
 40
0.1640624999998801
 40
0.1718749999998743
 40
0.1718749999998743
 40
0.1874999999998626
 40
0.2031249999998509
 40
0.2031249999998509
 40
0.2109374999998451
 40
0.2109374999998451
 40
0.2187499999998393
 40
0.2187499999998393
 40
0.2499999999998205
 40
0.2499999999998205
 40
0.2656249999998133
 40
0.2656249999998133
 40
0.2734374999998119
 40
0.2734374999998119
 40
0.2812499999998106
 40
0.2812499999998106
 40
0.3124999999998095
 40
0.3124999999998095
 40
0.3203124999998093
 40
0.3203124999998093
 40
0.328124999999809
 40
0.328124999999809
 40
0.3437499999998084
 40
0.3593749999998079
 40
0.3593749999998079
 40
0.3671874999998092
 40
0.3671874999998092
 40
0.3749999999998104
 40
0.3749999999998104
 40
0.4062499999998181
 40
0.4062499999998181
 40
0.421874999999822
 40
0.421874999999822
 40
0.4296874999998238
 40
0.4296874999998238
 40
0.4374999999998256
 40
0.4374999999998256
 40
0.4687499999998284
 40
0.4687499999998284
 40
0.4765624999998291
 40
0.4765624999998291
 40
0.4843749999998296
 40
0.4843749999998296
 40
0.49999999999983
 40
0.49999999999983
 40
0.5312499999998311
 40
0.5312499999998311
 40
0.5390624999998313
 40
0.5390624999998313
 40
0.5468749999998315
 40
0.5468749999998315
 40
0.5624999999998304
 40
0.5781249999998292
 40
0.5781249999998292
 40
0.5859374999998283
 40
0.5859374999998283
 40
0.5937499999998274
 40
0.5937499999998274
 40
0.6249999999998296
 40
0.6249999999998296
 40
0.6406249999998324
 40
0.6406249999998324
 40
0.6484374999998338
 40
0.6484374999998338
 40
0.656249999999835
 40
0.656249999999835
 40
0.6874999999998474
 40
0.6874999999998474
 40
0.7031249999998535
 40
0.7031249999998535
 40
0.7187499999998597
 40
0.7187499999998597
 40
0.749999999999872
 40
0.749999999999872
 40
0.7578124999998784
 40
0.7578124999998784
 40
0.7656249999998849
 40
0.7656249999998849
 40
0.7812499999998934
 40
0.7968749999999019
 40
0.7968749999999019
 40
0.8124999999999102
 40
0.8124999999999102
 40
0.8437499999999271
 40
0.8437499999999271
 40
0.8515624999999323
 40
0.8515624999999323
 40
0.8593749999999376
 40
0.8593749999999376
 40
0.8749999999999483
 40
0.8749999999999483
 40
0.9062499999999664
 40
0.9062499999999664
 40
0.9140624999999687
 40
0.9140624999999687
 40
0.9218749999999715
 40
0.9218749999999715
 40
0.9374999999999767
 40
0.953124999999982
 40
0.953124999999982
 40
0.9609374999999852
 40
0.9609374999999852
 40
0.9687499999999884
 40
0.9687499999999884
 40
1.0
 40
1.0
 40
1.0
 40
1.0
 10
371.363358210799
 20
283.8293513132517
 30
0.0
 10
371.3650014977649
 20
283.9234951604801
 30
0.0
 10
371.375707108579
 20
284.0162002027668
 30
0.0
 10
371.4050124651719
 20
284.1531343057516
 30
0.0
 10
371.4170040549126
 20
284.1984223803626
 30
0.0
 10
371.4384231751405
 20
284.2657987851931
 30
0.0
 10
371.4461358318424
 20
284.2881647899785
 30
0.0
 10
371.4627361762332
 20
284.332705402396
 30
0.0
 10
371.4715744465192
 20
284.354743680182
 30
0.0
 10
371.5182755710621
 20
284.4634306348528
 30
0.0
 10
371.5637367232013
 20
284.54598060333
 30
0.0
 10
371.6440809958038
 20
284.6631435021333
 30
0.0
 10
371.6729013385645
 20
284.7010799711853
 30
0.0
 10
371.7193232037916
 20
284.7562259334805
 30
0.0
 10
371.7352698975581
 20
284.774238523883
 30
0.0
 10
371.767885298016
 20
284.8092921788447
 30
0.0
 10
371.7845855394111
 20
284.8263710447556
 30
0.0
 10
371.8700253523893
 20
284.9095495741871
 30
0.0
 10
371.9445248189303
 20
284.9690657454067
 30
0.0
 10
372.0455093964625
 20
285.0344217165866
 30
0.0
 10
372.0661028771309
 20
285.0470368828871
 30
0.0
 10
372.1081024125372
 20
285.0713315022759
 30
0.0
 10
372.1293752448327
 20
285.0829321753433
 30
0.0
 10
372.193770825134
 20
285.1159957051194
 30
0.0
 10
372.2813620597543
 20
285.1555662386914
 30
0.0
 10
372.3723489445712
 20
285.1862630020331
 30
0.0
 10
372.4418761510348
 20
285.2059173381733
 30
0.0
 10
372.4652667870535
 20
285.2119063941574
 30
0.0
 10
372.512485100251
 20
285.2227401283612
 30
0.0
 10
372.5363670944528
 20
285.2275941284222
 30
0.0
 10
372.6562587440154
 20
285.2488210276097
 30
0.0
 10
372.7523502725288
 20
285.2559672080753
 30
0.0
 10
372.8967456539501
 20
285.2524332939869
 30
0.0
 10
372.9449207930386
 20
285.2488618049729
 30
0.0
 10
373.017250379019
 20
285.2398128060536
 30
0.0
 10
373.0414208139318
 20
285.2361684129366
 30
0.0
 10
373.0892550485443
 20
285.2277197601399
 30
0.0
 10
373.1129748968418
 20
285.2229110351109
 30
0.0
 10
373.2306059447976
 20
285.1960004892247
 30
0.0
 10
373.3216412578186
 20
285.1653817371845
 30
0.0
 10
373.4315925834449
 20
285.1157599316551
 30
0.0
 10
373.4533889154072
 20
285.1052629190978
 30
0.0
 10
373.4965861751004
 20
285.0831023993071
 30
0.0
 10
373.5178785621783
 20
285.0714921798935
 30
0.0
 10
373.5805212728804
 20
285.0352839983137
 30
0.0
 10
373.6610443068414
 20
284.9831949648316
 30
0.0
 10
373.7357207625154
 20
284.9236993907861
 30
0.0
 10
373.789529164085
 20
284.8763001439197
 30
0.0
 10
373.8070981552751
 20
284.8600366456777
 30
0.0
 10
373.8414927522313
 20
284.8265720580664
 30
0.0
 10
373.8583599567618
 20
284.8093254636133
 30
0.0
 10
373.94026968694
 20
284.7212843443482
 30
0.0
 10
373.9976603021722
 20
284.6456792241216
 30
0.0
 10
374.0721187374482
 20
284.5249485516563
 30
0.0
 10
374.0949859910575
 20
284.4834752897002
 30
0.0
 10
374.1263052927329
 20
284.4193950177523
 30
0.0
 10
374.136263118838
 20
284.3976794072286
 30
0.0
 10
374.1549806156076
 20
284.3540633929647
 30
0.0
 10
374.1637645787788
 20
284.3321184148362
 30
0.0
 10
374.2048713964873
 20
284.2217260538516
 30
0.0
 10
374.2288320251727
 20
284.1312957163493
 30
0.0
 10
374.2478000573115
 20
284.0156864856556
 30
0.0
 10
374.2510397685756
 20
283.9924348712027
 30
0.0
 10
374.2563964033172
 20
283.9456690934302
 30
0.0
 10
374.258510196476
 20
283.9221460689263
 30
0.0
 10
374.2631063729707
 20
283.8519146771325
 30
0.0
 10
374.2638802458622
 20
283.8052994698928
 30
0.0
 10
374.2595412479184
 20
283.6660536879479
 30
0.0
 10
374.2478293093021
 20
283.5740187474435
 30
0.0
 10
374.2219184595513
 20
283.4599771436768
 30
0.0
 10
374.2161571091037
 20
283.4371919728866
 30
0.0
 10
374.203610795964
 20
283.3921843993377
 30
0.0
 10
374.1968148225391
 20
283.3699063722203
 30
0.0
 10
374.1748831916555
 20
283.3037374031282
 30
0.0
 10
374.1415315942667
 20
283.2172827876662
 30
0.0
 10
374.1000444219927
 20
283.1343145413791
 30
0.0
 10
374.0658209989519
 20
283.0734113568292
 30
0.0
 10
374.0538942617682
 20
283.0533311719054
 30
0.0
 10
374.028981580517
 20
283.0136199584878
 30
0.0
 10
374.0159578782331
 20
282.9939365071401
 30
0.0
 10
373.9486730090158
 20
282.8974503881225
 30
0.0
 10
373.888049374381
 20
282.8263763342148
 30
0.0
 10
373.7870159700766
 20
282.728752997044
 30
0.0
 10
373.7516431797183
 20
282.6977205440222
 30
0.0
 10
373.6959386493517
 20
282.6535133521934
 30
0.0
 10
373.6769096688164
 20
282.6391549917818
 30
0.0
 10
373.6380200162654
 20
282.6113003008337
 30
0.0
 10
373.6182935044076
 20
282.5978986601122
 30
0.0
 10
373.518272088576
 20
282.5334770004489
 30
0.0
 10
373.4338511766075
 20
282.4901401392486
 30
0.0
 10
373.300494537037
 20
282.4375658667256
 30
0.0
 10
373.2548873011168
 20
282.422120126623
 30
0.0
 10
373.1613972680519
 20
282.3956507427731
 30
0.0
 10
373.1143444959867
 20
282.3848598656887
 30
0.0
 10
372.9722888438897
 20
282.3595996858638
 30
0.0
 10
372.8763972855879
 20
282.3521724096501
 30
0.0
 10
372.7550015524952
 20
282.3550077035013
 30
0.0
 10
372.730571697839
 20
282.356193589194
 30
0.0
 10
372.6820526694631
 20
282.3597778496022
 30
0.0
 10
372.6579400822149
 20
282.3621725093329
 30
0.0
 10
372.5860336552078
 20
282.3711260840233
 30
0.0
 10
372.4913065476207
 20
282.3877742907916
 30
0.0
 10
372.3988282469875
 20
282.4136614503321
 30
0.0
 10
372.3074836792244
 20
282.4442167646621
 30
0.0
 10
372.2621990084962
 20
282.4619317484431
 30
0.0
 10
372.1309265532772
 20
282.5209646139003
 30
0.0
 10
372.0486338834842
 20
282.5683105456123
 30
0.0
 10
371.9520450892583
 20
282.6371764527545
 30
0.0
 10
371.9330441531337
 20
282.6514384228791
 30
0.0
 10
371.8956814837118
 20
282.6809507439723
 30
0.0
 10
371.8773030987711
 20
282.6962199874401
 30
0.0
 10
371.8236956901574
 20
282.7430287392975
 30
0.0
 10
371.7897959555056
 20
282.7757124394882
 30
0.0
 10
371.6933977696691
 20
282.878049693561
 30
0.0
 10
371.6361501778235
 20
282.9519489035036
 30
0.0
 10
371.5734486258683
 20
283.0515654118648
 30
0.0
 10
371.5614167025943
 20
283.0717595828136
 30
0.0
 10
371.5384502565373
 20
283.1125109439602
 30
0.0
 10
371.5274988542808
 20
283.1330948319272
 30
0.0
 10
371.4962125729729
 20
283.1954626320682
 30
0.0
 10
371.458671294983
 20
283.2802599789299
 30
0.0
 10
371.4293704158305
 20
283.3683169808315
 30
0.0
 10
371.4105339310858
 20
283.4356078952566
 30
0.0
 10
371.4047792220395
 20
283.4582465765976
 30
0.0
 10
371.3943379106876
 20
283.5039494378154
 30
0.0
 10
371.3896690070559
 20
283.526944693718
 30
0.0
 10
371.3691794025046
 20
283.6420688786392
 30
0.0
 10
371.361714923833
 20
283.735207466023
 30
0.0
 10
371.363358210799
 20
283.8293513132516
 30
0.0
  0
SPLINE
  5
1A5
330
1F
100
AcDbEntity
  8
1
100
AcDbSpline
210
0.0
220
0.0
230
1.0
 70
     8
 71
     3
 72
     8
 73
     4
 74
     0
 42
0.000000001
 43
0.0000000001
 40
0.0
 40
0.0
 40
0.0
 40
0.0
 40
1.0
 40
1.0
 40
1.0
 40
1.0
 10
361.5615260631743
 20
295.8926770456216
 30
0.0
 10
361.3607350012421
 20
295.9931142177167
 30
0.0
 10
361.1616972074507
 20
296.0991970321144
 30
0.0
 10
360.9645027643019
 20
296.2110483840758
 30
0.0
  0
SPLINE
  5
1A6
330
1F
100
AcDbEntity
  8
1
100
AcDbSpline
210
0.0
220
0.0
230
1.0
 70
     8
 71
     3
 72
    38
 73
    34
 74
     0
 42
0.000000001
 43
0.0000000001
 40
0.0
 40
0.0
 40
0.0
 40
0.0
 40
0.1249999999999947
 40
0.1249999999999947
 40
0.187499999999995
 40
0.187499999999995
 40
0.2031249999999922
 40
0.2031249999999922
 40
0.2187499999999893
 40
0.2187499999999893
 40
0.2499999999999888
 40
0.2499999999999888
 40
0.3749999999999886
 40
0.3749999999999886
 40
0.4999999999999883
 40
0.4999999999999883
 40
0.5312499999999885
 40
0.5312499999999885
 40
0.5468749999999885
 40
0.5468749999999885
 40
0.5624999999999885
 40
0.6249999999999935
 40
0.6249999999999935
 40
0.7500000000000006
 40
0.7500000000000006
 40
0.8125000000000033
 40
0.8125000000000033
 40
0.8437500000000053
 40
0.8593750000000056
 40
0.8593750000000056
 40
0.875000000000006
 40
0.875000000000006
 40
1.0
 40
1.0
 40
1.0
 40
1.0
 10
360.7565615251506
 20
296.9264462209632
 30
0.0
 10
360.977647497816
 20
297.0520218134147
 30
0.0
 10
361.1928098722511
 20
297.1876721833323
 30
0.0
 10
361.5053616827478
 20
297.4084817336786
 30
0.0
 10
361.6078442991713
 20
297.4849785003599
 30
0.0
 10
361.7336580243612
 20
297.584493487121
 30
0.0
 10
361.7587062038306
 20
297.6045913360759
 30
0.0
 10
361.8085689825468
 20
297.6451843041366
 30
0.0
 10
361.833402656214
 20
297.6656955460583
 30
0.0
 10
361.9073813794695
 20
297.727697860486
 30
0.0
 10
361.9559949336241
 20
297.7696473778319
 30
0.0
 10
362.195492789466
 20
297.9825047049767
 30
0.0
 10
362.3756873139065
 20
298.1627243423595
 30
0.0
 10
362.7119236234364
 20
298.5442029839269
 30
0.0
 10
362.8679845528894
 20
298.7454453115235
 30
0.0
 10
363.0466472079967
 20
299.0112959693253
 30
0.0
 10
363.0815562153525
 20
299.0651834694713
 30
0.0
 10
363.1326493277609
 20
299.1471213594912
 30
0.0
 10
363.1494851529355
 20
299.1746466335216
 30
0.0
 10
363.1826120875043
 20
299.2298785905751
 30
0.0
 10
363.2640983543703
 20
299.3684573243799
 30
0.0
 10
363.3389595902565
 20
299.5095189022969
 30
0.0
 10
363.5059482439876
 20
299.8528181045565
 30
0.0
 10
363.6004372204326
 20
300.0879941165541
 30
0.0
 10
363.7159852543257
 20
300.4505715743404
 30
0.0
 10
363.7501211363534
 20
300.5730722555872
 30
0.0
 10
363.7944714658652
 20
300.7593917418332
 30
0.0
 10
363.814931320762
 20
300.8531943267781
 30
0.0
 10
363.8327458842523
 20
300.9479882800972
 30
0.0
 10
363.8440249038752
 20
301.0114081184084
 30
0.0
 10
363.8493702243051
 20
301.0432590177519
 30
0.0
 10
363.8946314845991
 20
301.3302015955896
 30
0.0
 10
363.9147095995046
 20
301.5868930418948
 30
0.0
 10
363.913883753007
 20
301.8452765615946
 30
0.0
  0
SPLINE
  5
1A7
330
1F
100
AcDbEntity
  8
1
100
AcDbSpline
210
0.0
220
0.0
230
1.0
 70
    12
 71
     3
 72
     9
 73
     5
 74
     0
 42
0.000000001
 43
0.0000000001
 40
0.0
 40
0.0
 40
0.0
 40
0.0
 40
0.3886750227131838
 40
1.0
 40
1.0
 40
1.0
 40
1.0
 10
343.0507339065134
 20
301.8309750317422
 30
0.0
 41
1.003121472079764
 10
345.7891141263341
 20
301.7709804638731
 30
0.0
 41
1.001706165361684
 10
352.8852020266457
 20
301.2981821429855
 30
0.0
 41
0.9977230153409887
 10
359.7821137602003
 20
300.8922165034858
 30
0.0
 41
1.004024020440231
 10
363.913883753007
 20
301.8452765615947
 30
0.0
 41
1.00301611580618
  0
SPLINE
  5
1A8
330
1F
100
AcDbEntity
  8
1
100
AcDbSpline
210
0.0
220
0.0
230
1.0
 70
     8
 71
     3
 72
    31
 73
    27
 74
     0
 42
0.000000001
 43
0.0000000001
 40
0.0
 40
0.0
 40
0.0
 40
0.0
 40
0.125
 40
0.125
 40
0.2500000000000001
 40
0.2500000000000001
 40
0.3125000000000004
 40
0.3125000000000004
 40
0.3281250000000003
 40
0.3281250000000003
 40
0.3437500000000003
 40
0.3750000000000001
 40
0.3750000000000001
 40
0.4999999999999992
 40
0.4999999999999992
 40
0.6249999999999984
 40
0.6249999999999984
 40
0.6406249999999986
 40
0.6406249999999986
 40
0.6562499999999988
 40
0.6874999999999987
 40
0.7499999999999992
 40
0.7499999999999992
 40
0.8749999999999998
 40
0.8749999999999998
 40
1.0
 40
1.0
 40
1.0
 40
1.0
 10
276.2729281979013
 20
273.1685666873805
 30
0.0
 10
276.2297516047952
 20
272.9189920309919
 30
0.0
 10
276.2128388741087
 20
272.6784119884071
 30
0.0
 10
276.2280339491586
 20
272.2146661219296
 30
0.0
 10
276.2601596569907
 20
271.9915021276926
 30
0.0
 10
276.3441662140051
 20
271.6695644864336
 30
0.0
 10
276.3781535603405
 20
271.5643883243069
 30
0.0
 10
276.428128522317
 20
271.4355735869992
 30
0.0
 10
276.4384931851773
 20
271.4099589684878
 30
0.0
 10
276.4598895067081
 20
271.3591811083851
 30
0.0
 10
276.4930105691281
 20
271.2836234882517
 30
0.0
 10
276.5291662904859
 20
271.2098626601975
 30
0.0
 10
276.6562512343515
 20
270.9678596526953
 30
0.0
 10
276.7788565843833
 20
270.7865981032421
 30
0.0
 10
277.0626811093849
 20
270.44608460427
 30
0.0
 10
277.2239179051207
 20
270.2868421696304
 30
0.0
 10
277.4260814735211
 20
270.1189381925924
 30
0.0
 10
277.4488350832771
 20
270.100438004233
 30
0.0
 10
277.4947911706473
 20
270.0638461069504
 30
0.0
 10
277.5644447041389
 20
270.0095322527867
 30
0.0
 10
277.7319305822897
 20
269.8867305494833
 30
0.0
 10
277.8837527231855
 20
269.7879230582145
 30
0.0
 10
278.1978843344987
 20
269.5982366090454
 30
0.0
 10
278.4212610013466
 20
269.4823291318619
 30
0.0
 10
278.8939169286527
 20
269.2686716778869
 30
0.0
 10
279.1432053797608
 20
269.170930075929
 30
0.0
 10
279.4048419452957
 20
269.0810991211395
 30
0.0
  0
SPLINE
  5
1A9
330
1F
100
AcDbEntity
  8
1
100
AcDbSpline
210
0.0
220
0.0
230
1.0
 70
     8
 71
     3
 72
    64
 73
    60
 74
     0
 42
0.000000001
 43
0.0000000001
 40
0.0
 40
0.0
 40
0.0
 40
0.0
 40
0.0624999999999996
 40
0.0624999999999996
 40
0.1249999999999992
 40
0.1249999999999992
 40
0.1874999999999988
 40
0.1874999999999988
 40
0.2187499999999986
 40
0.2187499999999986
 40
0.2499999999999983
 40
0.2499999999999983
 40
0.2812499999999981
 40
0.2812499999999981
 40
0.3124999999999979
 40
0.3124999999999979
 40
0.3437499999999977
 40
0.3437499999999977
 40
0.3593749999999976
 40
0.3593749999999976
 40
0.3749999999999975
 40
0.3749999999999975
 40
0.4374999999999972
 40
0.4374999999999972
 40
0.4687499999999969
 40
0.4687499999999969
 40
0.4999999999999968
 40
0.4999999999999968
 40
0.5312499999999965
 40
0.5312499999999965
 40
0.5624999999999963
 40
0.5624999999999963
 40
0.5781249999999961
 40
0.5781249999999961
 40
0.593749999999996
 40
0.593749999999996
 40
0.6249999999999961
 40
0.6249999999999961
 40
0.6562499999999957
 40
0.6562499999999957
 40
0.6874999999999952
 40
0.6874999999999952
 40
0.7187499999999946
 40
0.7187499999999946
 40
0.7343749999999944
 40
0.7343749999999944
 40
0.7499999999999942
 40
0.7499999999999942
 40
0.8124999999999943
 40
0.8124999999999943
 40
0.8437499999999944
 40
0.8437499999999944
 40
0.8593749999999948
 40
0.8593749999999948
 40
0.8749999999999953
 40
0.8749999999999953
 40
0.9374999999999975
 40
0.9374999999999975
 40
1.0
 40
1.0
 40
1.0
 40
1.0
 10
302.9048419452957
 20
278.7048793777557
 30
0.0
 10
304.1065894778006
 20
278.4286236222126
 30
0.0
 10
305.3026247710727
 20
278.1435836181367
 30
0.0
 10
307.6830032764239
 20
277.5585649072985
 30
0.0
 10
308.8673380573112
 20
277.2585754569005
 30
0.0
 10
311.2246838057409
 20
276.6481302096754
 30
0.0
 10
312.3976878374727
 20
276.3376742685635
 30
0.0
 10
314.1496464214993
 20
275.8690421373636
 30
0.0
 10
314.7323823828822
 20
275.7123562398592
 30
0.0
 10
315.8956091126034
 20
275.399027598679
 30
0.0
 10
316.4760999415824
 20
275.2423857040701
 30
0.0
 10
317.635156805251
 20
274.9302336294987
 30
0.0
 10
318.2137230418268
 20
274.7747245934513
 30
0.0
 10
319.3693124918449
 20
274.4659907494784
 30
0.0
 10
319.9463360525379
 20
274.3127673182576
 30
0.0
 10
321.099275056514
 20
274.0097830545988
 30
0.0
 10
321.6751909779948
 20
273.8600237280967
 30
0.0
 10
322.5385904593773
 20
273.6388520973878
 30
0.0
 10
322.826311491258
 20
273.5657058300817
 30
0.0
 10
323.4016578385276
 20
273.4207078858202
 30
0.0
 10
323.6892403183338
 20
273.3488672849459
 30
0.0
 10
325.1261891846633
 20
272.9934497199989
 30
0.0
 10
326.273284365696
 20
272.7211664649999
 30
0.0
 10
327.9933955761894
 20
272.336011317469
 30
0.0
 10
328.5666597159369
 20
272.2114664437987
 30
0.0
 10
329.7140138423913
 20
271.9713450894419
 30
0.0
 10
330.2881062267026
 20
271.8557693579236
 30
0.0
 10
331.4380146919014
 20
271.6343735090213
 30
0.0
 10
332.013830034591
 20
271.5285499751596
 30
0.0
 10
333.1679287015867
 20
271.3270090781066
 30
0.0
 10
333.7462105270552
 20
271.2312880178946
 30
0.0
 10
334.6159555820616
 20
271.0953074171574
 30
0.0
 10
334.9062568876295
 20
271.0512452159103
 30
0.0
 10
335.4877048079081
 20
270.9656335198783
 30
0.0
 10
335.778860831961
 20
270.9240930369727
 30
0.0
 10
336.6535126507912
 20
270.8030087337294
 30
0.0
 10
337.2381804339964
 20
270.7269829868262
 30
0.0
 10
338.4100279018252
 20
270.5831016020747
 30
0.0
 10
338.9972084618447
 20
270.5152485140853
 30
0.0
 10
340.1735573082108
 20
270.3867861392224
 30
0.0
 10
340.7627264616043
 20
270.326178758513
 30
0.0
 10
341.9425970861824
 20
270.2115059538045
 30
0.0
 10
342.5332992464181
 20
270.1574417801309
 30
0.0
 10
343.4201937844937
 20
270.0808584803966
 30
0.0
 10
343.7159657982583
 20
270.0560841462269
 30
0.0
 10
344.3077421740428
 20
270.0079907547463
 30
0.0
 10
344.6037769907178
 20
269.9846694329689
 30
0.0
 10
346.0839615370146
 20
269.8716282152265
 30
0.0
 10
347.2681290755605
 20
269.7925159225055
 30
0.0
 10
349.0425402332374
 20
269.6896625903349
 30
0.0
 10
349.6337046982555
 20
269.6580311433257
 30
0.0
 10
350.5197835219903
 20
269.6145719401832
 30
0.0
 10
350.8150317628912
 20
269.6007511382295
 30
0.0
 10
351.4052773113012
 20
269.5744556932447
 30
0.0
 10
351.7002779716915
 20
269.5619830977345
 30
0.0
 10
353.1748075594582
 20
269.50311424031
 30
0.0
 10
354.3529329845011
 20
269.4672931266463
 30
0.0
 10
356.7095030999515
 20
269.4197426879347
 30
0.0
 10
357.8879588489493
 20
269.4079935137005
 30
0.0
 10
359.0678940804672
 20
269.4079935137005
 30
0.0
  0
SPLINE
  5
1AA
330
1F
100
AcDbEntity
  8
1
100
AcDbSpline
210
0.0
220
0.0
230
1.0
 70
     8
 71
     3
 72
    48
 73
    44
 74
     0
 42
0.000000001
 43
0.0000000001
 40
0.0
 40
0.0
 40
0.0
 40
0.0
 40
0.0624999999999999
 40
0.0624999999999999
 40
0.1249999999999995
 40
0.1249999999999995
 40
0.1874999999999992
 40
0.1874999999999992
 40
0.2499999999999989
 40
0.2499999999999989
 40
0.2812499999999989
 40
0.2812499999999989
 40
0.3124999999999989
 40
0.3124999999999989
 40
0.3749999999999989
 40
0.3749999999999989
 40
0.437499999999999
 40
0.437499999999999
 40
0.499999999999999
 40
0.499999999999999
 40
0.5312499999999991
 40
0.5312499999999991
 40
0.5624999999999992
 40
0.5624999999999992
 40
0.5937499999999992
 40
0.5937499999999992
 40
0.6249999999999992
 40
0.6249999999999992
 40
0.6562499999999992
 40
0.6562499999999992
 40
0.6874999999999992
 40
0.6874999999999992
 40
0.7499999999999992
 40
0.7499999999999992
 40
0.8124999999999992
 40
0.8124999999999992
 40
0.8749999999999991
 40
0.8749999999999991
 40
0.9062499999999992
 40
0.9062499999999992
 40
0.9374999999999992
 40
0.9374999999999992
 40
1.0
 40
1.0
 40
1.0
 40
1.0
 10
302.9048419452957
 20
308.3542788236797
 30
0.0
 10
303.9149919623135
 20
308.3345196446714
 30
0.0
 10
304.9210489574217
 20
308.3084103388161
 30
0.0
 10
306.9248971196777
 20
308.24027967012
 30
0.0
 10
307.9226841791495
 20
308.1982492523998
 30
0.0
 10
309.9102916014373
 20
308.0949167942668
 30
0.0
 10
310.9001083417854
 20
308.0336007573604
 30
0.0
 10
312.8725805851846
 20
307.8885438015855
 30
0.0
 10
313.8552343234125
 20
307.8047849796367
 30
0.0
 10
315.3248926984571
 20
307.6604813884212
 30
0.0
 10
315.8137892579822
 20
307.6093029084555
 30
0.0
 10
316.7896516145526
 20
307.5006426544453
 30
0.0
 10
317.2766518522883
 20
307.4431570708704
 30
0.0
 10
318.7353176341726
 20
307.2611192043954
 30
0.0
 10
319.7046318208465
 20
307.1269278993069
 30
0.0
 10
321.6399046437602
 20
306.8335595098123
 30
0.0
 10
322.6058733410042
 20
306.6743813159824
 30
0.0
 10
324.5377773674239
 20
306.3335738713711
 30
0.0
 10
325.5037251030159
 20
306.1519555518086
 30
0.0
 10
326.9551593050348
 20
305.8658920314189
 30
0.0
 10
327.4392843364385
 20
305.7683105526833
 30
0.0
 10
328.4083163326199
 20
305.5693216821345
 30
0.0
 10
328.8932042419153
 20
305.467851358563
 30
0.0
 10
329.8633704467307
 20
305.2606097921264
 30
0.0
 10
330.3486486782942
 20
305.1548374111609
 30
0.0
 10
331.319336889218
 20
304.9386777455357
 30
0.0
 10
331.8047470474458
 20
304.828289738373
 30
0.0
 10
332.7755341735672
 20
304.6026511511858
 30
0.0
 10
333.2608114641678
 20
304.4874231843518
 30
0.0
 10
334.2308291767617
 20
304.252046544487
 30
0.0
 10
334.7156045753351
 20
304.131890186116
 30
0.0
 10
336.1692060697613
 20
303.7639063949558
 30
0.0
 10
337.1372601614324
 20
303.5084550077552
 30
0.0
 10
339.073483685343
 20
302.9806043367749
 30
0.0
 10
340.0416520796107
 20
302.7082193579315
 30
0.0
 10
341.9793686693881
 20
302.1489178875382
 30
0.0
 10
342.948910024581
 20
301.8620007275759
 30
0.0
 10
344.4047073809429
 20
301.4218038758759
 30
0.0
 10
344.8901182248684
 20
301.2734567556722
 30
0.0
 10
345.8608793291217
 20
300.9737398844464
 30
0.0
 10
346.3462867960612
 20
300.8223532117832
 30
0.0
 10
347.8025830947325
 20
300.3636359063203
 30
0.0
 10
348.7735648229895
 20
300.0517966864153
 30
0.0
 10
349.7444271959353
 20
299.7334766523491
 30
0.0
  0
SPLINE
  5
1AB
330
1F
100
AcDbEntity
  8
1
100
AcDbSpline
210
0.0
220
0.0
230
1.0
 70
     8
 71
     3
 72
    46
 73
    42
 74
     0
 42
0.000000001
 43
0.0000000001
 40
0.0
 40
0.0
 40
0.0
 40
0.0
 40
0.0554708092367843
 40
0.0554708092367843
 40
0.1109416184735686
 40
0.1109416184735686
 40
0.1664124277103529
 40
0.1664124277103529
 40
0.2218832369471372
 40
0.2218832369471372
 40
0.2496186415655294
 40
0.2496186415655294
 40
0.2634863438747249
 40
0.2634863438747249
 40
0.2773540461839204
 40
0.2773540461839204
 40
0.3328248554207016
 40
0.3328248554207016
 40
0.3605602600390916
 40
0.3605602600390916
 40
0.3882956646574816
 40
0.3882956646574816
 40
0.4437664738942628
 40
0.4437664738942628
 40
0.5547080923678251
 40
0.5547080923678251
 40
0.6656497108413874
 40
0.6656497108413874
 40
0.7211205200781686
 40
0.7211205200781686
 40
0.7765913293149497
 40
0.7765913293149497
 40
0.8320621385517302
 40
0.8320621385517302
 40
0.8875329477885108
 40
0.8875329477885108
 40
0.9430037570252913
 40
0.9430037570252913
 40
0.9984745662620719
 40
0.9984745662620719
 40
1.0
 40
1.0
 40
1.0
 40
1.0
 10
363.9737462715077
 20
308.3253395835984
 30
0.0
 10
363.4002955185623
 20
308.3582325716163
 30
0.0
 10
362.8193520760931
 20
308.3799613897407
 30
0.0
 10
361.6413696825731
 20
308.4057483177299
 30
0.0
 10
361.0443275839061
 20
308.4098220624958
 30
0.0
 10
359.8341608510783
 20
308.4047281044694
 30
0.0
 10
359.2210351275372
 20
308.3955737419958
 30
0.0
 10
357.9799144500893
 20
308.3677511902414
 30
0.0
 10
357.3519219534585
 20
308.349092566608
 30
0.0
 10
356.4005801150022
 20
308.3159768429358
 30
0.0
 10
356.0819163381432
 20
308.3040745395652
 30
0.0
 10
355.6018957573177
 20
308.2850873785719
 30
0.0
 10
355.4415104087304
 20
308.2785669713502
 30
0.0
 10
355.1203978734992
 20
308.2651779305623
 30
0.0
 10
354.9596582666047
 20
308.2583089152612
 30
0.0
 10
354.1551402167115
 20
308.223127810338
 30
0.0
 10
353.5088841215367
 20
308.1923613513447
 30
0.0
 10
352.5376240475134
 20
308.1423257606039
 30
0.0
 10
352.2135616095695
 20
308.1249888116523
 30
0.0
 10
351.5652007661433
 20
308.0888807237612
 30
0.0
 10
351.2409178838841
 20
308.070100769499
 30
0.0
 10
350.2681927463009
 20
308.0113812990851
 30
0.0
 10
349.6197700434966
 20
307.9691178062976
 30
0.0
 10
347.675219855949
 20
307.8326547247433
 30
0.0
 10
346.3798357994063
 20
307.7288294389756
 30
0.0
 10
343.7936104246779
 20
307.492298427586
 30
0.0
 10
342.5027540555051
 20
307.3595939122256
 30
0.0
 10
340.5713705346682
 20
307.135368648717
 30
0.0
 10
339.9283895137819
 20
307.0564217290907
 30
0.0
 10
338.6443403127761
 20
306.8893109954531
 30
0.0
 10
338.0032695097542
 20
306.8011522973388
 30
0.0
 10
336.7234297312235
 20
306.614533324552
 30
0.0
 10
336.0846582902902
 20
306.5160799732554
 30
0.0
 10
334.8099950440543
 20
306.3073178599687
 30
0.0
 10
334.1741009141292
 20
306.1969936180128
 30
0.0
 10
332.9046414656158
 20
305.96426266088
 30
0.0
 10
332.2710807845129
 20
305.8418470425089
 30
0.0
 10
331.0056344800091
 20
305.5850481629743
 30
0.0
 10
330.3737511664669
 20
305.4506567609735
 30
0.0
 10
329.7249006735664
 20
305.3067816258773
 30
0.0
 10
329.7075353122236
 20
305.3029267452324
 30
0.0
 10
329.6901702992849
 20
305.299067647194
 30
0.0
  0
SPLINE
  5
1AC
330
1F
100
AcDbEntity
  8
1
100
AcDbSpline
210
0.0
220
0.0
230
1.0
 70
     8
 71
     3
 72
    25
 73
    21
 74
     0
 42
0.000000001
 43
0.0000000001
 40
0.0
 40
0.0
 40
0.0
 40
0.0
 40
0.1249999999999994
 40
0.1249999999999994
 40
0.2499999999999987
 40
0.2499999999999987
 40
0.3749999999999981
 40
0.3749999999999981
 40
0.4999999999999975
 40
0.4999999999999975
 40
0.5624999999999974
 40
0.5624999999999974
 40
0.5937499999999974
 40
0.5937499999999974
 40
0.6249999999999973
 40
0.7499999999999982
 40
0.7499999999999982
 40
0.8749999999999991
 40
0.8749999999999991
 40
1.0
 40
1.0
 40
1.0
 40
1.0
 10
286.1687165745301
 20
269.4878486773714
 30
0.0
 10
285.8399464141617
 20
269.5012105938488
 30
0.0
 10
285.5182133263653
 20
269.5070949554565
 30
0.0
 10
284.8869973394402
 20
269.5072111777293
 30
0.0
 10
284.5775245858426
 20
269.5014336133803
 30
0.0
 10
283.9697020896957
 20
269.4809537858078
 30
0.0
 10
283.6713578568825
 20
269.4662452584656
 30
0.0
 10
283.0851037223638
 20
269.4303123845241
 30
0.0
 10
282.7971968794107
 20
269.4090831697919
 30
0.0
 10
282.3728836328015
 20
269.374040705431
 30
0.0
 10
282.2327059397205
 20
269.3618259742899
 30
0.0
 10
282.024312351972
 20
269.3429119998357
 30
0.0
 10
281.9551282102556
 20
269.3365056558501
 30
0.0
 10
281.8175819840355
 20
269.3235496178567
 30
0.0
 10
281.4757543835158
 20
269.2908003929062
 30
0.0
 10
281.143980537906
 20
269.2567025530552
 30
0.0
 10
280.6256641142934
 20
269.2027290705264
 30
0.0
 10
280.3727677512877
 20
269.1760283834963
 30
0.0
 10
279.8794230657866
 20
269.1256334348505
 30
0.0
 10
279.6389744081395
 20
269.1019321381256
 30
0.0
 10
279.4048419452957
 20
269.0810991211395
 30
0.0
  0
SPLINE
  5
1AD
330
1F
100
AcDbEntity
  8
1
100
AcDbSpline
210
0.0
220
0.0
230
1.0
 70
     8
 71
     3
 72
     8
 73
     4
 74
     0
 42
0.000000001
 43
0.0000000001
 40
0.0
 40
0.0
 40
0.0
 40
0.0
 40
1.0
 40
1.0
 40
1.0
 40
1.0
 10
360.7553207422435
 20
296.9257414265768
 30
0.0
 10
360.7557348932243
 20
296.9259765741446
 30
0.0
 10
360.7561490265167
 20
296.9262117587525
 30
0.0
 10
360.756563142116
 20
296.92644698041
 30
0.0
  0
SPLINE
  5
1AE
330
1F
100
AcDbEntity
  8
1
100
AcDbSpline
210
0.0
220
0.0
230
1.0
 70
     8
 71
     3
 72
    27
 73
    23
 74
     0
 42
0.000000001
 43
0.0000000001
 40
0.0
 40
0.0
 40
0.0
 40
0.0
 40
0.1250000000000051
 40
0.1250000000000051
 40
0.1875000000000068
 40
0.1875000000000068
 40
0.2500000000000084
 40
0.2500000000000084
 40
0.3749999999999578
 40
0.3749999999999578
 40
0.4374999999999323
 40
0.4374999999999323
 40
0.4999999999999066
 40
0.4999999999999066
 40
0.6249999999999068
 40
0.6249999999999068
 40
0.687499999999907
 40
0.687499999999907
 40
0.7499999999999071
 40
0.7499999999999071
 40
0.8749999999999536
 40
1.0
 40
1.0
 40
1.0
 40
1.0
 10
372.3141105695221
 20
300.5608985382946
 30
0.0
 10
372.2848945938052
 20
300.5481770905374
 30
0.0
 10
372.254956646723
 20
300.5378850079897
 30
0.0
 10
372.2089877943785
 20
300.5260348488686
 30
0.0
 10
372.193487027324
 20
300.5226855324403
 30
0.0
 10
372.1621232504265
 20
300.5172127030495
 30
0.0
 10
372.1462141766189
 20
300.5150892999729
 30
0.0
 10
372.0986985514141
 20
300.5106762895449
 30
0.0
 10
372.0670871698435
 20
300.5102796371033
 30
0.0
 10
372.0197677274482
 20
300.513441848352
 30
0.0
 10
372.0040109225264
 20
300.5151250363012
 30
0.0
 10
371.9725307195761
 20
300.5197752966596
 30
0.0
 10
371.9567354680092
 20
300.5227614540587
 30
0.0
 10
371.9101064039602
 20
300.5335450410309
 30
0.0
 10
371.8799537904035
 20
300.5431380367073
 30
0.0
 10
371.8360829916006
 20
300.5610245822234
 30
0.0
 10
371.8216868434216
 20
300.5675724207646
 30
0.0
 10
371.793355453943
 20
300.5818546058533
 30
0.0
 10
371.7793699566838
 20
300.5896201711256
 30
0.0
 10
371.738485895509
 20
300.6145318175554
 30
0.0
 10
371.6873579748979
 20
300.6516558397388
 30
0.0
 10
371.6427092846322
 20
300.6962499939423
 30
0.0
 10
371.6220558734863
 20
300.7204690079981
 30
0.0
  0
SPLINE
  5
1AF
330
1F
100
AcDbEntity
  8
1
100
AcDbSpline
210
0.0
220
0.0
230
1.0
 70
     8
 71
     3
 72
    31
 73
    27
 74
     0
 42
0.000000001
 43
0.0000000001
 40
0.0
 40
0.0
 40
0.0
 40
0.0
 40
0.0625000000000007
 40
0.0625000000000007
 40
0.1250000000000015
 40
0.1250000000000015
 40
0.1875000000000022
 40
0.1875000000000022
 40
0.2500000000000029
 40
0.2500000000000029
 40
0.3125000000000037
 40
0.3125000000000037
 40
0.3750000000000044
 40
0.3750000000000044
 40
0.5000000000000059
 40
0.5000000000000059
 40
0.6250000000000073
 40
0.6250000000000073
 40
0.6562500000000064
 40
0.6562500000000064
 40
0.6875000000000055
 40
0.7500000000000031
 40
0.7500000000000031
 40
0.8750000000000015
 40
0.8750000000000015
 40
1.0
 40
1.0
 40
1.0
 40
1.0
 10
360.7077220561254
 20
293.278464566187
 30
0.0
 10
360.4777562650548
 20
293.4021153760784
 30
0.0
 10
360.2479115114432
 20
293.5272085300781
 30
0.0
 10
359.7884129465829
 20
293.7796702046865
 30
0.0
 10
359.5587593767802
 20
293.9070416024884
 30
0.0
 10
359.0996079389566
 20
294.1636398199569
 30
0.0
 10
358.8701102068851
 20
294.2928682596634
 30
0.0
 10
358.4112448797493
 20
294.5528759180492
 30
0.0
 10
358.1818773656981
 20
294.6836561021202
 30
0.0
 10
357.7232534968593
 20
294.9465411007551
 30
0.0
 10
357.4939971924794
 20
295.0786465160021
 30
0.0
 10
357.0355814621091
 20
295.3440117988101
 30
0.0
 10
356.8064220685116
 20
295.4772720523829
 30
0.0
 10
356.119073030205
 20
295.8785917408393
 30
0.0
 10
355.6610114932088
 20
296.1481777725893
 30
0.0
 10
354.7451748649626
 20
296.6907632697317
 30
0.0
 10
354.2874000853666
 20
296.9637664489546
 30
0.0
 10
353.715344938591
 20
297.3069667194095
 30
0.0
 10
353.6009324726991
 20
297.3757106943091
 30
0.0
 10
353.3723188903548
 20
297.5132752625557
 30
0.0
 10
353.029644643537
 20
297.7197797667761
 30
0.0
 10
352.6877011356071
 20
297.9267523321157
 30
0.0
 10
352.0047868944696
 20
298.3413205554378
 30
0.0
 10
351.5508025297545
 20
298.618526806766
 30
0.0
 10
350.6455540576034
 20
299.1746817193134
 30
0.0
 10
350.1942924332841
 20
299.4536319710464
 30
0.0
 10
349.7444271959579
 20
299.7334766523351
 30
0.0
  0
SPLINE
  5
1B0
330
1F
100
AcDbEntity
  8
1
100
AcDbSpline
210
0.0
220
0.0
230
1.0
 70
     8
 71
     3
 72
    34
 73
    30
 74
     0
 42
0.000000001
 43
0.0000000001
 40
0.0
 40
0.0
 40
0.0
 40
0.0
 40
0.0625000000000133
 40
0.0625000000000133
 40
0.1250000000000266
 40
0.1250000000000266
 40
0.2500000000000532
 40
0.2500000000000532
 40
0.2812500000000553
 40
0.2812500000000553
 40
0.3125000000000573
 40
0.3125000000000573
 40
0.3750000000000612
 40
0.3750000000000612
 40
0.500000000000087
 40
0.500000000000087
 40
0.5625000000000905
 40
0.5625000000000905
 40
0.5937500000000921
 40
0.5937500000000921
 40
0.6250000000000937
 40
0.6250000000000937
 40
0.687500000000078
 40
0.687500000000078
 40
0.7500000000000626
 40
0.7500000000000626
 40
0.8750000000000312
 40
0.8750000000000312
 40
1.0
 40
1.0
 40
1.0
 40
1.0
 10
369.3380126728472
 20
295.3606572002824
 30
0.0
 10
369.2999622560785
 20
295.3354331106298
 30
0.0
 10
369.2614931747659
 20
295.3113667069563
 30
0.0
 10
369.1836865616242
 20
295.2654491693097
 30
0.0
 10
369.1443492909753
 20
295.2435984087175
 30
0.0
 10
369.0249876079722
 20
295.1812823051473
 30
0.0
 10
368.9436199277824
 20
295.1440383064865
 30
0.0
 10
368.8394437556933
 20
295.102811776309
 30
0.0
 10
368.8184846943016
 20
295.0948340949843
 30
0.0
 10
368.7763109756413
 20
295.0794176623077
 30
0.0
 10
368.7550711296761
 20
295.0719707146843
 30
0.0
 10
368.691186263959
 20
295.0505230822922
 30
0.0
 10
368.6483704115794
 20
295.0374084473784
 30
0.0
 10
368.5191604294986
 20
295.0015781659806
 30
0.0
 10
368.432007779018
 20
294.9823577738186
 30
0.0
 10
368.299338643356
 20
294.9607094305224
 30
0.0
 10
368.2547909606354
 20
294.9546950703934
 30
0.0
 10
368.1874277081409
 20
294.947538965366
 30
0.0
 10
368.1648830434453
 20
294.9454647664948
 30
0.0
 10
368.1196052335812
 20
294.941952029814
 30
0.0
 10
368.0968394845829
 20
294.9405119743233
 30
0.0
 10
368.0284641977743
 20
294.9371777462143
 30
0.0
 10
367.9832079565239
 20
294.9362860572211
 30
0.0
 10
367.8933107068904
 20
294.9370494456731
 30
0.0
 10
367.8486691556169
 20
294.9387041932478
 30
0.0
 10
367.7155606072088
 20
294.9473452975708
 30
0.0
 10
367.6279078669567
 20
294.9579907603471
 30
0.0
 10
367.4541012682619
 20
294.9886601992687
 30
0.0
 10
367.3679439677782
 20
295.0086829958142
 30
0.0
 10
367.2822360954108
 20
295.0334808117971
 30
0.0
  0
SPLINE
  5
1B1
330
1F
100
AcDbEntity
  8
1
100
AcDbSpline
210
0.0
220
0.0
230
1.0
 70
     8
 71
     3
 72
    23
 73
    19
 74
     0
 42
0.000000001
 43
0.0000000001
 40
0.0
 40
0.0
 40
0.0
 40
0.0
 40
0.2500000000000263
 40
0.2500000000000263
 40
0.3750000000000394
 40
0.3750000000000394
 40
0.4375000000000425
 40
0.4687500000000405
 40
0.4687500000000405
 40
0.5000000000000386
 40
0.5000000000000386
 40
0.7500000000000227
 40
0.7500000000000227
 40
0.8125000000000168
 40
0.8125000000000168
 40
0.8750000000000113
 40
0.8750000000000113
 40
1.0
 40
1.0
 40
1.0
 40
1.0
 10
367.2823956729573
 20
294.7615462983991
 30
0.0
 10
366.7897684724866
 20
294.7442409563915
 30
0.0
 10
366.2995043223373
 20
294.7555179584193
 30
0.0
 10
365.5675786449446
 20
294.8143592532805
 30
0.0
 10
365.3241833872371
 20
294.840978927598
 30
0.0
 10
364.9599648719981
 20
294.8914599306222
 30
0.0
 10
364.7780743482853
 20
294.9193399604599
 30
0.0
 10
364.5965140546796
 20
294.951202484445
 30
0.0
 10
364.4755475725089
 20
294.9733328210465
 30
0.0
 10
364.4150708755571
 20
294.9848484294657
 30
0.0
 10
363.8719517001733
 20
295.0923367928074
 30
0.0
 10
363.397341800929
 20
295.2151427962657
 30
0.0
 10
362.8141918610207
 20
295.4022589814049
 30
0.0
 10
362.6980691616744
 20
295.4413679027327
 30
0.0
 10
362.4668427477278
 20
295.522966277136
 30
0.0
 10
362.3517133128434
 20
295.565469214072
 30
0.0
 10
362.008990568111
 20
295.6976193263868
 30
0.0
 10
361.783683272649
 20
295.7920317799645
 30
0.0
 10
361.5615260631743
 20
295.8926770456216
 30
0.0
  0
SPLINE
  5
1B2
330
1F
100
AcDbEntity
  8
1
100
AcDbSpline
210
0.0
220
0.0
230
1.0
 70
     8
 71
     3
 72
     8
 73
     4
 74
     0
 42
0.000000001
 43
0.0000000001
 40
0.0
 40
0.0
 40
0.0
 40
0.0
 40
1.0
 40
1.0
 40
1.0
 40
1.0
 10
367.2823956729573
 20
294.7615462983991
 30
0.0
 10
367.2859532405919
 20
294.761671271045
 30
0.0
 10
367.2895118462725
 20
294.7617958457973
 30
0.0
 10
367.2930714918049
 20
294.7619200219639
 30
0.0
  0
SPLINE
  5
1B3
330
1F
100
AcDbEntity
  8
1
100
AcDbSpline
210
0.0
220
0.0
230
1.0
 70
     8
 71
     3
 72
    28
 73
    24
 74
     0
 42
0.000000001
 43
0.0000000001
 40
0.0
 40
0.0
 40
0.0
 40
0.0
 40
0.1250000000000149
 40
0.1250000000000149
 40
0.2500000000000298
 40
0.2500000000000298
 40
0.2812500000000308
 40
0.2812500000000308
 40
0.3125000000000318
 40
0.3750000000000283
 40
0.3750000000000283
 40
0.5000000000000158
 40
0.5000000000000158
 40
0.5312500000000111
 40
0.5312500000000111
 40
0.5625000000000066
 40
0.5625000000000066
 40
0.6250000000000031
 40
0.6250000000000031
 40
0.7500000000000022
 40
0.875000000000001
 40
0.875000000000001
 40
1.0
 40
1.0
 40
1.0
 40
1.0
 10
360.7334961371353
 20
292.52514631325
 30
0.0
 10
360.9822808287404
 20
292.3702676542077
 30
0.0
 10
361.2362684264597
 20
292.2248760257552
 30
0.0
 10
361.7545746969141
 20
291.9531468484279
 30
0.0
 10
362.018892956109
 20
291.8268083265845
 30
0.0
 10
362.3557907233333
 20
291.6809943292633
 30
0.0
 10
362.4235284815325
 20
291.6524242610254
 30
0.0
 10
362.559491688437
 20
291.5965715426884
 30
0.0
 10
362.7640883884528
 20
291.5147541311567
 30
0.0
 10
362.9706318032423
 20
291.4388041885493
 30
0.0
 10
363.3863001272528
 20
291.2947080529925
 30
0.0
 10
363.6668507655908
 20
291.2090388556623
 30
0.0
 10
364.0218428875805
 20
291.1150295380982
 30
0.0
 10
364.093056782825
 20
291.0968823247133
 30
0.0
 10
364.235916797444
 20
291.0619025147814
 30
0.0
 10
364.3076041170406
 20
291.045061305801
 30
0.0
 10
364.5227683168319
 20
290.9966391350863
 30
0.0
 10
364.6664787144857
 20
290.9671234256865
 30
0.0
 10
365.0984021701333
 20
290.8867759788138
 30
0.0
 10
365.6764104828182
 20
290.8014891841307
 30
0.0
 10
366.2585847184633
 20
290.7594082391658
 30
0.0
 10
366.842851913913
 20
290.7390556781227
 30
0.0
 10
367.1360318922503
 20
290.7397425831444
 30
0.0
 10
367.4302826951919
 20
290.7515460350468
 30
0.0
  0
SPLINE
  5
1B4
330
1F
100
AcDbEntity
  8
1
100
AcDbSpline
210
0.0
220
0.0
230
1.0
 70
     8
 71
     3
 72
    22
 73
    18
 74
     0
 42
0.000000001
 43
0.0000000001
 40
0.0
 40
0.0
 40
0.0
 40
0.0
 40
0.249999999999989
 40
0.249999999999989
 40
0.3749999999999866
 40
0.3749999999999866
 40
0.4999999999999842
 40
0.4999999999999842
 40
0.5624999999999863
 40
0.5624999999999863
 40
0.6249999999999883
 40
0.6249999999999883
 40
0.7499999999999921
 40
0.7499999999999921
 40
0.874999999999996
 40
0.874999999999996
 40
1.0
 40
1.0
 40
1.0
 40
1.0
 10
366.7048419452958
 20
291.7987722969608
 30
0.0
 10
366.1846262504176
 20
291.7823233187964
 30
0.0
 10
365.6643312915737
 20
291.806538515889
 30
0.0
 10
364.8881015635355
 20
291.8968324770728
 30
0.0
 10
364.630063660243
 20
291.9359216864334
 30
0.0
 10
364.1160095397534
 20
292.0311836904663
 30
0.0
 10
363.8599932606876
 20
292.0873541213861
 30
0.0
 10
363.4778325380668
 20
292.1840374792128
 30
0.0
 10
363.3511547175403
 20
292.2182405867138
 30
0.0
 10
363.0995874308624
 20
292.2903882342449
 30
0.0
 10
362.9746397171025
 20
292.3283475228168
 30
0.0
 10
362.6023130996913
 20
292.4477469694031
 30
0.0
 10
362.3574509593523
 20
292.5346971796324
 30
0.0
 10
361.8744653468781
 20
292.7228812743958
 30
0.0
 10
361.6363541496448
 20
292.824080409708
 30
0.0
 10
361.166931795257
 20
293.0405988148582
 30
0.0
 10
360.9356167295532
 20
293.1559273800769
 30
0.0
 10
360.7077220561254
 20
293.2784645661866
 30
0.0
  0
SPLINE
  5
1B5
330
1F
100
AcDbEntity
  8
1
100
AcDbSpline
210
0.0
220
0.0
230
1.0
 70
     8
 71
     3
 72
    12
 73
     8
 74
     0
 42
0.000000001
 43
0.0000000001
 40
0.0
 40
0.0
 40
0.0
 40
0.0
 40
0.5
 40
0.5
 40
0.75
 40
0.75
 40
1.0
 40
1.0
 40
1.0
 40
1.0
 10
367.2822360954102
 20
295.0334808117973
 30
0.0
 10
367.1807343345891
 20
295.0628482656526
 30
0.0
 10
367.0817618230357
 20
295.0983221016111
 30
0.0
 10
366.9366395474026
 20
295.160483918156
 30
0.0
 10
366.8888241524455
 20
295.1827024894383
 30
0.0
 10
366.7942524540418
 20
295.2301752721432
 30
0.0
 10
366.7474966663948
 20
295.2554291408567
 30
0.0
 10
366.7012400822165
 20
295.2822483108462
 30
0.0
  0
SPLINE
  5
1B6
330
1F
100
AcDbEntity
  8
1
100
AcDbSpline
210
0.0
220
0.0
230
1.0
 70
    12
 71
     2
 72
     6
 73
     3
 74
     0
 42
0.000000001
 43
0.0000000001
 40
0.0
 40
0.0
 40
0.0
 40
1.0
 40
1.0
 40
1.0
 10
365.6952640786404
 20
308.3483254785816
 30
0.0
 41
0.4999994913728129
 10
365.8074462356187
 20
308.3481724413769
 30
0.0
 41
0.5000005086271872
 10
365.9196277447844
 20
308.3480190122615
 30
0.0
 41
0.4999994913728129
  0
SPLINE
  5
1B7
330
1F
100
AcDbEntity
  8
1
100
AcDbSpline
210
0.0
220
0.0
230
1.0
 70
     8
 71
     3
 72
    15
 73
    11
 74
     0
 42
0.000000001
 43
0.0000000001
 40
0.0
 40
0.0
 40
0.0
 40
0.0
 40
0.2499999999999992
 40
0.2499999999999992
 40
0.4999999999999984
 40
0.7499999999999976
 40
0.7499999999999976
 40
0.8749999999999987
 40
0.8749999999999987
 40
1.0
 40
1.0
 40
1.0
 40
1.0
 10
302.9048419452979
 20
308.3542788236797
 30
0.0
 10
302.6581999761275
 20
308.3542788236797
 30
0.0
 10
302.4132620334679
 20
308.3551325174008
 30
0.0
 10
301.9266860726524
 20
308.3583781599258
 30
0.0
 10
301.4434104464694
 20
308.3631612547192
 30
0.0
 10
300.9666417401439
 20
308.370304252606
 30
0.0
 10
300.611512763574
 20
308.3761350376722
 30
0.0
 10
300.4935448016735
 20
308.3781560441697
 30
0.0
 10
300.2584322157146
 20
308.3822651235687
 30
0.0
 10
300.1417826599583
 20
308.3843443640926
 30
0.0
 10
300.0260668826929
 20
308.3863972962077
 30
0.0
  0
SPLINE
  5
1B8
330
1F
100
AcDbEntity
  8
1
100
AcDbSpline
210
0.0
220
0.0
230
1.0
 70
     8
 71
     3
 72
    10
 73
     6
 74
     0
 42
0.000000001
 43
0.0000000001
 40
0.0
 40
0.0
 40
0.0
 40
0.0
 40
0.5000000000000005
 40
0.5000000000000005
 40
1.0
 40
1.0
 40
1.0
 40
1.0
 10
363.913883753007
 20
301.8452765615946
 30
0.0
 10
363.9266815950729
 20
302.9252566091189
 30
0.0
 10
363.9376971887717
 20
304.0052580099608
 30
0.0
 10
363.9573448075832
 20
306.1652839802096
 30
0.0
 10
363.9659671771907
 20
307.245307932905
 30
0.0
 10
363.9737462715077
 20
308.3253395835985
 30
0.0
  0
SPLINE
  5
1B9
330
1F
100
AcDbEntity
  8
1
100
AcDbSpline
210
0.0
220
0.0
230
1.0
 70
    28
 71
     4
 72
    13
 73
     8
 74
     0
 42
0.000000001
 43
0.0000000001
 40
0.0
 40
0.0
 40
0.0
 40
0.0
 40
0.0
 40
0.0259473728888941
 40
0.0259473728888941
 40
0.0259473728888941
 40
1.0
 40
1.0
 40
1.0
 40
1.0
 40
1.0
 10
302.9048419452958
 20
278.7056990584897
 30
0.0
 41
1.001523741760121
 10
302.9048419452958
 20
278.6471807157729
 30
0.0
 41
1.001543004604958
 10
302.9048419452958
 20
278.5886603121708
 30
0.0
 41
1.001556328413927
 10
302.9048419452958
 20
278.5301479098223
 30
0.0
 41
1.00156323924462
 10
302.9048419452958
 20
276.2758066497882
 30
0.0
 41
1.00156323924462
 10
302.9048419452957
 20
273.7044804796171
 30
0.0
 41
0.9918243750175475
 10
302.9048419452958
 20
271.3632794126787
 30
0.0
 41
0.9986837316152515
 10
302.9048419452957
 20
269.6244510584955
 30
0.0
 41
1.000995646419675
  0
SPLINE
  5
1BA
330
1F
100
AcDbEntity
  8
1
100
AcDbSpline
210
0.0
220
0.0
230
1.0
 70
     8
 71
     3
 72
    14
 73
    10
 74
     0
 42
0.000000001
 43
0.0000000001
 40
0.0
 40
0.0
 40
0.0
 40
0.0
 40
0.2383612133695734
 40
0.2383612133695734
 40
0.4922408089130489
 40
0.4922408089130489
 40
0.7461204044565246
 40
0.7461204044565246
 40
1.0
 40
1.0
 40
1.0
 40
1.0
 10
325.9512999983459
 20
272.7983171139022
 30
0.0
 10
325.2162085387661
 20
272.6105216937731
 30
0.0
 10
324.4804510450873
 20
272.4300720984504
 30
0.0
 10
322.9609613748078
 20
272.071119221467
 30
0.0
 10
322.177226000191
 20
271.8935095264826
 30
0.0
 10
320.6104720694708
 20
271.5530669889031
 30
0.0
 10
319.8291208788628
 20
271.390609514755
 30
0.0
 10
318.2705030771143
 20
271.0819862587879
 30
0.0
 10
317.4932337010691
 20
270.935838312724
 30
0.0
 10
316.7176183367391
 20
270.7986002530848
 30
0.0
  0
SPLINE
  5
1BB
330
1F
100
AcDbEntity
  8
1
100
AcDbSpline
210
0.0
220
0.0
230
1.0
 70
     8
 71
     3
 72
    20
 73
    16
 74
     0
 42
0.000000001
 43
0.0000000001
 40
0.0
 40
0.0
 40
0.0
 40
0.0
 40
0.1589004151553114
 40
0.1589004151553114
 40
0.3178008303106228
 40
0.3178008303106228
 40
0.4767012454659342
 40
0.4767012454659342
 40
0.6356016606212456
 40
0.6356016606212456
 40
0.7945020757765569
 40
0.7945020757765569
 40
0.9534024909318683
 40
0.9534024909318683
 40
1.0
 40
1.0
 40
1.0
 40
1.0
 10
316.717618336739
 20
270.7986002530849
 30
0.0
 10
317.1259941661788
 20
270.9208653859687
 30
0.0
 10
317.5353375119195
 20
271.0436435597433
 30
0.0
 10
318.3561528879573
 20
271.2895135483104
 30
0.0
 10
318.7676256093157
 20
271.4126012055556
 30
0.0
 10
319.592742318758
 20
271.6587373975951
 30
0.0
 10
320.0063865481051
 20
271.7817824728647
 30
0.0
 10
320.835721131831
 20
272.0279659017212
 30
0.0
 10
321.2514111194826
 20
272.1511022249604
 30
0.0
 10
322.0845457183271
 20
272.3981707393132
 30
0.0
 10
322.5019893291728
 20
272.5221027293524
 30
0.0
 10
323.3381938801852
 20
272.7720698838397
 30
0.0
 10
323.7570810611415
 20
272.898146101541
 30
0.0
 10
324.2987152241227
 20
273.0635955428153
 30
0.0
 10
324.4215304745521
 20
273.101272889451
 30
0.0
 10
324.5443327716605
 20
273.1391401766106
 30
0.0
  0
SPLINE
  5
1BC
330
1F
100
AcDbEntity
  8
1
100
AcDbSpline
210
0.0
220
0.0
230
1.0
 70
     8
 71
     3
 72
    28
 73
    24
 74
     0
 42
0.000000001
 43
0.0000000001
 40
0.0
 40
0.0
 40
0.0
 40
0.0
 40
0.1250000000000016
 40
0.1250000000000016
 40
0.2500000000000033
 40
0.2500000000000033
 40
0.3750000000000049
 40
0.3750000000000049
 40
0.5000000000000064
 40
0.5000000000000064
 40
0.6250000000000079
 40
0.6250000000000079
 40
0.7500000000000095
 40
0.7500000000000095
 40
0.7812500000000082
 40
0.7812500000000082
 40
0.8125000000000071
 40
0.8125000000000071
 40
0.8750000000000046
 40
0.8750000000000046
 40
0.9375000000000024
 40
0.9375000000000024
 40
1.0
 40
1.0
 40
1.0
 40
1.0
 10
361.5615260631744
 20
295.8926770456216
 30
0.0
 10
361.7852621819594
 20
295.7451361715022
 30
0.0
 10
362.0092484744966
 20
295.6048951989102
 30
0.0
 10
362.4570144487368
 20
295.3381084829836
 30
0.0
 10
362.6807956973687
 20
295.2115658880085
 30
0.0
 10
363.1272191827555
 20
294.9713571884894
 30
0.0
 10
363.3498624181133
 20
294.8576940859705
 30
0.0
 10
363.7928076397702
 20
294.6424127353052
 30
0.0
 10
364.0131087093914
 20
294.5407971604005
 30
0.0
 10
364.4498898543533
 20
294.3486799369023
 30
0.0
 10
364.6663641649723
 20
294.2581796826304
 30
0.0
 10
365.0938210119576
 20
294.0871970203502
 30
0.0
 10
365.3047871955017
 20
294.0067122646136
 30
0.0
 10
365.5640900342021
 20
293.9115807949556
 30
0.0
 10
365.6157314879646
 20
293.8928279910447
 30
0.0
 10
365.7185587113371
 20
293.8558493264537
 30
0.0
 10
365.7697392187455
 20
293.8376255065754
 30
0.0
 10
365.9223235269598
 20
293.7838033222586
 30
0.0
 10
366.0228523713315
 20
293.7490222038004
 30
0.0
 10
366.2215434028067
 20
293.6814814477497
 30
0.0
 10
366.3197038195551
 20
293.6487210728123
 30
0.0
 10
366.51382786557
 20
293.585076457885
 30
0.0
 10
366.6097902531532
 20
293.5541913519358
 30
0.0
 10
366.7048419452929
 20
293.5242017422755
 30
0.0
  0
SPLINE
  5
1BD
330
1F
100
AcDbEntity
  8
1
100
AcDbSpline
210
0.0
220
0.0
230
1.0
 70
     8
 71
     3
 72
    20
 73
    16
 74
     0
 42
0.000000001
 43
0.0000000001
 40
0.0
 40
0.0
 40
0.0
 40
0.0
 40
0.2500000000000007
 40
0.2500000000000007
 40
0.5000000000000015
 40
0.5000000000000015
 40
0.6250000000000018
 40
0.6250000000000018
 40
0.6875000000000017
 40
0.6875000000000017
 40
0.7500000000000015
 40
0.7500000000000015
 40
0.8750000000000007
 40
0.8750000000000007
 40
1.0
 40
1.0
 40
1.0
 40
1.0
 10
360.964502764302
 20
296.2110483840763
 30
0.0
 10
360.9262953808188
 20
296.2327201281136
 30
0.0
 10
360.8897569280201
 20
296.2561303182766
 30
0.0
 10
360.8204473323843
 20
296.3068837836252
 30
0.0
 10
360.7876636928375
 20
296.3342140757439
 30
0.0
 10
360.7419974612142
 20
296.3788788731796
 30
0.0
 10
360.7273648148466
 20
296.3943834546009
 30
0.0
 10
360.7064613958043
 20
296.4187337612494
 30
0.0
 10
360.6996666161443
 20
296.4270382649193
 30
0.0
 10
360.6865746846634
 20
296.4439024815707
 30
0.0
 10
360.680262907475
 20
296.452478459854
 30
0.0
 10
360.662086099458
 20
296.4786722350376
 30
0.0
 10
360.6509721719311
 20
296.4967513781009
 30
0.0
 10
360.6311893551534
 20
296.5344095228206
 30
0.0
 10
360.6225119401426
 20
296.5539833697572
 30
0.0
 10
360.6154369262275
 20
296.5745381024354
 30
0.0
  0
SPLINE
  5
1BE
330
1F
100
AcDbEntity
  8
1
100
AcDbSpline
210
0.0
220
0.0
230
1.0
 70
     8
 71
     3
 72
    18
 73
    14
 74
     0
 42
0.000000001
 43
0.0000000001
 40
0.0
 40
0.0
 40
0.0
 40
0.0
 40
0.2499999999999992
 40
0.2499999999999992
 40
0.4999999999999984
 40
0.4999999999999984
 40
0.6249999999999965
 40
0.6249999999999965
 40
0.687499999999997
 40
0.687499999999997
 40
0.7499999999999976
 40
0.7499999999999976
 40
1.0
 40
1.0
 40
1.0
 40
1.0
 10
299.9002698687366
 20
269.5301212305288
 30
0.0
 10
300.1346606459573
 20
269.5432241277006
 30
0.0
 10
300.3733052292913
 20
269.5558349740474
 30
0.0
 10
300.8592200920896
 20
269.5787221595875
 30
0.0
 10
301.1064893982413
 20
269.5889996230871
 30
0.0
 10
301.484124775045
 20
269.601819303624
 30
0.0
 10
301.6111270352329
 20
269.605661387046
 30
0.0
 10
301.8033680991692
 20
269.6106860700685
 30
0.0
 10
301.8677382088484
 20
269.6122379878492
 30
0.0
 10
301.9970684332204
 20
269.6150817597687
 30
0.0
 10
302.0621355055959
 20
269.6163752494626
 30
0.0
 10
302.387017019022
 20
269.6221271697235
 30
0.0
 10
302.6462541182097
 20
269.6244510584956
 30
0.0
 10
302.9048419453175
 20
269.6244510584955
 30
0.0
  0
SPLINE
  5
1BF
330
1F
100
AcDbEntity
  8
1
100
AcDbSpline
210
0.0
220
0.0
230
1.0
 70
     8
 71
     3
 72
    20
 73
    16
 74
     0
 42
0.000000001
 43
0.0000000001
 40
0.0
 40
0.0
 40
0.0
 40
0.0
 40
0.1249999999999994
 40
0.1249999999999994
 40
0.187499999999999
 40
0.187499999999999
 40
0.2499999999999987
 40
0.2499999999999987
 40
0.3749999999999993
 40
0.3749999999999993
 40
0.5
 40
0.5
 40
0.75
 40
0.75
 40
1.0
 40
1.0
 40
1.0
 40
1.0
 10
316.7176183367391
 20
270.7986002530848
 30
0.0
 10
316.151937212385
 20
270.7180803745498
 30
0.0
 10
315.5851024450319
 20
270.6419483435286
 30
0.0
 10
314.7327916044475
 20
270.5342277814202
 30
0.0
 10
314.4483858006367
 20
270.4994044052949
 30
0.0
 10
313.8791134661078
 20
270.4319105573412
 30
0.0
 10
313.5942194352201
 20
270.3992365436334
 30
0.0
 10
312.7387085156737
 20
270.3043629326586
 30
0.0
 10
312.1672605516236
 20
270.2453150675685
 30
0.0
 10
311.0219097799651
 20
270.1351544503189
 30
0.0
 10
310.4480071163385
 20
270.0840404538252
 30
0.0
 10
308.7223621396681
 20
269.941760390687
 30
0.0
 10
307.5666550423161
 20
269.8616650186801
 30
0.0
 10
305.2440718588447
 20
269.7259748395381
 30
0.0
 10
304.0772049669289
 20
269.6703565579367
 30
0.0
 10
302.9048419452957
 20
269.6244510584954
 30
0.0
  0
SPLINE
  5
1C0
330
1F
100
AcDbEntity
  8
1
100
AcDbSpline
210
0.0
220
0.0
230
1.0
 70
     8
 71
     3
 72
    27
 73
    23
 74
     0
 42
0.000000001
 43
0.0000000001
 40
0.0
 40
0.0
 40
0.0
 40
0.0
 40
0.1250000000000002
 40
0.1250000000000002
 40
0.2500000000000005
 40
0.2500000000000005
 40
0.3750000000000008
 40
0.3750000000000008
 40
0.500000000000001
 40
0.500000000000001
 40
0.6250000000000013
 40
0.6250000000000013
 40
0.687500000000001
 40
0.687500000000001
 40
0.7500000000000008
 40
0.7500000000000008
 40
0.8125000000000007
 40
0.8750000000000003
 40
0.8750000000000003
 40
0.9375000000000001
 40
0.9375000000000001
 40
1.0
 40
1.0
 40
1.0
 40
1.0
 10
286.1687165745301
 20
269.4878486773714
 30
0.0
 10
286.7175517159081
 20
269.4655428534161
 30
0.0
 10
287.2718842688291
 20
269.4496165609606
 30
0.0
 10
288.3897375068091
 20
269.4262633748768
 30
0.0
 10
288.9532654482104
 20
269.4188486178316
 30
0.0
 10
290.0876086611434
 20
269.4096455166542
 30
0.0
 10
290.6584263272724
 20
269.4078633084789
 30
0.0
 10
291.8051793003313
 20
269.4081381009119
 30
0.0
 10
292.381107656117
 20
269.410199784038
 30
0.0
 10
293.5356920377166
 20
269.4173165510867
 30
0.0
 10
294.1143276570057
 20
269.4223800700237
 30
0.0
 10
294.9826690148027
 20
269.4321607509053
 30
0.0
 10
295.2721843357318
 20
269.4357904688342
 30
0.0
 10
295.8511581625134
 20
269.4438202174469
 30
0.0
 10
296.1406159011303
 20
269.4482209296621
 30
0.0
 10
296.7193648730113
 20
269.4578316804628
 30
0.0
 10
297.297946449249
 20
269.468253267853
 30
0.0
 10
297.8761841453941
 20
269.4803416951901
 30
0.0
 10
298.4543556119429
 20
269.4932499143075
 30
0.0
 10
298.7434087042866
 20
269.5001140872913
 30
0.0
 10
299.3216579607295
 20
269.5145908546727
 30
0.0
 10
299.6108549449395
 20
269.5222036794781
 30
0.0
 10
299.9002698687371
 20
269.5301212305288
 30
0.0
  0
SPLINE
  5
1C1
330
1F
100
AcDbEntity
  8
1
100
AcDbSpline
210
0.0
220
0.0
230
1.0
 70
     8
 71
     3
 72
   119
 73
   115
 74
     0
 42
0.000000001
 43
0.0000000001
 40
0.0
 40
0.0
 40
0.0
 40
0.0
 40
0.0312499999999971
 40
0.0312499999999971
 40
0.0468749999999955
 40
0.0468749999999955
 40
0.0624999999999939
 40
0.0781249999999923
 40
0.0781249999999923
 40
0.0937499999999907
 40
0.0937499999999907
 40
0.1093749999999891
 40
0.1093749999999891
 40
0.1249999999999875
 40
0.1249999999999875
 40
0.1562499999999847
 40
0.1562499999999847
 40
0.1874999999999819
 40
0.1874999999999819
 40
0.2031249999999805
 40
0.2031249999999805
 40
0.2187499999999791
 40
0.2187499999999791
 40
0.2499999999999767
 40
0.2499999999999767
 40
0.2656249999999758
 40
0.2656249999999758
 40
0.2734374999999756
 40
0.2734374999999756
 40
0.2812499999999754
 40
0.2812499999999754
 40
0.3124999999999741
 40
0.3124999999999741
 40
0.3281249999999736
 40
0.3281249999999736
 40
0.3437499999999731
 40
0.3437499999999731
 40
0.3593749999999725
 40
0.3593749999999725
 40
0.3749999999999722
 40
0.3906249999999717
 40
0.3906249999999717
 40
0.4062499999999713
 40
0.4062499999999713
 40
0.4374999999999706
 40
0.4374999999999706
 40
0.4531249999999701
 40
0.4531249999999701
 40
0.4687499999999698
 40
0.4843749999999695
 40
0.4843749999999695
 40
0.4921874999999688
 40
0.4921874999999688
 40
0.499999999999968
 40
0.499999999999968
 40
0.5312499999999673
 40
0.5312499999999673
 40
0.5468749999999673
 40
0.5468749999999673
 40
0.5624999999999673
 40
0.5624999999999673
 40
0.5781249999999673
 40
0.5781249999999673
 40
0.5937499999999672
 40
0.6093749999999672
 40
0.6093749999999672
 40
0.6249999999999672
 40
0.6249999999999672
 40
0.6562499999999665
 40
0.6562499999999665
 40
0.6718749999999664
 40
0.6718749999999664
 40
0.6874999999999663
 40
0.6874999999999663
 40
0.7031249999999662
 40
0.7031249999999662
 40
0.7187499999999659
 40
0.7343749999999658
 40
0.7343749999999658
 40
0.7421874999999659
 40
0.7421874999999659
 40
0.7499999999999662
 40
0.7656249999999672
 40
0.7656249999999672
 40
0.773437499999968
 40
0.773437499999968
 40
0.7812499999999688
 40
0.7812499999999688
 40
0.8124999999999724
 40
0.8124999999999724
 40
0.820312499999974
 40
0.820312499999974
 40
0.8281249999999756
 40
0.8437499999999783
 40
0.8437499999999783
 40
0.8515624999999795
 40
0.8515624999999795
 40
0.8593749999999806
 40
0.8593749999999806
 40
0.8749999999999827
 40
0.8906249999999849
 40
0.8906249999999849
 40
0.8984374999999859
 40
0.8984374999999859
 40
0.9062499999999868
 40
0.9218749999999889
 40
0.9218749999999889
 40
0.9374999999999912
 40
0.9374999999999912
 40
0.9687499999999957
 40
0.9687499999999957
 40
0.984374999999998
 40
0.984374999999998
 40
1.0
 40
1.0
 40
1.0
 40
1.0
 10
376.6194747505001
 20
282.5579935136735
 30
0.0
 10
376.6030046088514
 20
282.4638628028399
 30
0.0
 10
376.5871690185542
 20
282.3670833884004
 30
0.0
 10
376.5643642246315
 20
282.2179837673836
 30
0.0
 10
376.5569112752162
 20
282.1675524535205
 30
0.0
 10
376.5424256091475
 20
282.0660615196412
 30
0.0
 10
376.5283384139583
 20
281.963809488562
 30
0.0
 10
376.5150442472249
 20
281.8600427376682
 30
0.0
 10
376.502149631651
 20
281.7555128261918
 30
0.0
 10
376.4959366833889
 20
281.7031463993128
 30
0.0
 10
376.4839761326976
 20
281.5982336946535
 30
0.0
 10
376.4782281119484
 20
281.5456839735008
 30
0.0
 10
376.4671965153618
 20
281.4403978193915
 30
0.0
 10
376.4619065884596
 20
281.3875883064778
 30
0.0
 10
376.4468397812515
 20
281.229937946129
 30
0.0
 10
376.4378307862513
 20
281.1255941048389
 30
0.0
 10
376.4218786050911
 20
280.918415365309
 30
0.0
 10
376.4150184049174
 20
280.8166562836063
 30
0.0
 10
376.4063778815078
 20
280.6667569741927
 30
0.0
 10
376.4037697846455
 20
280.6171506782474
 30
0.0
 10
376.3991512122766
 20
280.5197952926114
 30
0.0
 10
376.3971340945594
 20
280.4719481199933
 30
0.0
 10
376.3919386880778
 20
280.3308397223381
 30
0.0
 10
376.3896130287341
 20
280.240002187863
 30
0.0
 10
376.3878127513869
 20
280.1085448088591
 30
0.0
 10
376.3874948670661
 20
280.0655278893923
 30
0.0
 10
376.3874466548831
 20
280.0022208922987
 30
0.0
 10
376.3875020735487
 20
279.9813217762008
 30
0.0
 10
376.3877574417725
 20
279.9399343885665
 30
0.0
 10
376.3879574435387
 20
279.9194685292865
 30
0.0
 10
376.3893137312071
 20
279.8186681120045
 30
0.0
 10
376.3915364439438
 20
279.7425329019977
 30
0.0
 10
376.3965674833684
 20
279.6350499413583
 30
0.0
 10
376.3985272128973
 20
279.6003920869247
 30
0.0
 10
376.4029865358489
 20
279.5337699128906
 30
0.0
 10
376.4054885615885
 20
279.5017499370624
 30
0.0
 10
376.4110356927154
 20
279.4402843914577
 30
0.0
 10
376.4140845747541
 20
279.410807492915
 30
0.0
 10
376.4207131334035
 20
279.3545937245482
 30
0.0
 10
376.4278550170072
 20
279.3012504252901
 30
0.0
 10
376.4360143692453
 20
279.2535967233507
 30
0.0
 10
376.444683967957
 20
279.2087962759199
 30
0.0
 10
376.4492800743499
 20
279.1878043149724
 30
0.0
 10
376.4637498198941
 20
279.1295172153017
 30
0.0
 10
376.4743230527921
 20
279.0967593531283
 30
0.0
 10
376.4915815956393
 20
279.0568294076407
 30
0.0
 10
376.4975479527549
 20
279.0451100342429
 30
0.0
 10
376.50986378765
 20
279.0248965333544
 30
0.0
 10
376.5225747415315
 20
279.0078801102155
 30
0.0
 10
376.5360740939481
 20
278.9972429588978
 30
0.0
 10
376.546497098508
 20
278.9916803084519
 30
0.0
 10
376.5500212190768
 20
278.990228929285
 30
0.0
 10
376.5571699636199
 20
278.9881393872545
 30
0.0
 10
376.5607963136161
 20
278.9875019601
 30
0.0
 10
376.5791088285804
 20
278.9863692915154
 30
0.0
 10
376.5943887004208
 20
278.9919901403852
 30
0.0
 10
376.618260528331
 20
279.0102868144593
 30
0.0
 10
376.626376951255
 20
279.0180418713816
 30
0.0
 10
376.6428176912394
 20
279.0367617960931
 30
0.0
 10
376.6511556653149
 20
279.0477354617164
 30
0.0
 10
376.6680675238208
 20
279.0729198345756
 30
0.0
 10
376.6766447594827
 20
279.0871366236948
 30
0.0
 10
376.694024909119
 20
279.1188313631086
 30
0.0
 10
376.7115523614549
 20
279.1536421684697
 30
0.0
 10
376.729373160822
 20
279.1946584859923
 30
0.0
 10
376.7473418046648
 20
279.238802330288
 30
0.0
 10
376.7564149425932
 20
279.2624819117799
 30
0.0
 10
376.7836873607763
 20
279.3378126167191
 30
0.0
 10
376.8019723039793
 20
279.3937998478093
 30
0.0
 10
376.8295568132976
 20
279.4865479165214
 30
0.0
 10
376.8387518569912
 20
279.5188455221706
 30
0.0
 10
376.8570736218119
 20
279.5859546455198
 30
0.0
 10
376.8662109748867
 20
279.6208016522155
 30
0.0
 10
376.8844383733071
 20
279.6930942361872
 30
0.0
 10
376.8935449536392
 20
279.7306121295451
 30
0.0
 10
376.9116117782098
 20
279.8078666335734
 30
0.0
 10
376.9295315988338
 20
279.8873233517492
 30
0.0
 10
376.9471581594067
 20
279.9711732950732
 30
0.0
 10
376.9602670052996
 20
280.035724720933
 30
0.0
 10
376.9646190774179
 20
280.0575252208815
 30
0.0
 10
376.9732542226902
 20
280.1015226541305
 30
0.0
 10
376.9861153242027
 20
280.1681716585609
 30
0.0
 10
376.9987029212777
 20
280.2367696440206
 30
0.0
 10
377.0111078254367
 20
280.3066694914571
 30
0.0
 10
377.0152123209278
 20
280.3301865867877
 30
0.0
 10
377.0233600157535
 20
280.3776575712621
 30
0.0
 10
377.0274042617036
 20
280.4016186060013
 30
0.0
 10
377.0473979492863
 20
280.5220777378473
 30
0.0
 10
377.0627266413777
 20
280.620868122909
 30
0.0
 10
377.0810541494803
 20
280.7473868977708
 30
0.0
 10
377.0846787636992
 20
280.7728504707283
 30
0.0
 10
377.0918178196648
 20
280.8238959102788
 30
0.0
 10
377.1023710494957
 20
280.9007094506067
 30
0.0
 10
377.1124612789496
 20
280.9782542975663
 30
0.0
 10
377.1222432812368
 20
281.0562859876957
 30
0.0
 10
377.1254525373421
 20
281.0823777549844
 30
0.0
 10
377.1317678110979
 20
281.1347243541517
 30
0.0
 10
377.1348746273368
 20
281.1609871372425
 30
0.0
 10
377.1440066101833
 20
281.2397352643968
 30
0.0
 10
377.1557031486951
 20
281.3448106643853
 30
0.0
 10
377.1664494192113
 20
281.4500404598146
 30
0.0
 10
377.1741515253091
 20
281.5290209071688
 30
0.0
 10
377.1766598640172
 20
281.5553653255686
 30
0.0
 10
377.1815395702528
 20
281.6078865065947
 30
0.0
 10
377.1886604237881
 20
281.6864854063101
 30
0.0
 10
377.195189770863
 20
281.7645399341188
 30
0.0
 10
377.2033718220933
 20
281.868130627924
 30
0.0
 10
377.2072069117665
 20
281.9197737801339
 30
0.0
 10
377.2178688149502
 20
282.07322009619
 30
0.0
 10
377.2238556575954
 20
282.1734826566432
 30
0.0
 10
377.2311688850753
 20
282.3208505285044
 30
0.0
 10
377.2333229484664
 20
282.3693835261839
 30
0.0
 10
377.2370486898287
 20
282.4648101430077
 30
0.0
 10
377.238623976576
 20
282.5117746136469
 30
0.0
 10
377.2399129341213
 20
282.5579935137005
 30
0.0
  0
SPLINE
  5
1C2
330
1F
100
AcDbEntity
  8
1
100
AcDbSpline
210
0.0
220
0.0
230
1.0
 70
     8
 71
     3
 72
    72
 73
    68
 74
     0
 42
0.000000001
 43
0.0000000001
 40
0.0
 40
0.0
 40
0.0
 40
0.0
 40
0.0312499999999984
 40
0.0312499999999984
 40
0.0624999999999969
 40
0.0624999999999969
 40
0.0781249999999961
 40
0.0781249999999961
 40
0.0937499999999953
 40
0.0937499999999953
 40
0.1249999999999944
 40
0.1249999999999944
 40
0.1874999999999918
 40
0.1874999999999918
 40
0.2187499999999907
 40
0.2187499999999907
 40
0.2343749999999903
 40
0.2343749999999903
 40
0.2499999999999898
 40
0.2499999999999898
 40
0.3124999999999845
 40
0.3124999999999845
 40
0.3281249999999829
 40
0.3281249999999829
 40
0.3437499999999813
 40
0.3749999999999792
 40
0.3749999999999792
 40
0.3906249999999782
 40
0.3906249999999782
 40
0.4062499999999773
 40
0.4062499999999773
 40
0.4374999999999766
 40
0.4687499999999757
 40
0.4687499999999757
 40
0.4843749999999763
 40
0.4843749999999763
 40
0.4999999999999769
 40
0.5312499999999792
 40
0.5312499999999792
 40
0.5624999999999814
 40
0.5624999999999814
 40
0.6249999999999839
 40
0.6249999999999839
 40
0.6874999999999863
 40
0.6874999999999863
 40
0.7187499999999875
 40
0.7187499999999875
 40
0.7499999999999886
 40
0.7499999999999886
 40
0.7656249999999896
 40
0.7656249999999896
 40
0.7812499999999906
 40
0.7812499999999906
 40
0.8124999999999918
 40
0.8437499999999928
 40
0.8437499999999928
 40
0.8749999999999943
 40
0.8749999999999943
 40
0.9062499999999953
 40
0.9062499999999953
 40
0.9374999999999968
 40
0.9374999999999968
 40
0.968749999999998
 40
0.968749999999998
 40
0.9843749999999989
 40
0.9843749999999989
 40
1.0
 40
1.0
 40
1.0
 40
1.0
 10
377.2399129341213
 20
282.5579935137005
 30
0.0
 10
377.2360986821387
 20
282.6082032171794
 30
0.0
 10
377.2320410968332
 20
282.6576427602349
 30
0.0
 10
377.2235035387341
 20
282.7542216047003
 30
0.0
 10
377.2190194156308
 20
282.8014261269086
 30
0.0
 10
377.2119718954597
 20
282.8706140268413
 30
0.0
 10
377.2095691200539
 20
282.8934066140245
 30
0.0
 10
377.2046560929517
 20
282.9384503244948
 30
0.0
 10
377.2021426839518
 20
282.9607281454427
 30
0.0
 10
377.19446498901
 20
283.0265349318784
 30
0.0
 10
377.1891710774397
 20
283.0689813583345
 30
0.0
 10
377.1727755756864
 20
283.1921484847442
 30
0.0
 10
377.1611624565833
 20
283.268715206878
 30
0.0
 10
377.1427262016865
 20
283.3753099696153
 30
0.0
 10
377.1364107897718
 20
283.4094610884041
 30
0.0
 10
377.1266784305481
 20
283.4585825428506
 30
0.0
 10
377.1233910670166
 20
283.4746051907363
 30
0.0
 10
377.1167286796776
 20
283.5059386228623
 30
0.0
 10
377.1133524810397
 20
283.5212528198634
 30
0.0
 10
377.0963403198931
 20
283.5956298067306
 30
0.0
 10
377.0822437824878
 20
283.6484745812888
 30
0.0
 10
377.0640104731268
 20
283.7061530966386
 30
0.0
 10
377.0603311827246
 20
283.7172726103242
 30
0.0
 10
377.0529373228527
 20
283.7385876303811
 30
0.0
 10
377.0417845521567
 20
283.7692035780669
 30
0.0
 10
377.0304466111061
 20
283.7957666822076
 30
0.0
 10
377.0189846532685
 20
283.8196154175403
 30
0.0
 10
377.0151433135003
 20
283.8271122139752
 30
0.0
 10
377.0074189458854
 20
283.8411933753665
 30
0.0
 10
377.0035340270575
 20
283.8477798278562
 30
0.0
 10
376.9918588386581
 20
283.8660934722661
 30
0.0
 10
376.9762114518376
 20
283.8867113184968
 30
0.0
 10
376.960403282331
 20
283.8997358028784
 30
0.0
 10
376.9484860719764
 20
283.9066193591069
 30
0.0
 10
376.9445026933691
 20
283.9084318160098
 30
0.0
 10
376.9365454131671
 20
283.911077229767
 30
0.0
 10
376.9246125979928
 20
283.9135827848565
 30
0.0
 10
376.9126890700762
 20
283.9117138926632
 30
0.0
 10
376.8967993472474
 20
283.9053058238326
 30
0.0
 10
376.8888438051905
 20
283.9001270846722
 30
0.0
 10
376.8651386053824
 20
283.8787436737471
 30
0.0
 10
376.8495328570538
 20
283.8567473947799
 30
0.0
 10
376.8187234300925
 20
283.7970138006097
 30
0.0
 10
376.8036920075057
 20
283.7596069690208
 30
0.0
 10
376.7817217455546
 20
283.6921685666068
 30
0.0
 10
376.7744903029882
 20
283.6677691418715
 30
0.0
 10
376.7603325490466
 20
283.6155301963519
 30
0.0
 10
376.7533919970454
 20
283.5876508175162
 30
0.0
 10
376.7431892289125
 20
283.5431846073293
 30
0.0
 10
376.7398230138053
 20
283.5279209530544
 30
0.0
 10
376.7331604721138
 20
283.4965044540982
 30
0.0
 10
376.7298621598686
 20
283.4803404409562
 30
0.0
 10
376.7201099744927
 20
283.4306944285846
 30
0.0
 10
376.7074647126432
 20
283.3613245640163
 30
0.0
 10
376.6955319835004
 20
283.2856289395057
 30
0.0
 10
376.6839593235904
 20
283.2067366736226
 30
0.0
 10
376.6783795578193
 20
283.1658691032614
 30
0.0
 10
376.6676531091472
 20
283.0814859093481
 30
0.0
 10
376.6625024862713
 20
283.0379435147793
 30
0.0
 10
376.6526281137153
 20
282.9481465180523
 30
0.0
 10
376.6479026806095
 20
282.9018579741345
 30
0.0
 10
376.6389535574334
 20
282.8072905923386
 30
0.0
 10
376.6347198827565
 20
282.7589267571259
 30
0.0
 10
376.628729718389
 20
282.6847651943767
 30
0.0
 10
376.6267931090312
 20
282.6597751289651
 30
0.0
 10
376.6230406036803
 20
282.6092537157022
 30
0.0
 10
376.6212240045539
 20
282.5837097739611
 30
0.0
 10
376.6194747505032
 20
282.557993513673
 30
0.0
  0
SPLINE
  5
1C3
330
1F
100
AcDbEntity
  8
1
100
AcDbSpline
210
0.0
220
0.0
230
1.0
 70
     8
 71
     3
 72
    25
 73
    21
 74
     0
 42
0.000000001
 43
0.0000000001
 40
0.0
 40
0.0
 40
0.0
 40
0.0
 40
0.1250000000000064
 40
0.1250000000000064
 40
0.2500000000000129
 40
0.2500000000000129
 40
0.3750000000000193
 40
0.3750000000000193
 40
0.5000000000000206
 40
0.5000000000000206
 40
0.5625000000000357
 40
0.5625000000000357
 40
0.6250000000000508
 40
0.6875000000000661
 40
0.6875000000000661
 40
0.7500000000000813
 40
0.7500000000000813
 40
0.8750000000000406
 40
0.8750000000000406
 40
1.0
 40
1.0
 40
1.0
 40
1.0
 10
360.6154369262307
 20
296.5745381024362
 30
0.0
 10
360.6102886685367
 20
296.5894951133951
 30
0.0
 10
360.6060538187246
 20
296.6047424990385
 30
0.0
 10
360.5997753756258
 20
296.6359308642164
 30
0.0
 10
360.5977271289232
 20
296.6518704054483
 30
0.0
 10
360.5963987335467
 20
296.6846215883305
 30
0.0
 10
360.5971416169057
 20
296.701035832296
 30
0.0
 10
360.6018729182288
 20
296.7339066305838
 30
0.0
 10
360.6058560774215
 20
296.7503695452418
 30
0.0
 10
360.6147776502017
 20
296.7751102257828
 30
0.0
 10
360.6182105082385
 20
296.783256035658
 30
0.0
 10
360.6259243446545
 20
296.7991650270294
 30
0.0
 10
360.6345066116825
 20
296.8147487566191
 30
0.0
 10
360.6448309646534
 20
296.8296791248059
 30
0.0
 10
360.6560370924947
 20
296.8442783683819
 30
0.0
 10
360.662025595326
 20
296.851335109989
 30
0.0
 10
360.6808670506325
 20
296.8715934175384
 30
0.0
 10
360.6946725753928
 20
296.8839937978515
 30
0.0
 10
360.7244557692862
 20
296.9068645313436
 30
0.0
 10
360.7402075612979
 20
296.9171572612212
 30
0.0
 10
360.7565615251503
 20
296.9264462209636
 30
0.0
  0
SPLINE
  5
1C4
330
1F
100
AcDbEntity
  8
1
100
AcDbSpline
210
0.0
220
0.0
230
1.0
 70
     8
 71
     3
 72
    36
 73
    32
 74
     0
 42
0.000000001
 43
0.0000000001
 40
0.0
 40
0.0
 40
0.0
 40
0.0
 40
0.1249999999999873
 40
0.1249999999999873
 40
0.1874999999999809
 40
0.1874999999999809
 40
0.2187499999999833
 40
0.2187499999999833
 40
0.2499999999999856
 40
0.2499999999999856
 40
0.3749999999999989
 40
0.3749999999999989
 40
0.4062500000000023
 40
0.4062500000000023
 40
0.4375000000000057
 40
0.4375000000000057
 40
0.5000000000000124
 40
0.5000000000000124
 40
0.6250000000000271
 40
0.6250000000000271
 40
0.6562500000000307
 40
0.6562500000000307
 40
0.6875000000000341
 40
0.7500000000000409
 40
0.8125000000000477
 40
0.8125000000000477
 40
0.8437500000000508
 40
0.8437500000000508
 40
0.875000000000054
 40
0.875000000000054
 40
1.0
 40
1.0
 40
1.0
 40
1.0
 10
366.3151936959266
 20
296.4916309253652
 30
0.0
 10
366.3170248925096
 20
296.4405127708322
 30
0.0
 10
366.3239857166095
 20
296.3904538045771
 30
0.0
 10
366.341681434152
 20
296.3168632927396
 30
0.0
 10
366.348798888784
 20
296.2925848023216
 30
0.0
 10
366.3613331506381
 20
296.2565507312881
 30
0.0
 10
366.3658340858445
 20
296.2445731205652
 30
0.0
 10
366.3754042815857
 20
296.2209046691338
 30
0.0
 10
366.3804635645677
 20
296.2092333361612
 30
0.0
 10
366.4071006194323
 20
296.1516731424068
 30
0.0
 10
366.4326609243986
 20
296.1081502953551
 30
0.0
 10
366.4698523463044
 20
296.0568604267452
 30
0.0
 10
366.477555122739
 20
296.0467595871429
 30
0.0
 10
366.4934977782003
 20
296.0268769993507
 30
0.0
 10
366.5017577234362
 20
296.0170742530453
 30
0.0
 10
366.5271039323753
 20
295.9884370303624
 30
0.0
 10
366.5448075161836
 20
295.9702972048693
 30
0.0
 10
366.6002678331517
 20
295.9186515130617
 30
0.0
 10
366.6403509921217
 20
295.8878921137572
 30
0.0
 10
366.6944662708429
 20
295.8541784489236
 30
0.0
 10
366.7055122619738
 20
295.8476649901423
 30
0.0
 10
366.7277778059831
 20
295.8352573062081
 30
0.0
 10
366.7615116834172
 20
295.8175251379196
 30
0.0
 10
366.8193824651289
 20
295.7922892907482
 30
0.0
 10
366.867421798511
 20
295.7766674775749
 30
0.0
 10
366.9041190602647
 20
295.7667010249092
 30
0.0
 10
366.9164629800622
 20
295.7636710639919
 30
0.0
 10
366.941378845235
 20
295.7582086960353
 30
0.0
 10
366.9539691307996
 20
295.755774591444
 30
0.0
 10
367.0169176865619
 20
295.7452288513262
 30
0.0
 10
367.0676752929584
 20
295.7418368363697
 30
0.0
 10
367.1188421241211
 20
295.743621761552
 30
0.0
  0
SPLINE
  5
1C5
330
1F
100
AcDbEntity
  8
1
100
AcDbSpline
210
0.0
220
0.0
230
1.0
 70
     8
 71
     3
 72
    36
 73
    32
 74
     0
 42
0.000000001
 43
0.0000000001
 40
0.0
 40
0.0
 40
0.0
 40
0.0
 40
0.1250000000000182
 40
0.1250000000000182
 40
0.1875000000000274
 40
0.1875000000000274
 40
0.2187500000000264
 40
0.2187500000000264
 40
0.2500000000000254
 40
0.2500000000000254
 40
0.375000000000006
 40
0.375000000000006
 40
0.4062499999999994
 40
0.4062499999999994
 40
0.4374999999999928
 40
0.4374999999999928
 40
0.4999999999999797
 40
0.4999999999999797
 40
0.6249999999999592
 40
0.6249999999999592
 40
0.6562499999999552
 40
0.6562499999999552
 40
0.6874999999999512
 40
0.7499999999999469
 40
0.8124999999999428
 40
0.8124999999999428
 40
0.8437499999999406
 40
0.8437499999999406
 40
0.8749999999999385
 40
0.8749999999999385
 40
1.0
 40
1.0
 40
1.0
 40
1.0
 10
378.606553292615
 20
308.0608973287313
 30
0.0
 10
378.6047220960321
 20
308.1120154832642
 30
0.0
 10
378.5977612719321
 20
308.1620744495193
 30
0.0
 10
378.5800655543895
 20
308.2356649613568
 30
0.0
 10
378.5729480997577
 20
308.2599434517748
 30
0.0
 10
378.5604138379036
 20
308.2959775228084
 30
0.0
 10
378.5559129026971
 20
308.3079551335313
 30
0.0
 10
378.546342706956
 20
308.3316235849627
 30
0.0
 10
378.5412834239738
 20
308.3432949179353
 30
0.0
 10
378.5146463691092
 20
308.4008551116897
 30
0.0
 10
378.489086064143
 20
308.4443779587414
 30
0.0
 10
378.4518946422372
 20
308.4956678273513
 30
0.0
 10
378.4441918658026
 20
308.5057686669537
 30
0.0
 10
378.4282492103413
 20
308.5256512547458
 30
0.0
 10
378.4199892651055
 20
308.5354540010512
 30
0.0
 10
378.3946430561663
 20
308.5640912237341
 30
0.0
 10
378.3769394723581
 20
308.5822310492272
 30
0.0
 10
378.3214791553898
 20
308.6338767410349
 30
0.0
 10
378.2813959964199
 20
308.6646361403393
 30
0.0
 10
378.2272807176986
 20
308.6983498051728
 30
0.0
 10
378.2162347265678
 20
308.7048632639542
 30
0.0
 10
378.1939691825585
 20
308.7172709478884
 30
0.0
 10
378.1602353051245
 20
308.7350031161769
 30
0.0
 10
378.1023645234126
 20
308.7602389633483
 30
0.0
 10
378.0543251900306
 20
308.7758607765216
 30
0.0
 10
378.0176279282769
 20
308.7858272291874
 30
0.0
 10
378.0052840084794
 20
308.7888571901046
 30
0.0
 10
377.9803681433066
 20
308.7943195580611
 30
0.0
 10
377.9677778577422
 20
308.7967536626524
 30
0.0
 10
377.9048293019798
 20
308.8072994027704
 30
0.0
 10
377.8540716955832
 20
308.8106914177268
 30
0.0
 10
377.8029048644206
 20
308.8089064925445
 30
0.0
  0
SPLINE
  5
1C6
330
1F
100
AcDbEntity
  8
1
100
AcDbSpline
210
0.0
220
0.0
230
1.0
 70
     8
 71
     3
 72
    36
 73
    32
 74
     0
 42
0.000000001
 43
0.0000000001
 40
0.0
 40
0.0
 40
0.0
 40
0.0
 40
0.1250000000000636
 40
0.1250000000000636
 40
0.1875000000000945
 40
0.1875000000000945
 40
0.2187500000000938
 40
0.2187500000000938
 40
0.2500000000000931
 40
0.2500000000000931
 40
0.3750000000000629
 40
0.3750000000000629
 40
0.4062500000000485
 40
0.4062500000000485
 40
0.437500000000034
 40
0.437500000000034
 40
0.5000000000000249
 40
0.5000000000000249
 40
0.6250000000000239
 40
0.6250000000000239
 40
0.6562500000000183
 40
0.6562500000000183
 40
0.6875000000000127
 40
0.7500000000000165
 40
0.8125000000000202
 40
0.8125000000000202
 40
0.8437500000000136
 40
0.8437500000000136
 40
0.8750000000000071
 40
0.8750000000000071
 40
1.0
 40
1.0
 40
1.0
 40
1.0
 10
366.6647256653423
 20
308.4203575813455
 30
0.0
 10
366.6135542444815
 20
308.4185724960543
 30
0.0
 10
366.563447578748
 20
308.4116623626221
 30
0.0
 10
366.4897933905079
 20
308.3940491573796
 30
0.0
 10
366.4654949973956
 20
308.3869602949813
 30
0.0
 10
366.4294330887732
 20
308.3744705802426
 30
0.0
 10
366.4174465139013
 20
308.3699848107206
 30
0.0
 10
366.3937609327193
 20
308.3604453073847
 30
0.0
 10
366.3820814464589
 20
308.3554015235882
 30
0.0
 10
366.3244824987389
 20
308.3288427126687
 30
0.0
 10
366.2809350293074
 20
308.3033473745371
 30
0.0
 10
366.2296222502035
 20
308.2662400854403
 30
0.0
 10
366.2195172255391
 20
308.2585542831422
 30
0.0
 10
366.1996270738837
 20
308.2426458756331
 30
0.0
 10
366.1898209435775
 20
308.234403243841
 30
0.0
 10
366.1611748853321
 20
308.2091089159427
 30
0.0
 10
366.143030886782
 20
308.1914399609642
 30
0.0
 10
366.0913776812557
 20
308.1360836513554
 30
0.0
 10
366.0606198974458
 20
308.0960699905947
 30
0.0
 10
366.0269167976119
 20
308.0420417909923
 30
0.0
 10
366.0204058903791
 20
308.0310132564438
 30
0.0
 10
366.0080041238596
 20
308.0087822766728
 30
0.0
 10
365.9902820650307
 20
307.9750998455182
 30
0.0
 10
365.9650691228157
 20
307.9173128431655
 30
0.0
 10
365.9494720388356
 20
307.8693384554999
 30
0.0
 10
365.9395265873862
 20
307.8326891068841
 30
0.0
 10
365.9365040366836
 20
307.820361025196
 30
0.0
 10
365.9310573272521
 20
307.7954765643747
 30
0.0
 10
365.9286314849899
 20
307.7829018661622
 30
0.0
 10
365.9181287973688
 20
307.720029840784
 30
0.0
 10
365.9147769814602
 20
307.6693295288729
 30
0.0
 10
365.9166080137983
 20
307.6182159592606
 30
0.0
  0
SPLINE
  5
1C7
330
1F
100
AcDbEntity
  8
1
100
AcDbSpline
210
0.0
220
0.0
230
1.0
 70
     8
 71
     3
 72
    36
 73
    32
 74
     0
 42
0.000000001
 43
0.0000000001
 40
0.0
 40
0.0
 40
0.0
 40
0.0
 40
0.1250000000000209
 40
0.1250000000000209
 40
0.1875000000000316
 40
0.1875000000000316
 40
0.2187500000000535
 40
0.2187500000000535
 40
0.2500000000000753
 40
0.2500000000000753
 40
0.3750000000001342
 40
0.3750000000001342
 40
0.4062500000001345
 40
0.4062500000001345
 40
0.4375000000001349
 40
0.4375000000001349
 40
0.50000000000011
 40
0.50000000000011
 40
0.6250000000000617
 40
0.6250000000000617
 40
0.6562500000000488
 40
0.6562500000000488
 40
0.6875000000000357
 40
0.750000000000023
 40
0.8125000000000103
 40
0.8125000000000103
 40
0.8437500000000074
 40
0.8437500000000074
 40
0.8750000000000046
 40
0.8750000000000046
 40
1.0
 40
1.0
 40
1.0
 40
1.0
 10
378.2570213231993
 20
296.132170672751
 30
0.0
 10
378.3081927440601
 20
296.1339557580422
 30
0.0
 10
378.3582994097936
 20
296.1408658914744
 30
0.0
 10
378.4319535980336
 20
296.1584790967169
 30
0.0
 10
378.456251991146
 20
296.1655679591152
 30
0.0
 10
378.4923138997684
 20
296.1780576738539
 30
0.0
 10
378.5043004746403
 20
296.1825434433759
 30
0.0
 10
378.5279860558223
 20
296.1920829467118
 30
0.0
 10
378.5396655420829
 20
296.1971267305083
 30
0.0
 10
378.5972644898027
 20
296.2236855414278
 30
0.0
 10
378.6408119592343
 20
296.2491808795594
 30
0.0
 10
378.6921247383381
 20
296.2862881686562
 30
0.0
 10
378.7022297630025
 20
296.2939739709543
 30
0.0
 10
378.722119914658
 20
296.3098823784633
 30
0.0
 10
378.7319260449642
 20
296.3181250102555
 30
0.0
 10
378.7605721032095
 20
296.3434193381539
 30
0.0
 10
378.7787161017596
 20
296.3610882931324
 30
0.0
 10
378.8303693072858
 20
296.4164446027411
 30
0.0
 10
378.8611270910959
 20
296.4564582635018
 30
0.0
 10
378.8948301909297
 20
296.5104864631042
 30
0.0
 10
378.9013410981626
 20
296.5215149976527
 30
0.0
 10
378.9137428646821
 20
296.5437459774237
 30
0.0
 10
378.9314649235109
 20
296.5774284085783
 30
0.0
 10
378.956677865726
 20
296.635215410931
 30
0.0
 10
378.9722749497062
 20
296.6831897985967
 30
0.0
 10
378.9822204011554
 20
296.7198391472124
 30
0.0
 10
378.9852429518579
 20
296.7321672289007
 30
0.0
 10
378.9906896612895
 20
296.7570516897217
 30
0.0
 10
378.9931155035518
 20
296.7696263879343
 30
0.0
 10
379.0036181911728
 20
296.8324984133125
 30
0.0
 10
379.0069700070815
 20
296.8831987252236
 30
0.0
 10
379.0051389747434
 20
296.9343122948359
 30
0.0
  0
SPLINE
  5
1C8
330
1F
100
AcDbEntity
  8
1
100
AcDbSpline
210
0.0
220
0.0
230
1.0
 70
     8
 71
     3
 72
    26
 73
    22
 74
     0
 42
0.000000001
 43
0.0000000001
 40
0.0
 40
0.0
 40
0.0
 40
0.0
 40
0.1250000000000003
 40
0.1250000000000003
 40
0.2500000000000007
 40
0.2500000000000007
 40
0.3750000000000011
 40
0.3750000000000011
 40
0.5000000000000014
 40
0.5000000000000014
 40
0.6250000000000017
 40
0.6250000000000017
 40
0.6562500000000017
 40
0.6562500000000017
 40
0.6875000000000016
 40
0.6875000000000016
 40
0.7500000000000016
 40
0.7500000000000016
 40
0.8750000000000007
 40
0.8750000000000007
 40
1.0
 40
1.0
 40
1.0
 40
1.0
 10
279.4048419452957
 20
277.38474832537
 30
0.0
 10
279.6414352068175
 20
277.6000299692172
 30
0.0
 10
279.8837493421566
 20
277.8060670183849
 30
0.0
 10
280.3797170943159
 20
278.1997981735117
 30
0.0
 10
280.6333711879498
 20
278.3874915635603
 30
0.0
 10
281.1521926638852
 20
278.7442381156822
 30
0.0
 10
281.4173591890229
 20
278.9132927021952
 30
0.0
 10
281.9596577779327
 20
279.232015477787
 30
0.0
 10
282.2367875733223
 20
279.3816873661002
 30
0.0
 10
282.8037895462296
 20
279.6603740537407
 30
0.0
 10
283.0936574792675
 20
279.7893957470549
 30
0.0
 10
283.4647040935621
 20
279.9365437035762
 30
0.0
 10
283.5393502312317
 20
279.9652648454523
 30
0.0
 10
283.6895402766975
 20
280.0212509456386
 30
0.0
 10
283.7649951784342
 20
280.0484807572989
 30
0.0
 10
283.9917333316837
 20
280.1275920498479
 30
0.0
 10
284.1436685239459
 20
280.1770015965725
 30
0.0
 10
284.6018497247556
 20
280.3150152396521
 30
0.0
 10
284.9104649680921
 20
280.3934301892003
 30
0.0
 10
285.534406273291
 20
280.521323016409
 30
0.0
 10
285.8497303760602
 20
280.5708089781474
 30
0.0
 10
286.1687165745301
 20
280.6044965691412
 30
0.0
  0
SPLINE
  5
1C9
330
1F
100
AcDbEntity
  8
1
100
AcDbSpline
210
0.0
220
0.0
230
1.0
 70
     8
 71
     3
 72
    30
 73
    26
 74
     0
 42
0.000000001
 43
0.0000000001
 40
0.0
 40
0.0
 40
0.0
 40
0.0
 40
0.1249999999999995
 40
0.1249999999999995
 40
0.2499999999999989
 40
0.2499999999999989
 40
0.3749999999999984
 40
0.3749999999999984
 40
0.4374999999999983
 40
0.4374999999999983
 40
0.4687499999999988
 40
0.4687499999999988
 40
0.4999999999999993
 40
0.4999999999999993
 40
0.6249999999999988
 40
0.6249999999999988
 40
0.7499999999999987
 40
0.7499999999999987
 40
0.8749999999999985
 40
0.8749999999999985
 40
0.9062499999999987
 40
0.9062499999999987
 40
0.9374999999999989
 40
0.9374999999999989
 40
1.0
 40
1.0
 40
1.0
 40
1.0
 10
279.4048419452957
 20
277.38474832537
 30
0.0
 10
279.1962602678037
 20
277.234472709055
 30
0.0
 10
278.9961935783652
 20
277.0794546964195
 30
0.0
 10
278.613154396738
 20
276.7605745070675
 30
0.0
 10
278.4301808183989
 20
276.5967119935221
 30
0.0
 10
278.0817524605022
 20
276.2606007249368
 30
0.0
 10
277.9162950319541
 20
276.0883522673562
 30
0.0
 10
277.6818773300924
 20
275.823898333103
 30
0.0
 10
277.6060363174631
 20
275.7347320461406
 30
0.0
 10
277.4958368765821
 20
275.5994723424699
 30
0.0
 10
277.4596531714231
 20
275.5540752813258
 30
0.0
 10
277.3888381519001
 20
275.4632232155176
 30
0.0
 10
277.3541800278175
 20
275.4177379877849
 30
0.0
 10
277.1846207851913
 20
275.1900452992549
 30
0.0
 10
277.0608933936286
 20
275.0070428437111
 30
0.0
 10
276.8372084145695
 20
274.6400156715966
 30
0.0
 10
276.7372497752518
 20
274.4559901133679
 30
0.0
 10
276.5615642233902
 20
274.0874856835469
 30
0.0
 10
276.4858341265805
 20
273.9030062790832
 30
0.0
 10
276.4069753696677
 20
273.6724276610146
 30
0.0
 10
276.3919954200643
 20
273.6263127860354
 30
0.0
 10
276.3636424548653
 20
273.5340916359568
 30
0.0
 10
276.3502789848368
 20
273.4880103613805
 30
0.0
 10
276.312771814342
 20
273.3503391549485
 30
0.0
 10
276.2911549662538
 20
273.2591465249366
 30
0.0
 10
276.2729281979013
 20
273.1685666873805
 30
0.0
  0
SPLINE
  5
1CA
330
1F
100
AcDbEntity
  8
95
100
AcDbSpline
210
0.0
220
0.0
230
1.0
 70
     8
 71
     5
 72
    12
 73
     6
 74
     0
 42
0.000000001
 43
0.0000000001
 40
0.0
 40
0.0
 40
0.0
 40
0.0
 40
0.0
 40
0.0
 40
1.0
 40
1.0
 40
1.0
 40
1.0
 40
1.0
 40
1.0
 10
379.2532685852162
 20
298.6450339436931
 30
0.0
 10
379.1882974607046
 20
298.7531583505467
 30
0.0
 10
379.1233264060867
 20
298.8612827993989
 30
0.0
 10
379.0583554174822
 20
298.9694072879179
 30
0.0
 10
378.9933844914381
 20
299.0775318140289
 30
0.0
 10
378.9284136248277
 20
299.1856563758529
 30
0.0
  0
SPLINE
  5
1CB
330
1F
100
AcDbEntity
  8
1
100
AcDbSpline
210
0.0
220
0.0
230
1.0
 70
     8
 71
     3
 72
     8
 73
     4
 74
     0
 42
0.000000001
 43
0.0000000001
 40
0.0
 40
0.0
 40
0.0
 40
0.0
 40
1.0
 40
1.0
 40
1.0
 40
1.0
 10
367.3353978717358
 20
293.5248154062663
 30
0.0
 10
367.1255036643863
 20
293.5203354555808
 30
0.0
 10
366.9153169578889
 20
293.5201115961874
 30
0.0
 10
366.7048419452958
 20
293.5242017422746
 30
0.0
  0
SPLINE
  5
1CC
330
1F
100
AcDbEntity
  8
1
100
AcDbSpline
210
0.0
220
0.0
230
1.0
 70
     8
 71
     3
 72
     8
 73
     4
 74
     0
 42
0.000000001
 43
0.0000000001
 40
0.0
 40
0.0
 40
0.0
 40
0.0
 40
1.0
 40
1.0
 40
1.0
 40
1.0
 10
366.7048419452958
 20
291.7987722969608
 30
0.0
 10
366.9349205834488
 20
291.7969214582981
 30
0.0
 10
367.1646024144848
 20
291.8025046482168
 30
0.0
 10
367.3938805097561
 20
291.8154998080269
 30
0.0
  0
SPLINE
  5
1CD
330
1F
100
AcDbEntity
  8
1
100
AcDbSpline
210
0.0
220
0.0
230
1.0
 70
    24
 71
     3
 72
    22
 73
    18
 74
     0
 42
0.000000001
 43
0.0000000001
 40
0.0
 40
0.0
 40
0.0
 40
0.0
 40
0.1259367136226945
 40
0.1259367136226945
 40
0.2518734272453892
 40
0.2518734272453892
 40
0.377810140868084
 40
0.377810140868084
 40
0.5037468544907787
 40
0.5037468544907787
 40
0.6296835681134735
 40
0.6296835681134735
 40
0.7556202817361682
 40
0.7556202817361682
 40
0.8815569953588628
 40
0.8815569953588628
 40
1.0
 40
1.0
 40
1.0
 40
1.0
 10
366.7048419452958
 20
293.5242017422746
 30
0.0
 10
366.7048419452957
 20
293.3292963343052
 30
0.0
 10
366.7048419452958
 20
293.1479660456513
 30
0.0
 10
366.7048419452958
 20
292.8142708415305
 30
0.0
 10
366.7048419452958
 20
292.6619064847567
 30
0.0
 10
366.7048419452958
 20
292.3876694444268
 30
0.0
 10
366.7048419452958
 20
292.2657972200153
 30
0.0
 10
366.7048419452958
 20
292.0537653160096
 30
0.0
 10
366.7048419452958
 20
291.9636059914125
 30
0.0
 10
366.7048419452958
 20
291.815903101001
 30
0.0
 10
366.7048419452958
 20
291.75835978248
 30
0.0
 10
366.7048419452958
 20
291.6764654132542
 30
0.0
 10
366.7048419452958
 20
291.6521144996621
 30
0.0
 10
366.7048419452958
 20
291.636848969631
 30
0.0
 10
366.7048419452958
 20
291.6459343787506
 30
0.0
 10
366.7048419452958
 20
291.6959178947752
 30
0.0
 10
366.7048419452958
 20
291.7348907813082
 30
0.0
 10
366.7048419452958
 20
291.7884344797682
 30
0.0
  0
SPLINE
  5
1CE
330
1F
100
AcDbEntity
  8
1
100
AcDbSpline
210
0.0
220
0.0
230
1.0
 70
     8
 71
     3
 72
    14
 73
    10
 74
     0
 42
0.000000001
 43
0.0000000001
 40
0.0
 40
0.0
 40
0.0
 40
0.0
 40
0.25
 40
0.25
 40
0.5
 40
0.5
 40
0.75
 40
0.75
 40
1.0
 40
1.0
 40
1.0
 40
1.0
 10
289.8842723029264
 20
280.5238398689621
 30
0.0
 10
289.5756604763573
 20
280.5688150390616
 30
0.0
 10
289.2667990201754
 20
280.6044845007177
 30
0.0
 10
288.648571852766
 20
280.6568614403677
 30
0.0
 10
288.3392062091033
 20
280.6735713846811
 30
0.0
 10
287.7199622234422
 20
280.6876338135882
 30
0.0
 10
287.4100839490779
 20
280.6849886504791
 30
0.0
 10
286.7898006738569
 20
280.6598238422796
 30
0.0
 10
286.4793957546762
 20
280.6373068700297
 30
0.0
 10
286.1687165745301
 20
280.6044965691412
 30
0.0
  0
LINE
  5
1E5
330
1F
100
AcDbEntity
  8
4
100
AcDbLine
 10
263.168717
 20
288.907994
 30
0.0
 11
383.127157
 21
288.907994
 31
0.0
  0
LINE
  5
1E6
330
1F
100
AcDbEntity
  8
SK4
100
AcDbLine
 10
210.904842
 20
288.907994
 30
0.0
 11
277.404842
 21
288.907994
 31
0.0
  0
MTEXT
  5
1E7
330
1F
100
AcDbEntity
  8
SK6
100
AcDbMText
 10
268.202386
 20
243.089042
 30
0.0
 40
3.5
 41
0.0
 71
     7
 72
     5
  1
\W0.7022;802D-40-80-S32
  7
cesky
 73
     2
 44
0.8433729999999998
  0
MTEXT
  5
2FD
330
1F
100
AcDbEntity
  8
2
100
AcDbMText
 10
397.15154
 20
289.385285
 30
0.0
 40
3.5
 41
0.0
 71
     7
 72
     5
  1
\W0.7045;40
  7
cesky
 11
0.0000000000000001
 21
1.0
 31
0.0
 73
     2
 44
0.8433729999999998
  0
MTEXT
  5
2FE
330
1F
100
AcDbEntity
  8
2
100
AcDbMText
 10
397.15154
 20
282.647785
 30
0.0
 40
3.5
 41
0.0
 71
     7
 72
     5
  1
\W3.0115;\H2.63;%%c\H3.50;
  7
cesky
 11
0.0000000000000001
 21
1.0
 31
0.0
 73
     2
 44
0.8433729999999998
  0
LINE
  5
2FF
330
1F
100
AcDbEntity
  8
2
100
AcDbLine
 10
381.404842
 20
308.907994
 30
0.0
 11
398.338957
 21
308.907994
 31
0.0
  0
LINE
  5
300
330
1F
100
AcDbEntity
  8
2
100
AcDbLine
 10
397.338957
 20
308.907994
 30
0.0
 11
397.338957
 21
282.490285
 31
0.0
  0
SOLID
  5
301
330
1F
100
AcDbEntity
  8
2
100
AcDbTrace
 10
397.338957
 20
308.907994
 30
0.0
 11
397.956102
 21
305.407996
 31
0.0
 12
396.721813
 22
305.407991
 32
0.0
 13
396.721813
 23
305.407991
 33
0.0
  0
MTEXT
  5
302
330
1F
100
AcDbEntity
  8
2
100
AcDbMText
 10
293.8278419999999
 20
340.562135
 30
0.0
 40
3.5
 41
0.0
 71
     7
 72
     5
  1
\W0.7809;165
  7
cesky
 73
     2
 44
0.8433729999999998
  0
LINE
  5
303
330
1F
100
AcDbEntity
  8
2
100
AcDbLine
 10
379.404842
 20
310.907994
 30
0.0
 11
379.404842
 21
341.687968
 31
0.0
  0
LINE
  5
304
330
1F
100
AcDbEntity
  8
2
100
AcDbLine
 10
214.404842
 20
302.907994
 30
0.0
 11
214.404842
 21
341.687968
 31
0.0
  0
LINE
  5
305
330
1F
100
AcDbEntity
  8
2
100
AcDbLine
 10
379.404842
 20
340.687968
 30
0.0
 11
214.404842
 21
340.687968
 31
0.0
  0
SOLID
  5
306
330
1F
100
AcDbEntity
  8
2
100
AcDbTrace
 10
379.404842
 20
340.687968
 30
0.0
 11
375.904844
 21
340.070823
 31
0.0
 12
375.90484
 22
341.305112
 32
0.0
 13
375.90484
 23
341.305112
 33
0.0
  0
SOLID
  5
307
330
1F
100
AcDbEntity
  8
2
100
AcDbTrace
 10
214.404842
 20
340.687968
 30
0.0
 11
217.90484
 21
341.305112
 31
0.0
 12
217.904844
 22
340.070823
 32
0.0
 13
217.904844
 23
340.070823
 33
0.0
  0
MTEXT
  5
308
330
1F
100
AcDbEntity
  8
2
100
AcDbMText
 10
242.590342
 20
327.385163
 30
0.0
 40
3.5
 41
0.0
 71
     7
 72
     5
  1
\W0.7045;60
  7
cesky
 73
     2
 44
0.8433729999999998
  0
LINE
  5
309
330
1F
100
AcDbEntity
  8
2
100
AcDbLine
 10
274.404842
 20
288.907994
 30
0.0
 11
274.404842
 21
328.5109970000001
 31
0.0
  0
LINE
  5
30A
330
1F
100
AcDbEntity
  8
2
100
AcDbLine
 10
214.404842
 20
302.907994
 30
0.0
 11
214.404842
 21
328.5109970000001
 31
0.0
  0
LINE
  5
30B
330
1F
100
AcDbEntity
  8
2
100
AcDbLine
 10
274.404842
 20
327.510997
 30
0.0
 11
214.404842
 21
327.510997
 31
0.0
  0
SOLID
  5
30C
330
1F
100
AcDbEntity
  8
2
100
AcDbTrace
 10
274.404842
 20
327.510997
 30
0.0
 11
270.904844
 21
326.893852
 31
0.0
 12
270.90484
 22
328.128141
 32
0.0
 13
270.90484
 23
328.128141
 33
0.0
  0
SOLID
  5
30D
330
1F
100
AcDbEntity
  8
2
100
AcDbTrace
 10
214.404842
 20
327.510997
 30
0.0
 11
217.90484
 21
328.128141
 31
0.0
 12
217.904844
 22
326.893852
 32
0.0
 13
217.904844
 23
326.893852
 33
0.0
  0
MTEXT
  5
30E
330
1F
100
AcDbEntity
  8
2
100
AcDbMText
 10
332.573236
 20
316.910506
 30
0.0
 40
3.5
 41
0.0
 71
     7
 72
     5
  1
\W0.7045;90
  7
cesky
 73
     2
 44
0.8433729999999998
  0
LINE
  5
30F
330
1F
100
AcDbEntity
  8
2
100
AcDbLine
 10
379.404842
 20
310.907994
 30
0.0
 11
379.404842
 21
318.036339
 31
0.0
  0
LINE
  5
310
330
1F
100
AcDbEntity
  8
2
100
AcDbLine
 10
289.37063
 20
308.604824
 30
0.0
 11
289.37063
 21
318.036339
 31
0.0
  0
LINE
  5
311
330
1F
100
AcDbEntity
  8
2
100
AcDbLine
 10
379.404842
 20
317.036339
 30
0.0
 11
289.37063
 21
317.036339
 31
0.0
  0
SOLID
  5
312
330
1F
100
AcDbEntity
  8
2
100
AcDbTrace
 10
379.404842
 20
317.036339
 30
0.0
 11
375.904844
 21
316.419195
 31
0.0
 12
375.90484
 22
317.653484
 32
0.0
 13
375.90484
 23
317.653484
 33
0.0
  0
SOLID
  5
313
330
1F
100
AcDbEntity
  8
2
100
AcDbTrace
 10
289.37063
 20
317.036339
 30
0.0
 11
292.870628
 21
317.653484
 31
0.0
 12
292.870633
 22
316.419195
 32
0.0
 13
292.870633
 23
316.419195
 33
0.0
  0
MTEXT
  5
314
330
1F
100
AcDbEntity
  8
2
100
AcDbMText
 10
323.827842
 20
327.385163
 30
0.0
 40
3.5
 41
0.0
 71
     7
 72
     5
  1
\W0.7809;105
  7
cesky
 73
     2
 44
0.8433729999999998
  0
LINE
  5
315
330
1F
100
AcDbEntity
  8
2
100
AcDbLine
 10
379.404842
 20
308.907994
 30
0.0
 11
379.404842
 21
328.5109970000001
 31
0.0
  0
LINE
  5
316
330
1F
100
AcDbEntity
  8
2
100
AcDbLine
 10
274.404842
 20
289.907567
 30
0.0
 11
274.404842
 21
328.5109970000001
 31
0.0
  0
LINE
  5
317
330
1F
100
AcDbEntity
  8
2
100
AcDbLine
 10
379.404842
 20
327.510997
 30
0.0
 11
274.404842
 21
327.510997
 31
0.0
  0
SOLID
  5
318
330
1F
100
AcDbEntity
  8
2
100
AcDbTrace
 10
379.404842
 20
327.510997
 30
0.0
 11
375.904844
 21
326.893852
 31
0.0
 12
375.90484
 22
328.128141
 32
0.0
 13
375.90484
 23
328.128141
 33
0.0
  0
SOLID
  5
319
330
1F
100
AcDbEntity
  8
2
100
AcDbTrace
 10
274.404842
 20
327.510997
 30
0.0
 11
277.90484
 21
328.128141
 31
0.0
 12
277.904844
 22
326.893852
 32
0.0
 13
277.904844
 23
326.893852
 33
0.0
  0
MTEXT
  5
31A
330
1F
100
AcDbEntity
  8
SK2
100
AcDbMText
 10
203.850458
 20
290.434244
 30
0.0
 40
3.5
 41
0.0
 71
     7
 72
     5
  1
\W0.7045;32
  7
cesky
 11
0.0000000000000001
 21
1.0
 31
0.0
 73
     2
 44
0.8433729999999998
  0
MTEXT
  5
31B
330
1F
100
AcDbEntity
  8
SK2
100
AcDbMText
 10
203.850458
 20
283.696744
 30
0.0
 40
3.5
 41
0.0
 71
     7
 72
     5
  1
\W3.0115;\H2.63;%%c\H3.50;
  7
cesky
 11
0.0000000000000001
 21
1.0
 31
0.0
 73
     2
 44
0.8433729999999998
  0
LINE
  5
31C
330
1F
100
AcDbEntity
  8
SK2
100
AcDbLine
 10
216.404842
 20
304.907994
 30
0.0
 11
203.037875
 21
304.907994
 31
0.0
  0
LINE
  5
31D
330
1F
100
AcDbEntity
  8
SK2
100
AcDbLine
 10
216.404842
 20
272.907994
 30
0.0
 11
203.037875
 21
272.907994
 31
0.0
  0
LINE
  5
31E
330
1F
100
AcDbEntity
  8
SK2
100
AcDbLine
 10
204.037875
 20
304.907994
 30
0.0
 11
204.037875
 21
272.907994
 31
0.0
  0
SOLID
  5
31F
330
1F
100
AcDbEntity
  8
SK2
100
AcDbTrace
 10
204.037875
 20
304.907994
 30
0.0
 11
204.65502
 21
301.407996
 31
0.0
 12
203.420731
 22
301.407991
 32
0.0
 13
203.420731
 23
301.407991
 33
0.0
  0
SOLID
  5
320
330
1F
100
AcDbEntity
  8
SK2
100
AcDbTrace
 10
204.037875
 20
272.907994
 30
0.0
 11
203.420731
 21
276.407991
 31
0.0
 12
204.65502
 22
276.407996
 32
0.0
 13
204.65502
 23
276.407996
 33
0.0
  0
MTEXT
  5
321
330
1F
100
AcDbEntity
  8
SK2
100
AcDbMText
 10
191.10057
 20
290.434244
 30
0.0
 40
3.5
 41
0.0
 71
     7
 72
     5
  1
\W0.7045;42
  7
cesky
 11
0.0000000000000001
 21
1.0
 31
0.0
 73
     2
 44
0.8433729999999998
  0
MTEXT
  5
322
330
1F
100
AcDbEntity
  8
SK2
100
AcDbMText
 10
191.10057
 20
283.696744
 30
0.0
 40
3.5
 41
0.0
 71
     7
 72
     5
  1
\W3.0115;\H2.63;%%c\H3.50;
  7
cesky
 11
0.0000000000000001
 21
1.0
 31
0.0
 73
     2
 44
0.8433729999999998
  0
LINE
  5
323
330
1F
100
AcDbEntity
  8
SK2
100
AcDbLine
 10
274.904842
 20
309.907994
 30
0.0
 11
190.287987
 21
309.907994
 31
0.0
  0
LINE
  5
324
330
1F
100
AcDbEntity
  8
SK2
100
AcDbLine
 10
274.904842
 20
267.907994
 30
0.0
 11
190.287987
 21
267.907994
 31
0.0
  0
LINE
  5
325
330
1F
100
AcDbEntity
  8
SK2
100
AcDbLine
 10
191.287987
 20
309.907994
 30
0.0
 11
191.287987
 21
267.907994
 31
0.0
  0
SOLID
  5
326
330
1F
100
AcDbEntity
  8
SK2
100
AcDbTrace
 10
191.287987
 20
309.907994
 30
0.0
 11
191.905131
 21
306.407996
 31
0.0
 12
190.670842
 22
306.407991
 32
0.0
 13
190.670842
 23
306.407991
 33
0.0
  0
SOLID
  5
327
330
1F
100
AcDbEntity
  8
SK2
100
AcDbTrace
 10
191.287987
 20
267.907994
 30
0.0
 11
190.670842
 21
271.4079910000001
 31
0.0
 12
191.905131
 22
271.407996
 32
0.0
 13
191.905131
 23
271.407996
 33
0.0
  0
LINE
  5
328
330
1F
100
AcDbEntity
  8
CUT
100
AcDbLine
 10
377.8029048644206
 20
308.9050794055567
 30
0.0
 11
366.6647256653423
 21
308.4982370231553
 31
0.0
  0
LINE
  5
32B
330
1F
100
AcDbEntity
  8
CUT
100
AcDbLine
 10
379.4048419452957
 20
289.9656265947038
 30
0.0
 11
379.2532685852162
 21
298.6450339436931
 31
0.0
  0
LINE
  5
32C
330
1F
100
AcDbEntity
  8
CUT
100
AcDbLine
 10
378.9284136248277
 20
299.1856563758529
 30
0.0
 11
378.606553292615
 21
308.1584802389063
 31
0.0
  0
LINE
  5
32D
330
1F
100
AcDbEntity
  8
CUT
100
AcDbLine
 10
365.916608
 20
288.907994
 30
0.0
 11
379.404842
 21
288.907994
 31
0.0
  0
LINE
  5
32E
330
1F
100
AcDbEntity
  8
CUT
100
AcDbLine
 10
365.916608
 20
307.694592
 30
0.0
 11
365.916608
 21
288.907994
 31
0.0
  0
LINE
  5
32F
330
1F
100
AcDbEntity
  8
CUT
100
AcDbLine
 10
378.606553292615
 20
308.1584802389063
 30
0.0
 11
378.606553292615
 21
308.1584802389063
 31
0.0
  0
ARC
  5
330
330
1F
100
AcDbEntity
  8
CUT
100
AcDbCircle
 10
377.8266528478947
 20
308.1248139668568
 30
0.0
 40
0.7806267491885015
100
AcDbArc
 50
2.471775096025447
 51
91.74330330189865
  0
LINE
  5
331
330
1F
100
AcDbEntity
  8
CUT
100
AcDbLine
 10
366.6647256653424
 20
308.4982370231553
 30
0.0
 11
366.6647256653424
 21
308.4982370231553
 31
0.0
  0
ARC
  5
332
330
1F
100
AcDbEntity
  8
CUT
100
AcDbCircle
 10
366.6984783652448
 20
307.7167804660804
 30
0.0
 40
0.7821851413483325
100
AcDbArc
 50
92.47318419599528
 51
181.6255779945206
  0
ENDSEC
  0
SECTION
  2
OBJECTS
  0
DICTIONARY
  5
C
330
0
100
AcDbDictionary
281
     1
  3
ACAD_CIP_PREVIOUS_PRODUCT_INFO
350
2FA
  3
ACAD_COLOR
350
2F5
  3
ACAD_DETAILVIEWSTYLE
350
2F1
  3
ACAD_GROUP
350
D
  3
ACAD_LAYOUT
350
1A
  3
ACAD_MATERIAL
350
43
  3
ACAD_MLEADERSTYLE
350
6B
  3
ACAD_MLINESTYLE
350
17
  3
ACAD_PLOTSETTINGS
350
19
  3
ACAD_PLOTSTYLENAME
350
E
  3
ACAD_SCALELIST
350
47
  3
ACAD_SECTIONVIEWSTYLE
350
2F2
  3
ACAD_TABLESTYLE
350
69
  3
ACAD_VISUALSTYLE
350
2A
  3
ACDB_RECOMPOSE_DATA
350
360
  3
AcDbVariableDictionary
350
2AE
  0
DICTIONARY
  5
341
330
10
100
AcDbDictionary
280
     1
281
     1
  3
ADSK_XREC_LAYER_RECONCILED
360
342
  0
DICTIONARY
  5
343
330
86
100
AcDbDictionary
280
     1
281
     1
  3
ADSK_XREC_LAYER_RECONCILED
360
344
  0
DICTIONARY
  5
345
330
333
100
AcDbDictionary
280
     1
281
     1
  3
ADSK_XREC_LAYER_RECONCILED
360
346
  0
DICTIONARY
  5
347
330
334
100
AcDbDictionary
280
     1
281
     1
  3
ADSK_XREC_LAYER_RECONCILED
360
348
  0
DICTIONARY
  5
349
330
335
100
AcDbDictionary
280
     1
281
     1
  3
ADSK_XREC_LAYER_RECONCILED
360
34A
  0
DICTIONARY
  5
34B
330
337
100
AcDbDictionary
280
     1
281
     1
  3
ADSK_XREC_LAYER_RECONCILED
360
34C
  0
DICTIONARY
  5
34D
330
338
100
AcDbDictionary
280
     1
281
     1
  3
ADSK_XREC_LAYER_RECONCILED
360
34E
  0
DICTIONARY
  5
34F
330
33A
100
AcDbDictionary
280
     1
281
     1
  3
ADSK_XREC_LAYER_RECONCILED
360
350
  0
DICTIONARY
  5
351
330
33B
100
AcDbDictionary
280
     1
281
     1
  3
ADSK_XREC_LAYER_RECONCILED
360
352
  0
DICTIONARY
  5
353
330
33C
100
AcDbDictionary
280
     1
281
     1
  3
ADSK_XREC_LAYER_RECONCILED
360
354
  0
DICTIONARY
  5
355
330
33D
100
AcDbDictionary
280
     1
281
     1
  3
ADSK_XREC_LAYER_RECONCILED
360
356
  0
DICTIONARY
  5
357
330
33E
100
AcDbDictionary
280
     1
281
     1
  3
ADSK_XREC_LAYER_RECONCILED
360
358
  0
DICTIONARY
  5
359
330
33F
100
AcDbDictionary
280
     1
281
     1
  3
ADSK_XREC_LAYER_RECONCILED
360
35A
  0
DICTIONARY
  5
2FB
330
1F
100
AcDbDictionary
280
     1
281
     1
  3
ACAD_SORTENTS
360
2FC
  0
XRECORD
  5
2FA
102
{ACAD_REACTORS
330
C
102
}
330
C
100
AcDbXrecord
280
     1
300
ACD
300
2019
300
87084ACD_2019_0F
  0
DICTIONARY
  5
2F5
102
{ACAD_REACTORS
330
C
102
}
330
C
100
AcDbDictionary
281
     1
  0
DICTIONARY
  5
2F1
102
{ACAD_REACTORS
330
C
102
}
330
C
100
AcDbDictionary
281
     1
  3
Metric50
350
2F7
  0
DICTIONARY
  5
D
102
{ACAD_REACTORS
330
C
102
}
330
C
100
AcDbDictionary
281
     1
  3
NULOVY_BOD
350
340
  0
DICTIONARY
  5
1A
102
{ACAD_REACTORS
330
C
102
}
330
C
100
AcDbDictionary
281
     1
  3
Layout1
350
1E
  3
Layout2
350
26
  3
Model
350
22
  0
DICTIONARY
  5
43
102
{ACAD_REACTORS
330
C
102
}
330
C
100
AcDbDictionary
281
     1
  3
ByBlock
350
45
  3
ByLayer
350
44
  3
Global
350
46
  0
DICTIONARY
  5
6B
102
{ACAD_REACTORS
330
C
102
}
330
C
100
AcDbDictionary
281
     1
  3
Standard
350
6C
  0
DICTIONARY
  5
17
102
{ACAD_REACTORS
330
C
102
}
330
C
100
AcDbDictionary
281
     1
  3
Standard
350
18
  0
DICTIONARY
  5
19
102
{ACAD_REACTORS
330
C
102
}
330
C
100
AcDbDictionary
281
     1
  0
ACDBDICTIONARYWDFLT
  5
E
102
{ACAD_REACTORS
330
C
102
}
330
C
100
AcDbDictionary
281
     1
  3
Normal
350
F
100
AcDbDictionaryWithDefault
340
F
  0
DICTIONARY
  5
47
102
{ACAD_REACTORS
330
C
102
}
330
C
100
AcDbDictionary
281
     1
  3
A0
350
48
  3
A1
350
49
  3
A2
350
4A
  3
A3
350
4B
  3
A4
350
4C
  3
A5
350
4D
  3
A6
350
4E
  3
A7
350
4F
  3
A8
350
50
  3
A9
350
51
  3
B0
350
52
  3
B1
350
53
  3
B2
350
54
  3
B3
350
55
  3
B4
350
56
  3
B5
350
57
  3
B6
350
58
  3
B7
350
59
  3
B8
350
5A
  3
B9
350
5B
  3
C0
350
5C
  3
C1
350
5D
  3
C2
350
5E
  3
C3
350
5F
  3
C4
350
60
  3
C5
350
61
  3
C6
350
62
  3
C7
350
63
  3
C8
350
64
  3
C9
350
65
  3
D0
350
66
  3
D1
350
67
  3
D2
350
68
  0
DICTIONARY
  5
2F2
102
{ACAD_REACTORS
330
C
102
}
330
C
100
AcDbDictionary
281
     1
  3
Metric50
350
2F6
  0
DICTIONARY
  5
69
102
{ACAD_REACTORS
330
C
102
}
330
C
100
AcDbDictionary
281
     1
  3
Standard
350
6A
  0
DICTIONARY
  5
2A
102
{ACAD_REACTORS
330
C
102
}
330
C
100
AcDbDictionary
281
     1
  3
2dWireframe
350
2F
  3
Basic
350
32
  3
Brighten
350
36
  3
ColorChange
350
3A
  3
Conceptual
350
34
  3
Dim
350
35
  3
EdgeColorOff
350
3D
  3
Facepattern
350
39
  3
Flat
350
2B
  3
FlatWithEdges
350
2C
  3
Gouraud
350
2D
  3
GouraudWithEdges
350
2E
  3
Hidden
350
31
  3
JitterOff
350
3B
  3
Linepattern
350
38
  3
OverhangOff
350
3C
  3
Realistic
350
33
  3
Shaded
350
42
  3
Shaded with edges
350
41
  3
Shades of Gray
350
3E
  3
Sketchy
350
3F
  3
Thicken
350
37
  3
Wireframe
350
30
  3
X-Ray
350
40
  0
XRECORD
  5
360
102
{ACAD_REACTORS
330
C
102
}
330
C
100
AcDbXrecord
280
     1
 90
        1
330
6A
  0
DICTIONARY
  5
2AE
102
{ACAD_REACTORS
330
C
102
}
330
C
100
AcDbDictionary
281
     1
  3
CANNOSCALE
350
2AF
  3
CMLEADERSTYLE
350
2F0
  3
CTABLESTYLE
350
2EF
  3
CVIEWDETAILSTYLE
350
35B
  3
CVIEWSECTIONSTYLE
350
35C
  3
MSLTSCALE
350
2B0
  3
XCLIPFRAME
350
35D
  0
XRECORD
  5
342
102
{ACAD_REACTORS
330
341
102
}
330
341
100
AcDbXrecord
280
     1
290
     1
  0
XRECORD
  5
344
102
{ACAD_REACTORS
330
343
102
}
330
343
100
AcDbXrecord
280
     1
290
     1
  0
XRECORD
  5
346
102
{ACAD_REACTORS
330
345
102
}
330
345
100
AcDbXrecord
280
     1
290
     1
  0
XRECORD
  5
348
102
{ACAD_REACTORS
330
347
102
}
330
347
100
AcDbXrecord
280
     1
290
     1
  0
XRECORD
  5
34A
102
{ACAD_REACTORS
330
349
102
}
330
349
100
AcDbXrecord
280
     1
290
     1
  0
XRECORD
  5
34C
102
{ACAD_REACTORS
330
34B
102
}
330
34B
100
AcDbXrecord
280
     1
290
     1
  0
XRECORD
  5
34E
102
{ACAD_REACTORS
330
34D
102
}
330
34D
100
AcDbXrecord
280
     1
290
     1
  0
XRECORD
  5
350
102
{ACAD_REACTORS
330
34F
102
}
330
34F
100
AcDbXrecord
280
     1
290
     1
  0
XRECORD
  5
352
102
{ACAD_REACTORS
330
351
102
}
330
351
100
AcDbXrecord
280
     1
290
     1
  0
XRECORD
  5
354
102
{ACAD_REACTORS
330
353
102
}
330
353
100
AcDbXrecord
280
     1
290
     1
  0
XRECORD
  5
356
102
{ACAD_REACTORS
330
355
102
}
330
355
100
AcDbXrecord
280
     1
290
     1
  0
XRECORD
  5
358
102
{ACAD_REACTORS
330
357
102
}
330
357
100
AcDbXrecord
280
     1
290
     1
  0
XRECORD
  5
35A
102
{ACAD_REACTORS
330
359
102
}
330
359
100
AcDbXrecord
280
     1
290
     1
  0
SORTENTSTABLE
  5
2FC
102
{ACAD_REACTORS
330
2FB
102
}
330
2FB
100
AcDbSortentsTable
330
1F
331
2FD
  5
208
331
2FE
  5
221
331
2FF
  5
2FD
331
300
  5
2FE
331
301
  5
2FF
331
302
  5
310
331
303
  5
311
331
304
  5
312
331
305
  5
313
331
306
  5
314
331
307
  5
315
331
308
  5
316
331
309
  5
317
331
30A
  5
318
331
30B
  5
319
331
30C
  5
31A
331
30D
  5
31B
331
30E
  5
31C
331
30F
  5
31D
331
310
  5
31E
331
311
  5
31F
331
312
  5
320
331
313
  5
321
331
314
  5
322
331
315
  5
323
331
316
  5
324
331
317
  5
325
331
318
  5
326
331
319
  5
327
331
31A
  5
302
331
31B
  5
303
331
31C
  5
304
331
31D
  5
305
331
31E
  5
306
331
31F
  5
307
331
320
  5
308
331
321
  5
309
331
322
  5
30A
331
323
  5
30B
331
324
  5
30C
331
325
  5
30D
331
326
  5
30E
331
327
  5
30F
331
32B
  5
32F
331
32C
  5
330
331
32D
  5
331
331
32E
  5
332
331
32F
  5
32B
331
330
  5
32C
331
331
  5
32D
331
332
  5
32E
  0
ACDBDETAILVIEWSTYLE
  5
2F7
102
{ACAD_XDICTIONARY
360
394
102
}
102
{ACAD_REACTORS
330
2F1
102
}
330
2F1
100
AcDbModelDocViewStyle
 70
     0
  3
Metric50
290
     0
100
AcDbDetailViewStyle
 70
     0
 71
     0
 90
        3
 71
     1
340
11
 62
   256
 40
5.0
340
0
 62
   256
 40
5.0
300

 40
0.0
280
     1
 71
     2
340
16
 90
       25
 62
   256
 71
     3
340
11
 62
   256
 40
5.0
 90
        0
 40
15.0
 90
        1
300
%<\AcVar ViewDetailId>% (%<\AcVar ViewScale \f "%sn">%)
 71
     4
340
16
 90
       25
 62
   256
340
16
 90
       25
 62
   256
280
     0
  0
GROUP
  5
340
102
{ACAD_REACTORS
330
D
102
}
330
D
100
AcDbGroup
300

 70
     0
 71
     1
340
73
  0
LAYOUT
  5
1E
102
{ACAD_REACTORS
330
1A
102
}
330
1A
100
AcDbPlotSettings
  1

  2
none_device
  4

  6

 40
0.0
 41
0.0
 42
0.0
 43
0.0
 44
0.0
 45
0.0
 46
0.0
 47
0.0
 48
0.0
 49
0.0
140
0.0
141
0.0
142
1.0
143
1.0
 70
   688
 72
     0
 73
     0
 74
     5
  7

 75
    16
147
1.0
 76
     0
 77
     2
 78
   300
148
0.0
149
0.0
100
AcDbLayout
  1
Layout1
 70
     1
 71
     1
 10
-0.5
 20
-0.5
 11
5.0
 21
5.0
 12
0.0
 22
0.0
 32
0.0
 14
-0.5
 24
-0.5
 34
-0.5
 15
5.0
 25
5.0
 35
5.0
146
0.0
 13
0.0
 23
0.0
 33
0.0
 16
1.0
 26
0.0
 36
0.0
 17
0.0
 27
1.0
 37
0.0
 76
     0
330
1B
  0
LAYOUT
  5
26
102
{ACAD_REACTORS
330
1A
102
}
330
1A
100
AcDbPlotSettings
  1

  2
none_device
  4

  6

 40
0.0
 41
0.0
 42
0.0
 43
0.0
 44
0.0
 45
0.0
 46
0.0
 47
0.0
 48
0.0
 49
0.0
140
0.0
141
0.0
142
1.0
143
1.0
 70
   688
 72
     0
 73
     0
 74
     5
  7

 75
    16
147
1.0
 76
     0
 77
     2
 78
   300
148
0.0
149
0.0
100
AcDbLayout
  1
Layout2
 70
     1
 71
     2
 10
0.0
 20
0.0
 11
0.0
 21
0.0
 12
0.0
 22
0.0
 32
0.0
 14
0.0
 24
0.0
 34
0.0
 15
0.0
 25
0.0
 35
0.0
146
0.0
 13
0.0
 23
0.0
 33
0.0
 16
1.0
 26
0.0
 36
0.0
 17
0.0
 27
1.0
 37
0.0
 76
     0
330
23
  0
LAYOUT
  5
22
102
{ACAD_REACTORS
330
1A
102
}
330
1A
100
AcDbPlotSettings
  1

  2
none_device
  4
Letter_(8.50_x_11.00_Inches)
  6

 40
6.349999999999999
 41
6.349999999999999
 42
6.350005
 43
6.350005
 44
215.9
 45
279.4
 46
0.0
 47
0.0
 48
0.0
 49
0.0
140
0.0
141
0.0
142
1.0
143
1.0
 70
  1712
 72
     0
 73
     0
 74
     0
  7

 75
     0
147
1.0
 76
     0
 77
     2
 78
   300
148
0.0
149
0.0
100
AcDbLayout
  1
Model
 70
     1
 71
     0
 10
-0.5
 20
-0.5
 11
5.0
 21
5.0
 12
0.0
 22
0.0
 32
0.0
 14
-0.5
 24
-0.5
 34
-0.5
 15
5.0
 25
5.0
 35
5.0
146
0.0
 13
0.0
 23
0.0
 33
0.0
 16
1.0
 26
0.0
 36
0.0
 17
0.0
 27
1.0
 37
0.0
 76
     0
330
1F
331
29
  0
MATERIAL
  5
45
102
{ACAD_XDICTIONARY
360
2E4
102
}
102
{ACAD_REACTORS
330
43
102
}
330
43
100
AcDbMaterial
  1
ByBlock
  0
MATERIAL
  5
44
102
{ACAD_XDICTIONARY
360
2E2
102
}
102
{ACAD_REACTORS
330
43
102
}
330
43
100
AcDbMaterial
  1
ByLayer
  0
MATERIAL
  5
46
102
{ACAD_XDICTIONARY
360
2E6
102
}
102
{ACAD_REACTORS
330
43
102
}
330
43
100
AcDbMaterial
  1
Global
  0
MLEADERSTYLE
  5
6C
102
{ACAD_REACTORS
330
6B
102
}
330
6B
100
AcDbMLeaderStyle
170
     2
171
     1
172
     0
 90
        2
 40
0.0
 41
0.0
173
     1
 91
-1056964608
340
14
 92
       -2
290
     1
 42
0.09
291
     1
 43
0.36
  3
Standard
 44
0.18
300

342
11
174
     1
178
     6
175
     1
176
     0
 93
-1056964608
 45
0.18
292
     0
297
     0
 46
0.18
 94
-1056964608
 47
1.0
 49
1.0
140
1.0
293
     1
141
0.0
294
     1
177
     0
142
1.0
295
     0
296
     0
143
0.125
1001
ACAD_MLEADERVER
1070
     2
  0
MLINESTYLE
  5
18
102
{ACAD_REACTORS
330
17
102
}
330
17
100
AcDbMlineStyle
  2
STANDARD
 70
     0
  3

 62
   256
 51
90.0
 52
90.0
 71
     2
 49
0.5
 62
   256
  6
BYLAYER
 49
-0.5
 62
   256
  6
BYLAYER
  0
ACDBPLACEHOLDER
  5
F
102
{ACAD_REACTORS
330
E
102
}
330
E
  0
SCALE
  5
48
102
{ACAD_REACTORS
330
47
102
}
330
47
100
AcDbScale
 70
     0
300
1:1
140
1.0
141
1.0
290
     1
  0
SCALE
  5
49
102
{ACAD_REACTORS
330
47
102
}
330
47
100
AcDbScale
 70
     0
300
1:2
140
1.0
141
2.0
290
     0
  0
SCALE
  5
4A
102
{ACAD_REACTORS
330
47
102
}
330
47
100
AcDbScale
 70
     0
300
1:4
140
1.0
141
4.0
290
     0
  0
SCALE
  5
4B
102
{ACAD_REACTORS
330
47
102
}
330
47
100
AcDbScale
 70
     0
300
1:5
140
1.0
141
5.0
290
     0
  0
SCALE
  5
4C
102
{ACAD_REACTORS
330
47
102
}
330
47
100
AcDbScale
 70
     0
300
1:8
140
1.0
141
8.0
290
     0
  0
SCALE
  5
4D
102
{ACAD_REACTORS
330
47
102
}
330
47
100
AcDbScale
 70
     0
300
1:10
140
1.0
141
10.0
290
     0
  0
SCALE
  5
4E
102
{ACAD_REACTORS
330
47
102
}
330
47
100
AcDbScale
 70
     0
300
1:16
140
1.0
141
16.0
290
     0
  0
SCALE
  5
4F
102
{ACAD_REACTORS
330
47
102
}
330
47
100
AcDbScale
 70
     0
300
1:20
140
1.0
141
20.0
290
     0
  0
SCALE
  5
50
102
{ACAD_REACTORS
330
47
102
}
330
47
100
AcDbScale
 70
     0
300
1:30
140
1.0
141
30.0
290
     0
  0
SCALE
  5
51
102
{ACAD_REACTORS
330
47
102
}
330
47
100
AcDbScale
 70
     0
300
1:40
140
1.0
141
40.0
290
     0
  0
SCALE
  5
52
102
{ACAD_REACTORS
330
47
102
}
330
47
100
AcDbScale
 70
     0
300
1:50
140
1.0
141
50.0
290
     0
  0
SCALE
  5
53
102
{ACAD_REACTORS
330
47
102
}
330
47
100
AcDbScale
 70
     0
300
1:100
140
1.0
141
100.0
290
     0
  0
SCALE
  5
54
102
{ACAD_REACTORS
330
47
102
}
330
47
100
AcDbScale
 70
     0
300
2:1
140
2.0
141
1.0
290
     0
  0
SCALE
  5
55
102
{ACAD_REACTORS
330
47
102
}
330
47
100
AcDbScale
 70
     0
300
4:1
140
4.0
141
1.0
290
     0
  0
SCALE
  5
56
102
{ACAD_REACTORS
330
47
102
}
330
47
100
AcDbScale
 70
     0
300
8:1
140
8.0
141
1.0
290
     0
  0
SCALE
  5
57
102
{ACAD_REACTORS
330
47
102
}
330
47
100
AcDbScale
 70
     0
300
10:1
140
10.0
141
1.0
290
     0
  0
SCALE
  5
58
102
{ACAD_REACTORS
330
47
102
}
330
47
100
AcDbScale
 70
     0
300
100:1
140
100.0
141
1.0
290
     0
  0
SCALE
  5
59
102
{ACAD_REACTORS
330
47
102
}
330
47
100
AcDbScale
 70
     0
300
1/128" = 1'-0"
140
0.007812
141
12.0
290
     0
  0
SCALE
  5
5A
102
{ACAD_REACTORS
330
47
102
}
330
47
100
AcDbScale
 70
     0
300
1/64" = 1'-0"
140
0.015625
141
12.0
290
     0
  0
SCALE
  5
5B
102
{ACAD_REACTORS
330
47
102
}
330
47
100
AcDbScale
 70
     0
300
1/32" = 1'-0"
140
0.03125
141
12.0
290
     0
  0
SCALE
  5
5C
102
{ACAD_REACTORS
330
47
102
}
330
47
100
AcDbScale
 70
     0
300
1/16" = 1'-0"
140
0.0625
141
12.0
290
     0
  0
SCALE
  5
5D
102
{ACAD_REACTORS
330
47
102
}
330
47
100
AcDbScale
 70
     0
300
3/32" = 1'-0"
140
0.09375
141
12.0
290
     0
  0
SCALE
  5
5E
102
{ACAD_REACTORS
330
47
102
}
330
47
100
AcDbScale
 70
     0
300
1/8" = 1'-0"
140
0.125
141
12.0
290
     0
  0
SCALE
  5
5F
102
{ACAD_REACTORS
330
47
102
}
330
47
100
AcDbScale
 70
     0
300
3/16" = 1'-0"
140
0.1875
141
12.0
290
     0
  0
SCALE
  5
60
102
{ACAD_REACTORS
330
47
102
}
330
47
100
AcDbScale
 70
     0
300
1/4" = 1'-0"
140
0.25
141
12.0
290
     0
  0
SCALE
  5
61
102
{ACAD_REACTORS
330
47
102
}
330
47
100
AcDbScale
 70
     0
300
3/8" = 1'-0"
140
0.375
141
12.0
290
     0
  0
SCALE
  5
62
102
{ACAD_REACTORS
330
47
102
}
330
47
100
AcDbScale
 70
     0
300
1/2" = 1'-0"
140
0.5
141
12.0
290
     0
  0
SCALE
  5
63
102
{ACAD_REACTORS
330
47
102
}
330
47
100
AcDbScale
 70
     0
300
3/4" = 1'-0"
140
0.75
141
12.0
290
     0
  0
SCALE
  5
64
102
{ACAD_REACTORS
330
47
102
}
330
47
100
AcDbScale
 70
     0
300
1" = 1'-0"
140
1.0
141
12.0
290
     0
  0
SCALE
  5
65
102
{ACAD_REACTORS
330
47
102
}
330
47
100
AcDbScale
 70
     0
300
1-1/2" = 1'-0"
140
1.5
141
12.0
290
     0
  0
SCALE
  5
66
102
{ACAD_REACTORS
330
47
102
}
330
47
100
AcDbScale
 70
     0
300
3" = 1'-0"
140
3.0
141
12.0
290
     0
  0
SCALE
  5
67
102
{ACAD_REACTORS
330
47
102
}
330
47
100
AcDbScale
 70
     0
300
6" = 1'-0"
140
6.0
141
12.0
290
     0
  0
SCALE
  5
68
102
{ACAD_REACTORS
330
47
102
}
330
47
100
AcDbScale
 70
     0
300
1'-0" = 1'-0"
140
12.0
141
12.0
290
     0
  0
ACDBSECTIONVIEWSTYLE
  5
2F6
102
{ACAD_XDICTIONARY
360
392
102
}
102
{ACAD_REACTORS
330
2F2
102
}
330
2F2
100
AcDbModelDocViewStyle
 70
     0
  3
Metric50
290
     0
100
AcDbSectionViewStyle
 70
     0
 71
     0
 90
      102
 71
     1
340
11
 62
   256
 40
5.0
340
0
340
0
 62
   256
 40
5.0
300
I, O, Q, S, X, Z
 40
10.0
 90
        0
 40
2.5
 90
        0
 71
     2
340
16
 90
       25
 62
   256
340
16
 90
       50
 62
   256
 40
5.0
 40
2.5
 40
5.0
 71
     3
340
11
 62
   256
 40
5.0
 90
        0
 40
15.0
 90
        1
300
%<\AcVar ViewSectionStartId>%-%<\AcVar ViewSectionEndId>% (%<\AcVar ViewScale \f "%sn">%)
 71
     4
 62
   256
 62
   257
300
ANSI31
 40
1.0
 90
        0
290
     0
290
     0
 90
        6
 40
0.0
 40
1.570796326794896
 40
0.2617993877991494
 40
1.308996938995747
 40
-0.2617993877991494
 40
1.832595714594046
  0
TABLESTYLE
  5
6A
102
{ACAD_XDICTIONARY
360
2E8
102
}
102
{ACAD_REACTORS
330
69
102
}
330
69
100
AcDbTableStyle
  3
Standard
 70
     0
 71
     0
 40
0.06
 41
0.06
280
     0
281
     0
  7
Standard
140
0.18
170
     2
 62
     0
 63
     7
283
     0
274
    -2
284
     1
 64
     0
275
    -2
285
     1
 65
     0
276
    -2
286
     1
 66
     0
277
    -2
287
     1
 67
     0
278
    -2
288
     1
 68
     0
279
    -2
289
     1
 69
     0
  7
Standard
140
0.25
170
     5
 62
     0
 63
     7
283
     0
274
    -2
284
     1
 64
     0
275
    -2
285
     1
 65
     0
276
    -2
286
     1
 66
     0
277
    -2
287
     1
 67
     0
278
    -2
288
     1
 68
     0
279
    -2
289
     1
 69
     0
  7
Standard
140
0.18
170
     5
 62
     0
 63
     7
283
     0
274
    -2
284
     1
 64
     0
275
    -2
285
     1
 65
     0
276
    -2
286
     1
 66
     0
277
    -2
287
     1
 67
     0
278
    -2
288
     1
 68
     0
279
    -2
289
     1
 69
     0
  0
VISUALSTYLE
  5
2F
102
{ACAD_XDICTIONARY
360
369
102
}
102
{ACAD_REACTORS
330
2A
102
}
330
2A
100
AcDbVisualStyle
  2

 70
     4
 71
     0
 72
     2
 73
     0
 90
        0
 40
-0.6
 41
-30.0
 62
     5
 63
     7
421
 16777215
 74
     1
 91
        4
 64
     7
 65
   257
 75
     1
175
     1
 42
1.0
 92
        0
 66
   257
 43
1.0
 76
     1
 77
     6
 78
     2
 67
     7
 79
     5
170
     0
171
     0
290
     0
174
     0
 93
        1
 44
0.0
173
     0
291
     0
 45
0.0
1001
ACAD
1000
AcDbSavedByObjectVersion
1070
     0
  0
VISUALSTYLE
  5
32
102
{ACAD_XDICTIONARY
360
36F
102
}
102
{ACAD_REACTORS
330
2A
102
}
330
2A
100
AcDbVisualStyle
  2

 70
     7
 71
     1
 72
     0
 73
     1
 90
        0
 40
-0.6
 41
-30.0
 62
     5
 63
     7
421
 16777215
 74
     0
 91
        4
 64
     7
 65
   257
 75
     1
175
     1
 42
1.0
 92
        8
 66
     7
 43
1.0
 76
     1
 77
     6
 78
     2
 67
     7
 79
     5
170
     0
171
     0
290
     0
174
     0
 93
        1
 44
0.0
173
     0
291
     1
 45
0.0
1001
ACAD
1000
AcDbSavedByObjectVersion
1070
     0
  0
VISUALSTYLE
  5
36
102
{ACAD_XDICTIONARY
360
377
102
}
102
{ACAD_REACTORS
330
2A
102
}
330
2A
100
AcDbVisualStyle
  2

 70
    12
 71
     2
 72
     2
 73
     0
 90
        0
 40
-0.6
 41
-30.0
 62
     5
 63
     7
421
 16777215
 74
     1
 91
        4
 64
     7
 65
   257
 75
     1
175
     1
 42
1.0
 92
        8
 66
     7
 43
1.0
 76
     1
 77
     6
 78
     2
 67
     7
 79
     5
170
     0
171
     0
290
     0
174
     0
 93
        1
 44
50.0
173
     0
291
     1
 45
0.0
1001
ACAD
1000
AcDbSavedByObjectVersion
1070
     0
  0
VISUALSTYLE
  5
3A
102
{ACAD_XDICTIONARY
360
37F
102
}
102
{ACAD_REACTORS
330
2A
102
}
330
2A
100
AcDbVisualStyle
  2

 70
    16
 71
     2
 72
     2
 73
     3
 90
        0
 40
-0.6
 41
-30.0
 62
     5
 63
     8
421
  8421504
 74
     1
 91
        4
 64
     7
 65
   257
 75
     1
175
     1
 42
1.0
 92
        8
 66
     8
424
  8421504
 43
1.0
 76
     1
 77
     6
 78
     2
 67
     7
 79
     5
170
     0
171
     0
290
     0
174
     0
 93
        1
 44
0.0
173
     0
291
     1
 45
0.0
1001
ACAD
1000
AcDbSavedByObjectVersion
1070
     0
  0
VISUALSTYLE
  5
34
102
{ACAD_XDICTIONARY
360
373
102
}
102
{ACAD_REACTORS
330
2A
102
}
330
2A
100
AcDbVisualStyle
  2

 70
     9
 71
     3
 72
     2
 73
     0
 90
        0
 40
-0.6
 41
-30.0
 62
     5
 63
     7
421
 16777215
 74
     2
 91
        2
 64
     7
 65
   257
 75
     1
175
     1
 42
179.0
 92
        8
 66
     7
 43
1.0
 76
     1
 77
     6
 78
     2
 67
     7
 79
     3
170
     0
171
     0
290
     0
174
     0
 93
        1
 44
0.0
173
     0
291
     0
 45
0.0
1001
ACAD
1000
AcDbSavedByObjectVersion
1070
     0
  0
VISUALSTYLE
  5
35
102
{ACAD_XDICTIONARY
360
375
102
}
102
{ACAD_REACTORS
330
2A
102
}
330
2A
100
AcDbVisualStyle
  2

 70
    11
 71
     2
 72
     2
 73
     0
 90
        0
 40
-0.6
 41
-30.0
 62
     5
 63
     7
421
 16777215
 74
     1
 91
        4
 64
     7
 65
   257
 75
     1
175
     1
 42
1.0
 92
        8
 66
     7
 43
1.0
 76
     1
 77
     6
 78
     2
 67
     7
 79
     5
170
     0
171
     0
290
     0
174
     0
 93
        1
 44
-50.0
173
     0
291
     1
 45
0.0
1001
ACAD
1000
AcDbSavedByObjectVersion
1070
     0
  0
VISUALSTYLE
  5
3D
102
{ACAD_XDICTIONARY
360
385
102
}
102
{ACAD_REACTORS
330
2A
102
}
330
2A
100
AcDbVisualStyle
  2

 70
    22
 71
     2
 72
     2
 73
     0
 90
        0
 40
-0.6
 41
-30.0
 62
     5
 63
     7
421
 16777215
 74
     1
 91
        4
 64
     7
 65
   257
 75
     1
175
     1
 42
1.0
 92
        8
 66
     7
 43
1.0
 76
     1
 77
     6
 78
     2
 67
     7
 79
     5
170
     0
171
     0
290
     0
174
     0
 93
        1
 44
0.0
173
     0
291
     1
 45
0.0
1001
ACAD
1000
AcDbSavedByObjectVersion
1070
     0
  0
VISUALSTYLE
  5
39
102
{ACAD_XDICTIONARY
360
37D
102
}
102
{ACAD_REACTORS
330
2A
102
}
330
2A
100
AcDbVisualStyle
  2

 70
    15
 71
     2
 72
     2
 73
     0
 90
        0
 40
-0.6
 41
-30.0
 62
     5
 63
     7
421
 16777215
 74
     1
 91
        4
 64
     7
 65
   257
 75
     1
175
     1
 42
1.0
 92
        8
 66
     7
 43
1.0
 76
     1
 77
     6
 78
     2
 67
     7
 79
     5
170
     0
171
     0
290
     0
174
     0
 93
        1
 44
0.0
173
     0
291
     1
 45
0.0
1001
ACAD
1000
AcDbSavedByObjectVersion
1070
     0
  0
VISUALSTYLE
  5
2B
102
{ACAD_XDICTIONARY
360
361
102
}
102
{ACAD_REACTORS
330
2A
102
}
330
2A
100
AcDbVisualStyle
  2

 70
     0
 71
     2
 72
     1
 73
     1
 90
        2
 40
-0.6
 41
30.0
 62
     5
 63
     7
421
 16777215
 74
     0
 91
        0
 64
     7
 65
   257
 75
     1
175
     1
 42
1.0
 92
        8
 66
     7
 43
1.0
 76
     1
 77
     6
 78
     2
 67
     7
 79
     5
170
     0
171
     0
290
     0
174
     0
 93
       13
 44
0.0
173
     0
291
     1
 45
0.0
1001
ACAD
1000
AcDbSavedByObjectVersion
1070
     0
  0
VISUALSTYLE
  5
2C
102
{ACAD_XDICTIONARY
360
363
102
}
102
{ACAD_REACTORS
330
2A
102
}
330
2A
100
AcDbVisualStyle
  2

 70
     1
 71
     2
 72
     1
 73
     1
 90
        2
 40
-0.6
 41
30.0
 62
     5
 63
     7
421
 16777215
 74
     1
 91
        0
 64
     7
 65
   257
 75
     1
175
     1
 42
1.0
 92
        0
 66
   257
 43
1.0
 76
     1
 77
     6
 78
     2
 67
     7
 79
     5
170
     0
171
     0
290
     0
174
     0
 93
       13
 44
0.0
173
     0
291
     1
 45
0.0
1001
ACAD
1000
AcDbSavedByObjectVersion
1070
     0
  0
VISUALSTYLE
  5
2D
102
{ACAD_XDICTIONARY
360
365
102
}
102
{ACAD_REACTORS
330
2A
102
}
330
2A
100
AcDbVisualStyle
  2

 70
     2
 71
     2
 72
     2
 73
     1
 90
        2
 40
-0.6
 41
30.0
 62
     5
 63
     7
421
 16777215
 74
     0
 91
        0
 64
     7
 65
   257
 75
     1
175
     1
 42
1.0
 92
        0
 66
     7
 43
1.0
 76
     1
 77
     6
 78
     2
 67
     7
 79
     5
170
     0
171
     0
290
     0
174
     0
 93
       13
 44
0.0
173
     0
291
     1
 45
0.0
1001
ACAD
1000
AcDbSavedByObjectVersion
1070
     0
  0
VISUALSTYLE
  5
2E
102
{ACAD_XDICTIONARY
360
367
102
}
102
{ACAD_REACTORS
330
2A
102
}
330
2A
100
AcDbVisualStyle
  2

 70
     3
 71
     2
 72
     2
 73
     1
 90
        2
 40
-0.6
 41
30.0
 62
     5
 63
     7
421
 16777215
 74
     1
 91
        0
 64
     7
 65
   257
 75
     1
175
     1
 42
1.0
 92
        0
 66
   257
 43
1.0
 76
     1
 77
     6
 78
     2
 67
     7
 79
     5
170
     0
171
     0
290
     0
174
     0
 93
       13
 44
0.0
173
     0
291
     1
 45
0.0
1001
ACAD
1000
AcDbSavedByObjectVersion
1070
     0
  0
VISUALSTYLE
  5
31
102
{ACAD_XDICTIONARY
360
36D
102
}
102
{ACAD_REACTORS
330
2A
102
}
330
2A
100
AcDbVisualStyle
  2

 70
     6
 71
     1
 72
     2
 73
     2
 90
        0
 40
-0.6
 41
-30.0
 62
     5
 63
     7
421
 16777215
 74
     2
 91
        2
 64
     7
 65
   257
 75
     2
175
     1
 42
40.0
 92
        0
 66
   257
 43
1.0
 76
     1
 77
     6
 78
     2
 67
     7
 79
     3
170
     0
171
     0
290
     0
174
     0
 93
        1
 44
0.0
173
     0
291
     0
 45
0.0
1001
ACAD
1000
AcDbSavedByObjectVersion
1070
     0
  0
VISUALSTYLE
  5
3B
102
{ACAD_XDICTIONARY
360
381
102
}
102
{ACAD_REACTORS
330
2A
102
}
330
2A
100
AcDbVisualStyle
  2

 70
    20
 71
     2
 72
     2
 73
     0
 90
        0
 40
-0.6
 41
-30.0
 62
     5
 63
     7
421
 16777215
 74
     1
 91
        4
 64
     7
 65
   257
 75
     1
175
     1
 42
1.0
 92
       10
 66
     7
 43
1.0
 76
     1
 77
     6
 78
     2
 67
     7
 79
     5
170
     0
171
     0
290
     0
174
     0
 93
        1
 44
0.0
173
     0
291
     1
 45
0.0
1001
ACAD
1000
AcDbSavedByObjectVersion
1070
     0
  0
VISUALSTYLE
  5
38
102
{ACAD_XDICTIONARY
360
37B
102
}
102
{ACAD_REACTORS
330
2A
102
}
330
2A
100
AcDbVisualStyle
  2

 70
    14
 71
     2
 72
     2
 73
     0
 90
        0
 40
-0.6
 41
-30.0
 62
     5
 63
     7
421
 16777215
 74
     1
 91
        4
 64
     7
 65
   257
 75
     7
175
     7
 42
1.0
 92
        8
 66
     7
 43
1.0
 76
     1
 77
     6
 78
     2
 67
     7
 79
     5
170
     0
171
     0
290
     0
174
     0
 93
        1
 44
0.0
173
     0
291
     1
 45
0.0
1001
ACAD
1000
AcDbSavedByObjectVersion
1070
     0
  0
VISUALSTYLE
  5
3C
102
{ACAD_XDICTIONARY
360
383
102
}
102
{ACAD_REACTORS
330
2A
102
}
330
2A
100
AcDbVisualStyle
  2

 70
    21
 71
     2
 72
     2
 73
     0
 90
        0
 40
-0.6
 41
-30.0
 62
     5
 63
     7
421
 16777215
 74
     1
 91
        4
 64
     7
 65
   257
 75
     1
175
     1
 42
1.0
 92
        9
 66
     7
 43
1.0
 76
     1
 77
     6
 78
     2
 67
     7
 79
     5
170
     0
171
     0
290
     0
174
     0
 93
        1
 44
0.0
173
     0
291
     1
 45
0.0
1001
ACAD
1000
AcDbSavedByObjectVersion
1070
     0
  0
VISUALSTYLE
  5
33
102
{ACAD_XDICTIONARY
360
371
102
}
102
{ACAD_REACTORS
330
2A
102
}
330
2A
100
AcDbVisualStyle
  2

 70
     8
 71
     2
 72
     3
 73
     0
 90
        2
 40
-0.6
 41
30.0
 62
     5
 63
     7
421
 16777215
 74
     0
 91
        0
 64
     7
 65
   257
 75
     1
175
     1
 42
1.0
 92
        8
 66
   257
 43
1.0
 76
     1
 77
     6
 78
     2
 67
     7
 79
     3
170
     0
171
     0
290
     0
174
     0
 93
       13
 44
0.0
173
     0
291
     0
 45
0.0
1001
ACAD
1000
AcDbSavedByObjectVersion
1070
     0
  0
VISUALSTYLE
  5
42
102
{ACAD_XDICTIONARY
360
38F
102
}
102
{ACAD_REACTORS
330
2A
102
}
330
2A
100
AcDbVisualStyle
  2

 70
    27
 71
     2
 72
     2
 73
     1
 90
        2
 40
-0.6
 41
30.0
 62
     5
 63
     7
421
 16777215
 74
     0
 91
        4
 64
     7
 65
   257
 75
     1
175
     1
 42
1.0
 92
        8
 66
   257
 43
1.0
 76
     1
 77
     6
 78
     2
 67
     8
425
  7895160
 79
     3
170
     0
171
     0
290
     0
174
     0
 93
        5
 44
0.0
173
     0
291
     0
 45
0.0
1001
ACAD
1000
AcDbSavedByObjectVersion
1070
     0
  0
VISUALSTYLE
  5
41
102
{ACAD_XDICTIONARY
360
38D
102
}
102
{ACAD_REACTORS
330
2A
102
}
330
2A
100
AcDbVisualStyle
  2

 70
    26
 71
     2
 72
     2
 73
     1
 90
        2
 40
-0.6
 41
30.0
 62
     5
 63
     7
421
 16777215
 74
     1
 91
       10
 64
     7
 65
   257
 75
     2
175
     1
 42
1.0
 92
        8
 66
   257
 43
1.0
 76
     1
 77
     6
 78
     2
 67
     7
 79
     3
170
     0
171
     0
290
     0
174
     0
 93
        5
 44
0.0
173
     0
291
     0
 45
0.0
1001
ACAD
1000
AcDbSavedByObjectVersion
1070
     0
  0
VISUALSTYLE
  5
3E
102
{ACAD_XDICTIONARY
360
387
102
}
102
{ACAD_REACTORS
330
2A
102
}
330
2A
100
AcDbVisualStyle
  2

 70
    23
 71
     2
 72
     2
 73
     3
 90
        0
 40
-0.6
 41
-30.0
 62
     5
 63
     7
421
 16777215
 74
     2
 91
        2
 64
     7
 65
     7
 75
     1
175
     1
 42
40.0
 92
        8
 66
     7
 43
1.0
 76
     1
 77
     6
 78
     2
 67
     7
 79
     3
170
     0
171
     0
290
     0
174
     0
 93
        1
 44
0.0
173
     0
291
     0
 45
0.0
1001
ACAD
1000
AcDbSavedByObjectVersion
1070
     0
  0
VISUALSTYLE
  5
3F
102
{ACAD_XDICTIONARY
360
389
102
}
102
{ACAD_REACTORS
330
2A
102
}
330
2A
100
AcDbVisualStyle
  2

 70
    24
 71
     1
 72
     2
 73
     2
 90
        0
 40
-0.6
 41
-30.0
 62
     5
 63
     7
421
 16777215
 74
     2
 91
        2
 64
     7
 65
     7
 75
     1
175
     1
 42
40.0
 92
       11
 66
     7
 43
1.0
 76
     1
 77
     6
 78
     2
 67
     7
 79
     6
170
     0
171
     0
290
     0
174
     0
 93
        1
 44
0.0
173
     0
291
     0
 45
0.0
1001
ACAD
1000
AcDbSavedByObjectVersion
1070
     0
  0
VISUALSTYLE
  5
37
102
{ACAD_XDICTIONARY
360
379
102
}
102
{ACAD_REACTORS
330
2A
102
}
330
2A
100
AcDbVisualStyle
  2

 70
    13
 71
     2
 72
     2
 73
     0
 90
        0
 40
-0.6
 41
-30.0
 62
     5
 63
     7
421
 16777215
 74
     1
 91
        4
 64
     7
 65
   257
 75
     1
175
     1
 42
1.0
 92
       12
 66
     7
 43
1.0
 76
     1
 77
     6
 78
     2
 67
     7
 79
     5
170
     0
171
     0
290
     0
174
     0
 93
        1
 44
0.0
173
     0
291
     1
 45
0.0
1001
ACAD
1000
AcDbSavedByObjectVersion
1070
     0
  0
VISUALSTYLE
  5
30
102
{ACAD_XDICTIONARY
360
36B
102
}
102
{ACAD_REACTORS
330
2A
102
}
330
2A
100
AcDbVisualStyle
  2

 70
     5
 71
     0
 72
     2
 73
     0
 90
        0
 40
-0.6
 41
-30.0
 62
     5
 63
     7
421
 16777215
 74
     1
 91
        4
 64
     7
 65
   257
 75
     1
175
     1
 42
1.0
 92
        0
 66
   257
 43
1.0
 76
     1
 77
     6
 78
     2
 67
     7
 79
     3
170
     0
171
     0
290
     0
174
     0
 93
        1
 44
0.0
173
     0
291
     0
 45
0.0
1001
ACAD
1000
AcDbSavedByObjectVersion
1070
     0
  0
VISUALSTYLE
  5
40
102
{ACAD_XDICTIONARY
360
38B
102
}
102
{ACAD_REACTORS
330
2A
102
}
330
2A
100
AcDbVisualStyle
  2

 70
    25
 71
     2
 72
     2
 73
     1
 90
        1
 40
0.5
 41
-30.0
 62
     5
 63
     7
421
 16777215
 74
     1
 91
        0
 64
     7
 65
   257
 75
     1
175
     1
 42
1.0
 92
        8
 66
     7
 43
1.0
 76
     1
 77
     6
 78
     2
 67
     7
 79
     3
170
     0
171
     0
290
     0
174
     0
 93
       13
 44
0.0
173
     0
291
     0
 45
0.0
1001
ACAD
1000
AcDbSavedByObjectVersion
1070
     0
  0
DICTIONARYVAR
  5
2AF
102
{ACAD_REACTORS
330
2AE
102
}
330
2AE
100
DictionaryVariables
280
     0
  1
1:1
  0
DICTIONARYVAR
  5
2F0
102
{ACAD_REACTORS
330
2AE
102
}
330
2AE
100
DictionaryVariables
280
     0
  1
STANDARD
  0
DICTIONARYVAR
  5
2EF
102
{ACAD_REACTORS
330
2AE
102
}
330
2AE
100
DictionaryVariables
280
     0
  1
STANDARD
  0
DICTIONARYVAR
  5
35B
102
{ACAD_REACTORS
330
2AE
102
}
330
2AE
100
DictionaryVariables
280
     0
  1
Metric50
  0
DICTIONARYVAR
  5
35C
102
{ACAD_REACTORS
330
2AE
102
}
330
2AE
100
DictionaryVariables
280
     0
  1
Metric50
  0
DICTIONARYVAR
  5
2B0
102
{ACAD_REACTORS
330
2AE
102
}
330
2AE
100
DictionaryVariables
280
     0
  1
1
  0
DICTIONARYVAR
  5
35D
102
{ACAD_REACTORS
330
2AE
102
}
330
2AE
100
DictionaryVariables
280
     0
  1
2
  0
DICTIONARY
  5
394
330
2F7
100
AcDbDictionary
280
     1
281
     1
  3
ACAD_XREC_ROUNDTRIP
360
395
  0
DICTIONARY
  5
2E4
330
45
100
AcDbDictionary
280
     1
281
     1
  3
ACAD_XREC_ROUNDTRIP
360
2E5
  0
DICTIONARY
  5
2E2
330
44
100
AcDbDictionary
280
     1
281
     1
  3
ACAD_XREC_ROUNDTRIP
360
2E3
  0
DICTIONARY
  5
2E6
330
46
100
AcDbDictionary
280
     1
281
     1
  3
ACAD_XREC_ROUNDTRIP
360
2E7
  0
DICTIONARY
  5
392
330
2F6
100
AcDbDictionary
280
     1
281
     1
  3
ACAD_XREC_ROUNDTRIP
360
393
  0
DICTIONARY
  5
2E8
330
6A
100
AcDbDictionary
280
     1
281
     1
  3
ACAD_ROUNDTRIP_2008_TABLESTYLE_CELLSTYLEMAP
360
35F
  3
ACAD_XREC_ROUNDTRIP
360
391
  0
DICTIONARY
  5
369
330
2F
100
AcDbDictionary
280
     1
281
     1
  3
ACAD_XREC_ROUNDTRIP
360
36A
  0
DICTIONARY
  5
36F
330
32
100
AcDbDictionary
280
     1
281
     1
  3
ACAD_XREC_ROUNDTRIP
360
370
  0
DICTIONARY
  5
377
330
36
100
AcDbDictionary
280
     1
281
     1
  3
ACAD_XREC_ROUNDTRIP
360
378
  0
DICTIONARY
  5
37F
330
3A
100
AcDbDictionary
280
     1
281
     1
  3
ACAD_XREC_ROUNDTRIP
360
380
  0
DICTIONARY
  5
373
330
34
100
AcDbDictionary
280
     1
281
     1
  3
ACAD_XREC_ROUNDTRIP
360
374
  0
DICTIONARY
  5
375
330
35
100
AcDbDictionary
280
     1
281
     1
  3
ACAD_XREC_ROUNDTRIP
360
376
  0
DICTIONARY
  5
385
330
3D
100
AcDbDictionary
280
     1
281
     1
  3
ACAD_XREC_ROUNDTRIP
360
386
  0
DICTIONARY
  5
37D
330
39
100
AcDbDictionary
280
     1
281
     1
  3
ACAD_XREC_ROUNDTRIP
360
37E
  0
DICTIONARY
  5
361
330
2B
100
AcDbDictionary
280
     1
281
     1
  3
ACAD_XREC_ROUNDTRIP
360
362
  0
DICTIONARY
  5
363
330
2C
100
AcDbDictionary
280
     1
281
     1
  3
ACAD_XREC_ROUNDTRIP
360
364
  0
DICTIONARY
  5
365
330
2D
100
AcDbDictionary
280
     1
281
     1
  3
ACAD_XREC_ROUNDTRIP
360
366
  0
DICTIONARY
  5
367
330
2E
100
AcDbDictionary
280
     1
281
     1
  3
ACAD_XREC_ROUNDTRIP
360
368
  0
DICTIONARY
  5
36D
330
31
100
AcDbDictionary
280
     1
281
     1
  3
ACAD_XREC_ROUNDTRIP
360
36E
  0
DICTIONARY
  5
381
330
3B
100
AcDbDictionary
280
     1
281
     1
  3
ACAD_XREC_ROUNDTRIP
360
382
  0
DICTIONARY
  5
37B
330
38
100
AcDbDictionary
280
     1
281
     1
  3
ACAD_XREC_ROUNDTRIP
360
37C
  0
DICTIONARY
  5
383
330
3C
100
AcDbDictionary
280
     1
281
     1
  3
ACAD_XREC_ROUNDTRIP
360
384
  0
DICTIONARY
  5
371
330
33
100
AcDbDictionary
280
     1
281
     1
  3
ACAD_XREC_ROUNDTRIP
360
372
  0
DICTIONARY
  5
38F
330
42
100
AcDbDictionary
280
     1
281
     1
  3
ACAD_XREC_ROUNDTRIP
360
390
  0
DICTIONARY
  5
38D
330
41
100
AcDbDictionary
280
     1
281
     1
  3
ACAD_XREC_ROUNDTRIP
360
38E
  0
DICTIONARY
  5
387
330
3E
100
AcDbDictionary
280
     1
281
     1
  3
ACAD_XREC_ROUNDTRIP
360
388
  0
DICTIONARY
  5
389
330
3F
100
AcDbDictionary
280
     1
281
     1
  3
ACAD_XREC_ROUNDTRIP
360
38A
  0
DICTIONARY
  5
379
330
37
100
AcDbDictionary
280
     1
281
     1
  3
ACAD_XREC_ROUNDTRIP
360
37A
  0
DICTIONARY
  5
36B
330
30
100
AcDbDictionary
280
     1
281
     1
  3
ACAD_XREC_ROUNDTRIP
360
36C
  0
DICTIONARY
  5
38B
330
40
100
AcDbDictionary
280
     1
281
     1
  3
ACAD_XREC_ROUNDTRIP
360
38C
  0
XRECORD
  5
395
102
{ACAD_REACTORS
330
394
102
}
330
394
100
AcDbXrecord
280
     1
102
DISPLAYNAME
  1
Metric50
102
FLAGS
 90
        0
  0
XRECORD
  5
2E5
102
{ACAD_REACTORS
330
2E4
102
}
330
2E4
100
AcDbXrecord
280
     1
102
MATERIAL
148
0.0
149
0.0
149
0.0
 93
        0
 94
      127
282
     0
 72
     1
 77
     1
171
     1
175
     1
179
     1
273
     0
  0
XRECORD
  5
2E3
102
{ACAD_REACTORS
330
2E2
102
}
330
2E2
100
AcDbXrecord
280
     1
102
MATERIAL
148
0.0
149
0.0
149
0.0
 93
        0
 94
      127
282
     0
 72
     1
 77
     1
171
     1
175
     1
179
     1
273
     0
  0
XRECORD
  5
2E7
102
{ACAD_REACTORS
330
2E6
102
}
330
2E6
100
AcDbXrecord
280
     1
102
MATERIAL
148
0.0
149
0.0
149
0.0
 93
        0
 94
      127
282
     0
 72
     1
 77
     1
171
     1
175
     1
179
     1
273
     0
  0
XRECORD
  5
393
102
{ACAD_REACTORS
330
392
102
}
330
392
100
AcDbXrecord
280
     1
102
DISPLAYNAME
  1
Metric50
102
FLAGS
 90
        0
  0
CELLSTYLEMAP
  5
35F
102
{ACAD_REACTORS
330
2E8
102
}
330
2E8
100
AcDbCellStyleMap
 90
        3
300
CELLSTYLE
  1
TABLEFORMAT_BEGIN
 90
        5
170
     1
 91
        0
 92
    32768
 62
   257
 93
        1
300
CONTENTFORMAT
  1
CONTENTFORMAT_BEGIN
 90
        0
 91
        0
 92
        4
 93
        0
300

 40
0.0
140
1.0
 94
        5
 62
     0
340
11
144
0.25
309
CONTENTFORMAT_END
171
     1
301
MARGIN
  1
CELLMARGIN_BEGIN
 40
0.06
 40
0.06
 40
0.06
 40
0.06
 40
0.18
 40
0.18
309
CELLMARGIN_END
 94
        6
 95
        1
302
GRIDFORMAT
  1
GRIDFORMAT_BEGIN
 90
        0
 91
        1
 62
     0
 92
       -2
340
14
 93
        0
 40
0.045
309
GRIDFORMAT_END
 95
        2
302
GRIDFORMAT
  1
GRIDFORMAT_BEGIN
 90
        0
 91
        1
 62
     0
 92
       -2
340
14
 93
        0
 40
0.045
309
GRIDFORMAT_END
 95
        4
302
GRIDFORMAT
  1
GRIDFORMAT_BEGIN
 90
        0
 91
        1
 62
     0
 92
       -2
340
14
 93
        0
 40
0.045
309
GRIDFORMAT_END
 95
        8
302
GRIDFORMAT
  1
GRIDFORMAT_BEGIN
 90
        0
 91
        1
 62
     0
 92
       -2
340
14
 93
        0
 40
0.045
309
GRIDFORMAT_END
 95
       16
302
GRIDFORMAT
  1
GRIDFORMAT_BEGIN
 90
        0
 91
        1
 62
     0
 92
       -2
340
14
 93
        0
 40
0.045
309
GRIDFORMAT_END
 95
       32
302
GRIDFORMAT
  1
GRIDFORMAT_BEGIN
 90
        0
 91
        1
 62
     0
 92
       -2
340
14
 93
        0
 40
0.045
309
GRIDFORMAT_END
309
TABLEFORMAT_END
  1
CELLSTYLE_BEGIN
 90
        1
 91
        1
300
_TITLE
309
CELLSTYLE_END
300
CELLSTYLE
  1
TABLEFORMAT_BEGIN
 90
        5
170
     1
 91
        0
 92
        0
 62
   257
 93
        1
300
CONTENTFORMAT
  1
CONTENTFORMAT_BEGIN
 90
        0
 91
        0
 92
        4
 93
        0
300

 40
0.0
140
1.0
 94
        5
 62
     0
340
11
144
0.18
309
CONTENTFORMAT_END
171
     1
301
MARGIN
  1
CELLMARGIN_BEGIN
 40
0.06
 40
0.06
 40
0.06
 40
0.06
 40
0.18
 40
0.18
309
CELLMARGIN_END
 94
        6
 95
        1
302
GRIDFORMAT
  1
GRIDFORMAT_BEGIN
 90
        0
 91
        1
 62
     0
 92
       -2
340
14
 93
        0
 40
0.045
309
GRIDFORMAT_END
 95
        2
302
GRIDFORMAT
  1
GRIDFORMAT_BEGIN
 90
        0
 91
        1
 62
     0
 92
       -2
340
14
 93
        0
 40
0.045
309
GRIDFORMAT_END
 95
        4
302
GRIDFORMAT
  1
GRIDFORMAT_BEGIN
 90
        0
 91
        1
 62
     0
 92
       -2
340
14
 93
        0
 40
0.045
309
GRIDFORMAT_END
 95
        8
302
GRIDFORMAT
  1
GRIDFORMAT_BEGIN
 90
        0
 91
        1
 62
     0
 92
       -2
340
14
 93
        0
 40
0.045
309
GRIDFORMAT_END
 95
       16
302
GRIDFORMAT
  1
GRIDFORMAT_BEGIN
 90
        0
 91
        1
 62
     0
 92
       -2
340
14
 93
        0
 40
0.045
309
GRIDFORMAT_END
 95
       32
302
GRIDFORMAT
  1
GRIDFORMAT_BEGIN
 90
        0
 91
        1
 62
     0
 92
       -2
340
14
 93
        0
 40
0.045
309
GRIDFORMAT_END
309
TABLEFORMAT_END
  1
CELLSTYLE_BEGIN
 90
        2
 91
        1
300
_HEADER
309
CELLSTYLE_END
300
CELLSTYLE
  1
TABLEFORMAT_BEGIN
 90
        5
170
     1
 91
        0
 92
        0
 62
   257
 93
        1
300
CONTENTFORMAT
  1
CONTENTFORMAT_BEGIN
 90
        0
 91
        0
 92
        4
 93
        0
300

 40
0.0
140
1.0
 94
        2
 62
     0
340
11
144
0.18
309
CONTENTFORMAT_END
171
     1
301
MARGIN
  1
CELLMARGIN_BEGIN
 40
0.06
 40
0.06
 40
0.06
 40
0.06
 40
0.18
 40
0.18
309
CELLMARGIN_END
 94
        6
 95
        1
302
GRIDFORMAT
  1
GRIDFORMAT_BEGIN
 90
        0
 91
        1
 62
     0
 92
       -2
340
14
 93
        0
 40
0.045
309
GRIDFORMAT_END
 95
        2
302
GRIDFORMAT
  1
GRIDFORMAT_BEGIN
 90
        0
 91
        1
 62
     0
 92
       -2
340
14
 93
        0
 40
0.045
309
GRIDFORMAT_END
 95
        4
302
GRIDFORMAT
  1
GRIDFORMAT_BEGIN
 90
        0
 91
        1
 62
     0
 92
       -2
340
14
 93
        0
 40
0.045
309
GRIDFORMAT_END
 95
        8
302
GRIDFORMAT
  1
GRIDFORMAT_BEGIN
 90
        0
 91
        1
 62
     0
 92
       -2
340
14
 93
        0
 40
0.045
309
GRIDFORMAT_END
 95
       16
302
GRIDFORMAT
  1
GRIDFORMAT_BEGIN
 90
        0
 91
        1
 62
     0
 92
       -2
340
14
 93
        0
 40
0.045
309
GRIDFORMAT_END
 95
       32
302
GRIDFORMAT
  1
GRIDFORMAT_BEGIN
 90
        0
 91
        1
 62
     0
 92
       -2
340
14
 93
        0
 40
0.045
309
GRIDFORMAT_END
309
TABLEFORMAT_END
  1
CELLSTYLE_BEGIN
 90
        3
 91
        2
300
_DATA
309
CELLSTYLE_END
  0
XRECORD
  5
391
102
{ACAD_REACTORS
330
2E8
102
}
330
2E8
100
AcDbXrecord
280
     1
102
ACAD_ROUNDTRIP_PRE2007_TABLESTYLE
 90
        4
 91
        0
  1

 92
        4
 93
        0
  2

 94
        4
 95
        0
  3

  0
XRECORD
  5
36A
102
{ACAD_REACTORS
330
369
102
}
330
369
100
AcDbXrecord
280
     1
102
RTVSPost2010Prop28
280
     1
102
RTVSPost2010PropOp28
 70
     1
102
RTVSPost2010Prop29
280
     1
102
RTVSPost2010PropOp29
 70
     1
102
RTVSPost2010Prop30
280
     0
102
RTVSPost2010PropOp30
 70
     1
102
RTVSPost2010Prop31
280
     0
102
RTVSPost2010PropOp31
 70
     1
102
RTVSPost2010Prop32
280
     0
102
RTVSPost2010PropOp32
 70
     1
102
RTVSPost2010Prop33
280
     0
102
RTVSPost2010PropOp33
 70
     1
102
RTVSPost2010Prop34
280
     0
102
RTVSPost2010PropOp34
 70
     1
102
RTVSPost2010Prop35
280
     0
102
RTVSPost2010PropOp35
 70
     1
102
RTVSPost2010Prop36
280
     0
102
RTVSPost2010PropOp36
 70
     1
102
RTVSPost2010Prop37
 90
       50
102
RTVSPost2010PropOp37
 70
     1
102
RTVSPost2010Prop38
140
0.0
102
RTVSPost2010PropOp38
 70
     1
102
RTVSPost2010Prop39
140
1.0
102
RTVSPost2010PropOp39
 70
     1
102
RTVSPost2010Prop40
 90
        0
102
RTVSPost2010PropOp40
 70
     1
102
RTVSPost2010Prop41ColorIndex
 90
       18
102
RTVSPost2010Prop41ColorRGB
 90
        0
102
RTVSPost2010PropOp41
 70
     1
102
RTVSPost2010Prop42
 90
       50
102
RTVSPost2010PropOp42
 70
     1
102
RTVSPost2010Prop43
 90
        3
102
RTVSPost2010PropOp43
 70
     1
102
RTVSPost2010Prop44ColorIndex
 90
        5
102
RTVSPost2010Prop44ColorRGB
 90
      255
102
RTVSPost2010PropOp44
 70
     1
102
RTVSPost2010Prop45
280
     0
102
RTVSPost2010PropOp45
 70
     1
102
RTVSPost2010Prop46
 90
       50
102
RTVSPost2010PropOp46
 70
     1
102
RTVSPost2010Prop47
 90
       50
102
RTVSPost2010PropOp47
 70
     1
102
RTVSPost2010Prop48
 90
       50
102
RTVSPost2010PropOp48
 70
     1
102
RTVSPost2010Prop49
280
     0
102
RTVSPost2010PropOp49
 70
     1
102
RTVSPost2010Prop50
 90
       50
102
RTVSPost2010PropOp50
 70
     1
102
RTVSPost2010Prop51ColorIndex
 90
      256
102
RTVSPost2010Prop51ColorRGB
 90
-16777216
102
RTVSPost2010PropOp51
 70
     0
102
RTVSPost2010Prop52
140
1.0
102
RTVSPost2010PropOp52
 70
     0
102
RTVSPost2010Prop53
 90
        2
102
RTVSPost2010PropOp53
 70
     1
102
RTVSPost2010Prop54
  1
strokes_ogs.tif
102
RTVSPost2010PropOp54
 70
     1
102
RTVSPost2010Prop55
280
     0
102
RTVSPost2010PropOp55
 70
     1
102
RTVSPost2010Prop56
140
1.0
102
RTVSPost2010PropOp56
 70
     1
102
RTVSPost2010Prop57
140
1.0
102
RTVSPost2010PropOp57
 70
     1
102
RTVSPropertyOp0
 70
     1
102
RTVSPropertyOp1
 70
     1
102
RTVSPropertyOp2
 70
     1
102
RTVSPropertyOp3
 70
     1
102
RTVSPropertyOp4
 70
     1
102
RTVSPropertyOp5
 70
     1
102
RTVSPropertyOp6
 70
     1
102
RTVSPropertyOp7
 70
     1
102
RTVSPropertyOp8
 70
     1
102
RTVSPropertyOp9
 70
     1
102
RTVSPropertyOp10
 70
     1
102
RTVSPropertyOp11
 70
     1
102
RTVSPropertyOp12
 70
     1
102
RTVSPropertyOp13
 70
     1
102
RTVSPropertyOp14
 70
     1
102
RTVSPropertyOp15
 70
     1
102
RTVSPropertyOp16
 70
     1
102
RTVSPropertyOp17
 70
     1
102
RTVSPropertyOp18
 70
     1
102
RTVSPropertyOp19
 70
     1
102
RTVSPropertyOp20
 70
     1
102
RTVSPropertyOp21
 70
     1
102
RTVSPropertyOp22
 70
     1
102
RTVSPropertyOp23
 70
     1
102
RTVSPropertyOp24
 70
     1
102
RTVSPropertyOp25
 70
     1
102
RTVSPropertyOp26
 70
     1
102
RTVSPropertyOp27
 70
     1
102
RTVSPropertyOp28
 70
     1
102
RTVSPropertyOp29
 70
     1
102
RTVSPropertyOp30
 70
     1
102
RTVSPropertyOp31
 70
     1
102
RTVSPropertyOp32
 70
     1
102
RTVSPropertyOp33
 70
     1
102
RTVSPropertyOp34
 70
     1
102
RTVSPropertyOp35
 70
     1
102
RTVSPropertyOp36
 70
     1
102
RTVSPropertyOp37
 70
     1
102
RTVSPropertyOp38
 70
     1
102
RTVSPropertyOp39
 70
     1
102
RTVSPropertyOp40
 70
     1
102
RTVSPropertyOp41
 70
     1
102
RTVSPropertyOp42
 70
     1
102
RTVSPropertyOp43
 70
     1
102
RTVSPropertyOp44
 70
     1
102
RTVSPropertyOp45
 70
     1
102
RTVSPropertyOp46
 70
     1
102
RTVSPropertyOp47
 70
     1
102
RTVSPropertyOp48
 70
     1
102
RTVSPropertyOp49
 70
     1
102
RTVSPropertyOp50
 70
     1
102
RTVSPropertyOp51
 70
     0
102
RTVSPropertyOp52
 70
     0
102
RTVSPropertyOp53
 70
     1
102
RTVSPropertyOp54
 70
     1
102
RTVSPropertyOp55
 70
     1
102
RTVSPropertyOp56
 70
     1
102
RTVSPropertyOp57
 70
     1
102
RTVSPropertyOp58
 70
     1
102
RTVSPropertyOp59
 70
     1
102
RTVSPropertyOp60
 70
     1
102
RTVSPropertyOp61
 70
     1
102
RTVSPropertyOp62
 70
     1
  0
XRECORD
  5
370
102
{ACAD_REACTORS
330
36F
102
}
330
36F
100
AcDbXrecord
280
     1
102
RTVSPost2010Prop28
280
     0
102
RTVSPost2010PropOp28
 70
     1
102
RTVSPost2010Prop29
280
     1
102
RTVSPost2010PropOp29
 70
     1
102
RTVSPost2010Prop30
280
     1
102
RTVSPost2010PropOp30
 70
     1
102
RTVSPost2010Prop31
280
     0
102
RTVSPost2010PropOp31
 70
     1
102
RTVSPost2010Prop32
280
     0
102
RTVSPost2010PropOp32
 70
     1
102
RTVSPost2010Prop33
280
     0
102
RTVSPost2010PropOp33
 70
     1
102
RTVSPost2010Prop34
280
     0
102
RTVSPost2010PropOp34
 70
     1
102
RTVSPost2010Prop35
280
     0
102
RTVSPost2010PropOp35
 70
     1
102
RTVSPost2010Prop36
280
     0
102
RTVSPost2010PropOp36
 70
     1
102
RTVSPost2010Prop37
 90
       50
102
RTVSPost2010PropOp37
 70
     1
102
RTVSPost2010Prop38
140
0.0
102
RTVSPost2010PropOp38
 70
     1
102
RTVSPost2010Prop39
140
1.0
102
RTVSPost2010PropOp39
 70
     1
102
RTVSPost2010Prop40
 90
        0
102
RTVSPost2010PropOp40
 70
     1
102
RTVSPost2010Prop41ColorIndex
 90
       18
102
RTVSPost2010Prop41ColorRGB
 90
        0
102
RTVSPost2010PropOp41
 70
     1
102
RTVSPost2010Prop42
 90
       50
102
RTVSPost2010PropOp42
 70
     1
102
RTVSPost2010Prop43
 90
        3
102
RTVSPost2010PropOp43
 70
     1
102
RTVSPost2010Prop44ColorIndex
 90
        5
102
RTVSPost2010Prop44ColorRGB
 90
      255
102
RTVSPost2010PropOp44
 70
     1
102
RTVSPost2010Prop45
280
     0
102
RTVSPost2010PropOp45
 70
     1
102
RTVSPost2010Prop46
 90
       50
102
RTVSPost2010PropOp46
 70
     1
102
RTVSPost2010Prop47
 90
       50
102
RTVSPost2010PropOp47
 70
     1
102
RTVSPost2010Prop48
 90
       50
102
RTVSPost2010PropOp48
 70
     1
102
RTVSPost2010Prop49
280
     0
102
RTVSPost2010PropOp49
 70
     1
102
RTVSPost2010Prop50
 90
       50
102
RTVSPost2010PropOp50
 70
     1
102
RTVSPost2010Prop51ColorIndex
 90
      256
102
RTVSPost2010Prop51ColorRGB
 90
-16777216
102
RTVSPost2010PropOp51
 70
     0
102
RTVSPost2010Prop52
140
1.0
102
RTVSPost2010PropOp52
 70
     0
102
RTVSPost2010Prop53
 90
        2
102
RTVSPost2010PropOp53
 70
     1
102
RTVSPost2010Prop54
  1
strokes_ogs.tif
102
RTVSPost2010PropOp54
 70
     1
102
RTVSPost2010Prop55
280
     0
102
RTVSPost2010PropOp55
 70
     1
102
RTVSPost2010Prop56
140
1.0
102
RTVSPost2010PropOp56
 70
     1
102
RTVSPost2010Prop57
140
1.0
102
RTVSPost2010PropOp57
 70
     1
102
RTVSPropertyOp0
 70
     1
102
RTVSPropertyOp1
 70
     1
102
RTVSPropertyOp2
 70
     1
102
RTVSPropertyOp3
 70
     1
102
RTVSPropertyOp4
 70
     1
102
RTVSPropertyOp5
 70
     1
102
RTVSPropertyOp6
 70
     1
102
RTVSPropertyOp7
 70
     1
102
RTVSPropertyOp8
 70
     1
102
RTVSPropertyOp9
 70
     1
102
RTVSPropertyOp10
 70
     1
102
RTVSPropertyOp11
 70
     1
102
RTVSPropertyOp12
 70
     1
102
RTVSPropertyOp13
 70
     1
102
RTVSPropertyOp14
 70
     1
102
RTVSPropertyOp15
 70
     1
102
RTVSPropertyOp16
 70
     1
102
RTVSPropertyOp17
 70
     1
102
RTVSPropertyOp18
 70
     1
102
RTVSPropertyOp19
 70
     1
102
RTVSPropertyOp20
 70
     1
102
RTVSPropertyOp21
 70
     1
102
RTVSPropertyOp22
 70
     1
102
RTVSPropertyOp23
 70
     1
102
RTVSPropertyOp24
 70
     1
102
RTVSPropertyOp25
 70
     1
102
RTVSPropertyOp26
 70
     1
102
RTVSPropertyOp27
 70
     1
102
RTVSPropertyOp28
 70
     1
102
RTVSPropertyOp29
 70
     1
102
RTVSPropertyOp30
 70
     1
102
RTVSPropertyOp31
 70
     1
102
RTVSPropertyOp32
 70
     1
102
RTVSPropertyOp33
 70
     1
102
RTVSPropertyOp34
 70
     1
102
RTVSPropertyOp35
 70
     1
102
RTVSPropertyOp36
 70
     1
102
RTVSPropertyOp37
 70
     1
102
RTVSPropertyOp38
 70
     1
102
RTVSPropertyOp39
 70
     1
102
RTVSPropertyOp40
 70
     1
102
RTVSPropertyOp41
 70
     1
102
RTVSPropertyOp42
 70
     1
102
RTVSPropertyOp43
 70
     1
102
RTVSPropertyOp44
 70
     1
102
RTVSPropertyOp45
 70
     1
102
RTVSPropertyOp46
 70
     1
102
RTVSPropertyOp47
 70
     1
102
RTVSPropertyOp48
 70
     1
102
RTVSPropertyOp49
 70
     1
102
RTVSPropertyOp50
 70
     1
102
RTVSPropertyOp51
 70
     0
102
RTVSPropertyOp52
 70
     0
102
RTVSPropertyOp53
 70
     1
102
RTVSPropertyOp54
 70
     1
102
RTVSPropertyOp55
 70
     1
102
RTVSPropertyOp56
 70
     1
102
RTVSPropertyOp57
 70
     1
102
RTVSPropertyOp58
 70
     1
102
RTVSPropertyOp59
 70
     1
102
RTVSPropertyOp60
 70
     1
102
RTVSPropertyOp61
 70
     1
102
RTVSPropertyOp62
 70
     1
  0
XRECORD
  5
378
102
{ACAD_REACTORS
330
377
102
}
330
377
100
AcDbXrecord
280
     1
102
RTVSPost2010Prop28
280
     0
102
RTVSPost2010PropOp28
 70
     1
102
RTVSPost2010Prop29
280
     1
102
RTVSPost2010PropOp29
 70
     1
102
RTVSPost2010Prop30
280
     1
102
RTVSPost2010PropOp30
 70
     1
102
RTVSPost2010Prop31
280
     0
102
RTVSPost2010PropOp31
 70
     1
102
RTVSPost2010Prop32
280
     0
102
RTVSPost2010PropOp32
 70
     1
102
RTVSPost2010Prop33
280
     0
102
RTVSPost2010PropOp33
 70
     1
102
RTVSPost2010Prop34
280
     0
102
RTVSPost2010PropOp34
 70
     1
102
RTVSPost2010Prop35
280
     0
102
RTVSPost2010PropOp35
 70
     1
102
RTVSPost2010Prop36
280
     0
102
RTVSPost2010PropOp36
 70
     1
102
RTVSPost2010Prop37
 90
       50
102
RTVSPost2010PropOp37
 70
     1
102
RTVSPost2010Prop38
140
0.0
102
RTVSPost2010PropOp38
 70
     1
102
RTVSPost2010Prop39
140
1.0
102
RTVSPost2010PropOp39
 70
     1
102
RTVSPost2010Prop40
 90
        0
102
RTVSPost2010PropOp40
 70
     1
102
RTVSPost2010Prop41ColorIndex
 90
       18
102
RTVSPost2010Prop41ColorRGB
 90
        0
102
RTVSPost2010PropOp41
 70
     1
102
RTVSPost2010Prop42
 90
       50
102
RTVSPost2010PropOp42
 70
     1
102
RTVSPost2010Prop43
 90
        3
102
RTVSPost2010PropOp43
 70
     1
102
RTVSPost2010Prop44ColorIndex
 90
        5
102
RTVSPost2010Prop44ColorRGB
 90
      255
102
RTVSPost2010PropOp44
 70
     1
102
RTVSPost2010Prop45
280
     0
102
RTVSPost2010PropOp45
 70
     1
102
RTVSPost2010Prop46
 90
       50
102
RTVSPost2010PropOp46
 70
     1
102
RTVSPost2010Prop47
 90
       50
102
RTVSPost2010PropOp47
 70
     1
102
RTVSPost2010Prop48
 90
       50
102
RTVSPost2010PropOp48
 70
     1
102
RTVSPost2010Prop49
280
     0
102
RTVSPost2010PropOp49
 70
     1
102
RTVSPost2010Prop50
 90
       50
102
RTVSPost2010PropOp50
 70
     1
102
RTVSPost2010Prop51ColorIndex
 90
      256
102
RTVSPost2010Prop51ColorRGB
 90
-16777216
102
RTVSPost2010PropOp51
 70
     0
102
RTVSPost2010Prop52
140
1.0
102
RTVSPost2010PropOp52
 70
     0
102
RTVSPost2010Prop53
 90
        2
102
RTVSPost2010PropOp53
 70
     1
102
RTVSPost2010Prop54
  1
strokes_ogs.tif
102
RTVSPost2010PropOp54
 70
     1
102
RTVSPost2010Prop55
280
     0
102
RTVSPost2010PropOp55
 70
     1
102
RTVSPost2010Prop56
140
1.0
102
RTVSPost2010PropOp56
 70
     1
102
RTVSPost2010Prop57
140
1.0
102
RTVSPost2010PropOp57
 70
     1
102
RTVSPropertyOp0
 70
     1
102
RTVSPropertyOp1
 70
     1
102
RTVSPropertyOp2
 70
     1
102
RTVSPropertyOp3
 70
     1
102
RTVSPropertyOp4
 70
     1
102
RTVSPropertyOp5
 70
     1
102
RTVSPropertyOp6
 70
     1
102
RTVSPropertyOp7
 70
     1
102
RTVSPropertyOp8
 70
     1
102
RTVSPropertyOp9
 70
     1
102
RTVSPropertyOp10
 70
     1
102
RTVSPropertyOp11
 70
     1
102
RTVSPropertyOp12
 70
     1
102
RTVSPropertyOp13
 70
     1
102
RTVSPropertyOp14
 70
     1
102
RTVSPropertyOp15
 70
     1
102
RTVSPropertyOp16
 70
     1
102
RTVSPropertyOp17
 70
     1
102
RTVSPropertyOp18
 70
     1
102
RTVSPropertyOp19
 70
     1
102
RTVSPropertyOp20
 70
     1
102
RTVSPropertyOp21
 70
     1
102
RTVSPropertyOp22
 70
     1
102
RTVSPropertyOp23
 70
     1
102
RTVSPropertyOp24
 70
     1
102
RTVSPropertyOp25
 70
     1
102
RTVSPropertyOp26
 70
     1
102
RTVSPropertyOp27
 70
     1
102
RTVSPropertyOp28
 70
     1
102
RTVSPropertyOp29
 70
     1
102
RTVSPropertyOp30
 70
     1
102
RTVSPropertyOp31
 70
     1
102
RTVSPropertyOp32
 70
     1
102
RTVSPropertyOp33
 70
     1
102
RTVSPropertyOp34
 70
     1
102
RTVSPropertyOp35
 70
     1
102
RTVSPropertyOp36
 70
     1
102
RTVSPropertyOp37
 70
     1
102
RTVSPropertyOp38
 70
     1
102
RTVSPropertyOp39
 70
     1
102
RTVSPropertyOp40
 70
     1
102
RTVSPropertyOp41
 70
     1
102
RTVSPropertyOp42
 70
     1
102
RTVSPropertyOp43
 70
     1
102
RTVSPropertyOp44
 70
     1
102
RTVSPropertyOp45
 70
     1
102
RTVSPropertyOp46
 70
     1
102
RTVSPropertyOp47
 70
     1
102
RTVSPropertyOp48
 70
     1
102
RTVSPropertyOp49
 70
     1
102
RTVSPropertyOp50
 70
     1
102
RTVSPropertyOp51
 70
     0
102
RTVSPropertyOp52
 70
     0
102
RTVSPropertyOp53
 70
     1
102
RTVSPropertyOp54
 70
     1
102
RTVSPropertyOp55
 70
     1
102
RTVSPropertyOp56
 70
     1
102
RTVSPropertyOp57
 70
     1
102
RTVSPropertyOp58
 70
     1
102
RTVSPropertyOp59
 70
     1
102
RTVSPropertyOp60
 70
     1
102
RTVSPropertyOp61
 70
     1
102
RTVSPropertyOp62
 70
     1
  0
XRECORD
  5
380
102
{ACAD_REACTORS
330
37F
102
}
330
37F
100
AcDbXrecord
280
     1
102
RTVSPost2010Prop28
280
     0
102
RTVSPost2010PropOp28
 70
     1
102
RTVSPost2010Prop29
280
     1
102
RTVSPost2010PropOp29
 70
     1
102
RTVSPost2010Prop30
280
     1
102
RTVSPost2010PropOp30
 70
     1
102
RTVSPost2010Prop31
280
     0
102
RTVSPost2010PropOp31
 70
     1
102
RTVSPost2010Prop32
280
     0
102
RTVSPost2010PropOp32
 70
     1
102
RTVSPost2010Prop33
280
     0
102
RTVSPost2010PropOp33
 70
     1
102
RTVSPost2010Prop34
280
     0
102
RTVSPost2010PropOp34
 70
     1
102
RTVSPost2010Prop35
280
     0
102
RTVSPost2010PropOp35
 70
     1
102
RTVSPost2010Prop36
280
     0
102
RTVSPost2010PropOp36
 70
     1
102
RTVSPost2010Prop37
 90
       50
102
RTVSPost2010PropOp37
 70
     1
102
RTVSPost2010Prop38
140
0.0
102
RTVSPost2010PropOp38
 70
     1
102
RTVSPost2010Prop39
140
1.0
102
RTVSPost2010PropOp39
 70
     1
102
RTVSPost2010Prop40
 90
        0
102
RTVSPost2010PropOp40
 70
     1
102
RTVSPost2010Prop41ColorIndex
 90
       18
102
RTVSPost2010Prop41ColorRGB
 90
        0
102
RTVSPost2010PropOp41
 70
     1
102
RTVSPost2010Prop42
 90
       50
102
RTVSPost2010PropOp42
 70
     1
102
RTVSPost2010Prop43
 90
        3
102
RTVSPost2010PropOp43
 70
     1
102
RTVSPost2010Prop44ColorIndex
 90
        5
102
RTVSPost2010Prop44ColorRGB
 90
      255
102
RTVSPost2010PropOp44
 70
     1
102
RTVSPost2010Prop45
280
     0
102
RTVSPost2010PropOp45
 70
     1
102
RTVSPost2010Prop46
 90
       50
102
RTVSPost2010PropOp46
 70
     1
102
RTVSPost2010Prop47
 90
       50
102
RTVSPost2010PropOp47
 70
     1
102
RTVSPost2010Prop48
 90
       50
102
RTVSPost2010PropOp48
 70
     1
102
RTVSPost2010Prop49
280
     0
102
RTVSPost2010PropOp49
 70
     1
102
RTVSPost2010Prop50
 90
       50
102
RTVSPost2010PropOp50
 70
     1
102
RTVSPost2010Prop51ColorIndex
 90
      256
102
RTVSPost2010Prop51ColorRGB
 90
-16777216
102
RTVSPost2010PropOp51
 70
     0
102
RTVSPost2010Prop52
140
1.0
102
RTVSPost2010PropOp52
 70
     0
102
RTVSPost2010Prop53
 90
        2
102
RTVSPost2010PropOp53
 70
     1
102
RTVSPost2010Prop54
  1
strokes_ogs.tif
102
RTVSPost2010PropOp54
 70
     1
102
RTVSPost2010Prop55
280
     0
102
RTVSPost2010PropOp55
 70
     1
102
RTVSPost2010Prop56
140
1.0
102
RTVSPost2010PropOp56
 70
     1
102
RTVSPost2010Prop57
140
1.0
102
RTVSPost2010PropOp57
 70
     1
102
RTVSPropertyOp0
 70
     1
102
RTVSPropertyOp1
 70
     1
102
RTVSPropertyOp2
 70
     1
102
RTVSPropertyOp3
 70
     1
102
RTVSPropertyOp4
 70
     1
102
RTVSPropertyOp5
 70
     1
102
RTVSPropertyOp6
 70
     1
102
RTVSPropertyOp7
 70
     1
102
RTVSPropertyOp8
 70
     1
102
RTVSPropertyOp9
 70
     1
102
RTVSPropertyOp10
 70
     1
102
RTVSPropertyOp11
 70
     1
102
RTVSPropertyOp12
 70
     1
102
RTVSPropertyOp13
 70
     1
102
RTVSPropertyOp14
 70
     1
102
RTVSPropertyOp15
 70
     1
102
RTVSPropertyOp16
 70
     1
102
RTVSPropertyOp17
 70
     1
102
RTVSPropertyOp18
 70
     1
102
RTVSPropertyOp19
 70
     1
102
RTVSPropertyOp20
 70
     1
102
RTVSPropertyOp21
 70
     1
102
RTVSPropertyOp22
 70
     1
102
RTVSPropertyOp23
 70
     1
102
RTVSPropertyOp24
 70
     1
102
RTVSPropertyOp25
 70
     1
102
RTVSPropertyOp26
 70
     1
102
RTVSPropertyOp27
 70
     1
102
RTVSPropertyOp28
 70
     1
102
RTVSPropertyOp29
 70
     1
102
RTVSPropertyOp30
 70
     1
102
RTVSPropertyOp31
 70
     1
102
RTVSPropertyOp32
 70
     1
102
RTVSPropertyOp33
 70
     1
102
RTVSPropertyOp34
 70
     1
102
RTVSPropertyOp35
 70
     1
102
RTVSPropertyOp36
 70
     1
102
RTVSPropertyOp37
 70
     1
102
RTVSPropertyOp38
 70
     1
102
RTVSPropertyOp39
 70
     1
102
RTVSPropertyOp40
 70
     1
102
RTVSPropertyOp41
 70
     1
102
RTVSPropertyOp42
 70
     1
102
RTVSPropertyOp43
 70
     1
102
RTVSPropertyOp44
 70
     1
102
RTVSPropertyOp45
 70
     1
102
RTVSPropertyOp46
 70
     1
102
RTVSPropertyOp47
 70
     1
102
RTVSPropertyOp48
 70
     1
102
RTVSPropertyOp49
 70
     1
102
RTVSPropertyOp50
 70
     1
102
RTVSPropertyOp51
 70
     0
102
RTVSPropertyOp52
 70
     0
102
RTVSPropertyOp53
 70
     1
102
RTVSPropertyOp54
 70
     1
102
RTVSPropertyOp55
 70
     1
102
RTVSPropertyOp56
 70
     1
102
RTVSPropertyOp57
 70
     1
102
RTVSPropertyOp58
 70
     1
102
RTVSPropertyOp59
 70
     1
102
RTVSPropertyOp60
 70
     1
102
RTVSPropertyOp61
 70
     1
102
RTVSPropertyOp62
 70
     1
  0
XRECORD
  5
374
102
{ACAD_REACTORS
330
373
102
}
330
373
100
AcDbXrecord
280
     1
102
RTVSPost2010Prop28
280
     0
102
RTVSPost2010PropOp28
 70
     1
102
RTVSPost2010Prop29
280
     1
102
RTVSPost2010PropOp29
 70
     1
102
RTVSPost2010Prop30
280
     1
102
RTVSPost2010PropOp30
 70
     1
102
RTVSPost2010Prop31
280
     0
102
RTVSPost2010PropOp31
 70
     1
102
RTVSPost2010Prop32
280
     0
102
RTVSPost2010PropOp32
 70
     1
102
RTVSPost2010Prop33
280
     0
102
RTVSPost2010PropOp33
 70
     1
102
RTVSPost2010Prop34
280
     0
102
RTVSPost2010PropOp34
 70
     1
102
RTVSPost2010Prop35
280
     0
102
RTVSPost2010PropOp35
 70
     1
102
RTVSPost2010Prop36
280
     0
102
RTVSPost2010PropOp36
 70
     1
102
RTVSPost2010Prop37
 90
       50
102
RTVSPost2010PropOp37
 70
     1
102
RTVSPost2010Prop38
140
0.0
102
RTVSPost2010PropOp38
 70
     1
102
RTVSPost2010Prop39
140
1.0
102
RTVSPost2010PropOp39
 70
     1
102
RTVSPost2010Prop40
 90
        0
102
RTVSPost2010PropOp40
 70
     1
102
RTVSPost2010Prop41ColorIndex
 90
       18
102
RTVSPost2010Prop41ColorRGB
 90
        0
102
RTVSPost2010PropOp41
 70
     1
102
RTVSPost2010Prop42
 90
       50
102
RTVSPost2010PropOp42
 70
     1
102
RTVSPost2010Prop43
 90
        3
102
RTVSPost2010PropOp43
 70
     1
102
RTVSPost2010Prop44ColorIndex
 90
        5
102
RTVSPost2010Prop44ColorRGB
 90
      255
102
RTVSPost2010PropOp44
 70
     1
102
RTVSPost2010Prop45
280
     0
102
RTVSPost2010PropOp45
 70
     1
102
RTVSPost2010Prop46
 90
       50
102
RTVSPost2010PropOp46
 70
     1
102
RTVSPost2010Prop47
 90
       50
102
RTVSPost2010PropOp47
 70
     1
102
RTVSPost2010Prop48
 90
       50
102
RTVSPost2010PropOp48
 70
     1
102
RTVSPost2010Prop49
280
     0
102
RTVSPost2010PropOp49
 70
     1
102
RTVSPost2010Prop50
 90
       50
102
RTVSPost2010PropOp50
 70
     1
102
RTVSPost2010Prop51ColorIndex
 90
      256
102
RTVSPost2010Prop51ColorRGB
 90
-16777216
102
RTVSPost2010PropOp51
 70
     0
102
RTVSPost2010Prop52
140
1.0
102
RTVSPost2010PropOp52
 70
     0
102
RTVSPost2010Prop53
 90
        2
102
RTVSPost2010PropOp53
 70
     1
102
RTVSPost2010Prop54
  1
strokes_ogs.tif
102
RTVSPost2010PropOp54
 70
     1
102
RTVSPost2010Prop55
280
     0
102
RTVSPost2010PropOp55
 70
     1
102
RTVSPost2010Prop56
140
1.0
102
RTVSPost2010PropOp56
 70
     1
102
RTVSPost2010Prop57
140
1.0
102
RTVSPost2010PropOp57
 70
     1
102
RTVSPropertyOp0
 70
     1
102
RTVSPropertyOp1
 70
     1
102
RTVSPropertyOp2
 70
     1
102
RTVSPropertyOp3
 70
     1
102
RTVSPropertyOp4
 70
     1
102
RTVSPropertyOp5
 70
     1
102
RTVSPropertyOp6
 70
     1
102
RTVSPropertyOp7
 70
     1
102
RTVSPropertyOp8
 70
     1
102
RTVSPropertyOp9
 70
     1
102
RTVSPropertyOp10
 70
     1
102
RTVSPropertyOp11
 70
     1
102
RTVSPropertyOp12
 70
     1
102
RTVSPropertyOp13
 70
     1
102
RTVSPropertyOp14
 70
     1
102
RTVSPropertyOp15
 70
     1
102
RTVSPropertyOp16
 70
     1
102
RTVSPropertyOp17
 70
     1
102
RTVSPropertyOp18
 70
     1
102
RTVSPropertyOp19
 70
     1
102
RTVSPropertyOp20
 70
     1
102
RTVSPropertyOp21
 70
     1
102
RTVSPropertyOp22
 70
     1
102
RTVSPropertyOp23
 70
     1
102
RTVSPropertyOp24
 70
     1
102
RTVSPropertyOp25
 70
     1
102
RTVSPropertyOp26
 70
     1
102
RTVSPropertyOp27
 70
     1
102
RTVSPropertyOp28
 70
     1
102
RTVSPropertyOp29
 70
     1
102
RTVSPropertyOp30
 70
     1
102
RTVSPropertyOp31
 70
     1
102
RTVSPropertyOp32
 70
     1
102
RTVSPropertyOp33
 70
     1
102
RTVSPropertyOp34
 70
     1
102
RTVSPropertyOp35
 70
     1
102
RTVSPropertyOp36
 70
     1
102
RTVSPropertyOp37
 70
     1
102
RTVSPropertyOp38
 70
     1
102
RTVSPropertyOp39
 70
     1
102
RTVSPropertyOp40
 70
     1
102
RTVSPropertyOp41
 70
     1
102
RTVSPropertyOp42
 70
     1
102
RTVSPropertyOp43
 70
     1
102
RTVSPropertyOp44
 70
     1
102
RTVSPropertyOp45
 70
     1
102
RTVSPropertyOp46
 70
     1
102
RTVSPropertyOp47
 70
     1
102
RTVSPropertyOp48
 70
     1
102
RTVSPropertyOp49
 70
     1
102
RTVSPropertyOp50
 70
     1
102
RTVSPropertyOp51
 70
     0
102
RTVSPropertyOp52
 70
     0
102
RTVSPropertyOp53
 70
     1
102
RTVSPropertyOp54
 70
     1
102
RTVSPropertyOp55
 70
     1
102
RTVSPropertyOp56
 70
     1
102
RTVSPropertyOp57
 70
     1
102
RTVSPropertyOp58
 70
     1
102
RTVSPropertyOp59
 70
     1
102
RTVSPropertyOp60
 70
     1
102
RTVSPropertyOp61
 70
     1
102
RTVSPropertyOp62
 70
     1
  0
XRECORD
  5
376
102
{ACAD_REACTORS
330
375
102
}
330
375
100
AcDbXrecord
280
     1
102
RTVSPost2010Prop28
280
     0
102
RTVSPost2010PropOp28
 70
     1
102
RTVSPost2010Prop29
280
     1
102
RTVSPost2010PropOp29
 70
     1
102
RTVSPost2010Prop30
280
     1
102
RTVSPost2010PropOp30
 70
     1
102
RTVSPost2010Prop31
280
     0
102
RTVSPost2010PropOp31
 70
     1
102
RTVSPost2010Prop32
280
     0
102
RTVSPost2010PropOp32
 70
     1
102
RTVSPost2010Prop33
280
     0
102
RTVSPost2010PropOp33
 70
     1
102
RTVSPost2010Prop34
280
     0
102
RTVSPost2010PropOp34
 70
     1
102
RTVSPost2010Prop35
280
     0
102
RTVSPost2010PropOp35
 70
     1
102
RTVSPost2010Prop36
280
     0
102
RTVSPost2010PropOp36
 70
     1
102
RTVSPost2010Prop37
 90
       50
102
RTVSPost2010PropOp37
 70
     1
102
RTVSPost2010Prop38
140
0.0
102
RTVSPost2010PropOp38
 70
     1
102
RTVSPost2010Prop39
140
1.0
102
RTVSPost2010PropOp39
 70
     1
102
RTVSPost2010Prop40
 90
        0
102
RTVSPost2010PropOp40
 70
     1
102
RTVSPost2010Prop41ColorIndex
 90
       18
102
RTVSPost2010Prop41ColorRGB
 90
        0
102
RTVSPost2010PropOp41
 70
     1
102
RTVSPost2010Prop42
 90
       50
102
RTVSPost2010PropOp42
 70
     1
102
RTVSPost2010Prop43
 90
        3
102
RTVSPost2010PropOp43
 70
     1
102
RTVSPost2010Prop44ColorIndex
 90
        5
102
RTVSPost2010Prop44ColorRGB
 90
      255
102
RTVSPost2010PropOp44
 70
     1
102
RTVSPost2010Prop45
280
     0
102
RTVSPost2010PropOp45
 70
     1
102
RTVSPost2010Prop46
 90
       50
102
RTVSPost2010PropOp46
 70
     1
102
RTVSPost2010Prop47
 90
       50
102
RTVSPost2010PropOp47
 70
     1
102
RTVSPost2010Prop48
 90
       50
102
RTVSPost2010PropOp48
 70
     1
102
RTVSPost2010Prop49
280
     0
102
RTVSPost2010PropOp49
 70
     1
102
RTVSPost2010Prop50
 90
       50
102
RTVSPost2010PropOp50
 70
     1
102
RTVSPost2010Prop51ColorIndex
 90
      256
102
RTVSPost2010Prop51ColorRGB
 90
-16777216
102
RTVSPost2010PropOp51
 70
     0
102
RTVSPost2010Prop52
140
1.0
102
RTVSPost2010PropOp52
 70
     0
102
RTVSPost2010Prop53
 90
        2
102
RTVSPost2010PropOp53
 70
     1
102
RTVSPost2010Prop54
  1
strokes_ogs.tif
102
RTVSPost2010PropOp54
 70
     1
102
RTVSPost2010Prop55
280
     0
102
RTVSPost2010PropOp55
 70
     1
102
RTVSPost2010Prop56
140
1.0
102
RTVSPost2010PropOp56
 70
     1
102
RTVSPost2010Prop57
140
1.0
102
RTVSPost2010PropOp57
 70
     1
102
RTVSPropertyOp0
 70
     1
102
RTVSPropertyOp1
 70
     1
102
RTVSPropertyOp2
 70
     1
102
RTVSPropertyOp3
 70
     1
102
RTVSPropertyOp4
 70
     1
102
RTVSPropertyOp5
 70
     1
102
RTVSPropertyOp6
 70
     1
102
RTVSPropertyOp7
 70
     1
102
RTVSPropertyOp8
 70
     1
102
RTVSPropertyOp9
 70
     1
102
RTVSPropertyOp10
 70
     1
102
RTVSPropertyOp11
 70
     1
102
RTVSPropertyOp12
 70
     1
102
RTVSPropertyOp13
 70
     1
102
RTVSPropertyOp14
 70
     1
102
RTVSPropertyOp15
 70
     1
102
RTVSPropertyOp16
 70
     1
102
RTVSPropertyOp17
 70
     1
102
RTVSPropertyOp18
 70
     1
102
RTVSPropertyOp19
 70
     1
102
RTVSPropertyOp20
 70
     1
102
RTVSPropertyOp21
 70
     1
102
RTVSPropertyOp22
 70
     1
102
RTVSPropertyOp23
 70
     1
102
RTVSPropertyOp24
 70
     1
102
RTVSPropertyOp25
 70
     1
102
RTVSPropertyOp26
 70
     1
102
RTVSPropertyOp27
 70
     1
102
RTVSPropertyOp28
 70
     1
102
RTVSPropertyOp29
 70
     1
102
RTVSPropertyOp30
 70
     1
102
RTVSPropertyOp31
 70
     1
102
RTVSPropertyOp32
 70
     1
102
RTVSPropertyOp33
 70
     1
102
RTVSPropertyOp34
 70
     1
102
RTVSPropertyOp35
 70
     1
102
RTVSPropertyOp36
 70
     1
102
RTVSPropertyOp37
 70
     1
102
RTVSPropertyOp38
 70
     1
102
RTVSPropertyOp39
 70
     1
102
RTVSPropertyOp40
 70
     1
102
RTVSPropertyOp41
 70
     1
102
RTVSPropertyOp42
 70
     1
102
RTVSPropertyOp43
 70
     1
102
RTVSPropertyOp44
 70
     1
102
RTVSPropertyOp45
 70
     1
102
RTVSPropertyOp46
 70
     1
102
RTVSPropertyOp47
 70
     1
102
RTVSPropertyOp48
 70
     1
102
RTVSPropertyOp49
 70
     1
102
RTVSPropertyOp50
 70
     1
102
RTVSPropertyOp51
 70
     0
102
RTVSPropertyOp52
 70
     0
102
RTVSPropertyOp53
 70
     1
102
RTVSPropertyOp54
 70
     1
102
RTVSPropertyOp55
 70
     1
102
RTVSPropertyOp56
 70
     1
102
RTVSPropertyOp57
 70
     1
102
RTVSPropertyOp58
 70
     1
102
RTVSPropertyOp59
 70
     1
102
RTVSPropertyOp60
 70
     1
102
RTVSPropertyOp61
 70
     1
102
RTVSPropertyOp62
 70
     1
  0
XRECORD
  5
386
102
{ACAD_REACTORS
330
385
102
}
330
385
100
AcDbXrecord
280
     1
102
RTVSPost2010Prop28
280
     0
102
RTVSPost2010PropOp28
 70
     0
102
RTVSPost2010Prop29
280
     1
102
RTVSPost2010PropOp29
 70
     0
102
RTVSPost2010Prop30
280
     1
102
RTVSPost2010PropOp30
 70
     0
102
RTVSPost2010Prop31
280
     0
102
RTVSPost2010PropOp31
 70
     0
102
RTVSPost2010Prop32
280
     0
102
RTVSPost2010PropOp32
 70
     0
102
RTVSPost2010Prop33
280
     0
102
RTVSPost2010PropOp33
 70
     0
102
RTVSPost2010Prop34
280
     0
102
RTVSPost2010PropOp34
 70
     0
102
RTVSPost2010Prop35
280
     0
102
RTVSPost2010PropOp35
 70
     0
102
RTVSPost2010Prop36
280
     0
102
RTVSPost2010PropOp36
 70
     0
102
RTVSPost2010Prop37
 90
       50
102
RTVSPost2010PropOp37
 70
     0
102
RTVSPost2010Prop38
140
0.0
102
RTVSPost2010PropOp38
 70
     0
102
RTVSPost2010Prop39
140
1.0
102
RTVSPost2010PropOp39
 70
     0
102
RTVSPost2010Prop40
 90
        0
102
RTVSPost2010PropOp40
 70
     0
102
RTVSPost2010Prop41ColorIndex
 90
       18
102
RTVSPost2010Prop41ColorRGB
 90
        0
102
RTVSPost2010PropOp41
 70
     0
102
RTVSPost2010Prop42
 90
       50
102
RTVSPost2010PropOp42
 70
     0
102
RTVSPost2010Prop43
 90
        3
102
RTVSPost2010PropOp43
 70
     0
102
RTVSPost2010Prop44ColorIndex
 90
        5
102
RTVSPost2010Prop44ColorRGB
 90
      255
102
RTVSPost2010PropOp44
 70
     0
102
RTVSPost2010Prop45
280
     0
102
RTVSPost2010PropOp45
 70
     0
102
RTVSPost2010Prop46
 90
       50
102
RTVSPost2010PropOp46
 70
     0
102
RTVSPost2010Prop47
 90
       50
102
RTVSPost2010PropOp47
 70
     0
102
RTVSPost2010Prop48
 90
       50
102
RTVSPost2010PropOp48
 70
     0
102
RTVSPost2010Prop49
280
     0
102
RTVSPost2010PropOp49
 70
     0
102
RTVSPost2010Prop50
 90
       50
102
RTVSPost2010PropOp50
 70
     0
102
RTVSPost2010Prop51ColorIndex
 90
      256
102
RTVSPost2010Prop51ColorRGB
 90
-16777216
102
RTVSPost2010PropOp51
 70
     0
102
RTVSPost2010Prop52
140
1.0
102
RTVSPost2010PropOp52
 70
     0
102
RTVSPost2010Prop53
 90
        2
102
RTVSPost2010PropOp53
 70
     0
102
RTVSPost2010Prop54
  1
strokes_ogs.tif
102
RTVSPost2010PropOp54
 70
     0
102
RTVSPost2010Prop55
280
     0
102
RTVSPost2010PropOp55
 70
     0
102
RTVSPost2010Prop56
140
1.0
102
RTVSPost2010PropOp56
 70
     0
102
RTVSPost2010Prop57
140
1.0
102
RTVSPost2010PropOp57
 70
     0
102
RTVSPropertyOp0
 70
     0
102
RTVSPropertyOp1
 70
     0
102
RTVSPropertyOp2
 70
     0
102
RTVSPropertyOp3
 70
     0
102
RTVSPropertyOp4
 70
     0
102
RTVSPropertyOp5
 70
     0
102
RTVSPropertyOp6
 70
     0
102
RTVSPropertyOp7
 70
     0
102
RTVSPropertyOp8
 70
     0
102
RTVSPropertyOp9
 70
     0
102
RTVSPropertyOp10
 70
     0
102
RTVSPropertyOp11
 70
     0
102
RTVSPropertyOp12
 70
     0
102
RTVSPropertyOp13
 70
     0
102
RTVSPropertyOp14
 70
     2
102
RTVSPropertyOp15
 70
     0
102
RTVSPropertyOp16
 70
     0
102
RTVSPropertyOp17
 70
     0
102
RTVSPropertyOp18
 70
     0
102
RTVSPropertyOp19
 70
     0
102
RTVSPropertyOp20
 70
     0
102
RTVSPropertyOp21
 70
     0
102
RTVSPropertyOp22
 70
     0
102
RTVSPropertyOp23
 70
     0
102
RTVSPropertyOp24
 70
     0
102
RTVSPropertyOp25
 70
     0
102
RTVSPropertyOp26
 70
     0
102
RTVSPropertyOp27
 70
     0
102
RTVSPropertyOp28
 70
     0
102
RTVSPropertyOp29
 70
     0
102
RTVSPropertyOp30
 70
     0
102
RTVSPropertyOp31
 70
     0
102
RTVSPropertyOp32
 70
     0
102
RTVSPropertyOp33
 70
     0
102
RTVSPropertyOp34
 70
     0
102
RTVSPropertyOp35
 70
     0
102
RTVSPropertyOp36
 70
     0
102
RTVSPropertyOp37
 70
     0
102
RTVSPropertyOp38
 70
     0
102
RTVSPropertyOp39
 70
     0
102
RTVSPropertyOp40
 70
     0
102
RTVSPropertyOp41
 70
     0
102
RTVSPropertyOp42
 70
     0
102
RTVSPropertyOp43
 70
     0
102
RTVSPropertyOp44
 70
     0
102
RTVSPropertyOp45
 70
     0
102
RTVSPropertyOp46
 70
     0
102
RTVSPropertyOp47
 70
     0
102
RTVSPropertyOp48
 70
     0
102
RTVSPropertyOp49
 70
     0
102
RTVSPropertyOp50
 70
     0
102
RTVSPropertyOp51
 70
     0
102
RTVSPropertyOp52
 70
     0
102
RTVSPropertyOp53
 70
     0
102
RTVSPropertyOp54
 70
     0
102
RTVSPropertyOp55
 70
     0
102
RTVSPropertyOp56
 70
     0
102
RTVSPropertyOp57
 70
     0
102
RTVSPropertyOp58
 70
     1
102
RTVSPropertyOp59
 70
     1
102
RTVSPropertyOp60
 70
     1
102
RTVSPropertyOp61
 70
     1
102
RTVSPropertyOp62
 70
     1
  0
XRECORD
  5
37E
102
{ACAD_REACTORS
330
37D
102
}
330
37D
100
AcDbXrecord
280
     1
102
RTVSPost2010Prop28
280
     0
102
RTVSPost2010PropOp28
 70
     1
102
RTVSPost2010Prop29
280
     1
102
RTVSPost2010PropOp29
 70
     1
102
RTVSPost2010Prop30
280
     1
102
RTVSPost2010PropOp30
 70
     1
102
RTVSPost2010Prop31
280
     0
102
RTVSPost2010PropOp31
 70
     1
102
RTVSPost2010Prop32
280
     0
102
RTVSPost2010PropOp32
 70
     1
102
RTVSPost2010Prop33
280
     0
102
RTVSPost2010PropOp33
 70
     1
102
RTVSPost2010Prop34
280
     0
102
RTVSPost2010PropOp34
 70
     1
102
RTVSPost2010Prop35
280
     0
102
RTVSPost2010PropOp35
 70
     1
102
RTVSPost2010Prop36
280
     0
102
RTVSPost2010PropOp36
 70
     1
102
RTVSPost2010Prop37
 90
       50
102
RTVSPost2010PropOp37
 70
     1
102
RTVSPost2010Prop38
140
0.0
102
RTVSPost2010PropOp38
 70
     1
102
RTVSPost2010Prop39
140
1.0
102
RTVSPost2010PropOp39
 70
     1
102
RTVSPost2010Prop40
 90
        0
102
RTVSPost2010PropOp40
 70
     1
102
RTVSPost2010Prop41ColorIndex
 90
       18
102
RTVSPost2010Prop41ColorRGB
 90
        0
102
RTVSPost2010PropOp41
 70
     1
102
RTVSPost2010Prop42
 90
       50
102
RTVSPost2010PropOp42
 70
     1
102
RTVSPost2010Prop43
 90
        3
102
RTVSPost2010PropOp43
 70
     1
102
RTVSPost2010Prop44ColorIndex
 90
        5
102
RTVSPost2010Prop44ColorRGB
 90
      255
102
RTVSPost2010PropOp44
 70
     1
102
RTVSPost2010Prop45
280
     0
102
RTVSPost2010PropOp45
 70
     1
102
RTVSPost2010Prop46
 90
       50
102
RTVSPost2010PropOp46
 70
     1
102
RTVSPost2010Prop47
 90
       50
102
RTVSPost2010PropOp47
 70
     1
102
RTVSPost2010Prop48
 90
       50
102
RTVSPost2010PropOp48
 70
     1
102
RTVSPost2010Prop49
280
     0
102
RTVSPost2010PropOp49
 70
     1
102
RTVSPost2010Prop50
 90
       50
102
RTVSPost2010PropOp50
 70
     1
102
RTVSPost2010Prop51ColorIndex
 90
      256
102
RTVSPost2010Prop51ColorRGB
 90
-16777216
102
RTVSPost2010PropOp51
 70
     0
102
RTVSPost2010Prop52
140
1.0
102
RTVSPost2010PropOp52
 70
     0
102
RTVSPost2010Prop53
 90
        2
102
RTVSPost2010PropOp53
 70
     1
102
RTVSPost2010Prop54
  1
strokes_ogs.tif
102
RTVSPost2010PropOp54
 70
     1
102
RTVSPost2010Prop55
280
     0
102
RTVSPost2010PropOp55
 70
     1
102
RTVSPost2010Prop56
140
1.0
102
RTVSPost2010PropOp56
 70
     1
102
RTVSPost2010Prop57
140
1.0
102
RTVSPost2010PropOp57
 70
     1
102
RTVSPropertyOp0
 70
     1
102
RTVSPropertyOp1
 70
     1
102
RTVSPropertyOp2
 70
     1
102
RTVSPropertyOp3
 70
     1
102
RTVSPropertyOp4
 70
     1
102
RTVSPropertyOp5
 70
     1
102
RTVSPropertyOp6
 70
     1
102
RTVSPropertyOp7
 70
     1
102
RTVSPropertyOp8
 70
     1
102
RTVSPropertyOp9
 70
     1
102
RTVSPropertyOp10
 70
     1
102
RTVSPropertyOp11
 70
     1
102
RTVSPropertyOp12
 70
     1
102
RTVSPropertyOp13
 70
     1
102
RTVSPropertyOp14
 70
     1
102
RTVSPropertyOp15
 70
     1
102
RTVSPropertyOp16
 70
     1
102
RTVSPropertyOp17
 70
     1
102
RTVSPropertyOp18
 70
     1
102
RTVSPropertyOp19
 70
     1
102
RTVSPropertyOp20
 70
     1
102
RTVSPropertyOp21
 70
     1
102
RTVSPropertyOp22
 70
     1
102
RTVSPropertyOp23
 70
     1
102
RTVSPropertyOp24
 70
     1
102
RTVSPropertyOp25
 70
     1
102
RTVSPropertyOp26
 70
     1
102
RTVSPropertyOp27
 70
     1
102
RTVSPropertyOp28
 70
     1
102
RTVSPropertyOp29
 70
     1
102
RTVSPropertyOp30
 70
     1
102
RTVSPropertyOp31
 70
     1
102
RTVSPropertyOp32
 70
     1
102
RTVSPropertyOp33
 70
     1
102
RTVSPropertyOp34
 70
     1
102
RTVSPropertyOp35
 70
     1
102
RTVSPropertyOp36
 70
     1
102
RTVSPropertyOp37
 70
     1
102
RTVSPropertyOp38
 70
     1
102
RTVSPropertyOp39
 70
     1
102
RTVSPropertyOp40
 70
     1
102
RTVSPropertyOp41
 70
     1
102
RTVSPropertyOp42
 70
     1
102
RTVSPropertyOp43
 70
     1
102
RTVSPropertyOp44
 70
     1
102
RTVSPropertyOp45
 70
     1
102
RTVSPropertyOp46
 70
     1
102
RTVSPropertyOp47
 70
     1
102
RTVSPropertyOp48
 70
     1
102
RTVSPropertyOp49
 70
     1
102
RTVSPropertyOp50
 70
     1
102
RTVSPropertyOp51
 70
     0
102
RTVSPropertyOp52
 70
     0
102
RTVSPropertyOp53
 70
     1
102
RTVSPropertyOp54
 70
     1
102
RTVSPropertyOp55
 70
     1
102
RTVSPropertyOp56
 70
     1
102
RTVSPropertyOp57
 70
     1
102
RTVSPropertyOp58
 70
     1
102
RTVSPropertyOp59
 70
     1
102
RTVSPropertyOp60
 70
     1
102
RTVSPropertyOp61
 70
     1
102
RTVSPropertyOp62
 70
     1
  0
XRECORD
  5
362
102
{ACAD_REACTORS
330
361
102
}
330
361
100
AcDbXrecord
280
     1
102
RTVSPost2010Prop28
280
     0
102
RTVSPost2010PropOp28
 70
     1
102
RTVSPost2010Prop29
280
     1
102
RTVSPost2010PropOp29
 70
     1
102
RTVSPost2010Prop30
280
     1
102
RTVSPost2010PropOp30
 70
     1
102
RTVSPost2010Prop31
280
     0
102
RTVSPost2010PropOp31
 70
     1
102
RTVSPost2010Prop32
280
     0
102
RTVSPost2010PropOp32
 70
     1
102
RTVSPost2010Prop33
280
     0
102
RTVSPost2010PropOp33
 70
     1
102
RTVSPost2010Prop34
280
     0
102
RTVSPost2010PropOp34
 70
     1
102
RTVSPost2010Prop35
280
     0
102
RTVSPost2010PropOp35
 70
     1
102
RTVSPost2010Prop36
280
     0
102
RTVSPost2010PropOp36
 70
     1
102
RTVSPost2010Prop37
 90
       50
102
RTVSPost2010PropOp37
 70
     1
102
RTVSPost2010Prop38
140
0.0
102
RTVSPost2010PropOp38
 70
     1
102
RTVSPost2010Prop39
140
1.0
102
RTVSPost2010PropOp39
 70
     1
102
RTVSPost2010Prop40
 90
        0
102
RTVSPost2010PropOp40
 70
     1
102
RTVSPost2010Prop41ColorIndex
 90
       18
102
RTVSPost2010Prop41ColorRGB
 90
        0
102
RTVSPost2010PropOp41
 70
     1
102
RTVSPost2010Prop42
 90
       50
102
RTVSPost2010PropOp42
 70
     1
102
RTVSPost2010Prop43
 90
        3
102
RTVSPost2010PropOp43
 70
     1
102
RTVSPost2010Prop44ColorIndex
 90
        5
102
RTVSPost2010Prop44ColorRGB
 90
      255
102
RTVSPost2010PropOp44
 70
     1
102
RTVSPost2010Prop45
280
     0
102
RTVSPost2010PropOp45
 70
     1
102
RTVSPost2010Prop46
 90
       50
102
RTVSPost2010PropOp46
 70
     1
102
RTVSPost2010Prop47
 90
       50
102
RTVSPost2010PropOp47
 70
     1
102
RTVSPost2010Prop48
 90
       50
102
RTVSPost2010PropOp48
 70
     1
102
RTVSPost2010Prop49
280
     0
102
RTVSPost2010PropOp49
 70
     1
102
RTVSPost2010Prop50
 90
       50
102
RTVSPost2010PropOp50
 70
     1
102
RTVSPost2010Prop51ColorIndex
 90
      256
102
RTVSPost2010Prop51ColorRGB
 90
-16777216
102
RTVSPost2010PropOp51
 70
     0
102
RTVSPost2010Prop52
140
1.0
102
RTVSPost2010PropOp52
 70
     0
102
RTVSPost2010Prop53
 90
        2
102
RTVSPost2010PropOp53
 70
     1
102
RTVSPost2010Prop54
  1
strokes_ogs.tif
102
RTVSPost2010PropOp54
 70
     1
102
RTVSPost2010Prop55
280
     0
102
RTVSPost2010PropOp55
 70
     1
102
RTVSPost2010Prop56
140
1.0
102
RTVSPost2010PropOp56
 70
     1
102
RTVSPost2010Prop57
140
1.0
102
RTVSPost2010PropOp57
 70
     1
102
RTVSPropertyOp0
 70
     1
102
RTVSPropertyOp1
 70
     1
102
RTVSPropertyOp2
 70
     1
102
RTVSPropertyOp3
 70
     1
102
RTVSPropertyOp4
 70
     1
102
RTVSPropertyOp5
 70
     1
102
RTVSPropertyOp6
 70
     1
102
RTVSPropertyOp7
 70
     1
102
RTVSPropertyOp8
 70
     1
102
RTVSPropertyOp9
 70
     1
102
RTVSPropertyOp10
 70
     1
102
RTVSPropertyOp11
 70
     1
102
RTVSPropertyOp12
 70
     1
102
RTVSPropertyOp13
 70
     1
102
RTVSPropertyOp14
 70
     1
102
RTVSPropertyOp15
 70
     1
102
RTVSPropertyOp16
 70
     1
102
RTVSPropertyOp17
 70
     1
102
RTVSPropertyOp18
 70
     1
102
RTVSPropertyOp19
 70
     1
102
RTVSPropertyOp20
 70
     1
102
RTVSPropertyOp21
 70
     1
102
RTVSPropertyOp22
 70
     1
102
RTVSPropertyOp23
 70
     1
102
RTVSPropertyOp24
 70
     1
102
RTVSPropertyOp25
 70
     1
102
RTVSPropertyOp26
 70
     1
102
RTVSPropertyOp27
 70
     1
102
RTVSPropertyOp28
 70
     1
102
RTVSPropertyOp29
 70
     1
102
RTVSPropertyOp30
 70
     1
102
RTVSPropertyOp31
 70
     1
102
RTVSPropertyOp32
 70
     1
102
RTVSPropertyOp33
 70
     1
102
RTVSPropertyOp34
 70
     1
102
RTVSPropertyOp35
 70
     1
102
RTVSPropertyOp36
 70
     1
102
RTVSPropertyOp37
 70
     1
102
RTVSPropertyOp38
 70
     1
102
RTVSPropertyOp39
 70
     1
102
RTVSPropertyOp40
 70
     1
102
RTVSPropertyOp41
 70
     1
102
RTVSPropertyOp42
 70
     1
102
RTVSPropertyOp43
 70
     1
102
RTVSPropertyOp44
 70
     1
102
RTVSPropertyOp45
 70
     1
102
RTVSPropertyOp46
 70
     1
102
RTVSPropertyOp47
 70
     1
102
RTVSPropertyOp48
 70
     1
102
RTVSPropertyOp49
 70
     1
102
RTVSPropertyOp50
 70
     1
102
RTVSPropertyOp51
 70
     0
102
RTVSPropertyOp52
 70
     0
102
RTVSPropertyOp53
 70
     1
102
RTVSPropertyOp54
 70
     1
102
RTVSPropertyOp55
 70
     1
102
RTVSPropertyOp56
 70
     1
102
RTVSPropertyOp57
 70
     1
102
RTVSPropertyOp58
 70
     1
102
RTVSPropertyOp59
 70
     1
102
RTVSPropertyOp60
 70
     1
102
RTVSPropertyOp61
 70
     1
102
RTVSPropertyOp62
 70
     1
  0
XRECORD
  5
364
102
{ACAD_REACTORS
330
363
102
}
330
363
100
AcDbXrecord
280
     1
102
RTVSPost2010Prop28
280
     0
102
RTVSPost2010PropOp28
 70
     1
102
RTVSPost2010Prop29
280
     1
102
RTVSPost2010PropOp29
 70
     1
102
RTVSPost2010Prop30
280
     1
102
RTVSPost2010PropOp30
 70
     1
102
RTVSPost2010Prop31
280
     0
102
RTVSPost2010PropOp31
 70
     1
102
RTVSPost2010Prop32
280
     0
102
RTVSPost2010PropOp32
 70
     1
102
RTVSPost2010Prop33
280
     0
102
RTVSPost2010PropOp33
 70
     1
102
RTVSPost2010Prop34
280
     0
102
RTVSPost2010PropOp34
 70
     1
102
RTVSPost2010Prop35
280
     0
102
RTVSPost2010PropOp35
 70
     1
102
RTVSPost2010Prop36
280
     0
102
RTVSPost2010PropOp36
 70
     1
102
RTVSPost2010Prop37
 90
       50
102
RTVSPost2010PropOp37
 70
     1
102
RTVSPost2010Prop38
140
0.0
102
RTVSPost2010PropOp38
 70
     1
102
RTVSPost2010Prop39
140
1.0
102
RTVSPost2010PropOp39
 70
     1
102
RTVSPost2010Prop40
 90
        0
102
RTVSPost2010PropOp40
 70
     1
102
RTVSPost2010Prop41ColorIndex
 90
       18
102
RTVSPost2010Prop41ColorRGB
 90
        0
102
RTVSPost2010PropOp41
 70
     1
102
RTVSPost2010Prop42
 90
       50
102
RTVSPost2010PropOp42
 70
     1
102
RTVSPost2010Prop43
 90
        3
102
RTVSPost2010PropOp43
 70
     1
102
RTVSPost2010Prop44ColorIndex
 90
        5
102
RTVSPost2010Prop44ColorRGB
 90
      255
102
RTVSPost2010PropOp44
 70
     1
102
RTVSPost2010Prop45
280
     0
102
RTVSPost2010PropOp45
 70
     1
102
RTVSPost2010Prop46
 90
       50
102
RTVSPost2010PropOp46
 70
     1
102
RTVSPost2010Prop47
 90
       50
102
RTVSPost2010PropOp47
 70
     1
102
RTVSPost2010Prop48
 90
       50
102
RTVSPost2010PropOp48
 70
     1
102
RTVSPost2010Prop49
280
     0
102
RTVSPost2010PropOp49
 70
     1
102
RTVSPost2010Prop50
 90
       50
102
RTVSPost2010PropOp50
 70
     1
102
RTVSPost2010Prop51ColorIndex
 90
      256
102
RTVSPost2010Prop51ColorRGB
 90
-16777216
102
RTVSPost2010PropOp51
 70
     0
102
RTVSPost2010Prop52
140
1.0
102
RTVSPost2010PropOp52
 70
     0
102
RTVSPost2010Prop53
 90
        2
102
RTVSPost2010PropOp53
 70
     1
102
RTVSPost2010Prop54
  1
strokes_ogs.tif
102
RTVSPost2010PropOp54
 70
     1
102
RTVSPost2010Prop55
280
     0
102
RTVSPost2010PropOp55
 70
     1
102
RTVSPost2010Prop56
140
1.0
102
RTVSPost2010PropOp56
 70
     1
102
RTVSPost2010Prop57
140
1.0
102
RTVSPost2010PropOp57
 70
     1
102
RTVSPropertyOp0
 70
     1
102
RTVSPropertyOp1
 70
     1
102
RTVSPropertyOp2
 70
     1
102
RTVSPropertyOp3
 70
     1
102
RTVSPropertyOp4
 70
     1
102
RTVSPropertyOp5
 70
     1
102
RTVSPropertyOp6
 70
     1
102
RTVSPropertyOp7
 70
     1
102
RTVSPropertyOp8
 70
     1
102
RTVSPropertyOp9
 70
     1
102
RTVSPropertyOp10
 70
     1
102
RTVSPropertyOp11
 70
     1
102
RTVSPropertyOp12
 70
     1
102
RTVSPropertyOp13
 70
     1
102
RTVSPropertyOp14
 70
     1
102
RTVSPropertyOp15
 70
     1
102
RTVSPropertyOp16
 70
     1
102
RTVSPropertyOp17
 70
     1
102
RTVSPropertyOp18
 70
     1
102
RTVSPropertyOp19
 70
     1
102
RTVSPropertyOp20
 70
     1
102
RTVSPropertyOp21
 70
     1
102
RTVSPropertyOp22
 70
     1
102
RTVSPropertyOp23
 70
     1
102
RTVSPropertyOp24
 70
     1
102
RTVSPropertyOp25
 70
     1
102
RTVSPropertyOp26
 70
     1
102
RTVSPropertyOp27
 70
     1
102
RTVSPropertyOp28
 70
     1
102
RTVSPropertyOp29
 70
     1
102
RTVSPropertyOp30
 70
     1
102
RTVSPropertyOp31
 70
     1
102
RTVSPropertyOp32
 70
     1
102
RTVSPropertyOp33
 70
     1
102
RTVSPropertyOp34
 70
     1
102
RTVSPropertyOp35
 70
     1
102
RTVSPropertyOp36
 70
     1
102
RTVSPropertyOp37
 70
     1
102
RTVSPropertyOp38
 70
     1
102
RTVSPropertyOp39
 70
     1
102
RTVSPropertyOp40
 70
     1
102
RTVSPropertyOp41
 70
     1
102
RTVSPropertyOp42
 70
     1
102
RTVSPropertyOp43
 70
     1
102
RTVSPropertyOp44
 70
     1
102
RTVSPropertyOp45
 70
     1
102
RTVSPropertyOp46
 70
     1
102
RTVSPropertyOp47
 70
     1
102
RTVSPropertyOp48
 70
     1
102
RTVSPropertyOp49
 70
     1
102
RTVSPropertyOp50
 70
     1
102
RTVSPropertyOp51
 70
     0
102
RTVSPropertyOp52
 70
     0
102
RTVSPropertyOp53
 70
     1
102
RTVSPropertyOp54
 70
     1
102
RTVSPropertyOp55
 70
     1
102
RTVSPropertyOp56
 70
     1
102
RTVSPropertyOp57
 70
     1
102
RTVSPropertyOp58
 70
     1
102
RTVSPropertyOp59
 70
     1
102
RTVSPropertyOp60
 70
     1
102
RTVSPropertyOp61
 70
     1
102
RTVSPropertyOp62
 70
     1
  0
XRECORD
  5
366
102
{ACAD_REACTORS
330
365
102
}
330
365
100
AcDbXrecord
280
     1
102
RTVSPost2010Prop28
280
     0
102
RTVSPost2010PropOp28
 70
     1
102
RTVSPost2010Prop29
280
     1
102
RTVSPost2010PropOp29
 70
     1
102
RTVSPost2010Prop30
280
     1
102
RTVSPost2010PropOp30
 70
     1
102
RTVSPost2010Prop31
280
     0
102
RTVSPost2010PropOp31
 70
     1
102
RTVSPost2010Prop32
280
     0
102
RTVSPost2010PropOp32
 70
     1
102
RTVSPost2010Prop33
280
     0
102
RTVSPost2010PropOp33
 70
     1
102
RTVSPost2010Prop34
280
     0
102
RTVSPost2010PropOp34
 70
     1
102
RTVSPost2010Prop35
280
     0
102
RTVSPost2010PropOp35
 70
     1
102
RTVSPost2010Prop36
280
     0
102
RTVSPost2010PropOp36
 70
     1
102
RTVSPost2010Prop37
 90
       50
102
RTVSPost2010PropOp37
 70
     1
102
RTVSPost2010Prop38
140
0.0
102
RTVSPost2010PropOp38
 70
     1
102
RTVSPost2010Prop39
140
1.0
102
RTVSPost2010PropOp39
 70
     1
102
RTVSPost2010Prop40
 90
        0
102
RTVSPost2010PropOp40
 70
     1
102
RTVSPost2010Prop41ColorIndex
 90
       18
102
RTVSPost2010Prop41ColorRGB
 90
        0
102
RTVSPost2010PropOp41
 70
     1
102
RTVSPost2010Prop42
 90
       50
102
RTVSPost2010PropOp42
 70
     1
102
RTVSPost2010Prop43
 90
        3
102
RTVSPost2010PropOp43
 70
     1
102
RTVSPost2010Prop44ColorIndex
 90
        5
102
RTVSPost2010Prop44ColorRGB
 90
      255
102
RTVSPost2010PropOp44
 70
     1
102
RTVSPost2010Prop45
280
     0
102
RTVSPost2010PropOp45
 70
     1
102
RTVSPost2010Prop46
 90
       50
102
RTVSPost2010PropOp46
 70
     1
102
RTVSPost2010Prop47
 90
       50
102
RTVSPost2010PropOp47
 70
     1
102
RTVSPost2010Prop48
 90
       50
102
RTVSPost2010PropOp48
 70
     1
102
RTVSPost2010Prop49
280
     0
102
RTVSPost2010PropOp49
 70
     1
102
RTVSPost2010Prop50
 90
       50
102
RTVSPost2010PropOp50
 70
     1
102
RTVSPost2010Prop51ColorIndex
 90
      256
102
RTVSPost2010Prop51ColorRGB
 90
-16777216
102
RTVSPost2010PropOp51
 70
     0
102
RTVSPost2010Prop52
140
1.0
102
RTVSPost2010PropOp52
 70
     0
102
RTVSPost2010Prop53
 90
        2
102
RTVSPost2010PropOp53
 70
     1
102
RTVSPost2010Prop54
  1
strokes_ogs.tif
102
RTVSPost2010PropOp54
 70
     1
102
RTVSPost2010Prop55
280
     0
102
RTVSPost2010PropOp55
 70
     1
102
RTVSPost2010Prop56
140
1.0
102
RTVSPost2010PropOp56
 70
     1
102
RTVSPost2010Prop57
140
1.0
102
RTVSPost2010PropOp57
 70
     1
102
RTVSPropertyOp0
 70
     1
102
RTVSPropertyOp1
 70
     1
102
RTVSPropertyOp2
 70
     1
102
RTVSPropertyOp3
 70
     1
102
RTVSPropertyOp4
 70
     1
102
RTVSPropertyOp5
 70
     1
102
RTVSPropertyOp6
 70
     1
102
RTVSPropertyOp7
 70
     1
102
RTVSPropertyOp8
 70
     1
102
RTVSPropertyOp9
 70
     1
102
RTVSPropertyOp10
 70
     1
102
RTVSPropertyOp11
 70
     1
102
RTVSPropertyOp12
 70
     1
102
RTVSPropertyOp13
 70
     1
102
RTVSPropertyOp14
 70
     1
102
RTVSPropertyOp15
 70
     1
102
RTVSPropertyOp16
 70
     1
102
RTVSPropertyOp17
 70
     1
102
RTVSPropertyOp18
 70
     1
102
RTVSPropertyOp19
 70
     1
102
RTVSPropertyOp20
 70
     1
102
RTVSPropertyOp21
 70
     1
102
RTVSPropertyOp22
 70
     1
102
RTVSPropertyOp23
 70
     1
102
RTVSPropertyOp24
 70
     1
102
RTVSPropertyOp25
 70
     1
102
RTVSPropertyOp26
 70
     1
102
RTVSPropertyOp27
 70
     1
102
RTVSPropertyOp28
 70
     1
102
RTVSPropertyOp29
 70
     1
102
RTVSPropertyOp30
 70
     1
102
RTVSPropertyOp31
 70
     1
102
RTVSPropertyOp32
 70
     1
102
RTVSPropertyOp33
 70
     1
102
RTVSPropertyOp34
 70
     1
102
RTVSPropertyOp35
 70
     1
102
RTVSPropertyOp36
 70
     1
102
RTVSPropertyOp37
 70
     1
102
RTVSPropertyOp38
 70
     1
102
RTVSPropertyOp39
 70
     1
102
RTVSPropertyOp40
 70
     1
102
RTVSPropertyOp41
 70
     1
102
RTVSPropertyOp42
 70
     1
102
RTVSPropertyOp43
 70
     1
102
RTVSPropertyOp44
 70
     1
102
RTVSPropertyOp45
 70
     1
102
RTVSPropertyOp46
 70
     1
102
RTVSPropertyOp47
 70
     1
102
RTVSPropertyOp48
 70
     1
102
RTVSPropertyOp49
 70
     1
102
RTVSPropertyOp50
 70
     1
102
RTVSPropertyOp51
 70
     0
102
RTVSPropertyOp52
 70
     0
102
RTVSPropertyOp53
 70
     1
102
RTVSPropertyOp54
 70
     1
102
RTVSPropertyOp55
 70
     1
102
RTVSPropertyOp56
 70
     1
102
RTVSPropertyOp57
 70
     1
102
RTVSPropertyOp58
 70
     1
102
RTVSPropertyOp59
 70
     1
102
RTVSPropertyOp60
 70
     1
102
RTVSPropertyOp61
 70
     1
102
RTVSPropertyOp62
 70
     1
  0
XRECORD
  5
368
102
{ACAD_REACTORS
330
367
102
}
330
367
100
AcDbXrecord
280
     1
102
RTVSPost2010Prop28
280
     0
102
RTVSPost2010PropOp28
 70
     1
102
RTVSPost2010Prop29
280
     1
102
RTVSPost2010PropOp29
 70
     1
102
RTVSPost2010Prop30
280
     1
102
RTVSPost2010PropOp30
 70
     1
102
RTVSPost2010Prop31
280
     0
102
RTVSPost2010PropOp31
 70
     1
102
RTVSPost2010Prop32
280
     0
102
RTVSPost2010PropOp32
 70
     1
102
RTVSPost2010Prop33
280
     0
102
RTVSPost2010PropOp33
 70
     1
102
RTVSPost2010Prop34
280
     0
102
RTVSPost2010PropOp34
 70
     1
102
RTVSPost2010Prop35
280
     0
102
RTVSPost2010PropOp35
 70
     1
102
RTVSPost2010Prop36
280
     0
102
RTVSPost2010PropOp36
 70
     1
102
RTVSPost2010Prop37
 90
       50
102
RTVSPost2010PropOp37
 70
     1
102
RTVSPost2010Prop38
140
0.0
102
RTVSPost2010PropOp38
 70
     1
102
RTVSPost2010Prop39
140
1.0
102
RTVSPost2010PropOp39
 70
     1
102
RTVSPost2010Prop40
 90
        0
102
RTVSPost2010PropOp40
 70
     1
102
RTVSPost2010Prop41ColorIndex
 90
       18
102
RTVSPost2010Prop41ColorRGB
 90
        0
102
RTVSPost2010PropOp41
 70
     1
102
RTVSPost2010Prop42
 90
       50
102
RTVSPost2010PropOp42
 70
     1
102
RTVSPost2010Prop43
 90
        3
102
RTVSPost2010PropOp43
 70
     1
102
RTVSPost2010Prop44ColorIndex
 90
        5
102
RTVSPost2010Prop44ColorRGB
 90
      255
102
RTVSPost2010PropOp44
 70
     1
102
RTVSPost2010Prop45
280
     0
102
RTVSPost2010PropOp45
 70
     1
102
RTVSPost2010Prop46
 90
       50
102
RTVSPost2010PropOp46
 70
     1
102
RTVSPost2010Prop47
 90
       50
102
RTVSPost2010PropOp47
 70
     1
102
RTVSPost2010Prop48
 90
       50
102
RTVSPost2010PropOp48
 70
     1
102
RTVSPost2010Prop49
280
     0
102
RTVSPost2010PropOp49
 70
     1
102
RTVSPost2010Prop50
 90
       50
102
RTVSPost2010PropOp50
 70
     1
102
RTVSPost2010Prop51ColorIndex
 90
      256
102
RTVSPost2010Prop51ColorRGB
 90
-16777216
102
RTVSPost2010PropOp51
 70
     0
102
RTVSPost2010Prop52
140
1.0
102
RTVSPost2010PropOp52
 70
     0
102
RTVSPost2010Prop53
 90
        2
102
RTVSPost2010PropOp53
 70
     1
102
RTVSPost2010Prop54
  1
strokes_ogs.tif
102
RTVSPost2010PropOp54
 70
     1
102
RTVSPost2010Prop55
280
     0
102
RTVSPost2010PropOp55
 70
     1
102
RTVSPost2010Prop56
140
1.0
102
RTVSPost2010PropOp56
 70
     1
102
RTVSPost2010Prop57
140
1.0
102
RTVSPost2010PropOp57
 70
     1
102
RTVSPropertyOp0
 70
     1
102
RTVSPropertyOp1
 70
     1
102
RTVSPropertyOp2
 70
     1
102
RTVSPropertyOp3
 70
     1
102
RTVSPropertyOp4
 70
     1
102
RTVSPropertyOp5
 70
     1
102
RTVSPropertyOp6
 70
     1
102
RTVSPropertyOp7
 70
     1
102
RTVSPropertyOp8
 70
     1
102
RTVSPropertyOp9
 70
     1
102
RTVSPropertyOp10
 70
     1
102
RTVSPropertyOp11
 70
     1
102
RTVSPropertyOp12
 70
     1
102
RTVSPropertyOp13
 70
     1
102
RTVSPropertyOp14
 70
     1
102
RTVSPropertyOp15
 70
     1
102
RTVSPropertyOp16
 70
     1
102
RTVSPropertyOp17
 70
     1
102
RTVSPropertyOp18
 70
     1
102
RTVSPropertyOp19
 70
     1
102
RTVSPropertyOp20
 70
     1
102
RTVSPropertyOp21
 70
     1
102
RTVSPropertyOp22
 70
     1
102
RTVSPropertyOp23
 70
     1
102
RTVSPropertyOp24
 70
     1
102
RTVSPropertyOp25
 70
     1
102
RTVSPropertyOp26
 70
     1
102
RTVSPropertyOp27
 70
     1
102
RTVSPropertyOp28
 70
     1
102
RTVSPropertyOp29
 70
     1
102
RTVSPropertyOp30
 70
     1
102
RTVSPropertyOp31
 70
     1
102
RTVSPropertyOp32
 70
     1
102
RTVSPropertyOp33
 70
     1
102
RTVSPropertyOp34
 70
     1
102
RTVSPropertyOp35
 70
     1
102
RTVSPropertyOp36
 70
     1
102
RTVSPropertyOp37
 70
     1
102
RTVSPropertyOp38
 70
     1
102
RTVSPropertyOp39
 70
     1
102
RTVSPropertyOp40
 70
     1
102
RTVSPropertyOp41
 70
     1
102
RTVSPropertyOp42
 70
     1
102
RTVSPropertyOp43
 70
     1
102
RTVSPropertyOp44
 70
     1
102
RTVSPropertyOp45
 70
     1
102
RTVSPropertyOp46
 70
     1
102
RTVSPropertyOp47
 70
     1
102
RTVSPropertyOp48
 70
     1
102
RTVSPropertyOp49
 70
     1
102
RTVSPropertyOp50
 70
     1
102
RTVSPropertyOp51
 70
     0
102
RTVSPropertyOp52
 70
     0
102
RTVSPropertyOp53
 70
     1
102
RTVSPropertyOp54
 70
     1
102
RTVSPropertyOp55
 70
     1
102
RTVSPropertyOp56
 70
     1
102
RTVSPropertyOp57
 70
     1
102
RTVSPropertyOp58
 70
     1
102
RTVSPropertyOp59
 70
     1
102
RTVSPropertyOp60
 70
     1
102
RTVSPropertyOp61
 70
     1
102
RTVSPropertyOp62
 70
     1
  0
XRECORD
  5
36E
102
{ACAD_REACTORS
330
36D
102
}
330
36D
100
AcDbXrecord
280
     1
102
RTVSPost2010Prop28
280
     0
102
RTVSPost2010PropOp28
 70
     1
102
RTVSPost2010Prop29
280
     1
102
RTVSPost2010PropOp29
 70
     1
102
RTVSPost2010Prop30
280
     1
102
RTVSPost2010PropOp30
 70
     1
102
RTVSPost2010Prop31
280
     0
102
RTVSPost2010PropOp31
 70
     1
102
RTVSPost2010Prop32
280
     0
102
RTVSPost2010PropOp32
 70
     1
102
RTVSPost2010Prop33
280
     0
102
RTVSPost2010PropOp33
 70
     1
102
RTVSPost2010Prop34
280
     0
102
RTVSPost2010PropOp34
 70
     1
102
RTVSPost2010Prop35
280
     0
102
RTVSPost2010PropOp35
 70
     1
102
RTVSPost2010Prop36
280
     0
102
RTVSPost2010PropOp36
 70
     1
102
RTVSPost2010Prop37
 90
       50
102
RTVSPost2010PropOp37
 70
     1
102
RTVSPost2010Prop38
140
0.0
102
RTVSPost2010PropOp38
 70
     1
102
RTVSPost2010Prop39
140
1.0
102
RTVSPost2010PropOp39
 70
     1
102
RTVSPost2010Prop40
 90
        0
102
RTVSPost2010PropOp40
 70
     1
102
RTVSPost2010Prop41ColorIndex
 90
       18
102
RTVSPost2010Prop41ColorRGB
 90
        0
102
RTVSPost2010PropOp41
 70
     1
102
RTVSPost2010Prop42
 90
       50
102
RTVSPost2010PropOp42
 70
     1
102
RTVSPost2010Prop43
 90
        3
102
RTVSPost2010PropOp43
 70
     1
102
RTVSPost2010Prop44ColorIndex
 90
        5
102
RTVSPost2010Prop44ColorRGB
 90
      255
102
RTVSPost2010PropOp44
 70
     1
102
RTVSPost2010Prop45
280
     0
102
RTVSPost2010PropOp45
 70
     1
102
RTVSPost2010Prop46
 90
       50
102
RTVSPost2010PropOp46
 70
     1
102
RTVSPost2010Prop47
 90
       50
102
RTVSPost2010PropOp47
 70
     1
102
RTVSPost2010Prop48
 90
       50
102
RTVSPost2010PropOp48
 70
     1
102
RTVSPost2010Prop49
280
     0
102
RTVSPost2010PropOp49
 70
     1
102
RTVSPost2010Prop50
 90
       50
102
RTVSPost2010PropOp50
 70
     1
102
RTVSPost2010Prop51ColorIndex
 90
      256
102
RTVSPost2010Prop51ColorRGB
 90
-16777216
102
RTVSPost2010PropOp51
 70
     0
102
RTVSPost2010Prop52
140
1.0
102
RTVSPost2010PropOp52
 70
     0
102
RTVSPost2010Prop53
 90
        2
102
RTVSPost2010PropOp53
 70
     1
102
RTVSPost2010Prop54
  1
strokes_ogs.tif
102
RTVSPost2010PropOp54
 70
     1
102
RTVSPost2010Prop55
280
     0
102
RTVSPost2010PropOp55
 70
     1
102
RTVSPost2010Prop56
140
1.0
102
RTVSPost2010PropOp56
 70
     1
102
RTVSPost2010Prop57
140
1.0
102
RTVSPost2010PropOp57
 70
     1
102
RTVSPropertyOp0
 70
     1
102
RTVSPropertyOp1
 70
     1
102
RTVSPropertyOp2
 70
     1
102
RTVSPropertyOp3
 70
     1
102
RTVSPropertyOp4
 70
     1
102
RTVSPropertyOp5
 70
     1
102
RTVSPropertyOp6
 70
     1
102
RTVSPropertyOp7
 70
     1
102
RTVSPropertyOp8
 70
     1
102
RTVSPropertyOp9
 70
     1
102
RTVSPropertyOp10
 70
     1
102
RTVSPropertyOp11
 70
     1
102
RTVSPropertyOp12
 70
     1
102
RTVSPropertyOp13
 70
     1
102
RTVSPropertyOp14
 70
     1
102
RTVSPropertyOp15
 70
     1
102
RTVSPropertyOp16
 70
     1
102
RTVSPropertyOp17
 70
     1
102
RTVSPropertyOp18
 70
     1
102
RTVSPropertyOp19
 70
     1
102
RTVSPropertyOp20
 70
     1
102
RTVSPropertyOp21
 70
     1
102
RTVSPropertyOp22
 70
     1
102
RTVSPropertyOp23
 70
     1
102
RTVSPropertyOp24
 70
     1
102
RTVSPropertyOp25
 70
     1
102
RTVSPropertyOp26
 70
     1
102
RTVSPropertyOp27
 70
     1
102
RTVSPropertyOp28
 70
     1
102
RTVSPropertyOp29
 70
     1
102
RTVSPropertyOp30
 70
     1
102
RTVSPropertyOp31
 70
     1
102
RTVSPropertyOp32
 70
     1
102
RTVSPropertyOp33
 70
     1
102
RTVSPropertyOp34
 70
     1
102
RTVSPropertyOp35
 70
     1
102
RTVSPropertyOp36
 70
     1
102
RTVSPropertyOp37
 70
     1
102
RTVSPropertyOp38
 70
     1
102
RTVSPropertyOp39
 70
     1
102
RTVSPropertyOp40
 70
     1
102
RTVSPropertyOp41
 70
     1
102
RTVSPropertyOp42
 70
     1
102
RTVSPropertyOp43
 70
     1
102
RTVSPropertyOp44
 70
     1
102
RTVSPropertyOp45
 70
     1
102
RTVSPropertyOp46
 70
     1
102
RTVSPropertyOp47
 70
     1
102
RTVSPropertyOp48
 70
     1
102
RTVSPropertyOp49
 70
     1
102
RTVSPropertyOp50
 70
     1
102
RTVSPropertyOp51
 70
     0
102
RTVSPropertyOp52
 70
     0
102
RTVSPropertyOp53
 70
     1
102
RTVSPropertyOp54
 70
     1
102
RTVSPropertyOp55
 70
     1
102
RTVSPropertyOp56
 70
     1
102
RTVSPropertyOp57
 70
     1
102
RTVSPropertyOp58
 70
     1
102
RTVSPropertyOp59
 70
     1
102
RTVSPropertyOp60
 70
     1
102
RTVSPropertyOp61
 70
     1
102
RTVSPropertyOp62
 70
     1
  0
XRECORD
  5
382
102
{ACAD_REACTORS
330
381
102
}
330
381
100
AcDbXrecord
280
     1
102
RTVSPost2010Prop28
280
     0
102
RTVSPost2010PropOp28
 70
     0
102
RTVSPost2010Prop29
280
     1
102
RTVSPost2010PropOp29
 70
     0
102
RTVSPost2010Prop30
280
     1
102
RTVSPost2010PropOp30
 70
     0
102
RTVSPost2010Prop31
280
     0
102
RTVSPost2010PropOp31
 70
     0
102
RTVSPost2010Prop32
280
     0
102
RTVSPost2010PropOp32
 70
     0
102
RTVSPost2010Prop33
280
     0
102
RTVSPost2010PropOp33
 70
     0
102
RTVSPost2010Prop34
280
     0
102
RTVSPost2010PropOp34
 70
     0
102
RTVSPost2010Prop35
280
     0
102
RTVSPost2010PropOp35
 70
     0
102
RTVSPost2010Prop36
280
     0
102
RTVSPost2010PropOp36
 70
     0
102
RTVSPost2010Prop37
 90
       50
102
RTVSPost2010PropOp37
 70
     0
102
RTVSPost2010Prop38
140
0.0
102
RTVSPost2010PropOp38
 70
     0
102
RTVSPost2010Prop39
140
1.0
102
RTVSPost2010PropOp39
 70
     0
102
RTVSPost2010Prop40
 90
        0
102
RTVSPost2010PropOp40
 70
     0
102
RTVSPost2010Prop41ColorIndex
 90
       18
102
RTVSPost2010Prop41ColorRGB
 90
        0
102
RTVSPost2010PropOp41
 70
     0
102
RTVSPost2010Prop42
 90
       50
102
RTVSPost2010PropOp42
 70
     0
102
RTVSPost2010Prop43
 90
        3
102
RTVSPost2010PropOp43
 70
     0
102
RTVSPost2010Prop44ColorIndex
 90
        5
102
RTVSPost2010Prop44ColorRGB
 90
      255
102
RTVSPost2010PropOp44
 70
     0
102
RTVSPost2010Prop45
280
     0
102
RTVSPost2010PropOp45
 70
     0
102
RTVSPost2010Prop46
 90
       50
102
RTVSPost2010PropOp46
 70
     0
102
RTVSPost2010Prop47
 90
       50
102
RTVSPost2010PropOp47
 70
     0
102
RTVSPost2010Prop48
 90
       50
102
RTVSPost2010PropOp48
 70
     0
102
RTVSPost2010Prop49
280
     0
102
RTVSPost2010PropOp49
 70
     0
102
RTVSPost2010Prop50
 90
       50
102
RTVSPost2010PropOp50
 70
     0
102
RTVSPost2010Prop51ColorIndex
 90
      256
102
RTVSPost2010Prop51ColorRGB
 90
-16777216
102
RTVSPost2010PropOp51
 70
     0
102
RTVSPost2010Prop52
140
1.0
102
RTVSPost2010PropOp52
 70
     0
102
RTVSPost2010Prop53
 90
        2
102
RTVSPost2010PropOp53
 70
     0
102
RTVSPost2010Prop54
  1
strokes_ogs.tif
102
RTVSPost2010PropOp54
 70
     0
102
RTVSPost2010Prop55
280
     0
102
RTVSPost2010PropOp55
 70
     0
102
RTVSPost2010Prop56
140
1.0
102
RTVSPost2010PropOp56
 70
     0
102
RTVSPost2010Prop57
140
1.0
102
RTVSPost2010PropOp57
 70
     0
102
RTVSPropertyOp0
 70
     0
102
RTVSPropertyOp1
 70
     0
102
RTVSPropertyOp2
 70
     0
102
RTVSPropertyOp3
 70
     0
102
RTVSPropertyOp4
 70
     0
102
RTVSPropertyOp5
 70
     0
102
RTVSPropertyOp6
 70
     0
102
RTVSPropertyOp7
 70
     0
102
RTVSPropertyOp8
 70
     0
102
RTVSPropertyOp9
 70
     0
102
RTVSPropertyOp10
 70
     0
102
RTVSPropertyOp11
 70
     0
102
RTVSPropertyOp12
 70
     0
102
RTVSPropertyOp13
 70
     0
102
RTVSPropertyOp14
 70
     2
102
RTVSPropertyOp15
 70
     0
102
RTVSPropertyOp16
 70
     0
102
RTVSPropertyOp17
 70
     0
102
RTVSPropertyOp18
 70
     0
102
RTVSPropertyOp19
 70
     0
102
RTVSPropertyOp20
 70
     0
102
RTVSPropertyOp21
 70
     0
102
RTVSPropertyOp22
 70
     0
102
RTVSPropertyOp23
 70
     0
102
RTVSPropertyOp24
 70
     0
102
RTVSPropertyOp25
 70
     0
102
RTVSPropertyOp26
 70
     0
102
RTVSPropertyOp27
 70
     0
102
RTVSPropertyOp28
 70
     0
102
RTVSPropertyOp29
 70
     0
102
RTVSPropertyOp30
 70
     0
102
RTVSPropertyOp31
 70
     0
102
RTVSPropertyOp32
 70
     0
102
RTVSPropertyOp33
 70
     0
102
RTVSPropertyOp34
 70
     0
102
RTVSPropertyOp35
 70
     0
102
RTVSPropertyOp36
 70
     0
102
RTVSPropertyOp37
 70
     0
102
RTVSPropertyOp38
 70
     0
102
RTVSPropertyOp39
 70
     0
102
RTVSPropertyOp40
 70
     0
102
RTVSPropertyOp41
 70
     0
102
RTVSPropertyOp42
 70
     0
102
RTVSPropertyOp43
 70
     0
102
RTVSPropertyOp44
 70
     0
102
RTVSPropertyOp45
 70
     0
102
RTVSPropertyOp46
 70
     0
102
RTVSPropertyOp47
 70
     0
102
RTVSPropertyOp48
 70
     0
102
RTVSPropertyOp49
 70
     0
102
RTVSPropertyOp50
 70
     0
102
RTVSPropertyOp51
 70
     0
102
RTVSPropertyOp52
 70
     0
102
RTVSPropertyOp53
 70
     0
102
RTVSPropertyOp54
 70
     0
102
RTVSPropertyOp55
 70
     0
102
RTVSPropertyOp56
 70
     0
102
RTVSPropertyOp57
 70
     0
102
RTVSPropertyOp58
 70
     1
102
RTVSPropertyOp59
 70
     1
102
RTVSPropertyOp60
 70
     1
102
RTVSPropertyOp61
 70
     1
102
RTVSPropertyOp62
 70
     1
  0
XRECORD
  5
37C
102
{ACAD_REACTORS
330
37B
102
}
330
37B
100
AcDbXrecord
280
     1
102
RTVSPost2010Prop28
280
     0
102
RTVSPost2010PropOp28
 70
     1
102
RTVSPost2010Prop29
280
     1
102
RTVSPost2010PropOp29
 70
     1
102
RTVSPost2010Prop30
280
     1
102
RTVSPost2010PropOp30
 70
     1
102
RTVSPost2010Prop31
280
     0
102
RTVSPost2010PropOp31
 70
     1
102
RTVSPost2010Prop32
280
     0
102
RTVSPost2010PropOp32
 70
     1
102
RTVSPost2010Prop33
280
     0
102
RTVSPost2010PropOp33
 70
     1
102
RTVSPost2010Prop34
280
     0
102
RTVSPost2010PropOp34
 70
     1
102
RTVSPost2010Prop35
280
     0
102
RTVSPost2010PropOp35
 70
     1
102
RTVSPost2010Prop36
280
     0
102
RTVSPost2010PropOp36
 70
     1
102
RTVSPost2010Prop37
 90
       50
102
RTVSPost2010PropOp37
 70
     1
102
RTVSPost2010Prop38
140
0.0
102
RTVSPost2010PropOp38
 70
     1
102
RTVSPost2010Prop39
140
1.0
102
RTVSPost2010PropOp39
 70
     1
102
RTVSPost2010Prop40
 90
        0
102
RTVSPost2010PropOp40
 70
     1
102
RTVSPost2010Prop41ColorIndex
 90
       18
102
RTVSPost2010Prop41ColorRGB
 90
        0
102
RTVSPost2010PropOp41
 70
     1
102
RTVSPost2010Prop42
 90
       50
102
RTVSPost2010PropOp42
 70
     1
102
RTVSPost2010Prop43
 90
        3
102
RTVSPost2010PropOp43
 70
     1
102
RTVSPost2010Prop44ColorIndex
 90
        5
102
RTVSPost2010Prop44ColorRGB
 90
      255
102
RTVSPost2010PropOp44
 70
     1
102
RTVSPost2010Prop45
280
     0
102
RTVSPost2010PropOp45
 70
     1
102
RTVSPost2010Prop46
 90
       50
102
RTVSPost2010PropOp46
 70
     1
102
RTVSPost2010Prop47
 90
       50
102
RTVSPost2010PropOp47
 70
     1
102
RTVSPost2010Prop48
 90
       50
102
RTVSPost2010PropOp48
 70
     1
102
RTVSPost2010Prop49
280
     0
102
RTVSPost2010PropOp49
 70
     1
102
RTVSPost2010Prop50
 90
       50
102
RTVSPost2010PropOp50
 70
     1
102
RTVSPost2010Prop51ColorIndex
 90
      256
102
RTVSPost2010Prop51ColorRGB
 90
-16777216
102
RTVSPost2010PropOp51
 70
     0
102
RTVSPost2010Prop52
140
1.0
102
RTVSPost2010PropOp52
 70
     0
102
RTVSPost2010Prop53
 90
        2
102
RTVSPost2010PropOp53
 70
     1
102
RTVSPost2010Prop54
  1
strokes_ogs.tif
102
RTVSPost2010PropOp54
 70
     1
102
RTVSPost2010Prop55
280
     0
102
RTVSPost2010PropOp55
 70
     1
102
RTVSPost2010Prop56
140
1.0
102
RTVSPost2010PropOp56
 70
     1
102
RTVSPost2010Prop57
140
1.0
102
RTVSPost2010PropOp57
 70
     1
102
RTVSPropertyOp0
 70
     1
102
RTVSPropertyOp1
 70
     1
102
RTVSPropertyOp2
 70
     1
102
RTVSPropertyOp3
 70
     1
102
RTVSPropertyOp4
 70
     1
102
RTVSPropertyOp5
 70
     1
102
RTVSPropertyOp6
 70
     1
102
RTVSPropertyOp7
 70
     1
102
RTVSPropertyOp8
 70
     1
102
RTVSPropertyOp9
 70
     1
102
RTVSPropertyOp10
 70
     1
102
RTVSPropertyOp11
 70
     1
102
RTVSPropertyOp12
 70
     1
102
RTVSPropertyOp13
 70
     1
102
RTVSPropertyOp14
 70
     1
102
RTVSPropertyOp15
 70
     1
102
RTVSPropertyOp16
 70
     1
102
RTVSPropertyOp17
 70
     1
102
RTVSPropertyOp18
 70
     1
102
RTVSPropertyOp19
 70
     1
102
RTVSPropertyOp20
 70
     1
102
RTVSPropertyOp21
 70
     1
102
RTVSPropertyOp22
 70
     1
102
RTVSPropertyOp23
 70
     1
102
RTVSPropertyOp24
 70
     1
102
RTVSPropertyOp25
 70
     1
102
RTVSPropertyOp26
 70
     1
102
RTVSPropertyOp27
 70
     1
102
RTVSPropertyOp28
 70
     1
102
RTVSPropertyOp29
 70
     1
102
RTVSPropertyOp30
 70
     1
102
RTVSPropertyOp31
 70
     1
102
RTVSPropertyOp32
 70
     1
102
RTVSPropertyOp33
 70
     1
102
RTVSPropertyOp34
 70
     1
102
RTVSPropertyOp35
 70
     1
102
RTVSPropertyOp36
 70
     1
102
RTVSPropertyOp37
 70
     1
102
RTVSPropertyOp38
 70
     1
102
RTVSPropertyOp39
 70
     1
102
RTVSPropertyOp40
 70
     1
102
RTVSPropertyOp41
 70
     1
102
RTVSPropertyOp42
 70
     1
102
RTVSPropertyOp43
 70
     1
102
RTVSPropertyOp44
 70
     1
102
RTVSPropertyOp45
 70
     1
102
RTVSPropertyOp46
 70
     1
102
RTVSPropertyOp47
 70
     1
102
RTVSPropertyOp48
 70
     1
102
RTVSPropertyOp49
 70
     1
102
RTVSPropertyOp50
 70
     1
102
RTVSPropertyOp51
 70
     0
102
RTVSPropertyOp52
 70
     0
102
RTVSPropertyOp53
 70
     1
102
RTVSPropertyOp54
 70
     1
102
RTVSPropertyOp55
 70
     1
102
RTVSPropertyOp56
 70
     1
102
RTVSPropertyOp57
 70
     1
102
RTVSPropertyOp58
 70
     1
102
RTVSPropertyOp59
 70
     1
102
RTVSPropertyOp60
 70
     1
102
RTVSPropertyOp61
 70
     1
102
RTVSPropertyOp62
 70
     1
  0
XRECORD
  5
384
102
{ACAD_REACTORS
330
383
102
}
330
383
100
AcDbXrecord
280
     1
102
RTVSPost2010Prop28
280
     0
102
RTVSPost2010PropOp28
 70
     0
102
RTVSPost2010Prop29
280
     1
102
RTVSPost2010PropOp29
 70
     0
102
RTVSPost2010Prop30
280
     1
102
RTVSPost2010PropOp30
 70
     0
102
RTVSPost2010Prop31
280
     0
102
RTVSPost2010PropOp31
 70
     0
102
RTVSPost2010Prop32
280
     0
102
RTVSPost2010PropOp32
 70
     0
102
RTVSPost2010Prop33
280
     0
102
RTVSPost2010PropOp33
 70
     0
102
RTVSPost2010Prop34
280
     0
102
RTVSPost2010PropOp34
 70
     0
102
RTVSPost2010Prop35
280
     0
102
RTVSPost2010PropOp35
 70
     0
102
RTVSPost2010Prop36
280
     0
102
RTVSPost2010PropOp36
 70
     0
102
RTVSPost2010Prop37
 90
       50
102
RTVSPost2010PropOp37
 70
     0
102
RTVSPost2010Prop38
140
0.0
102
RTVSPost2010PropOp38
 70
     0
102
RTVSPost2010Prop39
140
1.0
102
RTVSPost2010PropOp39
 70
     0
102
RTVSPost2010Prop40
 90
        0
102
RTVSPost2010PropOp40
 70
     0
102
RTVSPost2010Prop41ColorIndex
 90
       18
102
RTVSPost2010Prop41ColorRGB
 90
        0
102
RTVSPost2010PropOp41
 70
     0
102
RTVSPost2010Prop42
 90
       50
102
RTVSPost2010PropOp42
 70
     0
102
RTVSPost2010Prop43
 90
        3
102
RTVSPost2010PropOp43
 70
     0
102
RTVSPost2010Prop44ColorIndex
 90
        5
102
RTVSPost2010Prop44ColorRGB
 90
      255
102
RTVSPost2010PropOp44
 70
     0
102
RTVSPost2010Prop45
280
     0
102
RTVSPost2010PropOp45
 70
     0
102
RTVSPost2010Prop46
 90
       50
102
RTVSPost2010PropOp46
 70
     0
102
RTVSPost2010Prop47
 90
       50
102
RTVSPost2010PropOp47
 70
     0
102
RTVSPost2010Prop48
 90
       50
102
RTVSPost2010PropOp48
 70
     0
102
RTVSPost2010Prop49
280
     0
102
RTVSPost2010PropOp49
 70
     0
102
RTVSPost2010Prop50
 90
       50
102
RTVSPost2010PropOp50
 70
     0
102
RTVSPost2010Prop51ColorIndex
 90
      256
102
RTVSPost2010Prop51ColorRGB
 90
-16777216
102
RTVSPost2010PropOp51
 70
     0
102
RTVSPost2010Prop52
140
1.0
102
RTVSPost2010PropOp52
 70
     0
102
RTVSPost2010Prop53
 90
        2
102
RTVSPost2010PropOp53
 70
     0
102
RTVSPost2010Prop54
  1
strokes_ogs.tif
102
RTVSPost2010PropOp54
 70
     0
102
RTVSPost2010Prop55
280
     0
102
RTVSPost2010PropOp55
 70
     0
102
RTVSPost2010Prop56
140
1.0
102
RTVSPost2010PropOp56
 70
     0
102
RTVSPost2010Prop57
140
1.0
102
RTVSPost2010PropOp57
 70
     0
102
RTVSPropertyOp0
 70
     0
102
RTVSPropertyOp1
 70
     0
102
RTVSPropertyOp2
 70
     0
102
RTVSPropertyOp3
 70
     0
102
RTVSPropertyOp4
 70
     0
102
RTVSPropertyOp5
 70
     0
102
RTVSPropertyOp6
 70
     0
102
RTVSPropertyOp7
 70
     0
102
RTVSPropertyOp8
 70
     0
102
RTVSPropertyOp9
 70
     0
102
RTVSPropertyOp10
 70
     0
102
RTVSPropertyOp11
 70
     0
102
RTVSPropertyOp12
 70
     0
102
RTVSPropertyOp13
 70
     0
102
RTVSPropertyOp14
 70
     2
102
RTVSPropertyOp15
 70
     0
102
RTVSPropertyOp16
 70
     0
102
RTVSPropertyOp17
 70
     0
102
RTVSPropertyOp18
 70
     0
102
RTVSPropertyOp19
 70
     0
102
RTVSPropertyOp20
 70
     0
102
RTVSPropertyOp21
 70
     0
102
RTVSPropertyOp22
 70
     0
102
RTVSPropertyOp23
 70
     0
102
RTVSPropertyOp24
 70
     0
102
RTVSPropertyOp25
 70
     0
102
RTVSPropertyOp26
 70
     0
102
RTVSPropertyOp27
 70
     0
102
RTVSPropertyOp28
 70
     0
102
RTVSPropertyOp29
 70
     0
102
RTVSPropertyOp30
 70
     0
102
RTVSPropertyOp31
 70
     0
102
RTVSPropertyOp32
 70
     0
102
RTVSPropertyOp33
 70
     0
102
RTVSPropertyOp34
 70
     0
102
RTVSPropertyOp35
 70
     0
102
RTVSPropertyOp36
 70
     0
102
RTVSPropertyOp37
 70
     0
102
RTVSPropertyOp38
 70
     0
102
RTVSPropertyOp39
 70
     0
102
RTVSPropertyOp40
 70
     0
102
RTVSPropertyOp41
 70
     0
102
RTVSPropertyOp42
 70
     0
102
RTVSPropertyOp43
 70
     0
102
RTVSPropertyOp44
 70
     0
102
RTVSPropertyOp45
 70
     0
102
RTVSPropertyOp46
 70
     0
102
RTVSPropertyOp47
 70
     0
102
RTVSPropertyOp48
 70
     0
102
RTVSPropertyOp49
 70
     0
102
RTVSPropertyOp50
 70
     0
102
RTVSPropertyOp51
 70
     0
102
RTVSPropertyOp52
 70
     0
102
RTVSPropertyOp53
 70
     0
102
RTVSPropertyOp54
 70
     0
102
RTVSPropertyOp55
 70
     0
102
RTVSPropertyOp56
 70
     0
102
RTVSPropertyOp57
 70
     0
102
RTVSPropertyOp58
 70
     1
102
RTVSPropertyOp59
 70
     1
102
RTVSPropertyOp60
 70
     1
102
RTVSPropertyOp61
 70
     1
102
RTVSPropertyOp62
 70
     1
  0
XRECORD
  5
372
102
{ACAD_REACTORS
330
371
102
}
330
371
100
AcDbXrecord
280
     1
102
RTVSPost2010Prop28
280
     0
102
RTVSPost2010PropOp28
 70
     1
102
RTVSPost2010Prop29
280
     1
102
RTVSPost2010PropOp29
 70
     1
102
RTVSPost2010Prop30
280
     1
102
RTVSPost2010PropOp30
 70
     1
102
RTVSPost2010Prop31
280
     0
102
RTVSPost2010PropOp31
 70
     1
102
RTVSPost2010Prop32
280
     0
102
RTVSPost2010PropOp32
 70
     1
102
RTVSPost2010Prop33
280
     0
102
RTVSPost2010PropOp33
 70
     1
102
RTVSPost2010Prop34
280
     0
102
RTVSPost2010PropOp34
 70
     1
102
RTVSPost2010Prop35
280
     0
102
RTVSPost2010PropOp35
 70
     1
102
RTVSPost2010Prop36
280
     0
102
RTVSPost2010PropOp36
 70
     1
102
RTVSPost2010Prop37
 90
       50
102
RTVSPost2010PropOp37
 70
     1
102
RTVSPost2010Prop38
140
0.0
102
RTVSPost2010PropOp38
 70
     1
102
RTVSPost2010Prop39
140
1.0
102
RTVSPost2010PropOp39
 70
     1
102
RTVSPost2010Prop40
 90
        0
102
RTVSPost2010PropOp40
 70
     1
102
RTVSPost2010Prop41ColorIndex
 90
       18
102
RTVSPost2010Prop41ColorRGB
 90
        0
102
RTVSPost2010PropOp41
 70
     1
102
RTVSPost2010Prop42
 90
       50
102
RTVSPost2010PropOp42
 70
     1
102
RTVSPost2010Prop43
 90
        3
102
RTVSPost2010PropOp43
 70
     1
102
RTVSPost2010Prop44ColorIndex
 90
        5
102
RTVSPost2010Prop44ColorRGB
 90
      255
102
RTVSPost2010PropOp44
 70
     1
102
RTVSPost2010Prop45
280
     0
102
RTVSPost2010PropOp45
 70
     1
102
RTVSPost2010Prop46
 90
       50
102
RTVSPost2010PropOp46
 70
     1
102
RTVSPost2010Prop47
 90
       50
102
RTVSPost2010PropOp47
 70
     1
102
RTVSPost2010Prop48
 90
       50
102
RTVSPost2010PropOp48
 70
     1
102
RTVSPost2010Prop49
280
     0
102
RTVSPost2010PropOp49
 70
     1
102
RTVSPost2010Prop50
 90
       50
102
RTVSPost2010PropOp50
 70
     1
102
RTVSPost2010Prop51ColorIndex
 90
      256
102
RTVSPost2010Prop51ColorRGB
 90
-16777216
102
RTVSPost2010PropOp51
 70
     0
102
RTVSPost2010Prop52
140
1.0
102
RTVSPost2010PropOp52
 70
     0
102
RTVSPost2010Prop53
 90
        2
102
RTVSPost2010PropOp53
 70
     1
102
RTVSPost2010Prop54
  1
strokes_ogs.tif
102
RTVSPost2010PropOp54
 70
     1
102
RTVSPost2010Prop55
280
     0
102
RTVSPost2010PropOp55
 70
     1
102
RTVSPost2010Prop56
140
1.0
102
RTVSPost2010PropOp56
 70
     1
102
RTVSPost2010Prop57
140
1.0
102
RTVSPost2010PropOp57
 70
     1
102
RTVSPropertyOp0
 70
     1
102
RTVSPropertyOp1
 70
     1
102
RTVSPropertyOp2
 70
     1
102
RTVSPropertyOp3
 70
     1
102
RTVSPropertyOp4
 70
     1
102
RTVSPropertyOp5
 70
     1
102
RTVSPropertyOp6
 70
     1
102
RTVSPropertyOp7
 70
     1
102
RTVSPropertyOp8
 70
     1
102
RTVSPropertyOp9
 70
     1
102
RTVSPropertyOp10
 70
     1
102
RTVSPropertyOp11
 70
     1
102
RTVSPropertyOp12
 70
     1
102
RTVSPropertyOp13
 70
     1
102
RTVSPropertyOp14
 70
     1
102
RTVSPropertyOp15
 70
     1
102
RTVSPropertyOp16
 70
     1
102
RTVSPropertyOp17
 70
     1
102
RTVSPropertyOp18
 70
     1
102
RTVSPropertyOp19
 70
     1
102
RTVSPropertyOp20
 70
     1
102
RTVSPropertyOp21
 70
     1
102
RTVSPropertyOp22
 70
     1
102
RTVSPropertyOp23
 70
     1
102
RTVSPropertyOp24
 70
     1
102
RTVSPropertyOp25
 70
     1
102
RTVSPropertyOp26
 70
     1
102
RTVSPropertyOp27
 70
     1
102
RTVSPropertyOp28
 70
     1
102
RTVSPropertyOp29
 70
     1
102
RTVSPropertyOp30
 70
     1
102
RTVSPropertyOp31
 70
     1
102
RTVSPropertyOp32
 70
     1
102
RTVSPropertyOp33
 70
     1
102
RTVSPropertyOp34
 70
     1
102
RTVSPropertyOp35
 70
     1
102
RTVSPropertyOp36
 70
     1
102
RTVSPropertyOp37
 70
     1
102
RTVSPropertyOp38
 70
     1
102
RTVSPropertyOp39
 70
     1
102
RTVSPropertyOp40
 70
     1
102
RTVSPropertyOp41
 70
     1
102
RTVSPropertyOp42
 70
     1
102
RTVSPropertyOp43
 70
     1
102
RTVSPropertyOp44
 70
     1
102
RTVSPropertyOp45
 70
     1
102
RTVSPropertyOp46
 70
     1
102
RTVSPropertyOp47
 70
     1
102
RTVSPropertyOp48
 70
     1
102
RTVSPropertyOp49
 70
     1
102
RTVSPropertyOp50
 70
     1
102
RTVSPropertyOp51
 70
     0
102
RTVSPropertyOp52
 70
     0
102
RTVSPropertyOp53
 70
     1
102
RTVSPropertyOp54
 70
     1
102
RTVSPropertyOp55
 70
     1
102
RTVSPropertyOp56
 70
     1
102
RTVSPropertyOp57
 70
     1
102
RTVSPropertyOp58
 70
     1
102
RTVSPropertyOp59
 70
     1
102
RTVSPropertyOp60
 70
     1
102
RTVSPropertyOp61
 70
     1
102
RTVSPropertyOp62
 70
     1
  0
XRECORD
  5
390
102
{ACAD_REACTORS
330
38F
102
}
330
38F
100
AcDbXrecord
280
     1
102
RTVSPost2010Prop28
280
     0
102
RTVSPost2010PropOp28
 70
     1
102
RTVSPost2010Prop29
280
     1
102
RTVSPost2010PropOp29
 70
     1
102
RTVSPost2010Prop30
280
     1
102
RTVSPost2010PropOp30
 70
     1
102
RTVSPost2010Prop31
280
     0
102
RTVSPost2010PropOp31
 70
     1
102
RTVSPost2010Prop32
280
     0
102
RTVSPost2010PropOp32
 70
     1
102
RTVSPost2010Prop33
280
     0
102
RTVSPost2010PropOp33
 70
     1
102
RTVSPost2010Prop34
280
     0
102
RTVSPost2010PropOp34
 70
     1
102
RTVSPost2010Prop35
280
     0
102
RTVSPost2010PropOp35
 70
     1
102
RTVSPost2010Prop36
280
     0
102
RTVSPost2010PropOp36
 70
     1
102
RTVSPost2010Prop37
 90
       50
102
RTVSPost2010PropOp37
 70
     1
102
RTVSPost2010Prop38
140
0.0
102
RTVSPost2010PropOp38
 70
     1
102
RTVSPost2010Prop39
140
1.0
102
RTVSPost2010PropOp39
 70
     1
102
RTVSPost2010Prop40
 90
        0
102
RTVSPost2010PropOp40
 70
     1
102
RTVSPost2010Prop41ColorIndex
 90
       18
102
RTVSPost2010Prop41ColorRGB
 90
        0
102
RTVSPost2010PropOp41
 70
     1
102
RTVSPost2010Prop42
 90
       50
102
RTVSPost2010PropOp42
 70
     1
102
RTVSPost2010Prop43
 90
        3
102
RTVSPost2010PropOp43
 70
     1
102
RTVSPost2010Prop44ColorIndex
 90
        5
102
RTVSPost2010Prop44ColorRGB
 90
      255
102
RTVSPost2010PropOp44
 70
     1
102
RTVSPost2010Prop45
280
     0
102
RTVSPost2010PropOp45
 70
     1
102
RTVSPost2010Prop46
 90
       50
102
RTVSPost2010PropOp46
 70
     1
102
RTVSPost2010Prop47
 90
       50
102
RTVSPost2010PropOp47
 70
     1
102
RTVSPost2010Prop48
 90
       50
102
RTVSPost2010PropOp48
 70
     1
102
RTVSPost2010Prop49
280
     0
102
RTVSPost2010PropOp49
 70
     1
102
RTVSPost2010Prop50
 90
       50
102
RTVSPost2010PropOp50
 70
     1
102
RTVSPost2010Prop51ColorIndex
 90
      256
102
RTVSPost2010Prop51ColorRGB
 90
-16777216
102
RTVSPost2010PropOp51
 70
     0
102
RTVSPost2010Prop52
140
1.0
102
RTVSPost2010PropOp52
 70
     0
102
RTVSPost2010Prop53
 90
        2
102
RTVSPost2010PropOp53
 70
     1
102
RTVSPost2010Prop54
  1
strokes_ogs.tif
102
RTVSPost2010PropOp54
 70
     1
102
RTVSPost2010Prop55
280
     0
102
RTVSPost2010PropOp55
 70
     1
102
RTVSPost2010Prop56
140
1.0
102
RTVSPost2010PropOp56
 70
     1
102
RTVSPost2010Prop57
140
1.0
102
RTVSPost2010PropOp57
 70
     1
102
RTVSPropertyOp0
 70
     1
102
RTVSPropertyOp1
 70
     1
102
RTVSPropertyOp2
 70
     1
102
RTVSPropertyOp3
 70
     1
102
RTVSPropertyOp4
 70
     1
102
RTVSPropertyOp5
 70
     1
102
RTVSPropertyOp6
 70
     1
102
RTVSPropertyOp7
 70
     1
102
RTVSPropertyOp8
 70
     1
102
RTVSPropertyOp9
 70
     1
102
RTVSPropertyOp10
 70
     1
102
RTVSPropertyOp11
 70
     1
102
RTVSPropertyOp12
 70
     1
102
RTVSPropertyOp13
 70
     1
102
RTVSPropertyOp14
 70
     1
102
RTVSPropertyOp15
 70
     1
102
RTVSPropertyOp16
 70
     1
102
RTVSPropertyOp17
 70
     1
102
RTVSPropertyOp18
 70
     1
102
RTVSPropertyOp19
 70
     1
102
RTVSPropertyOp20
 70
     1
102
RTVSPropertyOp21
 70
     1
102
RTVSPropertyOp22
 70
     1
102
RTVSPropertyOp23
 70
     1
102
RTVSPropertyOp24
 70
     1
102
RTVSPropertyOp25
 70
     1
102
RTVSPropertyOp26
 70
     1
102
RTVSPropertyOp27
 70
     1
102
RTVSPropertyOp28
 70
     1
102
RTVSPropertyOp29
 70
     1
102
RTVSPropertyOp30
 70
     1
102
RTVSPropertyOp31
 70
     1
102
RTVSPropertyOp32
 70
     1
102
RTVSPropertyOp33
 70
     1
102
RTVSPropertyOp34
 70
     1
102
RTVSPropertyOp35
 70
     1
102
RTVSPropertyOp36
 70
     1
102
RTVSPropertyOp37
 70
     1
102
RTVSPropertyOp38
 70
     1
102
RTVSPropertyOp39
 70
     1
102
RTVSPropertyOp40
 70
     1
102
RTVSPropertyOp41
 70
     1
102
RTVSPropertyOp42
 70
     1
102
RTVSPropertyOp43
 70
     1
102
RTVSPropertyOp44
 70
     1
102
RTVSPropertyOp45
 70
     1
102
RTVSPropertyOp46
 70
     1
102
RTVSPropertyOp47
 70
     1
102
RTVSPropertyOp48
 70
     1
102
RTVSPropertyOp49
 70
     1
102
RTVSPropertyOp50
 70
     1
102
RTVSPropertyOp51
 70
     0
102
RTVSPropertyOp52
 70
     0
102
RTVSPropertyOp53
 70
     1
102
RTVSPropertyOp54
 70
     1
102
RTVSPropertyOp55
 70
     1
102
RTVSPropertyOp56
 70
     1
102
RTVSPropertyOp57
 70
     1
102
RTVSPropertyOp58
 70
     1
102
RTVSPropertyOp59
 70
     1
102
RTVSPropertyOp60
 70
     1
102
RTVSPropertyOp61
 70
     1
102
RTVSPropertyOp62
 70
     1
  0
XRECORD
  5
38E
102
{ACAD_REACTORS
330
38D
102
}
330
38D
100
AcDbXrecord
280
     1
102
RTVSPost2010Prop28
280
     0
102
RTVSPost2010PropOp28
 70
     1
102
RTVSPost2010Prop29
280
     1
102
RTVSPost2010PropOp29
 70
     1
102
RTVSPost2010Prop30
280
     1
102
RTVSPost2010PropOp30
 70
     1
102
RTVSPost2010Prop31
280
     0
102
RTVSPost2010PropOp31
 70
     1
102
RTVSPost2010Prop32
280
     0
102
RTVSPost2010PropOp32
 70
     1
102
RTVSPost2010Prop33
280
     0
102
RTVSPost2010PropOp33
 70
     1
102
RTVSPost2010Prop34
280
     0
102
RTVSPost2010PropOp34
 70
     1
102
RTVSPost2010Prop35
280
     0
102
RTVSPost2010PropOp35
 70
     1
102
RTVSPost2010Prop36
280
     0
102
RTVSPost2010PropOp36
 70
     1
102
RTVSPost2010Prop37
 90
       50
102
RTVSPost2010PropOp37
 70
     1
102
RTVSPost2010Prop38
140
0.0
102
RTVSPost2010PropOp38
 70
     1
102
RTVSPost2010Prop39
140
1.0
102
RTVSPost2010PropOp39
 70
     1
102
RTVSPost2010Prop40
 90
        0
102
RTVSPost2010PropOp40
 70
     1
102
RTVSPost2010Prop41ColorIndex
 90
       18
102
RTVSPost2010Prop41ColorRGB
 90
        0
102
RTVSPost2010PropOp41
 70
     1
102
RTVSPost2010Prop42
 90
       50
102
RTVSPost2010PropOp42
 70
     1
102
RTVSPost2010Prop43
 90
        3
102
RTVSPost2010PropOp43
 70
     1
102
RTVSPost2010Prop44ColorIndex
 90
        5
102
RTVSPost2010Prop44ColorRGB
 90
      255
102
RTVSPost2010PropOp44
 70
     1
102
RTVSPost2010Prop45
280
     0
102
RTVSPost2010PropOp45
 70
     1
102
RTVSPost2010Prop46
 90
       50
102
RTVSPost2010PropOp46
 70
     1
102
RTVSPost2010Prop47
 90
       50
102
RTVSPost2010PropOp47
 70
     1
102
RTVSPost2010Prop48
 90
       50
102
RTVSPost2010PropOp48
 70
     1
102
RTVSPost2010Prop49
280
     0
102
RTVSPost2010PropOp49
 70
     1
102
RTVSPost2010Prop50
 90
       50
102
RTVSPost2010PropOp50
 70
     1
102
RTVSPost2010Prop51ColorIndex
 90
      256
102
RTVSPost2010Prop51ColorRGB
 90
-16777216
102
RTVSPost2010PropOp51
 70
     0
102
RTVSPost2010Prop52
140
1.0
102
RTVSPost2010PropOp52
 70
     0
102
RTVSPost2010Prop53
 90
        2
102
RTVSPost2010PropOp53
 70
     1
102
RTVSPost2010Prop54
  1
strokes_ogs.tif
102
RTVSPost2010PropOp54
 70
     1
102
RTVSPost2010Prop55
280
     0
102
RTVSPost2010PropOp55
 70
     1
102
RTVSPost2010Prop56
140
1.0
102
RTVSPost2010PropOp56
 70
     1
102
RTVSPost2010Prop57
140
1.0
102
RTVSPost2010PropOp57
 70
     1
102
RTVSPropertyOp0
 70
     1
102
RTVSPropertyOp1
 70
     1
102
RTVSPropertyOp2
 70
     1
102
RTVSPropertyOp3
 70
     1
102
RTVSPropertyOp4
 70
     1
102
RTVSPropertyOp5
 70
     1
102
RTVSPropertyOp6
 70
     1
102
RTVSPropertyOp7
 70
     1
102
RTVSPropertyOp8
 70
     1
102
RTVSPropertyOp9
 70
     1
102
RTVSPropertyOp10
 70
     1
102
RTVSPropertyOp11
 70
     1
102
RTVSPropertyOp12
 70
     1
102
RTVSPropertyOp13
 70
     1
102
RTVSPropertyOp14
 70
     1
102
RTVSPropertyOp15
 70
     1
102
RTVSPropertyOp16
 70
     1
102
RTVSPropertyOp17
 70
     1
102
RTVSPropertyOp18
 70
     1
102
RTVSPropertyOp19
 70
     1
102
RTVSPropertyOp20
 70
     1
102
RTVSPropertyOp21
 70
     1
102
RTVSPropertyOp22
 70
     1
102
RTVSPropertyOp23
 70
     1
102
RTVSPropertyOp24
 70
     1
102
RTVSPropertyOp25
 70
     1
102
RTVSPropertyOp26
 70
     1
102
RTVSPropertyOp27
 70
     1
102
RTVSPropertyOp28
 70
     1
102
RTVSPropertyOp29
 70
     1
102
RTVSPropertyOp30
 70
     1
102
RTVSPropertyOp31
 70
     1
102
RTVSPropertyOp32
 70
     1
102
RTVSPropertyOp33
 70
     1
102
RTVSPropertyOp34
 70
     1
102
RTVSPropertyOp35
 70
     1
102
RTVSPropertyOp36
 70
     1
102
RTVSPropertyOp37
 70
     1
102
RTVSPropertyOp38
 70
     1
102
RTVSPropertyOp39
 70
     1
102
RTVSPropertyOp40
 70
     1
102
RTVSPropertyOp41
 70
     1
102
RTVSPropertyOp42
 70
     1
102
RTVSPropertyOp43
 70
     1
102
RTVSPropertyOp44
 70
     1
102
RTVSPropertyOp45
 70
     1
102
RTVSPropertyOp46
 70
     1
102
RTVSPropertyOp47
 70
     1
102
RTVSPropertyOp48
 70
     1
102
RTVSPropertyOp49
 70
     1
102
RTVSPropertyOp50
 70
     1
102
RTVSPropertyOp51
 70
     0
102
RTVSPropertyOp52
 70
     0
102
RTVSPropertyOp53
 70
     1
102
RTVSPropertyOp54
 70
     1
102
RTVSPropertyOp55
 70
     1
102
RTVSPropertyOp56
 70
     1
102
RTVSPropertyOp57
 70
     1
102
RTVSPropertyOp58
 70
     1
102
RTVSPropertyOp59
 70
     1
102
RTVSPropertyOp60
 70
     1
102
RTVSPropertyOp61
 70
     1
102
RTVSPropertyOp62
 70
     1
  0
XRECORD
  5
388
102
{ACAD_REACTORS
330
387
102
}
330
387
100
AcDbXrecord
280
     1
102
RTVSPost2010Prop28
280
     0
102
RTVSPost2010PropOp28
 70
     1
102
RTVSPost2010Prop29
280
     1
102
RTVSPost2010PropOp29
 70
     1
102
RTVSPost2010Prop30
280
     1
102
RTVSPost2010PropOp30
 70
     1
102
RTVSPost2010Prop31
280
     0
102
RTVSPost2010PropOp31
 70
     1
102
RTVSPost2010Prop32
280
     0
102
RTVSPost2010PropOp32
 70
     1
102
RTVSPost2010Prop33
280
     0
102
RTVSPost2010PropOp33
 70
     1
102
RTVSPost2010Prop34
280
     0
102
RTVSPost2010PropOp34
 70
     1
102
RTVSPost2010Prop35
280
     0
102
RTVSPost2010PropOp35
 70
     1
102
RTVSPost2010Prop36
280
     0
102
RTVSPost2010PropOp36
 70
     1
102
RTVSPost2010Prop37
 90
       50
102
RTVSPost2010PropOp37
 70
     1
102
RTVSPost2010Prop38
140
0.0
102
RTVSPost2010PropOp38
 70
     1
102
RTVSPost2010Prop39
140
1.0
102
RTVSPost2010PropOp39
 70
     1
102
RTVSPost2010Prop40
 90
        0
102
RTVSPost2010PropOp40
 70
     1
102
RTVSPost2010Prop41ColorIndex
 90
       18
102
RTVSPost2010Prop41ColorRGB
 90
        0
102
RTVSPost2010PropOp41
 70
     1
102
RTVSPost2010Prop42
 90
       50
102
RTVSPost2010PropOp42
 70
     1
102
RTVSPost2010Prop43
 90
        3
102
RTVSPost2010PropOp43
 70
     1
102
RTVSPost2010Prop44ColorIndex
 90
        5
102
RTVSPost2010Prop44ColorRGB
 90
      255
102
RTVSPost2010PropOp44
 70
     1
102
RTVSPost2010Prop45
280
     0
102
RTVSPost2010PropOp45
 70
     1
102
RTVSPost2010Prop46
 90
       50
102
RTVSPost2010PropOp46
 70
     1
102
RTVSPost2010Prop47
 90
       50
102
RTVSPost2010PropOp47
 70
     1
102
RTVSPost2010Prop48
 90
       50
102
RTVSPost2010PropOp48
 70
     1
102
RTVSPost2010Prop49
280
     0
102
RTVSPost2010PropOp49
 70
     1
102
RTVSPost2010Prop50
 90
       50
102
RTVSPost2010PropOp50
 70
     1
102
RTVSPost2010Prop51ColorIndex
 90
      256
102
RTVSPost2010Prop51ColorRGB
 90
-16777216
102
RTVSPost2010PropOp51
 70
     0
102
RTVSPost2010Prop52
140
1.0
102
RTVSPost2010PropOp52
 70
     0
102
RTVSPost2010Prop53
 90
        2
102
RTVSPost2010PropOp53
 70
     1
102
RTVSPost2010Prop54
  1
strokes_ogs.tif
102
RTVSPost2010PropOp54
 70
     1
102
RTVSPost2010Prop55
280
     0
102
RTVSPost2010PropOp55
 70
     1
102
RTVSPost2010Prop56
140
1.0
102
RTVSPost2010PropOp56
 70
     1
102
RTVSPost2010Prop57
140
1.0
102
RTVSPost2010PropOp57
 70
     1
102
RTVSPropertyOp0
 70
     1
102
RTVSPropertyOp1
 70
     1
102
RTVSPropertyOp2
 70
     1
102
RTVSPropertyOp3
 70
     1
102
RTVSPropertyOp4
 70
     1
102
RTVSPropertyOp5
 70
     1
102
RTVSPropertyOp6
 70
     1
102
RTVSPropertyOp7
 70
     1
102
RTVSPropertyOp8
 70
     1
102
RTVSPropertyOp9
 70
     1
102
RTVSPropertyOp10
 70
     1
102
RTVSPropertyOp11
 70
     1
102
RTVSPropertyOp12
 70
     1
102
RTVSPropertyOp13
 70
     1
102
RTVSPropertyOp14
 70
     1
102
RTVSPropertyOp15
 70
     1
102
RTVSPropertyOp16
 70
     1
102
RTVSPropertyOp17
 70
     1
102
RTVSPropertyOp18
 70
     1
102
RTVSPropertyOp19
 70
     1
102
RTVSPropertyOp20
 70
     1
102
RTVSPropertyOp21
 70
     1
102
RTVSPropertyOp22
 70
     1
102
RTVSPropertyOp23
 70
     1
102
RTVSPropertyOp24
 70
     1
102
RTVSPropertyOp25
 70
     1
102
RTVSPropertyOp26
 70
     1
102
RTVSPropertyOp27
 70
     1
102
RTVSPropertyOp28
 70
     1
102
RTVSPropertyOp29
 70
     1
102
RTVSPropertyOp30
 70
     1
102
RTVSPropertyOp31
 70
     1
102
RTVSPropertyOp32
 70
     1
102
RTVSPropertyOp33
 70
     1
102
RTVSPropertyOp34
 70
     1
102
RTVSPropertyOp35
 70
     1
102
RTVSPropertyOp36
 70
     1
102
RTVSPropertyOp37
 70
     1
102
RTVSPropertyOp38
 70
     1
102
RTVSPropertyOp39
 70
     1
102
RTVSPropertyOp40
 70
     1
102
RTVSPropertyOp41
 70
     1
102
RTVSPropertyOp42
 70
     1
102
RTVSPropertyOp43
 70
     1
102
RTVSPropertyOp44
 70
     1
102
RTVSPropertyOp45
 70
     1
102
RTVSPropertyOp46
 70
     1
102
RTVSPropertyOp47
 70
     1
102
RTVSPropertyOp48
 70
     1
102
RTVSPropertyOp49
 70
     1
102
RTVSPropertyOp50
 70
     1
102
RTVSPropertyOp51
 70
     0
102
RTVSPropertyOp52
 70
     0
102
RTVSPropertyOp53
 70
     1
102
RTVSPropertyOp54
 70
     1
102
RTVSPropertyOp55
 70
     1
102
RTVSPropertyOp56
 70
     1
102
RTVSPropertyOp57
 70
     1
102
RTVSPropertyOp58
 70
     1
102
RTVSPropertyOp59
 70
     1
102
RTVSPropertyOp60
 70
     1
102
RTVSPropertyOp61
 70
     1
102
RTVSPropertyOp62
 70
     1
  0
XRECORD
  5
38A
102
{ACAD_REACTORS
330
389
102
}
330
389
100
AcDbXrecord
280
     1
102
RTVSPost2010Prop28
280
     0
102
RTVSPost2010PropOp28
 70
     1
102
RTVSPost2010Prop29
280
     1
102
RTVSPost2010PropOp29
 70
     1
102
RTVSPost2010Prop30
280
     1
102
RTVSPost2010PropOp30
 70
     1
102
RTVSPost2010Prop31
280
     0
102
RTVSPost2010PropOp31
 70
     1
102
RTVSPost2010Prop32
280
     0
102
RTVSPost2010PropOp32
 70
     1
102
RTVSPost2010Prop33
280
     0
102
RTVSPost2010PropOp33
 70
     1
102
RTVSPost2010Prop34
280
     0
102
RTVSPost2010PropOp34
 70
     1
102
RTVSPost2010Prop35
280
     0
102
RTVSPost2010PropOp35
 70
     1
102
RTVSPost2010Prop36
280
     0
102
RTVSPost2010PropOp36
 70
     1
102
RTVSPost2010Prop37
 90
       50
102
RTVSPost2010PropOp37
 70
     1
102
RTVSPost2010Prop38
140
0.0
102
RTVSPost2010PropOp38
 70
     1
102
RTVSPost2010Prop39
140
1.0
102
RTVSPost2010PropOp39
 70
     1
102
RTVSPost2010Prop40
 90
        0
102
RTVSPost2010PropOp40
 70
     1
102
RTVSPost2010Prop41ColorIndex
 90
       18
102
RTVSPost2010Prop41ColorRGB
 90
        0
102
RTVSPost2010PropOp41
 70
     1
102
RTVSPost2010Prop42
 90
       50
102
RTVSPost2010PropOp42
 70
     1
102
RTVSPost2010Prop43
 90
        3
102
RTVSPost2010PropOp43
 70
     1
102
RTVSPost2010Prop44ColorIndex
 90
        5
102
RTVSPost2010Prop44ColorRGB
 90
      255
102
RTVSPost2010PropOp44
 70
     1
102
RTVSPost2010Prop45
280
     0
102
RTVSPost2010PropOp45
 70
     1
102
RTVSPost2010Prop46
 90
       50
102
RTVSPost2010PropOp46
 70
     1
102
RTVSPost2010Prop47
 90
       50
102
RTVSPost2010PropOp47
 70
     1
102
RTVSPost2010Prop48
 90
       50
102
RTVSPost2010PropOp48
 70
     1
102
RTVSPost2010Prop49
280
     0
102
RTVSPost2010PropOp49
 70
     1
102
RTVSPost2010Prop50
 90
       50
102
RTVSPost2010PropOp50
 70
     1
102
RTVSPost2010Prop51ColorIndex
 90
      256
102
RTVSPost2010Prop51ColorRGB
 90
-16777216
102
RTVSPost2010PropOp51
 70
     0
102
RTVSPost2010Prop52
140
1.0
102
RTVSPost2010PropOp52
 70
     0
102
RTVSPost2010Prop53
 90
        2
102
RTVSPost2010PropOp53
 70
     1
102
RTVSPost2010Prop54
  1
strokes_ogs.tif
102
RTVSPost2010PropOp54
 70
     1
102
RTVSPost2010Prop55
280
     0
102
RTVSPost2010PropOp55
 70
     1
102
RTVSPost2010Prop56
140
1.0
102
RTVSPost2010PropOp56
 70
     1
102
RTVSPost2010Prop57
140
1.0
102
RTVSPost2010PropOp57
 70
     1
102
RTVSPropertyOp0
 70
     1
102
RTVSPropertyOp1
 70
     1
102
RTVSPropertyOp2
 70
     1
102
RTVSPropertyOp3
 70
     1
102
RTVSPropertyOp4
 70
     1
102
RTVSPropertyOp5
 70
     1
102
RTVSPropertyOp6
 70
     1
102
RTVSPropertyOp7
 70
     1
102
RTVSPropertyOp8
 70
     1
102
RTVSPropertyOp9
 70
     1
102
RTVSPropertyOp10
 70
     1
102
RTVSPropertyOp11
 70
     1
102
RTVSPropertyOp12
 70
     1
102
RTVSPropertyOp13
 70
     1
102
RTVSPropertyOp14
 70
     1
102
RTVSPropertyOp15
 70
     1
102
RTVSPropertyOp16
 70
     1
102
RTVSPropertyOp17
 70
     1
102
RTVSPropertyOp18
 70
     1
102
RTVSPropertyOp19
 70
     1
102
RTVSPropertyOp20
 70
     1
102
RTVSPropertyOp21
 70
     1
102
RTVSPropertyOp22
 70
     1
102
RTVSPropertyOp23
 70
     1
102
RTVSPropertyOp24
 70
     1
102
RTVSPropertyOp25
 70
     1
102
RTVSPropertyOp26
 70
     1
102
RTVSPropertyOp27
 70
     1
102
RTVSPropertyOp28
 70
     1
102
RTVSPropertyOp29
 70
     1
102
RTVSPropertyOp30
 70
     1
102
RTVSPropertyOp31
 70
     1
102
RTVSPropertyOp32
 70
     1
102
RTVSPropertyOp33
 70
     1
102
RTVSPropertyOp34
 70
     1
102
RTVSPropertyOp35
 70
     1
102
RTVSPropertyOp36
 70
     1
102
RTVSPropertyOp37
 70
     1
102
RTVSPropertyOp38
 70
     1
102
RTVSPropertyOp39
 70
     1
102
RTVSPropertyOp40
 70
     1
102
RTVSPropertyOp41
 70
     1
102
RTVSPropertyOp42
 70
     1
102
RTVSPropertyOp43
 70
     1
102
RTVSPropertyOp44
 70
     1
102
RTVSPropertyOp45
 70
     1
102
RTVSPropertyOp46
 70
     1
102
RTVSPropertyOp47
 70
     1
102
RTVSPropertyOp48
 70
     1
102
RTVSPropertyOp49
 70
     1
102
RTVSPropertyOp50
 70
     1
102
RTVSPropertyOp51
 70
     0
102
RTVSPropertyOp52
 70
     0
102
RTVSPropertyOp53
 70
     1
102
RTVSPropertyOp54
 70
     1
102
RTVSPropertyOp55
 70
     1
102
RTVSPropertyOp56
 70
     1
102
RTVSPropertyOp57
 70
     1
102
RTVSPropertyOp58
 70
     1
102
RTVSPropertyOp59
 70
     1
102
RTVSPropertyOp60
 70
     1
102
RTVSPropertyOp61
 70
     1
102
RTVSPropertyOp62
 70
     1
  0
XRECORD
  5
37A
102
{ACAD_REACTORS
330
379
102
}
330
379
100
AcDbXrecord
280
     1
102
RTVSPost2010Prop28
280
     0
102
RTVSPost2010PropOp28
 70
     1
102
RTVSPost2010Prop29
280
     1
102
RTVSPost2010PropOp29
 70
     1
102
RTVSPost2010Prop30
280
     1
102
RTVSPost2010PropOp30
 70
     1
102
RTVSPost2010Prop31
280
     0
102
RTVSPost2010PropOp31
 70
     1
102
RTVSPost2010Prop32
280
     0
102
RTVSPost2010PropOp32
 70
     1
102
RTVSPost2010Prop33
280
     0
102
RTVSPost2010PropOp33
 70
     1
102
RTVSPost2010Prop34
280
     0
102
RTVSPost2010PropOp34
 70
     1
102
RTVSPost2010Prop35
280
     0
102
RTVSPost2010PropOp35
 70
     1
102
RTVSPost2010Prop36
280
     0
102
RTVSPost2010PropOp36
 70
     1
102
RTVSPost2010Prop37
 90
       50
102
RTVSPost2010PropOp37
 70
     1
102
RTVSPost2010Prop38
140
0.0
102
RTVSPost2010PropOp38
 70
     1
102
RTVSPost2010Prop39
140
1.0
102
RTVSPost2010PropOp39
 70
     1
102
RTVSPost2010Prop40
 90
        0
102
RTVSPost2010PropOp40
 70
     1
102
RTVSPost2010Prop41ColorIndex
 90
       18
102
RTVSPost2010Prop41ColorRGB
 90
        0
102
RTVSPost2010PropOp41
 70
     1
102
RTVSPost2010Prop42
 90
       50
102
RTVSPost2010PropOp42
 70
     1
102
RTVSPost2010Prop43
 90
        3
102
RTVSPost2010PropOp43
 70
     1
102
RTVSPost2010Prop44ColorIndex
 90
        5
102
RTVSPost2010Prop44ColorRGB
 90
      255
102
RTVSPost2010PropOp44
 70
     1
102
RTVSPost2010Prop45
280
     0
102
RTVSPost2010PropOp45
 70
     1
102
RTVSPost2010Prop46
 90
       50
102
RTVSPost2010PropOp46
 70
     1
102
RTVSPost2010Prop47
 90
       50
102
RTVSPost2010PropOp47
 70
     1
102
RTVSPost2010Prop48
 90
       50
102
RTVSPost2010PropOp48
 70
     1
102
RTVSPost2010Prop49
280
     0
102
RTVSPost2010PropOp49
 70
     1
102
RTVSPost2010Prop50
 90
       50
102
RTVSPost2010PropOp50
 70
     1
102
RTVSPost2010Prop51ColorIndex
 90
      256
102
RTVSPost2010Prop51ColorRGB
 90
-16777216
102
RTVSPost2010PropOp51
 70
     0
102
RTVSPost2010Prop52
140
1.0
102
RTVSPost2010PropOp52
 70
     0
102
RTVSPost2010Prop53
 90
        2
102
RTVSPost2010PropOp53
 70
     1
102
RTVSPost2010Prop54
  1
strokes_ogs.tif
102
RTVSPost2010PropOp54
 70
     1
102
RTVSPost2010Prop55
280
     0
102
RTVSPost2010PropOp55
 70
     1
102
RTVSPost2010Prop56
140
1.0
102
RTVSPost2010PropOp56
 70
     1
102
RTVSPost2010Prop57
140
1.0
102
RTVSPost2010PropOp57
 70
     1
102
RTVSPropertyOp0
 70
     1
102
RTVSPropertyOp1
 70
     1
102
RTVSPropertyOp2
 70
     1
102
RTVSPropertyOp3
 70
     1
102
RTVSPropertyOp4
 70
     1
102
RTVSPropertyOp5
 70
     1
102
RTVSPropertyOp6
 70
     1
102
RTVSPropertyOp7
 70
     1
102
RTVSPropertyOp8
 70
     1
102
RTVSPropertyOp9
 70
     1
102
RTVSPropertyOp10
 70
     1
102
RTVSPropertyOp11
 70
     1
102
RTVSPropertyOp12
 70
     1
102
RTVSPropertyOp13
 70
     1
102
RTVSPropertyOp14
 70
     1
102
RTVSPropertyOp15
 70
     1
102
RTVSPropertyOp16
 70
     1
102
RTVSPropertyOp17
 70
     1
102
RTVSPropertyOp18
 70
     1
102
RTVSPropertyOp19
 70
     1
102
RTVSPropertyOp20
 70
     1
102
RTVSPropertyOp21
 70
     1
102
RTVSPropertyOp22
 70
     1
102
RTVSPropertyOp23
 70
     1
102
RTVSPropertyOp24
 70
     1
102
RTVSPropertyOp25
 70
     1
102
RTVSPropertyOp26
 70
     1
102
RTVSPropertyOp27
 70
     1
102
RTVSPropertyOp28
 70
     1
102
RTVSPropertyOp29
 70
     1
102
RTVSPropertyOp30
 70
     1
102
RTVSPropertyOp31
 70
     1
102
RTVSPropertyOp32
 70
     1
102
RTVSPropertyOp33
 70
     1
102
RTVSPropertyOp34
 70
     1
102
RTVSPropertyOp35
 70
     1
102
RTVSPropertyOp36
 70
     1
102
RTVSPropertyOp37
 70
     1
102
RTVSPropertyOp38
 70
     1
102
RTVSPropertyOp39
 70
     1
102
RTVSPropertyOp40
 70
     1
102
RTVSPropertyOp41
 70
     1
102
RTVSPropertyOp42
 70
     1
102
RTVSPropertyOp43
 70
     1
102
RTVSPropertyOp44
 70
     1
102
RTVSPropertyOp45
 70
     1
102
RTVSPropertyOp46
 70
     1
102
RTVSPropertyOp47
 70
     1
102
RTVSPropertyOp48
 70
     1
102
RTVSPropertyOp49
 70
     1
102
RTVSPropertyOp50
 70
     1
102
RTVSPropertyOp51
 70
     0
102
RTVSPropertyOp52
 70
     0
102
RTVSPropertyOp53
 70
     1
102
RTVSPropertyOp54
 70
     1
102
RTVSPropertyOp55
 70
     1
102
RTVSPropertyOp56
 70
     1
102
RTVSPropertyOp57
 70
     1
102
RTVSPropertyOp58
 70
     1
102
RTVSPropertyOp59
 70
     1
102
RTVSPropertyOp60
 70
     1
102
RTVSPropertyOp61
 70
     1
102
RTVSPropertyOp62
 70
     1
  0
XRECORD
  5
36C
102
{ACAD_REACTORS
330
36B
102
}
330
36B
100
AcDbXrecord
280
     1
102
RTVSPost2010Prop28
280
     0
102
RTVSPost2010PropOp28
 70
     1
102
RTVSPost2010Prop29
280
     1
102
RTVSPost2010PropOp29
 70
     1
102
RTVSPost2010Prop30
280
     1
102
RTVSPost2010PropOp30
 70
     1
102
RTVSPost2010Prop31
280
     0
102
RTVSPost2010PropOp31
 70
     1
102
RTVSPost2010Prop32
280
     0
102
RTVSPost2010PropOp32
 70
     1
102
RTVSPost2010Prop33
280
     0
102
RTVSPost2010PropOp33
 70
     1
102
RTVSPost2010Prop34
280
     0
102
RTVSPost2010PropOp34
 70
     1
102
RTVSPost2010Prop35
280
     0
102
RTVSPost2010PropOp35
 70
     1
102
RTVSPost2010Prop36
280
     0
102
RTVSPost2010PropOp36
 70
     1
102
RTVSPost2010Prop37
 90
       50
102
RTVSPost2010PropOp37
 70
     1
102
RTVSPost2010Prop38
140
0.0
102
RTVSPost2010PropOp38
 70
     1
102
RTVSPost2010Prop39
140
1.0
102
RTVSPost2010PropOp39
 70
     1
102
RTVSPost2010Prop40
 90
        0
102
RTVSPost2010PropOp40
 70
     1
102
RTVSPost2010Prop41ColorIndex
 90
       18
102
RTVSPost2010Prop41ColorRGB
 90
        0
102
RTVSPost2010PropOp41
 70
     1
102
RTVSPost2010Prop42
 90
       50
102
RTVSPost2010PropOp42
 70
     1
102
RTVSPost2010Prop43
 90
        3
102
RTVSPost2010PropOp43
 70
     1
102
RTVSPost2010Prop44ColorIndex
 90
        5
102
RTVSPost2010Prop44ColorRGB
 90
      255
102
RTVSPost2010PropOp44
 70
     1
102
RTVSPost2010Prop45
280
     0
102
RTVSPost2010PropOp45
 70
     1
102
RTVSPost2010Prop46
 90
       50
102
RTVSPost2010PropOp46
 70
     1
102
RTVSPost2010Prop47
 90
       50
102
RTVSPost2010PropOp47
 70
     1
102
RTVSPost2010Prop48
 90
       50
102
RTVSPost2010PropOp48
 70
     1
102
RTVSPost2010Prop49
280
     0
102
RTVSPost2010PropOp49
 70
     1
102
RTVSPost2010Prop50
 90
       50
102
RTVSPost2010PropOp50
 70
     1
102
RTVSPost2010Prop51ColorIndex
 90
      256
102
RTVSPost2010Prop51ColorRGB
 90
-16777216
102
RTVSPost2010PropOp51
 70
     0
102
RTVSPost2010Prop52
140
1.0
102
RTVSPost2010PropOp52
 70
     0
102
RTVSPost2010Prop53
 90
        2
102
RTVSPost2010PropOp53
 70
     1
102
RTVSPost2010Prop54
  1
strokes_ogs.tif
102
RTVSPost2010PropOp54
 70
     1
102
RTVSPost2010Prop55
280
     0
102
RTVSPost2010PropOp55
 70
     1
102
RTVSPost2010Prop56
140
1.0
102
RTVSPost2010PropOp56
 70
     1
102
RTVSPost2010Prop57
140
1.0
102
RTVSPost2010PropOp57
 70
     1
102
RTVSPropertyOp0
 70
     1
102
RTVSPropertyOp1
 70
     1
102
RTVSPropertyOp2
 70
     1
102
RTVSPropertyOp3
 70
     1
102
RTVSPropertyOp4
 70
     1
102
RTVSPropertyOp5
 70
     1
102
RTVSPropertyOp6
 70
     1
102
RTVSPropertyOp7
 70
     1
102
RTVSPropertyOp8
 70
     1
102
RTVSPropertyOp9
 70
     1
102
RTVSPropertyOp10
 70
     1
102
RTVSPropertyOp11
 70
     1
102
RTVSPropertyOp12
 70
     1
102
RTVSPropertyOp13
 70
     1
102
RTVSPropertyOp14
 70
     1
102
RTVSPropertyOp15
 70
     1
102
RTVSPropertyOp16
 70
     1
102
RTVSPropertyOp17
 70
     1
102
RTVSPropertyOp18
 70
     1
102
RTVSPropertyOp19
 70
     1
102
RTVSPropertyOp20
 70
     1
102
RTVSPropertyOp21
 70
     1
102
RTVSPropertyOp22
 70
     1
102
RTVSPropertyOp23
 70
     1
102
RTVSPropertyOp24
 70
     1
102
RTVSPropertyOp25
 70
     1
102
RTVSPropertyOp26
 70
     1
102
RTVSPropertyOp27
 70
     1
102
RTVSPropertyOp28
 70
     1
102
RTVSPropertyOp29
 70
     1
102
RTVSPropertyOp30
 70
     1
102
RTVSPropertyOp31
 70
     1
102
RTVSPropertyOp32
 70
     1
102
RTVSPropertyOp33
 70
     1
102
RTVSPropertyOp34
 70
     1
102
RTVSPropertyOp35
 70
     1
102
RTVSPropertyOp36
 70
     1
102
RTVSPropertyOp37
 70
     1
102
RTVSPropertyOp38
 70
     1
102
RTVSPropertyOp39
 70
     1
102
RTVSPropertyOp40
 70
     1
102
RTVSPropertyOp41
 70
     1
102
RTVSPropertyOp42
 70
     1
102
RTVSPropertyOp43
 70
     1
102
RTVSPropertyOp44
 70
     1
102
RTVSPropertyOp45
 70
     1
102
RTVSPropertyOp46
 70
     1
102
RTVSPropertyOp47
 70
     1
102
RTVSPropertyOp48
 70
     1
102
RTVSPropertyOp49
 70
     1
102
RTVSPropertyOp50
 70
     1
102
RTVSPropertyOp51
 70
     0
102
RTVSPropertyOp52
 70
     0
102
RTVSPropertyOp53
 70
     1
102
RTVSPropertyOp54
 70
     1
102
RTVSPropertyOp55
 70
     1
102
RTVSPropertyOp56
 70
     1
102
RTVSPropertyOp57
 70
     1
102
RTVSPropertyOp58
 70
     1
102
RTVSPropertyOp59
 70
     1
102
RTVSPropertyOp60
 70
     1
102
RTVSPropertyOp61
 70
     1
102
RTVSPropertyOp62
 70
     1
  0
XRECORD
  5
38C
102
{ACAD_REACTORS
330
38B
102
}
330
38B
100
AcDbXrecord
280
     1
102
RTVSPost2010Prop28
280
     0
102
RTVSPost2010PropOp28
 70
     1
102
RTVSPost2010Prop29
280
     1
102
RTVSPost2010PropOp29
 70
     1
102
RTVSPost2010Prop30
280
     1
102
RTVSPost2010PropOp30
 70
     1
102
RTVSPost2010Prop31
280
     0
102
RTVSPost2010PropOp31
 70
     1
102
RTVSPost2010Prop32
280
     0
102
RTVSPost2010PropOp32
 70
     1
102
RTVSPost2010Prop33
280
     0
102
RTVSPost2010PropOp33
 70
     1
102
RTVSPost2010Prop34
280
     0
102
RTVSPost2010PropOp34
 70
     1
102
RTVSPost2010Prop35
280
     0
102
RTVSPost2010PropOp35
 70
     1
102
RTVSPost2010Prop36
280
     0
102
RTVSPost2010PropOp36
 70
     1
102
RTVSPost2010Prop37
 90
       50
102
RTVSPost2010PropOp37
 70
     1
102
RTVSPost2010Prop38
140
0.0
102
RTVSPost2010PropOp38
 70
     1
102
RTVSPost2010Prop39
140
1.0
102
RTVSPost2010PropOp39
 70
     1
102
RTVSPost2010Prop40
 90
        0
102
RTVSPost2010PropOp40
 70
     1
102
RTVSPost2010Prop41ColorIndex
 90
       18
102
RTVSPost2010Prop41ColorRGB
 90
        0
102
RTVSPost2010PropOp41
 70
     1
102
RTVSPost2010Prop42
 90
       50
102
RTVSPost2010PropOp42
 70
     1
102
RTVSPost2010Prop43
 90
        3
102
RTVSPost2010PropOp43
 70
     1
102
RTVSPost2010Prop44ColorIndex
 90
        5
102
RTVSPost2010Prop44ColorRGB
 90
      255
102
RTVSPost2010PropOp44
 70
     1
102
RTVSPost2010Prop45
280
     0
102
RTVSPost2010PropOp45
 70
     1
102
RTVSPost2010Prop46
 90
       50
102
RTVSPost2010PropOp46
 70
     1
102
RTVSPost2010Prop47
 90
       50
102
RTVSPost2010PropOp47
 70
     1
102
RTVSPost2010Prop48
 90
       50
102
RTVSPost2010PropOp48
 70
     1
102
RTVSPost2010Prop49
280
     0
102
RTVSPost2010PropOp49
 70
     1
102
RTVSPost2010Prop50
 90
       50
102
RTVSPost2010PropOp50
 70
     1
102
RTVSPost2010Prop51ColorIndex
 90
      256
102
RTVSPost2010Prop51ColorRGB
 90
-16777216
102
RTVSPost2010PropOp51
 70
     0
102
RTVSPost2010Prop52
140
1.0
102
RTVSPost2010PropOp52
 70
     0
102
RTVSPost2010Prop53
 90
        2
102
RTVSPost2010PropOp53
 70
     1
102
RTVSPost2010Prop54
  1
strokes_ogs.tif
102
RTVSPost2010PropOp54
 70
     1
102
RTVSPost2010Prop55
280
     0
102
RTVSPost2010PropOp55
 70
     1
102
RTVSPost2010Prop56
140
1.0
102
RTVSPost2010PropOp56
 70
     1
102
RTVSPost2010Prop57
140
1.0
102
RTVSPost2010PropOp57
 70
     1
102
RTVSPropertyOp0
 70
     1
102
RTVSPropertyOp1
 70
     1
102
RTVSPropertyOp2
 70
     1
102
RTVSPropertyOp3
 70
     1
102
RTVSPropertyOp4
 70
     1
102
RTVSPropertyOp5
 70
     1
102
RTVSPropertyOp6
 70
     1
102
RTVSPropertyOp7
 70
     1
102
RTVSPropertyOp8
 70
     1
102
RTVSPropertyOp9
 70
     1
102
RTVSPropertyOp10
 70
     1
102
RTVSPropertyOp11
 70
     1
102
RTVSPropertyOp12
 70
     1
102
RTVSPropertyOp13
 70
     1
102
RTVSPropertyOp14
 70
     1
102
RTVSPropertyOp15
 70
     1
102
RTVSPropertyOp16
 70
     1
102
RTVSPropertyOp17
 70
     1
102
RTVSPropertyOp18
 70
     1
102
RTVSPropertyOp19
 70
     1
102
RTVSPropertyOp20
 70
     1
102
RTVSPropertyOp21
 70
     1
102
RTVSPropertyOp22
 70
     1
102
RTVSPropertyOp23
 70
     1
102
RTVSPropertyOp24
 70
     1
102
RTVSPropertyOp25
 70
     1
102
RTVSPropertyOp26
 70
     1
102
RTVSPropertyOp27
 70
     1
102
RTVSPropertyOp28
 70
     1
102
RTVSPropertyOp29
 70
     1
102
RTVSPropertyOp30
 70
     1
102
RTVSPropertyOp31
 70
     1
102
RTVSPropertyOp32
 70
     1
102
RTVSPropertyOp33
 70
     1
102
RTVSPropertyOp34
 70
     1
102
RTVSPropertyOp35
 70
     1
102
RTVSPropertyOp36
 70
     1
102
RTVSPropertyOp37
 70
     1
102
RTVSPropertyOp38
 70
     1
102
RTVSPropertyOp39
 70
     1
102
RTVSPropertyOp40
 70
     1
102
RTVSPropertyOp41
 70
     1
102
RTVSPropertyOp42
 70
     1
102
RTVSPropertyOp43
 70
     1
102
RTVSPropertyOp44
 70
     1
102
RTVSPropertyOp45
 70
     1
102
RTVSPropertyOp46
 70
     1
102
RTVSPropertyOp47
 70
     1
102
RTVSPropertyOp48
 70
     1
102
RTVSPropertyOp49
 70
     1
102
RTVSPropertyOp50
 70
     1
102
RTVSPropertyOp51
 70
     0
102
RTVSPropertyOp52
 70
     0
102
RTVSPropertyOp53
 70
     1
102
RTVSPropertyOp54
 70
     1
102
RTVSPropertyOp55
 70
     1
102
RTVSPropertyOp56
 70
     1
102
RTVSPropertyOp57
 70
     1
102
RTVSPropertyOp58
 70
     1
102
RTVSPropertyOp59
 70
     1
102
RTVSPropertyOp60
 70
     1
102
RTVSPropertyOp61
 70
     1
102
RTVSPropertyOp62
 70
     1
  0
ENDSEC
  0
EOF
