  0
SECTION
  2
HEADER
  9
$ACADVER
  1
AC1018
  9
$ACADMAINTVER
 70
   104
  9
$DWGCODEPAGE
  3
ANSI_1250
  9
$LASTSAVEDBY
  1
wq7085
  9
$INSBASE
 10
0.0
 20
0.0
 30
0.0
  9
$EXTMIN
 10
186.4339033333333
 20
118.534924
 30
0.0
  9
$EXTMAX
 10
392.754406
 20
345.2288016666667
 30
0.0
  9
$LIMMIN
 10
-0.5
 20
-0.5
  9
$LIMMAX
 10
5.0
 20
5.0
  9
$ORTHOMODE
 70
     0
  9
$REGENMODE
 70
     1
  9
$FILLMODE
 70
     1
  9
$QTEXTMODE
 70
     0
  9
$MIRRTEXT
 70
     1
  9
$LTSCALE
 40
1.0
  9
$ATTMODE
 70
     1
  9
$TEXTSIZE
 40
0.2
  9
$TRACEWID
 40
0.05
  9
$TEXTSTYLE
  7
Standard
  9
$CLAYER
  8
0
  9
$CELTYPE
  6
ByLayer
  9
$CECOLOR
 62
   256
  9
$CELTSCALE
 40
1.0
  9
$DISPSILH
 70
     0
  9
$DIMSCALE
 40
1.0
  9
$DIMASZ
 40
0.18
  9
$DIMEXO
 40
0.0625
  9
$DIMDLI
 40
0.38
  9
$DIMRND
 40
0.0
  9
$DIMDLE
 40
0.0
  9
$DIMEXE
 40
0.18
  9
$DIMTP
 40
0.0
  9
$DIMTM
 40
0.0
  9
$DIMTXT
 40
0.18
  9
$DIMCEN
 40
0.09
  9
$DIMTSZ
 40
0.0
  9
$DIMTOL
 70
     0
  9
$DIMLIM
 70
     0
  9
$DIMTIH
 70
     1
  9
$DIMTOH
 70
     1
  9
$DIMSE1
 70
     0
  9
$DIMSE2
 70
     0
  9
$DIMTAD
 70
     0
  9
$DIMZIN
 70
     0
  9
$DIMBLK
  1

  9
$DIMASO
 70
     1
  9
$DIMSHO
 70
     1
  9
$DIMPOST
  1

  9
$DIMAPOST
  1

  9
$DIMALT
 70
     0
  9
$DIMALTD
 70
     2
  9
$DIMALTF
 40
25.4
  9
$DIMLFAC
 40
1.0
  9
$DIMTOFL
 70
     0
  9
$DIMTVP
 40
0.0
  9
$DIMTIX
 70
     0
  9
$DIMSOXD
 70
     0
  9
$DIMSAH
 70
     0
  9
$DIMBLK1
  1

  9
$DIMBLK2
  1

  9
$DIMSTYLE
  2
Standard
  9
$DIMCLRD
 70
     0
  9
$DIMCLRE
 70
     0
  9
$DIMCLRT
 70
     0
  9
$DIMTFAC
 40
1.0
  9
$DIMGAP
 40
0.09
  9
$DIMJUST
 70
     0
  9
$DIMSD1
 70
     0
  9
$DIMSD2
 70
     0
  9
$DIMTOLJ
 70
     1
  9
$DIMTZIN
 70
     0
  9
$DIMALTZ
 70
     0
  9
$DIMALTTZ
 70
     0
  9
$DIMUPT
 70
     0
  9
$DIMDEC
 70
     4
  9
$DIMTDEC
 70
     4
  9
$DIMALTU
 70
     2
  9
$DIMALTTD
 70
     2
  9
$DIMTXSTY
  7
Standard
  9
$DIMAUNIT
 70
     0
  9
$DIMADEC
 70
     0
  9
$DIMALTRND
 40
0.0
  9
$DIMAZIN
 70
     0
  9
$DIMDSEP
 70
    46
  9
$DIMATFIT
 70
     3
  9
$DIMFRAC
 70
     0
  9
$DIMLDRBLK
  1

  9
$DIMLUNIT
 70
     2
  9
$DIMLWD
 70
    -2
  9
$DIMLWE
 70
    -2
  9
$DIMTMOVE
 70
     0
  9
$LUNITS
 70
     2
  9
$LUPREC
 70
     4
  9
$SKETCHINC
 40
0.1
  9
$FILLETRAD
 40
0.5
  9
$AUNITS
 70
     0
  9
$AUPREC
 70
     0
  9
$MENU
  1
.
  9
$ELEVATION
 40
0.0
  9
$PELEVATION
 40
0.0
  9
$THICKNESS
 40
0.0
  9
$LIMCHECK
 70
     0
  9
$CHAMFERA
 40
0.0
  9
$CHAMFERB
 40
0.0
  9
$CHAMFERC
 40
0.0
  9
$CHAMFERD
 40
0.0
  9
$SKPOLY
 70
     0
  9
$TDCREATE
 40
2458955.335821759
  9
$TDUCREATE
 40
2458955.252496076
  9
$TDUPDATE
 40
2458955.337592592
  9
$TDUUPDATE
 40
2458955.254259260
  9
$TDINDWG
 40
0.0006713079
  9
$TDUSRTIMER
 40
0.0006713079
  9
$USRTIMER
 70
     1
  9
$ANGBASE
 50
0.0
  9
$ANGDIR
 70
     0
  9
$PDMODE
 70
     0
  9
$PDSIZE
 40
0.0
  9
$PLINEWID
 40
0.0
  9
$SPLFRAME
 70
     0
  9
$SPLINETYPE
 70
     6
  9
$SPLINESEGS
 70
     8
  9
$HANDSEED
  5
3E9
  9
$SURFTAB1
 70
     6
  9
$SURFTAB2
 70
     6
  9
$SURFTYPE
 70
     6
  9
$SURFU
 70
     6
  9
$SURFV
 70
     6
  9
$UCSBASE
  2

  9
$UCSNAME
  2

  9
$UCSORG
 10
274.404842
 20
288.907994
 30
0.0
  9
$UCSXDIR
 10
1.0
 20
0.0
 30
0.0
  9
$UCSYDIR
 10
0.0
 20
1.0
 30
0.0
  9
$UCSORTHOREF
  2

  9
$UCSORTHOVIEW
 70
     0
  9
$UCSORGTOP
 10
0.0
 20
0.0
 30
0.0
  9
$UCSORGBOTTOM
 10
0.0
 20
0.0
 30
0.0
  9
$UCSORGLEFT
 10
0.0
 20
0.0
 30
0.0
  9
$UCSORGRIGHT
 10
0.0
 20
0.0
 30
0.0
  9
$UCSORGFRONT
 10
0.0
 20
0.0
 30
0.0
  9
$UCSORGBACK
 10
0.0
 20
0.0
 30
0.0
  9
$PUCSBASE
  2

  9
$PUCSNAME
  2

  9
$PUCSORG
 10
0.0
 20
0.0
 30
0.0
  9
$PUCSXDIR
 10
1.0
 20
0.0
 30
0.0
  9
$PUCSYDIR
 10
0.0
 20
1.0
 30
0.0
  9
$PUCSORTHOREF
  2

  9
$PUCSORTHOVIEW
 70
     0
  9
$PUCSORGTOP
 10
0.0
 20
0.0
 30
0.0
  9
$PUCSORGBOTTOM
 10
0.0
 20
0.0
 30
0.0
  9
$PUCSORGLEFT
 10
0.0
 20
0.0
 30
0.0
  9
$PUCSORGRIGHT
 10
0.0
 20
0.0
 30
0.0
  9
$PUCSORGFRONT
 10
0.0
 20
0.0
 30
0.0
  9
$PUCSORGBACK
 10
0.0
 20
0.0
 30
0.0
  9
$USERI1
 70
     0
  9
$USERI2
 70
     0
  9
$USERI3
 70
     0
  9
$USERI4
 70
     0
  9
$USERI5
 70
     0
  9
$USERR1
 40
0.0
  9
$USERR2
 40
0.0
  9
$USERR3
 40
0.0
  9
$USERR4
 40
0.0
  9
$USERR5
 40
0.0
  9
$WORLDVIEW
 70
     1
  9
$SHADEDGE
 70
     3
  9
$SHADEDIF
 70
    70
  9
$TILEMODE
 70
     1
  9
$MAXACTVP
 70
    64
  9
$PINSBASE
 10
0.0
 20
0.0
 30
0.0
  9
$PLIMCHECK
 70
     0
  9
$PEXTMIN
 10
-0.5
 20
-0.5
 30
-0.5
  9
$PEXTMAX
 10
5.0
 20
5.0
 30
5.0
  9
$PLIMMIN
 10
-0.5
 20
-0.5
  9
$PLIMMAX
 10
5.0
 20
5.0
  9
$UNITMODE
 70
     0
  9
$VISRETAIN
 70
     1
  9
$PLINEGEN
 70
     0
  9
$PSLTSCALE
 70
     1
  9
$TREEDEPTH
 70
  3020
  9
$CMLSTYLE
  2
Standard
  9
$CMLJUST
 70
     0
  9
$CMLSCALE
 40
1.0
  9
$PROXYGRAPHICS
 70
     1
  9
$MEASUREMENT
 70
     1
  9
$CELWEIGHT
370
    13
  9
$ENDCAPS
280
     0
  9
$JOINSTYLE
280
     0
  9
$LWDISPLAY
290
     0
  9
$INSUNITS
 70
     4
  9
$HYPERLINKBASE
  1

  9
$STYLESHEET
  1

  9
$XEDIT
290
     1
  9
$CEPSNTYPE
380
     0
  9
$PSTYLEMODE
290
     1
  9
$FINGERPRINTGUID
  2
{75084602-7D5A-402C-99E9-6F03FAF14D47}
  9
$VERSIONGUID
  2
{4B214706-22FB-FF47-8AB8-DF001A09E424}
  9
$EXTNAMES
290
     1
  9
$PSVPSCALE
 40
0.0
  9
$OLESTARTUP
290
     0
  9
$SORTENTS
280
   127
  9
$INDEXCTL
280
     0
  9
$HIDETEXT
280
     1
  9
$XCLIPFRAME
290
     0
  9
$HALOGAP
280
     0
  9
$OBSCOLOR
 70
   257
  9
$OBSLTYPE
280
     0
  9
$INTERSECTIONDISPLAY
280
     0
  9
$INTERSECTIONCOLOR
 70
   257
  9
$DIMASSOC
280
     2
  9
$PROJECTNAME
  1

  0
ENDSEC
  0
SECTION
  2
CLASSES
  0
CLASS
  1
ACDBDICTIONARYWDFLT
  2
AcDbDictionaryWithDefault
  3
ObjectDBX Classes
 90
        0
 91
        1
280
     0
281
     0
  0
CLASS
  1
VISUALSTYLE
  2
AcDbVisualStyle
  3
ObjectDBX Classes
 90
     4095
 91
       24
280
     0
281
     0
  0
CLASS
  1
MATERIAL
  2
AcDbMaterial
  3
ObjectDBX Classes
 90
     1153
 91
        3
280
     0
281
     0
  0
CLASS
  1
SCALE
  2
AcDbScale
  3
ObjectDBX Classes
 90
     1153
 91
       33
280
     0
281
     0
  0
CLASS
  1
TABLESTYLE
  2
AcDbTableStyle
  3
ObjectDBX Classes
 90
     4095
 91
        1
280
     0
281
     0
  0
CLASS
  1
MLEADERSTYLE
  2
AcDbMLeaderStyle
  3
ACDB_MLEADERSTYLE_CLASS
 90
     4095
 91
        1
280
     0
281
     0
  0
CLASS
  1
SUN
  2
AcDbSun
  3
SCENEOE
 90
     1153
 91
        0
280
     0
281
     0
  0
CLASS
  1
DIMASSOC
  2
AcDbDimAssoc
  3
"AcDbDimAssoc|Product Desc:     AcDim ARX App For Dimension|Company:          Autodesk, Inc.|WEB Address:      www.autodesk.com"
 90
        0
 91
        7
280
     0
281
     0
  0
CLASS
  1
DICTIONARYVAR
  2
AcDbDictionaryVar
  3
ObjectDBX Classes
 90
        0
 91
        8
280
     0
281
     0
  0
CLASS
  1
CELLSTYLEMAP
  2
AcDbCellStyleMap
  3
ObjectDBX Classes
 90
     1152
 91
        2
280
     0
281
     0
  0
CLASS
  1
ACDBSECTIONVIEWSTYLE
  2
AcDbSectionViewStyle
  3
ObjectDBX Classes
 90
     1025
 91
        1
280
     0
281
     0
  0
CLASS
  1
ACDBDETAILVIEWSTYLE
  2
AcDbDetailViewStyle
  3
ObjectDBX Classes
 90
     1025
 91
        1
280
     0
281
     0
  0
CLASS
  1
SORTENTSTABLE
  2
AcDbSortentsTable
  3
ObjectDBX Classes
 90
        0
 91
        1
280
     0
281
     0
  0
ENDSEC
  0
SECTION
  2
TABLES
  0
TABLE
  2
VPORT
  5
8
330
0
100
AcDbSymbolTable
 70
    16
  0
VPORT
  5
29
330
8
100
AcDbSymbolTableRecord
100
AcDbViewportTableRecord
  2
*Active
 70
     0
 10
0.0
 20
0.0
 11
1.0
 21
1.0
 12
300.9202865148516
 22
295.0359229979895
 13
0.0
 23
0.0
 14
0.5
 24
0.5
 15
0.5
 25
0.5
 16
0.0
 26
0.0
 36
1.0
 17
0.0
 27
0.0
 37
0.0
 40
126.623770527474
 41
2.283154121863799
 42
50.0
 43
401.215552
 44
-401.215552
 50
0.0
 51
0.0
 71
     0
 72
   100
 73
     1
 74
     3
 75
     0
 76
     0
 77
     0
 78
     0
281
     0
 65
     1
110
274.404842
120
288.907994
130
0.0
111
1.0
121
0.0
131
0.0
112
0.0
122
1.0
132
0.0
 79
     0
146
0.0
1001
ACAD_NAV_VCDISPLAY
1070
     3
  0
VPORT
  5
2E8
330
8
100
AcDbSymbolTableRecord
100
AcDbViewportTableRecord
  2
L1
 70
     0
 10
0.0
 20
0.0
 11
1.0
 21
1.0
 12
289.089943
 22
231.862077
 13
0.0
 23
0.0
 14
0.5
 24
0.5
 15
0.5
 25
0.5
 16
0.0
 26
0.0
 36
1.0
 17
0.0
 27
0.0
 37
0.0
 40
207.433333
 41
0.085602
 42
50.0
 43
401.215552
 44
-401.215552
 50
0.0
 51
0.0
 71
     0
 72
   100
 73
     1
 74
     3
 75
     0
 76
     0
 77
     0
 78
     0
281
     0
 65
     1
110
0.0
120
0.0
130
0.0
111
1.0
121
0.0
131
0.0
112
0.0
122
1.0
132
0.0
 79
     0
146
0.0
  0
VPORT
  5
2E9
330
8
100
AcDbSymbolTableRecord
100
AcDbViewportTableRecord
  2
L2
 70
     0
 10
0.0
 20
0.0
 11
0.5
 21
1.0
 12
0.0
 22
0.0
 13
0.0
 23
0.0
 14
0.5
 24
0.5
 15
0.5
 25
0.5
 16
0.0
 26
-1.0
 36
0.0
 17
0.0
 27
0.0
 37
0.0
 40
1319.143726
 41
0.013461
 42
50.0
 43
679.601336
 44
-679.601336
 50
0.0
 51
0.0
 71
     0
 72
   100
 73
     1
 74
     3
 75
     0
 76
     0
 77
     0
 78
     0
281
     0
 65
     1
110
0.0
120
0.0
130
0.0
111
1.0
121
0.0
131
0.0
112
0.0
122
1.0
132
0.0
 79
     0
146
0.0
  0
VPORT
  5
2EA
330
8
100
AcDbSymbolTableRecord
100
AcDbViewportTableRecord
  2
L2
 70
     0
 10
0.5
 20
0.0
 11
1.0
 21
1.0
 12
0.0
 22
0.0
 13
0.0
 23
0.0
 14
0.5
 24
0.5
 15
0.5
 25
0.5
 16
1.0
 26
0.0
 36
0.0
 17
0.0
 27
0.0
 37
0.0
 40
1319.143726
 41
0.013461
 42
50.0
 43
667.6767099999999
 44
-667.6767099999999
 50
0.0
 51
0.0
 71
     0
 72
   100
 73
     1
 74
     3
 75
     0
 76
     0
 77
     0
 78
     0
281
     0
 65
     1
110
0.0
120
0.0
130
0.0
111
1.0
121
0.0
131
0.0
112
0.0
122
1.0
132
0.0
 79
     0
146
0.0
  0
VPORT
  5
2EB
330
8
100
AcDbSymbolTableRecord
100
AcDbViewportTableRecord
  2
L3
 70
     0
 10
0.0
 20
0.5
 11
1.0
 21
1.0
 12
289.089943
 22
231.862077
 13
0.0
 23
0.0
 14
0.5
 24
0.5
 15
0.5
 25
0.5
 16
0.0
 26
0.0
 36
1.0
 17
0.0
 27
0.0
 37
0.0
 40
207.433333
 41
0.085602
 42
50.0
 43
401.215552
 44
-401.215552
 50
0.0
 51
0.0
 71
     0
 72
   100
 73
     1
 74
     3
 75
     0
 76
     0
 77
     0
 78
     0
281
     0
 65
     1
110
0.0
120
0.0
130
0.0
111
1.0
121
0.0
131
0.0
112
0.0
122
1.0
132
0.0
 79
     0
146
0.0
  0
VPORT
  5
2EC
330
8
100
AcDbSymbolTableRecord
100
AcDbViewportTableRecord
  2
L3
 70
     0
 10
0.0
 20
0.0
 11
1.0
 21
0.5
 12
0.0
 22
0.0
 13
0.0
 23
0.0
 14
0.5
 24
0.5
 15
0.5
 25
0.5
 16
0.0
 26
-1.0
 36
0.0
 17
0.0
 27
0.0
 37
0.0
 40
1319.143726
 41
0.013461
 42
50.0
 43
679.601336
 44
-679.601336
 50
0.0
 51
0.0
 71
     0
 72
   100
 73
     1
 74
     3
 75
     0
 76
     0
 77
     0
 78
     0
281
     0
 65
     1
110
0.0
120
0.0
130
0.0
111
1.0
121
0.0
131
0.0
112
0.0
122
1.0
132
0.0
 79
     0
146
0.0
  0
VPORT
  5
2ED
330
8
100
AcDbSymbolTableRecord
100
AcDbViewportTableRecord
  2
L4
 70
     0
 10
0.0
 20
0.5
 11
0.5
 21
1.0
 12
289.089943
 22
231.862077
 13
0.0
 23
0.0
 14
0.5
 24
0.5
 15
0.5
 25
0.5
 16
0.0
 26
0.0
 36
1.0
 17
0.0
 27
0.0
 37
0.0
 40
207.433333
 41
0.085602
 42
50.0
 43
401.215552
 44
-401.215552
 50
0.0
 51
0.0
 71
     0
 72
   100
 73
     1
 74
     3
 75
     0
 76
     0
 77
     0
 78
     0
281
     0
 65
     1
110
0.0
120
0.0
130
0.0
111
1.0
121
0.0
131
0.0
112
0.0
122
1.0
132
0.0
 79
     0
146
0.0
  0
VPORT
  5
2EE
330
8
100
AcDbSymbolTableRecord
100
AcDbViewportTableRecord
  2
L4
 70
     0
 10
0.0
 20
0.0
 11
0.5
 21
0.5
 12
0.0
 22
0.0
 13
0.0
 23
0.0
 14
0.5
 24
0.5
 15
0.5
 25
0.5
 16
0.0
 26
-1.0
 36
0.0
 17
0.0
 27
0.0
 37
0.0
 40
1319.143726
 41
0.013461
 42
50.0
 43
679.601336
 44
-679.601336
 50
0.0
 51
0.0
 71
     0
 72
   100
 73
     1
 74
     3
 75
     0
 76
     0
 77
     0
 78
     0
281
     0
 65
     1
110
0.0
120
0.0
130
0.0
111
1.0
121
0.0
131
0.0
112
0.0
122
1.0
132
0.0
 79
     0
146
0.0
  0
VPORT
  5
2EF
330
8
100
AcDbSymbolTableRecord
100
AcDbViewportTableRecord
  2
L4
 70
     0
 10
0.5
 20
0.0
 11
1.0
 21
0.5
 12
0.0
 22
0.0
 13
0.0
 23
0.0
 14
0.5
 24
0.5
 15
0.5
 25
0.5
 16
1.0
 26
0.0
 36
0.0
 17
0.0
 27
0.0
 37
0.0
 40
1319.143726
 41
0.013461
 42
50.0
 43
667.6767099999999
 44
-667.6767099999999
 50
0.0
 51
0.0
 71
     0
 72
   100
 73
     1
 74
     3
 75
     0
 76
     0
 77
     0
 78
     0
281
     0
 65
     1
110
0.0
120
0.0
130
0.0
111
1.0
121
0.0
131
0.0
112
0.0
122
1.0
132
0.0
 79
     0
146
0.0
  0
VPORT
  5
2F0
330
8
100
AcDbSymbolTableRecord
100
AcDbViewportTableRecord
  2
L4
 70
     0
 10
0.5
 20
0.5
 11
1.0
 21
1.0
 12
0.0
 22
0.0
 13
0.0
 23
0.0
 14
0.5
 24
0.5
 15
0.5
 25
0.5
 16
0.5773502691896259
 26
-0.5773502691896259
 36
0.5773502691896259
 17
0.0
 27
0.0
 37
0.0
 40
1295.484074
 41
0.013707
 42
50.0
 43
674.79345
 44
-674.79345
 50
0.0
 51
0.0
 71
     0
 72
   100
 73
     1
 74
     3
 75
     0
 76
     0
 77
     0
 78
     0
281
     0
 65
     1
110
0.0
120
0.0
130
0.0
111
1.0
121
0.0
131
0.0
112
0.0
122
1.0
132
0.0
 79
     0
146
0.0
  0
VPORT
  5
2F1
330
8
100
AcDbSymbolTableRecord
100
AcDbViewportTableRecord
  2
L6
 70
     0
 10
0.0
 20
0.5
 11
0.333333
 21
1.0
 12
0.0
 22
0.0
 13
0.0
 23
0.0
 14
0.5
 24
0.5
 15
0.5
 25
0.5
 16
0.7188730927569434
 26
-0.5850486126764433
 36
0.3754192287502549
 17
0.0
 27
0.0
 37
0.0
 40
1367.187154
 41
0.012988
 42
50.0
 43
707.8776949999999
 44
-707.8776949999999
 50
0.0
 51
0.0
 71
     0
 72
   100
 73
     1
 74
     3
 75
     0
 76
     0
 77
     0
 78
     0
281
     0
 65
     1
110
0.0
120
0.0
130
0.0
111
1.0
121
0.0
131
0.0
112
0.0
122
1.0
132
0.0
 79
     0
146
0.0
  0
VPORT
  5
2F2
330
8
100
AcDbSymbolTableRecord
100
AcDbViewportTableRecord
  2
L6
 70
     0
 10
0.0
 20
0.0
 11
0.333333
 21
0.5
 12
0.0
 22
0.0
 13
0.0
 23
0.0
 14
0.5
 24
0.5
 15
0.5
 25
0.5
 16
-1.0
 26
0.0
 36
0.0
 17
0.0
 27
0.0
 37
0.0
 40
1319.143726
 41
0.013461
 42
50.0
 43
667.6767099999999
 44
-667.6767099999999
 50
0.0
 51
0.0
 71
     0
 72
   100
 73
     1
 74
     3
 75
     0
 76
     0
 77
     0
 78
     0
281
     0
 65
     1
110
0.0
120
0.0
130
0.0
111
1.0
121
0.0
131
0.0
112
0.0
122
1.0
132
0.0
 79
     0
146
0.0
  0
VPORT
  5
2F3
330
8
100
AcDbSymbolTableRecord
100
AcDbViewportTableRecord
  2
L6
 70
     0
 10
0.333333
 20
0.5
 11
0.666667
 21
1.0
 12
289.089943
 22
231.862077
 13
0.0
 23
0.0
 14
0.5
 24
0.5
 15
0.5
 25
0.5
 16
0.0
 26
0.0
 36
1.0
 17
0.0
 27
0.0
 37
0.0
 40
207.433333
 41
0.085602
 42
50.0
 43
401.215552
 44
-401.215552
 50
0.0
 51
0.0
 71
     0
 72
   100
 73
     1
 74
     3
 75
     0
 76
     0
 77
     0
 78
     0
281
     0
 65
     1
110
0.0
120
0.0
130
0.0
111
1.0
121
0.0
131
0.0
112
0.0
122
1.0
132
0.0
 79
     0
146
0.0
  0
VPORT
  5
2F4
330
8
100
AcDbSymbolTableRecord
100
AcDbViewportTableRecord
  2
L6
 70
     0
 10
0.333333
 20
0.0
 11
0.666667
 21
0.5
 12
0.0
 22
0.0
 13
0.0
 23
0.0
 14
0.5
 24
0.5
 15
0.5
 25
0.5
 16
0.0
 26
-1.0
 36
0.0
 17
0.0
 27
0.0
 37
0.0
 40
1319.143726
 41
0.013461
 42
50.0
 43
679.601336
 44
-679.601336
 50
0.0
 51
0.0
 71
     0
 72
   100
 73
     1
 74
     3
 75
     0
 76
     0
 77
     0
 78
     0
281
     0
 65
     1
110
0.0
120
0.0
130
0.0
111
1.0
121
0.0
131
0.0
112
0.0
122
1.0
132
0.0
 79
     0
146
0.0
  0
VPORT
  5
2F5
330
8
100
AcDbSymbolTableRecord
100
AcDbViewportTableRecord
  2
L6
 70
     0
 10
0.666667
 20
0.5
 11
1.0
 21
1.0
 12
0.0
 22
0.0
 13
0.0
 23
0.0
 14
0.5
 24
0.5
 15
0.5
 25
0.5
 16
0.5773502691896259
 26
-0.5773502691896259
 36
0.5773502691896259
 17
0.0
 27
0.0
 37
0.0
 40
1295.484074
 41
0.013707
 42
50.0
 43
674.79345
 44
-674.79345
 50
0.0
 51
0.0
 71
     0
 72
   100
 73
     1
 74
     3
 75
     0
 76
     0
 77
     0
 78
     0
281
     0
 65
     1
110
0.0
120
0.0
130
0.0
111
1.0
121
0.0
131
0.0
112
0.0
122
1.0
132
0.0
 79
     0
146
0.0
  0
VPORT
  5
2F6
330
8
100
AcDbSymbolTableRecord
100
AcDbViewportTableRecord
  2
L6
 70
     0
 10
0.666667
 20
0.0
 11
1.0
 21
0.5
 12
0.0
 22
0.0
 13
0.0
 23
0.0
 14
0.5
 24
0.5
 15
0.5
 25
0.5
 16
1.0
 26
0.0
 36
0.0
 17
0.0
 27
0.0
 37
0.0
 40
1319.143726
 41
0.013461
 42
50.0
 43
667.6767099999999
 44
-667.6767099999999
 50
0.0
 51
0.0
 71
     0
 72
   100
 73
     1
 74
     3
 75
     0
 76
     0
 77
     0
 78
     0
281
     0
 65
     1
110
0.0
120
0.0
130
0.0
111
1.0
121
0.0
131
0.0
112
0.0
122
1.0
132
0.0
 79
     0
146
0.0
  0
ENDTAB
  0
TABLE
  2
LTYPE
  5
5
330
0
100
AcDbSymbolTable
 70
     7
  0
LTYPE
  5
14
330
5
100
AcDbSymbolTableRecord
100
AcDbLinetypeTableRecord
  2
ByBlock
 70
     0
  3

 72
    65
 73
     0
 40
0.0
  0
LTYPE
  5
15
330
5
100
AcDbSymbolTableRecord
100
AcDbLinetypeTableRecord
  2
ByLayer
 70
     0
  3

 72
    65
 73
     0
 40
0.0
  0
LTYPE
  5
16
330
5
100
AcDbSymbolTableRecord
100
AcDbLinetypeTableRecord
  2
Continuous
 70
     0
  3
Solid line
 72
    65
 73
     0
 40
0.0
  0
LTYPE
  5
6E
330
5
100
AcDbSymbolTableRecord
100
AcDbLinetypeTableRecord
  2
CENTER
 70
     0
  3
____ _ ____ _ ____ _ ____
 72
    65
 73
     4
 40
47.4
 49
22.0
 74
     4
 75
     0
340
0
 46
0.0
 50
0.0
 44
0.0
 45
0.0
 49
-8.5
 74
     4
 75
     0
340
0
 46
0.0
 50
0.0
 44
0.0
 45
0.0
 49
8.5
 74
     4
 75
     0
340
0
 46
0.0
 50
0.0
 44
0.0
 45
0.0
 49
-8.5
 74
     4
 75
     0
340
0
 46
0.0
 50
0.0
 44
0.0
 45
0.0
  0
LTYPE
  5
6F
330
5
100
AcDbSymbolTableRecord
100
AcDbLinetypeTableRecord
  2
DASHDOT
 70
     0
  3
_._._._._._._._._._._._._._._._.
 72
    65
 73
     4
 40
70.0
 49
31.0
 74
     4
 75
     0
340
0
 46
0.0
 50
0.0
 44
0.0
 45
0.0
 49
-13.0
 74
     4
 75
     0
340
0
 46
0.0
 50
0.0
 44
0.0
 45
0.0
 49
13.0
 74
     4
 75
     0
340
0
 46
0.0
 50
0.0
 44
0.0
 45
0.0
 49
-13.0
 74
     4
 75
     0
340
0
 46
0.0
 50
0.0
 44
0.0
 45
0.0
  0
LTYPE
  5
70
330
5
100
AcDbSymbolTableRecord
100
AcDbLinetypeTableRecord
  2
DASHED
 70
     0
  3
__ __ __ __ __ __ __ __ __
 72
    65
 73
     2
 40
25.72
 49
12.86
 74
     4
 75
     0
340
0
 46
0.0
 50
0.0
 44
0.0
 45
0.0
 49
-12.86
 74
     4
 75
     0
340
0
 46
0.0
 50
0.0
 44
0.0
 45
0.0
  0
LTYPE
  5
71
330
5
100
AcDbSymbolTableRecord
100
AcDbLinetypeTableRecord
  2
DOT
 70
     0
  3
.........................
 72
    65
 73
     2
 40
10.0
 49
0.0
 74
     4
 75
     0
340
0
 46
0.0
 50
0.0
 44
0.0
 45
0.0
 49
-10.0
 74
     4
 75
     0
340
0
 46
0.0
 50
0.0
 44
0.0
 45
0.0
  0
LTYPE
  5
72
330
5
100
AcDbSymbolTableRecord
100
AcDbLinetypeTableRecord
  2
PHANTOM
 70
     0
  3
____ _ _ ____ _ _ _____ _ _ ____
 72
    65
 73
     6
 40
50.5
 49
18.0
 74
     4
 75
     0
340
0
 46
0.0
 50
0.0
 44
0.0
 45
0.0
 49
-6.5
 74
     4
 75
     0
340
0
 46
0.0
 50
0.0
 44
0.0
 45
0.0
 49
6.5
 74
     4
 75
     0
340
0
 46
0.0
 50
0.0
 44
0.0
 45
0.0
 49
-6.5
 74
     4
 75
     0
340
0
 46
0.0
 50
0.0
 44
0.0
 45
0.0
 49
6.5
 74
     4
 75
     0
340
0
 46
0.0
 50
0.0
 44
0.0
 45
0.0
 49
-6.5
 74
     4
 75
     0
340
0
 46
0.0
 50
0.0
 44
0.0
 45
0.0
  0
LTYPE
  5
389
330
5
100
AcDbSymbolTableRecord
100
AcDbLinetypeTableRecord
  2
CENTER2
 70
     0
  3
Center (.5x) ___ _ ___ _ ___ _ ___ _ ___ _ ___
 72
    65
 73
     4
 40
1.125
 49
0.75
 74
     0
 49
-0.125
 74
     0
 49
0.125
 74
     0
 49
-0.125
 74
     0
  0
ENDTAB
  0
TABLE
  2
LAYER
  5
2
330
0
100
AcDbSymbolTable
 70
    22
  0
LAYER
  5
10
102
{ACAD_XDICTIONARY
360
394
102
}
330
2
100
AcDbSymbolTableRecord
100
AcDbLayerTableRecord
  2
0
 70
     0
 62
     7
  6
Continuous
370
    -3
390
F
  0
LAYER
  5
C0
102
{ACAD_XDICTIONARY
360
396
102
}
330
2
100
AcDbSymbolTableRecord
100
AcDbLayerTableRecord
  2
95
 70
     0
 62
     7
420
 16777215
  6
Continuous
370
    -3
390
F
  0
LAYER
  5
242
330
2
100
AcDbSymbolTableRecord
100
AcDbLayerTableRecord
  2
Defpoints
 70
     0
 62
     7
  6
Continuous
290
     0
370
    -3
390
F
  0
LAYER
  5
386
102
{ACAD_XDICTIONARY
360
398
102
}
330
2
100
AcDbSymbolTableRecord
100
AcDbLayerTableRecord
  2
1
 70
     0
 62
     4
  6
Continuous
370
    -3
390
F
  0
LAYER
  5
387
102
{ACAD_XDICTIONARY
360
39A
102
}
330
2
100
AcDbSymbolTableRecord
100
AcDbLayerTableRecord
  2
2
 70
     0
 62
     7
  6
Continuous
370
    -3
390
F
  0
LAYER
  5
388
102
{ACAD_XDICTIONARY
360
39C
102
}
330
2
100
AcDbSymbolTableRecord
100
AcDbLayerTableRecord
  2
4
 70
     0
 62
     2
  6
CENTER2
370
    -3
390
F
  0
LAYER
  5
38A
102
{ACAD_XDICTIONARY
360
39E
102
}
330
2
100
AcDbSymbolTableRecord
100
AcDbLayerTableRecord
  2
SK1
 70
     0
 62
     4
  6
Continuous
370
    -3
390
F
  0
LAYER
  5
38B
102
{ACAD_XDICTIONARY
360
3A0
102
}
330
2
100
AcDbSymbolTableRecord
100
AcDbLayerTableRecord
  2
SK2
 70
     0
 62
     7
  6
Continuous
370
    -3
390
F
  0
LAYER
  5
38D
102
{ACAD_XDICTIONARY
360
3A2
102
}
330
2
100
AcDbSymbolTableRecord
100
AcDbLayerTableRecord
  2
SK4
 70
     0
 62
     2
  6
CENTER2
370
    -3
390
F
  0
LAYER
  5
38E
102
{ACAD_XDICTIONARY
360
3A4
102
}
330
2
100
AcDbSymbolTableRecord
100
AcDbLayerTableRecord
  2
SK6
 70
     0
 62
     5
  6
Continuous
370
    -3
390
F
  0
LAYER
  5
38F
102
{ACAD_XDICTIONARY
360
3A6
102
}
330
2
100
AcDbSymbolTableRecord
100
AcDbLayerTableRecord
  2
CUT
 70
     0
 62
     1
  6
Continuous
370
    -3
390
F
  0
LAYER
  5
390
102
{ACAD_XDICTIONARY
360
3A8
102
}
330
2
100
AcDbSymbolTableRecord
100
AcDbLayerTableRecord
  2
NOCUT
 70
     0
 62
     7
  6
Continuous
370
    -3
390
F
  0
LAYER
  5
391
102
{ACAD_XDICTIONARY
360
3AA
102
}
330
2
100
AcDbSymbolTableRecord
100
AcDbLayerTableRecord
  2
80
 70
     0
 62
     6
  6
Continuous
370
    -3
390
F
  0
LAYER
  5
392
102
{ACAD_XDICTIONARY
360
3AC
102
}
330
2
100
AcDbSymbolTableRecord
100
AcDbLayerTableRecord
  2
81
 70
     0
 62
     3
  6
Continuous
370
    -3
390
F
  0
ENDTAB
  0
TABLE
  2
STYLE
  5
3
330
0
100
AcDbSymbolTable
 70
     3
  0
STYLE
  5
11
330
3
100
AcDbSymbolTableRecord
100
AcDbTextStyleTableRecord
  2
Standard
 70
     0
 40
0.0
 41
1.0
 50
0.0
 71
     0
 42
0.2
  3
txt
  4

  0
STYLE
  5
23B
330
3
100
AcDbSymbolTableRecord
100
AcDbTextStyleTableRecord
  2
cesky
 70
     0
 40
0.0
 41
1.0
 50
0.0
 71
     0
 42
0.2
  3
simplex.shx
  4

  0
STYLE
  5
23C
330
3
100
AcDbSymbolTableRecord
100
AcDbTextStyleTableRecord
  2
DWGDirectTextStyle
 70
     0
 40
0.0
 41
1.0
 50
0.0
 71
     0
 42
0.2
  3
simplex
  4

  0
ENDTAB
  0
TABLE
  2
VIEW
  5
6
330
0
100
AcDbSymbolTable
 70
     0
  0
ENDTAB
  0
TABLE
  2
UCS
  5
7
330
0
100
AcDbSymbolTable
 70
     0
  0
ENDTAB
  0
TABLE
  2
APPID
  5
9
330
0
100
AcDbSymbolTable
 70
     7
  0
APPID
  5
12
330
9
100
AcDbSymbolTableRecord
100
AcDbRegAppTableRecord
  2
ACAD
 70
     0
  0
APPID
  5
23E
330
9
100
AcDbSymbolTableRecord
100
AcDbRegAppTableRecord
  2
ACAD_DSTYLE_DIMBREAK
 70
     0
  0
APPID
  5
2F7
330
9
100
AcDbSymbolTableRecord
100
AcDbRegAppTableRecord
  2
ACAD_DSTYLE_DIM_LINETYPE
 70
     0
  0
APPID
  5
2F8
330
9
100
AcDbSymbolTableRecord
100
AcDbRegAppTableRecord
  2
ACAD_DSTYLE_DIM_EXT1_LINETYPE
 70
     0
  0
APPID
  5
2F9
330
9
100
AcDbSymbolTableRecord
100
AcDbRegAppTableRecord
  2
ACAD_DSTYLE_DIM_EXT2_LINETYPE
 70
     0
  0
APPID
  5
339
330
9
100
AcDbSymbolTableRecord
100
AcDbRegAppTableRecord
  2
ACAD_MLEADERVER
 70
     0
  0
APPID
  5
3B1
330
9
100
AcDbSymbolTableRecord
100
AcDbRegAppTableRecord
  2
ACAD_NAV_VCDISPLAY
 70
     0
  0
ENDTAB
  0
TABLE
  2
DIMSTYLE
  5
A
330
0
100
AcDbSymbolTable
 70
     1
100
AcDbDimStyleTable
 71
     0
  0
DIMSTYLE
105
27
330
A
100
AcDbSymbolTableRecord
100
AcDbDimStyleTableRecord
  2
Standard
 70
     0
340
11
1001
ACAD_DSTYLE_DIMBREAK
1070
   391
1040
6.349999999999999
  0
ENDTAB
  0
TABLE
  2
BLOCK_RECORD
  5
1
330
0
100
AcDbSymbolTable
 70
    16
  0
BLOCK_RECORD
  5
1F
102
{ACAD_XDICTIONARY
360
349
102
}
330
1
100
AcDbSymbolTableRecord
100
AcDbBlockTableRecord
  2
*Model_Space
340
22
  0
BLOCK_RECORD
  5
1B
330
1
100
AcDbSymbolTableRecord
100
AcDbBlockTableRecord
  2
*Paper_Space
340
1E
  0
BLOCK_RECORD
  5
23
330
1
100
AcDbSymbolTableRecord
100
AcDbBlockTableRecord
  2
*Paper_Space0
340
26
  0
BLOCK_RECORD
  5
235
330
1
100
AcDbSymbolTableRecord
100
AcDbBlockTableRecord
  2
ASSORTED_DRAFT1
340
0
  0
BLOCK_RECORD
  5
243
330
1
100
AcDbSymbolTableRecord
100
AcDbBlockTableRecord
  2
*D2
340
0
  0
BLOCK_RECORD
  5
24F
330
1
100
AcDbSymbolTableRecord
100
AcDbBlockTableRecord
  2
_U0
340
0
  0
BLOCK_RECORD
  5
25B
330
1
100
AcDbSymbolTableRecord
100
AcDbBlockTableRecord
  2
*D4
340
0
  0
BLOCK_RECORD
  5
267
330
1
100
AcDbSymbolTableRecord
100
AcDbBlockTableRecord
  2
_U1
340
0
  0
BLOCK_RECORD
  5
273
330
1
100
AcDbSymbolTableRecord
100
AcDbBlockTableRecord
  2
*D6
340
0
  0
BLOCK_RECORD
  5
27F
330
1
100
AcDbSymbolTableRecord
100
AcDbBlockTableRecord
  2
_U2
340
0
  0
BLOCK_RECORD
  5
28B
330
1
100
AcDbSymbolTableRecord
100
AcDbBlockTableRecord
  2
*D8
340
0
  0
BLOCK_RECORD
  5
297
330
1
100
AcDbSymbolTableRecord
100
AcDbBlockTableRecord
  2
_U3
340
0
  0
BLOCK_RECORD
  5
2A3
330
1
100
AcDbSymbolTableRecord
100
AcDbBlockTableRecord
  2
*D10
340
0
  0
BLOCK_RECORD
  5
2AE
330
1
100
AcDbSymbolTableRecord
100
AcDbBlockTableRecord
  2
_U4
340
0
  0
BLOCK_RECORD
  5
2B9
330
1
100
AcDbSymbolTableRecord
100
AcDbBlockTableRecord
  2
*D12
340
0
  0
BLOCK_RECORD
  5
2C5
330
1
100
AcDbSymbolTableRecord
100
AcDbBlockTableRecord
  2
_U5
340
0
  0
BLOCK_RECORD
  5
2D2
330
1
100
AcDbSymbolTableRecord
100
AcDbBlockTableRecord
  2
*D14
340
0
  0
BLOCK_RECORD
  5
2DE
330
1
100
AcDbSymbolTableRecord
100
AcDbBlockTableRecord
  2
_U6
340
0
  0
ENDTAB
  0
ENDSEC
  0
SECTION
  2
BLOCKS
  0
BLOCK
  5
20
330
1F
100
AcDbEntity
  8
0
100
AcDbBlockBegin
  2
*Model_Space
 70
     0
 10
0.0
 20
0.0
 30
0.0
  3
*Model_Space
  1

  0
ENDBLK
  5
21
330
1F
100
AcDbEntity
  8
0
100
AcDbBlockEnd
  0
BLOCK
  5
1C
330
1B
100
AcDbEntity
 67
     1
  8
0
100
AcDbBlockBegin
  2
*Paper_Space
 70
     0
 10
0.0
 20
0.0
 30
0.0
  3
*Paper_Space
  1

  0
ENDBLK
  5
1D
330
1B
100
AcDbEntity
 67
     1
  8
0
100
AcDbBlockEnd
  0
BLOCK
  5
24
330
23
100
AcDbEntity
 67
     1
  8
0
100
AcDbBlockBegin
  2
*Paper_Space0
 70
     0
 10
0.0
 20
0.0
 30
0.0
  3
*Paper_Space0
  1

  0
ENDBLK
  5
25
330
23
100
AcDbEntity
 67
     1
  8
0
100
AcDbBlockEnd
  0
BLOCK
  5
238
330
235
100
AcDbEntity
  8
0
100
AcDbBlockBegin
  2
ASSORTED_DRAFT1
 70
     0
 10
0.0
 20
0.0
 30
0.0
  3
ASSORTED_DRAFT1
  1

  0
SOLID
  5
236
330
235
100
AcDbEntity
  8
0
 62
   254
370
    13
100
AcDbTrace
 10
270.185042
 20
169.10835
 30
0.0
 11
265.185046
 21
167.999877
 31
0.0
 12
265.1850379999999
 22
170.216823
 32
0.0
 13
270.185042
 23
169.10835
 33
0.0
  0
ENDBLK
  5
239
330
235
100
AcDbEntity
  8
0
100
AcDbBlockEnd
  0
BLOCK
  5
244
330
243
100
AcDbEntity
  8
0
100
AcDbBlockBegin
  2
*D2
 70
     1
 10
0.0
 20
0.0
 30
0.0
  3
*D2
  1

  0
LINE
  5
246
330
243
100
AcDbEntity
  8
0
 62
   254
370
    -2
100
AcDbLine
 10
375.404842
 20
307.907994
 30
0.0
 11
375.404842
 21
328.5109970000001
 31
0.0
  0
LINE
  5
247
330
243
100
AcDbEntity
  8
0
 62
   254
370
    -2
100
AcDbLine
 10
274.404842
 20
288.907994
 30
0.0
 11
274.404842
 21
328.5109970000001
 31
0.0
  0
LINE
  5
248
330
243
100
AcDbEntity
  8
0
 62
   254
370
    -2
100
AcDbLine
 10
371.904842
 20
327.510997
 30
0.0
 11
277.904842
 21
327.510997
 31
0.0
  0
SOLID
  5
249
330
243
100
AcDbEntity
  8
0
 62
   254
100
AcDbTrace
 10
371.904842
 20
326.927663
 30
0.0
 11
371.904842
 21
328.09433
 31
0.0
 12
375.404842
 22
327.510997
 32
0.0
 13
375.404842
 23
327.510997
 33
0.0
  0
SOLID
  5
24A
330
243
100
AcDbEntity
  8
0
 62
   254
100
AcDbTrace
 10
277.904842
 20
328.09433
 30
0.0
 11
277.904842
 21
326.927663
 31
0.0
 12
274.404842
 22
327.510997
 32
0.0
 13
274.404842
 23
327.510997
 33
0.0
  0
MTEXT
  5
24B
330
243
100
AcDbEntity
  8
0
 62
   254
370
    13
100
AcDbMText
 10
324.904842
 20
332.7609970000001
 30
0.0
 40
3.5
 41
0.0
 71
     5
 72
     1
  1
\A1;101
  7
cesky
 73
     1
 44
1.0
  0
POINT
  5
24C
330
243
100
AcDbEntity
  8
Defpoints
 62
     0
100
AcDbPoint
 10
375.404842
 20
307.907994
 30
0.0
  0
POINT
  5
24D
330
243
100
AcDbEntity
  8
Defpoints
 62
     0
100
AcDbPoint
 10
274.404842
 20
288.907994
 30
0.0
  0
POINT
  5
24E
330
243
100
AcDbEntity
  8
Defpoints
 62
     0
100
AcDbPoint
 10
274.404842
 20
327.510997
 30
0.0
  0
ENDBLK
  5
245
330
243
100
AcDbEntity
  8
0
100
AcDbBlockEnd
  0
BLOCK
  5
256
330
24F
100
AcDbEntity
  8
0
100
AcDbBlockBegin
  2
_U0
 70
     0
 10
0.0
 20
0.0
 30
0.0
  3
_U0
  1

  0
ENDBLK
  5
257
330
24F
100
AcDbEntity
  8
0
100
AcDbBlockEnd
  0
BLOCK
  5
25C
330
25B
100
AcDbEntity
  8
0
100
AcDbBlockBegin
  2
*D4
 70
     1
 10
0.0
 20
0.0
 30
0.0
  3
*D4
  1

  0
LINE
  5
25E
330
25B
100
AcDbEntity
  8
0
 62
   254
370
    -2
100
AcDbLine
 10
375.404842
 20
309.907994
 30
0.0
 11
375.404842
 21
341.687968
 31
0.0
  0
LINE
  5
25F
330
25B
100
AcDbEntity
  8
0
 62
   254
370
    -2
100
AcDbLine
 10
214.404842
 20
302.907994
 30
0.0
 11
214.404842
 21
341.687968
 31
0.0
  0
LINE
  5
260
330
25B
100
AcDbEntity
  8
0
 62
   254
370
    -2
100
AcDbLine
 10
371.904842
 20
340.687968
 30
0.0
 11
217.904842
 21
340.687968
 31
0.0
  0
SOLID
  5
261
330
25B
100
AcDbEntity
  8
0
 62
   254
100
AcDbTrace
 10
371.904842
 20
340.104634
 30
0.0
 11
371.904842
 21
341.271301
 31
0.0
 12
375.404842
 22
340.687968
 32
0.0
 13
375.404842
 23
340.687968
 33
0.0
  0
SOLID
  5
262
330
25B
100
AcDbEntity
  8
0
 62
   254
100
AcDbTrace
 10
217.904842
 20
341.271301
 30
0.0
 11
217.904842
 21
340.104634
 31
0.0
 12
214.404842
 22
340.687968
 32
0.0
 13
214.404842
 23
340.687968
 33
0.0
  0
MTEXT
  5
263
330
25B
100
AcDbEntity
  8
0
 62
   254
370
    13
100
AcDbMText
 10
294.904842
 20
345.937968
 30
0.0
 40
3.5
 41
0.0
 71
     5
 72
     1
  1
\A1;161
  7
cesky
 73
     1
 44
1.0
  0
POINT
  5
264
330
25B
100
AcDbEntity
  8
Defpoints
 62
     0
100
AcDbPoint
 10
375.404842
 20
309.907994
 30
0.0
  0
POINT
  5
265
330
25B
100
AcDbEntity
  8
Defpoints
 62
     0
100
AcDbPoint
 10
214.404842
 20
302.907994
 30
0.0
  0
POINT
  5
266
330
25B
100
AcDbEntity
  8
Defpoints
 62
     0
100
AcDbPoint
 10
214.404842
 20
340.687968
 30
0.0
  0
ENDBLK
  5
25D
330
25B
100
AcDbEntity
  8
0
100
AcDbBlockEnd
  0
BLOCK
  5
26E
330
267
100
AcDbEntity
  8
0
100
AcDbBlockBegin
  2
_U1
 70
     0
 10
0.0
 20
0.0
 30
0.0
  3
_U1
  1

  0
ENDBLK
  5
26F
330
267
100
AcDbEntity
  8
0
100
AcDbBlockEnd
  0
BLOCK
  5
274
330
273
100
AcDbEntity
  8
0
100
AcDbBlockBegin
  2
*D6
 70
     1
 10
0.0
 20
0.0
 30
0.0
  3
*D6
  1

  0
LINE
  5
276
330
273
100
AcDbEntity
  8
0
 62
   254
370
    -2
100
AcDbLine
 10
274.404842
 20
288.907994
 30
0.0
 11
274.404842
 21
328.5109970000001
 31
0.0
  0
LINE
  5
277
330
273
100
AcDbEntity
  8
0
 62
   254
370
    -2
100
AcDbLine
 10
214.404842
 20
295.907994
 30
0.0
 11
214.404842
 21
328.5109970000001
 31
0.0
  0
LINE
  5
278
330
273
100
AcDbEntity
  8
0
 62
   254
370
    -2
100
AcDbLine
 10
270.904842
 20
327.510997
 30
0.0
 11
217.904842
 21
327.510997
 31
0.0
  0
SOLID
  5
279
330
273
100
AcDbEntity
  8
0
 62
   254
100
AcDbTrace
 10
270.904842
 20
326.927663
 30
0.0
 11
270.904842
 21
328.09433
 31
0.0
 12
274.404842
 22
327.510997
 32
0.0
 13
274.404842
 23
327.510997
 33
0.0
  0
SOLID
  5
27A
330
273
100
AcDbEntity
  8
0
 62
   254
100
AcDbTrace
 10
217.904842
 20
328.09433
 30
0.0
 11
217.904842
 21
326.927663
 31
0.0
 12
214.404842
 22
327.510997
 32
0.0
 13
214.404842
 23
327.510997
 33
0.0
  0
MTEXT
  5
27B
330
273
100
AcDbEntity
  8
0
 62
   254
370
    13
100
AcDbMText
 10
244.404842
 20
332.7609970000001
 30
0.0
 40
3.5
 41
0.0
 71
     5
 72
     1
  1
\A1;60
  7
cesky
 73
     1
 44
1.0
  0
POINT
  5
27C
330
273
100
AcDbEntity
  8
Defpoints
 62
     0
100
AcDbPoint
 10
274.404842
 20
288.907994
 30
0.0
  0
POINT
  5
27D
330
273
100
AcDbEntity
  8
Defpoints
 62
     0
100
AcDbPoint
 10
214.404842
 20
295.907994
 30
0.0
  0
POINT
  5
27E
330
273
100
AcDbEntity
  8
Defpoints
 62
     0
100
AcDbPoint
 10
214.404842
 20
327.510997
 30
0.0
  0
ENDBLK
  5
275
330
273
100
AcDbEntity
  8
0
100
AcDbBlockEnd
  0
BLOCK
  5
286
330
27F
100
AcDbEntity
  8
0
100
AcDbBlockBegin
  2
_U2
 70
     0
 10
0.0
 20
0.0
 30
0.0
  3
_U2
  1

  0
ENDBLK
  5
287
330
27F
100
AcDbEntity
  8
0
100
AcDbBlockEnd
  0
BLOCK
  5
28C
330
28B
100
AcDbEntity
  8
0
100
AcDbBlockBegin
  2
*D8
 70
     1
 10
0.0
 20
0.0
 30
0.0
  3
*D8
  1

  0
LINE
  5
28E
330
28B
100
AcDbEntity
  8
0
 62
   254
370
    -2
100
AcDbLine
 10
375.404842
 20
307.907994
 30
0.0
 11
375.404842
 21
318.036339
 31
0.0
  0
LINE
  5
28F
330
28B
100
AcDbEntity
  8
0
 62
   254
370
    -2
100
AcDbLine
 10
290.417556
 20
307.6235529999999
 30
0.0
 11
290.417556
 21
318.036339
 31
0.0
  0
LINE
  5
290
330
28B
100
AcDbEntity
  8
0
 62
   254
370
    -2
100
AcDbLine
 10
371.904842
 20
317.036339
 30
0.0
 11
293.917556
 21
317.036339
 31
0.0
  0
SOLID
  5
291
330
28B
100
AcDbEntity
  8
0
 62
   254
100
AcDbTrace
 10
371.904842
 20
316.453006
 30
0.0
 11
371.904842
 21
317.619673
 31
0.0
 12
375.404842
 22
317.036339
 32
0.0
 13
375.404842
 23
317.036339
 33
0.0
  0
SOLID
  5
292
330
28B
100
AcDbEntity
  8
0
 62
   254
100
AcDbTrace
 10
293.917556
 20
317.619673
 30
0.0
 11
293.917556
 21
316.453006
 31
0.0
 12
290.417556
 22
317.036339
 32
0.0
 13
290.417556
 23
317.036339
 33
0.0
  0
MTEXT
  5
293
330
28B
100
AcDbEntity
  8
0
 62
   254
370
    13
100
AcDbMText
 10
332.911199
 20
322.286339
 30
0.0
 40
3.5
 41
0.0
 71
     5
 72
     1
  1
\A1;85
  7
cesky
 73
     1
 44
1.0
  0
POINT
  5
294
330
28B
100
AcDbEntity
  8
Defpoints
 62
     0
100
AcDbPoint
 10
375.404842
 20
307.907994
 30
0.0
  0
POINT
  5
295
330
28B
100
AcDbEntity
  8
Defpoints
 62
     0
100
AcDbPoint
 10
290.417556
 20
307.6235529999999
 30
0.0
  0
POINT
  5
296
330
28B
100
AcDbEntity
  8
Defpoints
 62
     0
100
AcDbPoint
 10
290.417556
 20
317.036339
 30
0.0
  0
ENDBLK
  5
28D
330
28B
100
AcDbEntity
  8
0
100
AcDbBlockEnd
  0
BLOCK
  5
29E
330
297
100
AcDbEntity
  8
0
100
AcDbBlockBegin
  2
_U3
 70
     0
 10
0.0
 20
0.0
 30
0.0
  3
_U3
  1

  0
ENDBLK
  5
29F
330
297
100
AcDbEntity
  8
0
100
AcDbBlockEnd
  0
BLOCK
  5
2A4
330
2A3
100
AcDbEntity
  8
0
100
AcDbBlockBegin
  2
*D10
 70
     1
 10
0.0
 20
0.0
 30
0.0
  3
*D10
  1

  0
LINE
  5
2A6
330
2A3
100
AcDbEntity
  8
0
 62
   254
370
    -2
100
AcDbLine
 10
287.9926240000001
 20
288.907994
 30
0.0
 11
392.754406
 21
288.907994
 31
0.0
  0
LINE
  5
2A7
330
2A3
100
AcDbEntity
  8
0
 62
   254
370
    -2
100
AcDbLine
 10
330.83929
 20
307.907994
 30
0.0
 11
392.754406
 21
307.907994
 31
0.0
  0
LINE
  5
2A8
330
2A3
100
AcDbEntity
  8
0
 62
   254
370
    -2
100
AcDbLine
 10
391.754406
 20
288.907994
 30
0.0
 11
391.754406
 21
307.907994
 31
0.0
  0
SOLID
  5
2A9
330
2A3
100
AcDbEntity
  8
0
 62
   254
100
AcDbTrace
 10
392.337739
 20
304.407994
 30
0.0
 11
391.171072
 21
304.407994
 31
0.0
 12
391.754406
 22
307.907994
 32
0.0
 13
391.754406
 23
307.907994
 33
0.0
  0
MTEXT
  5
2AA
330
2A3
100
AcDbEntity
  8
0
 62
   254
370
    13
100
AcDbMText
 10
386.504406
 20
279.07466
 30
0.0
 40
3.5
 41
0.0
 71
     5
 72
     1
  1
\A1;38
  7
cesky
 11
0.0
 21
1.0
 31
0.0
 73
     1
 44
1.0
  0
POINT
  5
2AB
330
2A3
100
AcDbEntity
  8
Defpoints
 62
     0
100
AcDbPoint
 10
287.9926240000001
 20
288.907994
 30
0.0
  0
POINT
  5
2AC
330
2A3
100
AcDbEntity
  8
Defpoints
 62
     0
100
AcDbPoint
 10
330.83929
 20
307.907994
 30
0.0
  0
POINT
  5
2AD
330
2A3
100
AcDbEntity
  8
Defpoints
 62
     0
100
AcDbPoint
 10
391.754406
 20
307.907994
 30
0.0
  0
ENDBLK
  5
2A5
330
2A3
100
AcDbEntity
  8
0
100
AcDbBlockEnd
  0
BLOCK
  5
2B4
330
2AE
100
AcDbEntity
  8
0
100
AcDbBlockBegin
  2
_U4
 70
     0
 10
0.0
 20
0.0
 30
0.0
  3
_U4
  1

  0
ENDBLK
  5
2B5
330
2AE
100
AcDbEntity
  8
0
100
AcDbBlockEnd
  0
BLOCK
  5
2BA
330
2B9
100
AcDbEntity
  8
0
100
AcDbBlockBegin
  2
*D12
 70
     1
 10
0.0
 20
0.0
 30
0.0
  3
*D12
  1

  0
LINE
  5
2BC
330
2B9
100
AcDbEntity
  8
0
 62
    95
370
    -2
100
AcDbLine
 10
216.404842
 20
304.907994
 30
0.0
 11
203.037875
 21
304.907994
 31
0.0
  0
LINE
  5
2BD
330
2B9
100
AcDbEntity
  8
0
 62
    95
370
    -2
100
AcDbLine
 10
216.404842
 20
272.907994
 30
0.0
 11
203.037875
 21
272.907994
 31
0.0
  0
LINE
  5
2BE
330
2B9
100
AcDbEntity
  8
0
 62
    95
370
    -2
100
AcDbLine
 10
204.037875
 20
301.407994
 30
0.0
 11
204.037875
 21
276.407994
 31
0.0
  0
SOLID
  5
2BF
330
2B9
100
AcDbEntity
  8
0
 62
    95
100
AcDbTrace
 10
204.621208
 20
301.407994
 30
0.0
 11
203.454542
 21
301.407994
 31
0.0
 12
204.037875
 22
304.907994
 32
0.0
 13
204.037875
 23
304.907994
 33
0.0
  0
SOLID
  5
2C0
330
2B9
100
AcDbEntity
  8
0
 62
    95
100
AcDbTrace
 10
203.454542
 20
276.407994
 30
0.0
 11
204.621208
 21
276.407994
 31
0.0
 12
204.037875
 22
272.907994
 32
0.0
 13
204.037875
 23
272.907994
 33
0.0
  0
MTEXT
  5
2C1
330
2B9
100
AcDbEntity
  8
0
 62
    95
370
    13
100
AcDbMText
 10
198.787875
 20
288.907994
 30
0.0
 40
3.5
 41
0.0
 71
     5
 72
     1
  1
\A1;32
  7
cesky
 11
0.0
 21
1.0
 31
0.0
 73
     1
 44
1.0
  0
POINT
  5
2C2
330
2B9
100
AcDbEntity
  8
Defpoints
 62
     0
100
AcDbPoint
 10
216.404842
 20
304.907994
 30
0.0
  0
POINT
  5
2C3
330
2B9
100
AcDbEntity
  8
Defpoints
 62
     0
100
AcDbPoint
 10
216.404842
 20
272.907994
 30
0.0
  0
POINT
  5
2C4
330
2B9
100
AcDbEntity
  8
Defpoints
 62
     0
100
AcDbPoint
 10
204.037875
 20
272.907994
 30
0.0
  0
ENDBLK
  5
2BB
330
2B9
100
AcDbEntity
  8
0
100
AcDbBlockEnd
  0
BLOCK
  5
2CD
330
2C5
100
AcDbEntity
  8
0
100
AcDbBlockBegin
  2
_U5
 70
     0
 10
0.0
 20
0.0
 30
0.0
  3
_U5
  1

  0
ENDBLK
  5
2CE
330
2C5
100
AcDbEntity
  8
0
100
AcDbBlockEnd
  0
BLOCK
  5
2D3
330
2D2
100
AcDbEntity
  8
0
100
AcDbBlockBegin
  2
*D14
 70
     1
 10
0.0
 20
0.0
 30
0.0
  3
*D14
  1

  0
LINE
  5
2D5
330
2D2
100
AcDbEntity
  8
0
 62
    95
370
    -2
100
AcDbLine
 10
277.154842
 20
309.907994
 30
0.0
 11
190.287987
 21
309.907994
 31
0.0
  0
LINE
  5
2D6
330
2D2
100
AcDbEntity
  8
0
 62
    95
370
    -2
100
AcDbLine
 10
277.154842
 20
267.907994
 30
0.0
 11
190.287987
 21
267.907994
 31
0.0
  0
LINE
  5
2D7
330
2D2
100
AcDbEntity
  8
0
 62
    95
370
    -2
100
AcDbLine
 10
191.287987
 20
306.407994
 30
0.0
 11
191.287987
 21
271.407994
 31
0.0
  0
SOLID
  5
2D8
330
2D2
100
AcDbEntity
  8
0
 62
    95
100
AcDbTrace
 10
191.87132
 20
306.407994
 30
0.0
 11
190.704653
 21
306.407994
 31
0.0
 12
191.287987
 22
309.907994
 32
0.0
 13
191.287987
 23
309.907994
 33
0.0
  0
SOLID
  5
2D9
330
2D2
100
AcDbEntity
  8
0
 62
    95
100
AcDbTrace
 10
190.704653
 20
271.407994
 30
0.0
 11
191.87132
 21
271.407994
 31
0.0
 12
191.287987
 22
267.907994
 32
0.0
 13
191.287987
 23
267.907994
 33
0.0
  0
MTEXT
  5
2DA
330
2D2
100
AcDbEntity
  8
0
 62
    95
370
    13
100
AcDbMText
 10
186.037987
 20
288.907994
 30
0.0
 40
3.5
 41
0.0
 71
     5
 72
     1
  1
\A1;42
  7
cesky
 11
0.0
 21
1.0
 31
0.0
 73
     1
 44
1.0
  0
POINT
  5
2DB
330
2D2
100
AcDbEntity
  8
Defpoints
 62
     0
100
AcDbPoint
 10
277.154842
 20
309.907994
 30
0.0
  0
POINT
  5
2DC
330
2D2
100
AcDbEntity
  8
Defpoints
 62
     0
100
AcDbPoint
 10
277.154842
 20
267.907994
 30
0.0
  0
POINT
  5
2DD
330
2D2
100
AcDbEntity
  8
Defpoints
 62
     0
100
AcDbPoint
 10
191.287987
 20
267.907994
 30
0.0
  0
ENDBLK
  5
2D4
330
2D2
100
AcDbEntity
  8
0
100
AcDbBlockEnd
  0
BLOCK
  5
2E6
330
2DE
100
AcDbEntity
  8
0
100
AcDbBlockBegin
  2
_U6
 70
     0
 10
0.0
 20
0.0
 30
0.0
  3
_U6
  1

  0
ENDBLK
  5
2E7
330
2DE
100
AcDbEntity
  8
0
100
AcDbBlockEnd
  0
ENDSEC
  0
SECTION
  2
ENTITIES
  0
POINT
  5
73
102
{ACAD_REACTORS
330
393
102
}
330
1F
100
AcDbEntity
  8
80
100
AcDbPoint
 10
274.404842
 20
288.907994
 30
0.0
  0
POINT
  5
76
330
1F
100
AcDbEntity
  8
SK4
 60
     1
100
AcDbPoint
 10
216.404842
 20
288.907994
 30
0.0
  0
POINT
  5
78
330
1F
100
AcDbEntity
  8
SK4
 60
     1
100
AcDbPoint
 10
274.404842
 20
288.907994
 30
0.0
  0
POINT
  5
79
330
1F
100
AcDbEntity
  8
4
 60
     1
100
AcDbPoint
 10
287.9926240000001
 20
288.907994
 30
0.0
  0
POINT
  5
7A
330
1F
100
AcDbEntity
  8
4
 60
     1
100
AcDbPoint
 10
373.952963
 20
288.907994
 30
0.0
  0
POINT
  5
7B
330
1F
100
AcDbEntity
  8
SK6
 60
     1
100
AcDbPoint
 10
274.404842
 20
288.907994
 30
0.0
  0
POINT
  5
7C
330
1F
100
AcDbEntity
  8
SK6
 60
     1
100
AcDbPoint
 10
290.417556
 20
307.6235529999999
 30
0.0
  0
LINE
  5
7D
330
1F
100
AcDbEntity
  8
1
100
AcDbLine
 10
274.404842
 20
309.407994
 30
0.0
 11
274.404842
 21
288.907994
 31
0.0
  0
LINE
  5
7F
330
1F
100
AcDbEntity
  8
1
100
AcDbLine
 10
274.404842
 20
288.907994
 30
0.0
 11
274.404842
 21
268.407994
 31
0.0
  0
LINE
  5
80
330
1F
100
AcDbEntity
  8
1
100
AcDbLine
 10
366.677577
 20
301.288685
 30
0.0
 11
366.713068
 21
301.389306
 31
0.0
  0
LINE
  5
82
330
1F
100
AcDbEntity
  8
1
100
AcDbLine
 10
369.265332
 20
300.939248
 30
0.0
 11
369.229841
 21
300.838627
 31
0.0
  0
LINE
  5
83
330
1F
100
AcDbEntity
  8
80
100
AcDbLine
 10
274.404842
 20
287.90842
 30
0.0
 11
274.404842
 21
289.907567
 31
0.0
  0
LINE
  5
84
330
1F
100
AcDbEntity
  8
81
100
AcDbLine
 10
375.404842
 20
309.907994
 30
0.0
 11
375.404842
 21
305.907994
 31
0.0
  0
LINE
  5
85
330
1F
100
AcDbEntity
  8
81
100
AcDbLine
 10
373.404842
 20
307.907994
 30
0.0
 11
377.404842
 21
307.907994
 31
0.0
  0
LINE
  5
86
330
1F
100
AcDbEntity
  8
SK1
100
AcDbLine
 10
216.404842
 20
272.907994
 30
0.0
 11
274.404842
 21
272.907994
 31
0.0
  0
LINE
  5
87
330
1F
100
AcDbEntity
  8
1
100
AcDbLine
 10
274.904842
 20
267.907994
 30
0.0
 11
279.404842
 21
267.907994
 31
0.0
  0
LINE
  5
88
330
1F
100
AcDbEntity
  8
1
100
AcDbLine
 10
373.971745
 20
279.764592
 30
0.0
 11
373.28262
 21
279.3826029999999
 31
0.0
  0
LINE
  5
8A
330
1F
100
AcDbEntity
  8
1
100
AcDbLine
 10
374.570267
 20
280.684096
 30
0.0
 11
374.0814
 21
279.870484
 31
0.0
  0
LINE
  5
8B
330
1F
100
AcDbEntity
  8
1
100
AcDbLine
 10
374.734349
 20
287.823649
 30
0.0
 11
374.612285
 21
280.830629
 31
0.0
  0
LINE
  5
8C
330
1F
100
AcDbEntity
  8
1
100
AcDbLine
 10
361.984832
 20
295.491538
 30
0.0
 11
361.586246
 21
306.618123
 31
0.0
  0
LINE
  5
8D
330
1F
100
AcDbEntity
  8
1
100
AcDbLine
 10
363.469033
 20
305.599352
 30
0.0
 11
372.461908
 21
305.913063
 31
0.0
  0
LINE
  5
8E
330
1F
100
AcDbEntity
  8
1
100
AcDbLine
 10
363.790848
 20
296.615839
 30
0.0
 11
363.469033
 21
305.599352
 31
0.0
  0
LINE
  5
8F
330
1F
100
AcDbEntity
  8
1
100
AcDbLine
 10
372.783722
 20
296.92955
 30
0.0
 11
363.790848
 21
296.615839
 31
0.0
  0
LINE
  5
90
330
1F
100
AcDbEntity
  8
1
100
AcDbLine
 10
372.461908
 20
305.913063
 30
0.0
 11
372.783722
 21
296.92955
 31
0.0
  0
LINE
  5
91
330
1F
100
AcDbEntity
  8
1
100
AcDbLine
 10
362.334364
 20
307.420264
 30
0.0
 11
373.4725430000001
 21
307.808813
 31
0.0
  0
LINE
  5
92
330
1F
100
AcDbEntity
  8
1
100
AcDbLine
 10
374.276191
 20
307.060804
 30
0.0
 11
374.674777
 21
295.934219
 31
0.0
  0
LINE
  5
93
330
1F
100
AcDbEntity
  8
1
100
AcDbLine
 10
373.926659
 20
295.132077
 30
0.0
 11
362.78848
 21
294.743528
 31
0.0
  0
LINE
  5
94
330
1F
100
AcDbEntity
  8
1
100
AcDbLine
 10
279.404842
 20
267.907994
 30
0.0
 11
279.404842
 21
269.008217
 31
0.0
  0
LINE
  5
95
330
1F
100
AcDbEntity
  8
1
100
AcDbLine
 10
279.404842
 20
309.907994
 30
0.0
 11
279.404842
 21
277.355505
 31
0.0
  0
LINE
  5
96
330
1F
100
AcDbEntity
  8
1
100
AcDbLine
 10
371.783817
 20
283.153494
 30
0.0
 11
372.331451
 21
283.153494
 31
0.0
  0
LINE
  5
97
330
1F
100
AcDbEntity
  8
1
100
AcDbLine
 10
361.877531
 20
307.245895
 30
0.0
 11
361.87224
 21
307.399842
 31
0.0
  0
LINE
  5
98
330
1F
100
AcDbEntity
  8
1
100
AcDbLine
 10
365.344016
 20
294.627909
 30
0.0
 11
374.061409
 21
294.932011
 31
0.0
  0
LINE
  5
99
330
1F
100
AcDbEntity
  8
1
100
AcDbLine
 10
374.062569
 20
294.764856
 30
0.0
 11
374.061409
 21
294.932011
 31
0.0
  0
LINE
  5
9A
330
1F
100
AcDbEntity
  8
1
100
AcDbLine
 10
373.986649
 20
294.234807
 30
0.0
 11
363.293071
 21
293.8617680000001
 31
0.0
  0
LINE
  5
9B
330
1F
100
AcDbEntity
  8
1
100
AcDbLine
 10
373.986649
 20
294.234807
 30
0.0
 11
371.663139
 21
290.385284
 31
0.0
  0
LINE
  5
9C
330
1F
100
AcDbEntity
  8
1
100
AcDbLine
 10
374.103414
 20
294.948128
 30
0.0
 11
365.349249
 21
294.642744
 31
0.0
  0
LINE
  5
9D
330
1F
100
AcDbEntity
  8
1
100
AcDbLine
 10
365.344016
 20
294.627909
 30
0.0
 11
365.349249
 21
294.642744
 31
0.0
  0
LINE
  5
9E
330
1F
100
AcDbEntity
  8
1
100
AcDbLine
 10
361.607708
 20
306.811265
 30
0.0
 11
361.58922
 21
307.349261
 31
0.0
  0
LINE
  5
9F
330
1F
100
AcDbEntity
  8
1
100
AcDbLine
 10
361.685225
 20
298.027225
 30
0.0
 11
361.679992
 21
298.01239
 31
0.0
  0
LINE
  5
A0
330
1F
100
AcDbEntity
  8
1
100
AcDbLine
 10
361.685225
 20
298.027225
 30
0.0
 11
361.3648560000001
 21
307.349572
 31
0.0
  0
LINE
  5
A1
330
1F
100
AcDbEntity
  8
1
100
AcDbLine
 10
361.360016
 20
307.323308
 30
0.0
 11
361.679992
 21
298.01239
 31
0.0
  0
LINE
  5
A2
330
1F
100
AcDbEntity
  8
1
100
AcDbLine
 10
374.103414
 20
294.948128
 30
0.0
 11
374.101858
 21
295.172205
 31
0.0
  0
LINE
  5
A3
330
1F
100
AcDbEntity
  8
1
100
AcDbLine
 10
374.103414
 20
294.948128
 30
0.0
 11
374.061409
 21
294.932011
 31
0.0
  0
LINE
  5
A4
330
1F
100
AcDbEntity
  8
1
100
AcDbLine
 10
373.733793
 20
278.244289
 30
0.0
 11
373.691702
 21
278.244963
 31
0.0
  0
LINE
  5
A5
330
1F
100
AcDbEntity
  8
1
100
AcDbLine
 10
373.475194
 20
278.876144
 30
0.0
 11
373.299424
 21
278.878956
 31
0.0
  0
LINE
  5
A6
330
1F
100
AcDbEntity
  8
1
100
AcDbLine
 10
372.943294
 20
283.153494
 30
0.0
 11
373.682841
 21
283.153494
 31
0.0
  0
LINE
  5
A7
330
1F
100
AcDbEntity
  8
1
100
AcDbLine
 10
373.753111
 20
289.670876
 30
0.0
 11
373.92918
 21
289.667803
 31
0.0
  0
LINE
  5
A8
330
1F
100
AcDbEntity
  8
1
100
AcDbLine
 10
374.21268
 20
290.290586
 30
0.0
 11
374.254842
 21
290.28985
 31
0.0
  0
LINE
  5
A9
330
1F
100
AcDbEntity
  8
1
100
AcDbLine
 10
373.986649
 20
294.234807
 30
0.0
 11
373.996029
 21
294.238407
 31
0.0
  0
LINE
  5
AA
330
1F
100
AcDbEntity
  8
1
100
AcDbLine
 10
373.282258
 20
279.379295
 30
0.0
 11
373.682841
 21
283.153494
 31
0.0
  0
LINE
  5
AB
330
1F
100
AcDbEntity
  8
1
100
AcDbLine
 10
373.682841
 20
283.153494
 30
0.0
 11
373.682841
 21
289.1720259999999
 31
0.0
  0
LINE
  5
AC
330
1F
100
AcDbEntity
  8
1
100
AcDbLine
 10
373.716984
 20
278.483163
 30
0.0
 11
373.475194
 21
278.876144
 31
0.0
  0
LINE
  5
AD
330
1F
100
AcDbEntity
  8
1
100
AcDbLine
 10
373.716984
 20
278.483163
 30
0.0
 11
373.691702
 21
278.244963
 31
0.0
  0
LINE
  5
AE
330
1F
100
AcDbEntity
  8
1
100
AcDbLine
 10
373.92918
 20
289.667803
 30
0.0
 11
374.21268
 21
290.051976
 31
0.0
  0
LINE
  5
AF
330
1F
100
AcDbEntity
  8
1
100
AcDbLine
 10
374.21268
 20
290.290586
 30
0.0
 11
374.21268
 21
290.051976
 31
0.0
  0
LINE
  5
B0
330
1F
100
AcDbEntity
  8
1
100
AcDbLine
 10
372.902071
 20
270.407994
 30
0.0
 11
373.733793
 21
278.244289
 31
0.0
  0
LINE
  5
B1
330
1F
100
AcDbEntity
  8
1
100
AcDbLine
 10
372.902071
 20
270.407994
 30
0.0
 11
356.649641
 21
270.407994
 31
0.0
  0
LINE
  5
B2
330
1F
100
AcDbEntity
  8
1
100
AcDbLine
 10
374.254842
 20
295.229938
 30
0.0
 11
374.254842
 21
290.28985
 31
0.0
  0
LINE
  5
B3
330
1F
100
AcDbEntity
  8
1
100
AcDbLine
 10
274.904842
 20
267.907994
 30
0.0
 11
274.904842
 21
288.907994
 31
0.0
  0
LINE
  5
B4
330
1F
100
AcDbEntity
  8
1
100
AcDbLine
 10
274.904842
 20
288.907994
 30
0.0
 11
274.904842
 21
309.907994
 31
0.0
  0
LINE
  5
B5
330
1F
100
AcDbEntity
  8
1
100
AcDbLine
 10
364.584867
 20
302.335304
 30
0.0
 11
364.568737
 21
302.289574
 31
0.0
  0
LINE
  5
B6
330
1F
100
AcDbEntity
  8
1
100
AcDbLine
 10
371.358747
 20
299.894628
 30
0.0
 11
371.374877
 21
299.940358
 31
0.0
  0
LINE
  5
B7
330
1F
100
AcDbEntity
  8
1
100
AcDbLine
 10
367.251706
 20
299.744904
 30
0.0
 11
367.285989
 21
299.842102
 31
0.0
  0
LINE
  5
B8
330
1F
100
AcDbEntity
  8
1
100
AcDbLine
 10
368.047474
 20
299.688882
 30
0.0
 11
368.01306
 21
299.591314
 31
0.0
  0
LINE
  5
B9
330
1F
100
AcDbEntity
  8
1
100
AcDbLine
 10
367.894359
 20
302.535998
 30
0.0
 11
367.928773
 21
302.633567
 31
0.0
  0
LINE
  5
BA
330
1F
100
AcDbEntity
  8
1
100
AcDbLine
 10
368.671759
 20
302.427904
 30
0.0
 11
368.655712
 21
302.382408
 31
0.0
  0
LINE
  5
BB
330
1F
100
AcDbEntity
  8
SK1
100
AcDbLine
 10
274.404842
 20
304.907994
 30
0.0
 11
216.404842
 21
304.907994
 31
0.0
  0
LINE
  5
BC
330
1F
100
AcDbEntity
  8
1
100
AcDbLine
 10
274.904842
 20
267.907994
 30
0.0
 11
274.404842
 21
268.407994
 31
0.0
  0
LINE
  5
BD
330
1F
100
AcDbEntity
  8
1
100
AcDbLine
 10
274.404842
 20
309.407994
 30
0.0
 11
274.904842
 21
309.907994
 31
0.0
  0
LINE
  5
BE
330
1F
100
AcDbEntity
  8
1
100
AcDbLine
 10
279.404842
 20
309.907994
 30
0.0
 11
274.904842
 21
309.907994
 31
0.0
  0
LINE
  5
C3
330
1F
100
AcDbEntity
  8
80
100
AcDbLine
 10
275.404416
 20
288.907994
 30
0.0
 11
273.405268
 21
288.907994
 31
0.0
  0
LINE
  5
C4
330
1F
100
AcDbEntity
  8
1
100
AcDbLine
 10
366.611752
 20
301.912201
 30
0.0
 11
366.577925
 21
301.816297
 31
0.0
  0
LINE
  5
C5
330
1F
100
AcDbEntity
  8
1
100
AcDbLine
 10
366.676883
 20
301.852561
 30
0.0
 11
366.642506
 21
301.755098
 31
0.0
  0
LINE
  5
C6
330
1F
100
AcDbEntity
  8
1
100
AcDbLine
 10
369.432899
 20
301.110432
 30
0.0
 11
369.467291
 21
301.2079359999999
 31
0.0
  0
LINE
  5
C7
330
1F
100
AcDbEntity
  8
1
100
AcDbLine
 10
366.72569
 20
300.37025
 30
0.0
 11
366.691367
 21
300.272942
 31
0.0
  0
LINE
  5
C8
330
1F
100
AcDbEntity
  8
1
100
AcDbLine
 10
366.682378
 20
300.349689
 30
0.0
 11
366.648356
 21
300.25323
 31
0.0
  0
LINE
  5
C9
330
1F
100
AcDbEntity
  8
1
100
AcDbLine
 10
368.741394
 20
299.801526
 30
0.0
 11
368.7757299999999
 21
299.898875
 31
0.0
  0
LINE
  5
CA
330
1F
100
AcDbEntity
  8
1
100
AcDbLine
 10
368.778965
 20
299.758573
 30
0.0
 11
368.81294
 21
299.854896
 31
0.0
  0
LINE
  5
CB
330
1F
100
AcDbEntity
  8
1
100
AcDbLine
 10
374.682658
 20
289.337775
 30
0.0
 11
374.190758
 21
288.862752
 31
0.0
  0
LINE
  5
CC
330
1F
100
AcDbEntity
  8
1
100
AcDbLine
 10
373.708098
 20
288.396653
 30
0.0
 11
374.190758
 21
288.862752
 31
0.0
  0
LINE
  5
CD
330
1F
100
AcDbEntity
  8
1
100
AcDbLine
 10
375.388062
 20
288.06519
 30
0.0
 11
374.724553
 21
287.8997589999999
 31
0.0
  0
LINE
  5
CE
330
1F
100
AcDbEntity
  8
1
100
AcDbLine
 10
374.073508
 20
287.737435
 30
0.0
 11
374.724553
 21
287.8997589999999
 31
0.0
  0
LINE
  5
CF
330
1F
100
AcDbEntity
  8
1
100
AcDbLine
 10
374.59984
 20
280.754907
 30
0.0
 11
373.954856
 21
280.939853
 31
0.0
  0
LINE
  5
D0
330
1F
100
AcDbEntity
  8
1
100
AcDbLine
 10
374.59984
 20
280.754907
 30
0.0
 11
375.264067
 21
280.564443
 31
0.0
  0
LINE
  5
D1
330
1F
100
AcDbEntity
  8
1
100
AcDbLine
 10
374.032761
 20
279.81113
 30
0.0
 11
373.566662
 21
280.293789
 31
0.0
  0
LINE
  5
D2
330
1F
100
AcDbEntity
  8
1
100
AcDbLine
 10
374.507783
 20
279.31923
 30
0.0
 11
374.032761
 21
279.81113
 31
0.0
  0
LINE
  5
D3
330
1F
100
AcDbEntity
  8
1
100
AcDbLine
 10
359.787525
 20
291.517487
 30
0.0
 11
359.82342
 21
290.468356
 31
0.0
  0
LINE
  5
D4
330
1F
100
AcDbEntity
  8
1
100
AcDbLine
 10
372.515248
 20
294.211171
 30
0.0
 11
363.285239
 21
293.889188
 31
0.0
  0
LINE
  5
D5
330
1F
100
AcDbEntity
  8
1
100
AcDbLine
 10
364.584867
 20
302.335304
 30
0.0
 11
364.584759
 21
302.334996
 31
0.0
  0
LINE
  5
D6
330
1F
100
AcDbEntity
  8
1
100
AcDbLine
 10
373.682861
 20
289.180902
 30
0.0
 11
374.131403
 21
288.911391
 31
0.0
  0
LINE
  5
D7
330
1F
100
AcDbEntity
  8
1
100
AcDbLine
 10
373.727819
 20
288.369925
 30
0.0
 11
374.061292
 21
287.768323
 31
0.0
  0
LINE
  5
D8
330
1F
100
AcDbEntity
  8
1
100
AcDbLine
 10
373.587303
 20
280.319813
 30
0.0
 11
373.941569
 21
280.90941
 31
0.0
  0
LINE
  5
D9
330
1F
100
AcDbEntity
  8
1
100
AcDbLine
 10
373.95972
 20
280.972711
 30
0.0
 11
374.077223
 21
287.704428
 31
0.0
  0
LINE
  5
DA
330
1F
100
AcDbEntity
  8
1
100
AcDbLine
 10
375.359382
 20
288.136592
 30
0.0
 11
374.728011
 21
289.275615
 31
0.0
  0
LINE
  5
DB
330
1F
100
AcDbEntity
  8
1
100
AcDbLine
 10
374.556683
 20
279.378314
 30
0.0
 11
374.67449
 21
279.563751
 31
0.0
  0
LINE
  5
DC
330
1F
100
AcDbEntity
  8
1
100
AcDbLine
 10
375.233406
 20
280.493944
 30
0.0
 11
374.67449
 21
279.563751
 31
0.0
  0
LINE
  5
DD
330
1F
100
AcDbEntity
  8
1
100
AcDbLine
 10
374.623573
 20
289.386675
 30
0.0
 11
374.438136
 21
289.504481
 31
0.0
  0
LINE
  5
DE
330
1F
100
AcDbEntity
  8
1
100
AcDbLine
 10
374.002021
 20
289.766525
 30
0.0
 11
374.438136
 21
289.504481
 31
0.0
  0
LINE
  5
DF
330
1F
100
AcDbEntity
  8
1
100
AcDbLine
 10
375.399861
 20
287.769483
 30
0.0
 11
375.2754240000001
 21
280.640477
 31
0.0
  0
LINE
  5
E0
330
1F
100
AcDbEntity
  8
1
100
AcDbLine
 10
375.399861
 20
287.769483
 30
0.0
 11
375.3982220000001
 21
287.989171
 31
0.0
  0
LINE
  5
E1
330
1F
100
AcDbEntity
  8
1
100
AcDbLine
 10
373.539513
 20
278.771611
 30
0.0
 11
374.445624
 21
279.273876
 31
0.0
  0
LINE
  5
E2
330
1F
100
AcDbEntity
  8
1
100
AcDbLine
 10
374.237296
 20
288.801736
 30
0.0
 11
374.69747
 21
287.971559
 31
0.0
  0
LINE
  5
E3
330
1F
100
AcDbEntity
  8
1
100
AcDbLine
 10
373.367048
 20
280.178237
 30
0.0
 11
373.539934
 21
280.274069
 31
0.0
  0
LINE
  5
E4
330
1F
100
AcDbEntity
  8
1
100
AcDbLine
 10
287.9926240000001
 20
270.407994
 30
0.0
 11
288.361307
 21
270.407994
 31
0.0
  0
LINE
  5
E5
330
1F
100
AcDbEntity
  8
1
100
AcDbLine
 10
361.794781
 20
307.407994
 30
0.0
 11
357.731165
 21
307.407994
 31
0.0
  0
LINE
  5
E6
330
1F
100
AcDbEntity
  8
SK1
100
AcDbLine
 10
216.404842
 20
304.907994
 30
0.0
 11
216.404842
 21
272.907994
 31
0.0
  0
LINE
  5
E7
330
1F
100
AcDbEntity
  8
SK1
100
AcDbLine
 10
214.404842
 20
302.907994
 30
0.0
 11
214.404842
 21
274.907994
 31
0.0
  0
LINE
  5
E8
330
1F
100
AcDbEntity
  8
SK1
100
AcDbLine
 10
214.404842
 20
274.907994
 30
0.0
 11
216.404842
 21
272.907994
 31
0.0
  0
LINE
  5
E9
330
1F
100
AcDbEntity
  8
SK1
100
AcDbLine
 10
216.404842
 20
304.907994
 30
0.0
 11
214.404842
 21
302.907994
 31
0.0
  0
LINE
  5
EA
330
1F
100
AcDbEntity
  8
1
100
AcDbLine
 10
291.194732
 20
307.407994
 30
0.0
 11
287.9926240000001
 21
307.407994
 31
0.0
  0
LINE
  5
141
330
1F
100
AcDbEntity
  8
NOCUT
100
AcDbLine
 10
274.404842
 20
304.907994
 30
0.0
 11
216.404842
 21
304.907994
 31
0.0
  0
LINE
  5
142
330
1F
100
AcDbEntity
  8
NOCUT
100
AcDbLine
 10
279.404842
 20
309.907994
 30
0.0
 11
274.904842
 21
309.907994
 31
0.0
  0
LINE
  5
143
330
1F
100
AcDbEntity
  8
NOCUT
100
AcDbLine
 10
287.9926240000001
 20
307.407994
 30
0.0
 11
373.834601
 21
307.407994
 31
0.0
  0
LINE
  5
144
330
1F
100
AcDbEntity
  8
NOCUT
100
AcDbLine
 10
274.404842
 20
304.907994
 30
0.0
 11
274.404842
 21
309.407994
 31
0.0
  0
LINE
  5
145
330
1F
100
AcDbEntity
  8
NOCUT
100
AcDbLine
 10
274.404842
 20
309.407994
 30
0.0
 11
274.904842
 21
309.907994
 31
0.0
  0
LINE
  5
146
330
1F
100
AcDbEntity
  8
NOCUT
100
AcDbLine
 10
374.254842
 20
288.907994
 30
0.0
 11
214.404842
 21
288.907994
 31
0.0
  0
LINE
  5
147
330
1F
100
AcDbEntity
  8
NOCUT
100
AcDbLine
 10
373.834601
 20
307.407994
 30
0.0
 11
374.254842
 21
295.477222
 31
0.0
  0
LINE
  5
148
330
1F
100
AcDbEntity
  8
NOCUT
100
AcDbLine
 10
374.254842
 20
295.477222
 30
0.0
 11
374.254842
 21
288.907994
 31
0.0
  0
LINE
  5
149
330
1F
100
AcDbEntity
  8
NOCUT
100
AcDbLine
 10
214.404842
 20
302.907994
 30
0.0
 11
214.404842
 21
288.907994
 31
0.0
  0
LINE
  5
14A
330
1F
100
AcDbEntity
  8
NOCUT
100
AcDbLine
 10
214.404842
 20
302.907994
 30
0.0
 11
216.404842
 21
304.907994
 31
0.0
  0
ARC
  5
153
330
1F
100
AcDbEntity
  8
1
100
AcDbCircle
 10
369.418941
 20
284.5888799999999
 30
0.0
 40
1.75
100
AcDbArc
 50
75.0
 51
345.0
  0
CIRCLE
  5
154
330
1F
100
AcDbEntity
  8
1
100
AcDbCircle
 10
369.418941
 20
284.5888799999999
 30
0.0
 40
1.35
  0
ARC
  5
155
330
1F
100
AcDbEntity
  8
1
100
AcDbCircle
 10
287.9926240000001
 20
254.407994
 30
0.0
 40
16.0
100
AcDbArc
 50
90.0
 51
122.461745
  0
ARC
  5
156
330
1F
100
AcDbEntity
  8
1
100
AcDbCircle
 10
287.9926240000001
 20
323.407994
 30
0.0
 40
16.0
100
AcDbArc
 50
237.538255
 51
270.0
  0
ARC
  5
162
330
1F
100
AcDbEntity
  8
NOCUT
100
AcDbCircle
 10
287.9926240000001
 20
323.407994
 30
0.0
 40
16.0
100
AcDbArc
 50
237.538255
 51
270.0
  0
ELLIPSE
  5
163
330
1F
100
AcDbEntity
  8
1
100
AcDbEllipse
 10
301.401313
 20
265.225232
 30
0.0
 11
-25.9746508170617
 21
5.466412662277409
 31
0.0
210
0.0
220
0.0
230
1.0
 40
0.6740610000000001
 41
5.91030348740939
 42
6.14254700026369
  0
ELLIPSE
  5
164
330
1F
100
AcDbEntity
  8
1
100
AcDbEllipse
 10
373.779035
 20
280.07387
 30
0.0
 11
0.2247748200966677
 21
-0.2880776714296261
 31
0.0
210
0.0
220
0.0
230
1.0
 40
0.8188099999999998
 41
6.154745496638525
 42
6.301650808594665
  0
ELLIPSE
  5
165
330
1F
100
AcDbEntity
  8
1
100
AcDbEllipse
 10
373.779035
 20
280.07387
 30
0.0
 11
0.2800576561084553
 21
-0.2346916603532345
 31
0.0
210
0.0
220
0.0
230
0.9999999999999998
 40
0.81881
 41
6.264719805241911
 42
6.411625116742422
  0
ELLIPSE
  5
166
330
1F
100
AcDbEntity
  8
1
100
AcDbEllipse
 10
374.248736
 20
280.855584
 30
0.0
 11
0.3386995443124493
 21
-0.1370951741519667
 31
0.0
210
0.0
220
0.0
230
0.9999999999999998
 40
0.81881
 41
6.15474549906299
 42
6.301650810036343
  0
ELLIPSE
  5
167
330
1F
100
AcDbEntity
  8
1
100
AcDbEllipse
 10
374.248736
 20
280.855584
 30
0.0
 11
0.3598828600160606
 21
-0.0632201114598339
 31
0.0
210
0.0
220
0.0
230
1.0
 40
0.8188100000000002
 41
6.264719809735297
 42
6.411625124200107
  0
ELLIPSE
  5
168
330
1F
100
AcDbEntity
  8
1
100
AcDbEllipse
 10
374.37015
 20
287.811396
 30
0.0
 11
0.3618699859505737
 21
0.050621868468938
 31
0.0
210
0.0
220
0.0
230
1.0
 40
0.8188099999999998
 41
6.154745494148842
 42
6.301650807269549
  0
ELLIPSE
  5
169
330
1F
100
AcDbEntity
  8
1
100
AcDbEllipse
 10
368.129256
 20
301.27261
 30
0.0
 11
3.588083700633127
 21
-1.265575189707762
 31
0.0
210
0.0
220
0.0
230
1.0
 40
0.9986239999999998
 41
1.945227451328571
 42
3.745261875445963
  0
ELLIPSE
  5
16A
330
1F
100
AcDbEntity
  8
1
100
AcDbEllipse
 10
368.129256
 20
301.27261
 30
0.0
 11
3.588083700633127
 21
-1.265575189707762
 31
0.0
210
0.0
220
0.0
230
1.0
 40
0.9986239999999998
 41
4.87456638589928
 42
6.283185307179585
  0
ELLIPSE
  5
16B
330
1F
100
AcDbEntity
  8
1
100
AcDbEllipse
 10
368.129256
 20
301.27261
 30
0.0
 11
3.588083700633127
 21
-1.265575189707762
 31
0.0
210
0.0
220
0.0
230
1.0
 40
0.9986239999999998
 41
0.0
 42
1.945227440221053
  0
ELLIPSE
  5
16C
330
1F
100
AcDbEntity
  8
1
100
AcDbEllipse
 10
368.149052
 20
301.328736
 30
0.0
 11
3.531988007444661
 21
-1.245789330883942
 31
0.0
210
0.0
220
0.0
230
0.9999999999999998
 40
0.9986239999999998
 41
1.94522755203838
 42
3.356097206659879
  0
ELLIPSE
  5
16D
330
1F
100
AcDbEntity
  8
1
100
AcDbEllipse
 10
368.149052
 20
301.328736
 30
0.0
 11
3.531988007444661
 21
-1.245789330883942
 31
0.0
210
0.0
220
0.0
230
0.9999999999999998
 40
0.9986239999999998
 41
5.419043491545757
 42
6.283185307179585
  0
ELLIPSE
  5
16E
330
1F
100
AcDbEntity
  8
1
100
AcDbEllipse
 10
368.149052
 20
301.328736
 30
0.0
 11
3.531988007444661
 21
-1.245789330883942
 31
0.0
210
0.0
220
0.0
230
0.9999999999999998
 40
0.9986239999999998
 41
0.0
 42
1.50893877539691
  0
ELLIPSE
  5
16F
330
1F
100
AcDbEntity
  8
1
100
AcDbEllipse
 10
368.149052
 20
301.328736
 30
0.0
 11
3.531988007444661
 21
-1.245789330883942
 31
0.0
210
0.0
220
0.0
230
0.9999999999999998
 40
0.9986239999999998
 41
1.632540859458623
 42
1.94522755203838
  0
ELLIPSE
  5
170
330
1F
100
AcDbEntity
  8
1
100
AcDbEllipse
 10
363.37656
 20
296.163547
 30
0.0
 11
0.4817434594273201
 21
0.5170545788301837
 31
0.0
210
0.0
220
0.0
230
0.9999999999999998
 40
0.01483
 41
0.519873824261965
 42
1.53677966444837
  0
ELLIPSE
  5
171
330
1F
100
AcDbEntity
  8
1
100
AcDbEllipse
 10
363.024335
 20
305.995988
 30
0.0
 11
0.5172967687485563
 21
-0.4819691095133225
 31
0.0
210
0.0
220
0.0
230
1.0
 40
0.033998
 41
0.5687050474065618
 42
1.585610887756378
  0
ELLIPSE
  5
172
330
1F
100
AcDbEntity
  8
1
100
AcDbEllipse
 10
372.867021
 20
306.339344
 30
0.0
 11
0.4817434594138843
 21
0.517054578811687
 31
0.0
210
0.0
220
0.0
230
1.0
 40
0.01483
 41
1.536779664727438
 42
2.553685504945259
  0
ELLIPSE
  5
173
330
1F
100
AcDbEntity
  8
1
100
AcDbEllipse
 10
373.219246
 20
296.506904
 30
0.0
 11
0.5172967687812072
 21
-0.4819691095454357
 31
0.0
210
0.0
220
0.0
230
1.0
 40
0.033998
 41
1.585610887812723
 42
2.602516728107129
  0
ELLIPSE
  5
174
330
1F
100
AcDbEntity
  8
1
100
AcDbEllipse
 10
368.126378
 20
301.2644509999999
 30
0.0
 11
-3.6779219368772
 21
1.297262589546719
 31
0.0
210
0.0
220
0.0
230
1.0
 40
0.9986239999999998
 41
0.0
 42
6.283185307179585
  0
ELLIPSE
  5
175
330
1F
100
AcDbEntity
  8
1
100
AcDbEllipse
 10
362.479929
 20
288.907993
 30
0.0
 11
0.6186869876738004
 21
-18.49999630178364
 31
0.0
210
0.0
220
0.0
230
0.9999999999999998
 40
0.0191
 41
3.020882474975683
 42
3.111267033606653
  0
ELLIPSE
  5
176
330
1F
100
AcDbEntity
  8
1
100
AcDbEllipse
 10
363.624254
 20
296.441427
 30
0.0
 11
2.357642267228975
 21
-0.8315785830427689
 31
0.0
210
0.0
220
0.0
230
0.9999999999999998
 40
0.9986239999999998
 41
5.701844499995923
 42
5.80979263331155
  0
ELLIPSE
  5
177
330
1F
100
AcDbEntity
  8
1
100
AcDbEllipse
 10
362.30326
 20
288.907994
 30
0.0
 11
0.5187291153161745
 21
-18.49985636196892
 31
0.0
210
0.0
220
0.0
230
0.9999999999999998
 40
0.140543
 41
3.107965037178995
 42
3.217356648842724
  0
ELLIPSE
  5
178
330
1F
100
AcDbEntity
  8
1
100
AcDbEllipse
 10
368.417559
 20
288.907994
 30
0.0
 11
31.72935548857124
 21
-18.25148108847739
 31
0.0
210
0.0
220
0.0
230
1.0
 40
0.095248
 41
3.985258273512835
 42
4.390376726025166
  0
ELLIPSE
  5
179
330
1F
100
AcDbEntity
  8
1
100
AcDbEllipse
 10
227.210024
 20
288.907992
 30
0.0
 11
483.393074521012
 21
18.04104529943344
 31
0.0
210
0.0
220
0.0
230
0.9999999999999998
 40
0.008472
 41
4.997727464606394
 42
5.015540831955025
  0
ELLIPSE
  5
17A
330
1F
100
AcDbEntity
  8
1
100
AcDbEllipse
 10
363.629486
 20
296.456262
 30
0.0
 11
-2.357642267228975
 21
0.8315785830427685
 31
0.0
210
0.0
220
0.0
230
0.9999999999999996
 40
0.9986239999999998
 41
2.668199979721759
 42
2.776747666076904
  0
ELLIPSE
  5
17B
330
1F
100
AcDbEntity
  8
1
100
AcDbEllipse
 10
363.710765
 20
296.686699
 30
0.0
 11
-2.357642267228974
 21
0.8315785830427683
 31
0.0
210
0.0
220
0.0
230
1.0
 40
0.998624
 41
0.052025257263609
 42
1.94522743123759
  0
ELLIPSE
  5
17C
330
1F
100
AcDbEntity
  8
1
100
AcDbEllipse
 10
363.710765
 20
296.686699
 30
0.0
 11
-2.357642267228974
 21
0.8315785830427683
 31
0.0
210
0.0
220
0.0
230
1.0
 40
0.998624
 41
1.94522743123759
 42
2.645311779347053
  0
ELLIPSE
  5
17D
330
1F
100
AcDbEntity
  8
1
100
AcDbEllipse
 10
363.629486
 20
296.456262
 30
0.0
 11
-2.357642267228975
 21
0.8315785830427685
 31
0.0
210
0.0
220
0.0
230
0.9999999999999996
 40
0.9986239999999998
 41
5.822888314034132
 42
5.942244189143312
  0
ELLIPSE
  5
17E
330
1F
100
AcDbEntity
  8
1
100
AcDbEllipse
 10
363.624254
 20
296.441427
 30
0.0
 11
2.357642267228975
 21
-0.8315785830427689
 31
0.0
210
0.0
220
0.0
230
0.9999999999999998
 40
0.9986239999999998
 41
2.800651535553508
 42
4.438709040114666
  0
ELLIPSE
  5
17F
330
1F
100
AcDbEntity
  8
1
100
AcDbEllipse
 10
362.009462
 20
288.907769
 30
0.0
 11
0.6186948863185929
 21
-18.50022119033065
 31
0.0
210
0.0
220
0.0
230
0.9999999999999998
 40
0.0191
 41
3.220446507854401
 42
3.236672499599728
  0
ELLIPSE
  5
180
330
1F
100
AcDbEntity
  8
1
100
AcDbEllipse
 10
373.992561
 20
294.737993
 30
0.0
 11
0.0003016037629648
 21
0.5003084758593542
 31
0.0
210
0.0
220
0.0
230
0.9999999999999998
 40
0.140101
 41
3.195395734394453
 42
4.766192061185581
  0
ELLIPSE
  5
181
330
1F
100
AcDbEntity
  8
1
100
AcDbEllipse
 10
327.231894
 20
288.907994
 30
0.0
 11
120.1880700772834
 21
-13.67790775283362
 31
0.0
210
0.0
220
0.0
230
1.0
 40
0.103642
 41
4.413188835062562
 42
4.520381282854886
  0
ELLIPSE
  5
182
330
1F
100
AcDbEntity
  8
1
100
AcDbEllipse
 10
374.865608
 20
288.907994
 30
0.0
 11
2.002417234275979
 21
18.49790774640693
 31
0.0
210
0.0
220
0.0
230
0.9999999999999998
 40
0.138944
 41
1.902137972992469
 42
3.156632395651083
  0
ELLIPSE
  5
183
330
1F
100
AcDbEntity
  8
1
100
AcDbEllipse
 10
374.254842
 20
288.907994
 30
0.0
 11
0.0
 21
18.49999999944982
 31
0.0
210
0.0
220
0.0
230
1.0
 40
0.140541
 41
1.49085767648763
 42
1.88709823094077
  0
ELLIPSE
  5
184
330
1F
100
AcDbEntity
  8
1
100
AcDbEllipse
 10
362.833024
 20
306.441628
 30
0.0
 11
-11.88251702683404
 21
4.191156058535557
 31
0.0
210
0.0
220
0.0
230
0.9999999999999998
 40
0.9986239999999998
 41
1.414873988075858
 42
1.945227515264132
  0
ELLIPSE
  5
185
330
1F
100
AcDbEntity
  8
1
100
AcDbEllipse
 10
302.904842
 20
276.308958
 30
0.0
 11
-2.246982534862955
 21
-9.744283939213845
 31
0.0
210
0.0
220
0.0
230
0.9999999999999998
 40
0.205081
 41
4.430196422186826
 42
5.368990913892337
  0
ELLIPSE
  5
186
330
1F
100
AcDbEntity
  8
1
100
AcDbEllipse
 10
373.3524089999999
 20
279.378172
 30
0.0
 11
0.053877002435902
 21
0.4991611425114878
 31
0.0
210
0.0
220
0.0
230
0.9999999999999998
 40
0.139171
 41
1.58356817925297
 42
3.154364506042245
  0
ELLIPSE
  5
187
330
1F
100
AcDbEntity
  8
1
100
AcDbEllipse
 10
373.753111
 20
289.1708
 30
0.0
 11
0.0001758288824352
 21
-0.5000776676677039
 31
0.0
210
0.0
220
0.0
230
0.9999999999999996
 40
0.140519
 41
3.139090475970181
 42
4.709886802760485
  0
ELLIPSE
  5
188
330
1F
100
AcDbEntity
  8
1
100
AcDbEllipse
 10
367.979872
 20
301.137831
 30
0.0
 11
-3.395004864809725
 21
1.197473159581587
 31
0.0
210
0.0
220
0.0
230
1.0
 40
0.9986239999999998
 41
3.141585274248857
 42
5.872218228534562
  0
ELLIPSE
  5
189
330
1F
100
AcDbEntity
  8
1
100
AcDbEllipse
 10
367.979872
 20
301.137831
 30
0.0
 11
-3.395004864809725
 21
1.197473159581587
 31
0.0
210
0.0
220
0.0
230
1.0
 40
0.9986239999999998
 41
5.87221822853457
 42
6.283185307179585
  0
ELLIPSE
  5
18A
330
1F
100
AcDbEntity
  8
1
100
AcDbEllipse
 10
367.963742
 20
301.092101
 30
0.0
 11
3.395004864809725
 21
-1.197473159581587
 31
0.0
210
0.0
220
0.0
230
0.9999999999999998
 40
0.9986239999999998
 41
0.0
 42
6.283185307179585
  0
ELLIPSE
  5
18B
330
1F
100
AcDbEntity
  8
1
100
AcDbEllipse
 10
366.575259
 20
301.687697
 30
0.0
 11
-0.0898897536456661
 21
0.0317055708602406
 31
0.0
210
0.0
220
0.0
230
0.9999999999999998
 40
0.998624
 41
3.886489476374764
 42
4.563221393255314
  0
ELLIPSE
  5
18C
330
1F
100
AcDbEntity
  8
1
100
AcDbEllipse
 10
366.664598
 20
301.855812
 30
0.0
 11
-0.0898897536456659
 21
0.0317055708602405
 31
0.0
210
0.0
220
0.0
230
0.9999999999999998
 40
0.998624
 41
0.2212980471868185
 42
1.421628739665804
  0
ELLIPSE
  5
18D
330
1F
100
AcDbEntity
  8
1
100
AcDbEllipse
 10
367.166621
 20
301.796252
 30
0.0
 11
-0.5666776289729544
 21
0.1998763706833385
 31
0.0
210
0.0
220
0.0
230
0.9999999999999998
 40
0.9986239999999998
 41
5.239953310136249
 42
6.504483354366402
  0
ELLIPSE
  5
18E
330
1F
100
AcDbEntity
  8
1
100
AcDbEllipse
 10
367.071697
 20
302.292309
 30
0.0
 11
-0.089889753645668
 21
0.0317055708602413
 31
0.0
210
0.0
220
0.0
230
1.0
 40
0.9986239999999998
 41
4.039622617657187
 42
5.239953310136151
  0
ELLIPSE
  5
18F
330
1F
100
AcDbEntity
  8
1
100
AcDbEllipse
 10
367.233253
 20
302.393206
 30
0.0
 11
-0.089889753645668
 21
0.0317055708602413
 31
0.0
210
0.0
220
0.0
230
1.0
 40
0.9986239999999998
 41
0.8980299640674642
 42
1.574761880948188
  0
ELLIPSE
  5
190
330
1F
100
AcDbEntity
  8
1
100
AcDbEllipse
 10
367.3993
 20
302.870002
 30
0.0
 11
-0.5666776289729541
 21
0.1998763706833384
 31
0.0
210
0.0
220
0.0
230
0.9999999999999998
 40
0.9986239999999998
 41
1.574761880948108
 42
2.839291925178306
  0
ELLIPSE
  5
191
330
1F
100
AcDbEntity
  8
1
100
AcDbEllipse
 10
367.804469
 20
302.567704
 30
0.0
 11
-0.0898897536456661
 21
0.0317055708602406
 31
0.0
210
0.0
220
0.0
230
0.9999999999999998
 40
0.998624
 41
2.839291925178446
 42
3.516023842058973
  0
ELLIPSE
  5
192
330
1F
100
AcDbEntity
  8
1
100
AcDbEllipse
 10
367.994953
 20
302.574349
 30
0.0
 11
-0.0898897536456659
 21
0.0317055708602405
 31
0.0
210
0.0
220
0.0
230
0.9999999999999998
 40
0.998624
 41
5.457285803169696
 42
6.657616495648768
  0
ELLIPSE
  5
193
330
1F
100
AcDbEntity
  8
1
100
AcDbEllipse
 10
368.194704
 20
302.110314
 30
0.0
 11
-0.5666776289729544
 21
0.1998763706833385
 31
0.0
210
0.0
220
0.0
230
0.9999999999999998
 40
0.9986239999999998
 41
4.192755758939638
 42
5.457285803169813
  0
ELLIPSE
  5
194
330
1F
100
AcDbEntity
  8
1
100
AcDbEllipse
 10
368.57723
 20
302.44009
 30
0.0
 11
-0.089889753645668
 21
0.0317055708602413
 31
0.0
210
0.0
220
0.0
230
1.0
 40
0.9986239999999998
 41
2.992425066460601
 42
4.192755758939556
  0
ELLIPSE
  5
195
330
1F
100
AcDbEntity
  8
1
100
AcDbEllipse
 10
368.745602
 20
302.350702
 30
0.0
 11
-0.089889753645668
 21
0.0317055708602413
 31
0.0
210
0.0
220
0.0
230
1.0
 40
0.9986239999999998
 41
6.134017720050424
 42
6.810749636931215
  0
ELLIPSE
  5
196
330
1F
100
AcDbEntity
  8
1
100
AcDbEllipse
 10
369.24211
 20
302.445096
 30
0.0
 11
-0.5666776289729541
 21
0.1998763706833384
 31
0.0
210
0.0
220
0.0
230
0.9999999999999998
 40
0.9986239999999998
 41
0.5275643297515451
 42
1.792094373981715
  0
ELLIPSE
  5
197
330
1F
100
AcDbEntity
  8
1
100
AcDbEllipse
 10
369.182919
 20
301.943662
 30
0.0
 11
-0.0898897536456661
 21
0.0317055708602406
 31
0.0
210
0.0
220
0.0
230
0.9999999999999998
 40
0.998624
 41
1.792094373981754
 42
2.468826290862413
  0
ELLIPSE
  5
198
330
1F
100
AcDbEntity
  8
1
100
AcDbEllipse
 10
369.284064
 20
301.782193
 30
0.0
 11
-0.0898897536456659
 21
0.0317055708602405
 31
0.0
210
0.0
220
0.0
230
0.9999999999999998
 40
0.998624
 41
4.410088251973179
 42
5.610418944452204
  0
ELLIPSE
  5
199
330
1F
100
AcDbEntity
  8
1
100
AcDbEllipse
 10
368.981792
 20
301.377719
 30
0.0
 11
-0.5666776289729544
 21
0.1998763706833385
 31
0.0
210
0.0
220
0.0
230
0.9999999999999998
 40
0.9986239999999998
 41
3.145558207743012
 42
4.410088251973221
  0
ELLIPSE
  5
19A
330
1F
100
AcDbEntity
  8
1
100
AcDbEllipse
 10
369.459242
 20
301.211437
 30
0.0
 11
-0.089889753645668
 21
0.0317055708602413
 31
0.0
210
0.0
220
0.0
230
1.0
 40
0.9986239999999998
 41
1.945227515264111
 42
3.145558207743121
  0
ELLIPSE
  5
19B
330
1F
100
AcDbEntity
  8
1
100
AcDbEllipse
 10
369.466059
 20
301.021152
 30
0.0
 11
-0.089889753645668
 21
0.0317055708602413
 31
0.0
210
0.0
220
0.0
230
1.0
 40
0.9986239999999998
 41
5.086820168853903
 42
5.76355208573442
  0
ELLIPSE
  5
19C
330
1F
100
AcDbEntity
  8
1
100
AcDbEllipse
 10
369.796519
 20
300.63875
 30
0.0
 11
-0.5666776289729541
 21
0.1998763706833384
 31
0.0
210
0.0
220
0.0
230
0.9999999999999998
 40
0.9986239999999998
 41
5.76355208573454
 42
7.028082129964673
  0
ELLIPSE
  5
19D
330
1F
100
AcDbEntity
  8
1
100
AcDbEllipse
 10
369.332159
 20
300.439614
 30
0.0
 11
-0.0898897536456661
 21
0.0317055708602406
 31
0.0
210
0.0
220
0.0
230
0.9999999999999998
 40
0.998624
 41
0.7448968227849716
 42
1.421628739665668
  0
ELLIPSE
  5
19E
330
1F
100
AcDbEntity
  8
1
100
AcDbEllipse
 10
369.24282
 20
300.2715
 30
0.0
 11
-0.0898897536456659
 21
0.0317055708602405
 31
0.0
210
0.0
220
0.0
230
0.9999999999999998
 40
0.998624
 41
3.362890700776498
 42
4.563221393255473
  0
ELLIPSE
  5
19F
330
1F
100
AcDbEntity
  8
1
100
AcDbEllipse
 10
368.740798
 20
300.33106
 30
0.0
 11
-0.5666776289729544
 21
0.1998763706833385
 31
0.0
210
0.0
220
0.0
230
0.9999999999999998
 40
0.9986239999999998
 41
2.098360656546435
 42
3.362890700776602
  0
ELLIPSE
  5
1A0
330
1F
100
AcDbEntity
  8
1
100
AcDbEllipse
 10
368.835721
 20
299.835003
 30
0.0
 11
-0.089889753645668
 21
0.0317055708602413
 31
0.0
210
0.0
220
0.0
230
1.0
 40
0.9986239999999998
 41
0.8980299640675807
 42
2.098360656546395
  0
ELLIPSE
  5
1A1
330
1F
100
AcDbEntity
  8
1
100
AcDbEllipse
 10
368.674166
 20
299.734105
 30
0.0
 11
-0.089889753645668
 21
0.0317055708602413
 31
0.0
210
0.0
220
0.0
230
1.0
 40
0.9986239999999998
 41
4.03962261765721
 42
4.71635453453798
  0
ELLIPSE
  5
1A2
330
1F
100
AcDbEntity
  8
1
100
AcDbEllipse
 10
368.508118
 20
299.25731
 30
0.0
 11
-0.5666776289729541
 21
0.1998763706833384
 31
0.0
210
0.0
220
0.0
230
0.9999999999999998
 40
0.9986239999999998
 41
4.716354534537924
 42
5.980884578768099
  0
ELLIPSE
  5
1A3
330
1F
100
AcDbEntity
  8
1
100
AcDbEllipse
 10
368.102949
 20
299.559608
 30
0.0
 11
-0.0898897536456661
 21
0.0317055708602406
 31
0.0
210
0.0
220
0.0
230
0.9999999999999998
 40
0.998624
 41
5.980884578768167
 42
6.657616495648752
  0
ELLIPSE
  5
1A4
330
1F
100
AcDbEntity
  8
1
100
AcDbEllipse
 10
367.912466
 20
299.552963
 30
0.0
 11
-0.0898897536456659
 21
0.0317055708602405
 31
0.0
210
0.0
220
0.0
230
0.9999999999999998
 40
0.998624
 41
2.315693149579852
 42
3.516023842058973
  0
ELLIPSE
  5
1A5
330
1F
100
AcDbEntity
  8
1
100
AcDbEllipse
 10
367.712715
 20
300.016997
 30
0.0
 11
-0.5666776289729544
 21
0.1998763706833385
 31
0.0
210
0.0
220
0.0
230
0.9999999999999998
 40
0.9986239999999998
 41
1.051163105349812
 42
2.315693149579984
  0
ELLIPSE
  5
1A6
330
1F
100
AcDbEntity
  8
1
100
AcDbEllipse
 10
367.330189
 20
299.687222
 30
0.0
 11
-0.089889753645668
 21
0.0317055708602413
 31
0.0
210
0.0
220
0.0
230
1.0
 40
0.9986239999999998
 41
6.134017720050424
 42
7.334348412529312
  0
ELLIPSE
  5
1A7
330
1F
100
AcDbEntity
  8
1
100
AcDbEllipse
 10
367.161816
 20
299.77661
 30
0.0
 11
-0.089889753645668
 21
0.0317055708602413
 31
0.0
210
0.0
220
0.0
230
1.0
 40
0.9986239999999998
 41
2.992425066460629
 42
3.669156983341368
  0
ELLIPSE
  5
1A8
330
1F
100
AcDbEntity
  8
1
100
AcDbEllipse
 10
366.665309
 20
299.6822160000001
 30
0.0
 11
-0.5666776289729541
 21
0.1998763706833384
 31
0.0
210
0.0
220
0.0
230
0.9999999999999998
 40
0.9986239999999998
 41
3.669156983341318
 42
4.933687027571508
  0
ELLIPSE
  5
1A9
330
1F
100
AcDbEntity
  8
1
100
AcDbEllipse
 10
366.7245
 20
300.18365
 30
0.0
 11
-0.0898897536456661
 21
0.0317055708602406
 31
0.0
210
0.0
220
0.0
230
0.9999999999999998
 40
0.998624
 41
4.933687027571565
 42
5.610418944452111
  0
ELLIPSE
  5
1AA
330
1F
100
AcDbEntity
  8
1
100
AcDbEllipse
 10
366.623354
 20
300.345119
 30
0.0
 11
-0.0898897536456659
 21
0.0317055708602405
 31
0.0
210
0.0
220
0.0
230
0.9999999999999998
 40
0.998624
 41
1.268495598383528
 42
2.468826290862504
  0
ELLIPSE
  5
1AB
330
1F
100
AcDbEntity
  8
1
100
AcDbEllipse
 10
366.925627
 20
300.749593
 30
0.0
 11
-0.5666776289729544
 21
0.1998763706833385
 31
0.0
210
0.0
220
0.0
230
0.9999999999999998
 40
0.9986239999999998
 41
0.0039655541532317
 42
1.268495598383409
  0
ELLIPSE
  5
1AC
330
1F
100
AcDbEntity
  8
1
100
AcDbEllipse
 10
366.448176
 20
300.915875
 30
0.0
 11
-0.089889753645668
 21
0.0317055708602413
 31
0.0
210
0.0
220
0.0
230
1.0
 40
0.9986239999999998
 41
5.08682016885407
 42
6.287150861332914
  0
ELLIPSE
  5
1AD
330
1F
100
AcDbEntity
  8
1
100
AcDbEllipse
 10
366.44136
 20
301.10616
 30
0.0
 11
-0.089889753645668
 21
0.0317055708602413
 31
0.0
210
0.0
220
0.0
230
1.0
 40
0.9986239999999998
 41
1.945227515264111
 42
2.621959432144766
  0
ELLIPSE
  5
1AE
330
1F
100
AcDbEntity
  8
1
100
AcDbEllipse
 10
366.1109
 20
301.488562
 30
0.0
 11
-0.5666776289729541
 21
0.1998763706833384
 31
0.0
210
0.0
220
0.0
230
0.9999999999999998
 40
0.9986239999999998
 41
2.621959432144736
 42
3.886489476374872
  0
ELLIPSE
  5
1AF
330
1F
100
AcDbEntity
  8
1
100
AcDbEllipse
 10
367.953709
 20
301.063656
 30
0.0
 11
1.98041950447234
 21
-0.698526009755926
 31
0.0
210
0.0
220
0.0
230
0.9999999999999998
 40
0.9986239999999998
 41
0.0
 42
6.283185307179585
  0
ELLIPSE
  5
1B0
330
1F
100
AcDbEntity
  8
1
100
AcDbEllipse
 10
373.761969
 20
287.65976
 30
0.0
 11
-0.3115396276772998
 21
-0.0776755531752887
 31
0.0
210
-0.0000000000000001
220
0.0
230
1.0
 40
0.6229040000000001
 41
2.976210626445503
 42
3.306974680734095
  0
ELLIPSE
  5
1B1
330
1F
100
AcDbEntity
  8
1
100
AcDbEllipse
 10
373.646217
 20
281.028354
 30
0.0
 11
-0.3086390084417319
 21
0.0885008115358406
 31
0.0
210
0.0
220
0.0
230
0.9999999999999998
 40
0.6229040000000001
 41
2.976210626445484
 42
3.306974680734081
  0
ELLIPSE
  5
1B2
330
1F
100
AcDbEntity
  8
1
100
AcDbEllipse
 10
374.305732
 20
279.52846
 30
0.0
 11
0.2546671897313132
 21
0.1593661329529212
 31
0.0
210
0.0
220
0.0
230
1.0
 40
0.9668319999999999
 41
4.65755786266715
 42
5.171317121223462
  0
ELLIPSE
  5
1B3
330
1F
100
AcDbEntity
  8
1
100
AcDbEllipse
 10
374.473427
 20
289.135723
 30
0.0
 11
0.1593661330187822
 21
-0.2546671896705173
 31
0.0
210
0.0
220
0.0
230
1.0
 40
0.9668319999999999
 41
1.515965208771073
 42
2.029724467355453
  0
ELLIPSE
  5
1B4
330
1F
100
AcDbEntity
  8
1
100
AcDbEllipse
 10
374.969907
 20
280.648792
 30
0.0
 11
-0.2941597133632818
 21
0.0843489404830548
 31
0.0
210
0.0
220
0.0
230
0.9999999999999998
 40
0.9803469999999999
 41
2.884713024277073
 42
3.3984722829025
  0
ELLIPSE
  5
1B5
330
1F
100
AcDbEntity
  8
1
100
AcDbEllipse
 10
375.105838
 20
287.994824
 30
0.0
 11
0.1315188412190804
 21
-0.270103195527134
 31
0.0
210
0.0
220
0.0
230
0.9999999999999998
 40
0.9668319999999999
 41
1.111868186832094
 42
1.625627445467811
  0
ELLIPSE
  5
1B6
330
1F
100
AcDbEntity
  8
1
100
AcDbEllipse
 10
374.37015
 20
287.811396
 30
0.0
 11
0.3432777618024429
 21
0.125191211132363
 31
0.0
210
0.0
220
0.0
230
1.0
 40
0.81881
 41
6.264719807494066
 42
6.411625120397457
  0
ELLIPSE
  5
1B7
330
1F
100
AcDbEntity
  8
1
100
AcDbEllipse
 10
373.928017
 20
288.6090259999999
 30
0.0
 11
0.2880776541298109
 21
0.2247748100788509
 31
0.0
210
0.0
220
0.0
230
0.9999999999999998
 40
0.81881
 41
6.154745487003829
 42
6.301650802948315
  0
ELLIPSE
  5
1B8
330
1F
100
AcDbEntity
  8
1
100
AcDbEllipse
 10
373.928017
 20
288.6090259999999
 30
0.0
 11
0.2346916529347824
 21
0.2800576442403479
 31
0.0
210
0.0
220
0.0
230
0.9999999999999998
 40
0.81881
 41
6.264719809231553
 42
6.411625123522401
  0
ELLIPSE
  5
1B9
330
1F
100
AcDbEntity
  8
1
100
AcDbEllipse
 10
373.343623
 20
280.524753
 30
0.0
 11
-0.223038816141459
 21
0.2309634552664429
 31
0.0
210
-0.0000000000000001
220
0.0
230
0.9999999999999998
 40
0.6229040000000001
 41
2.976210626445486
 42
3.306974680734076
  0
ELLIPSE
  5
1BA
330
1F
100
AcDbEntity
  8
1
100
AcDbEllipse
 10
373.477134
 20
288.173614
 30
0.0
 11
-0.2309634552664426
 21
-0.2230388161414595
 31
0.0
210
0.0
220
0.0
230
0.9999999999999998
 40
0.6229040000000001
 41
2.97621062644548
 42
3.306974680734029
  0
ELLIPSE
  5
1BB
330
1F
100
AcDbEntity
  8
1
100
AcDbEllipse
 10
362.841745
 20
306.466353
 30
0.0
 11
11.88251702683404
 21
-4.191156058535558
 31
0.0
210
0.0
220
0.0
230
0.9999999999999998
 40
0.9986239999999998
 41
4.660146935344251
 42
5.086260448157184
  0
SPLINE
  5
1CE
330
1F
100
AcDbEntity
  8
1
100
AcDbSpline
210
0.0
220
0.0
230
1.0
 70
     8
 71
     3
 72
    14
 73
    10
 74
     0
 42
0.000000001
 43
0.0000000001
 40
0.0
 40
0.0
 40
0.0
 40
0.0
 40
0.25
 40
0.25
 40
0.5
 40
0.5
 40
0.75
 40
0.75
 40
1.0
 40
1.0
 40
1.0
 40
1.0
 10
356.853156068083
 20
295.3702593560385
 30
0.0
 10
356.8255511929036
 20
295.3863494762862
 30
0.0
 10
356.798994128343
 20
295.4034262190937
 30
0.0
 10
356.7482253316003
 20
295.4397860097832
 30
0.0
 10
356.724009684545
 20
295.4590654132153
 30
0.0
 10
356.6783634740779
 20
295.5002415777515
 30
0.0
 10
356.6569225122766
 20
295.5221286620449
 30
0.0
 10
356.6176507536437
 20
295.5692910048646
 30
0.0
 10
356.6001075327443
 20
295.5942001438922
 30
0.0
 10
356.5854001406987
 20
295.6208831584382
 30
0.0
  0
SPLINE
  5
1CF
330
1F
100
AcDbEntity
  8
1
100
AcDbSpline
210
0.0
220
0.0
230
1.0
 70
     8
 71
     3
 72
    10
 73
     6
 74
     0
 42
0.000000001
 43
0.0000000001
 40
0.0
 40
0.0
 40
0.0
 40
0.0
 40
0.5
 40
0.5
 40
1.0
 40
1.0
 40
1.0
 40
1.0
 10
290.4511177664762
 20
281.0365319355872
 30
0.0
 10
290.0440080291512
 20
281.0960944861555
 30
0.0
 10
289.6356169188954
 20
281.140792631464
 30
0.0
 10
288.8161598172205
 20
281.1988048299195
 30
0.0
 10
288.4050948920145
 20
281.2121302754298
 30
0.0
 10
287.9926239639545
 20
281.2089042504971
 30
0.0
  0
SPLINE
  5
1D0
330
1F
100
AcDbEntity
  8
1
100
AcDbSpline
210
0.0
220
0.0
230
1.0
 70
     8
 71
     3
 72
    31
 73
    27
 74
     0
 42
0.000000001
 43
0.0000000001
 40
0.0
 40
0.0
 40
0.0
 40
0.0
 40
0.1249999999999999
 40
0.1249999999999999
 40
0.2499999999999998
 40
0.2499999999999998
 40
0.3749999999999997
 40
0.3749999999999997
 40
0.4999999999999997
 40
0.4999999999999997
 40
0.5312499999999997
 40
0.5312499999999997
 40
0.5624999999999997
 40
0.6249999999999995
 40
0.6249999999999995
 40
0.7499999999999991
 40
0.7499999999999991
 40
0.8749999999999985
 40
0.8749999999999985
 40
0.8906249999999985
 40
0.8906249999999985
 40
0.9062499999999985
 40
0.9062499999999985
 40
0.9374999999999992
 40
0.9374999999999992
 40
1.0
 40
1.0
 40
1.0
 40
1.0
 10
279.4048419452957
 20
277.3555053598048
 30
0.0
 10
279.6943518017295
 20
277.6377340002423
 30
0.0
 10
279.992660673446
 20
277.9065244761427
 30
0.0
 10
280.6070957129822
 20
278.417657964692
 30
0.0
 10
280.9232204272514
 20
278.6600001045896
 30
0.0
 10
281.5740220403566
 20
279.117761891156
 30
0.0
 10
281.9086941081986
 20
279.3331867580573
 30
0.0
 10
282.5979301805603
 20
279.7356838456957
 30
0.0
 10
282.9524845188087
 20
279.9227688955314
 30
0.0
 10
283.4094564798335
 20
280.1372504222109
 30
0.0
 10
283.5016630063968
 20
280.1792259318379
 30
0.0
 10
283.6866660075462
 20
280.2608119977763
 30
0.0
 10
283.9651774382719
 20
280.3797107138491
 30
0.0
 10
284.2467378407729
 20
280.4880979478502
 30
0.0
 10
284.8140307967944
 20
280.6905470262869
 30
0.0
 10
285.1977749378714
 20
280.8064659913659
 30
0.0
 10
285.9772359024441
 20
280.9973875347621
 30
0.0
 10
286.3729472224371
 20
281.0724108823438
 30
0.0
 10
286.8256338040559
 20
281.1311264260364
 30
0.0
 10
286.8760370401485
 20
281.137292097096
 30
0.0
 10
286.9770564150809
 20
281.1488947503331
 30
0.0
 10
287.0277002002035
 20
281.1543342948461
 30
0.0
 10
287.1796706232091
 20
281.1695132841065
 30
0.0
 10
287.2810733087931
 20
281.1781194251239
 30
0.0
 10
287.5855527668015
 20
281.1993234344403
 30
0.0
 10
287.7889007281985
 20
281.2073108867152
 30
0.0
 10
287.9926239639545
 20
281.2089042504971
 30
0.0
  0
SPLINE
  5
1D1
330
1F
100
AcDbEntity
  8
1
100
AcDbSpline
210
0.0
220
0.0
230
1.0
 70
     8
 71
     3
 72
    29
 73
    25
 74
     0
 42
0.000000001
 43
0.0000000001
 40
0.0
 40
0.0
 40
0.0
 40
0.0
 40
0.1250000000000013
 40
0.1250000000000013
 40
0.2500000000000026
 40
0.2500000000000026
 40
0.3750000000000039
 40
0.3750000000000039
 40
0.4375000000000043
 40
0.4375000000000043
 40
0.4687500000000038
 40
0.4687500000000038
 40
0.5000000000000035
 40
0.5000000000000035
 40
0.6250000000000019
 40
0.6250000000000019
 40
0.7500000000000007
 40
0.7500000000000007
 40
0.8749999999999996
 40
0.8749999999999996
 40
0.9062499999999996
 40
0.9062499999999996
 40
0.9374999999999996
 40
1.0
 40
1.0
 40
1.0
 40
1.0
 10
279.4048419452957
 20
277.3555053598048
 30
0.0
 10
279.1911625771384
 20
277.204310635928
 30
0.0
 10
278.9862179963533
 20
277.0481446192049
 30
0.0
 10
278.5938399879589
 20
276.7265628365016
 30
0.0
 10
278.4064054800116
 20
276.5611466525662
 30
0.0
 10
278.0494707902764
 20
276.2215601873602
 30
0.0
 10
277.8799678291425
 20
276.0473901908889
 30
0.0
 10
277.6398094538218
 20
275.7797967731754
 30
0.0
 10
277.5621096769419
 20
275.6895410304831
 30
0.0
 10
277.4492082788814
 20
275.5525841055485
 30
0.0
 10
277.4121619264059
 20
275.5066399872368
 30
0.0
 10
277.3397057883298
 20
275.4147427962612
 30
0.0
 10
277.3042454182018
 20
275.3687298390892
 30
0.0
 10
277.130766147454
 20
275.1383745145908
 30
0.0
 10
277.004193408885
 20
274.9531655145823
 30
0.0
 10
276.7754084851203
 20
274.5816139708341
 30
0.0
 10
276.6731951071541
 20
274.3952705121408
 30
0.0
 10
276.4936317307734
 20
274.0220533930095
 30
0.0
 10
276.4162781827589
 20
273.8351791563722
 30
0.0
 10
276.3358346942483
 20
273.6015771564303
 30
0.0
 10
276.3205555108497
 20
273.5548410783409
 30
0.0
 10
276.2916698849601
 20
273.4614377935897
 30
0.0
 10
276.2509556176654
 20
273.3217788330548
 30
0.0
 10
276.2180656607386
 20
273.1834884299435
 30
0.0
 10
276.1996197435403
 20
273.0919294003781
 30
0.0
  0
SPLINE
  5
1D2
330
1F
100
AcDbEntity
  8
1
100
AcDbSpline
210
0.0
220
0.0
230
1.0
 70
     8
 71
     3
 72
    18
 73
    14
 74
     0
 42
0.000000001
 43
0.0000000001
 40
0.0
 40
0.0
 40
0.0
 40
0.0
 40
0.1715744092245
 40
0.1715744092245
 40
0.3431488184489999
 40
0.3431488184489999
 40
0.5147232276734999
 40
0.5147232276734999
 40
0.6862976368979999
 40
0.6862976368979999
 40
0.8578720461224998
 40
0.8578720461224998
 40
1.0
 40
1.0
 40
1.0
 40
1.0
 10
300.1214424067449
 20
307.2561125277363
 30
0.0
 10
299.5968813390411
 20
307.2675568563981
 30
0.0
 10
299.0751887921206
 20
307.2795696383052
 30
0.0
 10
298.0368211156827
 20
307.3035913745583
 30
0.0
 10
297.5201440680093
 20
307.315599844041
 30
0.0
 10
296.4912968473591
 20
307.3385601988785
 30
0.0
 10
295.9791255006603
 20
307.3495136466358
 30
0.0
 10
294.959041182586
 20
307.3693879046849
 30
0.0
 10
294.4511281926923
 20
307.3783119818762
 30
0.0
 10
293.4395930993492
 20
307.3931539379122
 30
0.0
 10
292.9359719689771
 20
307.3990761541375
 30
0.0
 10
292.0193587946236
 20
307.4061616509715
 30
0.0
 10
291.605647684251
 20
307.4079706293777
 30
0.0
 10
291.1936607236755
 20
307.407994099905
 30
0.0
  0
SPLINE
  5
1D4
330
1F
100
AcDbEntity
  8
1
100
AcDbSpline
210
0.0
220
0.0
230
1.0
 70
     8
 71
     3
 72
     8
 73
     4
 74
     0
 42
0.000000001
 43
0.0000000001
 40
0.0
 40
0.0
 40
0.0
 40
0.0
 40
1.0
 40
1.0
 40
1.0
 40
1.0
 10
374.5894505876547
 20
280.7236331788933
 30
0.0
 10
374.5972522528897
 20
280.7442312366872
 30
0.0
 10
374.6033026456479
 20
280.7653314637832
 30
0.0
 10
374.6076017659293
 20
280.7869338601809
 30
0.0
  0
SPLINE
  5
1D5
330
1F
100
AcDbEntity
  8
1
100
AcDbSpline
210
0.0
220
0.0
230
1.0
 70
     8
 71
     3
 72
     8
 73
     4
 74
     0
 42
0.000000001
 43
0.0000000001
 40
0.0
 40
0.0
 40
0.0
 40
0.0
 40
1.0
 40
1.0
 40
1.0
 40
1.0
 10
374.7311931720172
 20
287.8674807728481
 30
0.0
 10
374.7276505834055
 20
287.8892200467837
 30
0.0
 10
374.7223402636891
 20
287.9105185758535
 30
0.0
 10
374.7152622128679
 20
287.9313763600573
 30
0.0
  0
SPLINE
  5
1D6
330
1F
100
AcDbEntity
  8
1
100
AcDbSpline
210
0.0
220
0.0
230
1.0
 70
     8
 71
     3
 72
     8
 73
     4
 74
     0
 42
0.000000001
 43
0.0000000001
 40
0.0
 40
0.0
 40
0.0
 40
0.0
 40
1.0
 40
1.0
 40
1.0
 40
1.0
 10
374.2126469442886
 20
288.8381183071029
 30
0.0
 10
374.1987093355878
 20
288.8551737762851
 30
0.0
 10
374.1834611992763
 20
288.8709636836646
 30
0.0
 10
374.166902535354
 20
288.8854880292411
 30
0.0
  0
SPLINE
  5
1D7
330
1F
100
AcDbEntity
  8
1
100
AcDbSpline
210
0.0
220
0.0
230
1.0
 70
     8
 71
     3
 72
    36
 73
    32
 74
     0
 42
0.000000001
 43
0.0000000001
 40
0.0
 40
0.0
 40
0.0
 40
0.0
 40
0.1250000000000228
 40
0.1250000000000228
 40
0.1875000000000291
 40
0.1875000000000291
 40
0.2187500000000266
 40
0.2187500000000266
 40
0.2500000000000242
 40
0.2500000000000242
 40
0.3750000000000106
 40
0.3750000000000106
 40
0.4062500000000072
 40
0.4062500000000072
 40
0.4375000000000038
 40
0.4375000000000038
 40
0.4999999999999969
 40
0.4999999999999969
 40
0.6249999999999833
 40
0.6249999999999833
 40
0.6562499999999796
 40
0.6562499999999796
 40
0.687499999999976
 40
0.7499999999999676
 40
0.8124999999999591
 40
0.8124999999999591
 40
0.843749999999955
 40
0.843749999999955
 40
0.8749999999999507
 40
0.8749999999999507
 40
1.0
 40
1.0
 40
1.0
 40
1.0
 10
361.9848315709242
 20
295.4915375128587
 30
0.0
 10
361.9866627675071
 20
295.4404193583258
 30
0.0
 10
361.9936235916071
 20
295.3903603920705
 30
0.0
 10
362.0113193091497
 20
295.3167698802332
 30
0.0
 10
362.0184367637817
 20
295.2924913898152
 30
0.0
 10
362.0309710256357
 20
295.2564573187815
 30
0.0
 10
362.0354719608422
 20
295.2444797080586
 30
0.0
 10
362.0450421565832
 20
295.2208112566273
 30
0.0
 10
362.0501014395653
 20
295.2091399236547
 30
0.0
 10
362.0767384944302
 20
295.1515797299002
 30
0.0
 10
362.1022987993963
 20
295.1080568828485
 30
0.0
 10
362.139490221302
 20
295.0567670142386
 30
0.0
 10
362.1471929977366
 20
295.0466661746363
 30
0.0
 10
362.1631356531978
 20
295.0267835868442
 30
0.0
 10
362.1713955984338
 20
295.0169808405389
 30
0.0
 10
362.1967418073729
 20
294.9883436178559
 30
0.0
 10
362.2144453911812
 20
294.9702037923627
 30
0.0
 10
362.2699057081494
 20
294.9185581005552
 30
0.0
 10
362.3099888671194
 20
294.8877987012507
 30
0.0
 10
362.3641041458406
 20
294.8540850364171
 30
0.0
 10
362.3751501369715
 20
294.8475715776357
 30
0.0
 10
362.3974156809808
 20
294.8351638937015
 30
0.0
 10
362.4311495584147
 20
294.8174317254132
 30
0.0
 10
362.4890203110328
 20
294.7921958019997
 30
0.0
 10
362.5370596735087
 20
294.7765740650684
 30
0.0
 10
362.5737569352625
 20
294.7666076124026
 30
0.0
 10
362.5861008550598
 20
294.7635776514854
 30
0.0
 10
362.6110167202326
 20
294.7581152835288
 30
0.0
 10
362.6236070057971
 20
294.7556811789376
 30
0.0
 10
362.6865555615594
 20
294.7451354388196
 30
0.0
 10
362.737313167956
 20
294.7417434238632
 30
0.0
 10
362.7884799991186
 20
294.7435283490455
 30
0.0
  0
SPLINE
  5
1D8
330
1F
100
AcDbEntity
  8
1
100
AcDbSpline
210
0.0
220
0.0
230
1.0
 70
     8
 71
     3
 72
    36
 73
    32
 74
     0
 42
0.000000001
 43
0.0000000001
 40
0.0
 40
0.0
 40
0.0
 40
0.0
 40
0.1249999999999581
 40
0.1249999999999581
 40
0.1874999999999453
 40
0.1874999999999453
 40
0.2187499999999445
 40
0.2187499999999445
 40
0.2499999999999437
 40
0.2499999999999437
 40
0.3749999999999249
 40
0.3749999999999249
 40
0.4062499999999187
 40
0.4062499999999187
 40
0.4374999999999123
 40
0.4374999999999123
 40
0.4999999999999157
 40
0.4999999999999157
 40
0.6249999999999224
 40
0.6249999999999224
 40
0.6562499999999253
 40
0.6562499999999253
 40
0.6874999999999281
 40
0.7499999999999299
 40
0.8124999999999317
 40
0.8124999999999317
 40
0.8437499999999326
 40
0.8437499999999326
 40
0.8749999999999335
 40
0.8749999999999335
 40
1.0
 40
1.0
 40
1.0
 40
1.0
 10
374.2761911676126
 20
307.0608039162248
 30
0.0
 10
374.2743599710298
 20
307.1119220707577
 30
0.0
 10
374.2673991469298
 20
307.1619810370129
 30
0.0
 10
374.2497034293872
 20
307.2355715488503
 30
0.0
 10
374.2425859747553
 20
307.2598500392683
 30
0.0
 10
374.2300517129012
 20
307.2958841103019
 30
0.0
 10
374.2255507776947
 20
307.3078617210248
 30
0.0
 10
374.2159805819536
 20
307.3315301724562
 30
0.0
 10
374.2109212989715
 20
307.3432015054287
 30
0.0
 10
374.1842842441069
 20
307.4007616991832
 30
0.0
 10
374.1587239391407
 20
307.4442845462349
 30
0.0
 10
374.1215325172348
 20
307.4955744148448
 30
0.0
 10
374.1138297408002
 20
307.5056752544472
 30
0.0
 10
374.0978870853389
 20
307.5255578422393
 30
0.0
 10
374.089627140103
 20
307.5353605885446
 30
0.0
 10
374.0642809311639
 20
307.5639978112274
 30
0.0
 10
374.0465773473557
 20
307.5821376367207
 30
0.0
 10
373.9911170303877
 20
307.6337833285283
 30
0.0
 10
373.9510338714175
 20
307.6645427278327
 30
0.0
 10
373.8969185926961
 20
307.6982563926663
 30
0.0
 10
373.8858726015655
 20
307.7047698514477
 30
0.0
 10
373.8636070575562
 20
307.7171775353819
 30
0.0
 10
373.8298731801222
 20
307.7349097036703
 30
0.0
 10
373.7720023984103
 20
307.7601455508419
 30
0.0
 10
373.7239630650281
 20
307.7757673640151
 30
0.0
 10
373.6872658032746
 20
307.7857338166808
 30
0.0
 10
373.674921883477
 20
307.7887637775981
 30
0.0
 10
373.6500060183043
 20
307.7942261455547
 30
0.0
 10
373.6374157327397
 20
307.7966602501458
 30
0.0
 10
373.5744671769774
 20
307.8072059902638
 30
0.0
 10
373.5237095705808
 20
307.8105980052203
 30
0.0
 10
373.4725427394182
 20
307.808813080038
 30
0.0
  0
SPLINE
  5
1D9
330
1F
100
AcDbEntity
  8
1
100
AcDbSpline
210
0.0
220
0.0
230
1.0
 70
     8
 71
     3
 72
    36
 73
    32
 74
     0
 42
0.000000001
 43
0.0000000001
 40
0.0
 40
0.0
 40
0.0
 40
0.0
 40
0.1249999999999323
 40
0.1249999999999323
 40
0.1874999999998985
 40
0.1874999999998985
 40
0.2187499999998977
 40
0.2187499999998977
 40
0.2499999999998969
 40
0.2499999999998969
 40
0.3749999999998661
 40
0.3749999999998661
 40
0.4062499999998515
 40
0.4062499999998515
 40
0.4374999999998368
 40
0.4374999999998368
 40
0.4999999999998387
 40
0.4999999999998387
 40
0.6249999999998424
 40
0.6249999999998424
 40
0.6562499999998451
 40
0.6562499999998451
 40
0.687499999999848
 40
0.7499999999998686
 40
0.8124999999998891
 40
0.8124999999998891
 40
0.8437499999999081
 40
0.8437499999999081
 40
0.8749999999999269
 40
0.8749999999999269
 40
1.0
 40
1.0
 40
1.0
 40
1.0
 10
362.3343635403399
 20
307.420264168839
 30
0.0
 10
362.2831921194792
 20
307.4184790835476
 30
0.0
 10
362.2330854537457
 20
307.4115689501155
 30
0.0
 10
362.1594312655056
 20
307.3939557448731
 30
0.0
 10
362.1351328723932
 20
307.3868668824747
 30
0.0
 10
362.0990709637708
 20
307.3743771677361
 30
0.0
 10
362.0870843888988
 20
307.369891398214
 30
0.0
 10
362.0633988077169
 20
307.3603518948782
 30
0.0
 10
362.0517193214565
 20
307.3553081110817
 30
0.0
 10
361.9941203737366
 20
307.3287493001622
 30
0.0
 10
361.950572904305
 20
307.3032539620306
 30
0.0
 10
361.8992601252011
 20
307.2661466729338
 30
0.0
 10
361.8891551005368
 20
307.2584608706356
 30
0.0
 10
361.8692649488812
 20
307.2425524631266
 30
0.0
 10
361.8594588185751
 20
307.2343098313344
 30
0.0
 10
361.8308127603297
 20
307.2090155034362
 30
0.0
 10
361.8126687617795
 20
307.1913465484576
 30
0.0
 10
361.7610155562534
 20
307.1359902388489
 30
0.0
 10
361.7302577724434
 20
307.0959765780881
 30
0.0
 10
361.6965546726095
 20
307.0419483784858
 30
0.0
 10
361.6900437653767
 20
307.0309198439372
 30
0.0
 10
361.6776419988571
 20
307.0086888641663
 30
0.0
 10
361.6599199400283
 20
306.9750064330116
 30
0.0
 10
361.6347069978133
 20
306.917219430659
 30
0.0
 10
361.6191099138331
 20
306.8692450429933
 30
0.0
 10
361.6091644623838
 20
306.8325956943776
 30
0.0
 10
361.6061419116812
 20
306.8202676126893
 30
0.0
 10
361.6006952022496
 20
306.7953831518682
 30
0.0
 10
361.5982693599875
 20
306.7828084536557
 30
0.0
 10
361.5877666723664
 20
306.7199364282774
 30
0.0
 10
361.5844148564578
 20
306.6692361163664
 30
0.0
 10
361.5862458887959
 20
306.6181225467541
 30
0.0
  0
SPLINE
  5
1DA
330
1F
100
AcDbEntity
  8
1
100
AcDbSpline
210
0.0
220
0.0
230
1.0
 70
     8
 71
     3
 72
    36
 73
    32
 74
     0
 42
0.000000001
 43
0.0000000001
 40
0.0
 40
0.0
 40
0.0
 40
0.0
 40
0.1249999999998861
 40
0.1249999999998861
 40
0.1874999999998294
 40
0.1874999999998294
 40
0.2187499999998175
 40
0.2187499999998175
 40
0.2499999999998055
 40
0.2499999999998055
 40
0.3749999999998509
 40
0.3749999999998509
 40
0.4062499999998554
 40
0.4062499999998554
 40
0.4374999999998598
 40
0.4374999999998598
 40
0.4999999999998447
 40
0.4999999999998447
 40
0.6249999999998157
 40
0.6249999999998157
 40
0.656249999999822
 40
0.656249999999822
 40
0.6874999999998283
 40
0.7499999999998578
 40
0.8124999999998873
 40
0.8124999999998873
 40
0.8437499999999078
 40
0.8437499999999078
 40
0.874999999999928
 40
0.874999999999928
 40
1.0
 40
1.0
 40
1.0
 40
1.0
 10
373.9266591981969
 20
295.1320772602444
 30
0.0
 10
373.9778306190578
 20
295.1338623455357
 30
0.0
 10
374.0279372847912
 20
295.1407724789678
 30
0.0
 10
374.1015914730311
 20
295.1583856842103
 30
0.0
 10
374.1258898661437
 20
295.1654745466087
 30
0.0
 10
374.1619517747662
 20
295.1779642613474
 30
0.0
 10
374.173938349638
 20
295.1824500308695
 30
0.0
 10
374.1976239308199
 20
295.1919895342054
 30
0.0
 10
374.2093034170804
 20
295.1970333180017
 30
0.0
 10
374.2669023648003
 20
295.2235921289213
 30
0.0
 10
374.3104498342319
 20
295.2490874670529
 30
0.0
 10
374.3617626133358
 20
295.2861947561497
 30
0.0
 10
374.3718676380001
 20
295.2938805584478
 30
0.0
 10
374.3917577896556
 20
295.3097889659568
 30
0.0
 10
374.4015639199617
 20
295.318031597749
 30
0.0
 10
374.4302099782071
 20
295.3433259256474
 30
0.0
 10
374.4483539767573
 20
295.3609948806258
 30
0.0
 10
374.5000071822835
 20
295.4163511902345
 30
0.0
 10
374.5307649660934
 20
295.4563648509953
 30
0.0
 10
374.5644680659274
 20
295.5103930505977
 30
0.0
 10
374.5709789731602
 20
295.5214215851462
 30
0.0
 10
374.5833807396798
 20
295.5436525649171
 30
0.0
 10
374.6011027985086
 20
295.5773349960718
 30
0.0
 10
374.6263157407237
 20
295.6351219984245
 30
0.0
 10
374.6419128247038
 20
295.6830963860901
 30
0.0
 10
374.6518582761531
 20
295.7197457347059
 30
0.0
 10
374.6548808268556
 20
295.732073816394
 30
0.0
 10
374.6603275362871
 20
295.7569582772152
 30
0.0
 10
374.6627533785493
 20
295.7695329754278
 30
0.0
 10
374.6732560661707
 20
295.832405000806
 30
0.0
 10
374.676607882079
 20
295.8831053127171
 30
0.0
 10
374.674776849741
 20
295.9342188823294
 30
0.0
  0
SPLINE
  5
1DB
330
1F
100
AcDbEntity
  8
1
100
AcDbSpline
210
0.0
220
0.0
230
1.0
 70
     8
 71
     3
 72
    17
 73
    13
 74
     0
 42
0.000000001
 43
0.0000000001
 40
0.0
 40
0.0
 40
0.0
 40
0.0
 40
0.25
 40
0.25
 40
0.5
 40
0.5
 40
0.75
 40
0.75
 40
0.8124999999999991
 40
0.8124999999999991
 40
0.8749999999999982
 40
1.0
 40
1.0
 40
1.0
 40
1.0
 10
299.9503709006732
 20
270.7257629891781
 30
0.0
 10
300.1836697876254
 20
270.7450691922652
 30
0.0
 10
300.4203349882534
 20
270.7629441518258
 30
0.0
 10
300.9004560687962
 20
270.7946956625767
 30
0.0
 10
301.1439115015288
 20
270.8085731115618
 30
0.0
 10
301.6378194363447
 20
270.8313636046993
 30
0.0
 10
301.8882708277509
 20
270.8402769496702
 30
0.0
 10
302.2059440514899
 20
270.8478052761741
 30
0.0
 10
302.2697820458429
 20
270.8491314530422
 30
0.0
 10
302.3971630640065
 20
270.8514001199605
 30
0.0
 10
302.5880275811872
 20
270.8542346614969
 30
0.0
 10
302.778277543685
 20
270.8553630511773
 30
0.0
 10
302.9048419452957
 20
270.8553630511773
 30
0.0
  0
SPLINE
  5
1DC
330
1F
100
AcDbEntity
  8
1
100
AcDbSpline
210
0.0
220
0.0
230
1.0
 70
     8
 71
     3
 72
    24
 73
    20
 74
     0
 42
0.000000001
 43
0.0000000001
 40
0.0
 40
0.0
 40
0.0
 40
0.0
 40
0.1250000000000006
 40
0.1250000000000006
 40
0.2500000000000011
 40
0.2500000000000011
 40
0.3750000000000017
 40
0.3750000000000017
 40
0.4375000000000019
 40
0.4375000000000019
 40
0.5000000000000023
 40
0.5000000000000023
 40
0.6250000000000017
 40
0.6250000000000017
 40
0.7500000000000011
 40
0.7500000000000011
 40
0.8750000000000005
 40
0.8750000000000005
 40
1.0
 40
1.0
 40
1.0
 40
1.0
 10
318.3513893438006
 20
272.6408580361884
 30
0.0
 10
317.7204443434718
 20
272.5222257127447
 30
0.0
 10
317.0885670855345
 20
272.4092793549557
 30
0.0
 10
315.8220975664261
 20
272.195121771059
 30
0.0
 10
315.1875044105801
 20
272.0939093074854
 30
0.0
 10
313.91487759772
 20
271.9032020871096
 30
0.0
 10
313.2768435565805
 20
271.8137052981673
 30
0.0
 10
312.3167781931548
 20
271.6879878865186
 30
0.0
 10
311.9962095825894
 20
271.6474956643316
 30
0.0
 10
311.3543391494021
 20
271.569319660469
 30
0.0
 10
311.0330184685533
 20
271.5316328613734
 30
0.0
 10
310.0678343597223
 20
271.4226420685128
 30
0.0
 10
309.4227453930914
 20
271.3554118982017
 30
0.0
 10
308.1290382256551
 20
271.2309697847329
 30
0.0
 10
307.4804205027726
 20
271.1737555087781
 30
0.0
 10
306.1794983911402
 20
271.0683907763911
 30
0.0
 10
305.5271945550828
 20
271.0202384401597
 30
0.0
 10
304.218832367135
 20
270.9320001573455
 30
0.0
 10
303.5627745701191
 20
270.8919128091864
 30
0.0
 10
302.9048419452957
 20
270.8553630511785
 30
0.0
  0
SPLINE
  5
1DD
330
1F
100
AcDbEntity
  8
1
100
AcDbSpline
210
0.0
220
0.0
230
1.0
 70
     8
 71
     3
 72
    22
 73
    18
 74
     0
 42
0.000000001
 43
0.0000000001
 40
0.0
 40
0.0
 40
0.0
 40
0.0
 40
0.125
 40
0.125
 40
0.25
 40
0.25
 40
0.375
 40
0.375
 40
0.5
 40
0.5
 40
0.625
 40
0.625
 40
0.75
 40
0.75
 40
0.875
 40
0.875
 40
1.0
 40
1.0
 40
1.0
 40
1.0
 10
287.9926239639546
 20
270.4085662794104
 30
0.0
 10
288.475250477375
 20
270.4069760175708
 30
0.0
 10
288.9610896105742
 20
270.4087548081824
 30
0.0
 10
289.9380731783885
 20
270.4171992402514
 30
0.0
 10
290.4292170596717
 20
270.4238696245546
 30
0.0
 10
291.415704703209
 20
270.4408829438271
 30
0.0
 10
291.9110452361168
 20
270.4512306745429
 30
0.0
 10
292.9048872573483
 20
270.47487236175
 30
0.0
 10
293.403383084988
 20
270.4881726499799
 30
0.0
 10
294.402698843289
 20
270.5173192456153
 30
0.0
 10
294.9035125114008
 20
270.5331737671656
 30
0.0
 10
295.9070169993199
 20
270.5671362474084
 30
0.0
 10
296.4097041998489
 20
270.5852527199104
 30
0.0
 10
297.4170600239071
 20
270.6232950152869
 30
0.0
 10
297.9217301588361
 20
270.6432265281185
 30
0.0
 10
298.9337462242759
 20
270.684077611959
 30
0.0
 10
299.4410981662644
 20
270.7049975579081
 30
0.0
 10
299.9503709006735
 20
270.7257629891781
 30
0.0
  0
SPLINE
  5
1DE
330
1F
100
AcDbEntity
  8
1
100
AcDbSpline
210
0.0
220
0.0
230
1.0
 70
     8
 71
     3
 72
   119
 73
   115
 74
     0
 42
0.000000001
 43
0.0000000001
 40
0.0
 40
0.0
 40
0.0
 40
0.0
 40
0.0156249999999978
 40
0.0156249999999978
 40
0.0312499999999957
 40
0.0312499999999957
 40
0.0468749999999935
 40
0.0468749999999935
 40
0.0624999999999913
 40
0.0781249999999891
 40
0.0781249999999891
 40
0.093749999999987
 40
0.093749999999987
 40
0.1093749999999848
 40
0.1093749999999848
 40
0.1171874999999838
 40
0.1171874999999838
 40
0.1249999999999829
 40
0.1249999999999829
 40
0.1562499999999796
 40
0.1562499999999796
 40
0.1640624999999787
 40
0.1640624999999787
 40
0.1718749999999779
 40
0.1874999999999767
 40
0.1874999999999767
 40
0.1953124999999762
 40
0.1953124999999762
 40
0.2031249999999758
 40
0.2031249999999758
 40
0.218749999999975
 40
0.218749999999975
 40
0.2499999999999733
 40
0.2499999999999733
 40
0.2656249999999728
 40
0.2656249999999728
 40
0.2734374999999729
 40
0.2734374999999729
 40
0.281249999999973
 40
0.281249999999973
 40
0.3124999999999742
 40
0.3124999999999742
 40
0.3281249999999746
 40
0.3281249999999746
 40
0.3437499999999749
 40
0.3437499999999749
 40
0.3593749999999754
 40
0.3593749999999754
 40
0.3749999999999757
 40
0.3906249999999761
 40
0.3906249999999761
 40
0.4062499999999766
 40
0.4062499999999766
 40
0.4374999999999768
 40
0.4374999999999768
 40
0.4531249999999771
 40
0.4531249999999771
 40
0.4687499999999775
 40
0.4843749999999777
 40
0.4843749999999777
 40
0.4921874999999782
 40
0.4921874999999782
 40
0.4999999999999786
 40
0.4999999999999786
 40
0.5312499999999794
 40
0.5312499999999794
 40
0.5390624999999794
 40
0.5390624999999794
 40
0.5468749999999794
 40
0.5624999999999801
 40
0.5624999999999801
 40
0.5781249999999809
 40
0.5781249999999809
 40
0.5937499999999816
 40
0.6093749999999823
 40
0.6093749999999823
 40
0.624999999999983
 40
0.624999999999983
 40
0.6562499999999845
 40
0.6562499999999845
 40
0.687499999999986
 40
0.687499999999986
 40
0.7031249999999869
 40
0.7031249999999869
 40
0.7187499999999877
 40
0.7187499999999877
 40
0.7343749999999886
 40
0.7343749999999886
 40
0.7499999999999894
 40
0.7656249999999902
 40
0.7656249999999902
 40
0.781249999999991
 40
0.781249999999991
 40
0.7968749999999913
 40
0.7968749999999913
 40
0.8124999999999918
 40
0.8124999999999918
 40
0.8437499999999928
 40
0.8437499999999928
 40
0.8593749999999936
 40
0.8593749999999936
 40
0.8749999999999944
 40
0.8749999999999944
 40
0.8906249999999953
 40
0.8906249999999953
 40
0.906249999999996
 40
0.9218749999999969
 40
0.9218749999999969
 40
0.9296874999999971
 40
0.9296874999999971
 40
0.9374999999999975
 40
0.9374999999999975
 40
0.9687499999999987
 40
1.0
 40
1.0
 40
1.0
 40
1.0
 10
372.3314514637894
 20
283.1534935137011
 30
0.0
 10
372.3229921995391
 20
283.1065591750864
 30
0.0
 10
372.3146432461799
 20
283.0586425690408
 30
0.0
 10
372.2982997881211
 20
282.9616163272812
 30
0.0
 10
372.2902897810246
 20
282.9124234808187
 30
0.0
 10
372.2745927102316
 20
282.8126804402145
 30
0.0
 10
372.2668969019451
 20
282.7620703983405
 30
0.0
 10
372.2518710894308
 20
282.659745537688
 30
0.0
 10
372.2372551786593
 20
282.5566252489076
 30
0.0
 10
372.2234515249066
 20
282.4519287480446
 30
0.0
 10
372.2100554824414
 20
282.3464412637595
 30
0.0
 10
372.2035616465865
 20
282.2932949986234
 30
0.0
 10
372.1910772660472
 20
282.1869963448185
 30
0.0
 10
372.1850739666297
 20
282.1337460723642
 30
0.0
 10
372.1764259637855
 20
282.0537198327105
 30
0.0
 10
372.1736028350084
 20
282.0270192608029
 30
0.0
 10
372.168075997459
 20
281.9735676549539
 30
0.0
 10
372.165369947003
 20
281.9467924301502
 30
0.0
 10
372.1521783853673
 20
281.8131822261859
 30
0.0
 10
372.1426939631192
 20
281.7070594832305
 30
0.0
 10
372.1321620821995
 20
281.5753539591376
 30
0.0
 10
372.1301205916196
 20
281.5490388378469
 30
0.0
 10
372.1261833113251
 20
281.4966678827967
 30
0.0
 10
372.1204929396139
 20
281.4184657712626
 30
0.0
 10
372.1154437531394
 20
281.3413176460831
 30
0.0
 10
372.1108198725711
 20
281.2648686427742
 30
0.0
 10
372.1093495197145
 20
281.2395022546089
 30
0.0
 10
372.1065510181436
 20
281.1890032347922
 30
0.0
 10
372.1052216848551
 20
281.1638446015774
 30
0.0
 10
372.1014657967113
 20
281.0890869476338
 30
0.0
 10
372.0992652337346
 20
281.0401095268991
 30
0.0
 10
372.0935493844478
 20
280.895691489566
 30
0.0
 10
372.0909164066053
 20
280.8027550755161
 30
0.0
 10
372.0887048602042
 20
280.6682830882776
 30
0.0
 10
372.0882582303369
 20
280.6242837493867
 30
0.0
 10
372.0880286493015
 20
280.559534598786
 30
0.0
 10
372.0880255726533
 20
280.5381600182928
 30
0.0
 10
372.0881677752647
 20
280.495831926871
 30
0.0
 10
372.0883134205474
 20
280.4748530072446
 30
0.0
 10
372.089411663017
 20
280.3714740549604
 30
0.0
 10
372.0914669784018
 20
280.293429540387
 30
0.0
 10
372.0962978339562
 20
280.1832826459429
 30
0.0
 10
372.0982024947176
 20
280.1477127440106
 30
0.0
 10
372.1025698703413
 20
280.0793671418769
 30
0.0
 10
372.1050348745759
 20
280.0465277400822
 30
0.0
 10
372.1105248617369
 20
279.9835031547316
 30
0.0
 10
372.1135509439279
 20
279.9533084058476
 30
0.0
 10
372.1201628293403
 20
279.8956326180137
 30
0.0
 10
372.1273050076114
 20
279.8409220685702
 30
0.0
 10
372.1354967192102
 20
279.7920801942605
 30
0.0
 10
372.1442141659826
 20
279.746178073135
 30
0.0
 10
372.1488434517878
 20
279.7246706071178
 30
0.0
 10
372.1634397032427
 20
279.6649627427198
 30
0.0
 10
372.1741262857193
 20
279.6314484622375
 30
0.0
 10
372.1915965242569
 20
279.590657866346
 30
0.0
 10
372.1976429360347
 20
279.5786933980641
 30
0.0
 10
372.2101278041176
 20
279.5580930663917
 30
0.0
 10
372.2230194330955
 20
279.5407862410011
 30
0.0
 10
372.2367222640502
 20
279.5300476448601
 30
0.0
 10
372.2473064536061
 20
279.524479986217
 30
0.0
 10
372.2508857339513
 20
279.5230388007271
 30
0.0
 10
372.2581476910836
 20
279.5209936214123
 30
0.0
 10
372.2618321803101
 20
279.520390419998
 30
0.0
 10
372.2804400172629
 20
279.5194885821564
 30
0.0
 10
372.2959732121014
 20
279.5254833442224
 30
0.0
 10
372.3162045732574
 20
279.5414365685617
 30
0.0
 10
372.3202951026868
 20
279.545055505846
 30
0.0
 10
372.3285332404893
 20
279.5531244178104
 30
0.0
 10
372.3409812464996
 20
279.566477020753
 30
0.0
 10
372.3537005145189
 20
279.5835617005923
 30
0.0
 10
372.3709014614081
 20
279.6096696967856
 30
0.0
 10
372.3796318424208
 20
279.6244046479774
 30
0.0
 10
372.3972989398058
 20
279.6571823586924
 30
0.0
 10
372.4151165271712
 20
279.693158062339
 30
0.0
 10
372.4332340120714
 20
279.7355067497004
 30
0.0
 10
372.4515027990127
 20
279.7810706867158
 30
0.0
 10
372.4607231990415
 20
279.8054937669302
 30
0.0
 10
372.4884204573056
 20
279.8831154818257
 30
0.0
 10
372.5069905575733
 20
279.9407788971175
 30
0.0
 10
372.5443398555547
 20
280.0681158086325
 30
0.0
 10
372.5629160679371
 20
280.1370968304522
 30
0.0
 10
372.5906324895137
 20
280.2485502774605
 30
0.0
 10
372.5998595539372
 20
280.2870961746301
 30
0.0
 10
372.6181369440727
 20
280.3663478853107
 30
0.0
 10
372.627199913723
 20
280.4071004580853
 30
0.0
 10
372.6451744513644
 20
280.4908583068179
 30
0.0
 10
372.6540864041662
 20
280.5338654662011
 30
0.0
 10
372.6717554623888
 20
280.6221532315633
 30
0.0
 10
372.6891724005285
 20
280.712228166865
 30
0.0
 10
372.7060891232364
 20
280.8058489124733
 30
0.0
 10
372.7227545109826
 20
280.9012512626422
 30
0.0
 10
372.7309710221248
 20
280.9499065395253
 30
0.0
 10
372.7470344322683
 20
281.0483128234285
 30
0.0
 10
372.7548946631681
 20
281.0981361588576
 30
0.0
 10
372.7702731485106
 20
281.1990197015162
 30
0.0
 10
372.7777956718979
 20
281.2501099838501
 30
0.0
 10
372.7998182948697
 20
281.4050660324224
 30
0.0
 10
372.8136482842841
 20
281.5097038891043
 30
0.0
 10
372.8331260046872
 20
281.6686451634954
 30
0.0
 10
372.8394106306318
 20
281.7220007197575
 30
0.0
 10
372.8514647231386
 20
281.8286015126649
 30
0.0
 10
372.8572459804637
 20
281.8819390922076
 30
0.0
 10
372.8683194084661
 20
281.9886882405997
 30
0.0
 10
372.8736167521343
 20
282.0421549661204
 30
0.0
 10
372.8836957166349
 20
282.1489196568677
 30
0.0
 10
372.8932279382082
 20
282.2551752813343
 30
0.0
 10
372.9016798747793
 20
282.3604250644077
 30
0.0
 10
372.9076134485622
 20
282.4389849581484
 30
0.0
 10
372.9095260800015
 20
282.4651430230183
 30
0.0
 10
372.9132022166738
 20
282.5171434798372
 30
0.0
 10
372.9149651971272
 20
282.542975459913
 30
0.0
 10
372.9234105905356
 20
282.671307407132
 30
0.0
 10
372.9345677669904
 20
282.8713606931883
 30
0.0
 10
372.9411601087603
 20
283.0611856201368
 30
0.0
 10
372.9432938809719
 20
283.1534935137018
 30
0.0
  0
SPLINE
  5
1DF
330
1F
100
AcDbEntity
  8
1
100
AcDbSpline
210
0.0
220
0.0
230
1.0
 70
     8
 71
     3
 72
    66
 73
    62
 74
     0
 42
0.000000001
 43
0.0000000001
 40
0.0
 40
0.0
 40
0.0
 40
0.0
 40
0.0624999999999928
 40
0.0624999999999928
 40
0.0937499999999893
 40
0.0937499999999893
 40
0.1249999999999858
 40
0.1249999999999858
 40
0.1562499999999823
 40
0.1562499999999823
 40
0.1874999999999789
 40
0.2187499999999754
 40
0.2187499999999754
 40
0.2499999999999719
 40
0.2499999999999719
 40
0.3124999999999658
 40
0.3124999999999658
 40
0.3437499999999638
 40
0.3437499999999638
 40
0.3749999999999617
 40
0.3749999999999617
 40
0.3906249999999613
 40
0.3906249999999613
 40
0.4062499999999609
 40
0.4062499999999609
 40
0.4374999999999609
 40
0.468749999999961
 40
0.468749999999961
 40
0.484374999999962
 40
0.484374999999962
 40
0.499999999999963
 40
0.5312499999999663
 40
0.5312499999999663
 40
0.5468749999999674
 40
0.5468749999999674
 40
0.5624999999999685
 40
0.5624999999999685
 40
0.6249999999999686
 40
0.6249999999999686
 40
0.6406249999999694
 40
0.6406249999999694
 40
0.6562499999999703
 40
0.6874999999999703
 40
0.6874999999999703
 40
0.7031249999999712
 40
0.7031249999999712
 40
0.718749999999972
 40
0.718749999999972
 40
0.7499999999999746
 40
0.7499999999999746
 40
0.8124999999999808
 40
0.8124999999999808
 40
0.8437499999999841
 40
0.8437499999999841
 40
0.8749999999999873
 40
0.8749999999999873
 40
0.9062499999999905
 40
0.9062499999999905
 40
0.9374999999999936
 40
0.9374999999999936
 40
1.0
 40
1.0
 40
1.0
 40
1.0
 10
372.9432938809717
 20
283.1534935137022
 30
0.0
 10
372.935570926614
 20
283.2490972743169
 30
0.0
 10
372.9269983431227
 20
283.341170155681
 30
0.0
 10
372.9128395478315
 20
283.4738772845038
 30
0.0
 10
372.9078961256097
 20
283.5172482687134
 30
0.0
 10
372.8976707015393
 20
283.6012909321066
 30
0.0
 10
372.8923776534359
 20
283.6420736947327
 30
0.0
 10
372.8814321568839
 20
283.7211708166527
 30
0.0
 10
372.8757783017347
 20
283.7594941309857
 30
0.0
 10
372.8641134966494
 20
283.8336123603389
 30
0.0
 10
372.8521478677403
 20
283.9048470090789
 30
0.0
 10
372.8395860691821
 20
283.9703670065569
 30
0.0
 10
372.826725023489
 20
284.0330185369459
 30
0.0
 10
372.8201342710538
 20
284.0629503095557
 30
0.0
 10
372.8000362498469
 20
284.1478446204058
 30
0.0
 10
372.7861787714875
 20
284.1980806471564
 30
0.0
 10
372.764697804115
 20
284.2638035672243
 30
0.0
 10
372.7574439649485
 20
284.2840272737881
 30
0.0
 10
372.74279599644
 20
284.3209928092274
 30
0.0
 10
372.7353947510363
 20
284.3377566605307
 30
0.0
 10
372.7241763682207
 20
284.3603102025877
 30
0.0
 10
372.7204174723223
 20
284.367395658347
 30
0.0
 10
372.7128605124391
 20
284.3806951530212
 30
0.0
 10
372.7090622938514
 20
284.3869083121364
 30
0.0
 10
372.6976500714827
 20
284.4041696478195
 30
0.0
 10
372.682359577764
 20
284.4235632542918
 30
0.0
 10
372.6669208118023
 20
284.4357198102203
 30
0.0
 10
372.6552854369351
 20
284.4420892495284
 30
0.0
 10
372.6513963195375
 20
284.4437534779928
 30
0.0
 10
372.6436275461024
 20
284.4461497032747
 30
0.0
 10
372.6319782766379
 20
284.4483517711103
 30
0.0
 10
372.6203406416448
 20
284.4463904811017
 30
0.0
 10
372.6087108102502
 20
284.4416366986956
 30
0.0
 10
372.6048355014639
 20
284.4395863031193
 30
0.0
 10
372.5970875085102
 20
284.4345463005831
 30
0.0
 10
372.5932137026654
 20
284.4315547065733
 30
0.0
 10
372.5739228886529
 20
284.4142953569279
 30
0.0
 10
372.5586834298217
 20
284.3931245643852
 30
0.0
 10
372.5398787019194
 20
284.3573385828271
 30
0.0
 10
372.5361304645397
 20
284.3497128892635
 30
0.0
 10
372.5286869004602
 20
284.3335803737388
 30
0.0
 10
372.5175902819723
 20
284.3080396550306
 30
0.0
 10
372.5066991832754
 20
284.2784860475055
 30
0.0
 10
372.4959459654567
 20
284.2462402387514
 30
0.0
 10
372.4923845590656
 20
284.2350425567926
 30
0.0
 10
372.4853081308275
 20
284.2117415087158
 30
0.0
 10
372.4817990350461
 20
284.1996562968876
 30
0.0
 10
372.4713986710744
 20
284.1622482996073
 30
0.0
 10
372.4646178760491
 20
284.135721385385
 30
0.0
 10
372.4447255079788
 20
284.0514624469255
 30
0.0
 10
372.4320619706593
 20
283.9890728234855
 30
0.0
 10
372.4139672472303
 20
283.8861262943484
 30
0.0
 10
372.4080862629855
 20
283.8502453091574
 30
0.0
 10
372.3966322840466
 20
283.7752816032786
 30
0.0
 10
372.391047415776
 20
283.7360978527929
 30
0.0
 10
372.3803132167043
 20
283.6553314518716
 30
0.0
 10
372.3751509302853
 20
283.6136761880299
 30
0.0
 10
372.3652347854041
 20
283.5278289759042
 30
0.0
 10
372.3604769002117
 20
283.4835965201348
 30
0.0
 10
372.3468485481424
 20
283.3473141863862
 30
0.0
 10
372.3386897165509
 20
283.2524133714944
 30
0.0
 10
372.3314514637894
 20
283.1534935137011
 30
0.0
  0
SPLINE
  5
1E0
330
1F
100
AcDbEntity
  8
1
100
AcDbSpline
210
0.0
220
0.0
230
1.0
 70
     8
 71
     3
 72
    29
 73
    25
 74
     0
 42
0.000000001
 43
0.0000000001
 40
0.0
 40
0.0
 40
0.0
 40
0.0
 40
0.1250000000000107
 40
0.1250000000000107
 40
0.1875000000000165
 40
0.1875000000000165
 40
0.2500000000000221
 40
0.2500000000000221
 40
0.3750000000000239
 40
0.3750000000000239
 40
0.437500000000021
 40
0.437500000000021
 40
0.5000000000000179
 40
0.562500000000015
 40
0.562500000000015
 40
0.6250000000000121
 40
0.6250000000000121
 40
0.6875000000000091
 40
0.6875000000000091
 40
0.7500000000000061
 40
0.7500000000000061
 40
0.875000000000003
 40
0.875000000000003
 40
1.0
 40
1.0
 40
1.0
 40
1.0
 10
356.5854001406986
 20
295.6208831584382
 30
0.0
 10
356.5762022263752
 20
295.6375705548793
 30
0.0
 10
356.5681887952052
 20
295.6547563429253
 30
0.0
 10
356.5583679888975
 20
295.6814568348275
 30
0.0
 10
356.5554629540642
 20
295.6905114634547
 30
0.0
 10
356.5504961093808
 20
295.7089733980794
 30
0.0
 10
356.5484291965998
 20
295.7184103338512
 30
0.0
 10
356.5437412440775
 20
295.747133329782
 30
0.0
 10
356.5426417830604
 20
295.7665958090606
 30
0.0
 10
356.5448054415889
 20
295.7963745898035
 30
0.0
 10
356.5461745800982
 20
295.8064376361195
 30
0.0
 10
356.5503607316639
 20
295.8266210745193
 30
0.0
 10
356.5559324590625
 20
295.8465985688415
 30
0.0
 10
356.5643928897846
 20
295.8661449946044
 30
0.0
 10
356.5743838055639
 20
295.8854622044413
 30
0.0
 10
356.5801682080843
 20
295.8950154446411
 30
0.0
 10
356.5929054881339
 20
295.9132843418431
 30
0.0
 10
356.5998948929248
 20
295.9220807303612
 30
0.0
 10
356.6150491857844
 20
295.939032911794
 30
0.0
 10
356.6232594920303
 20
295.9472284303539
 30
0.0
 10
356.6492718899195
 20
295.9706129010185
 30
0.0
 10
356.6681045633866
 20
295.9843583653234
 30
0.0
 10
356.7080609969076
 20
296.0090150983281
 30
0.0
 10
356.729272373886
 20
296.0199385467939
 30
0.0
 10
356.7509906678139
 20
296.029505652616
 30
0.0
  0
SPLINE
  5
1E1
330
1F
100
AcDbEntity
  8
1
100
AcDbSpline
210
0.0
220
0.0
230
1.0
 70
     8
 71
     3
 72
    28
 73
    24
 74
     0
 42
0.000000001
 43
0.0000000001
 40
0.0
 40
0.0
 40
0.0
 40
0.0
 40
0.0624999999999995
 40
0.0624999999999995
 40
0.1249999999999989
 40
0.1249999999999989
 40
0.1874999999999984
 40
0.1874999999999984
 40
0.2499999999999979
 40
0.2499999999999979
 40
0.3124999999999973
 40
0.3124999999999973
 40
0.3749999999999968
 40
0.3749999999999968
 40
0.4374999999999963
 40
0.4374999999999963
 40
0.4999999999999958
 40
0.4999999999999958
 40
0.6249999999999976
 40
0.6249999999999976
 40
0.7499999999999995
 40
0.7499999999999995
 40
1.0
 40
1.0
 40
1.0
 40
1.0
 10
356.6994421336594
 20
292.62031616589
 30
0.0
 10
356.4792990888369
 20
292.7341509387257
 30
0.0
 10
356.2586261474676
 20
292.8501059373598
 30
0.0
 10
355.8164207593179
 20
293.0854549937361
 30
0.0
 10
355.5948920981636
 20
293.2048339044054
 30
0.0
 10
355.1511596006117
 20
293.4462932416862
 30
0.0
 10
354.9289553016677
 20
293.5683755190415
 30
0.0
 10
354.4840019132274
 20
293.8147198935499
 30
0.0
 10
354.2612525047384
 20
293.9389832670595
 30
0.0
 10
353.8153057089865
 20
294.1893024699054
 30
0.0
 10
353.5921080942342
 20
294.3153592094748
 30
0.0
 10
353.1453361453263
 20
294.5689800209444
 30
0.0
 10
352.9217616458566
 20
294.696544754301
 30
0.0
 10
352.4742874248248
 20
294.9529755019433
 30
0.0
 10
352.2503757810672
 20
295.0818488196207
 30
0.0
 10
351.8023110190958
 20
295.3407252114234
 30
0.0
 10
351.578513699012
 20
295.4705228578325
 30
0.0
 10
350.907762917883
 20
295.8608962755629
 30
0.0
 10
350.4614440864553
 20
296.1224425100131
 30
0.0
 10
349.5703572155188
 20
296.6479064194135
 30
0.0
 10
349.1255942640136
 20
296.911831874839
 30
0.0
 10
347.7936775585337
 20
297.7072356847643
 30
0.0
 10
346.9088965282891
 20
298.2423423617238
 30
0.0
 10
346.0273988966994
 20
298.7824699473267
 30
0.0
  0
SPLINE
  5
1E2
330
1F
100
AcDbEntity
  8
1
100
AcDbSpline
210
0.0
220
0.0
230
1.0
 70
     8
 71
     3
 72
    36
 73
    32
 74
     0
 42
0.000000001
 43
0.0000000001
 40
0.0
 40
0.0
 40
0.0
 40
0.0
 40
0.0624999999999978
 40
0.0624999999999978
 40
0.1249999999999956
 40
0.1249999999999956
 40
0.2499999999999912
 40
0.2499999999999912
 40
0.3749999999999868
 40
0.3749999999999868
 40
0.4999999999999824
 40
0.4999999999999824
 40
0.5624999999999897
 40
0.5624999999999897
 40
0.6249999999999972
 40
0.6249999999999972
 40
0.6562500000000008
 40
0.6562500000000008
 40
0.6875000000000045
 40
0.6875000000000045
 40
0.7499999999999913
 40
0.7499999999999913
 40
0.8124999999999783
 40
0.8124999999999783
 40
0.8749999999999651
 40
0.8749999999999651
 40
0.9062499999999687
 40
0.9062499999999687
 40
0.9374999999999726
 40
0.9374999999999726
 40
1.0
 40
1.0
 40
1.0
 40
1.0
 10
365.1385703493706
 20
294.4535479125759
 30
0.0
 10
365.1049980074922
 20
294.4280403164754
 30
0.0
 10
365.0710143832223
 20
294.4034959082328
 30
0.0
 10
365.0022022779135
 20
294.3562412390264
 30
0.0
 10
364.9673740130828
 20
294.3335313563932
 30
0.0
 10
364.8615919396482
 20
294.2680667068412
 30
0.0
 10
364.7893333555572
 20
294.2279612082017
 30
0.0
 10
364.6411954909134
 20
294.1546864922602
 30
0.0
 10
364.5665521675068
 20
294.1221183880835
 30
0.0
 10
364.4156224467159
 20
294.0644272703204
 30
0.0
 10
364.3393497022379
 20
294.0393062870091
 30
0.0
 10
364.223143657027
 20
294.0070662629274
 30
0.0
 10
364.1841056123212
 20
293.99723002131
 30
0.0
 10
364.1052533372792
 20
293.9794069299641
 30
0.0
 10
364.065440340402
 20
293.9714193611907
 30
0.0
 10
364.0049448185563
 20
293.9608850701142
 30
0.0
 10
363.9846494622795
 20
293.9576152953254
 30
0.0
 10
363.9437548090411
 20
293.9515763096697
 30
0.0
 10
363.9231111242086
 20
293.9488018459945
 30
0.0
 10
363.8609573748853
 20
293.9413006648699
 30
0.0
 10
363.8195361265797
 20
293.937430075548
 30
0.0
 10
363.7367492336432
 20
293.931975478706
 30
0.0
 10
363.6953840466047
 20
293.9303922898677
 30
0.0
 10
363.6127118269262
 20
293.9295083872578
 30
0.0
 10
363.5714044025939
 20
293.9302068565815
 30
0.0
 10
363.5094680444868
 20
293.9329368051263
 30
0.0
 10
363.488792026115
 20
293.9341296278826
 30
0.0
 10
363.4476201115718
 20
293.9370574386135
 30
0.0
 10
363.4271472513439
 20
293.9387894808108
 30
0.0
 10
363.3660058533612
 20
293.9447646214223
 30
0.0
 10
363.3256114891134
 20
293.949784612308
 30
0.0
 10
363.2854531464569
 20
293.9558026505449
 30
0.0
  0
SPLINE
  5
1E3
330
1F
100
AcDbEntity
  8
1
100
AcDbSpline
210
0.0
220
0.0
230
1.0
 70
     8
 71
     3
 72
    23
 73
    19
 74
     0
 42
0.000000001
 43
0.0000000001
 40
0.0
 40
0.0
 40
0.0
 40
0.0
 40
0.2500000000000067
 40
0.2500000000000067
 40
0.3750000000000101
 40
0.3750000000000101
 40
0.4375000000000084
 40
0.4687500000000075
 40
0.4687500000000075
 40
0.5000000000000068
 40
0.5000000000000068
 40
0.75
 40
0.75
 40
0.8125000000000015
 40
0.8125000000000015
 40
0.8750000000000031
 40
0.8750000000000031
 40
1.0
 40
1.0
 40
1.0
 40
1.0
 10
363.2823956729575
 20
293.8613944402912
 30
0.0
 10
362.778041174035
 20
293.8436771337993
 30
0.0
 10
362.2761631590754
 20
293.8559143275814
 30
0.0
 10
361.5269833029708
 20
293.9182070676931
 30
0.0
 10
361.2778645715122
 20
293.9463141847502
 30
0.0
 10
360.9051036287892
 20
293.9995417227563
 30
0.0
 10
360.7189526012098
 20
294.0289240274326
 30
0.0
 10
360.5331481710323
 20
294.0624857442879
 30
0.0
 10
360.4093559449926
 20
294.0857931266918
 30
0.0
 10
360.3475071696887
 20
294.0979121951142
 30
0.0
 10
359.7923564721605
 20
294.2109568397265
 30
0.0
 10
359.3074319242382
 20
294.3399661986658
 30
0.0
 10
358.7118844139276
 20
294.536469112284
 30
0.0
 10
358.5933071496913
 20
294.5775375020779
 30
0.0
 10
358.3572226937182
 20
294.6632223838594
 30
0.0
 10
358.2399336738556
 20
294.7077610475399
 30
0.0
 10
357.8906767426628
 20
294.8462859032941
 30
0.0
 10
357.6611594102994
 20
294.9452338157048
 30
0.0
 10
357.4349428889773
 20
295.0507057413501
 30
0.0
  0
SPLINE
  5
1E4
330
1F
100
AcDbEntity
  8
1
100
AcDbSpline
210
0.0
220
0.0
230
1.0
 70
     8
 71
     3
 72
     8
 73
     4
 74
     0
 42
0.000000001
 43
0.0000000001
 40
0.0
 40
0.0
 40
0.0
 40
0.0
 40
1.0
 40
1.0
 40
1.0
 40
1.0
 10
363.2823956729575
 20
293.8613944402912
 30
0.0
 10
363.2859532773139
 20
293.861519414227
 30
0.0
 10
363.2895118830364
 20
293.8616439889718
 30
0.0
 10
363.2930714918052
 20
293.8617681638559
 30
0.0
  0
SPLINE
  5
1E5
330
1F
100
AcDbEntity
  8
1
100
AcDbSpline
210
0.0
220
0.0
230
1.0
 70
     8
 71
     3
 72
    27
 73
    23
 74
     0
 42
0.000000001
 43
0.0000000001
 40
0.0
 40
0.0
 40
0.0
 40
0.0
 40
0.1250000000000022
 40
0.1250000000000022
 40
0.2500000000000044
 40
0.2500000000000044
 40
0.3125000000000056
 40
0.3125000000000056
 40
0.3750000000000067
 40
0.3750000000000067
 40
0.5000000000000146
 40
0.5000000000000146
 40
0.5312500000000123
 40
0.5312500000000123
 40
0.5625000000000099
 40
0.5625000000000099
 40
0.6250000000000111
 40
0.6250000000000111
 40
0.7500000000000073
 40
0.8750000000000037
 40
0.8750000000000037
 40
1.0
 40
1.0
 40
1.0
 40
1.0
 10
356.7269155821558
 20
291.8173292343515
 30
0.0
 10
356.9762323661906
 20
291.6631759804584
 30
0.0
 10
357.2306620070427
 20
291.5185692734313
 30
0.0
 10
357.749656684073
 20
291.2484634316075
 30
0.0
 10
358.0142213713447
 20
291.1229634552346
 30
0.0
 10
358.4187083216041
 20
290.9492391903336
 30
0.0
 10
358.5548845036797
 20
290.8937321019429
 30
0.0
 10
358.8286579384952
 20
290.7880412729178
 30
0.0
 10
358.9663859662488
 20
290.737797896031
 30
0.0
 10
359.3820787853571
 20
290.5948446385273
 30
0.0
 10
359.6625488757648
 20
290.5099015135501
 30
0.0
 10
360.0173136524456
 20
290.4167230062973
 30
0.0
 10
360.0884757352364
 20
290.3987381171684
 30
0.0
 10
360.2312192547819
 20
290.3640744771877
 30
0.0
 10
360.3028489278361
 20
290.3473852203389
 30
0.0
 10
360.5179598686327
 20
290.2993752624418
 30
0.0
 10
360.6616244800899
 20
290.2701153870928
 30
0.0
 10
361.0933800488674
 20
290.1904749399974
 30
0.0
 10
361.6710832156472
 20
290.1059694712018
 30
0.0
 10
362.2527902752407
 20
290.0643090646654
 30
0.0
 10
362.836507634534
 20
290.0441758802172
 30
0.0
 10
363.1293713750653
 20
290.0448719622913
 30
0.0
 10
363.4232627296164
 20
290.0565719367616
 30
0.0
  0
SPLINE
  5
1E6
330
1F
100
AcDbEntity
  8
1
100
AcDbSpline
210
0.0
220
0.0
230
1.0
 70
     8
 71
     3
 72
    40
 73
    36
 74
     0
 42
0.000000001
 43
0.0000000001
 40
0.0
 40
0.0
 40
0.0
 40
0.0
 40
0.0625000000000005
 40
0.0625000000000005
 40
0.0937500000000028
 40
0.0937500000000028
 40
0.1093750000000042
 40
0.1093750000000042
 40
0.1250000000000056
 40
0.1250000000000056
 40
0.156250000000008
 40
0.156250000000008
 40
0.1875000000000104
 40
0.1875000000000104
 40
0.2500000000000152
 40
0.2500000000000152
 40
0.2812500000000176
 40
0.2812500000000176
 40
0.31250000000002
 40
0.31250000000002
 40
0.3750000000000196
 40
0.3750000000000196
 40
0.4375000000000192
 40
0.4375000000000192
 40
0.5000000000000188
 40
0.5000000000000188
 40
0.5625000000000183
 40
0.5625000000000183
 40
0.625000000000018
 40
0.625000000000018
 40
0.7500000000000121
 40
0.7500000000000121
 40
0.875000000000006
 40
0.875000000000006
 40
1.0
 40
1.0
 40
1.0
 40
1.0
 10
363.3754892240005
 20
291.4528837499142
 30
0.0
 10
363.2864876865179
 20
291.4208965661767
 30
0.0
 10
363.1824298453032
 20
291.3927870680105
 30
0.0
 10
363.0078126957979
 20
291.3571090272802
 30
0.0
 10
362.9465287549058
 20
291.3462955170457
 30
0.0
 10
362.8505449413672
 20
291.3317557372545
 30
0.0
 10
362.81781715373
 20
291.3271834613107
 30
0.0
 10
362.7518115946787
 20
291.3186910326471
 30
0.0
 10
362.7184554598045
 20
291.3147576289514
 30
0.0
 10
362.6174504451137
 20
291.3038569923618
 30
0.0
 10
362.5488691367922
 20
291.2977880859635
 30
0.0
 10
362.4097592442118
 20
291.2878744774078
 30
0.0
 10
362.3392294728344
 20
291.2840301381328
 30
0.0
 10
362.1253480832053
 20
291.2756300989601
 30
0.0
 10
361.9797357725039
 20
291.2741979354579
 30
0.0
 10
361.7585586758886
 20
291.2777078287683
 30
0.0
 10
361.6845986821994
 20
291.2798198885502
 30
0.0
 10
361.5365000687226
 20
291.2858165959303
 30
0.0
 10
361.462335264143
 20
291.289701860076
 30
0.0
 10
361.2396464009643
 20
291.303888883062
 30
0.0
 10
361.0909353242956
 20
291.3167156679019
 30
0.0
 10
360.7935808117695
 20
291.3486092196155
 30
0.0
 10
360.6449338708403
 20
291.3676784857096
 30
0.0
 10
360.348069723667
 20
291.4117377673546
 30
0.0
 10
360.1998118831417
 20
291.4367364504359
 30
0.0
 10
359.9041273053019
 20
291.4924201409168
 30
0.0
 10
359.757221182566
 20
291.5230056440918
 30
0.0
 10
359.4653899903784
 20
291.5894174268333
 30
0.0
 10
359.3204641861291
 20
291.6252443785154
 30
0.0
 10
358.8887531262519
 20
291.7403291184345
 30
0.0
 10
358.605040428284
 20
291.8271687591447
 30
0.0
 10
358.04604402711
 20
292.0203484619373
 30
0.0
 10
357.770753900743
 20
292.1266944011541
 30
0.0
 10
357.2286903499611
 20
292.3588160403279
 30
0.0
 10
356.961913754555
 20
292.484593516262
 30
0.0
 10
356.6994421336594
 20
292.62031616589
 30
0.0
  0
SPLINE
  5
1E7
330
1F
100
AcDbEntity
  8
1
100
AcDbSpline
210
0.0
220
0.0
230
1.0
 70
     8
 71
     3
 72
    22
 73
    18
 74
     0
 42
0.000000001
 43
0.0000000001
 40
0.0
 40
0.0
 40
0.0
 40
0.0
 40
0.1249999999999966
 40
0.1249999999999966
 40
0.2499999999999931
 40
0.2499999999999931
 40
0.4999999999999862
 40
0.4999999999999862
 40
0.6249999999999827
 40
0.6249999999999827
 40
0.6874999999999957
 40
0.6874999999999957
 40
0.7500000000000087
 40
0.7500000000000087
 40
0.8750000000000042
 40
0.8750000000000042
 40
1.0
 40
1.0
 40
1.0
 40
1.0
 10
363.2854531464569
 20
293.9558026505449
 30
0.0
 10
363.2366412179032
 20
293.9631174955564
 30
0.0
 10
363.1883718826557
 20
293.9718551530723
 30
0.0
 10
363.0926865901189
 20
293.9920835892776
 30
0.0
 10
363.0452725626999
 20
294.0035751257689
 30
0.0
 10
362.9040976282078
 20
294.0421441844545
 30
0.0
 10
362.8113977888194
 20
294.0732912711082
 30
0.0
 10
362.6739189510648
 20
294.1284883917751
 30
0.0
 10
362.6283572228731
 20
294.1483062747689
 30
0.0
 10
362.5603508283252
 20
294.1802658801581
 30
0.0
 10
362.5377380421229
 20
294.1912917062786
 30
0.0
 10
362.492613424731
 20
294.2141128911412
 30
0.0
 10
362.4700569268921
 20
294.2259329212608
 30
0.0
 10
362.4028960164159
 20
294.262385481404
 30
0.0
 10
362.3588426452569
 20
294.2879781230758
 30
0.0
 10
362.2721357727904
 20
294.3417465833577
 30
0.0
 10
362.229482587871
 20
294.3699222914985
 30
0.0
 10
362.1875109502578
 20
294.399408157096
 30
0.0
  0
SPLINE
  5
1E8
330
1F
100
AcDbEntity
  8
1
100
AcDbSpline
210
0.0
220
0.0
230
1.0
 70
    12
 71
     2
 72
     6
 73
     3
 74
     0
 42
0.000000001
 43
0.0000000001
 40
0.0
 40
0.0
 40
0.0
 40
1.0
 40
1.0
 40
1.0
 10
361.3648559007154
 20
307.349572149902
 30
0.0
 41
0.4999971311519206
 10
361.477038175195
 20
307.3494166789978
 30
0.0
 41
0.5000028688480796
 10
361.5892197348588
 20
307.3492607950114
 30
0.0
 41
0.4999971311519206
  0
SPLINE
  5
1E9
330
1F
100
AcDbEntity
  8
1
100
AcDbSpline
210
0.0
220
0.0
230
1.0
 70
     8
 71
     3
 72
    12
 73
     8
 74
     0
 42
0.000000001
 43
0.0000000001
 40
0.0
 40
0.0
 40
0.0
 40
0.0
 40
0.25
 40
0.25
 40
0.5
 40
0.75
 40
1.0
 40
1.0
 40
1.0
 40
1.0
 10
302.9048419452112
 20
307.1894128580295
 30
0.0
 10
302.6657477239149
 20
307.1894128580298
 30
0.0
 10
302.4285102635221
 20
307.1909960080849
 30
0.0
 10
301.9576093031276
 20
307.1971122357923
 30
0.0
 10
301.4902827564128
 20
307.2061778260173
 30
0.0
 10
300.7997805307685
 20
307.2275814000801
 30
0.0
 10
300.346388596066
 20
307.2460996227206
 30
0.0
 10
300.1214424067451
 20
307.2561125277382
 30
0.0
  0
SPLINE
  5
1EA
330
1F
100
AcDbEntity
  8
1
100
AcDbSpline
210
0.0
220
0.0
230
1.0
 70
     8
 71
     3
 72
     8
 73
     4
 74
     0
 42
0.000000001
 43
0.0000000001
 40
0.0
 40
0.0
 40
0.0
 40
0.0
 40
1.0
 40
1.0
 40
1.0
 40
1.0
 10
360.8923034985147
 20
301.6586154452081
 30
0.0
 10
360.8730481158908
 20
303.5471041532583
 30
0.0
 10
360.8579479374327
 20
305.4356283757278
 30
0.0
 10
360.8450833977035
 20
307.3241654614994
 30
0.0
  0
SPLINE
  5
1EB
330
1F
100
AcDbEntity
  8
1
100
AcDbSpline
210
0.0
220
0.0
230
1.0
 70
    12
 71
     2
 72
     6
 73
     3
 74
     0
 42
0.000000001
 43
0.0000000001
 40
0.0
 40
0.0
 40
0.0
 40
1.0
 40
1.0
 40
1.0
 10
360.8450833977038
 20
307.3241654614993
 30
0.0
 41
0.4999997629321883
 10
361.1025526414818
 20
307.3237379293338
 30
0.0
 41
0.5000002370678117
 10
361.3600161242284
 20
307.3233082217107
 30
0.0
 41
0.4999997629321883
  0
SPLINE
  5
1EC
330
1F
100
AcDbEntity
  8
1
100
AcDbSpline
210
0.0
220
0.0
230
1.0
 70
    28
 71
     4
 72
    13
 73
     8
 74
     0
 42
0.000000001
 43
0.0000000001
 40
0.0
 40
0.0
 40
0.0
 40
0.0
 40
0.0
 40
0.0726290668587437
 40
0.0726290668587437
 40
0.0726290668587437
 40
1.0
 40
1.0
 40
1.0
 40
1.0
 40
1.0
 10
302.9048419452957
 20
279.2939310511774
 30
0.0
 41
0.990541255001055
 10
302.9048419452957
 20
279.1428197547081
 30
0.0
 41
0.9899613409491351
 10
302.9048419452957
 20
278.9902320068139
 30
0.0
 41
0.9894032389118343
 10
302.9048419452957
 20
278.8362937653887
 30
0.0
 41
0.9888712669777108
 10
302.9048419452957
 20
276.6860329630597
 30
0.0
 41
0.9819546435486772
 10
302.9048419452957
 20
274.5112490786875
 30
0.0
 41
0.9803701791729203
 10
302.9048419452957
 20
272.4864198074146
 30
0.0
 41
0.990889013227466
 10
302.9048419452957
 20
270.8553630511773
 30
0.0
 41
0.9988775166999969
  0
SPLINE
  5
1ED
330
1F
100
AcDbEntity
  8
1
100
AcDbSpline
210
0.0
220
0.0
230
1.0
 70
     9
 71
     3
 72
   133
 73
   129
 74
     0
 42
0.000000001
 43
0.0000000001
 40
0.0
 40
0.0
 40
0.0
 40
0.0
 40
0.031250000000012
 40
0.031250000000012
 40
0.046875000000018
 40
0.046875000000018
 40
0.0625000000000241
 40
0.0625000000000241
 40
0.0937500000000381
 40
0.0937500000000381
 40
0.1093750000000452
 40
0.1093750000000452
 40
0.1250000000000524
 40
0.1250000000000524
 40
0.1562500000000668
 40
0.1562500000000668
 40
0.1640625000000704
 40
0.1640625000000704
 40
0.1718750000000739
 40
0.1718750000000739
 40
0.1875000000000849
 40
0.203125000000096
 40
0.203125000000096
 40
0.2109375000001014
 40
0.2109375000001014
 40
0.2187500000001069
 40
0.2187500000001069
 40
0.2500000000001245
 40
0.2500000000001245
 40
0.2656250000001311
 40
0.2656250000001311
 40
0.2734375000001321
 40
0.2734375000001321
 40
0.2812500000001332
 40
0.2812500000001332
 40
0.3125000000001329
 40
0.3125000000001329
 40
0.3203125000001318
 40
0.3203125000001318
 40
0.3281250000001306
 40
0.3281250000001306
 40
0.3437500000001283
 40
0.3593750000001261
 40
0.3593750000001261
 40
0.367187500000125
 40
0.367187500000125
 40
0.3750000000001238
 40
0.3750000000001238
 40
0.4062500000001196
 40
0.4062500000001196
 40
0.4218750000001185
 40
0.4218750000001185
 40
0.4296875000001171
 40
0.4296875000001171
 40
0.4375000000001157
 40
0.4375000000001157
 40
0.4687500000001125
 40
0.4687500000001125
 40
0.4765625000001119
 40
0.4765625000001119
 40
0.4843750000001112
 40
0.4843750000001112
 40
0.50000000000011
 40
0.50000000000011
 40
0.5312500000001077
 40
0.5312500000001077
 40
0.5390625000001077
 40
0.5390625000001077
 40
0.5468750000001077
 40
0.5468750000001077
 40
0.5625000000001086
 40
0.5781250000001096
 40
0.5781250000001096
 40
0.5859375000001102
 40
0.5859375000001102
 40
0.5937500000001107
 40
0.5937500000001107
 40
0.6250000000001088
 40
0.6250000000001088
 40
0.6406250000001095
 40
0.6406250000001095
 40
0.6484375000001082
 40
0.6484375000001082
 40
0.6562500000001068
 40
0.6562500000001068
 40
0.6875000000000938
 40
0.6875000000000938
 40
0.6953125000000916
 40
0.6953125000000916
 40
0.7031250000000894
 40
0.7031250000000894
 40
0.7187500000000892
 40
0.7187500000000892
 40
0.7500000000000888
 40
0.7500000000000888
 40
0.7578125000000864
 40
0.7578125000000864
 40
0.7656250000000841
 40
0.7656250000000841
 40
0.7812500000000793
 40
0.7968750000000746
 40
0.7968750000000746
 40
0.8046875000000698
 40
0.8046875000000698
 40
0.8125000000000655
 40
0.8125000000000655
 40
0.8437500000000554
 40
0.8437500000000554
 40
0.8515625000000518
 40
0.8515625000000518
 40
0.8593750000000483
 40
0.8593750000000483
 40
0.8750000000000408
 40
0.8750000000000408
 40
0.9062500000000259
 40
0.9062500000000259
 40
0.9140625000000227
 40
0.9140625000000227
 40
0.9218750000000197
 40
0.9218750000000197
 40
0.937500000000015
 40
0.9531250000000104
 40
0.9531250000000104
 40
0.9609375000000087
 40
0.9609375000000087
 40
0.9687500000000072
 40
0.9687500000000072
 40
1.0
 40
1.0
 40
1.0
 40
1.0
 10
367.9691615337857
 20
284.614186265565
 30
0.0
 10
367.9708110226809
 20
284.7086854210798
 30
0.0
 10
367.9815900477588
 20
284.8017043285172
 30
0.0
 10
368.0110802544627
 20
284.9390541285504
 30
0.0
 10
368.0231461684676
 20
284.984471512963
 30
0.0
 10
368.0518772743425
 20
285.0745472306257
 30
0.0
 10
368.0686414205467
 20
285.1193882918946
 30
0.0
 10
368.1249380483891
 20
285.2499738135322
 30
0.0
 10
368.1705818891706
 20
285.3325826209478
 30
0.0
 10
368.2512041301298
 20
285.4497748934825
 30
0.0
 10
368.2801178890828
 20
285.4877112289194
 30
0.0
 10
368.3422005121414
 20
285.5612202594693
 30
0.0
 10
368.3748653570692
 20
285.596192083408
 30
0.0
 10
368.4774408848257
 20
285.6957495725392
 30
0.0
 10
368.5519504700983
 20
285.7551008842417
 30
0.0
 10
368.6529244186989
 20
285.8202602861547
 30
0.0
 10
368.6735396992048
 20
285.8328510176528
 30
0.0
 10
368.7154735750215
 20
285.8570363631871
 30
0.0
 10
368.7366614802097
 20
285.8685573269728
 30
0.0
 10
368.8008748267959
 20
285.901437967692
 30
0.0
 10
368.8882217997416
 20
285.9408009429244
 30
0.0
 10
368.9789660922922
 20
285.9713526474066
 30
0.0
 10
369.0483133979088
 20
285.9909188938736
 30
0.0
 10
369.0716444057906
 20
285.9968820479766
 30
0.0
 10
369.1187443633819
 20
286.0076705580964
 30
0.0
 10
369.142582575142
 20
286.0125071854546
 30
0.0
 10
369.261911373373
 20
286.0336086097842
 30
0.0
 10
369.3576065139246
 20
286.0407563068297
 30
0.0
 10
369.5014865582278
 20
286.0373234585232
 30
0.0
 10
369.5495032201329
 20
286.0338025067585
 30
0.0
 10
369.6216157319167
 20
286.0248501695854
 30
0.0
 10
369.645694016524
 20
286.0212446907474
 30
0.0
 10
369.6933351632596
 20
286.0128860909224
 30
0.0
 10
369.7169647886907
 20
286.0081264040541
 30
0.0
 10
369.8341748075778
 20
285.9814776940504
 30
0.0
 10
369.9249685029548
 20
285.9511207989294
 30
0.0
 10
370.0347246638961
 20
285.9018498346651
 30
0.0
 10
370.0564873683972
 20
285.891424208346
 30
0.0
 10
370.0996281124469
 20
285.8694079390714
 30
0.0
 10
370.1208866397184
 20
285.8578762541183
 30
0.0
 10
370.1834605386344
 20
285.8218948855207
 30
0.0
 10
370.2639397075262
 20
285.7701052253045
 30
0.0
 10
370.3386564177345
 20
285.710888688035
 30
0.0
 10
370.3925233180705
 20
285.6636857669786
 30
0.0
 10
370.4101165364387
 20
285.6474855496813
 30
0.0
 10
370.4445685892155
 20
285.6141422408104
 30
0.0
 10
370.4614660385862
 20
285.5969573054036
 30
0.0
 10
370.5436098189455
 20
285.5091376764233
 30
0.0
 10
370.6012300910936
 20
285.4336580076008
 30
0.0
 10
370.6760664418032
 20
285.3130171820589
 30
0.0
 10
370.6990653058521
 20
285.2715573995504
 30
0.0
 10
370.730586590138
 20
285.2074688372715
 30
0.0
 10
370.740617584195
 20
285.1857355443343
 30
0.0
 10
370.7594869168143
 20
285.142054604587
 30
0.0
 10
370.7683446357592
 20
285.1200741472514
 30
0.0
 10
370.8098091222913
 20
285.009489277428
 30
0.0
 10
370.8340211980017
 20
284.9188570204134
 30
0.0
 10
370.8532470817353
 20
284.8029305573821
 30
0.0
 10
370.8565354837108
 20
284.7796122260244
 30
0.0
 10
370.8619831578092
 20
284.7327062255411
 30
0.0
 10
370.864140716303
 20
284.70909505751
 30
0.0
 10
370.8688535079996
 20
284.6385959034577
 30
0.0
 10
370.8696868329484
 20
284.5918024812702
 30
0.0
 10
370.8654750340993
 20
284.452022619399
 30
0.0
 10
370.8537805503881
 20
284.3596322613562
 30
0.0
 10
370.8278052606818
 20
284.2451479952938
 30
0.0
 10
370.8220274348683
 20
284.222278034532
 30
0.0
 10
370.8094426087796
 20
284.1771108855887
 30
0.0
 10
370.8026240219986
 20
284.1547558358247
 30
0.0
 10
370.7806153272369
 20
284.088363747993
 30
0.0
 10
370.7471360375318
 20
284.0016328732657
 30
0.0
 10
370.7054775695684
 20
283.9184288738296
 30
0.0
 10
370.6711106412337
 20
283.8573640611846
 30
0.0
 10
370.6591335557854
 20
283.8372325381183
 30
0.0
 10
370.6341152942581
 20
283.7974238038758
 30
0.0
 10
370.6210384890517
 20
283.7776985608194
 30
0.0
 10
370.5535794090073
 20
283.6811505719845
 30
0.0
 10
370.4928116609129
 20
283.6100588555242
 30
0.0
 10
370.3915653030272
 20
283.5124514938367
 30
0.0
 10
370.3561220490486
 20
283.4814315140846
 30
0.0
 10
370.3003139879892
 20
283.4372535888862
 30
0.0
 10
370.2812183034233
 20
283.422884135806
 30
0.0
 10
370.2423754328301
 20
283.3951362055608
 30
0.0
 10
370.2226730275083
 20
283.3817853015892
 30
0.0
 10
370.1227752650008
 20
283.3176053182569
 30
0.0
 10
370.0384630343995
 20
283.2744240278378
 30
0.0
 10
369.9274760686556
 20
283.2307710324397
 30
0.0
 10
369.9049962982546
 20
283.2225613880997
 30
0.0
 10
369.8594587558364
 20
283.2072069458481
 30
0.0
 10
369.8363387659926
 20
283.2000450427521
 30
0.0
 10
369.7665427387167
 20
283.1803311470039
 30
0.0
 10
369.7196923631751
 20
283.1696048137167
 30
0.0
 10
369.578207173257
 20
283.144473196048
 30
0.0
 10
369.4826473217033
 20
283.1370454882594
 30
0.0
 10
369.3615979568254
 20
283.1398122188605
 30
0.0
 10
369.3372555874362
 20
283.1409805625053
 30
0.0
 10
369.2889682998037
 20
283.1445142510822
 30
0.0
 10
369.2649639402473
 20
283.1468783570124
 30
0.0
 10
369.193360396761
 20
283.1557274812448
 30
0.0
 10
369.0989790898391
 20
283.1722023699354
 30
0.0
 10
369.0067389096179
 20
283.1978744812705
 30
0.0
 10
368.9383704716656
 20
283.2206225807436
 30
0.0
 10
368.9156970969879
 20
283.2287962703593
 30
0.0
 10
368.8707070594483
 20
283.2462997374516
 30
0.0
 10
368.848543071979
 20
283.2555689305169
 30
0.0
 10
368.7393336871751
 20
283.3044365259834
 30
0.0
 10
368.6570728423802
 20
283.3515250756637
 30
0.0
 10
368.5604171165869
 20
283.4201206012395
 30
0.0
 10
368.5413973778848
 20
283.4343310414558
 30
0.0
 10
368.5039869541756
 20
283.4637465680314
 30
0.0
 10
368.4855742244277
 20
283.4789748487064
 30
0.0
 10
368.4318503856569
 20
283.5256753057913
 30
0.0
 10
368.3978605770526
 20
283.5583003558943
 30
0.0
 10
368.3011654622044
 20
283.6605070605394
 30
0.0
 10
368.243684299224
 20
283.7343790902309
 30
0.0
 10
368.1806757240946
 20
283.8340583691472
 30
0.0
 10
368.1685654310604
 20
283.854297518585
 30
0.0
 10
368.1454611394215
 20
283.8951224293018
 30
0.0
 10
368.1344429769492
 20
283.9157460417742
 30
0.0
 10
368.1029631289878
 20
283.9782417232608
 30
0.0
 10
368.0651817202961
 20
284.0632328583433
 30
0.0
 10
368.0356803282713
 20
284.1515302227317
 30
0.0
 10
368.0167105992509
 20
284.2190197034737
 30
0.0
 10
368.0109143418628
 20
284.2417276309115
 30
0.0
 10
368.0003961907553
 20
284.2875753479169
 30
0.0
 10
367.995688881334
 20
284.3106619804876
 30
0.0
 10
367.9750371812199
 20
284.4262124311218
 30
0.0
 10
367.9675120448906
 20
284.5196871100502
 30
0.0
 10
367.9691615337857
 20
284.614186265565
 30
0.0
  0
SPLINE
  5
1EE
330
1F
100
AcDbEntity
  8
1
100
AcDbSpline
210
0.0
220
0.0
230
1.0
 70
     8
 71
     3
 72
     8
 73
     4
 74
     0
 42
0.000000001
 43
0.0000000001
 40
0.0
 40
0.0
 40
0.0
 40
0.0
 40
1.0
 40
1.0
 40
1.0
 40
1.0
 10
357.4349428889772
 20
295.0507057413501
 30
0.0
 10
357.2394273106374
 20
295.151698954078
 30
0.0
 10
357.0454560830259
 20
295.2581729820212
 30
0.0
 10
356.853156068083
 20
295.3702593560385
 30
0.0
  0
SPLINE
  5
1EF
330
1F
100
AcDbEntity
  8
1
100
AcDbSpline
210
0.0
220
0.0
230
1.0
 70
     8
 71
     3
 72
    40
 73
    36
 74
     0
 42
0.000000001
 43
0.0000000001
 40
0.0
 40
0.0
 40
0.0
 40
0.0
 40
0.1249999999999928
 40
0.1249999999999928
 40
0.1874999999999892
 40
0.1874999999999892
 40
0.2031249999999882
 40
0.2031249999999882
 40
0.2187499999999873
 40
0.2187499999999873
 40
0.2499999999999808
 40
0.2499999999999808
 40
0.3749999999999651
 40
0.3749999999999651
 40
0.4999999999999495
 40
0.4999999999999495
 40
0.5312499999999446
 40
0.546874999999944
 40
0.546874999999944
 40
0.5624999999999436
 40
0.5624999999999436
 40
0.6249999999999516
 40
0.6874999999999599
 40
0.6874999999999599
 40
0.749999999999968
 40
0.749999999999968
 40
0.812499999999976
 40
0.812499999999976
 40
0.8437499999999801
 40
0.8593749999999818
 40
0.8593749999999818
 40
0.8749999999999836
 40
0.8749999999999836
 40
0.9374999999999918
 40
1.0
 40
1.0
 40
1.0
 40
1.0
 10
356.7509906678138
 20
296.0295056526158
 30
0.0
 10
357.032315582371
 20
296.1534318337804
 30
0.0
 10
357.3069485368009
 20
296.2912029941876
 30
0.0
 10
357.7074312711222
 20
296.5215831556503
 30
0.0
 10
357.8390124059537
 20
296.6023345710857
 30
0.0
 10
358.0009228637082
 20
296.7085825501045
 30
0.0
 10
358.0331765602808
 20
296.7300977819514
 30
0.0
 10
358.0974223742879
 20
296.773669426057
 30
0.0
 10
358.1294007874962
 20
296.7957172725956
 30
0.0
 10
358.2246128865378
 20
296.8624552221007
 30
0.0
 10
358.2872288421327
 20
296.9078106090958
 30
0.0
 10
358.5959822417492
 20
297.138937315919
 30
0.0
 10
358.8291748967261
 20
297.3377234195445
 30
0.0
 10
359.2666402488937
 20
297.7643719598844
 30
0.0
 10
359.4709413203341
 20
297.9922058689243
 30
0.0
 10
359.7066411960565
 20
298.2967811129043
 30
0.0
 10
359.7758686387565
 20
298.3896442223619
 30
0.0
 10
359.8428027350133
 20
298.4848130787904
 30
0.0
 10
359.8869068338735
 20
298.5487804193882
 30
0.0
 10
359.9087120058653
 20
298.5810450294104
 30
0.0
 10
360.0159095492943
 20
298.7429121427463
 30
0.0
 10
360.17654012304
 20
299.0065116364223
 30
0.0
 10
360.3155130128238
 20
299.2792873471309
 30
0.0
 10
360.4435241692261
 20
299.5567074715606
 30
0.0
 10
360.5020499877346
 20
299.6977392716084
 30
0.0
 10
360.6077956940163
 20
299.9845931195607
 30
0.0
 10
360.6550174565078
 20
300.1304143731595
 30
0.0
 10
360.7169206136883
 20
300.3529296177798
 30
0.0
 10
360.7456365630871
 20
300.4651344613492
 30
0.0
 10
360.7708806943666
 20
300.5788102912252
 30
0.0
 10
360.7869227722881
 20
300.6549277697869
 30
0.0
 10
360.7945560462273
 20
300.6931874551674
 30
0.0
 10
360.8305736909262
 20
300.8845661532696
 30
0.0
 10
360.8746843079122
 20
301.1921731510486
 30
0.0
 10
360.8912180228113
 20
301.5026384540686
 30
0.0
 10
360.8923034985147
 20
301.6586154452081
 30
0.0
  0
SPLINE
  5
1F0
330
1F
100
AcDbEntity
  8
1
100
AcDbSpline
210
0.0
220
0.0
230
1.0
 70
    12
 71
     3
 72
     9
 73
     5
 74
     0
 42
0.000000001
 43
0.0000000001
 40
0.0
 40
0.0
 40
0.0
 40
0.0
 40
0.517654318570744
 40
1.0
 40
1.0
 40
1.0
 40
1.0
 10
336.5183536483252
 20
301.6802253425907
 30
0.0
 41
1.002120864319889
 10
340.742979065606
 20
301.8691075356557
 30
0.0
 41
1.003796854759085
 10
348.8864512063963
 20
301.2057972791366
 30
0.0
 41
1.009905132779616
 10
357.1517693139814
 20
300.6724915830197
 30
0.0
 41
0.9972843680926592
 10
360.8923034985147
 20
301.6586154452081
 30
0.0
 41
0.9985370168568568
  0
SPLINE
  5
1F1
330
1F
100
AcDbEntity
  8
1
100
AcDbSpline
210
0.0
220
0.0
230
1.0
 70
     8
 71
     3
 72
    26
 73
    22
 74
     0
 42
0.000000001
 43
0.0000000001
 40
0.0
 40
0.0
 40
0.0
 40
0.0
 40
0.1249999999999999
 40
0.1249999999999999
 40
0.2499999999999998
 40
0.2499999999999998
 40
0.3124999999999998
 40
0.3124999999999998
 40
0.3437500000000001
 40
0.3437500000000001
 40
0.3750000000000004
 40
0.3750000000000004
 40
0.5000000000000004
 40
0.5000000000000004
 40
0.6250000000000002
 40
0.6250000000000002
 40
0.7500000000000001
 40
0.7500000000000001
 40
0.8750000000000001
 40
0.8750000000000001
 40
1.0
 40
1.0
 40
1.0
 40
1.0
 10
276.1996197435402
 20
273.091929400378
 30
0.0
 10
276.1560228485673
 20
272.8401639255362
 30
0.0
 10
276.139293422612
 20
272.5976975169307
 30
0.0
 10
276.155927015548
 20
272.1307612087409
 30
0.0
 10
276.1893090026774
 20
271.9062932644656
 30
0.0
 10
276.2759828241085
 20
271.5828269946
 30
0.0
 10
276.3109904483926
 20
271.4772126014704
 30
0.0
 10
276.3726909560464
 20
271.3220841312136
 30
0.0
 10
276.3946865870857
 20
271.2711864412196
 30
0.0
 10
276.4414140135734
 20
271.1710569033704
 30
0.0
 10
276.4661522760408
 20
271.1218088774629
 30
0.0
 10
276.5965361444852
 20
270.8795228856811
 30
0.0
 10
276.7221837207191
 20
270.6983147907789
 30
0.0
 10
277.0128741273938
 20
270.3584017562212
 30
0.0
 10
277.1779518174465
 20
270.1996930776835
 30
0.0
 10
277.5457759158461
 20
269.9027629171959
 30
0.0
 10
277.7454476287426
 20
269.7669790780209
 30
0.0
 10
278.1731153853034
 20
269.5168098698518
 30
0.0
 10
278.4011284600044
 20
269.4024394825228
 30
0.0
 10
278.8835071850219
 20
269.1921102569675
 30
0.0
 10
279.1378821497432
 20
269.0961600312238
 30
0.0
 10
279.4048419452957
 20
269.0082165648537
 30
0.0
  0
SPLINE
  5
1F2
330
1F
100
AcDbEntity
  8
1
100
AcDbSpline
210
0.0
220
0.0
230
1.0
 70
     8
 71
     3
 72
    61
 73
    57
 74
     0
 42
0.000000001
 43
0.0000000001
 40
0.0
 40
0.0
 40
0.0
 40
0.0
 40
0.0624999999999999
 40
0.0624999999999999
 40
0.1249999999999997
 40
0.1249999999999997
 40
0.1874999999999995
 40
0.1874999999999995
 40
0.2187499999999994
 40
0.2499999999999992
 40
0.2499999999999992
 40
0.2812499999999991
 40
0.2812499999999991
 40
0.3124999999999989
 40
0.3124999999999989
 40
0.3749999999999987
 40
0.3749999999999987
 40
0.3906249999999989
 40
0.3906249999999989
 40
0.4062499999999992
 40
0.4062499999999992
 40
0.4374999999999992
 40
0.4374999999999992
 40
0.4687499999999992
 40
0.4687499999999992
 40
0.4999999999999992
 40
0.4999999999999992
 40
0.5312499999999992
 40
0.5312499999999992
 40
0.5624999999999993
 40
0.5624999999999993
 40
0.5781249999999995
 40
0.5781249999999995
 40
0.5937499999999997
 40
0.5937499999999997
 40
0.6249999999999999
 40
0.6249999999999999
 40
0.65625
 40
0.65625
 40
0.6875
 40
0.6875
 40
0.75
 40
0.75
 40
0.78125
 40
0.78125
 40
0.8124999999999998
 40
0.8124999999999998
 40
0.8437499999999998
 40
0.8437499999999998
 40
0.8593749999999998
 40
0.8593749999999998
 40
0.8749999999999998
 40
0.8749999999999998
 40
0.9375
 40
0.9375
 40
1.0
 40
1.0
 40
1.0
 40
1.0
 10
302.9048419452957
 20
279.2905441746125
 30
0.0
 10
304.0563370580589
 20
279.031302475182
 30
0.0
 10
305.2022917356512
 20
278.7632047222298
 30
0.0
 10
307.4828039085931
 20
278.2117148765067
 30
0.0
 10
308.6173527221065
 20
277.9283103733064
 30
0.0
 10
310.8753198515482
 20
277.3503758318818
 30
0.0
 10
311.9987301643744
 20
277.0558424764582
 30
0.0
 10
313.6763410888792
 20
276.6103589121313
 30
0.0
 10
314.792261886097
 20
276.3121740163515
 30
0.0
 10
315.9036871621764
 20
276.0135232981864
 30
0.0
 10
317.0131706291687
 20
275.7157029745651
 30
0.0
 10
317.5669416151021
 20
275.5672091145715
 30
0.0
 10
318.6729128806365
 20
275.2721907482159
 30
0.0
 10
319.2251134831512
 20
275.1256676402263
 30
0.0
 10
320.880002861206
 20
274.6908158764351
 30
0.0
 10
321.9809659970459
 20
274.4072383612431
 30
0.0
 10
323.3567464659799
 20
274.0663587560151
 30
0.0
 10
323.6318657165664
 20
273.9988643645655
 30
0.0
 10
324.181780630017
 20
273.8654416112689
 30
0.0
 10
324.4566189324563
 20
273.7995026802057
 30
0.0
 10
325.2808765589857
 20
273.6041764928767
 30
0.0
 10
325.830038848663
 20
273.4772854033095
 30
0.0
 10
326.9282135474708
 20
273.2309565386942
 30
0.0
 10
327.4772121159127
 20
273.111504583285
 30
0.0
 10
328.5759903770828
 20
272.8812169732641
 30
0.0
 10
329.125771992602
 20
272.7703812911634
 30
0.0
 10
330.226924590087
 20
272.5580227053584
 30
0.0
 10
330.7782947852406
 20
272.4564962210432
 30
0.0
 10
331.8832750158783
 20
272.2630335085314
 30
0.0
 10
332.4368834893548
 20
272.1710934552241
 30
0.0
 10
333.2693745141436
 20
272.0403583171961
 30
0.0
 10
333.5472171224437
 20
271.9979737712014
 30
0.0
 10
334.1036539798453
 20
271.9155714491925
 30
0.0
 10
334.3822555115061
 20
271.8755606483493
 30
0.0
 10
335.2190997595274
 20
271.7588543344976
 30
0.0
 10
335.7783733954314
 20
271.6854694638749
 30
0.0
 10
336.8991152303681
 20
271.5464246988338
 30
0.0
 10
337.4605844017575
 20
271.4807674684515
 30
0.0
 10
338.5852572883909
 20
271.3563494251542
 30
0.0
 10
339.1484619339196
 20
271.2975905759837
 30
0.0
 10
340.8400917764997
 20
271.1307291764777
 30
0.0
 10
341.9705219142894
 20
271.0319797763522
 30
0.0
 10
343.6681784581568
 20
270.9002272685684
 30
0.0
 10
344.2341776693715
 20
270.8590729234757
 30
0.0
 10
345.3657896017829
 20
270.7820868253911
 30
0.0
 10
345.9314570123444
 20
270.7462508181153
 30
0.0
 10
347.0622591578508
 20
270.6797815547982
 30
0.0
 10
347.6273931964897
 20
270.6491483068413
 30
0.0
 10
348.4745212313558
 20
270.6071064654139
 30
0.0
 10
348.756801402064
 20
270.5937445409832
 30
0.0
 10
349.3211495297188
 20
270.5683383220675
 30
0.0
 10
349.6032213194709
 20
270.5562961822492
 30
0.0
 10
351.0131899222735
 20
270.4994902556949
 30
0.0
 10
352.1399328255295
 20
270.4650225977373
 30
0.0
 10
354.3938714604233
 20
270.4192839631559
 30
0.0
 10
355.5210776772002
 20
270.4079935137006
 30
0.0
 10
356.6496414761133
 20
270.4079935137005
 30
0.0
  0
SPLINE
  5
1F3
330
1F
100
AcDbEntity
  8
1
100
AcDbSpline
210
0.0
220
0.0
230
1.0
 70
     8
 71
     3
 72
    54
 73
    50
 74
     0
 42
0.000000001
 43
0.0000000001
 40
0.0
 40
0.0
 40
0.0
 40
0.0
 40
0.0625000000000003
 40
0.0625000000000003
 40
0.1250000000000004
 40
0.1250000000000004
 40
0.1875000000000006
 40
0.1875000000000006
 40
0.2187500000000008
 40
0.2187500000000008
 40
0.2500000000000011
 40
0.2500000000000011
 40
0.3125000000000011
 40
0.3125000000000011
 40
0.3750000000000012
 40
0.3750000000000012
 40
0.4375000000000013
 40
0.4375000000000013
 40
0.5000000000000013
 40
0.5000000000000013
 40
0.5312500000000011
 40
0.5312500000000011
 40
0.546875000000001
 40
0.546875000000001
 40
0.5625000000000009
 40
0.5625000000000009
 40
0.5937500000000007
 40
0.5937500000000007
 40
0.6250000000000006
 40
0.6250000000000006
 40
0.6562500000000004
 40
0.6562500000000004
 40
0.6875000000000002
 40
0.6875000000000002
 40
0.71875
 40
0.71875
 40
0.75
 40
0.75
 40
0.7812499999999997
 40
0.7812499999999997
 40
0.8124999999999996
 40
0.8124999999999996
 40
0.8437499999999992
 40
0.8437499999999992
 40
0.8749999999999992
 40
0.8749999999999992
 40
0.9374999999999996
 40
0.9374999999999996
 40
1.0
 40
1.0
 40
1.0
 40
1.0
 10
302.9048419452958
 20
307.1894128580295
 30
0.0
 10
303.8358574948784
 20
307.1544440354143
 30
0.0
 10
304.762959870229
 20
307.1133123207206
 30
0.0
 10
306.6094717258201
 20
307.0158245809397
 30
0.0
 10
307.5288786806009
 20
306.9594588623635
 30
0.0
 10
309.3604867821005
 20
306.8286413280746
 30
0.0
 10
310.2726861930691
 20
306.7541766578467
 30
0.0
 10
311.6362656712768
 20
306.627061082169
 30
0.0
 10
312.0901078970032
 20
306.5821124964279
 30
0.0
 10
312.9955528891132
 20
306.4869391393337
 30
0.0
 10
313.4472268179762
 20
306.4367085549289
 30
0.0
 10
314.7994143494574
 20
306.2778615308342
 30
0.0
 10
315.6970787313722
 20
306.1610477091011
 30
0.0
 10
317.4868753371999
 20
305.9053150784037
 30
0.0
 10
318.3790141078494
 20
305.7663932105989
 30
0.0
 10
320.1602236914756
 20
305.4675440215778
 30
0.0
 10
321.0493036991589
 20
305.307622836335
 30
0.0
 10
322.8270211147913
 20
304.969227736859
 30
0.0
 10
323.7156681582868
 20
304.7907683913843
 30
0.0
 10
325.050177845484
 20
304.5117815712123
 30
0.0
 10
325.4952689619461
 20
304.4169096065064
 30
0.0
 10
326.1634940649706
 20
304.2721530170943
 30
0.0
 10
326.3863336187658
 20
304.2234929037269
 30
0.0
 10
326.8322399861072
 20
304.1254193174975
 30
0.0
 10
327.0553102610814
 20
304.0760115258763
 30
0.0
 10
327.7247827580648
 20
303.9265614347143
 30
0.0
 10
328.1714398761712
 20
303.8252852436321
 30
0.0
 10
329.0650594695364
 20
303.6188998815414
 30
0.0
 10
329.5120970448785
 20
303.5137715221638
 30
0.0
 10
330.4058032970479
 20
303.2993978408817
 30
0.0
 10
330.8524734637564
 20
303.1901529459798
 30
0.0
 10
331.745352630609
 20
302.967348006221
 30
0.0
 10
332.1915625788286
 20
302.853788532152
 30
0.0
 10
333.0835424079449
 20
302.6223290242351
 30
0.0
 10
333.5293135063559
 20
302.5044303498735
 30
0.0
 10
334.4205191926353
 20
302.264412238253
 30
0.0
 10
334.8659481719978
 20
302.1422806124358
 30
0.0
 10
335.75682558928
 20
301.8943946607768
 30
0.0
 10
336.2022747707528
 20
301.7686425932162
 30
0.0
 10
337.0934568772325
 20
301.5140125174346
 30
0.0
 10
337.5391890545667
 20
301.3851339065424
 30
0.0
 10
338.4311088493498
 20
301.1246126409288
 30
0.0
 10
338.8772462599119
 20
300.9929837099298
 30
0.0
 10
339.7696833571074
 20
300.7273314300812
 30
0.0
 10
340.2160261707327
 20
300.5932949362032
 30
0.0
 10
341.555507098719
 20
300.1877885467018
 30
0.0
 10
342.4491142385749
 20
299.912961111155
 30
0.0
 10
344.2375142413681
 20
299.3545513652948
 30
0.0
 10
345.1323061733744
 20
299.0709743362538
 30
0.0
 10
346.0273988966737
 20
298.7824699473403
 30
0.0
  0
SPLINE
  5
1F4
330
1F
100
AcDbEntity
  8
1
100
AcDbSpline
210
0.0
220
0.0
230
1.0
 70
     8
 71
     3
 72
    50
 73
    46
 74
     0
 42
0.000000001
 43
0.0000000001
 40
0.0
 40
0.0
 40
0.0
 40
0.0
 40
0.0526468189400176
 40
0.0526468189400176
 40
0.1052936378800352
 40
0.1052936378800352
 40
0.131617047350044
 40
0.131617047350044
 40
0.144778752085048
 40
0.144778752085048
 40
0.1579404568200518
 40
0.1579404568200518
 40
0.2105872757600684
 40
0.2105872757600684
 40
0.2632340947000851
 40
0.2632340947000851
 40
0.3158809136401016
 40
0.3158809136401016
 40
0.34220432311011
 40
0.34220432311011
 40
0.3685277325801182
 40
0.3685277325801182
 40
0.4211745515201359
 40
0.4211745515201359
 40
0.4738213704601535
 40
0.4738213704601535
 40
0.5264681894001712
 40
0.5264681894001712
 40
0.6317618272802055
 40
0.6317618272802055
 40
0.6844086462202226
 40
0.6844086462202226
 40
0.7107320556902312
 40
0.7107320556902312
 40
0.7370554651602399
 40
0.7370554651602399
 40
0.7897022841002571
 40
0.7897022841002571
 40
0.842349103040274
 40
0.842349103040274
 40
0.8949959219802911
 40
0.8949959219802911
 40
0.9476427409203084
 40
0.9476427409203084
 40
1.0
 40
1.0
 40
1.0
 40
1.0
 10
360.8450833977034
 20
307.3241654614993
 30
0.0
 10
360.3075276884839
 20
307.3571834549307
 30
0.0
 10
359.7598091997479
 20
307.3788932452442
 30
0.0
 10
358.6439743176978
 20
307.4050263067612
 30
0.0
 10
358.0758515765559
 20
307.4094572594483
 30
0.0
 10
357.2089976404616
 20
307.4066495680826
 30
0.0
 10
356.9176091799707
 20
307.4041320752195
 30
0.0
 10
356.4770269449961
 20
307.3983595615815
 30
0.0
 10
356.3295835058823
 20
307.3961022082943
 30
0.0
 10
356.0335642468942
 20
307.3909778470856
 30
0.0
 10
355.8849119387301
 20
307.3881090712238
 30
0.0
 10
355.1403608260124
 20
307.372404241605
 30
0.0
 10
354.539910726911
 20
307.3555386416958
 30
0.0
 10
353.3313368325182
 20
307.3159594243212
 30
0.0
 10
352.7232145083067
 20
307.2932452130285
 30
0.0
 10
351.5018595142673
 20
307.2432107172802
 30
0.0
 10
350.8886304073406
 20
307.2158894654127
 30
0.0
 10
349.9672856438726
 20
307.1712682295005
 30
0.0
 10
349.6599244601738
 20
307.1557764047209
 30
0.0
 10
349.0451372165307
 20
307.1233886548737
 30
0.0
 10
348.7377360156698
 20
307.1064771865422
 30
0.0
 10
347.8156118976758
 20
307.0535347739757
 30
0.0
 10
347.200948897792
 20
307.015309604863
 30
0.0
 10
345.9720829340359
 20
306.932744312363
 30
0.0
 10
345.3578812082367
 20
306.8884029049149
 30
0.0
 10
344.1301895279592
 20
306.7932554591378
 30
0.0
 10
343.5166997759305
 20
306.7424485222845
 30
0.0
 10
341.6775835328907
 20
306.5797192687582
 30
0.0
 10
340.4533171394142
 20
306.4575198047121
 30
0.0
 10
338.6204010019853
 20
306.2507647188094
 30
0.0
 10
338.010005565838
 20
306.1779318323207
 30
0.0
 10
337.095398469368
 20
306.0623225185538
 30
0.0
 10
336.7907451001979
 20
306.0227308748809
 30
0.0
 10
336.1821258193382
 20
305.9413673235801
 30
0.0
 10
335.8781275932452
 20
305.8995915770747
 30
0.0
 10
334.9671466237694
 20
305.7708053290268
 30
0.0
 10
334.3611850603181
 20
305.6803343576058
 30
0.0
 10
333.152492600039
 20
305.4889884435828
 30
0.0
 10
332.5497068169387
 20
305.388164265759
 30
0.0
 10
331.3468968650802
 20
305.1759901710211
 30
0.0
 10
330.7468777988777
 20
305.0646317890295
 30
0.0
 10
329.5490881398488
 20
304.8314503168235
 30
0.0
 10
328.9513202872312
 20
304.7096196087955
 30
0.0
 10
327.7605180422497
 20
304.4567973087378
 30
0.0
 10
327.1674756530784
 20
304.3258549900677
 30
0.0
 10
326.5745931726521
 20
304.1907043769141
 30
0.0
  0
SPLINE
  5
1F5
330
1F
100
AcDbEntity
  8
1
100
AcDbSpline
210
0.0
220
0.0
230
1.0
 70
     8
 71
     3
 72
    28
 73
    24
 74
     0
 42
0.000000001
 43
0.0000000001
 40
0.0
 40
0.0
 40
0.0
 40
0.0
 40
0.0625000000000007
 40
0.0625000000000007
 40
0.1250000000000013
 40
0.1250000000000013
 40
0.2500000000000022
 40
0.2500000000000022
 40
0.375000000000003
 40
0.375000000000003
 40
0.4375000000000032
 40
0.4375000000000032
 40
0.4687500000000032
 40
0.4687500000000032
 40
0.5000000000000032
 40
0.5000000000000032
 40
0.6250000000000025
 40
0.6250000000000025
 40
0.7500000000000016
 40
0.7500000000000016
 40
0.8750000000000007
 40
0.8750000000000007
 40
1.0
 40
1.0
 40
1.0
 40
1.0
 10
287.9926239639546
 20
270.4085662794104
 30
0.0
 10
287.7791274409186
 20
270.4092697537617
 30
0.0
 10
287.5682409979443
 20
270.4063851948744
 30
0.0
 10
287.1512169897963
 20
270.3943273040276
 30
0.0
 10
286.945080514325
 20
270.3851528185001
 30
0.0
 10
286.3332577240561
 20
270.3493355780006
 30
0.0
 10
285.9341278009626
 20
270.3144332462644
 30
0.0
 10
285.1514329895954
 20
270.2276059943972
 30
0.0
 10
284.7678801517941
 20
270.1756648161484
 30
0.0
 10
284.2034235433408
 20
270.0880402729558
 30
0.0
 10
284.0170889100525
 20
270.057207635191
 30
0.0
 10
283.7402534794024
 20
270.0088672614473
 30
0.0
 10
283.6483781115517
 20
269.9923969724074
 30
0.0
 10
283.4659579846682
 20
269.9588981899239
 30
0.0
 10
283.3753646941773
 20
269.9418616070243
 30
0.0
 10
282.9254234898341
 20
269.8553907972044
 30
0.0
 10
282.5751260538944
 20
269.782106699251
 30
0.0
 10
281.8927792817196
 20
269.630845178242
 30
0.0
 10
281.5607352572385
 20
269.5528568586642
 30
0.0
 10
280.9143876501743
 20
269.3955214694645
 30
0.0
 10
280.600086421712
 20
269.3161628538978
 30
0.0
 10
279.9891425645038
 20
269.1595859985305
 30
0.0
 10
279.6924998415708
 20
269.0823521391391
 30
0.0
 10
279.4048419452957
 20
269.0082165648537
 30
0.0
  0
SPLINE
  5
1FC
330
1F
100
AcDbEntity
  8
1
100
AcDbSpline
210
0.0
220
0.0
230
1.0
 70
     8
 71
     3
 72
     8
 73
     4
 74
     0
 42
0.000000001
 43
0.0000000001
 40
0.0
 40
0.0
 40
0.0
 40
0.0
 40
1.0
 40
1.0
 40
1.0
 40
1.0
 10
356.7488232629298
 20
296.0285471693093
 30
0.0
 10
356.7495475742174
 20
296.0288660050476
 30
0.0
 10
356.7502718412904
 20
296.0291849328053
 30
0.0
 10
356.7509960641332
 20
296.0295039526145
 30
0.0
  0
SPLINE
  5
1FD
330
1F
100
AcDbEntity
  8
1
100
AcDbSpline
210
0.0
220
0.0
230
1.0
 70
     8
 71
     3
 72
    27
 73
    23
 74
     0
 42
0.000000001
 43
0.0000000001
 40
0.0
 40
0.0
 40
0.0
 40
0.0
 40
0.1250000000000061
 40
0.1250000000000061
 40
0.1875000000000083
 40
0.1875000000000083
 40
0.2500000000000105
 40
0.2500000000000105
 40
0.3749999999999607
 40
0.3749999999999607
 40
0.4374999999999356
 40
0.4374999999999356
 40
0.4999999999999105
 40
0.4999999999999105
 40
0.6249999999999118
 40
0.6249999999999118
 40
0.6874999999999111
 40
0.6874999999999111
 40
0.7499999999999103
 40
0.7499999999999103
 40
0.8749999999999552
 40
1.0
 40
1.0
 40
1.0
 40
1.0
 10
367.9837484445197
 20
299.5608051257881
 30
0.0
 10
367.9545324688028
 20
299.5480836780308
 30
0.0
 10
367.9245945217207
 20
299.5377915954831
 30
0.0
 10
367.8786256693762
 20
299.5259414363621
 30
0.0
 10
367.8631249023216
 20
299.5225921199337
 30
0.0
 10
367.8317611254241
 20
299.517119290543
 30
0.0
 10
367.8158520516165
 20
299.5149958874664
 30
0.0
 10
367.7683364264117
 20
299.5105828770385
 30
0.0
 10
367.7367250448412
 20
299.5101862245968
 30
0.0
 10
367.6894056024457
 20
299.5133484358455
 30
0.0
 10
367.6736487975242
 20
299.5150316237947
 30
0.0
 10
367.6421685945736
 20
299.519681884153
 30
0.0
 10
367.6263733430068
 20
299.5226680415522
 30
0.0
 10
367.5797442789578
 20
299.5334516285243
 30
0.0
 10
367.5495916654012
 20
299.5430446242009
 30
0.0
 10
367.5057208665983
 20
299.5609311697168
 30
0.0
 10
367.4913247184192
 20
299.567479008258
 30
0.0
 10
367.4629933289407
 20
299.5817611933467
 30
0.0
 10
367.4490078316813
 20
299.5895267586191
 30
0.0
 10
367.4081237705067
 20
299.6144384050489
 30
0.0
 10
367.3569958498956
 20
299.6515624272323
 30
0.0
 10
367.3123471596299
 20
299.6961565814358
 30
0.0
 10
367.291693748484
 20
299.7203755954915
 30
0.0
  0
SPLINE
  5
1FE
330
1F
100
AcDbEntity
  8
1
100
AcDbSpline
210
0.0
220
0.0
230
1.0
 70
     8
 71
     3
 72
    16
 73
    12
 74
     0
 42
0.000000001
 43
0.0000000001
 40
0.0
 40
0.0
 40
0.0
 40
0.0
 40
0.3587940320780442
 40
0.3587940320780442
 40
0.5381910481170376
 40
0.5381910481170376
 40
0.717588064156031
 40
0.717588064156031
 40
0.8969850801950244
 40
0.8969850801950244
 40
1.0
 40
1.0
 40
1.0
 40
1.0
 10
367.291693748484
 20
299.7203755954915
 30
0.0
 10
367.2852268953838
 20
299.7279588854877
 30
0.0
 10
367.2800406714115
 20
299.736494998115
 30
0.0
 10
367.2744266137975
 20
299.7499046291265
 30
0.0
 10
367.2728974990695
 20
299.7545009588749
 30
0.0
 10
367.2705288732872
 20
299.7639477378537
 30
0.0
 10
367.2697066014551
 20
299.7687523832848
 30
0.0
 10
367.2687859973644
 20
299.7782960285101
 30
0.0
 10
367.2686789456
 20
299.7830686656623
 30
0.0
 10
367.2690582180157
 20
299.790582613517
 30
0.0
 10
367.2693145966503
 20
299.7933356774323
 30
0.0
 10
367.2696846198714
 20
299.7960696512699
 30
0.0
  0
SPLINE
  5
1FF
330
1F
100
AcDbEntity
  8
1
100
AcDbSpline
210
0.0
220
0.0
230
1.0
 70
     8
 71
     3
 72
    10
 73
     6
 74
     0
 42
0.000000001
 43
0.0000000001
 40
0.0
 40
0.0
 40
0.0
 40
0.0
 40
0.6419716905435465
 40
0.6419716905435465
 40
1.0
 40
1.0
 40
1.0
 40
1.0
 10
367.2899969140484
 20
299.8924248773819
 30
0.0
 10
367.2920123256445
 20
299.881458087283
 30
0.0
 10
367.2921145031185
 20
299.8704747075283
 30
0.0
 10
367.2894684104618
 20
299.8535852696764
 30
0.0
 10
367.2879876748146
 20
299.8477216811778
 30
0.0
 10
367.2859774450054
 20
299.8420397247556
 30
0.0
  0
SPLINE
  5
200
330
1F
100
AcDbEntity
  8
1
100
AcDbSpline
210
0.0
220
0.0
230
1.0
 70
     8
 71
     3
 72
    10
 73
     6
 74
     0
 42
0.000000001
 43
0.0000000001
 40
0.0
 40
0.0
 40
0.0
 40
0.0
 40
0.1325035073572877
 40
0.1325035073572877
 40
1.0
 40
1.0
 40
1.0
 40
1.0
 10
368.0118192576732
 20
299.5795181474142
 30
0.0
 10
368.0107403971236
 20
299.5784837848012
 30
0.0
 10
368.0096358283228
 20
299.5774726397441
 30
0.0
 10
368.001118553366
 20
299.5700357589701
 30
0.0
 10
367.9928830631101
 20
299.5647825925791
 30
0.0
 10
367.9837484445197
 20
299.5608051257881
 30
0.0
  0
SPLINE
  5
201
330
1F
100
AcDbEntity
  8
1
100
AcDbSpline
210
0.0
220
0.0
230
1.0
 70
     8
 71
     3
 72
     8
 73
     4
 74
     0
 42
0.000000001
 43
0.0000000001
 40
0.0
 40
0.0
 40
0.0
 40
0.0
 40
1.0
 40
1.0
 40
1.0
 40
1.0
 10
368.0474350580653
 20
299.688776791359
 30
0.0
 10
368.0506656614165
 20
299.6979934537461
 30
0.0
 10
368.0552084621556
 20
299.7066172990129
 30
0.0
 10
368.0611350605274
 20
299.7146197458732
 30
0.0
  0
SPLINE
  5
202
330
1F
100
AcDbEntity
  8
1
100
AcDbSpline
210
0.0
220
0.0
230
1.0
 70
     8
 71
     3
 72
    20
 73
    16
 74
     0
 42
0.000000001
 43
0.0000000001
 40
0.0
 40
0.0
 40
0.0
 40
0.0
 40
0.1250000000000385
 40
0.1250000000000385
 40
0.2500000000000769
 40
0.2500000000000769
 40
0.3750000000001155
 40
0.3750000000001155
 40
0.5000000000001539
 40
0.5000000000001539
 40
0.6250000000001923
 40
0.6250000000001923
 40
0.7500000000002309
 40
0.7500000000002309
 40
1.0
 40
1.0
 40
1.0
 40
1.0
 10
366.7081219647104
 20
300.3613317692711
 30
0.0
 10
366.7041063916682
 20
300.3587578931835
 30
0.0
 10
366.6999333468002
 20
300.3564940549682
 30
0.0
 10
366.6912745055224
 20
300.3525824602003
 30
0.0
 10
366.6867810366325
 20
300.3509375854782
 30
0.0
 10
366.6776912724251
 20
300.3483456549127
 30
0.0
 10
366.6730695642693
 20
300.3473853388147
 30
0.0
 10
366.6636705709187
 20
300.3461472366543
 30
0.0
 10
366.6588551504284
 20
300.3458719790655
 30
0.0
 10
366.6492959649934
 20
300.3460497756987
 30
0.0
 10
366.6445477188539
 20
300.3464953158311
 30
0.0
 10
366.6351153542254
 20
300.3481066356957
 30
0.0
 10
366.6304005079149
 20
300.349282931319
 30
0.0
 10
366.6165781471728
 20
300.3539032772209
 30
0.0
 10
366.6079636185615
 20
300.3583308170952
 30
0.0
 10
366.5999899797419
 20
300.3641904024534
 30
0.0
  0
SPLINE
  5
203
330
1F
100
AcDbEntity
  8
1
100
AcDbSpline
210
0.0
220
0.0
230
1.0
 70
     8
 71
     3
 72
    10
 73
     6
 74
     0
 42
0.000000001
 43
0.0000000001
 40
0.0
 40
0.0
 40
0.0
 40
0.0
 40
0.5
 40
0.5
 40
1.0
 40
1.0
 40
1.0
 40
1.0
 10
366.7081219647104
 20
300.3613317692711
 30
0.0
 10
366.7173006634467
 20
300.3672150723376
 30
0.0
 10
366.7272260444522
 20
300.3714677278091
 30
0.0
 10
366.7484396162896
 20
300.3765889169409
 30
0.0
 10
366.7592337606162
 20
300.377350377833
 30
0.0
 10
366.7702319495134
 20
300.376204777723
 30
0.0
  0
SPLINE
  5
204
330
1F
100
AcDbEntity
  8
1
100
AcDbSpline
210
0.0
220
0.0
230
1.0
 70
     8
 71
     3
 72
    24
 73
    20
 74
     0
 42
0.000000001
 43
0.0000000001
 40
0.0
 40
0.0
 40
0.0
 40
0.0
 40
0.124999999999992
 40
0.124999999999992
 40
0.249999999999984
 40
0.249999999999984
 40
0.3125000000000039
 40
0.3125000000000039
 40
0.375000000000024
 40
0.375000000000024
 40
0.5000000000000192
 40
0.5000000000000192
 40
0.6250000000000144
 40
0.6250000000000144
 40
0.7500000000000096
 40
0.7500000000000096
 40
0.8750000000000047
 40
0.8750000000000047
 40
1.0
 40
1.0
 40
1.0
 40
1.0
 10
366.7702319495134
 20
300.376204777723
 30
0.0
 10
366.8013803228766
 20
300.3729602817172
 30
0.0
 10
366.8320120322762
 20
300.3673072329794
 30
0.0
 10
366.8922897737891
 20
300.3511841544858
 30
0.0
 10
366.9219362310465
 20
300.3407164806357
 30
0.0
 10
366.9656434515693
 20
300.3211021284653
 30
0.0
 10
366.9799913222213
 20
300.313944116889
 30
0.0
 10
367.007899854134
 20
300.2985671986011
 30
0.0
 10
367.0215146422257
 20
300.2903245251487
 30
0.0
 10
367.0613431017176
 20
300.2639327299311
 30
0.0
 10
367.0865852562662
 20
300.2440966815318
 30
0.0
 10
367.1340703701022
 20
300.199886428307
 30
0.0
 10
367.1556226346323
 20
300.1761668253076
 30
0.0
 10
367.194597899377
 20
300.1256794710665
 30
0.0
 10
367.2120256542671
 20
300.098900862282
 30
0.0
 10
367.2426557154661
 20
300.0422698933174
 30
0.0
 10
367.2554152747787
 20
300.0132459384065
 30
0.0
 10
367.2762330878393
 20
299.9538539425403
 30
0.0
 10
367.2842888261405
 20
299.9234852335277
 30
0.0
 10
367.2899969140484
 20
299.8924248773819
 30
0.0
  0
SPLINE
  5
205
330
1F
100
AcDbEntity
  8
1
100
AcDbSpline
210
0.0
220
0.0
230
1.0
 70
     8
 71
     3
 72
    18
 73
    14
 74
     0
 42
0.000000001
 43
0.0000000001
 40
0.0
 40
0.0
 40
0.0
 40
0.0
 40
0.2499999999996735
 40
0.2499999999996735
 40
0.3749999999996823
 40
0.3749999999996823
 40
0.499999999999691
 40
0.499999999999691
 40
0.6249999999996998
 40
0.6249999999996998
 40
0.7499999999997087
 40
0.7499999999997087
 40
1.0
 40
1.0
 40
1.0
 40
1.0
 10
368.8872411729292
 20
299.8368075968496
 30
0.0
 10
368.8775126272541
 20
299.835024294069
 30
0.0
 10
368.8676215886997
 20
299.8348304503977
 30
0.0
 10
368.8533678162774
 20
299.836721050363
 30
0.0
 10
368.848682481311
 20
299.8377115137779
 30
0.0
 10
368.8394453989226
 20
299.8404180544862
 30
0.0
 10
368.8349413529528
 20
299.8421259980422
 30
0.0
 10
368.8263564369461
 20
299.8461361913866
 30
0.0
 10
368.822242528773
 20
299.8484478313614
 30
0.0
 10
368.8143672063255
 20
299.8536747288421
 30
0.0
 10
368.8105797421833
 20
299.8566170640162
 30
0.0
 10
368.8000547003945
 20
299.8661206451071
 30
0.0
 10
368.7940741340572
 20
299.8733574350673
 30
0.0
 10
368.7891385826467
 20
299.8815014883888
 30
0.0
  0
SPLINE
  5
206
330
1F
100
AcDbEntity
  8
1
100
AcDbSpline
210
0.0
220
0.0
230
1.0
 70
     8
 71
     3
 72
    24
 73
    20
 74
     0
 42
0.000000001
 43
0.0000000001
 40
0.0
 40
0.0
 40
0.0
 40
0.0
 40
0.1249999999999998
 40
0.1249999999999998
 40
0.2499999999999994
 40
0.2499999999999994
 40
0.312500000000021
 40
0.312500000000021
 40
0.3750000000000424
 40
0.3750000000000424
 40
0.500000000000034
 40
0.500000000000034
 40
0.6250000000000256
 40
0.6250000000000256
 40
0.7500000000000171
 40
0.7500000000000171
 40
0.8750000000000085
 40
0.8750000000000085
 40
1.0
 40
1.0
 40
1.0
 40
1.0
 10
368.0611350605274
 20
299.7146197458732
 30
0.0
 10
368.0799507192347
 20
299.7400257713035
 30
0.0
 10
368.1005568222544
 20
299.7637712865555
 30
0.0
 10
368.1453628753408
 20
299.8079806247285
 30
0.0
 10
368.1695610525137
 20
299.8284460053997
 30
0.0
 10
368.2087880769503
 20
299.8565098281828
 30
0.0
 10
368.2222757552088
 20
299.8653597275963
 30
0.0
 10
368.2497447080168
 20
299.881841271428
 30
0.0
 10
368.2637740071957
 20
299.8895078519367
 30
0.0
 10
368.306747137469
 20
299.9107863419941
 30
0.0
 10
368.3366190770947
 20
299.9227039840927
 30
0.0
 10
368.3986534581127
 20
299.9416446793031
 30
0.0
 10
368.4299048173098
 20
299.9483984516246
 30
0.0
 10
368.4928562249234
 20
299.9567828107142
 30
0.0
 10
368.5245685200221
 20
299.9584120420018
 30
0.0
 10
368.58842096732
 20
299.9564525646913
 30
0.0
 10
368.6196311089733
 20
299.9528972201897
 30
0.0
 10
368.6807799338796
 20
299.9410296597067
 30
0.0
 10
368.7107178796246
 20
299.9327149233254
 30
0.0
 10
368.7400439911428
 20
299.9220154853004
 30
0.0
  0
SPLINE
  5
207
330
1F
100
AcDbEntity
  8
1
100
AcDbSpline
210
0.0
220
0.0
230
1.0
 70
     8
 71
     3
 72
    10
 73
     6
 74
     0
 42
0.000000001
 43
0.0000000001
 40
0.0
 40
0.0
 40
0.0
 40
0.0
 40
0.5
 40
0.5
 40
1.0
 40
1.0
 40
1.0
 40
1.0
 10
368.7400439911428
 20
299.9220154853004
 30
0.0
 10
368.7503987720647
 20
299.9182376118969
 30
0.0
 10
368.7597942450375
 20
299.91279291285
 30
0.0
 10
368.7765153263768
 20
299.8989239893734
 30
0.0
 10
368.7835032933791
 20
299.8908001649625
 30
0.0
 10
368.7891385826467
 20
299.8815014883888
 30
0.0
  0
SPLINE
  5
208
330
1F
100
AcDbEntity
  8
1
100
AcDbSpline
210
0.0
220
0.0
230
1.0
 70
     8
 71
     3
 72
    27
 73
    23
 74
     0
 42
0.000000001
 43
0.0000000001
 40
0.0
 40
0.0
 40
0.0
 40
0.0
 40
0.1358119458615428
 40
0.1358119458615428
 40
0.2037179187923323
 40
0.2037179187923323
 40
0.2716238917231218
 40
0.2716238917231218
 40
0.4074358375847006
 40
0.4074358375847006
 40
0.4753418105154771
 40
0.4753418105154771
 40
0.5432477834462533
 40
0.5432477834462533
 40
0.6790597293078131
 40
0.6790597293078131
 40
0.746965702238597
 40
0.746965702238597
 40
0.8148716751693811
 40
0.8148716751693811
 40
0.9506836210309403
 40
1.0
 40
1.0
 40
1.0
 40
1.0
 10
366.5999899797419
 20
300.3641904024534
 30
0.0
 10
366.5744877936522
 20
300.3829311856256
 30
0.0
 10
366.5507102950485
 20
300.4035327229667
 30
0.0
 10
366.5175951106208
 20
300.4371774113015
 30
0.0
 10
366.5069838288267
 20
300.4488514884268
 30
0.0
 10
366.4866333104752
 20
300.4731358144204
 30
0.0
 10
366.4768711321142
 20
300.4857859359062
 30
0.0
 10
366.4493713519548
 20
300.524549093709
 30
0.0
 10
366.4332574894357
 20
300.5516288099213
 30
0.0
 10
366.4123636642837
 20
300.5940737547268
 30
0.0
 10
366.4059477552389
 20
300.6085277274079
 30
0.0
 10
366.3942357909397
 20
300.6380593224138
 30
0.0
 10
366.3889202719308
 20
300.6532086715067
 30
0.0
 10
366.3749194459549
 20
300.698931577218
 30
0.0
 10
366.3681170083026
 20
300.729829570011
 30
0.0
 10
366.3615957088068
 20
300.7767818791198
 30
0.0
 10
366.3600386298983
 20
300.7925340243319
 30
0.0
 10
366.3581737827956
 20
300.8242437300581
 30
0.0
 10
366.3578677579449
 20
300.8402604578765
 30
0.0
 10
366.3588719661165
 20
300.88820708788
 30
0.0
 10
366.3632235524863
 20
300.9311426805862
 30
0.0
 10
366.372055957425
 20
300.9732472905631
 30
0.0
 10
366.3747302010982
 20
300.9844038555531
 30
0.0
  0
SPLINE
  5
209
330
1F
100
AcDbEntity
  8
1
100
AcDbSpline
210
0.0
220
0.0
230
1.0
 70
     8
 71
     3
 72
    21
 73
    17
 74
     0
 42
0.000000001
 43
0.0000000001
 40
0.0
 40
0.0
 40
0.0
 40
0.0
 40
0.1243620819341502
 40
0.1243620819341502
 40
0.2119258737407589
 40
0.2119258737407589
 40
0.2994896655473678
 40
0.2994896655473678
 40
0.4746172491605405
 40
0.4746172491605405
 40
0.5621810409670963
 40
0.5621810409670963
 40
0.6497448327736525
 40
0.6497448327736525
 40
0.8248724163868262
 40
1.0
 40
1.0
 40
1.0
 40
1.0
 10
369.3071006161813
 20
300.1479797666761
 30
0.0
 10
369.2967154740437
 20
300.1280067290644
 30
0.0
 10
369.2852545245624
 20
300.10870499472
 30
0.0
 10
369.2639111511022
 20
300.0769439157957
 30
0.0
 10
369.2545626543634
 20
300.0641514212375
 30
0.0
 10
369.2347843800874
 20
300.0392411009159
 30
0.0
 10
369.2243021888294
 20
300.0270706321505
 30
0.0
 10
369.1916736284325
 20
299.9921313705799
 30
0.0
 10
369.1683336503694
 20
299.9708556601582
 30
0.0
 10
369.1310147630543
 20
299.9418766205122
 30
0.0
 10
369.1181884650609
 20
299.9327083959262
 30
0.0
 10
369.0917527272426
 20
299.915367707836
 30
0.0
 10
369.0780915383245
 20
299.9071675326536
 30
0.0
 10
369.036264187377
 20
299.8843067763462
 30
0.0
 10
368.9788521889389
 20
299.8587214007337
 30
0.0
 10
368.918312208076
 20
299.842503110365
 30
0.0
 10
368.8872411729292
 20
299.8368075968496
 30
0.0
  0
SPLINE
  5
20A
330
1F
100
AcDbEntity
  8
1
100
AcDbSpline
210
0.0
220
0.0
230
1.0
 70
     8
 71
     3
 72
    18
 73
    14
 74
     0
 42
0.000000001
 43
0.0000000001
 40
0.0
 40
0.0
 40
0.0
 40
0.0
 40
0.2127774583464231
 40
0.2127774583464231
 40
0.4255549166928463
 40
0.4255549166928463
 40
0.5319436458660566
 40
0.5319436458660566
 40
0.6383323750392669
 40
0.6383323750392669
 40
0.8511098333856988
 40
0.8511098333856988
 40
1.0
 40
1.0
 40
1.0
 40
1.0
 10
366.6973790318251
 20
301.8232599282248
 30
0.0
 10
366.7098647121226
 20
301.795042382495
 30
0.0
 10
366.7200298443436
 20
301.7660386262294
 30
0.0
 10
366.735750043653
 20
301.7064092709612
 30
0.0
 10
366.741307328762
 20
301.6757845244042
 30
0.0
 10
366.7459232837743
 20
301.628490300566
 30
0.0
 10
366.7468234260747
 20
301.6125966341146
 30
0.0
 10
366.7473319533997
 20
301.5809343722948
 30
0.0
 10
366.7469464784486
 20
301.5651076756768
 30
0.0
 10
366.7438720729503
 20
301.5176369842758
 30
0.0
 10
366.7392670360049
 20
301.4859517566791
 30
0.0
 10
366.7269014627926
 20
301.4322818925251
 30
0.0
 10
366.7206118611338
 20
301.4106929687081
 30
0.0
 10
366.7131703361222
 20
301.3895895348521
 30
0.0
  0
SPLINE
  5
20B
330
1F
100
AcDbEntity
  8
1
100
AcDbSpline
210
0.0
220
0.0
230
1.0
 70
     8
 71
     3
 72
    10
 73
     6
 74
     0
 42
0.000000001
 43
0.0000000001
 40
0.0
 40
0.0
 40
0.0
 40
0.0
 40
0.5
 40
0.5
 40
1.0
 40
1.0
 40
1.0
 40
1.0
 10
366.6541237026175
 20
301.8687021586214
 30
0.0
 10
366.6636866990368
 20
301.8638549169678
 30
0.0
 10
366.6722136216035
 20
301.8575435494034
 30
0.0
 10
366.6870217163926
 20
301.8420450252303
 30
0.0
 10
366.6929703105194
 20
301.8332236059813
 30
0.0
 10
366.6973790318251
 20
301.8232599282248
 30
0.0
  0
SPLINE
  5
20C
330
1F
100
AcDbEntity
  8
1
100
AcDbSpline
210
0.0
220
0.0
230
1.0
 70
     8
 71
     3
 72
    20
 73
    16
 74
     0
 42
0.000000001
 43
0.0000000001
 40
0.0
 40
0.0
 40
0.0
 40
0.0
 40
0.125
 40
0.125
 40
0.25
 40
0.25
 40
0.375
 40
0.375
 40
0.5
 40
0.5
 40
0.625
 40
0.625
 40
0.75
 40
0.75
 40
1.0
 40
1.0
 40
1.0
 40
1.0
 10
366.6541237026175
 20
301.8687021586214
 30
0.0
 10
366.6499399467572
 20
301.8708227989297
 30
0.0
 10
366.6459458181973
 20
301.873234865797
 30
0.0
 10
366.6383344298973
 20
301.8786378772182
 30
0.0
 10
366.6347154547407
 20
301.8816371699784
 30
0.0
 10
366.6280278374526
 20
301.8880769898678
 30
0.0
 10
366.6249353348425
 20
301.891532421834
 30
0.0
 10
366.6192616345794
 20
301.8989214696739
 30
0.0
 10
366.6166638596124
 20
301.9028889089367
 30
0.0
 10
366.6121298445622
 20
301.9111324937392
 30
0.0
 10
366.6101853165097
 20
301.9154080410514
 30
0.0
 10
366.606947879493
 20
301.9242687438872
 30
0.0
 10
366.6056490153744
 20
301.9288850368306
 30
0.0
 10
366.6028495748667
 20
301.9430144624298
 30
0.0
 10
366.6024382043771
 20
301.9526031446637
 30
0.0
 10
366.6035743088758
 20
301.962368577845
 30
0.0
  0
SPLINE
  5
20D
330
1F
100
AcDbEntity
  8
1
100
AcDbSpline
210
0.0
220
0.0
230
1.0
 70
     8
 71
     3
 72
    14
 73
    10
 74
     0
 42
0.000000001
 43
0.0000000001
 40
0.0
 40
0.0
 40
0.0
 40
0.0
 40
0.09097796866431
 40
0.09097796866431
 40
0.3939853124428733
 40
0.3939853124428733
 40
0.6969926562214367
 40
0.6969926562214367
 40
1.0
 40
1.0
 40
1.0
 40
1.0
 10
369.2653588343907
 20
300.9393309829163
 30
0.0
 10
369.2685319446646
 20
300.9483296087031
 30
0.0
 10
369.2719129914734
 20
300.9572270893614
 30
0.0
 10
369.2874396508653
 20
300.9953283497973
 30
0.0
 10
369.3016547991628
 20
301.0235406459904
 30
0.0
 10
369.3346964555211
 20
301.0776982041333
 30
0.0
 10
369.3530381135898
 20
301.102857698662
 30
0.0
 10
369.3931209055415
 20
301.1496781539043
 30
0.0
 10
369.4148637942534
 20
301.1713372038718
 30
0.0
 10
369.4383292199335
 20
301.1912655042936
 30
0.0
  0
SPLINE
  5
20E
330
1F
100
AcDbEntity
  8
1
100
AcDbSpline
210
0.0
220
0.0
230
1.0
 70
     8
 71
     3
 72
    10
 73
     6
 74
     0
 42
0.000000001
 43
0.0000000001
 40
0.0
 40
0.0
 40
0.0
 40
0.0
 40
0.5
 40
0.5
 40
1.0
 40
1.0
 40
1.0
 40
1.0
 10
369.4383292199335
 20
301.1912655042936
 30
0.0
 10
369.4466150270692
 20
301.1983023275794
 30
0.0
 10
369.4558461767221
 20
301.2036697786697
 30
0.0
 10
369.4758381057501
 20
301.2111202767556
 30
0.0
 10
369.4861733067419
 20
301.2130605984727
 30
0.0
 10
369.4968452684162
 20
301.2132418054313
 30
0.0
  0
SPLINE
  5
20F
330
1F
100
AcDbEntity
  8
1
100
AcDbSpline
210
0.0
220
0.0
230
1.0
 70
     8
 71
     3
 72
    16
 73
    12
 74
     0
 42
0.000000001
 43
0.0000000001
 40
0.0
 40
0.0
 40
0.0
 40
0.0
 40
0.0631184671046842
 40
0.0631184671046842
 40
0.2504947736838439
 40
0.2504947736838439
 40
0.4378710802630037
 40
0.4378710802630037
 40
0.6252473868421635
 40
0.6252473868421635
 40
1.0
 40
1.0
 40
1.0
 40
1.0
 10
369.5631980011739
 20
301.242703422434
 30
0.0
 10
369.5621116109949
 20
301.2415356626026
 30
0.0
 10
369.5609939481681
 20
301.2403951159702
 30
0.0
 10
369.5564339953094
 20
301.2359769896678
 30
0.0
 10
369.5527757579966
 20
301.2329484937686
 30
0.0
 10
369.5451613114991
 20
301.2275572831387
 30
0.0
 10
369.5411805549134
 20
301.2251703512859
 30
0.0
 10
369.5328780335151
 20
301.2210049192997
 30
0.0
 10
369.5285202865856
 20
301.2192174366476
 30
0.0
 10
369.5152787770662
 20
301.2149180032605
 30
0.0
 10
369.5061919022451
 20
301.2134005086895
 30
0.0
 10
369.4968452684161
 20
301.2132418054313
 30
0.0
  0
SPLINE
  5
210
330
1F
100
AcDbEntity
  8
1
100
AcDbSpline
210
0.0
220
0.0
230
1.0
 70
     8
 71
     3
 72
     8
 73
     4
 74
     0
 42
0.000000001
 43
0.0000000001
 40
0.0
 40
0.0
 40
0.0
 40
0.0
 40
1.0
 40
1.0
 40
1.0
 40
1.0
 10
366.6035743088758
 20
301.9623685778451
 30
0.0
 10
366.6048538840136
 20
301.973367218835
 30
0.0
 10
366.6064380761206
 20
301.9842989486465
 30
0.0
 10
366.6083251945884
 20
301.9951638909033
 30
0.0
  0
SPLINE
  5
211
330
1F
100
AcDbEntity
  8
1
100
AcDbSpline
210
0.0
220
0.0
230
1.0
 70
     8
 71
     3
 72
    10
 73
     6
 74
     0
 42
0.000000001
 43
0.0000000001
 40
0.0
 40
0.0
 40
0.0
 40
0.0
 40
0.6628244121470511
 40
0.6628244121470511
 40
1.0
 40
1.0
 40
1.0
 40
1.0
 10
367.931643018933
 20
302.6434186755189
 30
0.0
 10
367.9311394495857
 20
302.6412471738247
 30
0.0
 10
367.9305547173477
 20
302.6390860542879
 30
0.0
 10
367.92954980135
 20
302.6358425231673
 30
0.0
 10
367.9291917404311
 20
302.6347571876682
 30
0.0
 10
367.9288143230694
 20
302.6336802024367
 30
0.0
  0
SPLINE
  5
212
330
1F
100
AcDbEntity
  8
1
100
AcDbSpline
210
0.0
220
0.0
230
1.0
 70
     8
 71
     3
 72
     8
 73
     4
 74
     0
 42
0.000000001
 43
0.0000000001
 40
0.0
 40
0.0
 40
0.0
 40
0.0
 40
1.0
 40
1.0
 40
1.0
 40
1.0
 10
374.0081269389876
 20
279.7892402055163
 30
0.0
 10
374.0251824081699
 20
279.803177814217
 30
0.0
 10
374.0409723155494
 20
279.8184259505285
 30
0.0
 10
374.0554966611258
 20
279.8349846144508
 30
0.0
  0
SPLINE
  5
213
330
1F
100
AcDbEntity
  8
95
100
AcDbSpline
210
0.0
220
0.0
230
1.0
 70
     8
 71
     5
 72
    12
 73
     6
 74
     0
 42
0.000000001
 43
0.0000000001
 40
0.0
 40
0.0
 40
0.0
 40
0.0
 40
0.0
 40
0.0
 40
1.0
 40
1.0
 40
1.0
 40
1.0
 40
1.0
 40
1.0
 10
374.6744897377933
 20
298.2527707254933
 30
0.0
 10
374.6577914864239
 20
298.2790963623098
 30
0.0
 10
374.6410940674644
 20
298.3054225271207
 30
0.0
 10
374.6243974690445
 20
298.3317492123505
 30
0.0
 10
374.6077016796344
 20
298.3580764106398
 30
0.0
 10
374.5910066880209
 20
298.38440411483
 30
0.0
  0
SPLINE
  5
214
330
1F
100
AcDbEntity
  8
1
100
AcDbSpline
210
0.0
220
0.0
230
1.0
 70
     8
 71
     3
 72
    12
 73
     8
 74
     0
 42
0.000000001
 43
0.0000000001
 40
0.0
 40
0.0
 40
0.0
 40
0.0
 40
0.2524412729317371
 40
0.2524412729317371
 40
0.6262206364658686
 40
0.6262206364658686
 40
1.0
 40
1.0
 40
1.0
 40
1.0
 10
324.0198038972035
 20
273.9046935059492
 30
0.0
 10
323.5420573132969
 20
273.7884070267618
 30
0.0
 10
323.0640454175101
 20
273.6752119125208
 30
0.0
 10
321.8786203296668
 20
273.4006268066424
 30
0.0
 10
321.1713814613529
 20
273.2422347379268
 30
0.0
 10
319.7593347424681
 20
272.9346595623278
 30
0.0
 10
319.054526221926
 20
272.7854896070807
 30
0.0
 10
318.3513893438006
 20
272.6408580361884
 30
0.0
  0
SPLINE
  5
215
330
1F
100
AcDbEntity
  8
1
100
AcDbSpline
210
0.0
220
0.0
230
1.0
 70
     8
 71
     3
 72
    17
 73
    13
 74
     0
 42
0.000000001
 43
0.0000000001
 40
0.0
 40
0.0
 40
0.0
 40
0.0
 40
0.1697072425641388
 40
0.1697072425641388
 40
0.3394144851282775
 40
0.5091217276924163
 40
0.5091217276924163
 40
0.6788289702565553
 40
0.6788289702565553
 40
0.8485362128206942
 40
0.8485362128206942
 40
1.0
 40
1.0
 40
1.0
 40
1.0
 10
318.3513893438004
 20
272.6408580361894
 30
0.0
 10
318.6477050258527
 20
272.7227452924244
 30
0.0
 10
318.9448773946043
 20
272.8030767869063
 30
0.0
 10
319.540757660155
 20
272.9609387206162
 30
0.0
 10
320.1381736552859
 20
273.1159977923004
 30
0.0
 10
320.7381382628022
 20
273.2667599902434
 30
0.0
 10
321.3390388856455
 20
273.4163843581435
 30
0.0
 10
321.6399566561258
 20
273.4906286332542
 30
0.0
 10
322.2423243922088
 20
273.6393320383062
 30
0.0
 10
322.5437736311911
 20
273.7137928813924
 30
0.0
 10
323.1143447278209
 20
273.8564772532531
 30
0.0
 10
323.3834575261166
 20
273.9245123971075
 30
0.0
 10
323.6524355329263
 20
273.9939652650525
 30
0.0
  0
SPLINE
  5
216
330
1F
100
AcDbEntity
  8
1
100
AcDbSpline
210
0.0
220
0.0
230
1.0
 70
     8
 71
     3
 72
    32
 73
    28
 74
     0
 42
0.000000001
 43
0.0000000001
 40
0.0
 40
0.0
 40
0.0
 40
0.0
 40
0.1250000000000021
 40
0.1250000000000021
 40
0.2500000000000042
 40
0.2500000000000042
 40
0.3750000000000062
 40
0.3750000000000062
 40
0.4375000000000071
 40
0.4375000000000071
 40
0.5000000000000079
 40
0.5000000000000079
 40
0.6250000000000103
 40
0.6250000000000103
 40
0.6875000000000111
 40
0.6875000000000111
 40
0.7500000000000117
 40
0.7500000000000117
 40
0.8125000000000124
 40
0.8125000000000124
 40
0.8750000000000131
 40
0.8750000000000131
 40
0.9062500000000111
 40
0.9062500000000111
 40
0.9375000000000095
 40
0.9375000000000095
 40
1.0
 40
1.0
 40
1.0
 40
1.0
 10
363.3516375768335
 20
292.1500135977847
 30
0.0
 10
363.3995723736772
 20
292.1237945697143
 30
0.0
 10
363.4434137109479
 20
292.097150282424
 30
0.0
 10
363.5223868149961
 20
292.0429568924697
 30
0.0
 10
363.5575236730032
 20
292.0154083187207
 30
0.0
 10
363.6183041275807
 20
291.9593249401678
 30
0.0
 10
363.6439587449116
 20
291.9307912802831
 30
0.0
 10
363.6743643859678
 20
291.8871517655255
 30
0.0
 10
363.6831561187988
 20
291.8724412747073
 30
0.0
 10
363.6977004215909
 20
291.8429339848329
 30
0.0
 10
363.703471562405
 20
291.8281179163433
 30
0.0
 10
363.7159571489808
 20
291.7834689323663
 30
0.0
 10
363.7179115830813
 20
291.7534380590226
 30
0.0
 10
363.7090737765989
 20
291.7079022845326
 30
0.0
 10
363.7041522595528
 20
291.6926415331764
 30
0.0
 10
363.689726144486
 20
291.6619294307448
 30
0.0
 10
363.6802757420118
 20
291.6466012517365
 30
0.0
 10
363.6563193934235
 20
291.6160531158208
 30
0.0
 10
363.6418131636985
 20
291.6008263192937
 30
0.0
 10
363.6068934825706
 20
291.5704831837936
 30
0.0
 10
363.5864845718646
 20
291.5553667599154
 30
0.0
 10
363.5505388847287
 20
291.53279183174
 30
0.0
 10
363.5376648513827
 20
291.5252835375238
 30
0.0
 10
363.509988637321
 20
291.5103030030023
 30
0.0
 10
363.4953017192994
 20
291.5028968329099
 30
0.0
 10
363.4486192111099
 20
291.4809663586951
 30
0.0
 10
363.4139861372115
 20
291.4667195540026
 30
0.0
 10
363.375489223988
 20
291.4528837499097
 30
0.0
  0
SPLINE
  5
217
330
1F
100
AcDbEntity
  8
1
100
AcDbSpline
210
0.0
220
0.0
230
1.0
 70
     8
 71
     3
 72
    32
 73
    28
 74
     0
 42
0.000000001
 43
0.0000000001
 40
0.0
 40
0.0
 40
0.0
 40
0.0
 40
0.1250000000000003
 40
0.1250000000000003
 40
0.2500000000000007
 40
0.2500000000000007
 40
0.3750000000000009
 40
0.3750000000000009
 40
0.5000000000000011
 40
0.5000000000000011
 40
0.5625000000000025
 40
0.5625000000000025
 40
0.6250000000000037
 40
0.6250000000000037
 40
0.6562500000000044
 40
0.6562500000000044
 40
0.6875000000000052
 40
0.6875000000000052
 40
0.7500000000000038
 40
0.7500000000000038
 40
0.8125000000000026
 40
0.8125000000000026
 40
0.8750000000000014
 40
0.8750000000000014
 40
0.9375000000000007
 40
0.9375000000000007
 40
1.0
 40
1.0
 40
1.0
 40
1.0
 10
357.4349428889772
 20
295.0507057413501
 30
0.0
 10
357.7122669275723
 20
294.8591933780697
 30
0.0
 10
357.9888946741198
 20
294.679383857233
 30
0.0
 10
358.5392405381215
 20
294.3409289266631
 30
0.0
 10
358.812956805367
 20
294.1822859269495
 30
0.0
 10
359.3561443626813
 20
293.8841237920501
 30
0.0
 10
359.6256264405445
 20
293.7446060275456
 30
0.0
 10
360.1591014665164
 20
293.4828023936955
 30
0.0
 10
360.4231242933022
 20
293.3605233081467
 30
0.0
 10
360.8137371141619
 20
293.1886492737468
 30
0.0
 10
360.9430311709092
 20
293.1332819149464
 30
0.0
 10
361.1994300553636
 20
293.0261406040956
 30
0.0
 10
361.3265372164607
 20
292.9743675964972
 30
0.0
 10
361.5151551638415
 20
292.8991812969133
 30
0.0
 10
361.5776423914279
 20
292.8745274062259
 30
0.0
 10
361.7016115559772
 20
292.8259713704805
 30
0.0
 10
361.7631591219575
 20
292.802052659978
 30
0.0
 10
361.9456717803388
 20
292.7315232575687
 30
0.0
 10
362.0645728735663
 20
292.6861183403542
 30
0.0
 10
362.2956474211938
 20
292.5979315570675
 30
0.0
 10
362.4078235085381
 20
292.5551505118506
 30
0.0
 10
362.6240048252973
 20
292.4714896479762
 30
0.0
 10
362.7280140562622
 20
292.4306108372766
 30
0.0
 10
362.9260543889034
 20
292.3498885382444
 30
0.0
 10
363.020092326867
 20
292.3100463899395
 30
0.0
 10
363.1958635930045
 20
292.2303530051917
 30
0.0
 10
363.2776111163174
 20
292.1905040551147
 30
0.0
 10
363.3516375768337
 20
292.1500135977847
 30
0.0
  0
LINE
  5
233
330
1F
100
AcDbEntity
  8
SK4
100
AcDbLine
 10
210.904842
 20
288.907994
 30
0.0
 11
277.404842
 21
288.907994
 31
0.0
  0
LINE
  5
234
330
1F
100
AcDbEntity
  8
4
100
AcDbLine
 10
264.992624
 20
288.907994
 30
0.0
 11
378.752963
 21
288.907994
 31
0.0
  0
MTEXT
  5
23A
330
1F
100
AcDbEntity
  8
SK6
100
AcDbMText
 10
268.202386
 20
243.089042
 30
0.0
 40
3.5
 41
0.0
 71
     7
 72
     5
  1
\W0.7022;802D-38-76-S32
  7
cesky
 73
     2
 44
0.8433729999999998
  0
MTEXT
  5
34B
330
1F
100
AcDbEntity
  8
2
100
AcDbMText
 10
321.827842
 20
327.385163
 30
0.0
 40
3.5
 41
0.0
 71
     7
 72
     5
  1
\W0.9524;101
  7
cesky
 73
     2
 44
0.8433729999999998
  0
LINE
  5
34C
330
1F
100
AcDbEntity
  8
2
100
AcDbLine
 10
375.404842
 20
307.907994
 30
0.0
 11
375.404842
 21
328.5109970000001
 31
0.0
  0
LINE
  5
34D
330
1F
100
AcDbEntity
  8
2
100
AcDbLine
 10
274.404842
 20
289.907567
 30
0.0
 11
274.404842
 21
328.5109970000001
 31
0.0
  0
LINE
  5
34E
330
1F
100
AcDbEntity
  8
2
100
AcDbLine
 10
375.404842
 20
327.510997
 30
0.0
 11
274.404842
 21
327.510997
 31
0.0
  0
SOLID
  5
34F
330
1F
100
AcDbEntity
  8
2
100
AcDbTrace
 10
375.404842
 20
327.510997
 30
0.0
 11
371.904844
 21
326.893852
 31
0.0
 12
371.90484
 22
328.128141
 32
0.0
 13
371.90484
 23
328.128141
 33
0.0
  0
SOLID
  5
350
330
1F
100
AcDbEntity
  8
2
100
AcDbTrace
 10
274.404842
 20
327.510997
 30
0.0
 11
277.90484
 21
328.128141
 31
0.0
 12
277.904844
 22
326.893852
 32
0.0
 13
277.904844
 23
326.893852
 33
0.0
  0
MTEXT
  5
351
330
1F
100
AcDbEntity
  8
2
100
AcDbMText
 10
291.827842
 20
340.562135
 30
0.0
 40
3.5
 41
0.0
 71
     7
 72
     5
  1
\W0.9524;161
  7
cesky
 73
     2
 44
0.8433729999999998
  0
LINE
  5
352
330
1F
100
AcDbEntity
  8
2
100
AcDbLine
 10
375.404842
 20
309.907994
 30
0.0
 11
375.404842
 21
341.687968
 31
0.0
  0
LINE
  5
353
330
1F
100
AcDbEntity
  8
2
100
AcDbLine
 10
214.404842
 20
302.907994
 30
0.0
 11
214.404842
 21
341.687968
 31
0.0
  0
LINE
  5
354
330
1F
100
AcDbEntity
  8
2
100
AcDbLine
 10
375.404842
 20
340.687968
 30
0.0
 11
214.404842
 21
340.687968
 31
0.0
  0
SOLID
  5
355
330
1F
100
AcDbEntity
  8
2
100
AcDbTrace
 10
375.404842
 20
340.687968
 30
0.0
 11
371.904844
 21
340.070823
 31
0.0
 12
371.90484
 22
341.305112
 32
0.0
 13
371.90484
 23
341.305112
 33
0.0
  0
SOLID
  5
356
330
1F
100
AcDbEntity
  8
2
100
AcDbTrace
 10
214.404842
 20
340.687968
 30
0.0
 11
217.90484
 21
341.305112
 31
0.0
 12
217.904844
 22
340.070823
 32
0.0
 13
217.904844
 23
340.070823
 33
0.0
  0
MTEXT
  5
357
330
1F
100
AcDbEntity
  8
2
100
AcDbMText
 10
242.590342
 20
327.385163
 30
0.0
 40
3.5
 41
0.0
 71
     7
 72
     5
  1
\W0.7045;60
  7
cesky
 73
     2
 44
0.8433729999999998
  0
LINE
  5
358
330
1F
100
AcDbEntity
  8
2
100
AcDbLine
 10
274.404842
 20
288.907994
 30
0.0
 11
274.404842
 21
328.5109970000001
 31
0.0
  0
LINE
  5
359
330
1F
100
AcDbEntity
  8
2
100
AcDbLine
 10
214.404842
 20
302.907994
 30
0.0
 11
214.404842
 21
328.5109970000001
 31
0.0
  0
LINE
  5
35A
330
1F
100
AcDbEntity
  8
2
100
AcDbLine
 10
274.404842
 20
327.510997
 30
0.0
 11
214.404842
 21
327.510997
 31
0.0
  0
SOLID
  5
35B
330
1F
100
AcDbEntity
  8
2
100
AcDbTrace
 10
274.404842
 20
327.510997
 30
0.0
 11
270.904844
 21
326.893852
 31
0.0
 12
270.90484
 22
328.128141
 32
0.0
 13
270.90484
 23
328.128141
 33
0.0
  0
SOLID
  5
35C
330
1F
100
AcDbEntity
  8
2
100
AcDbTrace
 10
214.404842
 20
327.510997
 30
0.0
 11
217.90484
 21
328.128141
 31
0.0
 12
217.904844
 22
326.893852
 32
0.0
 13
217.904844
 23
326.893852
 33
0.0
  0
MTEXT
  5
35D
330
1F
100
AcDbEntity
  8
2
100
AcDbMText
 10
331.096699
 20
316.910506
 30
0.0
 40
3.5
 41
0.0
 71
     7
 72
     5
  1
\W0.7045;85
  7
cesky
 73
     2
 44
0.8433729999999998
  0
LINE
  5
35E
330
1F
100
AcDbEntity
  8
2
100
AcDbLine
 10
375.404842
 20
309.907994
 30
0.0
 11
375.404842
 21
318.036339
 31
0.0
  0
LINE
  5
35F
330
1F
100
AcDbEntity
  8
2
100
AcDbLine
 10
290.417556
 20
307.6235529999999
 30
0.0
 11
290.417556
 21
318.036339
 31
0.0
  0
LINE
  5
360
330
1F
100
AcDbEntity
  8
2
100
AcDbLine
 10
375.404842
 20
317.036339
 30
0.0
 11
290.417556
 21
317.036339
 31
0.0
  0
SOLID
  5
361
330
1F
100
AcDbEntity
  8
2
100
AcDbTrace
 10
375.404842
 20
317.036339
 30
0.0
 11
371.904844
 21
316.419195
 31
0.0
 12
371.90484
 22
317.653484
 32
0.0
 13
371.90484
 23
317.653484
 33
0.0
  0
SOLID
  5
362
330
1F
100
AcDbEntity
  8
2
100
AcDbTrace
 10
290.417556
 20
317.036339
 30
0.0
 11
293.917554
 21
317.653484
 31
0.0
 12
293.917559
 22
316.419195
 32
0.0
 13
293.917559
 23
316.419195
 33
0.0
  0
MTEXT
  5
363
330
1F
100
AcDbEntity
  8
2
100
AcDbMText
 10
391.5669890000001
 20
290.23887
 30
0.0
 40
3.5
 41
0.0
 71
     7
 72
     5
  1
\W0.7045;38
  7
cesky
 11
0.0000000000000001
 21
1.0
 31
0.0
 73
     2
 44
0.8433729999999998
  0
MTEXT
  5
364
330
1F
100
AcDbEntity
  8
2
100
AcDbMText
 10
391.5669890000001
 20
283.50137
 30
0.0
 40
3.5
 41
0.0
 71
     7
 72
     5
  1
\W3.0115;\H2.63;%%c\H3.50;
  7
cesky
 11
0.0000000000000001
 21
1.0
 31
0.0
 73
     2
 44
0.8433729999999998
  0
LINE
  5
365
330
1F
100
AcDbEntity
  8
2
100
AcDbLine
 10
377.404842
 20
307.907994
 30
0.0
 11
392.754406
 21
307.907994
 31
0.0
  0
LINE
  5
366
330
1F
100
AcDbEntity
  8
2
100
AcDbLine
 10
391.754406
 20
307.907994
 30
0.0
 11
391.754406
 21
283.34387
 31
0.0
  0
SOLID
  5
367
330
1F
100
AcDbEntity
  8
2
100
AcDbTrace
 10
391.754406
 20
307.907994
 30
0.0
 11
392.37155
 21
304.407996
 31
0.0
 12
391.137261
 22
304.4079910000001
 32
0.0
 13
391.137261
 23
304.4079910000001
 33
0.0
  0
MTEXT
  5
368
330
1F
100
AcDbEntity
  8
SK2
100
AcDbMText
 10
203.850458
 20
290.434244
 30
0.0
 40
3.5
 41
0.0
 71
     7
 72
     5
  1
\W0.7045;32
  7
cesky
 11
0.0000000000000001
 21
1.0
 31
0.0
 73
     2
 44
0.8433729999999998
  0
MTEXT
  5
369
330
1F
100
AcDbEntity
  8
SK2
100
AcDbMText
 10
203.850458
 20
283.696744
 30
0.0
 40
3.5
 41
0.0
 71
     7
 72
     5
  1
\W3.0115;\H2.63;%%c\H3.50;
  7
cesky
 11
0.0000000000000001
 21
1.0
 31
0.0
 73
     2
 44
0.8433729999999998
  0
LINE
  5
36A
330
1F
100
AcDbEntity
  8
SK2
100
AcDbLine
 10
216.404842
 20
304.907994
 30
0.0
 11
203.037875
 21
304.907994
 31
0.0
  0
LINE
  5
36B
330
1F
100
AcDbEntity
  8
SK2
100
AcDbLine
 10
216.404842
 20
272.907994
 30
0.0
 11
203.037875
 21
272.907994
 31
0.0
  0
LINE
  5
36C
330
1F
100
AcDbEntity
  8
SK2
100
AcDbLine
 10
204.037875
 20
304.907994
 30
0.0
 11
204.037875
 21
272.907994
 31
0.0
  0
SOLID
  5
36D
330
1F
100
AcDbEntity
  8
SK2
100
AcDbTrace
 10
204.037875
 20
304.907994
 30
0.0
 11
204.65502
 21
301.407996
 31
0.0
 12
203.420731
 22
301.407991
 32
0.0
 13
203.420731
 23
301.407991
 33
0.0
  0
SOLID
  5
36E
330
1F
100
AcDbEntity
  8
SK2
100
AcDbTrace
 10
204.037875
 20
272.907994
 30
0.0
 11
203.420731
 21
276.407991
 31
0.0
 12
204.65502
 22
276.407996
 32
0.0
 13
204.65502
 23
276.407996
 33
0.0
  0
MTEXT
  5
36F
330
1F
100
AcDbEntity
  8
SK2
100
AcDbMText
 10
191.10057
 20
290.434244
 30
0.0
 40
3.5
 41
0.0
 71
     7
 72
     5
  1
\W0.7045;42
  7
cesky
 11
0.0000000000000001
 21
1.0
 31
0.0
 73
     2
 44
0.8433729999999998
  0
MTEXT
  5
370
330
1F
100
AcDbEntity
  8
SK2
100
AcDbMText
 10
191.10057
 20
283.696744
 30
0.0
 40
3.5
 41
0.0
 71
     7
 72
     5
  1
\W3.0115;\H2.63;%%c\H3.50;
  7
cesky
 11
0.0000000000000001
 21
1.0
 31
0.0
 73
     2
 44
0.8433729999999998
  0
LINE
  5
371
330
1F
100
AcDbEntity
  8
SK2
100
AcDbLine
 10
274.904842
 20
309.907994
 30
0.0
 11
190.287987
 21
309.907994
 31
0.0
  0
LINE
  5
372
330
1F
100
AcDbEntity
  8
SK2
100
AcDbLine
 10
274.904842
 20
267.907994
 30
0.0
 11
190.287987
 21
267.907994
 31
0.0
  0
LINE
  5
373
330
1F
100
AcDbEntity
  8
SK2
100
AcDbLine
 10
191.287987
 20
309.907994
 30
0.0
 11
191.287987
 21
267.907994
 31
0.0
  0
SOLID
  5
374
330
1F
100
AcDbEntity
  8
SK2
100
AcDbTrace
 10
191.287987
 20
309.907994
 30
0.0
 11
191.905131
 21
306.407996
 31
0.0
 12
190.670842
 22
306.407991
 32
0.0
 13
190.670842
 23
306.407991
 33
0.0
  0
SOLID
  5
375
330
1F
100
AcDbEntity
  8
SK2
100
AcDbTrace
 10
191.287987
 20
267.907994
 30
0.0
 11
190.670842
 21
271.4079910000001
 31
0.0
 12
191.905131
 22
271.407996
 32
0.0
 13
191.905131
 23
271.407996
 33
0.0
  0
LINE
  5
376
330
1F
100
AcDbEntity
  8
CUT
100
AcDbLine
 10
373.4725427394182
 20
307.9044280092425
 30
0.0
 11
362.3343635403399
 21
307.4972251080194
 31
0.0
  0
LINE
  5
379
330
1F
100
AcDbEntity
  8
CUT
100
AcDbLine
 10
375.2334058386328
 20
297.3226372761577
 30
0.0
 11
374.6744897377932
 21
298.2527707254933
 31
0.0
  0
LINE
  5
37B
330
1F
100
AcDbEntity
  8
CUT
100
AcDbLine
 10
375.3998607906599
 20
290.0508870445029
 30
0.0
 11
375.2754235247553
 21
297.176114721899
 31
0.0
  0
LINE
  5
37C
330
1F
100
AcDbEntity
  8
CUT
100
AcDbLine
 10
374.5910066880209
 20
298.38440411483
 30
0.0
 11
374.2761911676126
 21
307.1579529786636
 31
0.0
  0
LINE
  5
37D
330
1F
100
AcDbEntity
  8
CUT
100
AcDbLine
 10
361.586246
 20
288.907994
 30
0.0
 11
375.399861
 21
288.907994
 31
0.0
  0
LINE
  5
37E
330
1F
100
AcDbEntity
  8
CUT
100
AcDbLine
 10
361.586246
 20
306.693618
 30
0.0
 11
361.586246
 21
288.907994
 31
0.0
  0
LINE
  5
37F
330
1F
100
AcDbEntity
  8
CUT
100
AcDbLine
 10
375.399861
 20
288.907994
 30
0.0
 11
375.399861
 21
290.050887
 31
0.0
  0
LINE
  5
380
330
1F
100
AcDbEntity
  8
CUT
100
AcDbLine
 10
374.2761911676126
 20
307.1579529786636
 30
0.0
 11
374.2761911676126
 21
307.1579529786636
 31
0.0
  0
ARC
  5
381
330
1F
100
AcDbEntity
  8
CUT
100
AcDbCircle
 10
373.4963703861335
 20
307.1242427263852
 30
0.0
 40
0.7805490582502386
100
AcDbArc
 50
2.475252629549944
 51
91.74932722730279
  0
LINE
  5
382
330
1F
100
AcDbEntity
  8
CUT
100
AcDbLine
 10
362.3343635403399
 20
307.4972251080194
 30
0.0
 11
362.3343635403399
 21
307.4972251080194
 31
0.0
  0
ARC
  5
383
330
1F
100
AcDbEntity
  8
CUT
100
AcDbCircle
 10
362.3681153137608
 20
306.7157704629187
 30
0.0
 40
0.7821831911761224
100
AcDbArc
 50
92.47312243700868
 51
181.6229345148634
  0
LINE
  5
384
330
1F
100
AcDbEntity
  8
CUT
100
AcDbLine
 10
375.2754235247554
 20
297.176114721899
 30
0.0
 11
375.2754235247554
 21
297.176114721899
 31
0.0
  0
ARC
  5
385
330
1F
100
AcDbEntity
  8
CUT
100
AcDbCircle
 10
374.9810538459227
 20
297.1709854068515
 30
0.0
 40
0.2944143639311134
100
AcDbArc
 50
0.9982630242668925
 51
31.00391922437141
  0
ENDSEC
  0
SECTION
  2
OBJECTS
  0
DICTIONARY
  5
C
330
0
100
AcDbDictionary
281
     1
  3
ACAD_CIP_PREVIOUS_PRODUCT_INFO
350
348
  3
ACAD_COLOR
350
343
  3
ACAD_DETAILVIEWSTYLE
350
33F
  3
ACAD_GROUP
350
D
  3
ACAD_LAYOUT
350
1A
  3
ACAD_MATERIAL
350
43
  3
ACAD_MLEADERSTYLE
350
6B
  3
ACAD_MLINESTYLE
350
17
  3
ACAD_PLOTSETTINGS
350
19
  3
ACAD_PLOTSTYLENAME
350
E
  3
ACAD_SCALELIST
350
47
  3
ACAD_SECTIONVIEWSTYLE
350
340
  3
ACAD_TABLESTYLE
350
69
  3
ACAD_VISUALSTYLE
350
2A
  3
ACDB_RECOMPOSE_DATA
350
3B3
  3
AcDbVariableDictionary
350
2FC
  0
DICTIONARY
  5
394
330
10
100
AcDbDictionary
280
     1
281
     1
  3
ADSK_XREC_LAYER_RECONCILED
360
395
  0
DICTIONARY
  5
396
330
C0
100
AcDbDictionary
280
     1
281
     1
  3
ADSK_XREC_LAYER_RECONCILED
360
397
  0
DICTIONARY
  5
398
330
386
100
AcDbDictionary
280
     1
281
     1
  3
ADSK_XREC_LAYER_RECONCILED
360
399
  0
DICTIONARY
  5
39A
330
387
100
AcDbDictionary
280
     1
281
     1
  3
ADSK_XREC_LAYER_RECONCILED
360
39B
  0
DICTIONARY
  5
39C
330
388
100
AcDbDictionary
280
     1
281
     1
  3
ADSK_XREC_LAYER_RECONCILED
360
39D
  0
DICTIONARY
  5
39E
330
38A
100
AcDbDictionary
280
     1
281
     1
  3
ADSK_XREC_LAYER_RECONCILED
360
39F
  0
DICTIONARY
  5
3A0
330
38B
100
AcDbDictionary
280
     1
281
     1
  3
ADSK_XREC_LAYER_RECONCILED
360
3A1
  0
DICTIONARY
  5
3A2
330
38D
100
AcDbDictionary
280
     1
281
     1
  3
ADSK_XREC_LAYER_RECONCILED
360
3A3
  0
DICTIONARY
  5
3A4
330
38E
100
AcDbDictionary
280
     1
281
     1
  3
ADSK_XREC_LAYER_RECONCILED
360
3A5
  0
DICTIONARY
  5
3A6
330
38F
100
AcDbDictionary
280
     1
281
     1
  3
ADSK_XREC_LAYER_RECONCILED
360
3A7
  0
DICTIONARY
  5
3A8
330
390
100
AcDbDictionary
280
     1
281
     1
  3
ADSK_XREC_LAYER_RECONCILED
360
3A9
  0
DICTIONARY
  5
3AA
330
391
100
AcDbDictionary
280
     1
281
     1
  3
ADSK_XREC_LAYER_RECONCILED
360
3AB
  0
DICTIONARY
  5
3AC
330
392
100
AcDbDictionary
280
     1
281
     1
  3
ADSK_XREC_LAYER_RECONCILED
360
3AD
  0
DICTIONARY
  5
349
330
1F
100
AcDbDictionary
280
     1
281
     1
  3
ACAD_SORTENTS
360
34A
  0
XRECORD
  5
348
102
{ACAD_REACTORS
330
C
102
}
330
C
100
AcDbXrecord
280
     1
300
ACD
300
2019
300
87084ACD_2019_0F
  0
DICTIONARY
  5
343
102
{ACAD_REACTORS
330
C
102
}
330
C
100
AcDbDictionary
281
     1
  0
DICTIONARY
  5
33F
102
{ACAD_REACTORS
330
C
102
}
330
C
100
AcDbDictionary
281
     1
  3
Metric50
350
345
  0
DICTIONARY
  5
D
102
{ACAD_REACTORS
330
C
102
}
330
C
100
AcDbDictionary
281
     1
  3
NULOVY_BOD
350
393
  0
DICTIONARY
  5
1A
102
{ACAD_REACTORS
330
C
102
}
330
C
100
AcDbDictionary
281
     1
  3
Layout1
350
1E
  3
Layout2
350
26
  3
Model
350
22
  0
DICTIONARY
  5
43
102
{ACAD_REACTORS
330
C
102
}
330
C
100
AcDbDictionary
281
     1
  3
ByBlock
350
45
  3
ByLayer
350
44
  3
Global
350
46
  0
DICTIONARY
  5
6B
102
{ACAD_REACTORS
330
C
102
}
330
C
100
AcDbDictionary
281
     1
  3
Standard
350
6C
  0
DICTIONARY
  5
17
102
{ACAD_REACTORS
330
C
102
}
330
C
100
AcDbDictionary
281
     1
  3
Standard
350
18
  0
DICTIONARY
  5
19
102
{ACAD_REACTORS
330
C
102
}
330
C
100
AcDbDictionary
281
     1
  0
ACDBDICTIONARYWDFLT
  5
E
102
{ACAD_REACTORS
330
C
102
}
330
C
100
AcDbDictionary
281
     1
  3
Normal
350
F
100
AcDbDictionaryWithDefault
340
F
  0
DICTIONARY
  5
47
102
{ACAD_REACTORS
330
C
102
}
330
C
100
AcDbDictionary
281
     1
  3
A0
350
48
  3
A1
350
49
  3
A2
350
4A
  3
A3
350
4B
  3
A4
350
4C
  3
A5
350
4D
  3
A6
350
4E
  3
A7
350
4F
  3
A8
350
50
  3
A9
350
51
  3
B0
350
52
  3
B1
350
53
  3
B2
350
54
  3
B3
350
55
  3
B4
350
56
  3
B5
350
57
  3
B6
350
58
  3
B7
350
59
  3
B8
350
5A
  3
B9
350
5B
  3
C0
350
5C
  3
C1
350
5D
  3
C2
350
5E
  3
C3
350
5F
  3
C4
350
60
  3
C5
350
61
  3
C6
350
62
  3
C7
350
63
  3
C8
350
64
  3
C9
350
65
  3
D0
350
66
  3
D1
350
67
  3
D2
350
68
  0
DICTIONARY
  5
340
102
{ACAD_REACTORS
330
C
102
}
330
C
100
AcDbDictionary
281
     1
  3
Metric50
350
344
  0
DICTIONARY
  5
69
102
{ACAD_REACTORS
330
C
102
}
330
C
100
AcDbDictionary
281
     1
  3
Standard
350
6A
  0
DICTIONARY
  5
2A
102
{ACAD_REACTORS
330
C
102
}
330
C
100
AcDbDictionary
281
     1
  3
2dWireframe
350
2F
  3
Basic
350
32
  3
Brighten
350
36
  3
ColorChange
350
3A
  3
Conceptual
350
34
  3
Dim
350
35
  3
EdgeColorOff
350
3D
  3
Facepattern
350
39
  3
Flat
350
2B
  3
FlatWithEdges
350
2C
  3
Gouraud
350
2D
  3
GouraudWithEdges
350
2E
  3
Hidden
350
31
  3
JitterOff
350
3B
  3
Linepattern
350
38
  3
OverhangOff
350
3C
  3
Realistic
350
33
  3
Shaded
350
42
  3
Shaded with edges
350
41
  3
Shades of Gray
350
3E
  3
Sketchy
350
3F
  3
Thicken
350
37
  3
Wireframe
350
30
  3
X-Ray
350
40
  0
XRECORD
  5
3B3
102
{ACAD_REACTORS
330
C
102
}
330
C
100
AcDbXrecord
280
     1
 90
        1
330
6A
  0
DICTIONARY
  5
2FC
102
{ACAD_REACTORS
330
C
102
}
330
C
100
AcDbDictionary
281
     1
  3
CANNOSCALE
350
2FD
  3
CMLEADERSTYLE
350
33E
  3
CTABLESTYLE
350
33D
  3
CVIEWDETAILSTYLE
350
3AE
  3
CVIEWSECTIONSTYLE
350
3AF
  3
MSLTSCALE
350
2FE
  3
XCLIPFRAME
350
3B0
  0
XRECORD
  5
395
102
{ACAD_REACTORS
330
394
102
}
330
394
100
AcDbXrecord
280
     1
290
     1
  0
XRECORD
  5
397
102
{ACAD_REACTORS
330
396
102
}
330
396
100
AcDbXrecord
280
     1
290
     1
  0
XRECORD
  5
399
102
{ACAD_REACTORS
330
398
102
}
330
398
100
AcDbXrecord
280
     1
290
     1
  0
XRECORD
  5
39B
102
{ACAD_REACTORS
330
39A
102
}
330
39A
100
AcDbXrecord
280
     1
290
     1
  0
XRECORD
  5
39D
102
{ACAD_REACTORS
330
39C
102
}
330
39C
100
AcDbXrecord
280
     1
290
     1
  0
XRECORD
  5
39F
102
{ACAD_REACTORS
330
39E
102
}
330
39E
100
AcDbXrecord
280
     1
290
     1
  0
XRECORD
  5
3A1
102
{ACAD_REACTORS
330
3A0
102
}
330
3A0
100
AcDbXrecord
280
     1
290
     1
  0
XRECORD
  5
3A3
102
{ACAD_REACTORS
330
3A2
102
}
330
3A2
100
AcDbXrecord
280
     1
290
     1
  0
XRECORD
  5
3A5
102
{ACAD_REACTORS
330
3A4
102
}
330
3A4
100
AcDbXrecord
280
     1
290
     1
  0
XRECORD
  5
3A7
102
{ACAD_REACTORS
330
3A6
102
}
330
3A6
100
AcDbXrecord
280
     1
290
     1
  0
XRECORD
  5
3A9
102
{ACAD_REACTORS
330
3A8
102
}
330
3A8
100
AcDbXrecord
280
     1
290
     1
  0
XRECORD
  5
3AB
102
{ACAD_REACTORS
330
3AA
102
}
330
3AA
100
AcDbXrecord
280
     1
290
     1
  0
XRECORD
  5
3AD
102
{ACAD_REACTORS
330
3AC
102
}
330
3AC
100
AcDbXrecord
280
     1
290
     1
  0
SORTENTSTABLE
  5
34A
102
{ACAD_REACTORS
330
349
102
}
330
349
100
AcDbSortentsTable
330
1F
331
34B
  5
2B6
331
34C
  5
2CF
331
34D
  5
34B
331
34E
  5
34C
331
34F
  5
34D
331
350
  5
34E
331
351
  5
34F
331
352
  5
350
331
353
  5
351
331
354
  5
352
331
355
  5
353
331
356
  5
354
331
357
  5
355
331
358
  5
356
331
359
  5
357
331
35A
  5
358
331
35B
  5
359
331
35C
  5
35A
331
35D
  5
35B
331
35E
  5
35C
331
35F
  5
35D
331
360
  5
35E
331
361
  5
35F
331
362
  5
360
331
363
  5
361
331
364
  5
362
331
365
  5
363
331
366
  5
364
331
367
  5
365
331
379
  5
37E
331
37B
  5
381
331
37C
  5
382
331
37D
  5
383
331
37E
  5
384
331
37F
  5
385
331
380
  5
379
331
381
  5
37B
331
382
  5
37C
331
383
  5
37D
331
384
  5
37F
331
385
  5
380
  0
ACDBDETAILVIEWSTYLE
  5
345
102
{ACAD_XDICTIONARY
360
3E7
102
}
102
{ACAD_REACTORS
330
33F
102
}
330
33F
100
AcDbModelDocViewStyle
 70
     0
  3
Metric50
290
     0
100
AcDbDetailViewStyle
 70
     0
 71
     0
 90
        3
 71
     1
340
11
 62
   256
 40
5.0
340
0
 62
   256
 40
5.0
300

 40
0.0
280
     1
 71
     2
340
16
 90
       25
 62
   256
 71
     3
340
11
 62
   256
 40
5.0
 90
        0
 40
15.0
 90
        1
300
%<\AcVar ViewDetailId>% (%<\AcVar ViewScale \f "%sn">%)
 71
     4
340
16
 90
       25
 62
   256
340
16
 90
       25
 62
   256
280
     0
  0
GROUP
  5
393
102
{ACAD_REACTORS
330
D
102
}
330
D
100
AcDbGroup
300

 70
     0
 71
     1
340
73
  0
LAYOUT
  5
1E
102
{ACAD_REACTORS
330
1A
102
}
330
1A
100
AcDbPlotSettings
  1

  2
none_device
  4

  6

 40
0.0
 41
0.0
 42
0.0
 43
0.0
 44
0.0
 45
0.0
 46
0.0
 47
0.0
 48
0.0
 49
0.0
140
0.0
141
0.0
142
1.0
143
1.0
 70
   688
 72
     0
 73
     0
 74
     5
  7

 75
    16
147
1.0
 76
     0
 77
     2
 78
   300
148
0.0
149
0.0
100
AcDbLayout
  1
Layout1
 70
     1
 71
     1
 10
-0.5
 20
-0.5
 11
5.0
 21
5.0
 12
0.0
 22
0.0
 32
0.0
 14
-0.5
 24
-0.5
 34
-0.5
 15
5.0
 25
5.0
 35
5.0
146
0.0
 13
0.0
 23
0.0
 33
0.0
 16
1.0
 26
0.0
 36
0.0
 17
0.0
 27
1.0
 37
0.0
 76
     0
330
1B
  0
LAYOUT
  5
26
102
{ACAD_REACTORS
330
1A
102
}
330
1A
100
AcDbPlotSettings
  1

  2
none_device
  4

  6

 40
0.0
 41
0.0
 42
0.0
 43
0.0
 44
0.0
 45
0.0
 46
0.0
 47
0.0
 48
0.0
 49
0.0
140
0.0
141
0.0
142
1.0
143
1.0
 70
   688
 72
     0
 73
     0
 74
     5
  7

 75
    16
147
1.0
 76
     0
 77
     2
 78
   300
148
0.0
149
0.0
100
AcDbLayout
  1
Layout2
 70
     1
 71
     2
 10
0.0
 20
0.0
 11
0.0
 21
0.0
 12
0.0
 22
0.0
 32
0.0
 14
0.0
 24
0.0
 34
0.0
 15
0.0
 25
0.0
 35
0.0
146
0.0
 13
0.0
 23
0.0
 33
0.0
 16
1.0
 26
0.0
 36
0.0
 17
0.0
 27
1.0
 37
0.0
 76
     0
330
23
  0
LAYOUT
  5
22
102
{ACAD_REACTORS
330
1A
102
}
330
1A
100
AcDbPlotSettings
  1

  2
none_device
  4
Letter_(8.50_x_11.00_Inches)
  6

 40
6.349999999999999
 41
6.349999999999999
 42
6.350005
 43
6.350005
 44
215.9
 45
279.4
 46
0.0
 47
0.0
 48
0.0
 49
0.0
140
0.0
141
0.0
142
1.0
143
1.0
 70
  1712
 72
     0
 73
     0
 74
     0
  7

 75
     0
147
1.0
 76
     0
 77
     2
 78
   300
148
0.0
149
0.0
100
AcDbLayout
  1
Model
 70
     1
 71
     0
 10
-0.5
 20
-0.5
 11
5.0
 21
5.0
 12
0.0
 22
0.0
 32
0.0
 14
-0.5
 24
-0.5
 34
-0.5
 15
5.0
 25
5.0
 35
5.0
146
0.0
 13
0.0
 23
0.0
 33
0.0
 16
1.0
 26
0.0
 36
0.0
 17
0.0
 27
1.0
 37
0.0
 76
     0
330
1F
331
29
  0
MATERIAL
  5
45
102
{ACAD_XDICTIONARY
360
332
102
}
102
{ACAD_REACTORS
330
43
102
}
330
43
100
AcDbMaterial
  1
ByBlock
  0
MATERIAL
  5
44
102
{ACAD_XDICTIONARY
360
330
102
}
102
{ACAD_REACTORS
330
43
102
}
330
43
100
AcDbMaterial
  1
ByLayer
  0
MATERIAL
  5
46
102
{ACAD_XDICTIONARY
360
334
102
}
102
{ACAD_REACTORS
330
43
102
}
330
43
100
AcDbMaterial
  1
Global
  0
MLEADERSTYLE
  5
6C
102
{ACAD_REACTORS
330
6B
102
}
330
6B
100
AcDbMLeaderStyle
170
     2
171
     1
172
     0
 90
        2
 40
0.0
 41
0.0
173
     1
 91
-1056964608
340
14
 92
       -2
290
     1
 42
0.09
291
     1
 43
0.36
  3
Standard
 44
0.18
300

342
11
174
     1
178
     6
175
     1
176
     0
 93
-1056964608
 45
0.18
292
     0
297
     0
 46
0.18
 94
-1056964608
 47
1.0
 49
1.0
140
1.0
293
     1
141
0.0
294
     1
177
     0
142
1.0
295
     0
296
     0
143
0.125
1001
ACAD_MLEADERVER
1070
     2
  0
MLINESTYLE
  5
18
102
{ACAD_REACTORS
330
17
102
}
330
17
100
AcDbMlineStyle
  2
STANDARD
 70
     0
  3

 62
   256
 51
90.0
 52
90.0
 71
     2
 49
0.5
 62
   256
  6
BYLAYER
 49
-0.5
 62
   256
  6
BYLAYER
  0
ACDBPLACEHOLDER
  5
F
102
{ACAD_REACTORS
330
E
102
}
330
E
  0
SCALE
  5
48
102
{ACAD_REACTORS
330
47
102
}
330
47
100
AcDbScale
 70
     0
300
1:1
140
1.0
141
1.0
290
     1
  0
SCALE
  5
49
102
{ACAD_REACTORS
330
47
102
}
330
47
100
AcDbScale
 70
     0
300
1:2
140
1.0
141
2.0
290
     0
  0
SCALE
  5
4A
102
{ACAD_REACTORS
330
47
102
}
330
47
100
AcDbScale
 70
     0
300
1:4
140
1.0
141
4.0
290
     0
  0
SCALE
  5
4B
102
{ACAD_REACTORS
330
47
102
}
330
47
100
AcDbScale
 70
     0
300
1:5
140
1.0
141
5.0
290
     0
  0
SCALE
  5
4C
102
{ACAD_REACTORS
330
47
102
}
330
47
100
AcDbScale
 70
     0
300
1:8
140
1.0
141
8.0
290
     0
  0
SCALE
  5
4D
102
{ACAD_REACTORS
330
47
102
}
330
47
100
AcDbScale
 70
     0
300
1:10
140
1.0
141
10.0
290
     0
  0
SCALE
  5
4E
102
{ACAD_REACTORS
330
47
102
}
330
47
100
AcDbScale
 70
     0
300
1:16
140
1.0
141
16.0
290
     0
  0
SCALE
  5
4F
102
{ACAD_REACTORS
330
47
102
}
330
47
100
AcDbScale
 70
     0
300
1:20
140
1.0
141
20.0
290
     0
  0
SCALE
  5
50
102
{ACAD_REACTORS
330
47
102
}
330
47
100
AcDbScale
 70
     0
300
1:30
140
1.0
141
30.0
290
     0
  0
SCALE
  5
51
102
{ACAD_REACTORS
330
47
102
}
330
47
100
AcDbScale
 70
     0
300
1:40
140
1.0
141
40.0
290
     0
  0
SCALE
  5
52
102
{ACAD_REACTORS
330
47
102
}
330
47
100
AcDbScale
 70
     0
300
1:50
140
1.0
141
50.0
290
     0
  0
SCALE
  5
53
102
{ACAD_REACTORS
330
47
102
}
330
47
100
AcDbScale
 70
     0
300
1:100
140
1.0
141
100.0
290
     0
  0
SCALE
  5
54
102
{ACAD_REACTORS
330
47
102
}
330
47
100
AcDbScale
 70
     0
300
2:1
140
2.0
141
1.0
290
     0
  0
SCALE
  5
55
102
{ACAD_REACTORS
330
47
102
}
330
47
100
AcDbScale
 70
     0
300
4:1
140
4.0
141
1.0
290
     0
  0
SCALE
  5
56
102
{ACAD_REACTORS
330
47
102
}
330
47
100
AcDbScale
 70
     0
300
8:1
140
8.0
141
1.0
290
     0
  0
SCALE
  5
57
102
{ACAD_REACTORS
330
47
102
}
330
47
100
AcDbScale
 70
     0
300
10:1
140
10.0
141
1.0
290
     0
  0
SCALE
  5
58
102
{ACAD_REACTORS
330
47
102
}
330
47
100
AcDbScale
 70
     0
300
100:1
140
100.0
141
1.0
290
     0
  0
SCALE
  5
59
102
{ACAD_REACTORS
330
47
102
}
330
47
100
AcDbScale
 70
     0
300
1/128" = 1'-0"
140
0.007812
141
12.0
290
     0
  0
SCALE
  5
5A
102
{ACAD_REACTORS
330
47
102
}
330
47
100
AcDbScale
 70
     0
300
1/64" = 1'-0"
140
0.015625
141
12.0
290
     0
  0
SCALE
  5
5B
102
{ACAD_REACTORS
330
47
102
}
330
47
100
AcDbScale
 70
     0
300
1/32" = 1'-0"
140
0.03125
141
12.0
290
     0
  0
SCALE
  5
5C
102
{ACAD_REACTORS
330
47
102
}
330
47
100
AcDbScale
 70
     0
300
1/16" = 1'-0"
140
0.0625
141
12.0
290
     0
  0
SCALE
  5
5D
102
{ACAD_REACTORS
330
47
102
}
330
47
100
AcDbScale
 70
     0
300
3/32" = 1'-0"
140
0.09375
141
12.0
290
     0
  0
SCALE
  5
5E
102
{ACAD_REACTORS
330
47
102
}
330
47
100
AcDbScale
 70
     0
300
1/8" = 1'-0"
140
0.125
141
12.0
290
     0
  0
SCALE
  5
5F
102
{ACAD_REACTORS
330
47
102
}
330
47
100
AcDbScale
 70
     0
300
3/16" = 1'-0"
140
0.1875
141
12.0
290
     0
  0
SCALE
  5
60
102
{ACAD_REACTORS
330
47
102
}
330
47
100
AcDbScale
 70
     0
300
1/4" = 1'-0"
140
0.25
141
12.0
290
     0
  0
SCALE
  5
61
102
{ACAD_REACTORS
330
47
102
}
330
47
100
AcDbScale
 70
     0
300
3/8" = 1'-0"
140
0.375
141
12.0
290
     0
  0
SCALE
  5
62
102
{ACAD_REACTORS
330
47
102
}
330
47
100
AcDbScale
 70
     0
300
1/2" = 1'-0"
140
0.5
141
12.0
290
     0
  0
SCALE
  5
63
102
{ACAD_REACTORS
330
47
102
}
330
47
100
AcDbScale
 70
     0
300
3/4" = 1'-0"
140
0.75
141
12.0
290
     0
  0
SCALE
  5
64
102
{ACAD_REACTORS
330
47
102
}
330
47
100
AcDbScale
 70
     0
300
1" = 1'-0"
140
1.0
141
12.0
290
     0
  0
SCALE
  5
65
102
{ACAD_REACTORS
330
47
102
}
330
47
100
AcDbScale
 70
     0
300
1-1/2" = 1'-0"
140
1.5
141
12.0
290
     0
  0
SCALE
  5
66
102
{ACAD_REACTORS
330
47
102
}
330
47
100
AcDbScale
 70
     0
300
3" = 1'-0"
140
3.0
141
12.0
290
     0
  0
SCALE
  5
67
102
{ACAD_REACTORS
330
47
102
}
330
47
100
AcDbScale
 70
     0
300
6" = 1'-0"
140
6.0
141
12.0
290
     0
  0
SCALE
  5
68
102
{ACAD_REACTORS
330
47
102
}
330
47
100
AcDbScale
 70
     0
300
1'-0" = 1'-0"
140
12.0
141
12.0
290
     0
  0
ACDBSECTIONVIEWSTYLE
  5
344
102
{ACAD_XDICTIONARY
360
3E5
102
}
102
{ACAD_REACTORS
330
340
102
}
330
340
100
AcDbModelDocViewStyle
 70
     0
  3
Metric50
290
     0
100
AcDbSectionViewStyle
 70
     0
 71
     0
 90
      102
 71
     1
340
11
 62
   256
 40
5.0
340
0
340
0
 62
   256
 40
5.0
300
I, O, Q, S, X, Z
 40
10.0
 90
        0
 40
2.5
 90
        0
 71
     2
340
16
 90
       25
 62
   256
340
16
 90
       50
 62
   256
 40
5.0
 40
2.5
 40
5.0
 71
     3
340
11
 62
   256
 40
5.0
 90
        0
 40
15.0
 90
        1
300
%<\AcVar ViewSectionStartId>%-%<\AcVar ViewSectionEndId>% (%<\AcVar ViewScale \f "%sn">%)
 71
     4
 62
   256
 62
   257
300
ANSI31
 40
1.0
 90
        0
290
     0
290
     0
 90
        6
 40
0.0
 40
1.570796326794896
 40
0.2617993877991494
 40
1.308996938995747
 40
-0.2617993877991494
 40
1.832595714594046
  0
TABLESTYLE
  5
6A
102
{ACAD_XDICTIONARY
360
336
102
}
102
{ACAD_REACTORS
330
69
102
}
330
69
100
AcDbTableStyle
  3
Standard
 70
     0
 71
     0
 40
0.06
 41
0.06
280
     0
281
     0
  7
Standard
140
0.18
170
     2
 62
     0
 63
     7
283
     0
274
    -2
284
     1
 64
     0
275
    -2
285
     1
 65
     0
276
    -2
286
     1
 66
     0
277
    -2
287
     1
 67
     0
278
    -2
288
     1
 68
     0
279
    -2
289
     1
 69
     0
  7
Standard
140
0.25
170
     5
 62
     0
 63
     7
283
     0
274
    -2
284
     1
 64
     0
275
    -2
285
     1
 65
     0
276
    -2
286
     1
 66
     0
277
    -2
287
     1
 67
     0
278
    -2
288
     1
 68
     0
279
    -2
289
     1
 69
     0
  7
Standard
140
0.18
170
     5
 62
     0
 63
     7
283
     0
274
    -2
284
     1
 64
     0
275
    -2
285
     1
 65
     0
276
    -2
286
     1
 66
     0
277
    -2
287
     1
 67
     0
278
    -2
288
     1
 68
     0
279
    -2
289
     1
 69
     0
  0
VISUALSTYLE
  5
2F
102
{ACAD_XDICTIONARY
360
3BC
102
}
102
{ACAD_REACTORS
330
2A
102
}
330
2A
100
AcDbVisualStyle
  2

 70
     4
 71
     0
 72
     2
 73
     0
 90
        0
 40
-0.6
 41
-30.0
 62
     5
 63
     7
421
 16777215
 74
     1
 91
        4
 64
     7
 65
   257
 75
     1
175
     1
 42
1.0
 92
        0
 66
   257
 43
1.0
 76
     1
 77
     6
 78
     2
 67
     7
 79
     5
170
     0
171
     0
290
     0
174
     0
 93
        1
 44
0.0
173
     0
291
     0
 45
0.0
1001
ACAD
1000
AcDbSavedByObjectVersion
1070
     0
  0
VISUALSTYLE
  5
32
102
{ACAD_XDICTIONARY
360
3C2
102
}
102
{ACAD_REACTORS
330
2A
102
}
330
2A
100
AcDbVisualStyle
  2

 70
     7
 71
     1
 72
     0
 73
     1
 90
        0
 40
-0.6
 41
-30.0
 62
     5
 63
     7
421
 16777215
 74
     0
 91
        4
 64
     7
 65
   257
 75
     1
175
     1
 42
1.0
 92
        8
 66
     7
 43
1.0
 76
     1
 77
     6
 78
     2
 67
     7
 79
     5
170
     0
171
     0
290
     0
174
     0
 93
        1
 44
0.0
173
     0
291
     1
 45
0.0
1001
ACAD
1000
AcDbSavedByObjectVersion
1070
     0
  0
VISUALSTYLE
  5
36
102
{ACAD_XDICTIONARY
360
3CA
102
}
102
{ACAD_REACTORS
330
2A
102
}
330
2A
100
AcDbVisualStyle
  2

 70
    12
 71
     2
 72
     2
 73
     0
 90
        0
 40
-0.6
 41
-30.0
 62
     5
 63
     7
421
 16777215
 74
     1
 91
        4
 64
     7
 65
   257
 75
     1
175
     1
 42
1.0
 92
        8
 66
     7
 43
1.0
 76
     1
 77
     6
 78
     2
 67
     7
 79
     5
170
     0
171
     0
290
     0
174
     0
 93
        1
 44
50.0
173
     0
291
     1
 45
0.0
1001
ACAD
1000
AcDbSavedByObjectVersion
1070
     0
  0
VISUALSTYLE
  5
3A
102
{ACAD_XDICTIONARY
360
3D2
102
}
102
{ACAD_REACTORS
330
2A
102
}
330
2A
100
AcDbVisualStyle
  2

 70
    16
 71
     2
 72
     2
 73
     3
 90
        0
 40
-0.6
 41
-30.0
 62
     5
 63
     8
421
  8421504
 74
     1
 91
        4
 64
     7
 65
   257
 75
     1
175
     1
 42
1.0
 92
        8
 66
     8
424
  8421504
 43
1.0
 76
     1
 77
     6
 78
     2
 67
     7
 79
     5
170
     0
171
     0
290
     0
174
     0
 93
        1
 44
0.0
173
     0
291
     1
 45
0.0
1001
ACAD
1000
AcDbSavedByObjectVersion
1070
     0
  0
VISUALSTYLE
  5
34
102
{ACAD_XDICTIONARY
360
3C6
102
}
102
{ACAD_REACTORS
330
2A
102
}
330
2A
100
AcDbVisualStyle
  2

 70
     9
 71
     3
 72
     2
 73
     0
 90
        0
 40
-0.6
 41
-30.0
 62
     5
 63
     7
421
 16777215
 74
     2
 91
        2
 64
     7
 65
   257
 75
     1
175
     1
 42
179.0
 92
        8
 66
     7
 43
1.0
 76
     1
 77
     6
 78
     2
 67
     7
 79
     3
170
     0
171
     0
290
     0
174
     0
 93
        1
 44
0.0
173
     0
291
     0
 45
0.0
1001
ACAD
1000
AcDbSavedByObjectVersion
1070
     0
  0
VISUALSTYLE
  5
35
102
{ACAD_XDICTIONARY
360
3C8
102
}
102
{ACAD_REACTORS
330
2A
102
}
330
2A
100
AcDbVisualStyle
  2

 70
    11
 71
     2
 72
     2
 73
     0
 90
        0
 40
-0.6
 41
-30.0
 62
     5
 63
     7
421
 16777215
 74
     1
 91
        4
 64
     7
 65
   257
 75
     1
175
     1
 42
1.0
 92
        8
 66
     7
 43
1.0
 76
     1
 77
     6
 78
     2
 67
     7
 79
     5
170
     0
171
     0
290
     0
174
     0
 93
        1
 44
-50.0
173
     0
291
     1
 45
0.0
1001
ACAD
1000
AcDbSavedByObjectVersion
1070
     0
  0
VISUALSTYLE
  5
3D
102
{ACAD_XDICTIONARY
360
3D8
102
}
102
{ACAD_REACTORS
330
2A
102
}
330
2A
100
AcDbVisualStyle
  2

 70
    22
 71
     2
 72
     2
 73
     0
 90
        0
 40
-0.6
 41
-30.0
 62
     5
 63
     7
421
 16777215
 74
     1
 91
        4
 64
     7
 65
   257
 75
     1
175
     1
 42
1.0
 92
        8
 66
     7
 43
1.0
 76
     1
 77
     6
 78
     2
 67
     7
 79
     5
170
     0
171
     0
290
     0
174
     0
 93
        1
 44
0.0
173
     0
291
     1
 45
0.0
1001
ACAD
1000
AcDbSavedByObjectVersion
1070
     0
  0
VISUALSTYLE
  5
39
102
{ACAD_XDICTIONARY
360
3D0
102
}
102
{ACAD_REACTORS
330
2A
102
}
330
2A
100
AcDbVisualStyle
  2

 70
    15
 71
     2
 72
     2
 73
     0
 90
        0
 40
-0.6
 41
-30.0
 62
     5
 63
     7
421
 16777215
 74
     1
 91
        4
 64
     7
 65
   257
 75
     1
175
     1
 42
1.0
 92
        8
 66
     7
 43
1.0
 76
     1
 77
     6
 78
     2
 67
     7
 79
     5
170
     0
171
     0
290
     0
174
     0
 93
        1
 44
0.0
173
     0
291
     1
 45
0.0
1001
ACAD
1000
AcDbSavedByObjectVersion
1070
     0
  0
VISUALSTYLE
  5
2B
102
{ACAD_XDICTIONARY
360
3B4
102
}
102
{ACAD_REACTORS
330
2A
102
}
330
2A
100
AcDbVisualStyle
  2

 70
     0
 71
     2
 72
     1
 73
     1
 90
        2
 40
-0.6
 41
30.0
 62
     5
 63
     7
421
 16777215
 74
     0
 91
        0
 64
     7
 65
   257
 75
     1
175
     1
 42
1.0
 92
        8
 66
     7
 43
1.0
 76
     1
 77
     6
 78
     2
 67
     7
 79
     5
170
     0
171
     0
290
     0
174
     0
 93
       13
 44
0.0
173
     0
291
     1
 45
0.0
1001
ACAD
1000
AcDbSavedByObjectVersion
1070
     0
  0
VISUALSTYLE
  5
2C
102
{ACAD_XDICTIONARY
360
3B6
102
}
102
{ACAD_REACTORS
330
2A
102
}
330
2A
100
AcDbVisualStyle
  2

 70
     1
 71
     2
 72
     1
 73
     1
 90
        2
 40
-0.6
 41
30.0
 62
     5
 63
     7
421
 16777215
 74
     1
 91
        0
 64
     7
 65
   257
 75
     1
175
     1
 42
1.0
 92
        0
 66
   257
 43
1.0
 76
     1
 77
     6
 78
     2
 67
     7
 79
     5
170
     0
171
     0
290
     0
174
     0
 93
       13
 44
0.0
173
     0
291
     1
 45
0.0
1001
ACAD
1000
AcDbSavedByObjectVersion
1070
     0
  0
VISUALSTYLE
  5
2D
102
{ACAD_XDICTIONARY
360
3B8
102
}
102
{ACAD_REACTORS
330
2A
102
}
330
2A
100
AcDbVisualStyle
  2

 70
     2
 71
     2
 72
     2
 73
     1
 90
        2
 40
-0.6
 41
30.0
 62
     5
 63
     7
421
 16777215
 74
     0
 91
        0
 64
     7
 65
   257
 75
     1
175
     1
 42
1.0
 92
        0
 66
     7
 43
1.0
 76
     1
 77
     6
 78
     2
 67
     7
 79
     5
170
     0
171
     0
290
     0
174
     0
 93
       13
 44
0.0
173
     0
291
     1
 45
0.0
1001
ACAD
1000
AcDbSavedByObjectVersion
1070
     0
  0
VISUALSTYLE
  5
2E
102
{ACAD_XDICTIONARY
360
3BA
102
}
102
{ACAD_REACTORS
330
2A
102
}
330
2A
100
AcDbVisualStyle
  2

 70
     3
 71
     2
 72
     2
 73
     1
 90
        2
 40
-0.6
 41
30.0
 62
     5
 63
     7
421
 16777215
 74
     1
 91
        0
 64
     7
 65
   257
 75
     1
175
     1
 42
1.0
 92
        0
 66
   257
 43
1.0
 76
     1
 77
     6
 78
     2
 67
     7
 79
     5
170
     0
171
     0
290
     0
174
     0
 93
       13
 44
0.0
173
     0
291
     1
 45
0.0
1001
ACAD
1000
AcDbSavedByObjectVersion
1070
     0
  0
VISUALSTYLE
  5
31
102
{ACAD_XDICTIONARY
360
3C0
102
}
102
{ACAD_REACTORS
330
2A
102
}
330
2A
100
AcDbVisualStyle
  2

 70
     6
 71
     1
 72
     2
 73
     2
 90
        0
 40
-0.6
 41
-30.0
 62
     5
 63
     7
421
 16777215
 74
     2
 91
        2
 64
     7
 65
   257
 75
     2
175
     1
 42
40.0
 92
        0
 66
   257
 43
1.0
 76
     1
 77
     6
 78
     2
 67
     7
 79
     3
170
     0
171
     0
290
     0
174
     0
 93
        1
 44
0.0
173
     0
291
     0
 45
0.0
1001
ACAD
1000
AcDbSavedByObjectVersion
1070
     0
  0
VISUALSTYLE
  5
3B
102
{ACAD_XDICTIONARY
360
3D4
102
}
102
{ACAD_REACTORS
330
2A
102
}
330
2A
100
AcDbVisualStyle
  2

 70
    20
 71
     2
 72
     2
 73
     0
 90
        0
 40
-0.6
 41
-30.0
 62
     5
 63
     7
421
 16777215
 74
     1
 91
        4
 64
     7
 65
   257
 75
     1
175
     1
 42
1.0
 92
       10
 66
     7
 43
1.0
 76
     1
 77
     6
 78
     2
 67
     7
 79
     5
170
     0
171
     0
290
     0
174
     0
 93
        1
 44
0.0
173
     0
291
     1
 45
0.0
1001
ACAD
1000
AcDbSavedByObjectVersion
1070
     0
  0
VISUALSTYLE
  5
38
102
{ACAD_XDICTIONARY
360
3CE
102
}
102
{ACAD_REACTORS
330
2A
102
}
330
2A
100
AcDbVisualStyle
  2

 70
    14
 71
     2
 72
     2
 73
     0
 90
        0
 40
-0.6
 41
-30.0
 62
     5
 63
     7
421
 16777215
 74
     1
 91
        4
 64
     7
 65
   257
 75
     7
175
     7
 42
1.0
 92
        8
 66
     7
 43
1.0
 76
     1
 77
     6
 78
     2
 67
     7
 79
     5
170
     0
171
     0
290
     0
174
     0
 93
        1
 44
0.0
173
     0
291
     1
 45
0.0
1001
ACAD
1000
AcDbSavedByObjectVersion
1070
     0
  0
VISUALSTYLE
  5
3C
102
{ACAD_XDICTIONARY
360
3D6
102
}
102
{ACAD_REACTORS
330
2A
102
}
330
2A
100
AcDbVisualStyle
  2

 70
    21
 71
     2
 72
     2
 73
     0
 90
        0
 40
-0.6
 41
-30.0
 62
     5
 63
     7
421
 16777215
 74
     1
 91
        4
 64
     7
 65
   257
 75
     1
175
     1
 42
1.0
 92
        9
 66
     7
 43
1.0
 76
     1
 77
     6
 78
     2
 67
     7
 79
     5
170
     0
171
     0
290
     0
174
     0
 93
        1
 44
0.0
173
     0
291
     1
 45
0.0
1001
ACAD
1000
AcDbSavedByObjectVersion
1070
     0
  0
VISUALSTYLE
  5
33
102
{ACAD_XDICTIONARY
360
3C4
102
}
102
{ACAD_REACTORS
330
2A
102
}
330
2A
100
AcDbVisualStyle
  2

 70
     8
 71
     2
 72
     3
 73
     0
 90
        2
 40
-0.6
 41
30.0
 62
     5
 63
     7
421
 16777215
 74
     0
 91
        0
 64
     7
 65
   257
 75
     1
175
     1
 42
1.0
 92
        8
 66
   257
 43
1.0
 76
     1
 77
     6
 78
     2
 67
     7
 79
     3
170
     0
171
     0
290
     0
174
     0
 93
       13
 44
0.0
173
     0
291
     0
 45
0.0
1001
ACAD
1000
AcDbSavedByObjectVersion
1070
     0
  0
VISUALSTYLE
  5
42
102
{ACAD_XDICTIONARY
360
3E2
102
}
102
{ACAD_REACTORS
330
2A
102
}
330
2A
100
AcDbVisualStyle
  2

 70
    27
 71
     2
 72
     2
 73
     1
 90
        2
 40
-0.6
 41
30.0
 62
     5
 63
     7
421
 16777215
 74
     0
 91
        4
 64
     7
 65
   257
 75
     1
175
     1
 42
1.0
 92
        8
 66
   257
 43
1.0
 76
     1
 77
     6
 78
     2
 67
     8
425
  7895160
 79
     3
170
     0
171
     0
290
     0
174
     0
 93
        5
 44
0.0
173
     0
291
     0
 45
0.0
1001
ACAD
1000
AcDbSavedByObjectVersion
1070
     0
  0
VISUALSTYLE
  5
41
102
{ACAD_XDICTIONARY
360
3E0
102
}
102
{ACAD_REACTORS
330
2A
102
}
330
2A
100
AcDbVisualStyle
  2

 70
    26
 71
     2
 72
     2
 73
     1
 90
        2
 40
-0.6
 41
30.0
 62
     5
 63
     7
421
 16777215
 74
     1
 91
       10
 64
     7
 65
   257
 75
     2
175
     1
 42
1.0
 92
        8
 66
   257
 43
1.0
 76
     1
 77
     6
 78
     2
 67
     7
 79
     3
170
     0
171
     0
290
     0
174
     0
 93
        5
 44
0.0
173
     0
291
     0
 45
0.0
1001
ACAD
1000
AcDbSavedByObjectVersion
1070
     0
  0
VISUALSTYLE
  5
3E
102
{ACAD_XDICTIONARY
360
3DA
102
}
102
{ACAD_REACTORS
330
2A
102
}
330
2A
100
AcDbVisualStyle
  2

 70
    23
 71
     2
 72
     2
 73
     3
 90
        0
 40
-0.6
 41
-30.0
 62
     5
 63
     7
421
 16777215
 74
     2
 91
        2
 64
     7
 65
     7
 75
     1
175
     1
 42
40.0
 92
        8
 66
     7
 43
1.0
 76
     1
 77
     6
 78
     2
 67
     7
 79
     3
170
     0
171
     0
290
     0
174
     0
 93
        1
 44
0.0
173
     0
291
     0
 45
0.0
1001
ACAD
1000
AcDbSavedByObjectVersion
1070
     0
  0
VISUALSTYLE
  5
3F
102
{ACAD_XDICTIONARY
360
3DC
102
}
102
{ACAD_REACTORS
330
2A
102
}
330
2A
100
AcDbVisualStyle
  2

 70
    24
 71
     1
 72
     2
 73
     2
 90
        0
 40
-0.6
 41
-30.0
 62
     5
 63
     7
421
 16777215
 74
     2
 91
        2
 64
     7
 65
     7
 75
     1
175
     1
 42
40.0
 92
       11
 66
     7
 43
1.0
 76
     1
 77
     6
 78
     2
 67
     7
 79
     6
170
     0
171
     0
290
     0
174
     0
 93
        1
 44
0.0
173
     0
291
     0
 45
0.0
1001
ACAD
1000
AcDbSavedByObjectVersion
1070
     0
  0
VISUALSTYLE
  5
37
102
{ACAD_XDICTIONARY
360
3CC
102
}
102
{ACAD_REACTORS
330
2A
102
}
330
2A
100
AcDbVisualStyle
  2

 70
    13
 71
     2
 72
     2
 73
     0
 90
        0
 40
-0.6
 41
-30.0
 62
     5
 63
     7
421
 16777215
 74
     1
 91
        4
 64
     7
 65
   257
 75
     1
175
     1
 42
1.0
 92
       12
 66
     7
 43
1.0
 76
     1
 77
     6
 78
     2
 67
     7
 79
     5
170
     0
171
     0
290
     0
174
     0
 93
        1
 44
0.0
173
     0
291
     1
 45
0.0
1001
ACAD
1000
AcDbSavedByObjectVersion
1070
     0
  0
VISUALSTYLE
  5
30
102
{ACAD_XDICTIONARY
360
3BE
102
}
102
{ACAD_REACTORS
330
2A
102
}
330
2A
100
AcDbVisualStyle
  2

 70
     5
 71
     0
 72
     2
 73
     0
 90
        0
 40
-0.6
 41
-30.0
 62
     5
 63
     7
421
 16777215
 74
     1
 91
        4
 64
     7
 65
   257
 75
     1
175
     1
 42
1.0
 92
        0
 66
   257
 43
1.0
 76
     1
 77
     6
 78
     2
 67
     7
 79
     3
170
     0
171
     0
290
     0
174
     0
 93
        1
 44
0.0
173
     0
291
     0
 45
0.0
1001
ACAD
1000
AcDbSavedByObjectVersion
1070
     0
  0
VISUALSTYLE
  5
40
102
{ACAD_XDICTIONARY
360
3DE
102
}
102
{ACAD_REACTORS
330
2A
102
}
330
2A
100
AcDbVisualStyle
  2

 70
    25
 71
     2
 72
     2
 73
     1
 90
        1
 40
0.5
 41
-30.0
 62
     5
 63
     7
421
 16777215
 74
     1
 91
        0
 64
     7
 65
   257
 75
     1
175
     1
 42
1.0
 92
        8
 66
     7
 43
1.0
 76
     1
 77
     6
 78
     2
 67
     7
 79
     3
170
     0
171
     0
290
     0
174
     0
 93
       13
 44
0.0
173
     0
291
     0
 45
0.0
1001
ACAD
1000
AcDbSavedByObjectVersion
1070
     0
  0
DICTIONARYVAR
  5
2FD
102
{ACAD_REACTORS
330
2FC
102
}
330
2FC
100
DictionaryVariables
280
     0
  1
1:1
  0
DICTIONARYVAR
  5
33E
102
{ACAD_REACTORS
330
2FC
102
}
330
2FC
100
DictionaryVariables
280
     0
  1
STANDARD
  0
DICTIONARYVAR
  5
33D
102
{ACAD_REACTORS
330
2FC
102
}
330
2FC
100
DictionaryVariables
280
     0
  1
STANDARD
  0
DICTIONARYVAR
  5
3AE
102
{ACAD_REACTORS
330
2FC
102
}
330
2FC
100
DictionaryVariables
280
     0
  1
Metric50
  0
DICTIONARYVAR
  5
3AF
102
{ACAD_REACTORS
330
2FC
102
}
330
2FC
100
DictionaryVariables
280
     0
  1
Metric50
  0
DICTIONARYVAR
  5
2FE
102
{ACAD_REACTORS
330
2FC
102
}
330
2FC
100
DictionaryVariables
280
     0
  1
1
  0
DICTIONARYVAR
  5
3B0
102
{ACAD_REACTORS
330
2FC
102
}
330
2FC
100
DictionaryVariables
280
     0
  1
2
  0
DICTIONARY
  5
3E7
330
345
100
AcDbDictionary
280
     1
281
     1
  3
ACAD_XREC_ROUNDTRIP
360
3E8
  0
DICTIONARY
  5
332
330
45
100
AcDbDictionary
280
     1
281
     1
  3
ACAD_XREC_ROUNDTRIP
360
333
  0
DICTIONARY
  5
330
330
44
100
AcDbDictionary
280
     1
281
     1
  3
ACAD_XREC_ROUNDTRIP
360
331
  0
DICTIONARY
  5
334
330
46
100
AcDbDictionary
280
     1
281
     1
  3
ACAD_XREC_ROUNDTRIP
360
335
  0
DICTIONARY
  5
3E5
330
344
100
AcDbDictionary
280
     1
281
     1
  3
ACAD_XREC_ROUNDTRIP
360
3E6
  0
DICTIONARY
  5
336
330
6A
100
AcDbDictionary
280
     1
281
     1
  3
ACAD_ROUNDTRIP_2008_TABLESTYLE_CELLSTYLEMAP
360
3B2
  3
ACAD_XREC_ROUNDTRIP
360
3E4
  0
DICTIONARY
  5
3BC
330
2F
100
AcDbDictionary
280
     1
281
     1
  3
ACAD_XREC_ROUNDTRIP
360
3BD
  0
DICTIONARY
  5
3C2
330
32
100
AcDbDictionary
280
     1
281
     1
  3
ACAD_XREC_ROUNDTRIP
360
3C3
  0
DICTIONARY
  5
3CA
330
36
100
AcDbDictionary
280
     1
281
     1
  3
ACAD_XREC_ROUNDTRIP
360
3CB
  0
DICTIONARY
  5
3D2
330
3A
100
AcDbDictionary
280
     1
281
     1
  3
ACAD_XREC_ROUNDTRIP
360
3D3
  0
DICTIONARY
  5
3C6
330
34
100
AcDbDictionary
280
     1
281
     1
  3
ACAD_XREC_ROUNDTRIP
360
3C7
  0
DICTIONARY
  5
3C8
330
35
100
AcDbDictionary
280
     1
281
     1
  3
ACAD_XREC_ROUNDTRIP
360
3C9
  0
DICTIONARY
  5
3D8
330
3D
100
AcDbDictionary
280
     1
281
     1
  3
ACAD_XREC_ROUNDTRIP
360
3D9
  0
DICTIONARY
  5
3D0
330
39
100
AcDbDictionary
280
     1
281
     1
  3
ACAD_XREC_ROUNDTRIP
360
3D1
  0
DICTIONARY
  5
3B4
330
2B
100
AcDbDictionary
280
     1
281
     1
  3
ACAD_XREC_ROUNDTRIP
360
3B5
  0
DICTIONARY
  5
3B6
330
2C
100
AcDbDictionary
280
     1
281
     1
  3
ACAD_XREC_ROUNDTRIP
360
3B7
  0
DICTIONARY
  5
3B8
330
2D
100
AcDbDictionary
280
     1
281
     1
  3
ACAD_XREC_ROUNDTRIP
360
3B9
  0
DICTIONARY
  5
3BA
330
2E
100
AcDbDictionary
280
     1
281
     1
  3
ACAD_XREC_ROUNDTRIP
360
3BB
  0
DICTIONARY
  5
3C0
330
31
100
AcDbDictionary
280
     1
281
     1
  3
ACAD_XREC_ROUNDTRIP
360
3C1
  0
DICTIONARY
  5
3D4
330
3B
100
AcDbDictionary
280
     1
281
     1
  3
ACAD_XREC_ROUNDTRIP
360
3D5
  0
DICTIONARY
  5
3CE
330
38
100
AcDbDictionary
280
     1
281
     1
  3
ACAD_XREC_ROUNDTRIP
360
3CF
  0
DICTIONARY
  5
3D6
330
3C
100
AcDbDictionary
280
     1
281
     1
  3
ACAD_XREC_ROUNDTRIP
360
3D7
  0
DICTIONARY
  5
3C4
330
33
100
AcDbDictionary
280
     1
281
     1
  3
ACAD_XREC_ROUNDTRIP
360
3C5
  0
DICTIONARY
  5
3E2
330
42
100
AcDbDictionary
280
     1
281
     1
  3
ACAD_XREC_ROUNDTRIP
360
3E3
  0
DICTIONARY
  5
3E0
330
41
100
AcDbDictionary
280
     1
281
     1
  3
ACAD_XREC_ROUNDTRIP
360
3E1
  0
DICTIONARY
  5
3DA
330
3E
100
AcDbDictionary
280
     1
281
     1
  3
ACAD_XREC_ROUNDTRIP
360
3DB
  0
DICTIONARY
  5
3DC
330
3F
100
AcDbDictionary
280
     1
281
     1
  3
ACAD_XREC_ROUNDTRIP
360
3DD
  0
DICTIONARY
  5
3CC
330
37
100
AcDbDictionary
280
     1
281
     1
  3
ACAD_XREC_ROUNDTRIP
360
3CD
  0
DICTIONARY
  5
3BE
330
30
100
AcDbDictionary
280
     1
281
     1
  3
ACAD_XREC_ROUNDTRIP
360
3BF
  0
DICTIONARY
  5
3DE
330
40
100
AcDbDictionary
280
     1
281
     1
  3
ACAD_XREC_ROUNDTRIP
360
3DF
  0
XRECORD
  5
3E8
102
{ACAD_REACTORS
330
3E7
102
}
330
3E7
100
AcDbXrecord
280
     1
102
DISPLAYNAME
  1
Metric50
102
FLAGS
 90
        0
  0
XRECORD
  5
333
102
{ACAD_REACTORS
330
332
102
}
330
332
100
AcDbXrecord
280
     1
102
MATERIAL
148
0.0
149
0.0
149
0.0
 93
        0
 94
      127
282
     0
 72
     1
 77
     1
171
     1
175
     1
179
     1
273
     0
  0
XRECORD
  5
331
102
{ACAD_REACTORS
330
330
102
}
330
330
100
AcDbXrecord
280
     1
102
MATERIAL
148
0.0
149
0.0
149
0.0
 93
        0
 94
      127
282
     0
 72
     1
 77
     1
171
     1
175
     1
179
     1
273
     0
  0
XRECORD
  5
335
102
{ACAD_REACTORS
330
334
102
}
330
334
100
AcDbXrecord
280
     1
102
MATERIAL
148
0.0
149
0.0
149
0.0
 93
        0
 94
      127
282
     0
 72
     1
 77
     1
171
     1
175
     1
179
     1
273
     0
  0
XRECORD
  5
3E6
102
{ACAD_REACTORS
330
3E5
102
}
330
3E5
100
AcDbXrecord
280
     1
102
DISPLAYNAME
  1
Metric50
102
FLAGS
 90
        0
  0
CELLSTYLEMAP
  5
3B2
102
{ACAD_REACTORS
330
336
102
}
330
336
100
AcDbCellStyleMap
 90
        3
300
CELLSTYLE
  1
TABLEFORMAT_BEGIN
 90
        5
170
     1
 91
        0
 92
    32768
 62
   257
 93
        1
300
CONTENTFORMAT
  1
CONTENTFORMAT_BEGIN
 90
        0
 91
        0
 92
        4
 93
        0
300

 40
0.0
140
1.0
 94
        5
 62
     0
340
11
144
0.25
309
CONTENTFORMAT_END
171
     1
301
MARGIN
  1
CELLMARGIN_BEGIN
 40
0.06
 40
0.06
 40
0.06
 40
0.06
 40
0.18
 40
0.18
309
CELLMARGIN_END
 94
        6
 95
        1
302
GRIDFORMAT
  1
GRIDFORMAT_BEGIN
 90
        0
 91
        1
 62
     0
 92
       -2
340
14
 93
        0
 40
0.045
309
GRIDFORMAT_END
 95
        2
302
GRIDFORMAT
  1
GRIDFORMAT_BEGIN
 90
        0
 91
        1
 62
     0
 92
       -2
340
14
 93
        0
 40
0.045
309
GRIDFORMAT_END
 95
        4
302
GRIDFORMAT
  1
GRIDFORMAT_BEGIN
 90
        0
 91
        1
 62
     0
 92
       -2
340
14
 93
        0
 40
0.045
309
GRIDFORMAT_END
 95
        8
302
GRIDFORMAT
  1
GRIDFORMAT_BEGIN
 90
        0
 91
        1
 62
     0
 92
       -2
340
14
 93
        0
 40
0.045
309
GRIDFORMAT_END
 95
       16
302
GRIDFORMAT
  1
GRIDFORMAT_BEGIN
 90
        0
 91
        1
 62
     0
 92
       -2
340
14
 93
        0
 40
0.045
309
GRIDFORMAT_END
 95
       32
302
GRIDFORMAT
  1
GRIDFORMAT_BEGIN
 90
        0
 91
        1
 62
     0
 92
       -2
340
14
 93
        0
 40
0.045
309
GRIDFORMAT_END
309
TABLEFORMAT_END
  1
CELLSTYLE_BEGIN
 90
        1
 91
        1
300
_TITLE
309
CELLSTYLE_END
300
CELLSTYLE
  1
TABLEFORMAT_BEGIN
 90
        5
170
     1
 91
        0
 92
        0
 62
   257
 93
        1
300
CONTENTFORMAT
  1
CONTENTFORMAT_BEGIN
 90
        0
 91
        0
 92
        4
 93
        0
300

 40
0.0
140
1.0
 94
        5
 62
     0
340
11
144
0.18
309
CONTENTFORMAT_END
171
     1
301
MARGIN
  1
CELLMARGIN_BEGIN
 40
0.06
 40
0.06
 40
0.06
 40
0.06
 40
0.18
 40
0.18
309
CELLMARGIN_END
 94
        6
 95
        1
302
GRIDFORMAT
  1
GRIDFORMAT_BEGIN
 90
        0
 91
        1
 62
     0
 92
       -2
340
14
 93
        0
 40
0.045
309
GRIDFORMAT_END
 95
        2
302
GRIDFORMAT
  1
GRIDFORMAT_BEGIN
 90
        0
 91
        1
 62
     0
 92
       -2
340
14
 93
        0
 40
0.045
309
GRIDFORMAT_END
 95
        4
302
GRIDFORMAT
  1
GRIDFORMAT_BEGIN
 90
        0
 91
        1
 62
     0
 92
       -2
340
14
 93
        0
 40
0.045
309
GRIDFORMAT_END
 95
        8
302
GRIDFORMAT
  1
GRIDFORMAT_BEGIN
 90
        0
 91
        1
 62
     0
 92
       -2
340
14
 93
        0
 40
0.045
309
GRIDFORMAT_END
 95
       16
302
GRIDFORMAT
  1
GRIDFORMAT_BEGIN
 90
        0
 91
        1
 62
     0
 92
       -2
340
14
 93
        0
 40
0.045
309
GRIDFORMAT_END
 95
       32
302
GRIDFORMAT
  1
GRIDFORMAT_BEGIN
 90
        0
 91
        1
 62
     0
 92
       -2
340
14
 93
        0
 40
0.045
309
GRIDFORMAT_END
309
TABLEFORMAT_END
  1
CELLSTYLE_BEGIN
 90
        2
 91
        1
300
_HEADER
309
CELLSTYLE_END
300
CELLSTYLE
  1
TABLEFORMAT_BEGIN
 90
        5
170
     1
 91
        0
 92
        0
 62
   257
 93
        1
300
CONTENTFORMAT
  1
CONTENTFORMAT_BEGIN
 90
        0
 91
        0
 92
        4
 93
        0
300

 40
0.0
140
1.0
 94
        2
 62
     0
340
11
144
0.18
309
CONTENTFORMAT_END
171
     1
301
MARGIN
  1
CELLMARGIN_BEGIN
 40
0.06
 40
0.06
 40
0.06
 40
0.06
 40
0.18
 40
0.18
309
CELLMARGIN_END
 94
        6
 95
        1
302
GRIDFORMAT
  1
GRIDFORMAT_BEGIN
 90
        0
 91
        1
 62
     0
 92
       -2
340
14
 93
        0
 40
0.045
309
GRIDFORMAT_END
 95
        2
302
GRIDFORMAT
  1
GRIDFORMAT_BEGIN
 90
        0
 91
        1
 62
     0
 92
       -2
340
14
 93
        0
 40
0.045
309
GRIDFORMAT_END
 95
        4
302
GRIDFORMAT
  1
GRIDFORMAT_BEGIN
 90
        0
 91
        1
 62
     0
 92
       -2
340
14
 93
        0
 40
0.045
309
GRIDFORMAT_END
 95
        8
302
GRIDFORMAT
  1
GRIDFORMAT_BEGIN
 90
        0
 91
        1
 62
     0
 92
       -2
340
14
 93
        0
 40
0.045
309
GRIDFORMAT_END
 95
       16
302
GRIDFORMAT
  1
GRIDFORMAT_BEGIN
 90
        0
 91
        1
 62
     0
 92
       -2
340
14
 93
        0
 40
0.045
309
GRIDFORMAT_END
 95
       32
302
GRIDFORMAT
  1
GRIDFORMAT_BEGIN
 90
        0
 91
        1
 62
     0
 92
       -2
340
14
 93
        0
 40
0.045
309
GRIDFORMAT_END
309
TABLEFORMAT_END
  1
CELLSTYLE_BEGIN
 90
        3
 91
        2
300
_DATA
309
CELLSTYLE_END
  0
XRECORD
  5
3E4
102
{ACAD_REACTORS
330
336
102
}
330
336
100
AcDbXrecord
280
     1
102
ACAD_ROUNDTRIP_PRE2007_TABLESTYLE
 90
        4
 91
        0
  1

 92
        4
 93
        0
  2

 94
        4
 95
        0
  3

  0
XRECORD
  5
3BD
102
{ACAD_REACTORS
330
3BC
102
}
330
3BC
100
AcDbXrecord
280
     1
102
RTVSPost2010Prop28
280
     1
102
RTVSPost2010PropOp28
 70
     1
102
RTVSPost2010Prop29
280
     1
102
RTVSPost2010PropOp29
 70
     1
102
RTVSPost2010Prop30
280
     0
102
RTVSPost2010PropOp30
 70
     1
102
RTVSPost2010Prop31
280
     0
102
RTVSPost2010PropOp31
 70
     1
102
RTVSPost2010Prop32
280
     0
102
RTVSPost2010PropOp32
 70
     1
102
RTVSPost2010Prop33
280
     0
102
RTVSPost2010PropOp33
 70
     1
102
RTVSPost2010Prop34
280
     0
102
RTVSPost2010PropOp34
 70
     1
102
RTVSPost2010Prop35
280
     0
102
RTVSPost2010PropOp35
 70
     1
102
RTVSPost2010Prop36
280
     0
102
RTVSPost2010PropOp36
 70
     1
102
RTVSPost2010Prop37
 90
       50
102
RTVSPost2010PropOp37
 70
     1
102
RTVSPost2010Prop38
140
0.0
102
RTVSPost2010PropOp38
 70
     1
102
RTVSPost2010Prop39
140
1.0
102
RTVSPost2010PropOp39
 70
     1
102
RTVSPost2010Prop40
 90
        0
102
RTVSPost2010PropOp40
 70
     1
102
RTVSPost2010Prop41ColorIndex
 90
       18
102
RTVSPost2010Prop41ColorRGB
 90
        0
102
RTVSPost2010PropOp41
 70
     1
102
RTVSPost2010Prop42
 90
       50
102
RTVSPost2010PropOp42
 70
     1
102
RTVSPost2010Prop43
 90
        3
102
RTVSPost2010PropOp43
 70
     1
102
RTVSPost2010Prop44ColorIndex
 90
        5
102
RTVSPost2010Prop44ColorRGB
 90
      255
102
RTVSPost2010PropOp44
 70
     1
102
RTVSPost2010Prop45
280
     0
102
RTVSPost2010PropOp45
 70
     1
102
RTVSPost2010Prop46
 90
       50
102
RTVSPost2010PropOp46
 70
     1
102
RTVSPost2010Prop47
 90
       50
102
RTVSPost2010PropOp47
 70
     1
102
RTVSPost2010Prop48
 90
       50
102
RTVSPost2010PropOp48
 70
     1
102
RTVSPost2010Prop49
280
     0
102
RTVSPost2010PropOp49
 70
     1
102
RTVSPost2010Prop50
 90
       50
102
RTVSPost2010PropOp50
 70
     1
102
RTVSPost2010Prop51ColorIndex
 90
      256
102
RTVSPost2010Prop51ColorRGB
 90
-16777216
102
RTVSPost2010PropOp51
 70
     0
102
RTVSPost2010Prop52
140
1.0
102
RTVSPost2010PropOp52
 70
     0
102
RTVSPost2010Prop53
 90
        2
102
RTVSPost2010PropOp53
 70
     1
102
RTVSPost2010Prop54
  1
strokes_ogs.tif
102
RTVSPost2010PropOp54
 70
     1
102
RTVSPost2010Prop55
280
     0
102
RTVSPost2010PropOp55
 70
     1
102
RTVSPost2010Prop56
140
1.0
102
RTVSPost2010PropOp56
 70
     1
102
RTVSPost2010Prop57
140
1.0
102
RTVSPost2010PropOp57
 70
     1
102
RTVSPropertyOp0
 70
     1
102
RTVSPropertyOp1
 70
     1
102
RTVSPropertyOp2
 70
     1
102
RTVSPropertyOp3
 70
     1
102
RTVSPropertyOp4
 70
     1
102
RTVSPropertyOp5
 70
     1
102
RTVSPropertyOp6
 70
     1
102
RTVSPropertyOp7
 70
     1
102
RTVSPropertyOp8
 70
     1
102
RTVSPropertyOp9
 70
     1
102
RTVSPropertyOp10
 70
     1
102
RTVSPropertyOp11
 70
     1
102
RTVSPropertyOp12
 70
     1
102
RTVSPropertyOp13
 70
     1
102
RTVSPropertyOp14
 70
     1
102
RTVSPropertyOp15
 70
     1
102
RTVSPropertyOp16
 70
     1
102
RTVSPropertyOp17
 70
     1
102
RTVSPropertyOp18
 70
     1
102
RTVSPropertyOp19
 70
     1
102
RTVSPropertyOp20
 70
     1
102
RTVSPropertyOp21
 70
     1
102
RTVSPropertyOp22
 70
     1
102
RTVSPropertyOp23
 70
     1
102
RTVSPropertyOp24
 70
     1
102
RTVSPropertyOp25
 70
     1
102
RTVSPropertyOp26
 70
     1
102
RTVSPropertyOp27
 70
     1
102
RTVSPropertyOp28
 70
     1
102
RTVSPropertyOp29
 70
     1
102
RTVSPropertyOp30
 70
     1
102
RTVSPropertyOp31
 70
     1
102
RTVSPropertyOp32
 70
     1
102
RTVSPropertyOp33
 70
     1
102
RTVSPropertyOp34
 70
     1
102
RTVSPropertyOp35
 70
     1
102
RTVSPropertyOp36
 70
     1
102
RTVSPropertyOp37
 70
     1
102
RTVSPropertyOp38
 70
     1
102
RTVSPropertyOp39
 70
     1
102
RTVSPropertyOp40
 70
     1
102
RTVSPropertyOp41
 70
     1
102
RTVSPropertyOp42
 70
     1
102
RTVSPropertyOp43
 70
     1
102
RTVSPropertyOp44
 70
     1
102
RTVSPropertyOp45
 70
     1
102
RTVSPropertyOp46
 70
     1
102
RTVSPropertyOp47
 70
     1
102
RTVSPropertyOp48
 70
     1
102
RTVSPropertyOp49
 70
     1
102
RTVSPropertyOp50
 70
     1
102
RTVSPropertyOp51
 70
     0
102
RTVSPropertyOp52
 70
     0
102
RTVSPropertyOp53
 70
     1
102
RTVSPropertyOp54
 70
     1
102
RTVSPropertyOp55
 70
     1
102
RTVSPropertyOp56
 70
     1
102
RTVSPropertyOp57
 70
     1
102
RTVSPropertyOp58
 70
     1
102
RTVSPropertyOp59
 70
     1
102
RTVSPropertyOp60
 70
     1
102
RTVSPropertyOp61
 70
     1
102
RTVSPropertyOp62
 70
     1
  0
XRECORD
  5
3C3
102
{ACAD_REACTORS
330
3C2
102
}
330
3C2
100
AcDbXrecord
280
     1
102
RTVSPost2010Prop28
280
     0
102
RTVSPost2010PropOp28
 70
     1
102
RTVSPost2010Prop29
280
     1
102
RTVSPost2010PropOp29
 70
     1
102
RTVSPost2010Prop30
280
     1
102
RTVSPost2010PropOp30
 70
     1
102
RTVSPost2010Prop31
280
     0
102
RTVSPost2010PropOp31
 70
     1
102
RTVSPost2010Prop32
280
     0
102
RTVSPost2010PropOp32
 70
     1
102
RTVSPost2010Prop33
280
     0
102
RTVSPost2010PropOp33
 70
     1
102
RTVSPost2010Prop34
280
     0
102
RTVSPost2010PropOp34
 70
     1
102
RTVSPost2010Prop35
280
     0
102
RTVSPost2010PropOp35
 70
     1
102
RTVSPost2010Prop36
280
     0
102
RTVSPost2010PropOp36
 70
     1
102
RTVSPost2010Prop37
 90
       50
102
RTVSPost2010PropOp37
 70
     1
102
RTVSPost2010Prop38
140
0.0
102
RTVSPost2010PropOp38
 70
     1
102
RTVSPost2010Prop39
140
1.0
102
RTVSPost2010PropOp39
 70
     1
102
RTVSPost2010Prop40
 90
        0
102
RTVSPost2010PropOp40
 70
     1
102
RTVSPost2010Prop41ColorIndex
 90
       18
102
RTVSPost2010Prop41ColorRGB
 90
        0
102
RTVSPost2010PropOp41
 70
     1
102
RTVSPost2010Prop42
 90
       50
102
RTVSPost2010PropOp42
 70
     1
102
RTVSPost2010Prop43
 90
        3
102
RTVSPost2010PropOp43
 70
     1
102
RTVSPost2010Prop44ColorIndex
 90
        5
102
RTVSPost2010Prop44ColorRGB
 90
      255
102
RTVSPost2010PropOp44
 70
     1
102
RTVSPost2010Prop45
280
     0
102
RTVSPost2010PropOp45
 70
     1
102
RTVSPost2010Prop46
 90
       50
102
RTVSPost2010PropOp46
 70
     1
102
RTVSPost2010Prop47
 90
       50
102
RTVSPost2010PropOp47
 70
     1
102
RTVSPost2010Prop48
 90
       50
102
RTVSPost2010PropOp48
 70
     1
102
RTVSPost2010Prop49
280
     0
102
RTVSPost2010PropOp49
 70
     1
102
RTVSPost2010Prop50
 90
       50
102
RTVSPost2010PropOp50
 70
     1
102
RTVSPost2010Prop51ColorIndex
 90
      256
102
RTVSPost2010Prop51ColorRGB
 90
-16777216
102
RTVSPost2010PropOp51
 70
     0
102
RTVSPost2010Prop52
140
1.0
102
RTVSPost2010PropOp52
 70
     0
102
RTVSPost2010Prop53
 90
        2
102
RTVSPost2010PropOp53
 70
     1
102
RTVSPost2010Prop54
  1
strokes_ogs.tif
102
RTVSPost2010PropOp54
 70
     1
102
RTVSPost2010Prop55
280
     0
102
RTVSPost2010PropOp55
 70
     1
102
RTVSPost2010Prop56
140
1.0
102
RTVSPost2010PropOp56
 70
     1
102
RTVSPost2010Prop57
140
1.0
102
RTVSPost2010PropOp57
 70
     1
102
RTVSPropertyOp0
 70
     1
102
RTVSPropertyOp1
 70
     1
102
RTVSPropertyOp2
 70
     1
102
RTVSPropertyOp3
 70
     1
102
RTVSPropertyOp4
 70
     1
102
RTVSPropertyOp5
 70
     1
102
RTVSPropertyOp6
 70
     1
102
RTVSPropertyOp7
 70
     1
102
RTVSPropertyOp8
 70
     1
102
RTVSPropertyOp9
 70
     1
102
RTVSPropertyOp10
 70
     1
102
RTVSPropertyOp11
 70
     1
102
RTVSPropertyOp12
 70
     1
102
RTVSPropertyOp13
 70
     1
102
RTVSPropertyOp14
 70
     1
102
RTVSPropertyOp15
 70
     1
102
RTVSPropertyOp16
 70
     1
102
RTVSPropertyOp17
 70
     1
102
RTVSPropertyOp18
 70
     1
102
RTVSPropertyOp19
 70
     1
102
RTVSPropertyOp20
 70
     1
102
RTVSPropertyOp21
 70
     1
102
RTVSPropertyOp22
 70
     1
102
RTVSPropertyOp23
 70
     1
102
RTVSPropertyOp24
 70
     1
102
RTVSPropertyOp25
 70
     1
102
RTVSPropertyOp26
 70
     1
102
RTVSPropertyOp27
 70
     1
102
RTVSPropertyOp28
 70
     1
102
RTVSPropertyOp29
 70
     1
102
RTVSPropertyOp30
 70
     1
102
RTVSPropertyOp31
 70
     1
102
RTVSPropertyOp32
 70
     1
102
RTVSPropertyOp33
 70
     1
102
RTVSPropertyOp34
 70
     1
102
RTVSPropertyOp35
 70
     1
102
RTVSPropertyOp36
 70
     1
102
RTVSPropertyOp37
 70
     1
102
RTVSPropertyOp38
 70
     1
102
RTVSPropertyOp39
 70
     1
102
RTVSPropertyOp40
 70
     1
102
RTVSPropertyOp41
 70
     1
102
RTVSPropertyOp42
 70
     1
102
RTVSPropertyOp43
 70
     1
102
RTVSPropertyOp44
 70
     1
102
RTVSPropertyOp45
 70
     1
102
RTVSPropertyOp46
 70
     1
102
RTVSPropertyOp47
 70
     1
102
RTVSPropertyOp48
 70
     1
102
RTVSPropertyOp49
 70
     1
102
RTVSPropertyOp50
 70
     1
102
RTVSPropertyOp51
 70
     0
102
RTVSPropertyOp52
 70
     0
102
RTVSPropertyOp53
 70
     1
102
RTVSPropertyOp54
 70
     1
102
RTVSPropertyOp55
 70
     1
102
RTVSPropertyOp56
 70
     1
102
RTVSPropertyOp57
 70
     1
102
RTVSPropertyOp58
 70
     1
102
RTVSPropertyOp59
 70
     1
102
RTVSPropertyOp60
 70
     1
102
RTVSPropertyOp61
 70
     1
102
RTVSPropertyOp62
 70
     1
  0
XRECORD
  5
3CB
102
{ACAD_REACTORS
330
3CA
102
}
330
3CA
100
AcDbXrecord
280
     1
102
RTVSPost2010Prop28
280
     0
102
RTVSPost2010PropOp28
 70
     1
102
RTVSPost2010Prop29
280
     1
102
RTVSPost2010PropOp29
 70
     1
102
RTVSPost2010Prop30
280
     1
102
RTVSPost2010PropOp30
 70
     1
102
RTVSPost2010Prop31
280
     0
102
RTVSPost2010PropOp31
 70
     1
102
RTVSPost2010Prop32
280
     0
102
RTVSPost2010PropOp32
 70
     1
102
RTVSPost2010Prop33
280
     0
102
RTVSPost2010PropOp33
 70
     1
102
RTVSPost2010Prop34
280
     0
102
RTVSPost2010PropOp34
 70
     1
102
RTVSPost2010Prop35
280
     0
102
RTVSPost2010PropOp35
 70
     1
102
RTVSPost2010Prop36
280
     0
102
RTVSPost2010PropOp36
 70
     1
102
RTVSPost2010Prop37
 90
       50
102
RTVSPost2010PropOp37
 70
     1
102
RTVSPost2010Prop38
140
0.0
102
RTVSPost2010PropOp38
 70
     1
102
RTVSPost2010Prop39
140
1.0
102
RTVSPost2010PropOp39
 70
     1
102
RTVSPost2010Prop40
 90
        0
102
RTVSPost2010PropOp40
 70
     1
102
RTVSPost2010Prop41ColorIndex
 90
       18
102
RTVSPost2010Prop41ColorRGB
 90
        0
102
RTVSPost2010PropOp41
 70
     1
102
RTVSPost2010Prop42
 90
       50
102
RTVSPost2010PropOp42
 70
     1
102
RTVSPost2010Prop43
 90
        3
102
RTVSPost2010PropOp43
 70
     1
102
RTVSPost2010Prop44ColorIndex
 90
        5
102
RTVSPost2010Prop44ColorRGB
 90
      255
102
RTVSPost2010PropOp44
 70
     1
102
RTVSPost2010Prop45
280
     0
102
RTVSPost2010PropOp45
 70
     1
102
RTVSPost2010Prop46
 90
       50
102
RTVSPost2010PropOp46
 70
     1
102
RTVSPost2010Prop47
 90
       50
102
RTVSPost2010PropOp47
 70
     1
102
RTVSPost2010Prop48
 90
       50
102
RTVSPost2010PropOp48
 70
     1
102
RTVSPost2010Prop49
280
     0
102
RTVSPost2010PropOp49
 70
     1
102
RTVSPost2010Prop50
 90
       50
102
RTVSPost2010PropOp50
 70
     1
102
RTVSPost2010Prop51ColorIndex
 90
      256
102
RTVSPost2010Prop51ColorRGB
 90
-16777216
102
RTVSPost2010PropOp51
 70
     0
102
RTVSPost2010Prop52
140
1.0
102
RTVSPost2010PropOp52
 70
     0
102
RTVSPost2010Prop53
 90
        2
102
RTVSPost2010PropOp53
 70
     1
102
RTVSPost2010Prop54
  1
strokes_ogs.tif
102
RTVSPost2010PropOp54
 70
     1
102
RTVSPost2010Prop55
280
     0
102
RTVSPost2010PropOp55
 70
     1
102
RTVSPost2010Prop56
140
1.0
102
RTVSPost2010PropOp56
 70
     1
102
RTVSPost2010Prop57
140
1.0
102
RTVSPost2010PropOp57
 70
     1
102
RTVSPropertyOp0
 70
     1
102
RTVSPropertyOp1
 70
     1
102
RTVSPropertyOp2
 70
     1
102
RTVSPropertyOp3
 70
     1
102
RTVSPropertyOp4
 70
     1
102
RTVSPropertyOp5
 70
     1
102
RTVSPropertyOp6
 70
     1
102
RTVSPropertyOp7
 70
     1
102
RTVSPropertyOp8
 70
     1
102
RTVSPropertyOp9
 70
     1
102
RTVSPropertyOp10
 70
     1
102
RTVSPropertyOp11
 70
     1
102
RTVSPropertyOp12
 70
     1
102
RTVSPropertyOp13
 70
     1
102
RTVSPropertyOp14
 70
     1
102
RTVSPropertyOp15
 70
     1
102
RTVSPropertyOp16
 70
     1
102
RTVSPropertyOp17
 70
     1
102
RTVSPropertyOp18
 70
     1
102
RTVSPropertyOp19
 70
     1
102
RTVSPropertyOp20
 70
     1
102
RTVSPropertyOp21
 70
     1
102
RTVSPropertyOp22
 70
     1
102
RTVSPropertyOp23
 70
     1
102
RTVSPropertyOp24
 70
     1
102
RTVSPropertyOp25
 70
     1
102
RTVSPropertyOp26
 70
     1
102
RTVSPropertyOp27
 70
     1
102
RTVSPropertyOp28
 70
     1
102
RTVSPropertyOp29
 70
     1
102
RTVSPropertyOp30
 70
     1
102
RTVSPropertyOp31
 70
     1
102
RTVSPropertyOp32
 70
     1
102
RTVSPropertyOp33
 70
     1
102
RTVSPropertyOp34
 70
     1
102
RTVSPropertyOp35
 70
     1
102
RTVSPropertyOp36
 70
     1
102
RTVSPropertyOp37
 70
     1
102
RTVSPropertyOp38
 70
     1
102
RTVSPropertyOp39
 70
     1
102
RTVSPropertyOp40
 70
     1
102
RTVSPropertyOp41
 70
     1
102
RTVSPropertyOp42
 70
     1
102
RTVSPropertyOp43
 70
     1
102
RTVSPropertyOp44
 70
     1
102
RTVSPropertyOp45
 70
     1
102
RTVSPropertyOp46
 70
     1
102
RTVSPropertyOp47
 70
     1
102
RTVSPropertyOp48
 70
     1
102
RTVSPropertyOp49
 70
     1
102
RTVSPropertyOp50
 70
     1
102
RTVSPropertyOp51
 70
     0
102
RTVSPropertyOp52
 70
     0
102
RTVSPropertyOp53
 70
     1
102
RTVSPropertyOp54
 70
     1
102
RTVSPropertyOp55
 70
     1
102
RTVSPropertyOp56
 70
     1
102
RTVSPropertyOp57
 70
     1
102
RTVSPropertyOp58
 70
     1
102
RTVSPropertyOp59
 70
     1
102
RTVSPropertyOp60
 70
     1
102
RTVSPropertyOp61
 70
     1
102
RTVSPropertyOp62
 70
     1
  0
XRECORD
  5
3D3
102
{ACAD_REACTORS
330
3D2
102
}
330
3D2
100
AcDbXrecord
280
     1
102
RTVSPost2010Prop28
280
     0
102
RTVSPost2010PropOp28
 70
     1
102
RTVSPost2010Prop29
280
     1
102
RTVSPost2010PropOp29
 70
     1
102
RTVSPost2010Prop30
280
     1
102
RTVSPost2010PropOp30
 70
     1
102
RTVSPost2010Prop31
280
     0
102
RTVSPost2010PropOp31
 70
     1
102
RTVSPost2010Prop32
280
     0
102
RTVSPost2010PropOp32
 70
     1
102
RTVSPost2010Prop33
280
     0
102
RTVSPost2010PropOp33
 70
     1
102
RTVSPost2010Prop34
280
     0
102
RTVSPost2010PropOp34
 70
     1
102
RTVSPost2010Prop35
280
     0
102
RTVSPost2010PropOp35
 70
     1
102
RTVSPost2010Prop36
280
     0
102
RTVSPost2010PropOp36
 70
     1
102
RTVSPost2010Prop37
 90
       50
102
RTVSPost2010PropOp37
 70
     1
102
RTVSPost2010Prop38
140
0.0
102
RTVSPost2010PropOp38
 70
     1
102
RTVSPost2010Prop39
140
1.0
102
RTVSPost2010PropOp39
 70
     1
102
RTVSPost2010Prop40
 90
        0
102
RTVSPost2010PropOp40
 70
     1
102
RTVSPost2010Prop41ColorIndex
 90
       18
102
RTVSPost2010Prop41ColorRGB
 90
        0
102
RTVSPost2010PropOp41
 70
     1
102
RTVSPost2010Prop42
 90
       50
102
RTVSPost2010PropOp42
 70
     1
102
RTVSPost2010Prop43
 90
        3
102
RTVSPost2010PropOp43
 70
     1
102
RTVSPost2010Prop44ColorIndex
 90
        5
102
RTVSPost2010Prop44ColorRGB
 90
      255
102
RTVSPost2010PropOp44
 70
     1
102
RTVSPost2010Prop45
280
     0
102
RTVSPost2010PropOp45
 70
     1
102
RTVSPost2010Prop46
 90
       50
102
RTVSPost2010PropOp46
 70
     1
102
RTVSPost2010Prop47
 90
       50
102
RTVSPost2010PropOp47
 70
     1
102
RTVSPost2010Prop48
 90
       50
102
RTVSPost2010PropOp48
 70
     1
102
RTVSPost2010Prop49
280
     0
102
RTVSPost2010PropOp49
 70
     1
102
RTVSPost2010Prop50
 90
       50
102
RTVSPost2010PropOp50
 70
     1
102
RTVSPost2010Prop51ColorIndex
 90
      256
102
RTVSPost2010Prop51ColorRGB
 90
-16777216
102
RTVSPost2010PropOp51
 70
     0
102
RTVSPost2010Prop52
140
1.0
102
RTVSPost2010PropOp52
 70
     0
102
RTVSPost2010Prop53
 90
        2
102
RTVSPost2010PropOp53
 70
     1
102
RTVSPost2010Prop54
  1
strokes_ogs.tif
102
RTVSPost2010PropOp54
 70
     1
102
RTVSPost2010Prop55
280
     0
102
RTVSPost2010PropOp55
 70
     1
102
RTVSPost2010Prop56
140
1.0
102
RTVSPost2010PropOp56
 70
     1
102
RTVSPost2010Prop57
140
1.0
102
RTVSPost2010PropOp57
 70
     1
102
RTVSPropertyOp0
 70
     1
102
RTVSPropertyOp1
 70
     1
102
RTVSPropertyOp2
 70
     1
102
RTVSPropertyOp3
 70
     1
102
RTVSPropertyOp4
 70
     1
102
RTVSPropertyOp5
 70
     1
102
RTVSPropertyOp6
 70
     1
102
RTVSPropertyOp7
 70
     1
102
RTVSPropertyOp8
 70
     1
102
RTVSPropertyOp9
 70
     1
102
RTVSPropertyOp10
 70
     1
102
RTVSPropertyOp11
 70
     1
102
RTVSPropertyOp12
 70
     1
102
RTVSPropertyOp13
 70
     1
102
RTVSPropertyOp14
 70
     1
102
RTVSPropertyOp15
 70
     1
102
RTVSPropertyOp16
 70
     1
102
RTVSPropertyOp17
 70
     1
102
RTVSPropertyOp18
 70
     1
102
RTVSPropertyOp19
 70
     1
102
RTVSPropertyOp20
 70
     1
102
RTVSPropertyOp21
 70
     1
102
RTVSPropertyOp22
 70
     1
102
RTVSPropertyOp23
 70
     1
102
RTVSPropertyOp24
 70
     1
102
RTVSPropertyOp25
 70
     1
102
RTVSPropertyOp26
 70
     1
102
RTVSPropertyOp27
 70
     1
102
RTVSPropertyOp28
 70
     1
102
RTVSPropertyOp29
 70
     1
102
RTVSPropertyOp30
 70
     1
102
RTVSPropertyOp31
 70
     1
102
RTVSPropertyOp32
 70
     1
102
RTVSPropertyOp33
 70
     1
102
RTVSPropertyOp34
 70
     1
102
RTVSPropertyOp35
 70
     1
102
RTVSPropertyOp36
 70
     1
102
RTVSPropertyOp37
 70
     1
102
RTVSPropertyOp38
 70
     1
102
RTVSPropertyOp39
 70
     1
102
RTVSPropertyOp40
 70
     1
102
RTVSPropertyOp41
 70
     1
102
RTVSPropertyOp42
 70
     1
102
RTVSPropertyOp43
 70
     1
102
RTVSPropertyOp44
 70
     1
102
RTVSPropertyOp45
 70
     1
102
RTVSPropertyOp46
 70
     1
102
RTVSPropertyOp47
 70
     1
102
RTVSPropertyOp48
 70
     1
102
RTVSPropertyOp49
 70
     1
102
RTVSPropertyOp50
 70
     1
102
RTVSPropertyOp51
 70
     0
102
RTVSPropertyOp52
 70
     0
102
RTVSPropertyOp53
 70
     1
102
RTVSPropertyOp54
 70
     1
102
RTVSPropertyOp55
 70
     1
102
RTVSPropertyOp56
 70
     1
102
RTVSPropertyOp57
 70
     1
102
RTVSPropertyOp58
 70
     1
102
RTVSPropertyOp59
 70
     1
102
RTVSPropertyOp60
 70
     1
102
RTVSPropertyOp61
 70
     1
102
RTVSPropertyOp62
 70
     1
  0
XRECORD
  5
3C7
102
{ACAD_REACTORS
330
3C6
102
}
330
3C6
100
AcDbXrecord
280
     1
102
RTVSPost2010Prop28
280
     0
102
RTVSPost2010PropOp28
 70
     1
102
RTVSPost2010Prop29
280
     1
102
RTVSPost2010PropOp29
 70
     1
102
RTVSPost2010Prop30
280
     1
102
RTVSPost2010PropOp30
 70
     1
102
RTVSPost2010Prop31
280
     0
102
RTVSPost2010PropOp31
 70
     1
102
RTVSPost2010Prop32
280
     0
102
RTVSPost2010PropOp32
 70
     1
102
RTVSPost2010Prop33
280
     0
102
RTVSPost2010PropOp33
 70
     1
102
RTVSPost2010Prop34
280
     0
102
RTVSPost2010PropOp34
 70
     1
102
RTVSPost2010Prop35
280
     0
102
RTVSPost2010PropOp35
 70
     1
102
RTVSPost2010Prop36
280
     0
102
RTVSPost2010PropOp36
 70
     1
102
RTVSPost2010Prop37
 90
       50
102
RTVSPost2010PropOp37
 70
     1
102
RTVSPost2010Prop38
140
0.0
102
RTVSPost2010PropOp38
 70
     1
102
RTVSPost2010Prop39
140
1.0
102
RTVSPost2010PropOp39
 70
     1
102
RTVSPost2010Prop40
 90
        0
102
RTVSPost2010PropOp40
 70
     1
102
RTVSPost2010Prop41ColorIndex
 90
       18
102
RTVSPost2010Prop41ColorRGB
 90
        0
102
RTVSPost2010PropOp41
 70
     1
102
RTVSPost2010Prop42
 90
       50
102
RTVSPost2010PropOp42
 70
     1
102
RTVSPost2010Prop43
 90
        3
102
RTVSPost2010PropOp43
 70
     1
102
RTVSPost2010Prop44ColorIndex
 90
        5
102
RTVSPost2010Prop44ColorRGB
 90
      255
102
RTVSPost2010PropOp44
 70
     1
102
RTVSPost2010Prop45
280
     0
102
RTVSPost2010PropOp45
 70
     1
102
RTVSPost2010Prop46
 90
       50
102
RTVSPost2010PropOp46
 70
     1
102
RTVSPost2010Prop47
 90
       50
102
RTVSPost2010PropOp47
 70
     1
102
RTVSPost2010Prop48
 90
       50
102
RTVSPost2010PropOp48
 70
     1
102
RTVSPost2010Prop49
280
     0
102
RTVSPost2010PropOp49
 70
     1
102
RTVSPost2010Prop50
 90
       50
102
RTVSPost2010PropOp50
 70
     1
102
RTVSPost2010Prop51ColorIndex
 90
      256
102
RTVSPost2010Prop51ColorRGB
 90
-16777216
102
RTVSPost2010PropOp51
 70
     0
102
RTVSPost2010Prop52
140
1.0
102
RTVSPost2010PropOp52
 70
     0
102
RTVSPost2010Prop53
 90
        2
102
RTVSPost2010PropOp53
 70
     1
102
RTVSPost2010Prop54
  1
strokes_ogs.tif
102
RTVSPost2010PropOp54
 70
     1
102
RTVSPost2010Prop55
280
     0
102
RTVSPost2010PropOp55
 70
     1
102
RTVSPost2010Prop56
140
1.0
102
RTVSPost2010PropOp56
 70
     1
102
RTVSPost2010Prop57
140
1.0
102
RTVSPost2010PropOp57
 70
     1
102
RTVSPropertyOp0
 70
     1
102
RTVSPropertyOp1
 70
     1
102
RTVSPropertyOp2
 70
     1
102
RTVSPropertyOp3
 70
     1
102
RTVSPropertyOp4
 70
     1
102
RTVSPropertyOp5
 70
     1
102
RTVSPropertyOp6
 70
     1
102
RTVSPropertyOp7
 70
     1
102
RTVSPropertyOp8
 70
     1
102
RTVSPropertyOp9
 70
     1
102
RTVSPropertyOp10
 70
     1
102
RTVSPropertyOp11
 70
     1
102
RTVSPropertyOp12
 70
     1
102
RTVSPropertyOp13
 70
     1
102
RTVSPropertyOp14
 70
     1
102
RTVSPropertyOp15
 70
     1
102
RTVSPropertyOp16
 70
     1
102
RTVSPropertyOp17
 70
     1
102
RTVSPropertyOp18
 70
     1
102
RTVSPropertyOp19
 70
     1
102
RTVSPropertyOp20
 70
     1
102
RTVSPropertyOp21
 70
     1
102
RTVSPropertyOp22
 70
     1
102
RTVSPropertyOp23
 70
     1
102
RTVSPropertyOp24
 70
     1
102
RTVSPropertyOp25
 70
     1
102
RTVSPropertyOp26
 70
     1
102
RTVSPropertyOp27
 70
     1
102
RTVSPropertyOp28
 70
     1
102
RTVSPropertyOp29
 70
     1
102
RTVSPropertyOp30
 70
     1
102
RTVSPropertyOp31
 70
     1
102
RTVSPropertyOp32
 70
     1
102
RTVSPropertyOp33
 70
     1
102
RTVSPropertyOp34
 70
     1
102
RTVSPropertyOp35
 70
     1
102
RTVSPropertyOp36
 70
     1
102
RTVSPropertyOp37
 70
     1
102
RTVSPropertyOp38
 70
     1
102
RTVSPropertyOp39
 70
     1
102
RTVSPropertyOp40
 70
     1
102
RTVSPropertyOp41
 70
     1
102
RTVSPropertyOp42
 70
     1
102
RTVSPropertyOp43
 70
     1
102
RTVSPropertyOp44
 70
     1
102
RTVSPropertyOp45
 70
     1
102
RTVSPropertyOp46
 70
     1
102
RTVSPropertyOp47
 70
     1
102
RTVSPropertyOp48
 70
     1
102
RTVSPropertyOp49
 70
     1
102
RTVSPropertyOp50
 70
     1
102
RTVSPropertyOp51
 70
     0
102
RTVSPropertyOp52
 70
     0
102
RTVSPropertyOp53
 70
     1
102
RTVSPropertyOp54
 70
     1
102
RTVSPropertyOp55
 70
     1
102
RTVSPropertyOp56
 70
     1
102
RTVSPropertyOp57
 70
     1
102
RTVSPropertyOp58
 70
     1
102
RTVSPropertyOp59
 70
     1
102
RTVSPropertyOp60
 70
     1
102
RTVSPropertyOp61
 70
     1
102
RTVSPropertyOp62
 70
     1
  0
XRECORD
  5
3C9
102
{ACAD_REACTORS
330
3C8
102
}
330
3C8
100
AcDbXrecord
280
     1
102
RTVSPost2010Prop28
280
     0
102
RTVSPost2010PropOp28
 70
     1
102
RTVSPost2010Prop29
280
     1
102
RTVSPost2010PropOp29
 70
     1
102
RTVSPost2010Prop30
280
     1
102
RTVSPost2010PropOp30
 70
     1
102
RTVSPost2010Prop31
280
     0
102
RTVSPost2010PropOp31
 70
     1
102
RTVSPost2010Prop32
280
     0
102
RTVSPost2010PropOp32
 70
     1
102
RTVSPost2010Prop33
280
     0
102
RTVSPost2010PropOp33
 70
     1
102
RTVSPost2010Prop34
280
     0
102
RTVSPost2010PropOp34
 70
     1
102
RTVSPost2010Prop35
280
     0
102
RTVSPost2010PropOp35
 70
     1
102
RTVSPost2010Prop36
280
     0
102
RTVSPost2010PropOp36
 70
     1
102
RTVSPost2010Prop37
 90
       50
102
RTVSPost2010PropOp37
 70
     1
102
RTVSPost2010Prop38
140
0.0
102
RTVSPost2010PropOp38
 70
     1
102
RTVSPost2010Prop39
140
1.0
102
RTVSPost2010PropOp39
 70
     1
102
RTVSPost2010Prop40
 90
        0
102
RTVSPost2010PropOp40
 70
     1
102
RTVSPost2010Prop41ColorIndex
 90
       18
102
RTVSPost2010Prop41ColorRGB
 90
        0
102
RTVSPost2010PropOp41
 70
     1
102
RTVSPost2010Prop42
 90
       50
102
RTVSPost2010PropOp42
 70
     1
102
RTVSPost2010Prop43
 90
        3
102
RTVSPost2010PropOp43
 70
     1
102
RTVSPost2010Prop44ColorIndex
 90
        5
102
RTVSPost2010Prop44ColorRGB
 90
      255
102
RTVSPost2010PropOp44
 70
     1
102
RTVSPost2010Prop45
280
     0
102
RTVSPost2010PropOp45
 70
     1
102
RTVSPost2010Prop46
 90
       50
102
RTVSPost2010PropOp46
 70
     1
102
RTVSPost2010Prop47
 90
       50
102
RTVSPost2010PropOp47
 70
     1
102
RTVSPost2010Prop48
 90
       50
102
RTVSPost2010PropOp48
 70
     1
102
RTVSPost2010Prop49
280
     0
102
RTVSPost2010PropOp49
 70
     1
102
RTVSPost2010Prop50
 90
       50
102
RTVSPost2010PropOp50
 70
     1
102
RTVSPost2010Prop51ColorIndex
 90
      256
102
RTVSPost2010Prop51ColorRGB
 90
-16777216
102
RTVSPost2010PropOp51
 70
     0
102
RTVSPost2010Prop52
140
1.0
102
RTVSPost2010PropOp52
 70
     0
102
RTVSPost2010Prop53
 90
        2
102
RTVSPost2010PropOp53
 70
     1
102
RTVSPost2010Prop54
  1
strokes_ogs.tif
102
RTVSPost2010PropOp54
 70
     1
102
RTVSPost2010Prop55
280
     0
102
RTVSPost2010PropOp55
 70
     1
102
RTVSPost2010Prop56
140
1.0
102
RTVSPost2010PropOp56
 70
     1
102
RTVSPost2010Prop57
140
1.0
102
RTVSPost2010PropOp57
 70
     1
102
RTVSPropertyOp0
 70
     1
102
RTVSPropertyOp1
 70
     1
102
RTVSPropertyOp2
 70
     1
102
RTVSPropertyOp3
 70
     1
102
RTVSPropertyOp4
 70
     1
102
RTVSPropertyOp5
 70
     1
102
RTVSPropertyOp6
 70
     1
102
RTVSPropertyOp7
 70
     1
102
RTVSPropertyOp8
 70
     1
102
RTVSPropertyOp9
 70
     1
102
RTVSPropertyOp10
 70
     1
102
RTVSPropertyOp11
 70
     1
102
RTVSPropertyOp12
 70
     1
102
RTVSPropertyOp13
 70
     1
102
RTVSPropertyOp14
 70
     1
102
RTVSPropertyOp15
 70
     1
102
RTVSPropertyOp16
 70
     1
102
RTVSPropertyOp17
 70
     1
102
RTVSPropertyOp18
 70
     1
102
RTVSPropertyOp19
 70
     1
102
RTVSPropertyOp20
 70
     1
102
RTVSPropertyOp21
 70
     1
102
RTVSPropertyOp22
 70
     1
102
RTVSPropertyOp23
 70
     1
102
RTVSPropertyOp24
 70
     1
102
RTVSPropertyOp25
 70
     1
102
RTVSPropertyOp26
 70
     1
102
RTVSPropertyOp27
 70
     1
102
RTVSPropertyOp28
 70
     1
102
RTVSPropertyOp29
 70
     1
102
RTVSPropertyOp30
 70
     1
102
RTVSPropertyOp31
 70
     1
102
RTVSPropertyOp32
 70
     1
102
RTVSPropertyOp33
 70
     1
102
RTVSPropertyOp34
 70
     1
102
RTVSPropertyOp35
 70
     1
102
RTVSPropertyOp36
 70
     1
102
RTVSPropertyOp37
 70
     1
102
RTVSPropertyOp38
 70
     1
102
RTVSPropertyOp39
 70
     1
102
RTVSPropertyOp40
 70
     1
102
RTVSPropertyOp41
 70
     1
102
RTVSPropertyOp42
 70
     1
102
RTVSPropertyOp43
 70
     1
102
RTVSPropertyOp44
 70
     1
102
RTVSPropertyOp45
 70
     1
102
RTVSPropertyOp46
 70
     1
102
RTVSPropertyOp47
 70
     1
102
RTVSPropertyOp48
 70
     1
102
RTVSPropertyOp49
 70
     1
102
RTVSPropertyOp50
 70
     1
102
RTVSPropertyOp51
 70
     0
102
RTVSPropertyOp52
 70
     0
102
RTVSPropertyOp53
 70
     1
102
RTVSPropertyOp54
 70
     1
102
RTVSPropertyOp55
 70
     1
102
RTVSPropertyOp56
 70
     1
102
RTVSPropertyOp57
 70
     1
102
RTVSPropertyOp58
 70
     1
102
RTVSPropertyOp59
 70
     1
102
RTVSPropertyOp60
 70
     1
102
RTVSPropertyOp61
 70
     1
102
RTVSPropertyOp62
 70
     1
  0
XRECORD
  5
3D9
102
{ACAD_REACTORS
330
3D8
102
}
330
3D8
100
AcDbXrecord
280
     1
102
RTVSPost2010Prop28
280
     0
102
RTVSPost2010PropOp28
 70
     0
102
RTVSPost2010Prop29
280
     1
102
RTVSPost2010PropOp29
 70
     0
102
RTVSPost2010Prop30
280
     1
102
RTVSPost2010PropOp30
 70
     0
102
RTVSPost2010Prop31
280
     0
102
RTVSPost2010PropOp31
 70
     0
102
RTVSPost2010Prop32
280
     0
102
RTVSPost2010PropOp32
 70
     0
102
RTVSPost2010Prop33
280
     0
102
RTVSPost2010PropOp33
 70
     0
102
RTVSPost2010Prop34
280
     0
102
RTVSPost2010PropOp34
 70
     0
102
RTVSPost2010Prop35
280
     0
102
RTVSPost2010PropOp35
 70
     0
102
RTVSPost2010Prop36
280
     0
102
RTVSPost2010PropOp36
 70
     0
102
RTVSPost2010Prop37
 90
       50
102
RTVSPost2010PropOp37
 70
     0
102
RTVSPost2010Prop38
140
0.0
102
RTVSPost2010PropOp38
 70
     0
102
RTVSPost2010Prop39
140
1.0
102
RTVSPost2010PropOp39
 70
     0
102
RTVSPost2010Prop40
 90
        0
102
RTVSPost2010PropOp40
 70
     0
102
RTVSPost2010Prop41ColorIndex
 90
       18
102
RTVSPost2010Prop41ColorRGB
 90
        0
102
RTVSPost2010PropOp41
 70
     0
102
RTVSPost2010Prop42
 90
       50
102
RTVSPost2010PropOp42
 70
     0
102
RTVSPost2010Prop43
 90
        3
102
RTVSPost2010PropOp43
 70
     0
102
RTVSPost2010Prop44ColorIndex
 90
        5
102
RTVSPost2010Prop44ColorRGB
 90
      255
102
RTVSPost2010PropOp44
 70
     0
102
RTVSPost2010Prop45
280
     0
102
RTVSPost2010PropOp45
 70
     0
102
RTVSPost2010Prop46
 90
       50
102
RTVSPost2010PropOp46
 70
     0
102
RTVSPost2010Prop47
 90
       50
102
RTVSPost2010PropOp47
 70
     0
102
RTVSPost2010Prop48
 90
       50
102
RTVSPost2010PropOp48
 70
     0
102
RTVSPost2010Prop49
280
     0
102
RTVSPost2010PropOp49
 70
     0
102
RTVSPost2010Prop50
 90
       50
102
RTVSPost2010PropOp50
 70
     0
102
RTVSPost2010Prop51ColorIndex
 90
      256
102
RTVSPost2010Prop51ColorRGB
 90
-16777216
102
RTVSPost2010PropOp51
 70
     0
102
RTVSPost2010Prop52
140
1.0
102
RTVSPost2010PropOp52
 70
     0
102
RTVSPost2010Prop53
 90
        2
102
RTVSPost2010PropOp53
 70
     0
102
RTVSPost2010Prop54
  1
strokes_ogs.tif
102
RTVSPost2010PropOp54
 70
     0
102
RTVSPost2010Prop55
280
     0
102
RTVSPost2010PropOp55
 70
     0
102
RTVSPost2010Prop56
140
1.0
102
RTVSPost2010PropOp56
 70
     0
102
RTVSPost2010Prop57
140
1.0
102
RTVSPost2010PropOp57
 70
     0
102
RTVSPropertyOp0
 70
     0
102
RTVSPropertyOp1
 70
     0
102
RTVSPropertyOp2
 70
     0
102
RTVSPropertyOp3
 70
     0
102
RTVSPropertyOp4
 70
     0
102
RTVSPropertyOp5
 70
     0
102
RTVSPropertyOp6
 70
     0
102
RTVSPropertyOp7
 70
     0
102
RTVSPropertyOp8
 70
     0
102
RTVSPropertyOp9
 70
     0
102
RTVSPropertyOp10
 70
     0
102
RTVSPropertyOp11
 70
     0
102
RTVSPropertyOp12
 70
     0
102
RTVSPropertyOp13
 70
     0
102
RTVSPropertyOp14
 70
     2
102
RTVSPropertyOp15
 70
     0
102
RTVSPropertyOp16
 70
     0
102
RTVSPropertyOp17
 70
     0
102
RTVSPropertyOp18
 70
     0
102
RTVSPropertyOp19
 70
     0
102
RTVSPropertyOp20
 70
     0
102
RTVSPropertyOp21
 70
     0
102
RTVSPropertyOp22
 70
     0
102
RTVSPropertyOp23
 70
     0
102
RTVSPropertyOp24
 70
     0
102
RTVSPropertyOp25
 70
     0
102
RTVSPropertyOp26
 70
     0
102
RTVSPropertyOp27
 70
     0
102
RTVSPropertyOp28
 70
     0
102
RTVSPropertyOp29
 70
     0
102
RTVSPropertyOp30
 70
     0
102
RTVSPropertyOp31
 70
     0
102
RTVSPropertyOp32
 70
     0
102
RTVSPropertyOp33
 70
     0
102
RTVSPropertyOp34
 70
     0
102
RTVSPropertyOp35
 70
     0
102
RTVSPropertyOp36
 70
     0
102
RTVSPropertyOp37
 70
     0
102
RTVSPropertyOp38
 70
     0
102
RTVSPropertyOp39
 70
     0
102
RTVSPropertyOp40
 70
     0
102
RTVSPropertyOp41
 70
     0
102
RTVSPropertyOp42
 70
     0
102
RTVSPropertyOp43
 70
     0
102
RTVSPropertyOp44
 70
     0
102
RTVSPropertyOp45
 70
     0
102
RTVSPropertyOp46
 70
     0
102
RTVSPropertyOp47
 70
     0
102
RTVSPropertyOp48
 70
     0
102
RTVSPropertyOp49
 70
     0
102
RTVSPropertyOp50
 70
     0
102
RTVSPropertyOp51
 70
     0
102
RTVSPropertyOp52
 70
     0
102
RTVSPropertyOp53
 70
     0
102
RTVSPropertyOp54
 70
     0
102
RTVSPropertyOp55
 70
     0
102
RTVSPropertyOp56
 70
     0
102
RTVSPropertyOp57
 70
     0
102
RTVSPropertyOp58
 70
     1
102
RTVSPropertyOp59
 70
     1
102
RTVSPropertyOp60
 70
     1
102
RTVSPropertyOp61
 70
     1
102
RTVSPropertyOp62
 70
     1
  0
XRECORD
  5
3D1
102
{ACAD_REACTORS
330
3D0
102
}
330
3D0
100
AcDbXrecord
280
     1
102
RTVSPost2010Prop28
280
     0
102
RTVSPost2010PropOp28
 70
     1
102
RTVSPost2010Prop29
280
     1
102
RTVSPost2010PropOp29
 70
     1
102
RTVSPost2010Prop30
280
     1
102
RTVSPost2010PropOp30
 70
     1
102
RTVSPost2010Prop31
280
     0
102
RTVSPost2010PropOp31
 70
     1
102
RTVSPost2010Prop32
280
     0
102
RTVSPost2010PropOp32
 70
     1
102
RTVSPost2010Prop33
280
     0
102
RTVSPost2010PropOp33
 70
     1
102
RTVSPost2010Prop34
280
     0
102
RTVSPost2010PropOp34
 70
     1
102
RTVSPost2010Prop35
280
     0
102
RTVSPost2010PropOp35
 70
     1
102
RTVSPost2010Prop36
280
     0
102
RTVSPost2010PropOp36
 70
     1
102
RTVSPost2010Prop37
 90
       50
102
RTVSPost2010PropOp37
 70
     1
102
RTVSPost2010Prop38
140
0.0
102
RTVSPost2010PropOp38
 70
     1
102
RTVSPost2010Prop39
140
1.0
102
RTVSPost2010PropOp39
 70
     1
102
RTVSPost2010Prop40
 90
        0
102
RTVSPost2010PropOp40
 70
     1
102
RTVSPost2010Prop41ColorIndex
 90
       18
102
RTVSPost2010Prop41ColorRGB
 90
        0
102
RTVSPost2010PropOp41
 70
     1
102
RTVSPost2010Prop42
 90
       50
102
RTVSPost2010PropOp42
 70
     1
102
RTVSPost2010Prop43
 90
        3
102
RTVSPost2010PropOp43
 70
     1
102
RTVSPost2010Prop44ColorIndex
 90
        5
102
RTVSPost2010Prop44ColorRGB
 90
      255
102
RTVSPost2010PropOp44
 70
     1
102
RTVSPost2010Prop45
280
     0
102
RTVSPost2010PropOp45
 70
     1
102
RTVSPost2010Prop46
 90
       50
102
RTVSPost2010PropOp46
 70
     1
102
RTVSPost2010Prop47
 90
       50
102
RTVSPost2010PropOp47
 70
     1
102
RTVSPost2010Prop48
 90
       50
102
RTVSPost2010PropOp48
 70
     1
102
RTVSPost2010Prop49
280
     0
102
RTVSPost2010PropOp49
 70
     1
102
RTVSPost2010Prop50
 90
       50
102
RTVSPost2010PropOp50
 70
     1
102
RTVSPost2010Prop51ColorIndex
 90
      256
102
RTVSPost2010Prop51ColorRGB
 90
-16777216
102
RTVSPost2010PropOp51
 70
     0
102
RTVSPost2010Prop52
140
1.0
102
RTVSPost2010PropOp52
 70
     0
102
RTVSPost2010Prop53
 90
        2
102
RTVSPost2010PropOp53
 70
     1
102
RTVSPost2010Prop54
  1
strokes_ogs.tif
102
RTVSPost2010PropOp54
 70
     1
102
RTVSPost2010Prop55
280
     0
102
RTVSPost2010PropOp55
 70
     1
102
RTVSPost2010Prop56
140
1.0
102
RTVSPost2010PropOp56
 70
     1
102
RTVSPost2010Prop57
140
1.0
102
RTVSPost2010PropOp57
 70
     1
102
RTVSPropertyOp0
 70
     1
102
RTVSPropertyOp1
 70
     1
102
RTVSPropertyOp2
 70
     1
102
RTVSPropertyOp3
 70
     1
102
RTVSPropertyOp4
 70
     1
102
RTVSPropertyOp5
 70
     1
102
RTVSPropertyOp6
 70
     1
102
RTVSPropertyOp7
 70
     1
102
RTVSPropertyOp8
 70
     1
102
RTVSPropertyOp9
 70
     1
102
RTVSPropertyOp10
 70
     1
102
RTVSPropertyOp11
 70
     1
102
RTVSPropertyOp12
 70
     1
102
RTVSPropertyOp13
 70
     1
102
RTVSPropertyOp14
 70
     1
102
RTVSPropertyOp15
 70
     1
102
RTVSPropertyOp16
 70
     1
102
RTVSPropertyOp17
 70
     1
102
RTVSPropertyOp18
 70
     1
102
RTVSPropertyOp19
 70
     1
102
RTVSPropertyOp20
 70
     1
102
RTVSPropertyOp21
 70
     1
102
RTVSPropertyOp22
 70
     1
102
RTVSPropertyOp23
 70
     1
102
RTVSPropertyOp24
 70
     1
102
RTVSPropertyOp25
 70
     1
102
RTVSPropertyOp26
 70
     1
102
RTVSPropertyOp27
 70
     1
102
RTVSPropertyOp28
 70
     1
102
RTVSPropertyOp29
 70
     1
102
RTVSPropertyOp30
 70
     1
102
RTVSPropertyOp31
 70
     1
102
RTVSPropertyOp32
 70
     1
102
RTVSPropertyOp33
 70
     1
102
RTVSPropertyOp34
 70
     1
102
RTVSPropertyOp35
 70
     1
102
RTVSPropertyOp36
 70
     1
102
RTVSPropertyOp37
 70
     1
102
RTVSPropertyOp38
 70
     1
102
RTVSPropertyOp39
 70
     1
102
RTVSPropertyOp40
 70
     1
102
RTVSPropertyOp41
 70
     1
102
RTVSPropertyOp42
 70
     1
102
RTVSPropertyOp43
 70
     1
102
RTVSPropertyOp44
 70
     1
102
RTVSPropertyOp45
 70
     1
102
RTVSPropertyOp46
 70
     1
102
RTVSPropertyOp47
 70
     1
102
RTVSPropertyOp48
 70
     1
102
RTVSPropertyOp49
 70
     1
102
RTVSPropertyOp50
 70
     1
102
RTVSPropertyOp51
 70
     0
102
RTVSPropertyOp52
 70
     0
102
RTVSPropertyOp53
 70
     1
102
RTVSPropertyOp54
 70
     1
102
RTVSPropertyOp55
 70
     1
102
RTVSPropertyOp56
 70
     1
102
RTVSPropertyOp57
 70
     1
102
RTVSPropertyOp58
 70
     1
102
RTVSPropertyOp59
 70
     1
102
RTVSPropertyOp60
 70
     1
102
RTVSPropertyOp61
 70
     1
102
RTVSPropertyOp62
 70
     1
  0
XRECORD
  5
3B5
102
{ACAD_REACTORS
330
3B4
102
}
330
3B4
100
AcDbXrecord
280
     1
102
RTVSPost2010Prop28
280
     0
102
RTVSPost2010PropOp28
 70
     1
102
RTVSPost2010Prop29
280
     1
102
RTVSPost2010PropOp29
 70
     1
102
RTVSPost2010Prop30
280
     1
102
RTVSPost2010PropOp30
 70
     1
102
RTVSPost2010Prop31
280
     0
102
RTVSPost2010PropOp31
 70
     1
102
RTVSPost2010Prop32
280
     0
102
RTVSPost2010PropOp32
 70
     1
102
RTVSPost2010Prop33
280
     0
102
RTVSPost2010PropOp33
 70
     1
102
RTVSPost2010Prop34
280
     0
102
RTVSPost2010PropOp34
 70
     1
102
RTVSPost2010Prop35
280
     0
102
RTVSPost2010PropOp35
 70
     1
102
RTVSPost2010Prop36
280
     0
102
RTVSPost2010PropOp36
 70
     1
102
RTVSPost2010Prop37
 90
       50
102
RTVSPost2010PropOp37
 70
     1
102
RTVSPost2010Prop38
140
0.0
102
RTVSPost2010PropOp38
 70
     1
102
RTVSPost2010Prop39
140
1.0
102
RTVSPost2010PropOp39
 70
     1
102
RTVSPost2010Prop40
 90
        0
102
RTVSPost2010PropOp40
 70
     1
102
RTVSPost2010Prop41ColorIndex
 90
       18
102
RTVSPost2010Prop41ColorRGB
 90
        0
102
RTVSPost2010PropOp41
 70
     1
102
RTVSPost2010Prop42
 90
       50
102
RTVSPost2010PropOp42
 70
     1
102
RTVSPost2010Prop43
 90
        3
102
RTVSPost2010PropOp43
 70
     1
102
RTVSPost2010Prop44ColorIndex
 90
        5
102
RTVSPost2010Prop44ColorRGB
 90
      255
102
RTVSPost2010PropOp44
 70
     1
102
RTVSPost2010Prop45
280
     0
102
RTVSPost2010PropOp45
 70
     1
102
RTVSPost2010Prop46
 90
       50
102
RTVSPost2010PropOp46
 70
     1
102
RTVSPost2010Prop47
 90
       50
102
RTVSPost2010PropOp47
 70
     1
102
RTVSPost2010Prop48
 90
       50
102
RTVSPost2010PropOp48
 70
     1
102
RTVSPost2010Prop49
280
     0
102
RTVSPost2010PropOp49
 70
     1
102
RTVSPost2010Prop50
 90
       50
102
RTVSPost2010PropOp50
 70
     1
102
RTVSPost2010Prop51ColorIndex
 90
      256
102
RTVSPost2010Prop51ColorRGB
 90
-16777216
102
RTVSPost2010PropOp51
 70
     0
102
RTVSPost2010Prop52
140
1.0
102
RTVSPost2010PropOp52
 70
     0
102
RTVSPost2010Prop53
 90
        2
102
RTVSPost2010PropOp53
 70
     1
102
RTVSPost2010Prop54
  1
strokes_ogs.tif
102
RTVSPost2010PropOp54
 70
     1
102
RTVSPost2010Prop55
280
     0
102
RTVSPost2010PropOp55
 70
     1
102
RTVSPost2010Prop56
140
1.0
102
RTVSPost2010PropOp56
 70
     1
102
RTVSPost2010Prop57
140
1.0
102
RTVSPost2010PropOp57
 70
     1
102
RTVSPropertyOp0
 70
     1
102
RTVSPropertyOp1
 70
     1
102
RTVSPropertyOp2
 70
     1
102
RTVSPropertyOp3
 70
     1
102
RTVSPropertyOp4
 70
     1
102
RTVSPropertyOp5
 70
     1
102
RTVSPropertyOp6
 70
     1
102
RTVSPropertyOp7
 70
     1
102
RTVSPropertyOp8
 70
     1
102
RTVSPropertyOp9
 70
     1
102
RTVSPropertyOp10
 70
     1
102
RTVSPropertyOp11
 70
     1
102
RTVSPropertyOp12
 70
     1
102
RTVSPropertyOp13
 70
     1
102
RTVSPropertyOp14
 70
     1
102
RTVSPropertyOp15
 70
     1
102
RTVSPropertyOp16
 70
     1
102
RTVSPropertyOp17
 70
     1
102
RTVSPropertyOp18
 70
     1
102
RTVSPropertyOp19
 70
     1
102
RTVSPropertyOp20
 70
     1
102
RTVSPropertyOp21
 70
     1
102
RTVSPropertyOp22
 70
     1
102
RTVSPropertyOp23
 70
     1
102
RTVSPropertyOp24
 70
     1
102
RTVSPropertyOp25
 70
     1
102
RTVSPropertyOp26
 70
     1
102
RTVSPropertyOp27
 70
     1
102
RTVSPropertyOp28
 70
     1
102
RTVSPropertyOp29
 70
     1
102
RTVSPropertyOp30
 70
     1
102
RTVSPropertyOp31
 70
     1
102
RTVSPropertyOp32
 70
     1
102
RTVSPropertyOp33
 70
     1
102
RTVSPropertyOp34
 70
     1
102
RTVSPropertyOp35
 70
     1
102
RTVSPropertyOp36
 70
     1
102
RTVSPropertyOp37
 70
     1
102
RTVSPropertyOp38
 70
     1
102
RTVSPropertyOp39
 70
     1
102
RTVSPropertyOp40
 70
     1
102
RTVSPropertyOp41
 70
     1
102
RTVSPropertyOp42
 70
     1
102
RTVSPropertyOp43
 70
     1
102
RTVSPropertyOp44
 70
     1
102
RTVSPropertyOp45
 70
     1
102
RTVSPropertyOp46
 70
     1
102
RTVSPropertyOp47
 70
     1
102
RTVSPropertyOp48
 70
     1
102
RTVSPropertyOp49
 70
     1
102
RTVSPropertyOp50
 70
     1
102
RTVSPropertyOp51
 70
     0
102
RTVSPropertyOp52
 70
     0
102
RTVSPropertyOp53
 70
     1
102
RTVSPropertyOp54
 70
     1
102
RTVSPropertyOp55
 70
     1
102
RTVSPropertyOp56
 70
     1
102
RTVSPropertyOp57
 70
     1
102
RTVSPropertyOp58
 70
     1
102
RTVSPropertyOp59
 70
     1
102
RTVSPropertyOp60
 70
     1
102
RTVSPropertyOp61
 70
     1
102
RTVSPropertyOp62
 70
     1
  0
XRECORD
  5
3B7
102
{ACAD_REACTORS
330
3B6
102
}
330
3B6
100
AcDbXrecord
280
     1
102
RTVSPost2010Prop28
280
     0
102
RTVSPost2010PropOp28
 70
     1
102
RTVSPost2010Prop29
280
     1
102
RTVSPost2010PropOp29
 70
     1
102
RTVSPost2010Prop30
280
     1
102
RTVSPost2010PropOp30
 70
     1
102
RTVSPost2010Prop31
280
     0
102
RTVSPost2010PropOp31
 70
     1
102
RTVSPost2010Prop32
280
     0
102
RTVSPost2010PropOp32
 70
     1
102
RTVSPost2010Prop33
280
     0
102
RTVSPost2010PropOp33
 70
     1
102
RTVSPost2010Prop34
280
     0
102
RTVSPost2010PropOp34
 70
     1
102
RTVSPost2010Prop35
280
     0
102
RTVSPost2010PropOp35
 70
     1
102
RTVSPost2010Prop36
280
     0
102
RTVSPost2010PropOp36
 70
     1
102
RTVSPost2010Prop37
 90
       50
102
RTVSPost2010PropOp37
 70
     1
102
RTVSPost2010Prop38
140
0.0
102
RTVSPost2010PropOp38
 70
     1
102
RTVSPost2010Prop39
140
1.0
102
RTVSPost2010PropOp39
 70
     1
102
RTVSPost2010Prop40
 90
        0
102
RTVSPost2010PropOp40
 70
     1
102
RTVSPost2010Prop41ColorIndex
 90
       18
102
RTVSPost2010Prop41ColorRGB
 90
        0
102
RTVSPost2010PropOp41
 70
     1
102
RTVSPost2010Prop42
 90
       50
102
RTVSPost2010PropOp42
 70
     1
102
RTVSPost2010Prop43
 90
        3
102
RTVSPost2010PropOp43
 70
     1
102
RTVSPost2010Prop44ColorIndex
 90
        5
102
RTVSPost2010Prop44ColorRGB
 90
      255
102
RTVSPost2010PropOp44
 70
     1
102
RTVSPost2010Prop45
280
     0
102
RTVSPost2010PropOp45
 70
     1
102
RTVSPost2010Prop46
 90
       50
102
RTVSPost2010PropOp46
 70
     1
102
RTVSPost2010Prop47
 90
       50
102
RTVSPost2010PropOp47
 70
     1
102
RTVSPost2010Prop48
 90
       50
102
RTVSPost2010PropOp48
 70
     1
102
RTVSPost2010Prop49
280
     0
102
RTVSPost2010PropOp49
 70
     1
102
RTVSPost2010Prop50
 90
       50
102
RTVSPost2010PropOp50
 70
     1
102
RTVSPost2010Prop51ColorIndex
 90
      256
102
RTVSPost2010Prop51ColorRGB
 90
-16777216
102
RTVSPost2010PropOp51
 70
     0
102
RTVSPost2010Prop52
140
1.0
102
RTVSPost2010PropOp52
 70
     0
102
RTVSPost2010Prop53
 90
        2
102
RTVSPost2010PropOp53
 70
     1
102
RTVSPost2010Prop54
  1
strokes_ogs.tif
102
RTVSPost2010PropOp54
 70
     1
102
RTVSPost2010Prop55
280
     0
102
RTVSPost2010PropOp55
 70
     1
102
RTVSPost2010Prop56
140
1.0
102
RTVSPost2010PropOp56
 70
     1
102
RTVSPost2010Prop57
140
1.0
102
RTVSPost2010PropOp57
 70
     1
102
RTVSPropertyOp0
 70
     1
102
RTVSPropertyOp1
 70
     1
102
RTVSPropertyOp2
 70
     1
102
RTVSPropertyOp3
 70
     1
102
RTVSPropertyOp4
 70
     1
102
RTVSPropertyOp5
 70
     1
102
RTVSPropertyOp6
 70
     1
102
RTVSPropertyOp7
 70
     1
102
RTVSPropertyOp8
 70
     1
102
RTVSPropertyOp9
 70
     1
102
RTVSPropertyOp10
 70
     1
102
RTVSPropertyOp11
 70
     1
102
RTVSPropertyOp12
 70
     1
102
RTVSPropertyOp13
 70
     1
102
RTVSPropertyOp14
 70
     1
102
RTVSPropertyOp15
 70
     1
102
RTVSPropertyOp16
 70
     1
102
RTVSPropertyOp17
 70
     1
102
RTVSPropertyOp18
 70
     1
102
RTVSPropertyOp19
 70
     1
102
RTVSPropertyOp20
 70
     1
102
RTVSPropertyOp21
 70
     1
102
RTVSPropertyOp22
 70
     1
102
RTVSPropertyOp23
 70
     1
102
RTVSPropertyOp24
 70
     1
102
RTVSPropertyOp25
 70
     1
102
RTVSPropertyOp26
 70
     1
102
RTVSPropertyOp27
 70
     1
102
RTVSPropertyOp28
 70
     1
102
RTVSPropertyOp29
 70
     1
102
RTVSPropertyOp30
 70
     1
102
RTVSPropertyOp31
 70
     1
102
RTVSPropertyOp32
 70
     1
102
RTVSPropertyOp33
 70
     1
102
RTVSPropertyOp34
 70
     1
102
RTVSPropertyOp35
 70
     1
102
RTVSPropertyOp36
 70
     1
102
RTVSPropertyOp37
 70
     1
102
RTVSPropertyOp38
 70
     1
102
RTVSPropertyOp39
 70
     1
102
RTVSPropertyOp40
 70
     1
102
RTVSPropertyOp41
 70
     1
102
RTVSPropertyOp42
 70
     1
102
RTVSPropertyOp43
 70
     1
102
RTVSPropertyOp44
 70
     1
102
RTVSPropertyOp45
 70
     1
102
RTVSPropertyOp46
 70
     1
102
RTVSPropertyOp47
 70
     1
102
RTVSPropertyOp48
 70
     1
102
RTVSPropertyOp49
 70
     1
102
RTVSPropertyOp50
 70
     1
102
RTVSPropertyOp51
 70
     0
102
RTVSPropertyOp52
 70
     0
102
RTVSPropertyOp53
 70
     1
102
RTVSPropertyOp54
 70
     1
102
RTVSPropertyOp55
 70
     1
102
RTVSPropertyOp56
 70
     1
102
RTVSPropertyOp57
 70
     1
102
RTVSPropertyOp58
 70
     1
102
RTVSPropertyOp59
 70
     1
102
RTVSPropertyOp60
 70
     1
102
RTVSPropertyOp61
 70
     1
102
RTVSPropertyOp62
 70
     1
  0
XRECORD
  5
3B9
102
{ACAD_REACTORS
330
3B8
102
}
330
3B8
100
AcDbXrecord
280
     1
102
RTVSPost2010Prop28
280
     0
102
RTVSPost2010PropOp28
 70
     1
102
RTVSPost2010Prop29
280
     1
102
RTVSPost2010PropOp29
 70
     1
102
RTVSPost2010Prop30
280
     1
102
RTVSPost2010PropOp30
 70
     1
102
RTVSPost2010Prop31
280
     0
102
RTVSPost2010PropOp31
 70
     1
102
RTVSPost2010Prop32
280
     0
102
RTVSPost2010PropOp32
 70
     1
102
RTVSPost2010Prop33
280
     0
102
RTVSPost2010PropOp33
 70
     1
102
RTVSPost2010Prop34
280
     0
102
RTVSPost2010PropOp34
 70
     1
102
RTVSPost2010Prop35
280
     0
102
RTVSPost2010PropOp35
 70
     1
102
RTVSPost2010Prop36
280
     0
102
RTVSPost2010PropOp36
 70
     1
102
RTVSPost2010Prop37
 90
       50
102
RTVSPost2010PropOp37
 70
     1
102
RTVSPost2010Prop38
140
0.0
102
RTVSPost2010PropOp38
 70
     1
102
RTVSPost2010Prop39
140
1.0
102
RTVSPost2010PropOp39
 70
     1
102
RTVSPost2010Prop40
 90
        0
102
RTVSPost2010PropOp40
 70
     1
102
RTVSPost2010Prop41ColorIndex
 90
       18
102
RTVSPost2010Prop41ColorRGB
 90
        0
102
RTVSPost2010PropOp41
 70
     1
102
RTVSPost2010Prop42
 90
       50
102
RTVSPost2010PropOp42
 70
     1
102
RTVSPost2010Prop43
 90
        3
102
RTVSPost2010PropOp43
 70
     1
102
RTVSPost2010Prop44ColorIndex
 90
        5
102
RTVSPost2010Prop44ColorRGB
 90
      255
102
RTVSPost2010PropOp44
 70
     1
102
RTVSPost2010Prop45
280
     0
102
RTVSPost2010PropOp45
 70
     1
102
RTVSPost2010Prop46
 90
       50
102
RTVSPost2010PropOp46
 70
     1
102
RTVSPost2010Prop47
 90
       50
102
RTVSPost2010PropOp47
 70
     1
102
RTVSPost2010Prop48
 90
       50
102
RTVSPost2010PropOp48
 70
     1
102
RTVSPost2010Prop49
280
     0
102
RTVSPost2010PropOp49
 70
     1
102
RTVSPost2010Prop50
 90
       50
102
RTVSPost2010PropOp50
 70
     1
102
RTVSPost2010Prop51ColorIndex
 90
      256
102
RTVSPost2010Prop51ColorRGB
 90
-16777216
102
RTVSPost2010PropOp51
 70
     0
102
RTVSPost2010Prop52
140
1.0
102
RTVSPost2010PropOp52
 70
     0
102
RTVSPost2010Prop53
 90
        2
102
RTVSPost2010PropOp53
 70
     1
102
RTVSPost2010Prop54
  1
strokes_ogs.tif
102
RTVSPost2010PropOp54
 70
     1
102
RTVSPost2010Prop55
280
     0
102
RTVSPost2010PropOp55
 70
     1
102
RTVSPost2010Prop56
140
1.0
102
RTVSPost2010PropOp56
 70
     1
102
RTVSPost2010Prop57
140
1.0
102
RTVSPost2010PropOp57
 70
     1
102
RTVSPropertyOp0
 70
     1
102
RTVSPropertyOp1
 70
     1
102
RTVSPropertyOp2
 70
     1
102
RTVSPropertyOp3
 70
     1
102
RTVSPropertyOp4
 70
     1
102
RTVSPropertyOp5
 70
     1
102
RTVSPropertyOp6
 70
     1
102
RTVSPropertyOp7
 70
     1
102
RTVSPropertyOp8
 70
     1
102
RTVSPropertyOp9
 70
     1
102
RTVSPropertyOp10
 70
     1
102
RTVSPropertyOp11
 70
     1
102
RTVSPropertyOp12
 70
     1
102
RTVSPropertyOp13
 70
     1
102
RTVSPropertyOp14
 70
     1
102
RTVSPropertyOp15
 70
     1
102
RTVSPropertyOp16
 70
     1
102
RTVSPropertyOp17
 70
     1
102
RTVSPropertyOp18
 70
     1
102
RTVSPropertyOp19
 70
     1
102
RTVSPropertyOp20
 70
     1
102
RTVSPropertyOp21
 70
     1
102
RTVSPropertyOp22
 70
     1
102
RTVSPropertyOp23
 70
     1
102
RTVSPropertyOp24
 70
     1
102
RTVSPropertyOp25
 70
     1
102
RTVSPropertyOp26
 70
     1
102
RTVSPropertyOp27
 70
     1
102
RTVSPropertyOp28
 70
     1
102
RTVSPropertyOp29
 70
     1
102
RTVSPropertyOp30
 70
     1
102
RTVSPropertyOp31
 70
     1
102
RTVSPropertyOp32
 70
     1
102
RTVSPropertyOp33
 70
     1
102
RTVSPropertyOp34
 70
     1
102
RTVSPropertyOp35
 70
     1
102
RTVSPropertyOp36
 70
     1
102
RTVSPropertyOp37
 70
     1
102
RTVSPropertyOp38
 70
     1
102
RTVSPropertyOp39
 70
     1
102
RTVSPropertyOp40
 70
     1
102
RTVSPropertyOp41
 70
     1
102
RTVSPropertyOp42
 70
     1
102
RTVSPropertyOp43
 70
     1
102
RTVSPropertyOp44
 70
     1
102
RTVSPropertyOp45
 70
     1
102
RTVSPropertyOp46
 70
     1
102
RTVSPropertyOp47
 70
     1
102
RTVSPropertyOp48
 70
     1
102
RTVSPropertyOp49
 70
     1
102
RTVSPropertyOp50
 70
     1
102
RTVSPropertyOp51
 70
     0
102
RTVSPropertyOp52
 70
     0
102
RTVSPropertyOp53
 70
     1
102
RTVSPropertyOp54
 70
     1
102
RTVSPropertyOp55
 70
     1
102
RTVSPropertyOp56
 70
     1
102
RTVSPropertyOp57
 70
     1
102
RTVSPropertyOp58
 70
     1
102
RTVSPropertyOp59
 70
     1
102
RTVSPropertyOp60
 70
     1
102
RTVSPropertyOp61
 70
     1
102
RTVSPropertyOp62
 70
     1
  0
XRECORD
  5
3BB
102
{ACAD_REACTORS
330
3BA
102
}
330
3BA
100
AcDbXrecord
280
     1
102
RTVSPost2010Prop28
280
     0
102
RTVSPost2010PropOp28
 70
     1
102
RTVSPost2010Prop29
280
     1
102
RTVSPost2010PropOp29
 70
     1
102
RTVSPost2010Prop30
280
     1
102
RTVSPost2010PropOp30
 70
     1
102
RTVSPost2010Prop31
280
     0
102
RTVSPost2010PropOp31
 70
     1
102
RTVSPost2010Prop32
280
     0
102
RTVSPost2010PropOp32
 70
     1
102
RTVSPost2010Prop33
280
     0
102
RTVSPost2010PropOp33
 70
     1
102
RTVSPost2010Prop34
280
     0
102
RTVSPost2010PropOp34
 70
     1
102
RTVSPost2010Prop35
280
     0
102
RTVSPost2010PropOp35
 70
     1
102
RTVSPost2010Prop36
280
     0
102
RTVSPost2010PropOp36
 70
     1
102
RTVSPost2010Prop37
 90
       50
102
RTVSPost2010PropOp37
 70
     1
102
RTVSPost2010Prop38
140
0.0
102
RTVSPost2010PropOp38
 70
     1
102
RTVSPost2010Prop39
140
1.0
102
RTVSPost2010PropOp39
 70
     1
102
RTVSPost2010Prop40
 90
        0
102
RTVSPost2010PropOp40
 70
     1
102
RTVSPost2010Prop41ColorIndex
 90
       18
102
RTVSPost2010Prop41ColorRGB
 90
        0
102
RTVSPost2010PropOp41
 70
     1
102
RTVSPost2010Prop42
 90
       50
102
RTVSPost2010PropOp42
 70
     1
102
RTVSPost2010Prop43
 90
        3
102
RTVSPost2010PropOp43
 70
     1
102
RTVSPost2010Prop44ColorIndex
 90
        5
102
RTVSPost2010Prop44ColorRGB
 90
      255
102
RTVSPost2010PropOp44
 70
     1
102
RTVSPost2010Prop45
280
     0
102
RTVSPost2010PropOp45
 70
     1
102
RTVSPost2010Prop46
 90
       50
102
RTVSPost2010PropOp46
 70
     1
102
RTVSPost2010Prop47
 90
       50
102
RTVSPost2010PropOp47
 70
     1
102
RTVSPost2010Prop48
 90
       50
102
RTVSPost2010PropOp48
 70
     1
102
RTVSPost2010Prop49
280
     0
102
RTVSPost2010PropOp49
 70
     1
102
RTVSPost2010Prop50
 90
       50
102
RTVSPost2010PropOp50
 70
     1
102
RTVSPost2010Prop51ColorIndex
 90
      256
102
RTVSPost2010Prop51ColorRGB
 90
-16777216
102
RTVSPost2010PropOp51
 70
     0
102
RTVSPost2010Prop52
140
1.0
102
RTVSPost2010PropOp52
 70
     0
102
RTVSPost2010Prop53
 90
        2
102
RTVSPost2010PropOp53
 70
     1
102
RTVSPost2010Prop54
  1
strokes_ogs.tif
102
RTVSPost2010PropOp54
 70
     1
102
RTVSPost2010Prop55
280
     0
102
RTVSPost2010PropOp55
 70
     1
102
RTVSPost2010Prop56
140
1.0
102
RTVSPost2010PropOp56
 70
     1
102
RTVSPost2010Prop57
140
1.0
102
RTVSPost2010PropOp57
 70
     1
102
RTVSPropertyOp0
 70
     1
102
RTVSPropertyOp1
 70
     1
102
RTVSPropertyOp2
 70
     1
102
RTVSPropertyOp3
 70
     1
102
RTVSPropertyOp4
 70
     1
102
RTVSPropertyOp5
 70
     1
102
RTVSPropertyOp6
 70
     1
102
RTVSPropertyOp7
 70
     1
102
RTVSPropertyOp8
 70
     1
102
RTVSPropertyOp9
 70
     1
102
RTVSPropertyOp10
 70
     1
102
RTVSPropertyOp11
 70
     1
102
RTVSPropertyOp12
 70
     1
102
RTVSPropertyOp13
 70
     1
102
RTVSPropertyOp14
 70
     1
102
RTVSPropertyOp15
 70
     1
102
RTVSPropertyOp16
 70
     1
102
RTVSPropertyOp17
 70
     1
102
RTVSPropertyOp18
 70
     1
102
RTVSPropertyOp19
 70
     1
102
RTVSPropertyOp20
 70
     1
102
RTVSPropertyOp21
 70
     1
102
RTVSPropertyOp22
 70
     1
102
RTVSPropertyOp23
 70
     1
102
RTVSPropertyOp24
 70
     1
102
RTVSPropertyOp25
 70
     1
102
RTVSPropertyOp26
 70
     1
102
RTVSPropertyOp27
 70
     1
102
RTVSPropertyOp28
 70
     1
102
RTVSPropertyOp29
 70
     1
102
RTVSPropertyOp30
 70
     1
102
RTVSPropertyOp31
 70
     1
102
RTVSPropertyOp32
 70
     1
102
RTVSPropertyOp33
 70
     1
102
RTVSPropertyOp34
 70
     1
102
RTVSPropertyOp35
 70
     1
102
RTVSPropertyOp36
 70
     1
102
RTVSPropertyOp37
 70
     1
102
RTVSPropertyOp38
 70
     1
102
RTVSPropertyOp39
 70
     1
102
RTVSPropertyOp40
 70
     1
102
RTVSPropertyOp41
 70
     1
102
RTVSPropertyOp42
 70
     1
102
RTVSPropertyOp43
 70
     1
102
RTVSPropertyOp44
 70
     1
102
RTVSPropertyOp45
 70
     1
102
RTVSPropertyOp46
 70
     1
102
RTVSPropertyOp47
 70
     1
102
RTVSPropertyOp48
 70
     1
102
RTVSPropertyOp49
 70
     1
102
RTVSPropertyOp50
 70
     1
102
RTVSPropertyOp51
 70
     0
102
RTVSPropertyOp52
 70
     0
102
RTVSPropertyOp53
 70
     1
102
RTVSPropertyOp54
 70
     1
102
RTVSPropertyOp55
 70
     1
102
RTVSPropertyOp56
 70
     1
102
RTVSPropertyOp57
 70
     1
102
RTVSPropertyOp58
 70
     1
102
RTVSPropertyOp59
 70
     1
102
RTVSPropertyOp60
 70
     1
102
RTVSPropertyOp61
 70
     1
102
RTVSPropertyOp62
 70
     1
  0
XRECORD
  5
3C1
102
{ACAD_REACTORS
330
3C0
102
}
330
3C0
100
AcDbXrecord
280
     1
102
RTVSPost2010Prop28
280
     0
102
RTVSPost2010PropOp28
 70
     1
102
RTVSPost2010Prop29
280
     1
102
RTVSPost2010PropOp29
 70
     1
102
RTVSPost2010Prop30
280
     1
102
RTVSPost2010PropOp30
 70
     1
102
RTVSPost2010Prop31
280
     0
102
RTVSPost2010PropOp31
 70
     1
102
RTVSPost2010Prop32
280
     0
102
RTVSPost2010PropOp32
 70
     1
102
RTVSPost2010Prop33
280
     0
102
RTVSPost2010PropOp33
 70
     1
102
RTVSPost2010Prop34
280
     0
102
RTVSPost2010PropOp34
 70
     1
102
RTVSPost2010Prop35
280
     0
102
RTVSPost2010PropOp35
 70
     1
102
RTVSPost2010Prop36
280
     0
102
RTVSPost2010PropOp36
 70
     1
102
RTVSPost2010Prop37
 90
       50
102
RTVSPost2010PropOp37
 70
     1
102
RTVSPost2010Prop38
140
0.0
102
RTVSPost2010PropOp38
 70
     1
102
RTVSPost2010Prop39
140
1.0
102
RTVSPost2010PropOp39
 70
     1
102
RTVSPost2010Prop40
 90
        0
102
RTVSPost2010PropOp40
 70
     1
102
RTVSPost2010Prop41ColorIndex
 90
       18
102
RTVSPost2010Prop41ColorRGB
 90
        0
102
RTVSPost2010PropOp41
 70
     1
102
RTVSPost2010Prop42
 90
       50
102
RTVSPost2010PropOp42
 70
     1
102
RTVSPost2010Prop43
 90
        3
102
RTVSPost2010PropOp43
 70
     1
102
RTVSPost2010Prop44ColorIndex
 90
        5
102
RTVSPost2010Prop44ColorRGB
 90
      255
102
RTVSPost2010PropOp44
 70
     1
102
RTVSPost2010Prop45
280
     0
102
RTVSPost2010PropOp45
 70
     1
102
RTVSPost2010Prop46
 90
       50
102
RTVSPost2010PropOp46
 70
     1
102
RTVSPost2010Prop47
 90
       50
102
RTVSPost2010PropOp47
 70
     1
102
RTVSPost2010Prop48
 90
       50
102
RTVSPost2010PropOp48
 70
     1
102
RTVSPost2010Prop49
280
     0
102
RTVSPost2010PropOp49
 70
     1
102
RTVSPost2010Prop50
 90
       50
102
RTVSPost2010PropOp50
 70
     1
102
RTVSPost2010Prop51ColorIndex
 90
      256
102
RTVSPost2010Prop51ColorRGB
 90
-16777216
102
RTVSPost2010PropOp51
 70
     0
102
RTVSPost2010Prop52
140
1.0
102
RTVSPost2010PropOp52
 70
     0
102
RTVSPost2010Prop53
 90
        2
102
RTVSPost2010PropOp53
 70
     1
102
RTVSPost2010Prop54
  1
strokes_ogs.tif
102
RTVSPost2010PropOp54
 70
     1
102
RTVSPost2010Prop55
280
     0
102
RTVSPost2010PropOp55
 70
     1
102
RTVSPost2010Prop56
140
1.0
102
RTVSPost2010PropOp56
 70
     1
102
RTVSPost2010Prop57
140
1.0
102
RTVSPost2010PropOp57
 70
     1
102
RTVSPropertyOp0
 70
     1
102
RTVSPropertyOp1
 70
     1
102
RTVSPropertyOp2
 70
     1
102
RTVSPropertyOp3
 70
     1
102
RTVSPropertyOp4
 70
     1
102
RTVSPropertyOp5
 70
     1
102
RTVSPropertyOp6
 70
     1
102
RTVSPropertyOp7
 70
     1
102
RTVSPropertyOp8
 70
     1
102
RTVSPropertyOp9
 70
     1
102
RTVSPropertyOp10
 70
     1
102
RTVSPropertyOp11
 70
     1
102
RTVSPropertyOp12
 70
     1
102
RTVSPropertyOp13
 70
     1
102
RTVSPropertyOp14
 70
     1
102
RTVSPropertyOp15
 70
     1
102
RTVSPropertyOp16
 70
     1
102
RTVSPropertyOp17
 70
     1
102
RTVSPropertyOp18
 70
     1
102
RTVSPropertyOp19
 70
     1
102
RTVSPropertyOp20
 70
     1
102
RTVSPropertyOp21
 70
     1
102
RTVSPropertyOp22
 70
     1
102
RTVSPropertyOp23
 70
     1
102
RTVSPropertyOp24
 70
     1
102
RTVSPropertyOp25
 70
     1
102
RTVSPropertyOp26
 70
     1
102
RTVSPropertyOp27
 70
     1
102
RTVSPropertyOp28
 70
     1
102
RTVSPropertyOp29
 70
     1
102
RTVSPropertyOp30
 70
     1
102
RTVSPropertyOp31
 70
     1
102
RTVSPropertyOp32
 70
     1
102
RTVSPropertyOp33
 70
     1
102
RTVSPropertyOp34
 70
     1
102
RTVSPropertyOp35
 70
     1
102
RTVSPropertyOp36
 70
     1
102
RTVSPropertyOp37
 70
     1
102
RTVSPropertyOp38
 70
     1
102
RTVSPropertyOp39
 70
     1
102
RTVSPropertyOp40
 70
     1
102
RTVSPropertyOp41
 70
     1
102
RTVSPropertyOp42
 70
     1
102
RTVSPropertyOp43
 70
     1
102
RTVSPropertyOp44
 70
     1
102
RTVSPropertyOp45
 70
     1
102
RTVSPropertyOp46
 70
     1
102
RTVSPropertyOp47
 70
     1
102
RTVSPropertyOp48
 70
     1
102
RTVSPropertyOp49
 70
     1
102
RTVSPropertyOp50
 70
     1
102
RTVSPropertyOp51
 70
     0
102
RTVSPropertyOp52
 70
     0
102
RTVSPropertyOp53
 70
     1
102
RTVSPropertyOp54
 70
     1
102
RTVSPropertyOp55
 70
     1
102
RTVSPropertyOp56
 70
     1
102
RTVSPropertyOp57
 70
     1
102
RTVSPropertyOp58
 70
     1
102
RTVSPropertyOp59
 70
     1
102
RTVSPropertyOp60
 70
     1
102
RTVSPropertyOp61
 70
     1
102
RTVSPropertyOp62
 70
     1
  0
XRECORD
  5
3D5
102
{ACAD_REACTORS
330
3D4
102
}
330
3D4
100
AcDbXrecord
280
     1
102
RTVSPost2010Prop28
280
     0
102
RTVSPost2010PropOp28
 70
     0
102
RTVSPost2010Prop29
280
     1
102
RTVSPost2010PropOp29
 70
     0
102
RTVSPost2010Prop30
280
     1
102
RTVSPost2010PropOp30
 70
     0
102
RTVSPost2010Prop31
280
     0
102
RTVSPost2010PropOp31
 70
     0
102
RTVSPost2010Prop32
280
     0
102
RTVSPost2010PropOp32
 70
     0
102
RTVSPost2010Prop33
280
     0
102
RTVSPost2010PropOp33
 70
     0
102
RTVSPost2010Prop34
280
     0
102
RTVSPost2010PropOp34
 70
     0
102
RTVSPost2010Prop35
280
     0
102
RTVSPost2010PropOp35
 70
     0
102
RTVSPost2010Prop36
280
     0
102
RTVSPost2010PropOp36
 70
     0
102
RTVSPost2010Prop37
 90
       50
102
RTVSPost2010PropOp37
 70
     0
102
RTVSPost2010Prop38
140
0.0
102
RTVSPost2010PropOp38
 70
     0
102
RTVSPost2010Prop39
140
1.0
102
RTVSPost2010PropOp39
 70
     0
102
RTVSPost2010Prop40
 90
        0
102
RTVSPost2010PropOp40
 70
     0
102
RTVSPost2010Prop41ColorIndex
 90
       18
102
RTVSPost2010Prop41ColorRGB
 90
        0
102
RTVSPost2010PropOp41
 70
     0
102
RTVSPost2010Prop42
 90
       50
102
RTVSPost2010PropOp42
 70
     0
102
RTVSPost2010Prop43
 90
        3
102
RTVSPost2010PropOp43
 70
     0
102
RTVSPost2010Prop44ColorIndex
 90
        5
102
RTVSPost2010Prop44ColorRGB
 90
      255
102
RTVSPost2010PropOp44
 70
     0
102
RTVSPost2010Prop45
280
     0
102
RTVSPost2010PropOp45
 70
     0
102
RTVSPost2010Prop46
 90
       50
102
RTVSPost2010PropOp46
 70
     0
102
RTVSPost2010Prop47
 90
       50
102
RTVSPost2010PropOp47
 70
     0
102
RTVSPost2010Prop48
 90
       50
102
RTVSPost2010PropOp48
 70
     0
102
RTVSPost2010Prop49
280
     0
102
RTVSPost2010PropOp49
 70
     0
102
RTVSPost2010Prop50
 90
       50
102
RTVSPost2010PropOp50
 70
     0
102
RTVSPost2010Prop51ColorIndex
 90
      256
102
RTVSPost2010Prop51ColorRGB
 90
-16777216
102
RTVSPost2010PropOp51
 70
     0
102
RTVSPost2010Prop52
140
1.0
102
RTVSPost2010PropOp52
 70
     0
102
RTVSPost2010Prop53
 90
        2
102
RTVSPost2010PropOp53
 70
     0
102
RTVSPost2010Prop54
  1
strokes_ogs.tif
102
RTVSPost2010PropOp54
 70
     0
102
RTVSPost2010Prop55
280
     0
102
RTVSPost2010PropOp55
 70
     0
102
RTVSPost2010Prop56
140
1.0
102
RTVSPost2010PropOp56
 70
     0
102
RTVSPost2010Prop57
140
1.0
102
RTVSPost2010PropOp57
 70
     0
102
RTVSPropertyOp0
 70
     0
102
RTVSPropertyOp1
 70
     0
102
RTVSPropertyOp2
 70
     0
102
RTVSPropertyOp3
 70
     0
102
RTVSPropertyOp4
 70
     0
102
RTVSPropertyOp5
 70
     0
102
RTVSPropertyOp6
 70
     0
102
RTVSPropertyOp7
 70
     0
102
RTVSPropertyOp8
 70
     0
102
RTVSPropertyOp9
 70
     0
102
RTVSPropertyOp10
 70
     0
102
RTVSPropertyOp11
 70
     0
102
RTVSPropertyOp12
 70
     0
102
RTVSPropertyOp13
 70
     0
102
RTVSPropertyOp14
 70
     2
102
RTVSPropertyOp15
 70
     0
102
RTVSPropertyOp16
 70
     0
102
RTVSPropertyOp17
 70
     0
102
RTVSPropertyOp18
 70
     0
102
RTVSPropertyOp19
 70
     0
102
RTVSPropertyOp20
 70
     0
102
RTVSPropertyOp21
 70
     0
102
RTVSPropertyOp22
 70
     0
102
RTVSPropertyOp23
 70
     0
102
RTVSPropertyOp24
 70
     0
102
RTVSPropertyOp25
 70
     0
102
RTVSPropertyOp26
 70
     0
102
RTVSPropertyOp27
 70
     0
102
RTVSPropertyOp28
 70
     0
102
RTVSPropertyOp29
 70
     0
102
RTVSPropertyOp30
 70
     0
102
RTVSPropertyOp31
 70
     0
102
RTVSPropertyOp32
 70
     0
102
RTVSPropertyOp33
 70
     0
102
RTVSPropertyOp34
 70
     0
102
RTVSPropertyOp35
 70
     0
102
RTVSPropertyOp36
 70
     0
102
RTVSPropertyOp37
 70
     0
102
RTVSPropertyOp38
 70
     0
102
RTVSPropertyOp39
 70
     0
102
RTVSPropertyOp40
 70
     0
102
RTVSPropertyOp41
 70
     0
102
RTVSPropertyOp42
 70
     0
102
RTVSPropertyOp43
 70
     0
102
RTVSPropertyOp44
 70
     0
102
RTVSPropertyOp45
 70
     0
102
RTVSPropertyOp46
 70
     0
102
RTVSPropertyOp47
 70
     0
102
RTVSPropertyOp48
 70
     0
102
RTVSPropertyOp49
 70
     0
102
RTVSPropertyOp50
 70
     0
102
RTVSPropertyOp51
 70
     0
102
RTVSPropertyOp52
 70
     0
102
RTVSPropertyOp53
 70
     0
102
RTVSPropertyOp54
 70
     0
102
RTVSPropertyOp55
 70
     0
102
RTVSPropertyOp56
 70
     0
102
RTVSPropertyOp57
 70
     0
102
RTVSPropertyOp58
 70
     1
102
RTVSPropertyOp59
 70
     1
102
RTVSPropertyOp60
 70
     1
102
RTVSPropertyOp61
 70
     1
102
RTVSPropertyOp62
 70
     1
  0
XRECORD
  5
3CF
102
{ACAD_REACTORS
330
3CE
102
}
330
3CE
100
AcDbXrecord
280
     1
102
RTVSPost2010Prop28
280
     0
102
RTVSPost2010PropOp28
 70
     1
102
RTVSPost2010Prop29
280
     1
102
RTVSPost2010PropOp29
 70
     1
102
RTVSPost2010Prop30
280
     1
102
RTVSPost2010PropOp30
 70
     1
102
RTVSPost2010Prop31
280
     0
102
RTVSPost2010PropOp31
 70
     1
102
RTVSPost2010Prop32
280
     0
102
RTVSPost2010PropOp32
 70
     1
102
RTVSPost2010Prop33
280
     0
102
RTVSPost2010PropOp33
 70
     1
102
RTVSPost2010Prop34
280
     0
102
RTVSPost2010PropOp34
 70
     1
102
RTVSPost2010Prop35
280
     0
102
RTVSPost2010PropOp35
 70
     1
102
RTVSPost2010Prop36
280
     0
102
RTVSPost2010PropOp36
 70
     1
102
RTVSPost2010Prop37
 90
       50
102
RTVSPost2010PropOp37
 70
     1
102
RTVSPost2010Prop38
140
0.0
102
RTVSPost2010PropOp38
 70
     1
102
RTVSPost2010Prop39
140
1.0
102
RTVSPost2010PropOp39
 70
     1
102
RTVSPost2010Prop40
 90
        0
102
RTVSPost2010PropOp40
 70
     1
102
RTVSPost2010Prop41ColorIndex
 90
       18
102
RTVSPost2010Prop41ColorRGB
 90
        0
102
RTVSPost2010PropOp41
 70
     1
102
RTVSPost2010Prop42
 90
       50
102
RTVSPost2010PropOp42
 70
     1
102
RTVSPost2010Prop43
 90
        3
102
RTVSPost2010PropOp43
 70
     1
102
RTVSPost2010Prop44ColorIndex
 90
        5
102
RTVSPost2010Prop44ColorRGB
 90
      255
102
RTVSPost2010PropOp44
 70
     1
102
RTVSPost2010Prop45
280
     0
102
RTVSPost2010PropOp45
 70
     1
102
RTVSPost2010Prop46
 90
       50
102
RTVSPost2010PropOp46
 70
     1
102
RTVSPost2010Prop47
 90
       50
102
RTVSPost2010PropOp47
 70
     1
102
RTVSPost2010Prop48
 90
       50
102
RTVSPost2010PropOp48
 70
     1
102
RTVSPost2010Prop49
280
     0
102
RTVSPost2010PropOp49
 70
     1
102
RTVSPost2010Prop50
 90
       50
102
RTVSPost2010PropOp50
 70
     1
102
RTVSPost2010Prop51ColorIndex
 90
      256
102
RTVSPost2010Prop51ColorRGB
 90
-16777216
102
RTVSPost2010PropOp51
 70
     0
102
RTVSPost2010Prop52
140
1.0
102
RTVSPost2010PropOp52
 70
     0
102
RTVSPost2010Prop53
 90
        2
102
RTVSPost2010PropOp53
 70
     1
102
RTVSPost2010Prop54
  1
strokes_ogs.tif
102
RTVSPost2010PropOp54
 70
     1
102
RTVSPost2010Prop55
280
     0
102
RTVSPost2010PropOp55
 70
     1
102
RTVSPost2010Prop56
140
1.0
102
RTVSPost2010PropOp56
 70
     1
102
RTVSPost2010Prop57
140
1.0
102
RTVSPost2010PropOp57
 70
     1
102
RTVSPropertyOp0
 70
     1
102
RTVSPropertyOp1
 70
     1
102
RTVSPropertyOp2
 70
     1
102
RTVSPropertyOp3
 70
     1
102
RTVSPropertyOp4
 70
     1
102
RTVSPropertyOp5
 70
     1
102
RTVSPropertyOp6
 70
     1
102
RTVSPropertyOp7
 70
     1
102
RTVSPropertyOp8
 70
     1
102
RTVSPropertyOp9
 70
     1
102
RTVSPropertyOp10
 70
     1
102
RTVSPropertyOp11
 70
     1
102
RTVSPropertyOp12
 70
     1
102
RTVSPropertyOp13
 70
     1
102
RTVSPropertyOp14
 70
     1
102
RTVSPropertyOp15
 70
     1
102
RTVSPropertyOp16
 70
     1
102
RTVSPropertyOp17
 70
     1
102
RTVSPropertyOp18
 70
     1
102
RTVSPropertyOp19
 70
     1
102
RTVSPropertyOp20
 70
     1
102
RTVSPropertyOp21
 70
     1
102
RTVSPropertyOp22
 70
     1
102
RTVSPropertyOp23
 70
     1
102
RTVSPropertyOp24
 70
     1
102
RTVSPropertyOp25
 70
     1
102
RTVSPropertyOp26
 70
     1
102
RTVSPropertyOp27
 70
     1
102
RTVSPropertyOp28
 70
     1
102
RTVSPropertyOp29
 70
     1
102
RTVSPropertyOp30
 70
     1
102
RTVSPropertyOp31
 70
     1
102
RTVSPropertyOp32
 70
     1
102
RTVSPropertyOp33
 70
     1
102
RTVSPropertyOp34
 70
     1
102
RTVSPropertyOp35
 70
     1
102
RTVSPropertyOp36
 70
     1
102
RTVSPropertyOp37
 70
     1
102
RTVSPropertyOp38
 70
     1
102
RTVSPropertyOp39
 70
     1
102
RTVSPropertyOp40
 70
     1
102
RTVSPropertyOp41
 70
     1
102
RTVSPropertyOp42
 70
     1
102
RTVSPropertyOp43
 70
     1
102
RTVSPropertyOp44
 70
     1
102
RTVSPropertyOp45
 70
     1
102
RTVSPropertyOp46
 70
     1
102
RTVSPropertyOp47
 70
     1
102
RTVSPropertyOp48
 70
     1
102
RTVSPropertyOp49
 70
     1
102
RTVSPropertyOp50
 70
     1
102
RTVSPropertyOp51
 70
     0
102
RTVSPropertyOp52
 70
     0
102
RTVSPropertyOp53
 70
     1
102
RTVSPropertyOp54
 70
     1
102
RTVSPropertyOp55
 70
     1
102
RTVSPropertyOp56
 70
     1
102
RTVSPropertyOp57
 70
     1
102
RTVSPropertyOp58
 70
     1
102
RTVSPropertyOp59
 70
     1
102
RTVSPropertyOp60
 70
     1
102
RTVSPropertyOp61
 70
     1
102
RTVSPropertyOp62
 70
     1
  0
XRECORD
  5
3D7
102
{ACAD_REACTORS
330
3D6
102
}
330
3D6
100
AcDbXrecord
280
     1
102
RTVSPost2010Prop28
280
     0
102
RTVSPost2010PropOp28
 70
     0
102
RTVSPost2010Prop29
280
     1
102
RTVSPost2010PropOp29
 70
     0
102
RTVSPost2010Prop30
280
     1
102
RTVSPost2010PropOp30
 70
     0
102
RTVSPost2010Prop31
280
     0
102
RTVSPost2010PropOp31
 70
     0
102
RTVSPost2010Prop32
280
     0
102
RTVSPost2010PropOp32
 70
     0
102
RTVSPost2010Prop33
280
     0
102
RTVSPost2010PropOp33
 70
     0
102
RTVSPost2010Prop34
280
     0
102
RTVSPost2010PropOp34
 70
     0
102
RTVSPost2010Prop35
280
     0
102
RTVSPost2010PropOp35
 70
     0
102
RTVSPost2010Prop36
280
     0
102
RTVSPost2010PropOp36
 70
     0
102
RTVSPost2010Prop37
 90
       50
102
RTVSPost2010PropOp37
 70
     0
102
RTVSPost2010Prop38
140
0.0
102
RTVSPost2010PropOp38
 70
     0
102
RTVSPost2010Prop39
140
1.0
102
RTVSPost2010PropOp39
 70
     0
102
RTVSPost2010Prop40
 90
        0
102
RTVSPost2010PropOp40
 70
     0
102
RTVSPost2010Prop41ColorIndex
 90
       18
102
RTVSPost2010Prop41ColorRGB
 90
        0
102
RTVSPost2010PropOp41
 70
     0
102
RTVSPost2010Prop42
 90
       50
102
RTVSPost2010PropOp42
 70
     0
102
RTVSPost2010Prop43
 90
        3
102
RTVSPost2010PropOp43
 70
     0
102
RTVSPost2010Prop44ColorIndex
 90
        5
102
RTVSPost2010Prop44ColorRGB
 90
      255
102
RTVSPost2010PropOp44
 70
     0
102
RTVSPost2010Prop45
280
     0
102
RTVSPost2010PropOp45
 70
     0
102
RTVSPost2010Prop46
 90
       50
102
RTVSPost2010PropOp46
 70
     0
102
RTVSPost2010Prop47
 90
       50
102
RTVSPost2010PropOp47
 70
     0
102
RTVSPost2010Prop48
 90
       50
102
RTVSPost2010PropOp48
 70
     0
102
RTVSPost2010Prop49
280
     0
102
RTVSPost2010PropOp49
 70
     0
102
RTVSPost2010Prop50
 90
       50
102
RTVSPost2010PropOp50
 70
     0
102
RTVSPost2010Prop51ColorIndex
 90
      256
102
RTVSPost2010Prop51ColorRGB
 90
-16777216
102
RTVSPost2010PropOp51
 70
     0
102
RTVSPost2010Prop52
140
1.0
102
RTVSPost2010PropOp52
 70
     0
102
RTVSPost2010Prop53
 90
        2
102
RTVSPost2010PropOp53
 70
     0
102
RTVSPost2010Prop54
  1
strokes_ogs.tif
102
RTVSPost2010PropOp54
 70
     0
102
RTVSPost2010Prop55
280
     0
102
RTVSPost2010PropOp55
 70
     0
102
RTVSPost2010Prop56
140
1.0
102
RTVSPost2010PropOp56
 70
     0
102
RTVSPost2010Prop57
140
1.0
102
RTVSPost2010PropOp57
 70
     0
102
RTVSPropertyOp0
 70
     0
102
RTVSPropertyOp1
 70
     0
102
RTVSPropertyOp2
 70
     0
102
RTVSPropertyOp3
 70
     0
102
RTVSPropertyOp4
 70
     0
102
RTVSPropertyOp5
 70
     0
102
RTVSPropertyOp6
 70
     0
102
RTVSPropertyOp7
 70
     0
102
RTVSPropertyOp8
 70
     0
102
RTVSPropertyOp9
 70
     0
102
RTVSPropertyOp10
 70
     0
102
RTVSPropertyOp11
 70
     0
102
RTVSPropertyOp12
 70
     0
102
RTVSPropertyOp13
 70
     0
102
RTVSPropertyOp14
 70
     2
102
RTVSPropertyOp15
 70
     0
102
RTVSPropertyOp16
 70
     0
102
RTVSPropertyOp17
 70
     0
102
RTVSPropertyOp18
 70
     0
102
RTVSPropertyOp19
 70
     0
102
RTVSPropertyOp20
 70
     0
102
RTVSPropertyOp21
 70
     0
102
RTVSPropertyOp22
 70
     0
102
RTVSPropertyOp23
 70
     0
102
RTVSPropertyOp24
 70
     0
102
RTVSPropertyOp25
 70
     0
102
RTVSPropertyOp26
 70
     0
102
RTVSPropertyOp27
 70
     0
102
RTVSPropertyOp28
 70
     0
102
RTVSPropertyOp29
 70
     0
102
RTVSPropertyOp30
 70
     0
102
RTVSPropertyOp31
 70
     0
102
RTVSPropertyOp32
 70
     0
102
RTVSPropertyOp33
 70
     0
102
RTVSPropertyOp34
 70
     0
102
RTVSPropertyOp35
 70
     0
102
RTVSPropertyOp36
 70
     0
102
RTVSPropertyOp37
 70
     0
102
RTVSPropertyOp38
 70
     0
102
RTVSPropertyOp39
 70
     0
102
RTVSPropertyOp40
 70
     0
102
RTVSPropertyOp41
 70
     0
102
RTVSPropertyOp42
 70
     0
102
RTVSPropertyOp43
 70
     0
102
RTVSPropertyOp44
 70
     0
102
RTVSPropertyOp45
 70
     0
102
RTVSPropertyOp46
 70
     0
102
RTVSPropertyOp47
 70
     0
102
RTVSPropertyOp48
 70
     0
102
RTVSPropertyOp49
 70
     0
102
RTVSPropertyOp50
 70
     0
102
RTVSPropertyOp51
 70
     0
102
RTVSPropertyOp52
 70
     0
102
RTVSPropertyOp53
 70
     0
102
RTVSPropertyOp54
 70
     0
102
RTVSPropertyOp55
 70
     0
102
RTVSPropertyOp56
 70
     0
102
RTVSPropertyOp57
 70
     0
102
RTVSPropertyOp58
 70
     1
102
RTVSPropertyOp59
 70
     1
102
RTVSPropertyOp60
 70
     1
102
RTVSPropertyOp61
 70
     1
102
RTVSPropertyOp62
 70
     1
  0
XRECORD
  5
3C5
102
{ACAD_REACTORS
330
3C4
102
}
330
3C4
100
AcDbXrecord
280
     1
102
RTVSPost2010Prop28
280
     0
102
RTVSPost2010PropOp28
 70
     1
102
RTVSPost2010Prop29
280
     1
102
RTVSPost2010PropOp29
 70
     1
102
RTVSPost2010Prop30
280
     1
102
RTVSPost2010PropOp30
 70
     1
102
RTVSPost2010Prop31
280
     0
102
RTVSPost2010PropOp31
 70
     1
102
RTVSPost2010Prop32
280
     0
102
RTVSPost2010PropOp32
 70
     1
102
RTVSPost2010Prop33
280
     0
102
RTVSPost2010PropOp33
 70
     1
102
RTVSPost2010Prop34
280
     0
102
RTVSPost2010PropOp34
 70
     1
102
RTVSPost2010Prop35
280
     0
102
RTVSPost2010PropOp35
 70
     1
102
RTVSPost2010Prop36
280
     0
102
RTVSPost2010PropOp36
 70
     1
102
RTVSPost2010Prop37
 90
       50
102
RTVSPost2010PropOp37
 70
     1
102
RTVSPost2010Prop38
140
0.0
102
RTVSPost2010PropOp38
 70
     1
102
RTVSPost2010Prop39
140
1.0
102
RTVSPost2010PropOp39
 70
     1
102
RTVSPost2010Prop40
 90
        0
102
RTVSPost2010PropOp40
 70
     1
102
RTVSPost2010Prop41ColorIndex
 90
       18
102
RTVSPost2010Prop41ColorRGB
 90
        0
102
RTVSPost2010PropOp41
 70
     1
102
RTVSPost2010Prop42
 90
       50
102
RTVSPost2010PropOp42
 70
     1
102
RTVSPost2010Prop43
 90
        3
102
RTVSPost2010PropOp43
 70
     1
102
RTVSPost2010Prop44ColorIndex
 90
        5
102
RTVSPost2010Prop44ColorRGB
 90
      255
102
RTVSPost2010PropOp44
 70
     1
102
RTVSPost2010Prop45
280
     0
102
RTVSPost2010PropOp45
 70
     1
102
RTVSPost2010Prop46
 90
       50
102
RTVSPost2010PropOp46
 70
     1
102
RTVSPost2010Prop47
 90
       50
102
RTVSPost2010PropOp47
 70
     1
102
RTVSPost2010Prop48
 90
       50
102
RTVSPost2010PropOp48
 70
     1
102
RTVSPost2010Prop49
280
     0
102
RTVSPost2010PropOp49
 70
     1
102
RTVSPost2010Prop50
 90
       50
102
RTVSPost2010PropOp50
 70
     1
102
RTVSPost2010Prop51ColorIndex
 90
      256
102
RTVSPost2010Prop51ColorRGB
 90
-16777216
102
RTVSPost2010PropOp51
 70
     0
102
RTVSPost2010Prop52
140
1.0
102
RTVSPost2010PropOp52
 70
     0
102
RTVSPost2010Prop53
 90
        2
102
RTVSPost2010PropOp53
 70
     1
102
RTVSPost2010Prop54
  1
strokes_ogs.tif
102
RTVSPost2010PropOp54
 70
     1
102
RTVSPost2010Prop55
280
     0
102
RTVSPost2010PropOp55
 70
     1
102
RTVSPost2010Prop56
140
1.0
102
RTVSPost2010PropOp56
 70
     1
102
RTVSPost2010Prop57
140
1.0
102
RTVSPost2010PropOp57
 70
     1
102
RTVSPropertyOp0
 70
     1
102
RTVSPropertyOp1
 70
     1
102
RTVSPropertyOp2
 70
     1
102
RTVSPropertyOp3
 70
     1
102
RTVSPropertyOp4
 70
     1
102
RTVSPropertyOp5
 70
     1
102
RTVSPropertyOp6
 70
     1
102
RTVSPropertyOp7
 70
     1
102
RTVSPropertyOp8
 70
     1
102
RTVSPropertyOp9
 70
     1
102
RTVSPropertyOp10
 70
     1
102
RTVSPropertyOp11
 70
     1
102
RTVSPropertyOp12
 70
     1
102
RTVSPropertyOp13
 70
     1
102
RTVSPropertyOp14
 70
     1
102
RTVSPropertyOp15
 70
     1
102
RTVSPropertyOp16
 70
     1
102
RTVSPropertyOp17
 70
     1
102
RTVSPropertyOp18
 70
     1
102
RTVSPropertyOp19
 70
     1
102
RTVSPropertyOp20
 70
     1
102
RTVSPropertyOp21
 70
     1
102
RTVSPropertyOp22
 70
     1
102
RTVSPropertyOp23
 70
     1
102
RTVSPropertyOp24
 70
     1
102
RTVSPropertyOp25
 70
     1
102
RTVSPropertyOp26
 70
     1
102
RTVSPropertyOp27
 70
     1
102
RTVSPropertyOp28
 70
     1
102
RTVSPropertyOp29
 70
     1
102
RTVSPropertyOp30
 70
     1
102
RTVSPropertyOp31
 70
     1
102
RTVSPropertyOp32
 70
     1
102
RTVSPropertyOp33
 70
     1
102
RTVSPropertyOp34
 70
     1
102
RTVSPropertyOp35
 70
     1
102
RTVSPropertyOp36
 70
     1
102
RTVSPropertyOp37
 70
     1
102
RTVSPropertyOp38
 70
     1
102
RTVSPropertyOp39
 70
     1
102
RTVSPropertyOp40
 70
     1
102
RTVSPropertyOp41
 70
     1
102
RTVSPropertyOp42
 70
     1
102
RTVSPropertyOp43
 70
     1
102
RTVSPropertyOp44
 70
     1
102
RTVSPropertyOp45
 70
     1
102
RTVSPropertyOp46
 70
     1
102
RTVSPropertyOp47
 70
     1
102
RTVSPropertyOp48
 70
     1
102
RTVSPropertyOp49
 70
     1
102
RTVSPropertyOp50
 70
     1
102
RTVSPropertyOp51
 70
     0
102
RTVSPropertyOp52
 70
     0
102
RTVSPropertyOp53
 70
     1
102
RTVSPropertyOp54
 70
     1
102
RTVSPropertyOp55
 70
     1
102
RTVSPropertyOp56
 70
     1
102
RTVSPropertyOp57
 70
     1
102
RTVSPropertyOp58
 70
     1
102
RTVSPropertyOp59
 70
     1
102
RTVSPropertyOp60
 70
     1
102
RTVSPropertyOp61
 70
     1
102
RTVSPropertyOp62
 70
     1
  0
XRECORD
  5
3E3
102
{ACAD_REACTORS
330
3E2
102
}
330
3E2
100
AcDbXrecord
280
     1
102
RTVSPost2010Prop28
280
     0
102
RTVSPost2010PropOp28
 70
     1
102
RTVSPost2010Prop29
280
     1
102
RTVSPost2010PropOp29
 70
     1
102
RTVSPost2010Prop30
280
     1
102
RTVSPost2010PropOp30
 70
     1
102
RTVSPost2010Prop31
280
     0
102
RTVSPost2010PropOp31
 70
     1
102
RTVSPost2010Prop32
280
     0
102
RTVSPost2010PropOp32
 70
     1
102
RTVSPost2010Prop33
280
     0
102
RTVSPost2010PropOp33
 70
     1
102
RTVSPost2010Prop34
280
     0
102
RTVSPost2010PropOp34
 70
     1
102
RTVSPost2010Prop35
280
     0
102
RTVSPost2010PropOp35
 70
     1
102
RTVSPost2010Prop36
280
     0
102
RTVSPost2010PropOp36
 70
     1
102
RTVSPost2010Prop37
 90
       50
102
RTVSPost2010PropOp37
 70
     1
102
RTVSPost2010Prop38
140
0.0
102
RTVSPost2010PropOp38
 70
     1
102
RTVSPost2010Prop39
140
1.0
102
RTVSPost2010PropOp39
 70
     1
102
RTVSPost2010Prop40
 90
        0
102
RTVSPost2010PropOp40
 70
     1
102
RTVSPost2010Prop41ColorIndex
 90
       18
102
RTVSPost2010Prop41ColorRGB
 90
        0
102
RTVSPost2010PropOp41
 70
     1
102
RTVSPost2010Prop42
 90
       50
102
RTVSPost2010PropOp42
 70
     1
102
RTVSPost2010Prop43
 90
        3
102
RTVSPost2010PropOp43
 70
     1
102
RTVSPost2010Prop44ColorIndex
 90
        5
102
RTVSPost2010Prop44ColorRGB
 90
      255
102
RTVSPost2010PropOp44
 70
     1
102
RTVSPost2010Prop45
280
     0
102
RTVSPost2010PropOp45
 70
     1
102
RTVSPost2010Prop46
 90
       50
102
RTVSPost2010PropOp46
 70
     1
102
RTVSPost2010Prop47
 90
       50
102
RTVSPost2010PropOp47
 70
     1
102
RTVSPost2010Prop48
 90
       50
102
RTVSPost2010PropOp48
 70
     1
102
RTVSPost2010Prop49
280
     0
102
RTVSPost2010PropOp49
 70
     1
102
RTVSPost2010Prop50
 90
       50
102
RTVSPost2010PropOp50
 70
     1
102
RTVSPost2010Prop51ColorIndex
 90
      256
102
RTVSPost2010Prop51ColorRGB
 90
-16777216
102
RTVSPost2010PropOp51
 70
     0
102
RTVSPost2010Prop52
140
1.0
102
RTVSPost2010PropOp52
 70
     0
102
RTVSPost2010Prop53
 90
        2
102
RTVSPost2010PropOp53
 70
     1
102
RTVSPost2010Prop54
  1
strokes_ogs.tif
102
RTVSPost2010PropOp54
 70
     1
102
RTVSPost2010Prop55
280
     0
102
RTVSPost2010PropOp55
 70
     1
102
RTVSPost2010Prop56
140
1.0
102
RTVSPost2010PropOp56
 70
     1
102
RTVSPost2010Prop57
140
1.0
102
RTVSPost2010PropOp57
 70
     1
102
RTVSPropertyOp0
 70
     1
102
RTVSPropertyOp1
 70
     1
102
RTVSPropertyOp2
 70
     1
102
RTVSPropertyOp3
 70
     1
102
RTVSPropertyOp4
 70
     1
102
RTVSPropertyOp5
 70
     1
102
RTVSPropertyOp6
 70
     1
102
RTVSPropertyOp7
 70
     1
102
RTVSPropertyOp8
 70
     1
102
RTVSPropertyOp9
 70
     1
102
RTVSPropertyOp10
 70
     1
102
RTVSPropertyOp11
 70
     1
102
RTVSPropertyOp12
 70
     1
102
RTVSPropertyOp13
 70
     1
102
RTVSPropertyOp14
 70
     1
102
RTVSPropertyOp15
 70
     1
102
RTVSPropertyOp16
 70
     1
102
RTVSPropertyOp17
 70
     1
102
RTVSPropertyOp18
 70
     1
102
RTVSPropertyOp19
 70
     1
102
RTVSPropertyOp20
 70
     1
102
RTVSPropertyOp21
 70
     1
102
RTVSPropertyOp22
 70
     1
102
RTVSPropertyOp23
 70
     1
102
RTVSPropertyOp24
 70
     1
102
RTVSPropertyOp25
 70
     1
102
RTVSPropertyOp26
 70
     1
102
RTVSPropertyOp27
 70
     1
102
RTVSPropertyOp28
 70
     1
102
RTVSPropertyOp29
 70
     1
102
RTVSPropertyOp30
 70
     1
102
RTVSPropertyOp31
 70
     1
102
RTVSPropertyOp32
 70
     1
102
RTVSPropertyOp33
 70
     1
102
RTVSPropertyOp34
 70
     1
102
RTVSPropertyOp35
 70
     1
102
RTVSPropertyOp36
 70
     1
102
RTVSPropertyOp37
 70
     1
102
RTVSPropertyOp38
 70
     1
102
RTVSPropertyOp39
 70
     1
102
RTVSPropertyOp40
 70
     1
102
RTVSPropertyOp41
 70
     1
102
RTVSPropertyOp42
 70
     1
102
RTVSPropertyOp43
 70
     1
102
RTVSPropertyOp44
 70
     1
102
RTVSPropertyOp45
 70
     1
102
RTVSPropertyOp46
 70
     1
102
RTVSPropertyOp47
 70
     1
102
RTVSPropertyOp48
 70
     1
102
RTVSPropertyOp49
 70
     1
102
RTVSPropertyOp50
 70
     1
102
RTVSPropertyOp51
 70
     0
102
RTVSPropertyOp52
 70
     0
102
RTVSPropertyOp53
 70
     1
102
RTVSPropertyOp54
 70
     1
102
RTVSPropertyOp55
 70
     1
102
RTVSPropertyOp56
 70
     1
102
RTVSPropertyOp57
 70
     1
102
RTVSPropertyOp58
 70
     1
102
RTVSPropertyOp59
 70
     1
102
RTVSPropertyOp60
 70
     1
102
RTVSPropertyOp61
 70
     1
102
RTVSPropertyOp62
 70
     1
  0
XRECORD
  5
3E1
102
{ACAD_REACTORS
330
3E0
102
}
330
3E0
100
AcDbXrecord
280
     1
102
RTVSPost2010Prop28
280
     0
102
RTVSPost2010PropOp28
 70
     1
102
RTVSPost2010Prop29
280
     1
102
RTVSPost2010PropOp29
 70
     1
102
RTVSPost2010Prop30
280
     1
102
RTVSPost2010PropOp30
 70
     1
102
RTVSPost2010Prop31
280
     0
102
RTVSPost2010PropOp31
 70
     1
102
RTVSPost2010Prop32
280
     0
102
RTVSPost2010PropOp32
 70
     1
102
RTVSPost2010Prop33
280
     0
102
RTVSPost2010PropOp33
 70
     1
102
RTVSPost2010Prop34
280
     0
102
RTVSPost2010PropOp34
 70
     1
102
RTVSPost2010Prop35
280
     0
102
RTVSPost2010PropOp35
 70
     1
102
RTVSPost2010Prop36
280
     0
102
RTVSPost2010PropOp36
 70
     1
102
RTVSPost2010Prop37
 90
       50
102
RTVSPost2010PropOp37
 70
     1
102
RTVSPost2010Prop38
140
0.0
102
RTVSPost2010PropOp38
 70
     1
102
RTVSPost2010Prop39
140
1.0
102
RTVSPost2010PropOp39
 70
     1
102
RTVSPost2010Prop40
 90
        0
102
RTVSPost2010PropOp40
 70
     1
102
RTVSPost2010Prop41ColorIndex
 90
       18
102
RTVSPost2010Prop41ColorRGB
 90
        0
102
RTVSPost2010PropOp41
 70
     1
102
RTVSPost2010Prop42
 90
       50
102
RTVSPost2010PropOp42
 70
     1
102
RTVSPost2010Prop43
 90
        3
102
RTVSPost2010PropOp43
 70
     1
102
RTVSPost2010Prop44ColorIndex
 90
        5
102
RTVSPost2010Prop44ColorRGB
 90
      255
102
RTVSPost2010PropOp44
 70
     1
102
RTVSPost2010Prop45
280
     0
102
RTVSPost2010PropOp45
 70
     1
102
RTVSPost2010Prop46
 90
       50
102
RTVSPost2010PropOp46
 70
     1
102
RTVSPost2010Prop47
 90
       50
102
RTVSPost2010PropOp47
 70
     1
102
RTVSPost2010Prop48
 90
       50
102
RTVSPost2010PropOp48
 70
     1
102
RTVSPost2010Prop49
280
     0
102
RTVSPost2010PropOp49
 70
     1
102
RTVSPost2010Prop50
 90
       50
102
RTVSPost2010PropOp50
 70
     1
102
RTVSPost2010Prop51ColorIndex
 90
      256
102
RTVSPost2010Prop51ColorRGB
 90
-16777216
102
RTVSPost2010PropOp51
 70
     0
102
RTVSPost2010Prop52
140
1.0
102
RTVSPost2010PropOp52
 70
     0
102
RTVSPost2010Prop53
 90
        2
102
RTVSPost2010PropOp53
 70
     1
102
RTVSPost2010Prop54
  1
strokes_ogs.tif
102
RTVSPost2010PropOp54
 70
     1
102
RTVSPost2010Prop55
280
     0
102
RTVSPost2010PropOp55
 70
     1
102
RTVSPost2010Prop56
140
1.0
102
RTVSPost2010PropOp56
 70
     1
102
RTVSPost2010Prop57
140
1.0
102
RTVSPost2010PropOp57
 70
     1
102
RTVSPropertyOp0
 70
     1
102
RTVSPropertyOp1
 70
     1
102
RTVSPropertyOp2
 70
     1
102
RTVSPropertyOp3
 70
     1
102
RTVSPropertyOp4
 70
     1
102
RTVSPropertyOp5
 70
     1
102
RTVSPropertyOp6
 70
     1
102
RTVSPropertyOp7
 70
     1
102
RTVSPropertyOp8
 70
     1
102
RTVSPropertyOp9
 70
     1
102
RTVSPropertyOp10
 70
     1
102
RTVSPropertyOp11
 70
     1
102
RTVSPropertyOp12
 70
     1
102
RTVSPropertyOp13
 70
     1
102
RTVSPropertyOp14
 70
     1
102
RTVSPropertyOp15
 70
     1
102
RTVSPropertyOp16
 70
     1
102
RTVSPropertyOp17
 70
     1
102
RTVSPropertyOp18
 70
     1
102
RTVSPropertyOp19
 70
     1
102
RTVSPropertyOp20
 70
     1
102
RTVSPropertyOp21
 70
     1
102
RTVSPropertyOp22
 70
     1
102
RTVSPropertyOp23
 70
     1
102
RTVSPropertyOp24
 70
     1
102
RTVSPropertyOp25
 70
     1
102
RTVSPropertyOp26
 70
     1
102
RTVSPropertyOp27
 70
     1
102
RTVSPropertyOp28
 70
     1
102
RTVSPropertyOp29
 70
     1
102
RTVSPropertyOp30
 70
     1
102
RTVSPropertyOp31
 70
     1
102
RTVSPropertyOp32
 70
     1
102
RTVSPropertyOp33
 70
     1
102
RTVSPropertyOp34
 70
     1
102
RTVSPropertyOp35
 70
     1
102
RTVSPropertyOp36
 70
     1
102
RTVSPropertyOp37
 70
     1
102
RTVSPropertyOp38
 70
     1
102
RTVSPropertyOp39
 70
     1
102
RTVSPropertyOp40
 70
     1
102
RTVSPropertyOp41
 70
     1
102
RTVSPropertyOp42
 70
     1
102
RTVSPropertyOp43
 70
     1
102
RTVSPropertyOp44
 70
     1
102
RTVSPropertyOp45
 70
     1
102
RTVSPropertyOp46
 70
     1
102
RTVSPropertyOp47
 70
     1
102
RTVSPropertyOp48
 70
     1
102
RTVSPropertyOp49
 70
     1
102
RTVSPropertyOp50
 70
     1
102
RTVSPropertyOp51
 70
     0
102
RTVSPropertyOp52
 70
     0
102
RTVSPropertyOp53
 70
     1
102
RTVSPropertyOp54
 70
     1
102
RTVSPropertyOp55
 70
     1
102
RTVSPropertyOp56
 70
     1
102
RTVSPropertyOp57
 70
     1
102
RTVSPropertyOp58
 70
     1
102
RTVSPropertyOp59
 70
     1
102
RTVSPropertyOp60
 70
     1
102
RTVSPropertyOp61
 70
     1
102
RTVSPropertyOp62
 70
     1
  0
XRECORD
  5
3DB
102
{ACAD_REACTORS
330
3DA
102
}
330
3DA
100
AcDbXrecord
280
     1
102
RTVSPost2010Prop28
280
     0
102
RTVSPost2010PropOp28
 70
     1
102
RTVSPost2010Prop29
280
     1
102
RTVSPost2010PropOp29
 70
     1
102
RTVSPost2010Prop30
280
     1
102
RTVSPost2010PropOp30
 70
     1
102
RTVSPost2010Prop31
280
     0
102
RTVSPost2010PropOp31
 70
     1
102
RTVSPost2010Prop32
280
     0
102
RTVSPost2010PropOp32
 70
     1
102
RTVSPost2010Prop33
280
     0
102
RTVSPost2010PropOp33
 70
     1
102
RTVSPost2010Prop34
280
     0
102
RTVSPost2010PropOp34
 70
     1
102
RTVSPost2010Prop35
280
     0
102
RTVSPost2010PropOp35
 70
     1
102
RTVSPost2010Prop36
280
     0
102
RTVSPost2010PropOp36
 70
     1
102
RTVSPost2010Prop37
 90
       50
102
RTVSPost2010PropOp37
 70
     1
102
RTVSPost2010Prop38
140
0.0
102
RTVSPost2010PropOp38
 70
     1
102
RTVSPost2010Prop39
140
1.0
102
RTVSPost2010PropOp39
 70
     1
102
RTVSPost2010Prop40
 90
        0
102
RTVSPost2010PropOp40
 70
     1
102
RTVSPost2010Prop41ColorIndex
 90
       18
102
RTVSPost2010Prop41ColorRGB
 90
        0
102
RTVSPost2010PropOp41
 70
     1
102
RTVSPost2010Prop42
 90
       50
102
RTVSPost2010PropOp42
 70
     1
102
RTVSPost2010Prop43
 90
        3
102
RTVSPost2010PropOp43
 70
     1
102
RTVSPost2010Prop44ColorIndex
 90
        5
102
RTVSPost2010Prop44ColorRGB
 90
      255
102
RTVSPost2010PropOp44
 70
     1
102
RTVSPost2010Prop45
280
     0
102
RTVSPost2010PropOp45
 70
     1
102
RTVSPost2010Prop46
 90
       50
102
RTVSPost2010PropOp46
 70
     1
102
RTVSPost2010Prop47
 90
       50
102
RTVSPost2010PropOp47
 70
     1
102
RTVSPost2010Prop48
 90
       50
102
RTVSPost2010PropOp48
 70
     1
102
RTVSPost2010Prop49
280
     0
102
RTVSPost2010PropOp49
 70
     1
102
RTVSPost2010Prop50
 90
       50
102
RTVSPost2010PropOp50
 70
     1
102
RTVSPost2010Prop51ColorIndex
 90
      256
102
RTVSPost2010Prop51ColorRGB
 90
-16777216
102
RTVSPost2010PropOp51
 70
     0
102
RTVSPost2010Prop52
140
1.0
102
RTVSPost2010PropOp52
 70
     0
102
RTVSPost2010Prop53
 90
        2
102
RTVSPost2010PropOp53
 70
     1
102
RTVSPost2010Prop54
  1
strokes_ogs.tif
102
RTVSPost2010PropOp54
 70
     1
102
RTVSPost2010Prop55
280
     0
102
RTVSPost2010PropOp55
 70
     1
102
RTVSPost2010Prop56
140
1.0
102
RTVSPost2010PropOp56
 70
     1
102
RTVSPost2010Prop57
140
1.0
102
RTVSPost2010PropOp57
 70
     1
102
RTVSPropertyOp0
 70
     1
102
RTVSPropertyOp1
 70
     1
102
RTVSPropertyOp2
 70
     1
102
RTVSPropertyOp3
 70
     1
102
RTVSPropertyOp4
 70
     1
102
RTVSPropertyOp5
 70
     1
102
RTVSPropertyOp6
 70
     1
102
RTVSPropertyOp7
 70
     1
102
RTVSPropertyOp8
 70
     1
102
RTVSPropertyOp9
 70
     1
102
RTVSPropertyOp10
 70
     1
102
RTVSPropertyOp11
 70
     1
102
RTVSPropertyOp12
 70
     1
102
RTVSPropertyOp13
 70
     1
102
RTVSPropertyOp14
 70
     1
102
RTVSPropertyOp15
 70
     1
102
RTVSPropertyOp16
 70
     1
102
RTVSPropertyOp17
 70
     1
102
RTVSPropertyOp18
 70
     1
102
RTVSPropertyOp19
 70
     1
102
RTVSPropertyOp20
 70
     1
102
RTVSPropertyOp21
 70
     1
102
RTVSPropertyOp22
 70
     1
102
RTVSPropertyOp23
 70
     1
102
RTVSPropertyOp24
 70
     1
102
RTVSPropertyOp25
 70
     1
102
RTVSPropertyOp26
 70
     1
102
RTVSPropertyOp27
 70
     1
102
RTVSPropertyOp28
 70
     1
102
RTVSPropertyOp29
 70
     1
102
RTVSPropertyOp30
 70
     1
102
RTVSPropertyOp31
 70
     1
102
RTVSPropertyOp32
 70
     1
102
RTVSPropertyOp33
 70
     1
102
RTVSPropertyOp34
 70
     1
102
RTVSPropertyOp35
 70
     1
102
RTVSPropertyOp36
 70
     1
102
RTVSPropertyOp37
 70
     1
102
RTVSPropertyOp38
 70
     1
102
RTVSPropertyOp39
 70
     1
102
RTVSPropertyOp40
 70
     1
102
RTVSPropertyOp41
 70
     1
102
RTVSPropertyOp42
 70
     1
102
RTVSPropertyOp43
 70
     1
102
RTVSPropertyOp44
 70
     1
102
RTVSPropertyOp45
 70
     1
102
RTVSPropertyOp46
 70
     1
102
RTVSPropertyOp47
 70
     1
102
RTVSPropertyOp48
 70
     1
102
RTVSPropertyOp49
 70
     1
102
RTVSPropertyOp50
 70
     1
102
RTVSPropertyOp51
 70
     0
102
RTVSPropertyOp52
 70
     0
102
RTVSPropertyOp53
 70
     1
102
RTVSPropertyOp54
 70
     1
102
RTVSPropertyOp55
 70
     1
102
RTVSPropertyOp56
 70
     1
102
RTVSPropertyOp57
 70
     1
102
RTVSPropertyOp58
 70
     1
102
RTVSPropertyOp59
 70
     1
102
RTVSPropertyOp60
 70
     1
102
RTVSPropertyOp61
 70
     1
102
RTVSPropertyOp62
 70
     1
  0
XRECORD
  5
3DD
102
{ACAD_REACTORS
330
3DC
102
}
330
3DC
100
AcDbXrecord
280
     1
102
RTVSPost2010Prop28
280
     0
102
RTVSPost2010PropOp28
 70
     1
102
RTVSPost2010Prop29
280
     1
102
RTVSPost2010PropOp29
 70
     1
102
RTVSPost2010Prop30
280
     1
102
RTVSPost2010PropOp30
 70
     1
102
RTVSPost2010Prop31
280
     0
102
RTVSPost2010PropOp31
 70
     1
102
RTVSPost2010Prop32
280
     0
102
RTVSPost2010PropOp32
 70
     1
102
RTVSPost2010Prop33
280
     0
102
RTVSPost2010PropOp33
 70
     1
102
RTVSPost2010Prop34
280
     0
102
RTVSPost2010PropOp34
 70
     1
102
RTVSPost2010Prop35
280
     0
102
RTVSPost2010PropOp35
 70
     1
102
RTVSPost2010Prop36
280
     0
102
RTVSPost2010PropOp36
 70
     1
102
RTVSPost2010Prop37
 90
       50
102
RTVSPost2010PropOp37
 70
     1
102
RTVSPost2010Prop38
140
0.0
102
RTVSPost2010PropOp38
 70
     1
102
RTVSPost2010Prop39
140
1.0
102
RTVSPost2010PropOp39
 70
     1
102
RTVSPost2010Prop40
 90
        0
102
RTVSPost2010PropOp40
 70
     1
102
RTVSPost2010Prop41ColorIndex
 90
       18
102
RTVSPost2010Prop41ColorRGB
 90
        0
102
RTVSPost2010PropOp41
 70
     1
102
RTVSPost2010Prop42
 90
       50
102
RTVSPost2010PropOp42
 70
     1
102
RTVSPost2010Prop43
 90
        3
102
RTVSPost2010PropOp43
 70
     1
102
RTVSPost2010Prop44ColorIndex
 90
        5
102
RTVSPost2010Prop44ColorRGB
 90
      255
102
RTVSPost2010PropOp44
 70
     1
102
RTVSPost2010Prop45
280
     0
102
RTVSPost2010PropOp45
 70
     1
102
RTVSPost2010Prop46
 90
       50
102
RTVSPost2010PropOp46
 70
     1
102
RTVSPost2010Prop47
 90
       50
102
RTVSPost2010PropOp47
 70
     1
102
RTVSPost2010Prop48
 90
       50
102
RTVSPost2010PropOp48
 70
     1
102
RTVSPost2010Prop49
280
     0
102
RTVSPost2010PropOp49
 70
     1
102
RTVSPost2010Prop50
 90
       50
102
RTVSPost2010PropOp50
 70
     1
102
RTVSPost2010Prop51ColorIndex
 90
      256
102
RTVSPost2010Prop51ColorRGB
 90
-16777216
102
RTVSPost2010PropOp51
 70
     0
102
RTVSPost2010Prop52
140
1.0
102
RTVSPost2010PropOp52
 70
     0
102
RTVSPost2010Prop53
 90
        2
102
RTVSPost2010PropOp53
 70
     1
102
RTVSPost2010Prop54
  1
strokes_ogs.tif
102
RTVSPost2010PropOp54
 70
     1
102
RTVSPost2010Prop55
280
     0
102
RTVSPost2010PropOp55
 70
     1
102
RTVSPost2010Prop56
140
1.0
102
RTVSPost2010PropOp56
 70
     1
102
RTVSPost2010Prop57
140
1.0
102
RTVSPost2010PropOp57
 70
     1
102
RTVSPropertyOp0
 70
     1
102
RTVSPropertyOp1
 70
     1
102
RTVSPropertyOp2
 70
     1
102
RTVSPropertyOp3
 70
     1
102
RTVSPropertyOp4
 70
     1
102
RTVSPropertyOp5
 70
     1
102
RTVSPropertyOp6
 70
     1
102
RTVSPropertyOp7
 70
     1
102
RTVSPropertyOp8
 70
     1
102
RTVSPropertyOp9
 70
     1
102
RTVSPropertyOp10
 70
     1
102
RTVSPropertyOp11
 70
     1
102
RTVSPropertyOp12
 70
     1
102
RTVSPropertyOp13
 70
     1
102
RTVSPropertyOp14
 70
     1
102
RTVSPropertyOp15
 70
     1
102
RTVSPropertyOp16
 70
     1
102
RTVSPropertyOp17
 70
     1
102
RTVSPropertyOp18
 70
     1
102
RTVSPropertyOp19
 70
     1
102
RTVSPropertyOp20
 70
     1
102
RTVSPropertyOp21
 70
     1
102
RTVSPropertyOp22
 70
     1
102
RTVSPropertyOp23
 70
     1
102
RTVSPropertyOp24
 70
     1
102
RTVSPropertyOp25
 70
     1
102
RTVSPropertyOp26
 70
     1
102
RTVSPropertyOp27
 70
     1
102
RTVSPropertyOp28
 70
     1
102
RTVSPropertyOp29
 70
     1
102
RTVSPropertyOp30
 70
     1
102
RTVSPropertyOp31
 70
     1
102
RTVSPropertyOp32
 70
     1
102
RTVSPropertyOp33
 70
     1
102
RTVSPropertyOp34
 70
     1
102
RTVSPropertyOp35
 70
     1
102
RTVSPropertyOp36
 70
     1
102
RTVSPropertyOp37
 70
     1
102
RTVSPropertyOp38
 70
     1
102
RTVSPropertyOp39
 70
     1
102
RTVSPropertyOp40
 70
     1
102
RTVSPropertyOp41
 70
     1
102
RTVSPropertyOp42
 70
     1
102
RTVSPropertyOp43
 70
     1
102
RTVSPropertyOp44
 70
     1
102
RTVSPropertyOp45
 70
     1
102
RTVSPropertyOp46
 70
     1
102
RTVSPropertyOp47
 70
     1
102
RTVSPropertyOp48
 70
     1
102
RTVSPropertyOp49
 70
     1
102
RTVSPropertyOp50
 70
     1
102
RTVSPropertyOp51
 70
     0
102
RTVSPropertyOp52
 70
     0
102
RTVSPropertyOp53
 70
     1
102
RTVSPropertyOp54
 70
     1
102
RTVSPropertyOp55
 70
     1
102
RTVSPropertyOp56
 70
     1
102
RTVSPropertyOp57
 70
     1
102
RTVSPropertyOp58
 70
     1
102
RTVSPropertyOp59
 70
     1
102
RTVSPropertyOp60
 70
     1
102
RTVSPropertyOp61
 70
     1
102
RTVSPropertyOp62
 70
     1
  0
XRECORD
  5
3CD
102
{ACAD_REACTORS
330
3CC
102
}
330
3CC
100
AcDbXrecord
280
     1
102
RTVSPost2010Prop28
280
     0
102
RTVSPost2010PropOp28
 70
     1
102
RTVSPost2010Prop29
280
     1
102
RTVSPost2010PropOp29
 70
     1
102
RTVSPost2010Prop30
280
     1
102
RTVSPost2010PropOp30
 70
     1
102
RTVSPost2010Prop31
280
     0
102
RTVSPost2010PropOp31
 70
     1
102
RTVSPost2010Prop32
280
     0
102
RTVSPost2010PropOp32
 70
     1
102
RTVSPost2010Prop33
280
     0
102
RTVSPost2010PropOp33
 70
     1
102
RTVSPost2010Prop34
280
     0
102
RTVSPost2010PropOp34
 70
     1
102
RTVSPost2010Prop35
280
     0
102
RTVSPost2010PropOp35
 70
     1
102
RTVSPost2010Prop36
280
     0
102
RTVSPost2010PropOp36
 70
     1
102
RTVSPost2010Prop37
 90
       50
102
RTVSPost2010PropOp37
 70
     1
102
RTVSPost2010Prop38
140
0.0
102
RTVSPost2010PropOp38
 70
     1
102
RTVSPost2010Prop39
140
1.0
102
RTVSPost2010PropOp39
 70
     1
102
RTVSPost2010Prop40
 90
        0
102
RTVSPost2010PropOp40
 70
     1
102
RTVSPost2010Prop41ColorIndex
 90
       18
102
RTVSPost2010Prop41ColorRGB
 90
        0
102
RTVSPost2010PropOp41
 70
     1
102
RTVSPost2010Prop42
 90
       50
102
RTVSPost2010PropOp42
 70
     1
102
RTVSPost2010Prop43
 90
        3
102
RTVSPost2010PropOp43
 70
     1
102
RTVSPost2010Prop44ColorIndex
 90
        5
102
RTVSPost2010Prop44ColorRGB
 90
      255
102
RTVSPost2010PropOp44
 70
     1
102
RTVSPost2010Prop45
280
     0
102
RTVSPost2010PropOp45
 70
     1
102
RTVSPost2010Prop46
 90
       50
102
RTVSPost2010PropOp46
 70
     1
102
RTVSPost2010Prop47
 90
       50
102
RTVSPost2010PropOp47
 70
     1
102
RTVSPost2010Prop48
 90
       50
102
RTVSPost2010PropOp48
 70
     1
102
RTVSPost2010Prop49
280
     0
102
RTVSPost2010PropOp49
 70
     1
102
RTVSPost2010Prop50
 90
       50
102
RTVSPost2010PropOp50
 70
     1
102
RTVSPost2010Prop51ColorIndex
 90
      256
102
RTVSPost2010Prop51ColorRGB
 90
-16777216
102
RTVSPost2010PropOp51
 70
     0
102
RTVSPost2010Prop52
140
1.0
102
RTVSPost2010PropOp52
 70
     0
102
RTVSPost2010Prop53
 90
        2
102
RTVSPost2010PropOp53
 70
     1
102
RTVSPost2010Prop54
  1
strokes_ogs.tif
102
RTVSPost2010PropOp54
 70
     1
102
RTVSPost2010Prop55
280
     0
102
RTVSPost2010PropOp55
 70
     1
102
RTVSPost2010Prop56
140
1.0
102
RTVSPost2010PropOp56
 70
     1
102
RTVSPost2010Prop57
140
1.0
102
RTVSPost2010PropOp57
 70
     1
102
RTVSPropertyOp0
 70
     1
102
RTVSPropertyOp1
 70
     1
102
RTVSPropertyOp2
 70
     1
102
RTVSPropertyOp3
 70
     1
102
RTVSPropertyOp4
 70
     1
102
RTVSPropertyOp5
 70
     1
102
RTVSPropertyOp6
 70
     1
102
RTVSPropertyOp7
 70
     1
102
RTVSPropertyOp8
 70
     1
102
RTVSPropertyOp9
 70
     1
102
RTVSPropertyOp10
 70
     1
102
RTVSPropertyOp11
 70
     1
102
RTVSPropertyOp12
 70
     1
102
RTVSPropertyOp13
 70
     1
102
RTVSPropertyOp14
 70
     1
102
RTVSPropertyOp15
 70
     1
102
RTVSPropertyOp16
 70
     1
102
RTVSPropertyOp17
 70
     1
102
RTVSPropertyOp18
 70
     1
102
RTVSPropertyOp19
 70
     1
102
RTVSPropertyOp20
 70
     1
102
RTVSPropertyOp21
 70
     1
102
RTVSPropertyOp22
 70
     1
102
RTVSPropertyOp23
 70
     1
102
RTVSPropertyOp24
 70
     1
102
RTVSPropertyOp25
 70
     1
102
RTVSPropertyOp26
 70
     1
102
RTVSPropertyOp27
 70
     1
102
RTVSPropertyOp28
 70
     1
102
RTVSPropertyOp29
 70
     1
102
RTVSPropertyOp30
 70
     1
102
RTVSPropertyOp31
 70
     1
102
RTVSPropertyOp32
 70
     1
102
RTVSPropertyOp33
 70
     1
102
RTVSPropertyOp34
 70
     1
102
RTVSPropertyOp35
 70
     1
102
RTVSPropertyOp36
 70
     1
102
RTVSPropertyOp37
 70
     1
102
RTVSPropertyOp38
 70
     1
102
RTVSPropertyOp39
 70
     1
102
RTVSPropertyOp40
 70
     1
102
RTVSPropertyOp41
 70
     1
102
RTVSPropertyOp42
 70
     1
102
RTVSPropertyOp43
 70
     1
102
RTVSPropertyOp44
 70
     1
102
RTVSPropertyOp45
 70
     1
102
RTVSPropertyOp46
 70
     1
102
RTVSPropertyOp47
 70
     1
102
RTVSPropertyOp48
 70
     1
102
RTVSPropertyOp49
 70
     1
102
RTVSPropertyOp50
 70
     1
102
RTVSPropertyOp51
 70
     0
102
RTVSPropertyOp52
 70
     0
102
RTVSPropertyOp53
 70
     1
102
RTVSPropertyOp54
 70
     1
102
RTVSPropertyOp55
 70
     1
102
RTVSPropertyOp56
 70
     1
102
RTVSPropertyOp57
 70
     1
102
RTVSPropertyOp58
 70
     1
102
RTVSPropertyOp59
 70
     1
102
RTVSPropertyOp60
 70
     1
102
RTVSPropertyOp61
 70
     1
102
RTVSPropertyOp62
 70
     1
  0
XRECORD
  5
3BF
102
{ACAD_REACTORS
330
3BE
102
}
330
3BE
100
AcDbXrecord
280
     1
102
RTVSPost2010Prop28
280
     0
102
RTVSPost2010PropOp28
 70
     1
102
RTVSPost2010Prop29
280
     1
102
RTVSPost2010PropOp29
 70
     1
102
RTVSPost2010Prop30
280
     1
102
RTVSPost2010PropOp30
 70
     1
102
RTVSPost2010Prop31
280
     0
102
RTVSPost2010PropOp31
 70
     1
102
RTVSPost2010Prop32
280
     0
102
RTVSPost2010PropOp32
 70
     1
102
RTVSPost2010Prop33
280
     0
102
RTVSPost2010PropOp33
 70
     1
102
RTVSPost2010Prop34
280
     0
102
RTVSPost2010PropOp34
 70
     1
102
RTVSPost2010Prop35
280
     0
102
RTVSPost2010PropOp35
 70
     1
102
RTVSPost2010Prop36
280
     0
102
RTVSPost2010PropOp36
 70
     1
102
RTVSPost2010Prop37
 90
       50
102
RTVSPost2010PropOp37
 70
     1
102
RTVSPost2010Prop38
140
0.0
102
RTVSPost2010PropOp38
 70
     1
102
RTVSPost2010Prop39
140
1.0
102
RTVSPost2010PropOp39
 70
     1
102
RTVSPost2010Prop40
 90
        0
102
RTVSPost2010PropOp40
 70
     1
102
RTVSPost2010Prop41ColorIndex
 90
       18
102
RTVSPost2010Prop41ColorRGB
 90
        0
102
RTVSPost2010PropOp41
 70
     1
102
RTVSPost2010Prop42
 90
       50
102
RTVSPost2010PropOp42
 70
     1
102
RTVSPost2010Prop43
 90
        3
102
RTVSPost2010PropOp43
 70
     1
102
RTVSPost2010Prop44ColorIndex
 90
        5
102
RTVSPost2010Prop44ColorRGB
 90
      255
102
RTVSPost2010PropOp44
 70
     1
102
RTVSPost2010Prop45
280
     0
102
RTVSPost2010PropOp45
 70
     1
102
RTVSPost2010Prop46
 90
       50
102
RTVSPost2010PropOp46
 70
     1
102
RTVSPost2010Prop47
 90
       50
102
RTVSPost2010PropOp47
 70
     1
102
RTVSPost2010Prop48
 90
       50
102
RTVSPost2010PropOp48
 70
     1
102
RTVSPost2010Prop49
280
     0
102
RTVSPost2010PropOp49
 70
     1
102
RTVSPost2010Prop50
 90
       50
102
RTVSPost2010PropOp50
 70
     1
102
RTVSPost2010Prop51ColorIndex
 90
      256
102
RTVSPost2010Prop51ColorRGB
 90
-16777216
102
RTVSPost2010PropOp51
 70
     0
102
RTVSPost2010Prop52
140
1.0
102
RTVSPost2010PropOp52
 70
     0
102
RTVSPost2010Prop53
 90
        2
102
RTVSPost2010PropOp53
 70
     1
102
RTVSPost2010Prop54
  1
strokes_ogs.tif
102
RTVSPost2010PropOp54
 70
     1
102
RTVSPost2010Prop55
280
     0
102
RTVSPost2010PropOp55
 70
     1
102
RTVSPost2010Prop56
140
1.0
102
RTVSPost2010PropOp56
 70
     1
102
RTVSPost2010Prop57
140
1.0
102
RTVSPost2010PropOp57
 70
     1
102
RTVSPropertyOp0
 70
     1
102
RTVSPropertyOp1
 70
     1
102
RTVSPropertyOp2
 70
     1
102
RTVSPropertyOp3
 70
     1
102
RTVSPropertyOp4
 70
     1
102
RTVSPropertyOp5
 70
     1
102
RTVSPropertyOp6
 70
     1
102
RTVSPropertyOp7
 70
     1
102
RTVSPropertyOp8
 70
     1
102
RTVSPropertyOp9
 70
     1
102
RTVSPropertyOp10
 70
     1
102
RTVSPropertyOp11
 70
     1
102
RTVSPropertyOp12
 70
     1
102
RTVSPropertyOp13
 70
     1
102
RTVSPropertyOp14
 70
     1
102
RTVSPropertyOp15
 70
     1
102
RTVSPropertyOp16
 70
     1
102
RTVSPropertyOp17
 70
     1
102
RTVSPropertyOp18
 70
     1
102
RTVSPropertyOp19
 70
     1
102
RTVSPropertyOp20
 70
     1
102
RTVSPropertyOp21
 70
     1
102
RTVSPropertyOp22
 70
     1
102
RTVSPropertyOp23
 70
     1
102
RTVSPropertyOp24
 70
     1
102
RTVSPropertyOp25
 70
     1
102
RTVSPropertyOp26
 70
     1
102
RTVSPropertyOp27
 70
     1
102
RTVSPropertyOp28
 70
     1
102
RTVSPropertyOp29
 70
     1
102
RTVSPropertyOp30
 70
     1
102
RTVSPropertyOp31
 70
     1
102
RTVSPropertyOp32
 70
     1
102
RTVSPropertyOp33
 70
     1
102
RTVSPropertyOp34
 70
     1
102
RTVSPropertyOp35
 70
     1
102
RTVSPropertyOp36
 70
     1
102
RTVSPropertyOp37
 70
     1
102
RTVSPropertyOp38
 70
     1
102
RTVSPropertyOp39
 70
     1
102
RTVSPropertyOp40
 70
     1
102
RTVSPropertyOp41
 70
     1
102
RTVSPropertyOp42
 70
     1
102
RTVSPropertyOp43
 70
     1
102
RTVSPropertyOp44
 70
     1
102
RTVSPropertyOp45
 70
     1
102
RTVSPropertyOp46
 70
     1
102
RTVSPropertyOp47
 70
     1
102
RTVSPropertyOp48
 70
     1
102
RTVSPropertyOp49
 70
     1
102
RTVSPropertyOp50
 70
     1
102
RTVSPropertyOp51
 70
     0
102
RTVSPropertyOp52
 70
     0
102
RTVSPropertyOp53
 70
     1
102
RTVSPropertyOp54
 70
     1
102
RTVSPropertyOp55
 70
     1
102
RTVSPropertyOp56
 70
     1
102
RTVSPropertyOp57
 70
     1
102
RTVSPropertyOp58
 70
     1
102
RTVSPropertyOp59
 70
     1
102
RTVSPropertyOp60
 70
     1
102
RTVSPropertyOp61
 70
     1
102
RTVSPropertyOp62
 70
     1
  0
XRECORD
  5
3DF
102
{ACAD_REACTORS
330
3DE
102
}
330
3DE
100
AcDbXrecord
280
     1
102
RTVSPost2010Prop28
280
     0
102
RTVSPost2010PropOp28
 70
     1
102
RTVSPost2010Prop29
280
     1
102
RTVSPost2010PropOp29
 70
     1
102
RTVSPost2010Prop30
280
     1
102
RTVSPost2010PropOp30
 70
     1
102
RTVSPost2010Prop31
280
     0
102
RTVSPost2010PropOp31
 70
     1
102
RTVSPost2010Prop32
280
     0
102
RTVSPost2010PropOp32
 70
     1
102
RTVSPost2010Prop33
280
     0
102
RTVSPost2010PropOp33
 70
     1
102
RTVSPost2010Prop34
280
     0
102
RTVSPost2010PropOp34
 70
     1
102
RTVSPost2010Prop35
280
     0
102
RTVSPost2010PropOp35
 70
     1
102
RTVSPost2010Prop36
280
     0
102
RTVSPost2010PropOp36
 70
     1
102
RTVSPost2010Prop37
 90
       50
102
RTVSPost2010PropOp37
 70
     1
102
RTVSPost2010Prop38
140
0.0
102
RTVSPost2010PropOp38
 70
     1
102
RTVSPost2010Prop39
140
1.0
102
RTVSPost2010PropOp39
 70
     1
102
RTVSPost2010Prop40
 90
        0
102
RTVSPost2010PropOp40
 70
     1
102
RTVSPost2010Prop41ColorIndex
 90
       18
102
RTVSPost2010Prop41ColorRGB
 90
        0
102
RTVSPost2010PropOp41
 70
     1
102
RTVSPost2010Prop42
 90
       50
102
RTVSPost2010PropOp42
 70
     1
102
RTVSPost2010Prop43
 90
        3
102
RTVSPost2010PropOp43
 70
     1
102
RTVSPost2010Prop44ColorIndex
 90
        5
102
RTVSPost2010Prop44ColorRGB
 90
      255
102
RTVSPost2010PropOp44
 70
     1
102
RTVSPost2010Prop45
280
     0
102
RTVSPost2010PropOp45
 70
     1
102
RTVSPost2010Prop46
 90
       50
102
RTVSPost2010PropOp46
 70
     1
102
RTVSPost2010Prop47
 90
       50
102
RTVSPost2010PropOp47
 70
     1
102
RTVSPost2010Prop48
 90
       50
102
RTVSPost2010PropOp48
 70
     1
102
RTVSPost2010Prop49
280
     0
102
RTVSPost2010PropOp49
 70
     1
102
RTVSPost2010Prop50
 90
       50
102
RTVSPost2010PropOp50
 70
     1
102
RTVSPost2010Prop51ColorIndex
 90
      256
102
RTVSPost2010Prop51ColorRGB
 90
-16777216
102
RTVSPost2010PropOp51
 70
     0
102
RTVSPost2010Prop52
140
1.0
102
RTVSPost2010PropOp52
 70
     0
102
RTVSPost2010Prop53
 90
        2
102
RTVSPost2010PropOp53
 70
     1
102
RTVSPost2010Prop54
  1
strokes_ogs.tif
102
RTVSPost2010PropOp54
 70
     1
102
RTVSPost2010Prop55
280
     0
102
RTVSPost2010PropOp55
 70
     1
102
RTVSPost2010Prop56
140
1.0
102
RTVSPost2010PropOp56
 70
     1
102
RTVSPost2010Prop57
140
1.0
102
RTVSPost2010PropOp57
 70
     1
102
RTVSPropertyOp0
 70
     1
102
RTVSPropertyOp1
 70
     1
102
RTVSPropertyOp2
 70
     1
102
RTVSPropertyOp3
 70
     1
102
RTVSPropertyOp4
 70
     1
102
RTVSPropertyOp5
 70
     1
102
RTVSPropertyOp6
 70
     1
102
RTVSPropertyOp7
 70
     1
102
RTVSPropertyOp8
 70
     1
102
RTVSPropertyOp9
 70
     1
102
RTVSPropertyOp10
 70
     1
102
RTVSPropertyOp11
 70
     1
102
RTVSPropertyOp12
 70
     1
102
RTVSPropertyOp13
 70
     1
102
RTVSPropertyOp14
 70
     1
102
RTVSPropertyOp15
 70
     1
102
RTVSPropertyOp16
 70
     1
102
RTVSPropertyOp17
 70
     1
102
RTVSPropertyOp18
 70
     1
102
RTVSPropertyOp19
 70
     1
102
RTVSPropertyOp20
 70
     1
102
RTVSPropertyOp21
 70
     1
102
RTVSPropertyOp22
 70
     1
102
RTVSPropertyOp23
 70
     1
102
RTVSPropertyOp24
 70
     1
102
RTVSPropertyOp25
 70
     1
102
RTVSPropertyOp26
 70
     1
102
RTVSPropertyOp27
 70
     1
102
RTVSPropertyOp28
 70
     1
102
RTVSPropertyOp29
 70
     1
102
RTVSPropertyOp30
 70
     1
102
RTVSPropertyOp31
 70
     1
102
RTVSPropertyOp32
 70
     1
102
RTVSPropertyOp33
 70
     1
102
RTVSPropertyOp34
 70
     1
102
RTVSPropertyOp35
 70
     1
102
RTVSPropertyOp36
 70
     1
102
RTVSPropertyOp37
 70
     1
102
RTVSPropertyOp38
 70
     1
102
RTVSPropertyOp39
 70
     1
102
RTVSPropertyOp40
 70
     1
102
RTVSPropertyOp41
 70
     1
102
RTVSPropertyOp42
 70
     1
102
RTVSPropertyOp43
 70
     1
102
RTVSPropertyOp44
 70
     1
102
RTVSPropertyOp45
 70
     1
102
RTVSPropertyOp46
 70
     1
102
RTVSPropertyOp47
 70
     1
102
RTVSPropertyOp48
 70
     1
102
RTVSPropertyOp49
 70
     1
102
RTVSPropertyOp50
 70
     1
102
RTVSPropertyOp51
 70
     0
102
RTVSPropertyOp52
 70
     0
102
RTVSPropertyOp53
 70
     1
102
RTVSPropertyOp54
 70
     1
102
RTVSPropertyOp55
 70
     1
102
RTVSPropertyOp56
 70
     1
102
RTVSPropertyOp57
 70
     1
102
RTVSPropertyOp58
 70
     1
102
RTVSPropertyOp59
 70
     1
102
RTVSPropertyOp60
 70
     1
102
RTVSPropertyOp61
 70
     1
102
RTVSPropertyOp62
 70
     1
  0
ENDSEC
  0
EOF
