  0
SECTION
  2
HEADER
  9
$ACADVER
  1
AC1018
  9
$ACADMAINTVER
 70
   104
  9
$DWGCODEPAGE
  3
ANSI_1250
  9
$LASTSAVEDBY
  1
wq7085
  9
$INSBASE
 10
0.0
 20
0.0
 30
0.0
  9
$EXTMIN
 10
174.5807043333333
 20
114.534924
 30
0.0
  9
$EXTMAX
 10
388.711044
 20
345.2288016666667
 30
0.0
  9
$LIMMIN
 10
-0.5
 20
-0.5
  9
$LIMMAX
 10
5.0
 20
5.0
  9
$ORTHOMODE
 70
     0
  9
$REGENMODE
 70
     1
  9
$FILLMODE
 70
     1
  9
$QTEXTMODE
 70
     0
  9
$MIRRTEXT
 70
     1
  9
$LTSCALE
 40
1.0
  9
$ATTMODE
 70
     1
  9
$TEXTSIZE
 40
0.2
  9
$TRACEWID
 40
0.05
  9
$TEXTSTYLE
  7
Standard
  9
$CLAYER
  8
0
  9
$CELTYPE
  6
ByLayer
  9
$CECOLOR
 62
   256
  9
$CELTSCALE
 40
1.0
  9
$DISPSILH
 70
     0
  9
$DIMSCALE
 40
1.0
  9
$DIMASZ
 40
0.18
  9
$DIMEXO
 40
0.0625
  9
$DIMDLI
 40
0.38
  9
$DIMRND
 40
0.0
  9
$DIMDLE
 40
0.0
  9
$DIMEXE
 40
0.18
  9
$DIMTP
 40
0.0
  9
$DIMTM
 40
0.0
  9
$DIMTXT
 40
0.18
  9
$DIMCEN
 40
0.09
  9
$DIMTSZ
 40
0.0
  9
$DIMTOL
 70
     0
  9
$DIMLIM
 70
     0
  9
$DIMTIH
 70
     1
  9
$DIMTOH
 70
     1
  9
$DIMSE1
 70
     0
  9
$DIMSE2
 70
     0
  9
$DIMTAD
 70
     0
  9
$DIMZIN
 70
     0
  9
$DIMBLK
  1

  9
$DIMASO
 70
     1
  9
$DIMSHO
 70
     1
  9
$DIMPOST
  1

  9
$DIMAPOST
  1

  9
$DIMALT
 70
     0
  9
$DIMALTD
 70
     2
  9
$DIMALTF
 40
25.4
  9
$DIMLFAC
 40
1.0
  9
$DIMTOFL
 70
     0
  9
$DIMTVP
 40
0.0
  9
$DIMTIX
 70
     0
  9
$DIMSOXD
 70
     0
  9
$DIMSAH
 70
     0
  9
$DIMBLK1
  1

  9
$DIMBLK2
  1

  9
$DIMSTYLE
  2
Standard
  9
$DIMCLRD
 70
     0
  9
$DIMCLRE
 70
     0
  9
$DIMCLRT
 70
     0
  9
$DIMTFAC
 40
1.0
  9
$DIMGAP
 40
0.09
  9
$DIMJUST
 70
     0
  9
$DIMSD1
 70
     0
  9
$DIMSD2
 70
     0
  9
$DIMTOLJ
 70
     1
  9
$DIMTZIN
 70
     0
  9
$DIMALTZ
 70
     0
  9
$DIMALTTZ
 70
     0
  9
$DIMUPT
 70
     0
  9
$DIMDEC
 70
     4
  9
$DIMTDEC
 70
     4
  9
$DIMALTU
 70
     2
  9
$DIMALTTD
 70
     2
  9
$DIMTXSTY
  7
Standard
  9
$DIMAUNIT
 70
     0
  9
$DIMADEC
 70
     0
  9
$DIMALTRND
 40
0.0
  9
$DIMAZIN
 70
     0
  9
$DIMDSEP
 70
    46
  9
$DIMATFIT
 70
     3
  9
$DIMFRAC
 70
     0
  9
$DIMLDRBLK
  1

  9
$DIMLUNIT
 70
     2
  9
$DIMLWD
 70
    -2
  9
$DIMLWE
 70
    -2
  9
$DIMTMOVE
 70
     0
  9
$LUNITS
 70
     2
  9
$LUPREC
 70
     4
  9
$SKETCHINC
 40
0.1
  9
$FILLETRAD
 40
0.5
  9
$AUNITS
 70
     0
  9
$AUPREC
 70
     0
  9
$MENU
  1
.
  9
$ELEVATION
 40
0.0
  9
$PELEVATION
 40
0.0
  9
$THICKNESS
 40
0.0
  9
$LIMCHECK
 70
     0
  9
$CHAMFERA
 40
0.0
  9
$CHAMFERB
 40
0.0
  9
$CHAMFERC
 40
0.0
  9
$CHAMFERD
 40
0.0
  9
$SKPOLY
 70
     0
  9
$TDCREATE
 40
2458955.569097223
  9
$TDUCREATE
 40
2458955.485769305
  9
$TDUPDATE
 40
2458955.570266204
  9
$TDUUPDATE
 40
2458955.486932870
  9
$TDINDWG
 40
0.0005555671
  9
$TDUSRTIMER
 40
0.0005555671
  9
$USRTIMER
 70
     1
  9
$ANGBASE
 50
0.0
  9
$ANGDIR
 70
     0
  9
$PDMODE
 70
     0
  9
$PDSIZE
 40
0.0
  9
$PLINEWID
 40
0.0
  9
$SPLFRAME
 70
     0
  9
$SPLINETYPE
 70
     6
  9
$SPLINESEGS
 70
     8
  9
$HANDSEED
  5
3ED
  9
$SURFTAB1
 70
     6
  9
$SURFTAB2
 70
     6
  9
$SURFTYPE
 70
     6
  9
$SURFU
 70
     6
  9
$SURFV
 70
     6
  9
$UCSBASE
  2

  9
$UCSNAME
  2

  9
$UCSORG
 10
274.404842
 20
288.907994
 30
0.0
  9
$UCSXDIR
 10
1.0
 20
0.0
 30
0.0
  9
$UCSYDIR
 10
0.0
 20
1.0
 30
0.0
  9
$UCSORTHOREF
  2

  9
$UCSORTHOVIEW
 70
     0
  9
$UCSORGTOP
 10
0.0
 20
0.0
 30
0.0
  9
$UCSORGBOTTOM
 10
0.0
 20
0.0
 30
0.0
  9
$UCSORGLEFT
 10
0.0
 20
0.0
 30
0.0
  9
$UCSORGRIGHT
 10
0.0
 20
0.0
 30
0.0
  9
$UCSORGFRONT
 10
0.0
 20
0.0
 30
0.0
  9
$UCSORGBACK
 10
0.0
 20
0.0
 30
0.0
  9
$PUCSBASE
  2

  9
$PUCSNAME
  2

  9
$PUCSORG
 10
0.0
 20
0.0
 30
0.0
  9
$PUCSXDIR
 10
1.0
 20
0.0
 30
0.0
  9
$PUCSYDIR
 10
0.0
 20
1.0
 30
0.0
  9
$PUCSORTHOREF
  2

  9
$PUCSORTHOVIEW
 70
     0
  9
$PUCSORGTOP
 10
0.0
 20
0.0
 30
0.0
  9
$PUCSORGBOTTOM
 10
0.0
 20
0.0
 30
0.0
  9
$PUCSORGLEFT
 10
0.0
 20
0.0
 30
0.0
  9
$PUCSORGRIGHT
 10
0.0
 20
0.0
 30
0.0
  9
$PUCSORGFRONT
 10
0.0
 20
0.0
 30
0.0
  9
$PUCSORGBACK
 10
0.0
 20
0.0
 30
0.0
  9
$USERI1
 70
     0
  9
$USERI2
 70
     0
  9
$USERI3
 70
     0
  9
$USERI4
 70
     0
  9
$USERI5
 70
     0
  9
$USERR1
 40
0.0
  9
$USERR2
 40
0.0
  9
$USERR3
 40
0.0
  9
$USERR4
 40
0.0
  9
$USERR5
 40
0.0
  9
$WORLDVIEW
 70
     1
  9
$SHADEDGE
 70
     3
  9
$SHADEDIF
 70
    70
  9
$TILEMODE
 70
     1
  9
$MAXACTVP
 70
    64
  9
$PINSBASE
 10
0.0
 20
0.0
 30
0.0
  9
$PLIMCHECK
 70
     0
  9
$PEXTMIN
 10
-0.5
 20
-0.5
 30
-0.5
  9
$PEXTMAX
 10
5.0
 20
5.0
 30
5.0
  9
$PLIMMIN
 10
-0.5
 20
-0.5
  9
$PLIMMAX
 10
5.0
 20
5.0
  9
$UNITMODE
 70
     0
  9
$VISRETAIN
 70
     1
  9
$PLINEGEN
 70
     0
  9
$PSLTSCALE
 70
     1
  9
$TREEDEPTH
 70
  3020
  9
$CMLSTYLE
  2
Standard
  9
$CMLJUST
 70
     0
  9
$CMLSCALE
 40
1.0
  9
$PROXYGRAPHICS
 70
     1
  9
$MEASUREMENT
 70
     1
  9
$CELWEIGHT
370
    13
  9
$ENDCAPS
280
     0
  9
$JOINSTYLE
280
     0
  9
$LWDISPLAY
290
     0
  9
$INSUNITS
 70
     4
  9
$HYPERLINKBASE
  1

  9
$STYLESHEET
  1

  9
$XEDIT
290
     1
  9
$CEPSNTYPE
380
     0
  9
$PSTYLEMODE
290
     1
  9
$FINGERPRINTGUID
  2
{EDF38ECD-144E-4998-81EC-D525552F6D43}
  9
$VERSIONGUID
  2
{933D041F-0942-D448-878C-D4592DB4BC32}
  9
$EXTNAMES
290
     1
  9
$PSVPSCALE
 40
0.0
  9
$OLESTARTUP
290
     0
  9
$SORTENTS
280
   127
  9
$INDEXCTL
280
     0
  9
$HIDETEXT
280
     1
  9
$XCLIPFRAME
290
     0
  9
$HALOGAP
280
     0
  9
$OBSCOLOR
 70
   257
  9
$OBSLTYPE
280
     0
  9
$INTERSECTIONDISPLAY
280
     0
  9
$INTERSECTIONCOLOR
 70
   257
  9
$DIMASSOC
280
     2
  9
$PROJECTNAME
  1

  0
ENDSEC
  0
SECTION
  2
CLASSES
  0
CLASS
  1
ACDBDICTIONARYWDFLT
  2
AcDbDictionaryWithDefault
  3
ObjectDBX Classes
 90
        0
 91
        1
280
     0
281
     0
  0
CLASS
  1
VISUALSTYLE
  2
AcDbVisualStyle
  3
ObjectDBX Classes
 90
     4095
 91
       24
280
     0
281
     0
  0
CLASS
  1
MATERIAL
  2
AcDbMaterial
  3
ObjectDBX Classes
 90
     1153
 91
        3
280
     0
281
     0
  0
CLASS
  1
SCALE
  2
AcDbScale
  3
ObjectDBX Classes
 90
     1153
 91
       33
280
     0
281
     0
  0
CLASS
  1
TABLESTYLE
  2
AcDbTableStyle
  3
ObjectDBX Classes
 90
     4095
 91
        1
280
     0
281
     0
  0
CLASS
  1
MLEADERSTYLE
  2
AcDbMLeaderStyle
  3
ACDB_MLEADERSTYLE_CLASS
 90
     4095
 91
        1
280
     0
281
     0
  0
CLASS
  1
SUN
  2
AcDbSun
  3
SCENEOE
 90
     1153
 91
        0
280
     0
281
     0
  0
CLASS
  1
DIMASSOC
  2
AcDbDimAssoc
  3
"AcDbDimAssoc|Product Desc:     AcDim ARX App For Dimension|Company:          Autodesk, Inc.|WEB Address:      www.autodesk.com"
 90
        0
 91
        7
280
     0
281
     0
  0
CLASS
  1
DICTIONARYVAR
  2
AcDbDictionaryVar
  3
ObjectDBX Classes
 90
        0
 91
        8
280
     0
281
     0
  0
CLASS
  1
CELLSTYLEMAP
  2
AcDbCellStyleMap
  3
ObjectDBX Classes
 90
     1152
 91
        2
280
     0
281
     0
  0
CLASS
  1
ACDBSECTIONVIEWSTYLE
  2
AcDbSectionViewStyle
  3
ObjectDBX Classes
 90
     1025
 91
        1
280
     0
281
     0
  0
CLASS
  1
ACDBDETAILVIEWSTYLE
  2
AcDbDetailViewStyle
  3
ObjectDBX Classes
 90
     1025
 91
        1
280
     0
281
     0
  0
CLASS
  1
SORTENTSTABLE
  2
AcDbSortentsTable
  3
ObjectDBX Classes
 90
        0
 91
        1
280
     0
281
     0
  0
ENDSEC
  0
SECTION
  2
TABLES
  0
TABLE
  2
VPORT
  5
8
330
0
100
AcDbSymbolTable
 70
    16
  0
VPORT
  5
29
330
8
100
AcDbSymbolTableRecord
100
AcDbViewportTableRecord
  2
*Active
 70
     0
 10
0.0
 20
0.0
 11
1.0
 21
1.0
 12
256.6964526961507
 22
306.9350002879926
 13
0.0
 23
0.0
 14
0.5
 24
0.5
 15
0.5
 25
0.5
 16
0.0
 26
0.0
 36
1.0
 17
0.0
 27
0.0
 37
0.0
 40
205.3648962178427
 41
2.283154121863799
 42
50.0
 43
417.52656
 44
-417.52656
 50
0.0
 51
0.0
 71
     0
 72
   100
 73
     1
 74
     3
 75
     0
 76
     0
 77
     0
 78
     0
281
     0
 65
     1
110
274.404842
120
288.907994
130
0.0
111
1.0
121
0.0
131
0.0
112
0.0
122
1.0
132
0.0
 79
     0
146
0.0
1001
ACAD_NAV_VCDISPLAY
1070
     3
  0
VPORT
  5
2EE
330
8
100
AcDbSymbolTableRecord
100
AcDbViewportTableRecord
  2
L1
 70
     0
 10
0.0
 20
0.0
 11
1.0
 21
1.0
 12
281.14167
 22
229.728597
 13
0.0
 23
0.0
 14
0.5
 24
0.5
 15
0.5
 25
0.5
 16
0.0
 26
0.0
 36
1.0
 17
0.0
 27
0.0
 37
0.0
 40
207.433333
 41
0.085602
 42
50.0
 43
417.52656
 44
-417.52656
 50
0.0
 51
0.0
 71
     0
 72
   100
 73
     1
 74
     3
 75
     0
 76
     0
 77
     0
 78
     0
281
     0
 65
     1
110
0.0
120
0.0
130
0.0
111
1.0
121
0.0
131
0.0
112
0.0
122
1.0
132
0.0
 79
     0
146
0.0
  0
VPORT
  5
2EF
330
8
100
AcDbSymbolTableRecord
100
AcDbViewportTableRecord
  2
L2
 70
     0
 10
0.0
 20
0.0
 11
0.5
 21
1.0
 12
0.0
 22
0.0
 13
0.0
 23
0.0
 14
0.5
 24
0.5
 15
0.5
 25
0.5
 16
0.0
 26
-1.0
 36
0.0
 17
0.0
 27
0.0
 37
0.0
 40
1319.143726
 41
0.013461
 42
50.0
 43
679.601336
 44
-679.601336
 50
0.0
 51
0.0
 71
     0
 72
   100
 73
     1
 74
     3
 75
     0
 76
     0
 77
     0
 78
     0
281
     0
 65
     1
110
0.0
120
0.0
130
0.0
111
1.0
121
0.0
131
0.0
112
0.0
122
1.0
132
0.0
 79
     0
146
0.0
  0
VPORT
  5
2F0
330
8
100
AcDbSymbolTableRecord
100
AcDbViewportTableRecord
  2
L2
 70
     0
 10
0.5
 20
0.0
 11
1.0
 21
1.0
 12
0.0
 22
0.0
 13
0.0
 23
0.0
 14
0.5
 24
0.5
 15
0.5
 25
0.5
 16
1.0
 26
0.0
 36
0.0
 17
0.0
 27
0.0
 37
0.0
 40
1319.143726
 41
0.013461
 42
50.0
 43
667.6767099999999
 44
-667.6767099999999
 50
0.0
 51
0.0
 71
     0
 72
   100
 73
     1
 74
     3
 75
     0
 76
     0
 77
     0
 78
     0
281
     0
 65
     1
110
0.0
120
0.0
130
0.0
111
1.0
121
0.0
131
0.0
112
0.0
122
1.0
132
0.0
 79
     0
146
0.0
  0
VPORT
  5
2F1
330
8
100
AcDbSymbolTableRecord
100
AcDbViewportTableRecord
  2
L3
 70
     0
 10
0.0
 20
0.5
 11
1.0
 21
1.0
 12
281.14167
 22
229.728597
 13
0.0
 23
0.0
 14
0.5
 24
0.5
 15
0.5
 25
0.5
 16
0.0
 26
0.0
 36
1.0
 17
0.0
 27
0.0
 37
0.0
 40
207.433333
 41
0.085602
 42
50.0
 43
417.52656
 44
-417.52656
 50
0.0
 51
0.0
 71
     0
 72
   100
 73
     1
 74
     3
 75
     0
 76
     0
 77
     0
 78
     0
281
     0
 65
     1
110
0.0
120
0.0
130
0.0
111
1.0
121
0.0
131
0.0
112
0.0
122
1.0
132
0.0
 79
     0
146
0.0
  0
VPORT
  5
2F2
330
8
100
AcDbSymbolTableRecord
100
AcDbViewportTableRecord
  2
L3
 70
     0
 10
0.0
 20
0.0
 11
1.0
 21
0.5
 12
0.0
 22
0.0
 13
0.0
 23
0.0
 14
0.5
 24
0.5
 15
0.5
 25
0.5
 16
0.0
 26
-1.0
 36
0.0
 17
0.0
 27
0.0
 37
0.0
 40
1319.143726
 41
0.013461
 42
50.0
 43
679.601336
 44
-679.601336
 50
0.0
 51
0.0
 71
     0
 72
   100
 73
     1
 74
     3
 75
     0
 76
     0
 77
     0
 78
     0
281
     0
 65
     1
110
0.0
120
0.0
130
0.0
111
1.0
121
0.0
131
0.0
112
0.0
122
1.0
132
0.0
 79
     0
146
0.0
  0
VPORT
  5
2F3
330
8
100
AcDbSymbolTableRecord
100
AcDbViewportTableRecord
  2
L4
 70
     0
 10
0.0
 20
0.5
 11
0.5
 21
1.0
 12
281.14167
 22
229.728597
 13
0.0
 23
0.0
 14
0.5
 24
0.5
 15
0.5
 25
0.5
 16
0.0
 26
0.0
 36
1.0
 17
0.0
 27
0.0
 37
0.0
 40
207.433333
 41
0.085602
 42
50.0
 43
417.52656
 44
-417.52656
 50
0.0
 51
0.0
 71
     0
 72
   100
 73
     1
 74
     3
 75
     0
 76
     0
 77
     0
 78
     0
281
     0
 65
     1
110
0.0
120
0.0
130
0.0
111
1.0
121
0.0
131
0.0
112
0.0
122
1.0
132
0.0
 79
     0
146
0.0
  0
VPORT
  5
2F4
330
8
100
AcDbSymbolTableRecord
100
AcDbViewportTableRecord
  2
L4
 70
     0
 10
0.0
 20
0.0
 11
0.5
 21
0.5
 12
0.0
 22
0.0
 13
0.0
 23
0.0
 14
0.5
 24
0.5
 15
0.5
 25
0.5
 16
0.0
 26
-1.0
 36
0.0
 17
0.0
 27
0.0
 37
0.0
 40
1319.143726
 41
0.013461
 42
50.0
 43
679.601336
 44
-679.601336
 50
0.0
 51
0.0
 71
     0
 72
   100
 73
     1
 74
     3
 75
     0
 76
     0
 77
     0
 78
     0
281
     0
 65
     1
110
0.0
120
0.0
130
0.0
111
1.0
121
0.0
131
0.0
112
0.0
122
1.0
132
0.0
 79
     0
146
0.0
  0
VPORT
  5
2F5
330
8
100
AcDbSymbolTableRecord
100
AcDbViewportTableRecord
  2
L4
 70
     0
 10
0.5
 20
0.0
 11
1.0
 21
0.5
 12
0.0
 22
0.0
 13
0.0
 23
0.0
 14
0.5
 24
0.5
 15
0.5
 25
0.5
 16
1.0
 26
0.0
 36
0.0
 17
0.0
 27
0.0
 37
0.0
 40
1319.143726
 41
0.013461
 42
50.0
 43
667.6767099999999
 44
-667.6767099999999
 50
0.0
 51
0.0
 71
     0
 72
   100
 73
     1
 74
     3
 75
     0
 76
     0
 77
     0
 78
     0
281
     0
 65
     1
110
0.0
120
0.0
130
0.0
111
1.0
121
0.0
131
0.0
112
0.0
122
1.0
132
0.0
 79
     0
146
0.0
  0
VPORT
  5
2F6
330
8
100
AcDbSymbolTableRecord
100
AcDbViewportTableRecord
  2
L4
 70
     0
 10
0.5
 20
0.5
 11
1.0
 21
1.0
 12
0.0
 22
0.0
 13
0.0
 23
0.0
 14
0.5
 24
0.5
 15
0.5
 25
0.5
 16
0.5773502691896259
 26
-0.5773502691896259
 36
0.5773502691896259
 17
0.0
 27
0.0
 37
0.0
 40
1295.484074
 41
0.013707
 42
50.0
 43
674.79345
 44
-674.79345
 50
0.0
 51
0.0
 71
     0
 72
   100
 73
     1
 74
     3
 75
     0
 76
     0
 77
     0
 78
     0
281
     0
 65
     1
110
0.0
120
0.0
130
0.0
111
1.0
121
0.0
131
0.0
112
0.0
122
1.0
132
0.0
 79
     0
146
0.0
  0
VPORT
  5
2F7
330
8
100
AcDbSymbolTableRecord
100
AcDbViewportTableRecord
  2
L6
 70
     0
 10
0.0
 20
0.5
 11
0.333333
 21
1.0
 12
0.0
 22
0.0
 13
0.0
 23
0.0
 14
0.5
 24
0.5
 15
0.5
 25
0.5
 16
0.7188730927569434
 26
-0.5850486126764433
 36
0.3754192287502549
 17
0.0
 27
0.0
 37
0.0
 40
1367.187154
 41
0.012988
 42
50.0
 43
707.8776949999999
 44
-707.8776949999999
 50
0.0
 51
0.0
 71
     0
 72
   100
 73
     1
 74
     3
 75
     0
 76
     0
 77
     0
 78
     0
281
     0
 65
     1
110
0.0
120
0.0
130
0.0
111
1.0
121
0.0
131
0.0
112
0.0
122
1.0
132
0.0
 79
     0
146
0.0
  0
VPORT
  5
2F8
330
8
100
AcDbSymbolTableRecord
100
AcDbViewportTableRecord
  2
L6
 70
     0
 10
0.0
 20
0.0
 11
0.333333
 21
0.5
 12
0.0
 22
0.0
 13
0.0
 23
0.0
 14
0.5
 24
0.5
 15
0.5
 25
0.5
 16
-1.0
 26
0.0
 36
0.0
 17
0.0
 27
0.0
 37
0.0
 40
1319.143726
 41
0.013461
 42
50.0
 43
667.6767099999999
 44
-667.6767099999999
 50
0.0
 51
0.0
 71
     0
 72
   100
 73
     1
 74
     3
 75
     0
 76
     0
 77
     0
 78
     0
281
     0
 65
     1
110
0.0
120
0.0
130
0.0
111
1.0
121
0.0
131
0.0
112
0.0
122
1.0
132
0.0
 79
     0
146
0.0
  0
VPORT
  5
2F9
330
8
100
AcDbSymbolTableRecord
100
AcDbViewportTableRecord
  2
L6
 70
     0
 10
0.333333
 20
0.5
 11
0.666667
 21
1.0
 12
281.14167
 22
229.728597
 13
0.0
 23
0.0
 14
0.5
 24
0.5
 15
0.5
 25
0.5
 16
0.0
 26
0.0
 36
1.0
 17
0.0
 27
0.0
 37
0.0
 40
207.433333
 41
0.085602
 42
50.0
 43
417.52656
 44
-417.52656
 50
0.0
 51
0.0
 71
     0
 72
   100
 73
     1
 74
     3
 75
     0
 76
     0
 77
     0
 78
     0
281
     0
 65
     1
110
0.0
120
0.0
130
0.0
111
1.0
121
0.0
131
0.0
112
0.0
122
1.0
132
0.0
 79
     0
146
0.0
  0
VPORT
  5
2FA
330
8
100
AcDbSymbolTableRecord
100
AcDbViewportTableRecord
  2
L6
 70
     0
 10
0.333333
 20
0.0
 11
0.666667
 21
0.5
 12
0.0
 22
0.0
 13
0.0
 23
0.0
 14
0.5
 24
0.5
 15
0.5
 25
0.5
 16
0.0
 26
-1.0
 36
0.0
 17
0.0
 27
0.0
 37
0.0
 40
1319.143726
 41
0.013461
 42
50.0
 43
679.601336
 44
-679.601336
 50
0.0
 51
0.0
 71
     0
 72
   100
 73
     1
 74
     3
 75
     0
 76
     0
 77
     0
 78
     0
281
     0
 65
     1
110
0.0
120
0.0
130
0.0
111
1.0
121
0.0
131
0.0
112
0.0
122
1.0
132
0.0
 79
     0
146
0.0
  0
VPORT
  5
2FB
330
8
100
AcDbSymbolTableRecord
100
AcDbViewportTableRecord
  2
L6
 70
     0
 10
0.666667
 20
0.5
 11
1.0
 21
1.0
 12
0.0
 22
0.0
 13
0.0
 23
0.0
 14
0.5
 24
0.5
 15
0.5
 25
0.5
 16
0.5773502691896259
 26
-0.5773502691896259
 36
0.5773502691896259
 17
0.0
 27
0.0
 37
0.0
 40
1295.484074
 41
0.013707
 42
50.0
 43
674.79345
 44
-674.79345
 50
0.0
 51
0.0
 71
     0
 72
   100
 73
     1
 74
     3
 75
     0
 76
     0
 77
     0
 78
     0
281
     0
 65
     1
110
0.0
120
0.0
130
0.0
111
1.0
121
0.0
131
0.0
112
0.0
122
1.0
132
0.0
 79
     0
146
0.0
  0
VPORT
  5
2FC
330
8
100
AcDbSymbolTableRecord
100
AcDbViewportTableRecord
  2
L6
 70
     0
 10
0.666667
 20
0.0
 11
1.0
 21
0.5
 12
0.0
 22
0.0
 13
0.0
 23
0.0
 14
0.5
 24
0.5
 15
0.5
 25
0.5
 16
1.0
 26
0.0
 36
0.0
 17
0.0
 27
0.0
 37
0.0
 40
1319.143726
 41
0.013461
 42
50.0
 43
667.6767099999999
 44
-667.6767099999999
 50
0.0
 51
0.0
 71
     0
 72
   100
 73
     1
 74
     3
 75
     0
 76
     0
 77
     0
 78
     0
281
     0
 65
     1
110
0.0
120
0.0
130
0.0
111
1.0
121
0.0
131
0.0
112
0.0
122
1.0
132
0.0
 79
     0
146
0.0
  0
ENDTAB
  0
TABLE
  2
LTYPE
  5
5
330
0
100
AcDbSymbolTable
 70
     7
  0
LTYPE
  5
14
330
5
100
AcDbSymbolTableRecord
100
AcDbLinetypeTableRecord
  2
ByBlock
 70
     0
  3

 72
    65
 73
     0
 40
0.0
  0
LTYPE
  5
15
330
5
100
AcDbSymbolTableRecord
100
AcDbLinetypeTableRecord
  2
ByLayer
 70
     0
  3

 72
    65
 73
     0
 40
0.0
  0
LTYPE
  5
16
330
5
100
AcDbSymbolTableRecord
100
AcDbLinetypeTableRecord
  2
Continuous
 70
     0
  3
Solid line
 72
    65
 73
     0
 40
0.0
  0
LTYPE
  5
6E
330
5
100
AcDbSymbolTableRecord
100
AcDbLinetypeTableRecord
  2
CENTER
 70
     0
  3
____ _ ____ _ ____ _ ____
 72
    65
 73
     4
 40
47.4
 49
22.0
 74
     4
 75
     0
340
0
 46
0.0
 50
0.0
 44
0.0
 45
0.0
 49
-8.5
 74
     4
 75
     0
340
0
 46
0.0
 50
0.0
 44
0.0
 45
0.0
 49
8.5
 74
     4
 75
     0
340
0
 46
0.0
 50
0.0
 44
0.0
 45
0.0
 49
-8.5
 74
     4
 75
     0
340
0
 46
0.0
 50
0.0
 44
0.0
 45
0.0
  0
LTYPE
  5
6F
330
5
100
AcDbSymbolTableRecord
100
AcDbLinetypeTableRecord
  2
DASHDOT
 70
     0
  3
_._._._._._._._._._._._._._._._.
 72
    65
 73
     4
 40
70.0
 49
31.0
 74
     4
 75
     0
340
0
 46
0.0
 50
0.0
 44
0.0
 45
0.0
 49
-13.0
 74
     4
 75
     0
340
0
 46
0.0
 50
0.0
 44
0.0
 45
0.0
 49
13.0
 74
     4
 75
     0
340
0
 46
0.0
 50
0.0
 44
0.0
 45
0.0
 49
-13.0
 74
     4
 75
     0
340
0
 46
0.0
 50
0.0
 44
0.0
 45
0.0
  0
LTYPE
  5
70
330
5
100
AcDbSymbolTableRecord
100
AcDbLinetypeTableRecord
  2
DASHED
 70
     0
  3
__ __ __ __ __ __ __ __ __
 72
    65
 73
     2
 40
25.72
 49
12.86
 74
     4
 75
     0
340
0
 46
0.0
 50
0.0
 44
0.0
 45
0.0
 49
-12.86
 74
     4
 75
     0
340
0
 46
0.0
 50
0.0
 44
0.0
 45
0.0
  0
LTYPE
  5
71
330
5
100
AcDbSymbolTableRecord
100
AcDbLinetypeTableRecord
  2
DOT
 70
     0
  3
.........................
 72
    65
 73
     2
 40
10.0
 49
0.0
 74
     4
 75
     0
340
0
 46
0.0
 50
0.0
 44
0.0
 45
0.0
 49
-10.0
 74
     4
 75
     0
340
0
 46
0.0
 50
0.0
 44
0.0
 45
0.0
  0
LTYPE
  5
72
330
5
100
AcDbSymbolTableRecord
100
AcDbLinetypeTableRecord
  2
PHANTOM
 70
     0
  3
____ _ _ ____ _ _ _____ _ _ ____
 72
    65
 73
     6
 40
50.5
 49
18.0
 74
     4
 75
     0
340
0
 46
0.0
 50
0.0
 44
0.0
 45
0.0
 49
-6.5
 74
     4
 75
     0
340
0
 46
0.0
 50
0.0
 44
0.0
 45
0.0
 49
6.5
 74
     4
 75
     0
340
0
 46
0.0
 50
0.0
 44
0.0
 45
0.0
 49
-6.5
 74
     4
 75
     0
340
0
 46
0.0
 50
0.0
 44
0.0
 45
0.0
 49
6.5
 74
     4
 75
     0
340
0
 46
0.0
 50
0.0
 44
0.0
 45
0.0
 49
-6.5
 74
     4
 75
     0
340
0
 46
0.0
 50
0.0
 44
0.0
 45
0.0
  0
LTYPE
  5
38F
330
5
100
AcDbSymbolTableRecord
100
AcDbLinetypeTableRecord
  2
CENTER2
 70
     0
  3
Center (.5x) ___ _ ___ _ ___ _ ___ _ ___ _ ___
 72
    65
 73
     4
 40
1.125
 49
0.75
 74
     0
 49
-0.125
 74
     0
 49
0.125
 74
     0
 49
-0.125
 74
     0
  0
ENDTAB
  0
TABLE
  2
LAYER
  5
2
330
0
100
AcDbSymbolTable
 70
    22
  0
LAYER
  5
10
102
{ACAD_XDICTIONARY
360
39A
102
}
330
2
100
AcDbSymbolTableRecord
100
AcDbLayerTableRecord
  2
0
 70
     0
 62
     7
  6
Continuous
370
    -3
390
F
  0
LAYER
  5
248
330
2
100
AcDbSymbolTableRecord
100
AcDbLayerTableRecord
  2
Defpoints
 70
     0
 62
     7
  6
Continuous
290
     0
370
    -3
390
F
  0
LAYER
  5
38C
102
{ACAD_XDICTIONARY
360
39C
102
}
330
2
100
AcDbSymbolTableRecord
100
AcDbLayerTableRecord
  2
1
 70
     0
 62
     4
  6
Continuous
370
    -3
390
F
  0
LAYER
  5
38D
102
{ACAD_XDICTIONARY
360
39E
102
}
330
2
100
AcDbSymbolTableRecord
100
AcDbLayerTableRecord
  2
2
 70
     0
 62
     7
  6
Continuous
370
    -3
390
F
  0
LAYER
  5
38E
102
{ACAD_XDICTIONARY
360
3A0
102
}
330
2
100
AcDbSymbolTableRecord
100
AcDbLayerTableRecord
  2
4
 70
     0
 62
     2
  6
CENTER2
370
    -3
390
F
  0
LAYER
  5
390
102
{ACAD_XDICTIONARY
360
3A2
102
}
330
2
100
AcDbSymbolTableRecord
100
AcDbLayerTableRecord
  2
SK1
 70
     0
 62
     4
  6
Continuous
370
    -3
390
F
  0
LAYER
  5
391
102
{ACAD_XDICTIONARY
360
3A4
102
}
330
2
100
AcDbSymbolTableRecord
100
AcDbLayerTableRecord
  2
SK2
 70
     0
 62
     7
  6
Continuous
370
    -3
390
F
  0
LAYER
  5
393
102
{ACAD_XDICTIONARY
360
3A6
102
}
330
2
100
AcDbSymbolTableRecord
100
AcDbLayerTableRecord
  2
SK4
 70
     0
 62
     2
  6
CENTER2
370
    -3
390
F
  0
LAYER
  5
394
102
{ACAD_XDICTIONARY
360
3A8
102
}
330
2
100
AcDbSymbolTableRecord
100
AcDbLayerTableRecord
  2
SK6
 70
     0
 62
     5
  6
Continuous
370
    -3
390
F
  0
LAYER
  5
395
102
{ACAD_XDICTIONARY
360
3AA
102
}
330
2
100
AcDbSymbolTableRecord
100
AcDbLayerTableRecord
  2
CUT
 70
     0
 62
     1
  6
Continuous
370
    -3
390
F
  0
LAYER
  5
396
102
{ACAD_XDICTIONARY
360
3AC
102
}
330
2
100
AcDbSymbolTableRecord
100
AcDbLayerTableRecord
  2
NOCUT
 70
     0
 62
     7
  6
Continuous
370
    -3
390
F
  0
LAYER
  5
397
102
{ACAD_XDICTIONARY
360
3AE
102
}
330
2
100
AcDbSymbolTableRecord
100
AcDbLayerTableRecord
  2
80
 70
     0
 62
     6
  6
Continuous
370
    -3
390
F
  0
LAYER
  5
398
102
{ACAD_XDICTIONARY
360
3B0
102
}
330
2
100
AcDbSymbolTableRecord
100
AcDbLayerTableRecord
  2
81
 70
     0
 62
     3
  6
Continuous
370
    -3
390
F
  0
ENDTAB
  0
TABLE
  2
STYLE
  5
3
330
0
100
AcDbSymbolTable
 70
     3
  0
STYLE
  5
11
330
3
100
AcDbSymbolTableRecord
100
AcDbTextStyleTableRecord
  2
Standard
 70
     0
 40
0.0
 41
1.0
 50
0.0
 71
     0
 42
0.2
  3
txt
  4

  0
STYLE
  5
241
330
3
100
AcDbSymbolTableRecord
100
AcDbTextStyleTableRecord
  2
cesky
 70
     0
 40
0.0
 41
1.0
 50
0.0
 71
     0
 42
0.2
  3
simplex.shx
  4

  0
STYLE
  5
242
330
3
100
AcDbSymbolTableRecord
100
AcDbTextStyleTableRecord
  2
DWGDirectTextStyle
 70
     0
 40
0.0
 41
1.0
 50
0.0
 71
     0
 42
0.2
  3
simplex
  4

  0
ENDTAB
  0
TABLE
  2
VIEW
  5
6
330
0
100
AcDbSymbolTable
 70
     0
  0
ENDTAB
  0
TABLE
  2
UCS
  5
7
330
0
100
AcDbSymbolTable
 70
     0
  0
ENDTAB
  0
TABLE
  2
APPID
  5
9
330
0
100
AcDbSymbolTable
 70
     7
  0
APPID
  5
12
330
9
100
AcDbSymbolTableRecord
100
AcDbRegAppTableRecord
  2
ACAD
 70
     0
  0
APPID
  5
244
330
9
100
AcDbSymbolTableRecord
100
AcDbRegAppTableRecord
  2
ACAD_DSTYLE_DIMBREAK
 70
     0
  0
APPID
  5
2FD
330
9
100
AcDbSymbolTableRecord
100
AcDbRegAppTableRecord
  2
ACAD_DSTYLE_DIM_LINETYPE
 70
     0
  0
APPID
  5
2FE
330
9
100
AcDbSymbolTableRecord
100
AcDbRegAppTableRecord
  2
ACAD_DSTYLE_DIM_EXT1_LINETYPE
 70
     0
  0
APPID
  5
2FF
330
9
100
AcDbSymbolTableRecord
100
AcDbRegAppTableRecord
  2
ACAD_DSTYLE_DIM_EXT2_LINETYPE
 70
     0
  0
APPID
  5
33F
330
9
100
AcDbSymbolTableRecord
100
AcDbRegAppTableRecord
  2
ACAD_MLEADERVER
 70
     0
  0
APPID
  5
3B5
330
9
100
AcDbSymbolTableRecord
100
AcDbRegAppTableRecord
  2
ACAD_NAV_VCDISPLAY
 70
     0
  0
ENDTAB
  0
TABLE
  2
DIMSTYLE
  5
A
330
0
100
AcDbSymbolTable
 70
     1
100
AcDbDimStyleTable
 71
     0
  0
DIMSTYLE
105
27
330
A
100
AcDbSymbolTableRecord
100
AcDbDimStyleTableRecord
  2
Standard
 70
     0
340
11
1001
ACAD_DSTYLE_DIMBREAK
1070
   391
1040
6.349999999999999
  0
ENDTAB
  0
TABLE
  2
BLOCK_RECORD
  5
1
330
0
100
AcDbSymbolTable
 70
    16
  0
BLOCK_RECORD
  5
1F
102
{ACAD_XDICTIONARY
360
34F
102
}
330
1
100
AcDbSymbolTableRecord
100
AcDbBlockTableRecord
  2
*Model_Space
340
22
  0
BLOCK_RECORD
  5
1B
330
1
100
AcDbSymbolTableRecord
100
AcDbBlockTableRecord
  2
*Paper_Space
340
1E
  0
BLOCK_RECORD
  5
23
330
1
100
AcDbSymbolTableRecord
100
AcDbBlockTableRecord
  2
*Paper_Space0
340
26
  0
BLOCK_RECORD
  5
23B
330
1
100
AcDbSymbolTableRecord
100
AcDbBlockTableRecord
  2
ASSORTED_DRAFT1
340
0
  0
BLOCK_RECORD
  5
249
330
1
100
AcDbSymbolTableRecord
100
AcDbBlockTableRecord
  2
*D2
340
0
  0
BLOCK_RECORD
  5
255
330
1
100
AcDbSymbolTableRecord
100
AcDbBlockTableRecord
  2
_U0
340
0
  0
BLOCK_RECORD
  5
261
330
1
100
AcDbSymbolTableRecord
100
AcDbBlockTableRecord
  2
*D4
340
0
  0
BLOCK_RECORD
  5
26D
330
1
100
AcDbSymbolTableRecord
100
AcDbBlockTableRecord
  2
_U1
340
0
  0
BLOCK_RECORD
  5
279
330
1
100
AcDbSymbolTableRecord
100
AcDbBlockTableRecord
  2
*D6
340
0
  0
BLOCK_RECORD
  5
285
330
1
100
AcDbSymbolTableRecord
100
AcDbBlockTableRecord
  2
_U2
340
0
  0
BLOCK_RECORD
  5
291
330
1
100
AcDbSymbolTableRecord
100
AcDbBlockTableRecord
  2
*D8
340
0
  0
BLOCK_RECORD
  5
29D
330
1
100
AcDbSymbolTableRecord
100
AcDbBlockTableRecord
  2
_U3
340
0
  0
BLOCK_RECORD
  5
2A9
330
1
100
AcDbSymbolTableRecord
100
AcDbBlockTableRecord
  2
*D10
340
0
  0
BLOCK_RECORD
  5
2B4
330
1
100
AcDbSymbolTableRecord
100
AcDbBlockTableRecord
  2
_U4
340
0
  0
BLOCK_RECORD
  5
2BF
330
1
100
AcDbSymbolTableRecord
100
AcDbBlockTableRecord
  2
*D12
340
0
  0
BLOCK_RECORD
  5
2CB
330
1
100
AcDbSymbolTableRecord
100
AcDbBlockTableRecord
  2
_U5
340
0
  0
BLOCK_RECORD
  5
2D8
330
1
100
AcDbSymbolTableRecord
100
AcDbBlockTableRecord
  2
*D14
340
0
  0
BLOCK_RECORD
  5
2E4
330
1
100
AcDbSymbolTableRecord
100
AcDbBlockTableRecord
  2
_U6
340
0
  0
ENDTAB
  0
ENDSEC
  0
SECTION
  2
BLOCKS
  0
BLOCK
  5
20
330
1F
100
AcDbEntity
  8
0
100
AcDbBlockBegin
  2
*Model_Space
 70
     0
 10
0.0
 20
0.0
 30
0.0
  3
*Model_Space
  1

  0
ENDBLK
  5
21
330
1F
100
AcDbEntity
  8
0
100
AcDbBlockEnd
  0
BLOCK
  5
1C
330
1B
100
AcDbEntity
 67
     1
  8
0
100
AcDbBlockBegin
  2
*Paper_Space
 70
     0
 10
0.0
 20
0.0
 30
0.0
  3
*Paper_Space
  1

  0
ENDBLK
  5
1D
330
1B
100
AcDbEntity
 67
     1
  8
0
100
AcDbBlockEnd
  0
BLOCK
  5
24
330
23
100
AcDbEntity
 67
     1
  8
0
100
AcDbBlockBegin
  2
*Paper_Space0
 70
     0
 10
0.0
 20
0.0
 30
0.0
  3
*Paper_Space0
  1

  0
ENDBLK
  5
25
330
23
100
AcDbEntity
 67
     1
  8
0
100
AcDbBlockEnd
  0
BLOCK
  5
23E
330
23B
100
AcDbEntity
  8
0
100
AcDbBlockBegin
  2
ASSORTED_DRAFT1
 70
     0
 10
0.0
 20
0.0
 30
0.0
  3
ASSORTED_DRAFT1
  1

  0
SOLID
  5
23C
330
23B
100
AcDbEntity
  8
0
 62
   254
370
    13
100
AcDbTrace
 10
270.185042
 20
170.030184
 30
0.0
 11
265.185046
 21
168.921711
 31
0.0
 12
265.1850379999999
 22
171.138657
 32
0.0
 13
270.185042
 23
170.030184
 33
0.0
  0
ENDBLK
  5
23F
330
23B
100
AcDbEntity
  8
0
100
AcDbBlockEnd
  0
BLOCK
  5
24A
330
249
100
AcDbEntity
  8
0
100
AcDbBlockBegin
  2
*D2
 70
     1
 10
0.0
 20
0.0
 30
0.0
  3
*D2
  1

  0
LINE
  5
24C
330
249
100
AcDbEntity
  8
0
 62
   254
370
    -2
100
AcDbLine
 10
371.404842
 20
308.907994
 30
0.0
 11
371.404842
 21
341.687968
 31
0.0
  0
LINE
  5
24D
330
249
100
AcDbEntity
  8
0
 62
   254
370
    -2
100
AcDbLine
 10
204.404842
 20
306.907994
 30
0.0
 11
204.404842
 21
341.687968
 31
0.0
  0
LINE
  5
24E
330
249
100
AcDbEntity
  8
0
 62
   254
370
    -2
100
AcDbLine
 10
367.904842
 20
340.687968
 30
0.0
 11
207.904842
 21
340.687968
 31
0.0
  0
SOLID
  5
24F
330
249
100
AcDbEntity
  8
0
 62
   254
100
AcDbTrace
 10
367.904842
 20
340.104634
 30
0.0
 11
367.904842
 21
341.271301
 31
0.0
 12
371.404842
 22
340.687968
 32
0.0
 13
371.404842
 23
340.687968
 33
0.0
  0
SOLID
  5
250
330
249
100
AcDbEntity
  8
0
 62
   254
100
AcDbTrace
 10
207.904842
 20
341.271301
 30
0.0
 11
207.904842
 21
340.104634
 31
0.0
 12
204.404842
 22
340.687968
 32
0.0
 13
204.404842
 23
340.687968
 33
0.0
  0
MTEXT
  5
251
330
249
100
AcDbEntity
  8
0
 62
   254
370
    13
100
AcDbMText
 10
287.904842
 20
345.937968
 30
0.0
 40
3.5
 41
0.0
 71
     5
 72
     1
  1
\A1;167
  7
cesky
 73
     1
 44
1.0
  0
POINT
  5
252
330
249
100
AcDbEntity
  8
Defpoints
 62
     0
100
AcDbPoint
 10
371.404842
 20
308.907994
 30
0.0
  0
POINT
  5
253
330
249
100
AcDbEntity
  8
Defpoints
 62
     0
100
AcDbPoint
 10
204.404842
 20
306.907994
 30
0.0
  0
POINT
  5
254
330
249
100
AcDbEntity
  8
Defpoints
 62
     0
100
AcDbPoint
 10
204.404842
 20
340.687968
 30
0.0
  0
ENDBLK
  5
24B
330
249
100
AcDbEntity
  8
0
100
AcDbBlockEnd
  0
BLOCK
  5
25C
330
255
100
AcDbEntity
  8
0
100
AcDbBlockBegin
  2
_U0
 70
     0
 10
0.0
 20
0.0
 30
0.0
  3
_U0
  1

  0
ENDBLK
  5
25D
330
255
100
AcDbEntity
  8
0
100
AcDbBlockEnd
  0
BLOCK
  5
262
330
261
100
AcDbEntity
  8
0
100
AcDbBlockBegin
  2
*D4
 70
     1
 10
0.0
 20
0.0
 30
0.0
  3
*D4
  1

  0
LINE
  5
264
330
261
100
AcDbEntity
  8
0
 62
   254
370
    -2
100
AcDbLine
 10
274.404842
 20
288.907994
 30
0.0
 11
274.404842
 21
328.5109970000001
 31
0.0
  0
LINE
  5
265
330
261
100
AcDbEntity
  8
0
 62
   254
370
    -2
100
AcDbLine
 10
204.404842
 20
297.907994
 30
0.0
 11
204.404842
 21
328.5109970000001
 31
0.0
  0
LINE
  5
266
330
261
100
AcDbEntity
  8
0
 62
   254
370
    -2
100
AcDbLine
 10
270.904842
 20
327.510997
 30
0.0
 11
207.904842
 21
327.510997
 31
0.0
  0
SOLID
  5
267
330
261
100
AcDbEntity
  8
0
 62
   254
100
AcDbTrace
 10
270.904842
 20
326.927663
 30
0.0
 11
270.904842
 21
328.09433
 31
0.0
 12
274.404842
 22
327.510997
 32
0.0
 13
274.404842
 23
327.510997
 33
0.0
  0
SOLID
  5
268
330
261
100
AcDbEntity
  8
0
 62
   254
100
AcDbTrace
 10
207.904842
 20
328.09433
 30
0.0
 11
207.904842
 21
326.927663
 31
0.0
 12
204.404842
 22
327.510997
 32
0.0
 13
204.404842
 23
327.510997
 33
0.0
  0
MTEXT
  5
269
330
261
100
AcDbEntity
  8
0
 62
   254
370
    13
100
AcDbMText
 10
239.404842
 20
332.7609970000001
 30
0.0
 40
3.5
 41
0.0
 71
     5
 72
     1
  1
\A1;70
  7
cesky
 73
     1
 44
1.0
  0
POINT
  5
26A
330
261
100
AcDbEntity
  8
Defpoints
 62
     0
100
AcDbPoint
 10
274.404842
 20
288.907994
 30
0.0
  0
POINT
  5
26B
330
261
100
AcDbEntity
  8
Defpoints
 62
     0
100
AcDbPoint
 10
204.404842
 20
297.907994
 30
0.0
  0
POINT
  5
26C
330
261
100
AcDbEntity
  8
Defpoints
 62
     0
100
AcDbPoint
 10
204.404842
 20
327.510997
 30
0.0
  0
ENDBLK
  5
263
330
261
100
AcDbEntity
  8
0
100
AcDbBlockEnd
  0
BLOCK
  5
274
330
26D
100
AcDbEntity
  8
0
100
AcDbBlockBegin
  2
_U1
 70
     0
 10
0.0
 20
0.0
 30
0.0
  3
_U1
  1

  0
ENDBLK
  5
275
330
26D
100
AcDbEntity
  8
0
100
AcDbBlockEnd
  0
BLOCK
  5
27A
330
279
100
AcDbEntity
  8
0
100
AcDbBlockBegin
  2
*D6
 70
     1
 10
0.0
 20
0.0
 30
0.0
  3
*D6
  1

  0
LINE
  5
27C
330
279
100
AcDbEntity
  8
0
 62
   254
370
    -2
100
AcDbLine
 10
371.404842
 20
306.907994
 30
0.0
 11
371.404842
 21
316.914763
 31
0.0
  0
LINE
  5
27D
330
279
100
AcDbEntity
  8
0
 62
   254
370
    -2
100
AcDbLine
 10
293.93249
 20
306.666057
 30
0.0
 11
293.93249
 21
316.914763
 31
0.0
  0
LINE
  5
27E
330
279
100
AcDbEntity
  8
0
 62
   254
370
    -2
100
AcDbLine
 10
367.904842
 20
315.914763
 30
0.0
 11
297.43249
 21
315.914763
 31
0.0
  0
SOLID
  5
27F
330
279
100
AcDbEntity
  8
0
 62
   254
100
AcDbTrace
 10
367.904842
 20
315.331429
 30
0.0
 11
367.904842
 21
316.498096
 31
0.0
 12
371.404842
 22
315.914763
 32
0.0
 13
371.404842
 23
315.914763
 33
0.0
  0
SOLID
  5
280
330
279
100
AcDbEntity
  8
0
 62
   254
100
AcDbTrace
 10
297.43249
 20
316.498096
 30
0.0
 11
297.43249
 21
315.331429
 31
0.0
 12
293.93249
 22
315.914763
 32
0.0
 13
293.93249
 23
315.914763
 33
0.0
  0
MTEXT
  5
281
330
279
100
AcDbEntity
  8
0
 62
   254
370
    13
100
AcDbMText
 10
332.668666
 20
321.164763
 30
0.0
 40
3.5
 41
0.0
 71
     5
 72
     1
  1
\A1;77.5
  7
cesky
 73
     1
 44
1.0
  0
POINT
  5
282
330
279
100
AcDbEntity
  8
Defpoints
 62
     0
100
AcDbPoint
 10
371.404842
 20
306.907994
 30
0.0
  0
POINT
  5
283
330
279
100
AcDbEntity
  8
Defpoints
 62
     0
100
AcDbPoint
 10
293.93249
 20
306.666057
 30
0.0
  0
POINT
  5
284
330
279
100
AcDbEntity
  8
Defpoints
 62
     0
100
AcDbPoint
 10
293.93249
 20
315.914763
 30
0.0
  0
ENDBLK
  5
27B
330
279
100
AcDbEntity
  8
0
100
AcDbBlockEnd
  0
BLOCK
  5
28C
330
285
100
AcDbEntity
  8
0
100
AcDbBlockBegin
  2
_U2
 70
     0
 10
0.0
 20
0.0
 30
0.0
  3
_U2
  1

  0
ENDBLK
  5
28D
330
285
100
AcDbEntity
  8
0
100
AcDbBlockEnd
  0
BLOCK
  5
292
330
291
100
AcDbEntity
  8
0
100
AcDbBlockBegin
  2
*D8
 70
     1
 10
0.0
 20
0.0
 30
0.0
  3
*D8
  1

  0
LINE
  5
294
330
291
100
AcDbEntity
  8
0
 62
   254
370
    -2
100
AcDbLine
 10
371.404842
 20
306.907994
 30
0.0
 11
371.404842
 21
328.5109970000001
 31
0.0
  0
LINE
  5
295
330
291
100
AcDbEntity
  8
0
 62
   254
370
    -2
100
AcDbLine
 10
274.404842
 20
288.907994
 30
0.0
 11
274.404842
 21
328.5109970000001
 31
0.0
  0
LINE
  5
296
330
291
100
AcDbEntity
  8
0
 62
   254
370
    -2
100
AcDbLine
 10
367.904842
 20
327.510997
 30
0.0
 11
277.904842
 21
327.510997
 31
0.0
  0
SOLID
  5
297
330
291
100
AcDbEntity
  8
0
 62
   254
100
AcDbTrace
 10
367.904842
 20
326.927663
 30
0.0
 11
367.904842
 21
328.09433
 31
0.0
 12
371.404842
 22
327.510997
 32
0.0
 13
371.404842
 23
327.510997
 33
0.0
  0
SOLID
  5
298
330
291
100
AcDbEntity
  8
0
 62
   254
100
AcDbTrace
 10
277.904842
 20
328.09433
 30
0.0
 11
277.904842
 21
326.927663
 31
0.0
 12
274.404842
 22
327.510997
 32
0.0
 13
274.404842
 23
327.510997
 33
0.0
  0
MTEXT
  5
299
330
291
100
AcDbEntity
  8
0
 62
   254
370
    13
100
AcDbMText
 10
322.904842
 20
332.7609970000001
 30
0.0
 40
3.5
 41
0.0
 71
     5
 72
     1
  1
\A1;97
  7
cesky
 73
     1
 44
1.0
  0
POINT
  5
29A
330
291
100
AcDbEntity
  8
Defpoints
 62
     0
100
AcDbPoint
 10
371.404842
 20
306.907994
 30
0.0
  0
POINT
  5
29B
330
291
100
AcDbEntity
  8
Defpoints
 62
     0
100
AcDbPoint
 10
274.404842
 20
288.907994
 30
0.0
  0
POINT
  5
29C
330
291
100
AcDbEntity
  8
Defpoints
 62
     0
100
AcDbPoint
 10
274.404842
 20
327.510997
 30
0.0
  0
ENDBLK
  5
293
330
291
100
AcDbEntity
  8
0
100
AcDbBlockEnd
  0
BLOCK
  5
2A4
330
29D
100
AcDbEntity
  8
0
100
AcDbBlockBegin
  2
_U3
 70
     0
 10
0.0
 20
0.0
 30
0.0
  3
_U3
  1

  0
ENDBLK
  5
2A5
330
29D
100
AcDbEntity
  8
0
100
AcDbBlockEnd
  0
BLOCK
  5
2AA
330
2A9
100
AcDbEntity
  8
0
100
AcDbBlockBegin
  2
*D10
 70
     1
 10
0.0
 20
0.0
 30
0.0
  3
*D10
  1

  0
LINE
  5
2AC
330
2A9
100
AcDbEntity
  8
0
 62
   254
370
    -2
100
AcDbLine
 10
293.532259
 20
288.907994
 30
0.0
 11
388.711044
 21
288.907994
 31
0.0
  0
LINE
  5
2AD
330
2A9
100
AcDbEntity
  8
0
 62
   254
370
    -2
100
AcDbLine
 10
330.83929
 20
306.907994
 30
0.0
 11
388.711044
 21
306.907994
 31
0.0
  0
LINE
  5
2AE
330
2A9
100
AcDbEntity
  8
0
 62
   254
370
    -2
100
AcDbLine
 10
387.711044
 20
288.907994
 30
0.0
 11
387.711044
 21
306.907994
 31
0.0
  0
SOLID
  5
2AF
330
2A9
100
AcDbEntity
  8
0
 62
   254
100
AcDbTrace
 10
388.294378
 20
303.407994
 30
0.0
 11
387.127711
 21
303.407994
 31
0.0
 12
387.711044
 22
306.907994
 32
0.0
 13
387.711044
 23
306.907994
 33
0.0
  0
MTEXT
  5
2B0
330
2A9
100
AcDbEntity
  8
0
 62
   254
370
    13
100
AcDbMText
 10
382.461044
 20
279.157994
 30
0.0
 40
3.5
 41
0.0
 71
     5
 72
     1
  1
\A1;36
  7
cesky
 11
0.0
 21
1.0
 31
0.0
 73
     1
 44
1.0
  0
POINT
  5
2B1
330
2A9
100
AcDbEntity
  8
Defpoints
 62
     0
100
AcDbPoint
 10
293.532259
 20
288.907994
 30
0.0
  0
POINT
  5
2B2
330
2A9
100
AcDbEntity
  8
Defpoints
 62
     0
100
AcDbPoint
 10
330.83929
 20
306.907994
 30
0.0
  0
POINT
  5
2B3
330
2A9
100
AcDbEntity
  8
Defpoints
 62
     0
100
AcDbPoint
 10
387.711044
 20
306.907994
 30
0.0
  0
ENDBLK
  5
2AB
330
2A9
100
AcDbEntity
  8
0
100
AcDbBlockEnd
  0
BLOCK
  5
2BA
330
2B4
100
AcDbEntity
  8
0
100
AcDbBlockBegin
  2
_U4
 70
     0
 10
0.0
 20
0.0
 30
0.0
  3
_U4
  1

  0
ENDBLK
  5
2BB
330
2B4
100
AcDbEntity
  8
0
100
AcDbBlockEnd
  0
BLOCK
  5
2C0
330
2BF
100
AcDbEntity
  8
0
100
AcDbBlockBegin
  2
*D12
 70
     1
 10
0.0
 20
0.0
 30
0.0
  3
*D12
  1

  0
LINE
  5
2C2
330
2BF
100
AcDbEntity
  8
0
 62
    95
370
    -2
100
AcDbLine
 10
206.404842
 20
308.907994
 30
0.0
 11
192.006449
 21
308.907994
 31
0.0
  0
LINE
  5
2C3
330
2BF
100
AcDbEntity
  8
0
 62
    95
370
    -2
100
AcDbLine
 10
206.404842
 20
268.907994
 30
0.0
 11
192.006449
 21
268.907994
 31
0.0
  0
LINE
  5
2C4
330
2BF
100
AcDbEntity
  8
0
 62
    95
370
    -2
100
AcDbLine
 10
193.006449
 20
305.407994
 30
0.0
 11
193.006449
 21
272.407994
 31
0.0
  0
SOLID
  5
2C5
330
2BF
100
AcDbEntity
  8
0
 62
    95
100
AcDbTrace
 10
193.589782
 20
305.407994
 30
0.0
 11
192.423116
 21
305.407994
 31
0.0
 12
193.006449
 22
308.907994
 32
0.0
 13
193.006449
 23
308.907994
 33
0.0
  0
SOLID
  5
2C6
330
2BF
100
AcDbEntity
  8
0
 62
    95
100
AcDbTrace
 10
192.423116
 20
272.407994
 30
0.0
 11
193.589782
 21
272.407994
 31
0.0
 12
193.006449
 22
268.907994
 32
0.0
 13
193.006449
 23
268.907994
 33
0.0
  0
MTEXT
  5
2C7
330
2BF
100
AcDbEntity
  8
0
 62
    95
370
    13
100
AcDbMText
 10
187.756449
 20
288.907994
 30
0.0
 40
3.5
 41
0.0
 71
     5
 72
     1
  1
\A1;40
  7
cesky
 11
0.0
 21
1.0
 31
0.0
 73
     1
 44
1.0
  0
POINT
  5
2C8
330
2BF
100
AcDbEntity
  8
Defpoints
 62
     0
100
AcDbPoint
 10
206.404842
 20
308.907994
 30
0.0
  0
POINT
  5
2C9
330
2BF
100
AcDbEntity
  8
Defpoints
 62
     0
100
AcDbPoint
 10
206.404842
 20
268.907994
 30
0.0
  0
POINT
  5
2CA
330
2BF
100
AcDbEntity
  8
Defpoints
 62
     0
100
AcDbPoint
 10
193.006449
 20
268.907994
 30
0.0
  0
ENDBLK
  5
2C1
330
2BF
100
AcDbEntity
  8
0
100
AcDbBlockEnd
  0
BLOCK
  5
2D3
330
2CB
100
AcDbEntity
  8
0
100
AcDbBlockBegin
  2
_U5
 70
     0
 10
0.0
 20
0.0
 30
0.0
  3
_U5
  1

  0
ENDBLK
  5
2D4
330
2CB
100
AcDbEntity
  8
0
100
AcDbBlockEnd
  0
BLOCK
  5
2D9
330
2D8
100
AcDbEntity
  8
0
100
AcDbBlockBegin
  2
*D14
 70
     1
 10
0.0
 20
0.0
 30
0.0
  3
*D14
  1

  0
LINE
  5
2DB
330
2D8
100
AcDbEntity
  8
0
 62
    95
370
    -2
100
AcDbLine
 10
277.154842
 20
313.907994
 30
0.0
 11
178.434788
 21
313.907994
 31
0.0
  0
LINE
  5
2DC
330
2D8
100
AcDbEntity
  8
0
 62
    95
370
    -2
100
AcDbLine
 10
277.154842
 20
263.907994
 30
0.0
 11
178.434788
 21
263.907994
 31
0.0
  0
LINE
  5
2DD
330
2D8
100
AcDbEntity
  8
0
 62
    95
370
    -2
100
AcDbLine
 10
179.434788
 20
310.407994
 30
0.0
 11
179.434788
 21
267.407994
 31
0.0
  0
SOLID
  5
2DE
330
2D8
100
AcDbEntity
  8
0
 62
    95
100
AcDbTrace
 10
180.018121
 20
310.407994
 30
0.0
 11
178.851455
 21
310.407994
 31
0.0
 12
179.434788
 22
313.907994
 32
0.0
 13
179.434788
 23
313.907994
 33
0.0
  0
SOLID
  5
2DF
330
2D8
100
AcDbEntity
  8
0
 62
    95
100
AcDbTrace
 10
178.851455
 20
267.407994
 30
0.0
 11
180.018121
 21
267.407994
 31
0.0
 12
179.434788
 22
263.907994
 32
0.0
 13
179.434788
 23
263.907994
 33
0.0
  0
MTEXT
  5
2E0
330
2D8
100
AcDbEntity
  8
0
 62
    95
370
    13
100
AcDbMText
 10
174.184788
 20
288.907994
 30
0.0
 40
3.5
 41
0.0
 71
     5
 72
     1
  1
\A1;50
  7
cesky
 11
0.0
 21
1.0
 31
0.0
 73
     1
 44
1.0
  0
POINT
  5
2E1
330
2D8
100
AcDbEntity
  8
Defpoints
 62
     0
100
AcDbPoint
 10
277.154842
 20
313.907994
 30
0.0
  0
POINT
  5
2E2
330
2D8
100
AcDbEntity
  8
Defpoints
 62
     0
100
AcDbPoint
 10
277.154842
 20
263.907994
 30
0.0
  0
POINT
  5
2E3
330
2D8
100
AcDbEntity
  8
Defpoints
 62
     0
100
AcDbPoint
 10
179.434788
 20
263.907994
 30
0.0
  0
ENDBLK
  5
2DA
330
2D8
100
AcDbEntity
  8
0
100
AcDbBlockEnd
  0
BLOCK
  5
2EC
330
2E4
100
AcDbEntity
  8
0
100
AcDbBlockBegin
  2
_U6
 70
     0
 10
0.0
 20
0.0
 30
0.0
  3
_U6
  1

  0
ENDBLK
  5
2ED
330
2E4
100
AcDbEntity
  8
0
100
AcDbBlockEnd
  0
ENDSEC
  0
SECTION
  2
ENTITIES
  0
POINT
  5
73
102
{ACAD_REACTORS
330
399
102
}
330
1F
100
AcDbEntity
  8
80
100
AcDbPoint
 10
274.404842
 20
288.907994
 30
0.0
  0
POINT
  5
76
330
1F
100
AcDbEntity
  8
SK4
 60
     1
100
AcDbPoint
 10
206.404842
 20
288.907994
 30
0.0
  0
POINT
  5
78
330
1F
100
AcDbEntity
  8
SK4
 60
     1
100
AcDbPoint
 10
274.404842
 20
288.907994
 30
0.0
  0
POINT
  5
79
330
1F
100
AcDbEntity
  8
4
 60
     1
100
AcDbPoint
 10
293.532259
 20
288.907994
 30
0.0
  0
POINT
  5
7A
330
1F
100
AcDbEntity
  8
4
 60
     1
100
AcDbPoint
 10
370.222081
 20
288.907994
 30
0.0
  0
POINT
  5
7B
330
1F
100
AcDbEntity
  8
SK6
 60
     1
100
AcDbPoint
 10
274.404842
 20
288.907994
 30
0.0
  0
POINT
  5
7C
330
1F
100
AcDbEntity
  8
SK6
 60
     1
100
AcDbPoint
 10
293.93249
 20
306.666057
 30
0.0
  0
LINE
  5
7D
330
1F
100
AcDbEntity
  8
1
100
AcDbLine
 10
362.942114
 20
300.9119609999999
 30
0.0
 11
362.908287
 21
300.816057
 31
0.0
  0
LINE
  5
7F
330
1F
100
AcDbEntity
  8
1
100
AcDbLine
 10
363.007245
 20
300.85232
 30
0.0
 11
362.972868
 21
300.754858
 31
0.0
  0
LINE
  5
80
330
1F
100
AcDbEntity
  8
1
100
AcDbLine
 10
365.763261
 20
300.110192
 30
0.0
 11
365.797653
 21
300.207697
 31
0.0
  0
LINE
  5
81
330
1F
100
AcDbEntity
  8
1
100
AcDbLine
 10
363.056052
 20
299.37001
 30
0.0
 11
363.021729
 21
299.272701
 31
0.0
  0
LINE
  5
82
330
1F
100
AcDbEntity
  8
1
100
AcDbLine
 10
363.012741
 20
299.3494490000001
 30
0.0
 11
362.978718
 21
299.25299
 31
0.0
  0
LINE
  5
83
330
1F
100
AcDbEntity
  8
1
100
AcDbLine
 10
365.071756
 20
298.801286
 30
0.0
 11
365.106092
 21
298.898635
 31
0.0
  0
LINE
  5
84
330
1F
100
AcDbEntity
  8
1
100
AcDbLine
 10
365.109328
 20
298.758333
 30
0.0
 11
365.143302
 21
298.8546559999999
 31
0.0
  0
LINE
  5
85
330
1F
100
AcDbEntity
  8
1
100
AcDbLine
 10
352.198242
 20
294.671596
 30
0.0
 11
352.555161
 21
294.465853
 31
0.0
  0
LINE
  5
87
330
1F
100
AcDbEntity
  8
1
100
AcDbLine
 10
355.839533
 20
293.109507
 30
0.0
 11
355.8429
 21
293.119052
 31
0.0
  0
LINE
  5
88
330
1F
100
AcDbEntity
  8
1
100
AcDbLine
 10
360.915229
 20
301.335064
 30
0.0
 11
360.915121
 21
301.334756
 31
0.0
  0
LINE
  5
89
330
1F
100
AcDbEntity
  8
1
100
AcDbLine
 10
360.915229
 20
301.335064
 30
0.0
 11
360.8991
 21
301.289334
 31
0.0
  0
LINE
  5
8A
330
1F
100
AcDbEntity
  8
1
100
AcDbLine
 10
367.689109
 20
298.894388
 30
0.0
 11
367.705239
 21
298.9401180000001
 31
0.0
  0
LINE
  5
8B
330
1F
100
AcDbEntity
  8
1
100
AcDbLine
 10
363.582068
 20
298.744664
 30
0.0
 11
363.616352
 21
298.841862
 31
0.0
  0
LINE
  5
8C
330
1F
100
AcDbEntity
  8
1
100
AcDbLine
 10
364.377836
 20
298.688642
 30
0.0
 11
364.343422
 21
298.591073
 31
0.0
  0
LINE
  5
8D
330
1F
100
AcDbEntity
  8
1
100
AcDbLine
 10
363.007939
 20
300.288445
 30
0.0
 11
363.04343
 21
300.389066
 31
0.0
  0
LINE
  5
8E
330
1F
100
AcDbEntity
  8
1
100
AcDbLine
 10
365.595694
 20
299.939008
 30
0.0
 11
365.560203
 21
299.838386
 31
0.0
  0
LINE
  5
8F
330
1F
100
AcDbEntity
  8
1
100
AcDbLine
 10
364.224721
 20
301.535758
 30
0.0
 11
364.259135
 21
301.633327
 31
0.0
  0
LINE
  5
90
330
1F
100
AcDbEntity
  8
1
100
AcDbLine
 10
365.0021220000001
 20
301.427664
 30
0.0
 11
364.986074
 21
301.382168
 31
0.0
  0
LINE
  5
91
330
1F
100
AcDbEntity
  8
1
100
AcDbLine
 10
358.118982
 20
306.407994
 30
0.0
 11
354.677567
 21
306.407994
 31
0.0
  0
LINE
  5
92
330
1F
100
AcDbEntity
  8
SK1
100
AcDbLine
 10
206.404842
 20
308.907994
 30
0.0
 11
206.404842
 21
268.907994
 31
0.0
  0
LINE
  5
93
330
1F
100
AcDbEntity
  8
SK1
100
AcDbLine
 10
204.404842
 20
306.907994
 30
0.0
 11
204.404842
 21
270.907994
 31
0.0
  0
LINE
  5
94
330
1F
100
AcDbEntity
  8
SK1
100
AcDbLine
 10
204.404842
 20
270.907994
 30
0.0
 11
206.404842
 21
268.907994
 31
0.0
  0
LINE
  5
95
330
1F
100
AcDbEntity
  8
SK1
100
AcDbLine
 10
206.404842
 20
308.907994
 30
0.0
 11
204.404842
 21
306.907994
 31
0.0
  0
LINE
  5
96
330
1F
100
AcDbEntity
  8
1
100
AcDbLine
 10
370.012839
 20
287.8757339999999
 30
0.0
 11
370.061292
 21
287.788323
 31
0.0
  0
LINE
  5
98
330
1F
100
AcDbEntity
  8
81
100
AcDbLine
 10
369.404842
 20
306.907994
 30
0.0
 11
373.404842
 21
306.907994
 31
0.0
  0
LINE
  5
99
330
1F
100
AcDbEntity
  8
1
100
AcDbLine
 10
274.404842
 20
313.407994
 30
0.0
 11
274.404842
 21
288.907994
 31
0.0
  0
LINE
  5
9A
330
1F
100
AcDbEntity
  8
1
100
AcDbLine
 10
274.404842
 20
288.907994
 30
0.0
 11
274.404842
 21
264.407994
 31
0.0
  0
LINE
  5
9B
330
1F
100
AcDbEntity
  8
1
100
AcDbLine
 10
370.012832
 20
289.002636
 30
0.0
 11
370.131403
 21
288.931391
 31
0.0
  0
LINE
  5
9C
330
1F
100
AcDbEntity
  8
1
100
AcDbLine
 10
369.741431
 20
280.596325
 30
0.0
 11
369.941569
 21
280.92941
 31
0.0
  0
LINE
  5
9D
330
1F
100
AcDbEntity
  8
1
100
AcDbLine
 10
369.95972
 20
280.992711
 30
0.0
 11
369.994406
 21
282.97983
 31
0.0
  0
LINE
  5
9E
330
1F
100
AcDbEntity
  8
1
100
AcDbLine
 10
370.012843
 20
284.036078
 30
0.0
 11
370.077223
 21
287.724428
 31
0.0
  0
LINE
  5
9F
330
1F
100
AcDbEntity
  8
1
100
AcDbLine
 10
371.359382
 20
288.156592
 30
0.0
 11
370.728011
 21
289.295615
 31
0.0
  0
LINE
  5
A0
330
1F
100
AcDbEntity
  8
1
100
AcDbLine
 10
370.556683
 20
279.398314
 30
0.0
 11
370.67449
 21
279.583751
 31
0.0
  0
LINE
  5
A1
330
1F
100
AcDbEntity
  8
1
100
AcDbLine
 10
369.6138180000001
 20
279.39399
 30
0.0
 11
370.012841
 21
283.153494
 31
0.0
  0
LINE
  5
A2
330
1F
100
AcDbEntity
  8
1
100
AcDbLine
 10
370.012841
 20
283.153494
 30
0.0
 11
370.012841
 21
289.186266
 31
0.0
  0
LINE
  5
A3
330
1F
100
AcDbEntity
  8
1
100
AcDbLine
 10
370.048544
 20
278.497858
 30
0.0
 11
369.806754
 21
278.890839
 31
0.0
  0
LINE
  5
A4
330
1F
100
AcDbEntity
  8
1
100
AcDbLine
 10
370.048544
 20
278.497858
 30
0.0
 11
370.023262
 21
278.259657
 31
0.0
  0
LINE
  5
A5
330
1F
100
AcDbEntity
  8
1
100
AcDbLine
 10
370.2591799999999
 20
289.682042
 30
0.0
 11
370.54268
 21
290.066215
 31
0.0
  0
LINE
  5
A6
330
1F
100
AcDbEntity
  8
1
100
AcDbLine
 10
370.54268
 20
290.304826
 30
0.0
 11
370.54268
 21
290.066215
 31
0.0
  0
LINE
  5
A7
330
1F
100
AcDbEntity
  8
1
100
AcDbLine
 10
369.338208
 20
271.407994
 30
0.0
 11
370.065353
 21
278.258984
 31
0.0
  0
LINE
  5
A8
330
1F
100
AcDbEntity
  8
1
100
AcDbLine
 10
369.338208
 20
271.407994
 30
0.0
 11
354.353619
 21
271.407994
 31
0.0
  0
LINE
  5
A9
330
1F
100
AcDbEntity
  8
1
100
AcDbLine
 10
370.584842
 20
294.229468
 30
0.0
 11
370.584842
 21
290.30409
 31
0.0
  0
LINE
  5
AA
330
1F
100
AcDbEntity
  8
1
100
AcDbLine
 10
274.904842
 20
263.907994
 30
0.0
 11
274.904842
 21
288.907994
 31
0.0
  0
LINE
  5
AB
330
1F
100
AcDbEntity
  8
1
100
AcDbLine
 10
274.904842
 20
288.907994
 30
0.0
 11
274.904842
 21
313.907994
 31
0.0
  0
LINE
  5
AC
330
1F
100
AcDbEntity
  8
1
100
AcDbLine
 10
279.404842
 20
263.907994
 30
0.0
 11
279.404842
 21
266.413949
 31
0.0
  0
LINE
  5
AD
330
1F
100
AcDbEntity
  8
1
100
AcDbLine
 10
279.404842
 20
313.907994
 30
0.0
 11
279.404842
 21
275.405702
 31
0.0
  0
LINE
  5
AE
330
1F
100
AcDbEntity
  8
1
100
AcDbLine
 10
279.404842
 20
263.907994
 30
0.0
 11
282.21855
 21
266.721702
 31
0.0
  0
LINE
  5
AF
330
1F
100
AcDbEntity
  8
1
100
AcDbLine
 10
282.21855
 20
311.094285
 30
0.0
 11
279.404842
 21
313.907994
 31
0.0
  0
LINE
  5
B0
330
1F
100
AcDbEntity
  8
SK1
100
AcDbLine
 10
274.404842
 20
308.907994
 30
0.0
 11
206.404842
 21
308.907994
 31
0.0
  0
LINE
  5
B1
330
1F
100
AcDbEntity
  8
1
100
AcDbLine
 10
274.904842
 20
263.907994
 30
0.0
 11
274.404842
 21
264.407994
 31
0.0
  0
LINE
  5
B2
330
1F
100
AcDbEntity
  8
1
100
AcDbLine
 10
274.404842
 20
313.407994
 30
0.0
 11
274.904842
 21
313.907994
 31
0.0
  0
LINE
  5
B3
330
1F
100
AcDbEntity
  8
1
100
AcDbLine
 10
279.404842
 20
313.907994
 30
0.0
 11
274.904842
 21
313.907994
 31
0.0
  0
LINE
  5
B4
330
1F
100
AcDbEntity
  8
1
100
AcDbLine
 10
370.682658
 20
289.357775
 30
0.0
 11
370.190758
 21
288.882752
 31
0.0
  0
LINE
  5
B5
330
1F
100
AcDbEntity
  8
1
100
AcDbLine
 10
370.012837
 20
288.710937
 30
0.0
 11
370.190758
 21
288.882752
 31
0.0
  0
LINE
  5
B6
330
1F
100
AcDbEntity
  8
1
100
AcDbLine
 10
371.388062
 20
288.08519
 30
0.0
 11
370.724553
 21
287.919759
 31
0.0
  0
LINE
  5
B7
330
1F
100
AcDbEntity
  8
1
100
AcDbLine
 10
370.073508
 20
287.757435
 30
0.0
 11
370.724553
 21
287.919759
 31
0.0
  0
LINE
  5
B8
330
1F
100
AcDbEntity
  8
1
100
AcDbLine
 10
370.59984
 20
280.774907
 30
0.0
 11
369.954856
 21
280.959853
 31
0.0
  0
LINE
  5
B9
330
1F
100
AcDbEntity
  8
1
100
AcDbLine
 10
370.59984
 20
280.774907
 30
0.0
 11
371.264067
 21
280.584443
 31
0.0
  0
LINE
  5
BA
330
1F
100
AcDbEntity
  8
1
100
AcDbLine
 10
369.902311
 20
279.9662140000001
 30
0.0
 11
369.566662
 21
280.313789
 31
0.0
  0
LINE
  5
BB
330
1F
100
AcDbEntity
  8
1
100
AcDbLine
 10
370.507783
 20
279.33923
 30
0.0
 11
370.032761
 21
279.83113
 31
0.0
  0
LINE
  5
BC
330
1F
100
AcDbEntity
  8
1
100
AcDbLine
 10
355.694184
 20
293.145455
 30
0.0
 11
355.718918
 21
292.4225190000001
 31
0.0
  0
LINE
  5
BD
330
1F
100
AcDbEntity
  8
1
100
AcDbLine
 10
355.772653
 20
290.851979
 30
0.0
 11
355.81649
 21
289.570714
 31
0.0
  0
LINE
  5
BE
330
1F
100
AcDbEntity
  8
1
100
AcDbLine
 10
368.852144
 20
293.122742
 30
0.0
 11
359.285239
 21
292.789006
 31
0.0
  0
LINE
  5
BF
330
1F
100
AcDbEntity
  8
1
100
AcDbLine
 10
286.904842
 20
306.345007
 30
0.0
 11
286.904842
 21
283.213735
 31
0.0
  0
LINE
  5
C4
330
1F
100
AcDbEntity
  8
80
100
AcDbLine
 10
275.404416
 20
288.907994
 30
0.0
 11
273.405268
 21
288.907994
 31
0.0
  0
LINE
  5
C5
330
1F
100
AcDbEntity
  8
1
100
AcDbLine
 10
358.207892
 20
306.245683
 30
0.0
 11
358.202659
 21
306.397945
 31
0.0
  0
LINE
  5
C6
330
1F
100
AcDbEntity
  8
1
100
AcDbLine
 10
361.674378
 20
293.627669
 30
0.0
 11
370.397543
 21
293.931972
 31
0.0
  0
LINE
  5
C7
330
1F
100
AcDbEntity
  8
1
100
AcDbLine
 10
370.399317
 20
293.676422
 30
0.0
 11
370.397543
 21
293.931972
 31
0.0
  0
LINE
  5
C8
330
1F
100
AcDbEntity
  8
1
100
AcDbLine
 10
370.323397
 20
293.146373
 30
0.0
 11
359.293071
 21
292.761587
 31
0.0
  0
LINE
  5
C9
330
1F
100
AcDbEntity
  8
1
100
AcDbLine
 10
370.323397
 20
293.146373
 30
0.0
 11
368.126819
 21
289.507146
 31
0.0
  0
LINE
  5
CA
330
1F
100
AcDbEntity
  8
1
100
AcDbLine
 10
370.439548
 20
293.94809
 30
0.0
 11
361.679611
 21
293.6425040000001
 31
0.0
  0
LINE
  5
CB
330
1F
100
AcDbEntity
  8
1
100
AcDbLine
 10
361.674378
 20
293.627669
 30
0.0
 11
361.679611
 21
293.6425040000001
 31
0.0
  0
LINE
  5
CC
330
1F
100
AcDbEntity
  8
1
100
AcDbLine
 10
357.938073
 20
305.810938
 30
0.0
 11
357.919564
 21
306.349532
 31
0.0
  0
LINE
  5
CD
330
1F
100
AcDbEntity
  8
1
100
AcDbLine
 10
358.015587
 20
297.026985
 30
0.0
 11
358.010354
 21
297.01215
 31
0.0
  0
LINE
  5
CE
330
1F
100
AcDbEntity
  8
1
100
AcDbLine
 10
358.015587
 20
297.026985
 30
0.0
 11
357.6952
 21
306.349851
 31
0.0
  0
LINE
  5
CF
330
1F
100
AcDbEntity
  8
1
100
AcDbLine
 10
357.690386
 20
306.322834
 30
0.0
 11
358.010354
 21
297.01215
 31
0.0
  0
LINE
  5
D0
330
1F
100
AcDbEntity
  8
1
100
AcDbLine
 10
370.439548
 20
293.94809
 30
0.0
 11
370.437993
 21
294.172166
 31
0.0
  0
LINE
  5
D1
330
1F
100
AcDbEntity
  8
1
100
AcDbLine
 10
370.439548
 20
293.94809
 30
0.0
 11
370.397543
 21
293.931972
 31
0.0
  0
LINE
  5
D2
330
1F
100
AcDbEntity
  8
1
100
AcDbLine
 10
370.065353
 20
278.258984
 30
0.0
 11
370.023262
 21
278.259657
 31
0.0
  0
LINE
  5
D3
330
1F
100
AcDbEntity
  8
1
100
AcDbLine
 10
369.806754
 20
278.890839
 30
0.0
 11
369.630984
 21
278.893651
 31
0.0
  0
LINE
  5
D4
330
1F
100
AcDbEntity
  8
1
100
AcDbLine
 10
369.25868
 20
283.153494
 30
0.0
 11
370.012841
 21
283.153494
 31
0.0
  0
LINE
  5
D5
330
1F
100
AcDbEntity
  8
1
100
AcDbLine
 10
370.083111
 20
289.685116
 30
0.0
 11
370.2591799999999
 21
289.682042
 31
0.0
  0
LINE
  5
D6
330
1F
100
AcDbEntity
  8
1
100
AcDbLine
 10
370.54268
 20
290.304826
 30
0.0
 11
370.584842
 21
290.30409
 31
0.0
  0
LINE
  5
D7
330
1F
100
AcDbEntity
  8
1
100
AcDbLine
 10
370.323397
 20
293.146373
 30
0.0
 11
370.332777
 21
293.1499720000001
 31
0.0
  0
LINE
  5
D8
330
1F
100
AcDbEntity
  8
1
100
AcDbLine
 10
371.233406
 20
280.513944
 30
0.0
 11
370.67449
 21
279.583751
 31
0.0
  0
LINE
  5
D9
330
1F
100
AcDbEntity
  8
1
100
AcDbLine
 10
370.623573
 20
289.406675
 30
0.0
 11
370.438136
 21
289.524481
 31
0.0
  0
LINE
  5
DA
330
1F
100
AcDbEntity
  8
1
100
AcDbLine
 10
370.173409
 20
289.6835450000001
 30
0.0
 11
370.438136
 21
289.524481
 31
0.0
  0
LINE
  5
DB
330
1F
100
AcDbEntity
  8
1
100
AcDbLine
 10
371.399861
 20
287.789483
 30
0.0
 11
371.2754240000001
 21
280.660477
 31
0.0
  0
LINE
  5
DC
330
1F
100
AcDbEntity
  8
1
100
AcDbLine
 10
371.399861
 20
287.789483
 30
0.0
 11
371.398222
 21
288.009171
 31
0.0
  0
LINE
  5
DD
330
1F
100
AcDbEntity
  8
1
100
AcDbLine
 10
369.721009
 20
278.892216
 30
0.0
 11
370.445624
 21
279.293876
 31
0.0
  0
LINE
  5
DE
330
1F
100
AcDbEntity
  8
1
100
AcDbLine
 10
370.237296
 20
288.821736
 30
0.0
 11
370.69747
 21
287.991559
 31
0.0
  0
LINE
  5
DF
330
1F
100
AcDbEntity
  8
1
100
AcDbLine
 10
369.971745
 20
279.784592
 30
0.0
 11
369.635484
 21
279.598199
 31
0.0
  0
LINE
  5
E0
330
1F
100
AcDbEntity
  8
1
100
AcDbLine
 10
370.570267
 20
280.704096
 30
0.0
 11
370.0814
 21
279.890484
 31
0.0
  0
LINE
  5
E1
330
1F
100
AcDbEntity
  8
1
100
AcDbLine
 10
370.734349
 20
287.843649
 30
0.0
 11
370.612285
 21
280.850629
 31
0.0
  0
LINE
  5
E2
330
1F
100
AcDbEntity
  8
1
100
AcDbLine
 10
358.315194
 20
294.491297
 30
0.0
 11
357.916608
 21
305.617882
 31
0.0
  0
LINE
  5
E3
330
1F
100
AcDbEntity
  8
1
100
AcDbLine
 10
359.799395
 20
304.599112
 30
0.0
 11
368.79227
 21
304.912823
 31
0.0
  0
LINE
  5
E4
330
1F
100
AcDbEntity
  8
1
100
AcDbLine
 10
360.12121
 20
295.615599
 30
0.0
 11
359.799395
 21
304.599112
 31
0.0
  0
LINE
  5
E5
330
1F
100
AcDbEntity
  8
1
100
AcDbLine
 10
369.114084
 20
295.92931
 30
0.0
 11
360.12121
 21
295.615599
 31
0.0
  0
LINE
  5
E6
330
1F
100
AcDbEntity
  8
1
100
AcDbLine
 10
368.79227
 20
304.912823
 30
0.0
 11
369.114084
 21
295.92931
 31
0.0
  0
LINE
  5
E7
330
1F
100
AcDbEntity
  8
1
100
AcDbLine
 10
358.664726
 20
306.420024
 30
0.0
 11
369.802905
 21
306.808573
 31
0.0
  0
LINE
  5
E8
330
1F
100
AcDbEntity
  8
1
100
AcDbLine
 10
370.606553
 20
306.060564
 30
0.0
 11
371.005139
 21
294.933979
 31
0.0
  0
LINE
  5
E9
330
1F
100
AcDbEntity
  8
1
100
AcDbLine
 10
370.257021
 20
294.131837
 30
0.0
 11
359.118842
 21
293.743288
 31
0.0
  0
LINE
  5
EA
330
1F
100
AcDbEntity
  8
80
100
AcDbLine
 10
274.404842
 20
287.90842
 30
0.0
 11
274.404842
 21
289.907567
 31
0.0
  0
LINE
  5
EB
330
1F
100
AcDbEntity
  8
81
100
AcDbLine
 10
371.404842
 20
308.907994
 30
0.0
 11
371.404842
 21
304.907994
 31
0.0
  0
LINE
  5
EC
330
1F
100
AcDbEntity
  8
SK1
100
AcDbLine
 10
206.404842
 20
268.907994
 30
0.0
 11
274.404842
 21
268.907994
 31
0.0
  0
LINE
  5
ED
330
1F
100
AcDbEntity
  8
1
100
AcDbLine
 10
274.904842
 20
263.907994
 30
0.0
 11
279.404842
 21
263.907994
 31
0.0
  0
LINE
  5
EE
330
1F
100
AcDbEntity
  8
1
100
AcDbLine
 10
368.262149
 20
283.153494
 30
0.0
 11
368.594503
 21
283.153494
 31
0.0
  0
LINE
  5
143
330
1F
100
AcDbEntity
  8
NOCUT
100
AcDbLine
 10
370.584842
 20
288.907994
 30
0.0
 11
204.404842
 21
288.907994
 31
0.0
  0
LINE
  5
144
330
1F
100
AcDbEntity
  8
NOCUT
100
AcDbLine
 10
279.404842
 20
313.907994
 30
0.0
 11
282.21855
 21
311.094285
 31
0.0
  0
LINE
  5
145
330
1F
100
AcDbEntity
  8
NOCUT
100
AcDbLine
 10
293.532259
 20
306.407994
 30
0.0
 11
370.164517
 21
306.407994
 31
0.0
  0
LINE
  5
146
330
1F
100
AcDbEntity
  8
NOCUT
100
AcDbLine
 10
370.164517
 20
306.407994
 30
0.0
 11
370.584842
 21
294.474829
 31
0.0
  0
LINE
  5
147
330
1F
100
AcDbEntity
  8
NOCUT
100
AcDbLine
 10
370.584842
 20
294.474829
 30
0.0
 11
370.584842
 21
288.907994
 31
0.0
  0
LINE
  5
148
330
1F
100
AcDbEntity
  8
NOCUT
100
AcDbLine
 10
204.404842
 20
306.907994
 30
0.0
 11
206.404842
 21
308.907994
 31
0.0
  0
LINE
  5
149
330
1F
100
AcDbEntity
  8
NOCUT
100
AcDbLine
 10
274.404842
 20
308.907994
 30
0.0
 11
274.404842
 21
313.407994
 31
0.0
  0
LINE
  5
14A
330
1F
100
AcDbEntity
  8
NOCUT
100
AcDbLine
 10
274.404842
 20
313.407994
 30
0.0
 11
274.904842
 21
313.907994
 31
0.0
  0
LINE
  5
14B
330
1F
100
AcDbEntity
  8
NOCUT
100
AcDbLine
 10
274.404842
 20
308.907994
 30
0.0
 11
206.404842
 21
308.907994
 31
0.0
  0
LINE
  5
14C
330
1F
100
AcDbEntity
  8
NOCUT
100
AcDbLine
 10
279.404842
 20
313.907994
 30
0.0
 11
274.904842
 21
313.907994
 31
0.0
  0
LINE
  5
14D
330
1F
100
AcDbEntity
  8
NOCUT
100
AcDbLine
 10
204.404842
 20
306.907994
 30
0.0
 11
204.404842
 21
288.907994
 31
0.0
  0
ARC
  5
156
330
1F
100
AcDbEntity
  8
1
100
AcDbCircle
 10
293.532259
 20
255.407994
 30
0.0
 40
16.0
100
AcDbArc
 50
102.458096
 51
135.0
  0
ARC
  5
157
330
1F
100
AcDbEntity
  8
1
100
AcDbCircle
 10
293.532259
 20
322.407994
 30
0.0
 40
16.0
100
AcDbArc
 50
225.0
 51
262.725236
  0
CIRCLE
  5
158
330
1F
100
AcDbEntity
  8
1
100
AcDbCircle
 10
365.418941
 20
284.60888
 30
0.0
 40
1.35
  0
ARC
  5
159
330
1F
100
AcDbEntity
  8
1
100
AcDbCircle
 10
365.418941
 20
284.60888
 30
0.0
 40
1.75
100
AcDbArc
 50
75.0
 51
345.0
  0
ARC
  5
168
330
1F
100
AcDbEntity
  8
NOCUT
100
AcDbCircle
 10
293.532259
 20
322.407994
 30
0.0
 40
16.0
100
AcDbArc
 50
225.0
 51
270.0
  0
ELLIPSE
  5
169
330
1F
100
AcDbEntity
  8
1
100
AcDbEllipse
 10
364.310234
 20
300.1375910000001
 30
0.0
 11
-3.395004864809725
 21
1.197473159581585
 31
0.0
210
0.0
220
0.0
230
0.9999999999999998
 40
0.9986239999999998
 41
3.141585274248855
 42
5.872218228534559
  0
ELLIPSE
  5
16A
330
1F
100
AcDbEntity
  8
1
100
AcDbEllipse
 10
364.310234
 20
300.1375910000001
 30
0.0
 11
-3.395004864809725
 21
1.197473159581585
 31
0.0
210
0.0
220
0.0
230
0.9999999999999998
 40
0.9986239999999998
 41
5.872218228534562
 42
6.283185307179585
  0
ELLIPSE
  5
16B
330
1F
100
AcDbEntity
  8
1
100
AcDbEllipse
 10
362.905622
 20
300.687457
 30
0.0
 11
-0.0898897536456661
 21
0.0317055708602406
 31
0.0
210
0.0
220
0.0
230
0.9999999999999998
 40
0.998624
 41
3.886489476374764
 42
4.563221393255449
  0
ELLIPSE
  5
16C
330
1F
100
AcDbEntity
  8
1
100
AcDbEllipse
 10
362.99496
 20
300.855572
 30
0.0
 11
-0.0898897536456659
 21
0.0317055708602405
 31
0.0
210
0.0
220
0.0
230
0.9999999999999998
 40
0.998624
 41
0.2212980471867858
 42
1.421628739665668
  0
ELLIPSE
  5
16D
330
1F
100
AcDbEntity
  8
1
100
AcDbEllipse
 10
363.496983
 20
300.7960109999999
 30
0.0
 11
-0.5666776289729544
 21
0.1998763706833382
 31
0.0
210
0.0
220
0.0
230
0.9999999999999998
 40
0.9986239999999998
 41
5.239953310136228
 42
6.504483354366412
  0
ELLIPSE
  5
16E
330
1F
100
AcDbEntity
  8
1
100
AcDbEllipse
 10
363.402059
 20
301.292069
 30
0.0
 11
-0.089889753645668
 21
0.0317055708602412
 31
0.0
210
0.0
220
0.0
230
0.9999999999999998
 40
0.9986239999999998
 41
4.039622617657141
 42
5.239953310136023
  0
ELLIPSE
  5
16F
330
1F
100
AcDbEntity
  8
1
100
AcDbEllipse
 10
363.563615
 20
301.392966
 30
0.0
 11
-0.089889753645668
 21
0.0317055708602412
 31
0.0
210
0.0
220
0.0
230
0.9999999999999998
 40
0.9986239999999998
 41
0.8980299640675108
 42
1.574761880948188
  0
ELLIPSE
  5
170
330
1F
100
AcDbEntity
  8
1
100
AcDbEllipse
 10
363.729662
 20
301.869761
 30
0.0
 11
-0.5666776289729542
 21
0.1998763706833381
 31
0.0
210
0.0
220
0.0
230
0.9999999999999998
 40
0.9986239999999998
 41
1.574761880948132
 42
2.839291925178306
  0
ELLIPSE
  5
171
330
1F
100
AcDbEntity
  8
1
100
AcDbEllipse
 10
364.134831
 20
301.567464
 30
0.0
 11
-0.0898897536456661
 21
0.0317055708602406
 31
0.0
210
0.0
220
0.0
230
0.9999999999999998
 40
0.998624
 41
2.839291925178303
 42
3.516023842058904
  0
ELLIPSE
  5
172
330
1F
100
AcDbEntity
  8
1
100
AcDbEllipse
 10
364.325315
 20
301.574109
 30
0.0
 11
-0.0898897536456659
 21
0.0317055708602405
 31
0.0
210
0.0
220
0.0
230
0.9999999999999998
 40
0.998624
 41
5.457285803169805
 42
6.657616495648713
  0
ELLIPSE
  5
173
330
1F
100
AcDbEntity
  8
1
100
AcDbEllipse
 10
364.525066
 20
301.110074
 30
0.0
 11
-0.5666776289729544
 21
0.1998763706833382
 31
0.0
210
0.0
220
0.0
230
0.9999999999999998
 40
0.9986239999999998
 41
4.192755758939611
 42
5.457285803169802
  0
ELLIPSE
  5
174
330
1F
100
AcDbEntity
  8
1
100
AcDbEllipse
 10
364.907592
 20
301.43985
 30
0.0
 11
-0.089889753645668
 21
0.0317055708602412
 31
0.0
210
0.0
220
0.0
230
0.9999999999999998
 40
0.9986239999999998
 41
2.992425066460483
 42
4.192755758939816
  0
ELLIPSE
  5
175
330
1F
100
AcDbEntity
  8
1
100
AcDbEllipse
 10
365.075964
 20
301.350462
 30
0.0
 11
-0.089889753645668
 21
0.0317055708602412
 31
0.0
210
0.0
220
0.0
230
0.9999999999999998
 40
0.9986239999999998
 41
6.134017720050231
 42
6.810749636931161
  0
ELLIPSE
  5
176
330
1F
100
AcDbEntity
  8
1
100
AcDbEllipse
 10
365.572472
 20
301.444856
 30
0.0
 11
-0.5666776289729542
 21
0.1998763706833381
 31
0.0
210
0.0
220
0.0
230
0.9999999999999998
 40
0.9986239999999998
 41
0.5275643297515366
 42
1.792094373981718
  0
ELLIPSE
  5
177
330
1F
100
AcDbEntity
  8
1
100
AcDbEllipse
 10
365.513281
 20
300.943422
 30
0.0
 11
-0.0898897536456661
 21
0.0317055708602406
 31
0.0
210
0.0
220
0.0
230
0.9999999999999998
 40
0.998624
 41
1.7920943739819
 42
2.468826290862354
  0
ELLIPSE
  5
178
330
1F
100
AcDbEntity
  8
1
100
AcDbEllipse
 10
365.614426
 20
300.781952
 30
0.0
 11
-0.0898897536456659
 21
0.0317055708602405
 31
0.0
210
0.0
220
0.0
230
0.9999999999999998
 40
0.998624
 41
4.410088251973299
 42
5.61041894445245
  0
ELLIPSE
  5
179
330
1F
100
AcDbEntity
  8
1
100
AcDbEllipse
 10
365.312154
 20
300.377479
 30
0.0
 11
-0.5666776289729544
 21
0.1998763706833382
 31
0.0
210
0.0
220
0.0
230
0.9999999999999998
 40
0.9986239999999998
 41
3.145558207743012
 42
4.410088251973201
  0
ELLIPSE
  5
17A
330
1F
100
AcDbEntity
  8
1
100
AcDbEllipse
 10
365.789604
 20
300.211197
 30
0.0
 11
-0.089889753645668
 21
0.0317055708602412
 31
0.0
210
0.0
220
0.0
230
0.9999999999999998
 40
0.9986239999999998
 41
1.945227515264276
 42
3.145558207743196
  0
ELLIPSE
  5
17B
330
1F
100
AcDbEntity
  8
1
100
AcDbEllipse
 10
365.796421
 20
300.020912
 30
0.0
 11
-0.089889753645668
 21
0.0317055708602412
 31
0.0
210
0.0
220
0.0
230
0.9999999999999998
 40
0.9986239999999998
 41
5.08682016885407
 42
5.763552085734485
  0
ELLIPSE
  5
17C
330
1F
100
AcDbEntity
  8
1
100
AcDbEllipse
 10
366.126881
 20
299.63851
 30
0.0
 11
-0.5666776289729542
 21
0.1998763706833381
 31
0.0
210
0.0
220
0.0
230
0.9999999999999998
 40
0.9986239999999998
 41
5.763552085734536
 42
7.028082129964699
  0
ELLIPSE
  5
17D
330
1F
100
AcDbEntity
  8
1
100
AcDbEllipse
 10
365.662521
 20
299.4393740000001
 30
0.0
 11
-0.0898897536456661
 21
0.0317055708602406
 31
0.0
210
0.0
220
0.0
230
0.9999999999999998
 40
0.998624
 41
0.7448968227852287
 42
1.421628739665815
  0
ELLIPSE
  5
17E
330
1F
100
AcDbEntity
  8
1
100
AcDbEllipse
 10
365.5731830000001
 20
299.27126
 30
0.0
 11
-0.0898897536456659
 21
0.0317055708602405
 31
0.0
210
0.0
220
0.0
230
0.9999999999999998
 40
0.998624
 41
3.362890700776466
 42
4.563221393255744
  0
ELLIPSE
  5
17F
330
1F
100
AcDbEntity
  8
1
100
AcDbEllipse
 10
365.07116
 20
299.33082
 30
0.0
 11
-0.5666776289729544
 21
0.1998763706833382
 31
0.0
210
0.0
220
0.0
230
0.9999999999999998
 40
0.9986239999999998
 41
2.09836065654641
 42
3.362890700776606
  0
ELLIPSE
  5
180
330
1F
100
AcDbEntity
  8
1
100
AcDbEllipse
 10
365.166084
 20
298.834763
 30
0.0
 11
-0.089889753645668
 21
0.0317055708602412
 31
0.0
210
0.0
220
0.0
230
0.9999999999999998
 40
0.9986239999999998
 41
0.8980299640673477
 42
2.098360656546434
  0
ELLIPSE
  5
181
330
1F
100
AcDbEntity
  8
1
100
AcDbEllipse
 10
365.004528
 20
298.733865
 30
0.0
 11
-0.089889753645668
 21
0.0317055708602412
 31
0.0
210
0.0
220
0.0
230
0.9999999999999998
 40
0.9986239999999998
 41
4.03962261765721
 42
4.71635453453798
  0
ELLIPSE
  5
182
330
1F
100
AcDbEntity
  8
1
100
AcDbEllipse
 10
364.838481
 20
298.25707
 30
0.0
 11
-0.5666776289729542
 21
0.1998763706833381
 31
0.0
210
0.0
220
0.0
230
0.9999999999999998
 40
0.9986239999999998
 41
4.716354534537924
 42
5.980884578768099
  0
ELLIPSE
  5
183
330
1F
100
AcDbEntity
  8
1
100
AcDbEllipse
 10
364.433312
 20
298.559368
 30
0.0
 11
-0.0898897536456661
 21
0.0317055708602406
 31
0.0
210
0.0
220
0.0
230
0.9999999999999998
 40
0.998624
 41
5.98088457876824
 42
6.657616495648822
  0
ELLIPSE
  5
184
330
1F
100
AcDbEntity
  8
1
100
AcDbEllipse
 10
364.242828
 20
298.552723
 30
0.0
 11
-0.0898897536456659
 21
0.0317055708602405
 31
0.0
210
0.0
220
0.0
230
0.9999999999999998
 40
0.998624
 41
2.315693149580011
 42
3.516023842058973
  0
ELLIPSE
  5
185
330
1F
100
AcDbEntity
  8
1
100
AcDbEllipse
 10
364.043077
 20
299.016757
 30
0.0
 11
-0.5666776289729544
 21
0.1998763706833382
 31
0.0
210
0.0
220
0.0
230
0.9999999999999998
 40
0.9986239999999998
 41
1.051163105349854
 42
2.315693149579987
  0
ELLIPSE
  5
186
330
1F
100
AcDbEntity
  8
1
100
AcDbEllipse
 10
363.660551
 20
298.686981
 30
0.0
 11
-0.089889753645668
 21
0.0317055708602412
 31
0.0
210
0.0
220
0.0
230
0.9999999999999998
 40
0.9986239999999998
 41
6.134017720050543
 42
7.334348412529312
  0
ELLIPSE
  5
187
330
1F
100
AcDbEntity
  8
1
100
AcDbEllipse
 10
363.492179
 20
298.77637
 30
0.0
 11
-0.089889753645668
 21
0.0317055708602412
 31
0.0
210
0.0
220
0.0
230
0.9999999999999998
 40
0.9986239999999998
 41
2.992425066460556
 42
3.669156983341292
  0
ELLIPSE
  5
188
330
1F
100
AcDbEntity
  8
1
100
AcDbEllipse
 10
362.995671
 20
298.6819759999999
 30
0.0
 11
-0.5666776289729542
 21
0.1998763706833381
 31
0.0
210
0.0
220
0.0
230
0.9999999999999998
 40
0.9986239999999998
 41
3.66915698334133
 42
4.933687027571533
  0
ELLIPSE
  5
189
330
1F
100
AcDbEntity
  8
1
100
AcDbEllipse
 10
363.054862
 20
299.183409
 30
0.0
 11
-0.0898897536456661
 21
0.0317055708602406
 31
0.0
210
0.0
220
0.0
230
0.9999999999999998
 40
0.998624
 41
4.933687027571547
 42
5.610418944452053
  0
ELLIPSE
  5
18A
330
1F
100
AcDbEntity
  8
1
100
AcDbEllipse
 10
362.953717
 20
299.344879
 30
0.0
 11
-0.0898897536456659
 21
0.0317055708602405
 31
0.0
210
0.0
220
0.0
230
0.9999999999999998
 40
0.998624
 41
1.268495598383551
 42
2.468826290862354
  0
ELLIPSE
  5
18B
330
1F
100
AcDbEntity
  8
1
100
AcDbEllipse
 10
363.255989
 20
299.749353
 30
0.0
 11
-0.5666776289729544
 21
0.1998763706833382
 31
0.0
210
0.0
220
0.0
230
0.9999999999999998
 40
0.9986239999999998
 41
0.0039655541532316
 42
1.268495598383412
  0
ELLIPSE
  5
18C
330
1F
100
AcDbEntity
  8
1
100
AcDbEllipse
 10
362.778539
 20
299.915634
 30
0.0
 11
-0.089889753645668
 21
0.0317055708602412
 31
0.0
210
0.0
220
0.0
230
0.9999999999999998
 40
0.9986239999999998
 41
5.086820168854181
 42
6.287150861332839
  0
ELLIPSE
  5
18D
330
1F
100
AcDbEntity
  8
1
100
AcDbEllipse
 10
362.771722
 20
300.10592
 30
0.0
 11
-0.089889753645668
 21
0.0317055708602412
 31
0.0
210
0.0
220
0.0
230
0.9999999999999998
 40
0.9986239999999998
 41
1.945227515264083
 42
2.621959432144628
  0
ELLIPSE
  5
18E
330
1F
100
AcDbEntity
  8
1
100
AcDbEllipse
 10
362.441262
 20
300.488322
 30
0.0
 11
-0.5666776289729542
 21
0.1998763706833381
 31
0.0
210
0.0
220
0.0
230
0.9999999999999998
 40
0.9986239999999998
 41
2.621959432144735
 42
3.886489476374906
  0
ELLIPSE
  5
18F
330
1F
100
AcDbEntity
  8
1
100
AcDbEllipse
 10
364.284071
 20
300.063416
 30
0.0
 11
1.98041950447234
 21
-0.6985260097559247
 31
0.0
210
0.0
220
0.0
230
0.9999999999999998
 40
0.9986239999999998
 41
0.0
 42
6.283185307179585
  0
ELLIPSE
  5
190
330
1F
100
AcDbEntity
  8
1
100
AcDbEllipse
 10
364.294104
 20
300.091861
 30
0.0
 11
3.395004864809725
 21
-1.197473159581584
 31
0.0
210
0.0
220
0.0
230
0.9999999999999998
 40
0.9986239999999998
 41
0.0
 42
6.283185307179585
  0
ELLIPSE
  5
191
330
1F
100
AcDbEntity
  8
1
100
AcDbEllipse
 10
369.761969
 20
287.67976
 30
0.0
 11
-0.3115396276772998
 21
-0.0776755531752887
 31
0.0
210
-0.0000000000000001
220
0.0
230
1.0
 40
0.6229040000000001
 41
2.976210626445503
 42
3.306974680734095
  0
ELLIPSE
  5
192
330
1F
100
AcDbEntity
  8
1
100
AcDbEllipse
 10
369.646217
 20
281.048354
 30
0.0
 11
-0.3086390084417319
 21
0.0885008115358406
 31
0.0
210
0.0
220
0.0
230
0.9999999999999998
 40
0.6229040000000001
 41
2.976210626445484
 42
3.306974680734073
  0
ELLIPSE
  5
193
330
1F
100
AcDbEntity
  8
1
100
AcDbEllipse
 10
371.195608
 20
288.907994
 30
0.0
 11
1.894178464854974
 21
17.4980208411922
 31
0.0
210
0.0
220
0.0
230
1.0
 40
0.138944
 41
1.920898967581774
 42
3.156632395651096
  0
ELLIPSE
  5
194
330
1F
100
AcDbEntity
  8
1
100
AcDbEllipse
 10
370.584842
 20
288.907994
 30
0.0
 11
0.0
 21
17.50000000112049
 31
0.0
210
0.0
220
0.0
230
1.0
 40
0.140541
 41
1.536552321268095
 42
1.905859225498808
  0
ELLIPSE
  5
195
330
1F
100
AcDbEntity
  8
1
100
AcDbEllipse
 10
358.833024
 20
305.341446
 30
0.0
 11
-11.88251702683404
 21
4.19115605853555
 31
0.0
210
0.0
220
0.0
230
0.9999999999999998
 40
0.9986239999999998
 41
1.38672215462588
 42
1.94522751526413
  0
ELLIPSE
  5
196
330
1F
100
AcDbEntity
  8
1
100
AcDbEllipse
 10
302.904842
 20
276.715526
 30
0.0
 11
-2.34781593829438
 21
-9.720481486011426
 31
0.0
210
0.0
220
0.0
230
1.0
 40
0.19329
 41
4.306029511139569
 42
5.299174403285141
  0
ELLIPSE
  5
197
330
1F
100
AcDbEntity
  8
1
100
AcDbEllipse
 10
369.683969
 20
279.392867
 30
0.0
 11
0.0538770024358986
 21
0.4991611425114705
 31
0.0
210
0.0
220
0.0
230
0.9999999999999998
 40
0.139171
 41
1.583568179252939
 42
3.154364506042246
  0
ELLIPSE
  5
198
330
1F
100
AcDbEntity
  8
1
100
AcDbEllipse
 10
370.083111
 20
289.18504
 30
0.0
 11
0.0001758288824345
 21
-0.500077667667699
 31
0.0
210
0.0
220
0.0
230
0.9999999999999996
 40
0.140519
 41
3.13909047597018
 42
4.709886802760494
  0
ELLIPSE
  5
199
330
1F
100
AcDbEntity
  8
1
100
AcDbEllipse
 10
358.776016
 20
288.907993
 30
0.0
 11
0.5852444468397064
 21
-17.4999964714652
 31
0.0
210
0.0
220
0.0
230
1.0
 40
0.0191
 41
3.017610107762221
 42
3.107063563851353
  0
ELLIPSE
  5
19A
330
1F
100
AcDbEntity
  8
1
100
AcDbEllipse
 10
359.954616
 20
295.441187
 30
0.0
 11
2.357642267228975
 21
-0.8315785830427671
 31
0.0
210
0.0
220
0.0
230
1.0
 40
0.9986239999999998
 41
5.637542175041879
 42
5.80979263331155
  0
ELLIPSE
  5
19B
330
1F
100
AcDbEntity
  8
1
100
AcDbEllipse
 10
358.599976
 20
288.907994
 30
0.0
 11
0.4906897032081456
 21
-17.49986411085855
 31
0.0
210
0.0
220
0.0
230
1.0
 40
0.140543
 41
3.10376156742949
 42
3.219413948476203
  0
ELLIPSE
  5
19C
330
1F
100
AcDbEntity
  8
1
100
AcDbEllipse
 10
362.55256
 20
288.907994
 30
0.0
 11
30.01425519141162
 21
-17.2649145429192
 31
0.0
210
0.0
220
0.0
230
1.0
 40
0.095248
 41
3.955956282141063
 42
4.433900572559566
  0
ELLIPSE
  5
19D
330
1F
100
AcDbEntity
  8
1
100
AcDbEllipse
 10
251.557459
 20
288.907993
 30
0.0
 11
457.2636540945047
 21
17.06585160011298
 31
0.0
210
0.0
220
0.0
230
1.0
 40
0.008472
 41
4.950195390313672
 42
4.969846140840241
  0
ELLIPSE
  5
19E
330
1F
100
AcDbEntity
  8
1
100
AcDbEllipse
 10
359.959848
 20
295.456022
 30
0.0
 11
-2.357642267228975
 21
0.8315785830427678
 31
0.0
210
0.0
220
0.0
230
1.0
 40
0.9986239999999998
 41
2.66819997972176
 42
2.776747666076906
  0
ELLIPSE
  5
19F
330
1F
100
AcDbEntity
  8
1
100
AcDbEllipse
 10
360.041127
 20
295.686459
 30
0.0
 11
-2.357642267228975
 21
0.8315785830427675
 31
0.0
210
0.0
220
0.0
230
1.0
 40
0.9986239999999998
 41
0.0520252572636132
 42
1.945227431237595
  0
ELLIPSE
  5
1A0
330
1F
100
AcDbEntity
  8
1
100
AcDbEllipse
 10
360.041127
 20
295.686459
 30
0.0
 11
-2.357642267228975
 21
0.8315785830427675
 31
0.0
210
0.0
220
0.0
230
1.0
 40
0.9986239999999998
 41
1.945227431237595
 42
2.645311779347058
  0
ELLIPSE
  5
1A1
330
1F
100
AcDbEntity
  8
1
100
AcDbEllipse
 10
359.959848
 20
295.456022
 30
0.0
 11
-2.357642267228975
 21
0.8315785830427678
 31
0.0
210
0.0
220
0.0
230
1.0
 40
0.9986239999999998
 41
5.822888314034132
 42
5.942244189143313
  0
ELLIPSE
  5
1A2
330
1F
100
AcDbEntity
  8
1
100
AcDbEllipse
 10
359.954616
 20
295.441187
 30
0.0
 11
2.357642267228975
 21
-0.8315785830427671
 31
0.0
210
0.0
220
0.0
230
1.0
 40
0.9986239999999998
 41
2.800651535553508
 42
4.525803034524086
  0
ELLIPSE
  5
1A3
330
1F
100
AcDbEntity
  8
1
100
AcDbEllipse
 10
358.305543
 20
288.907944
 30
0.0
 11
0.5852461702396151
 21
-17.50004546265898
 31
0.0
210
0.0
220
0.0
230
0.9999999999999998
 40
0.0191
 41
3.222492063868171
 42
3.239647080070636
  0
ELLIPSE
  5
1A4
330
1F
100
AcDbEntity
  8
1
100
AcDbEllipse
 10
370.329309
 20
293.649559
 30
0.0
 11
0.0003016037633771
 21
0.5003084758557771
 31
0.0
210
0.0
220
0.0
230
0.9999999999999998
 40
0.140101
 41
3.195395734394241
 42
4.766192061193211
  0
ELLIPSE
  5
1A5
330
1F
100
AcDbEntity
  8
1
100
AcDbEllipse
 10
327.76568
 20
288.907994
 30
0.0
 11
113.6916562896048
 21
-13.53552563297278
 31
0.0
210
0.0
220
0.0
230
1.0
 40
0.097565
 41
4.418171381264638
 42
4.503568911298105
  0
ELLIPSE
  5
1A6
330
1F
100
AcDbEntity
  8
1
100
AcDbEllipse
 10
370.305732
 20
279.54846
 30
0.0
 11
0.2546671896690356
 21
0.1593661330169031
 31
0.0
210
0.0
220
0.0
230
1.0
 40
0.9668319999999999
 41
4.657557862363261
 42
5.171317120951802
  0
ELLIPSE
  5
1A7
330
1F
100
AcDbEntity
  8
1
100
AcDbEllipse
 10
370.473427
 20
289.155723
 30
0.0
 11
0.1593661330187822
 21
-0.2546671896705173
 31
0.0
210
0.0
220
0.0
230
1.0
 40
0.9668319999999999
 41
1.515965208771073
 42
2.029724467355453
  0
ELLIPSE
  5
1A8
330
1F
100
AcDbEntity
  8
1
100
AcDbEllipse
 10
370.969907
 20
280.668792
 30
0.0
 11
-0.2941597133632818
 21
0.0843489404830548
 31
0.0
210
0.0
220
0.0
230
0.9999999999999998
 40
0.9803469999999999
 41
2.884713024277078
 42
3.3984722829025
  0
ELLIPSE
  5
1A9
330
1F
100
AcDbEntity
  8
1
100
AcDbEllipse
 10
371.105838
 20
288.014824
 30
0.0
 11
0.1315188411657876
 21
-0.2701031955403169
 31
0.0
210
0.0
220
0.0
230
1.0
 40
0.9668319999999999
 41
1.111868186999541
 42
1.625627445654829
  0
ELLIPSE
  5
1AA
330
1F
100
AcDbEntity
  8
1
100
AcDbEllipse
 10
370.37015
 20
287.831396
 30
0.0
 11
0.3432777560475848
 21
0.1251912077901853
 31
0.0
210
0.0
220
0.0
230
1.0
 40
0.81881
 41
6.264719809944295
 42
6.411625124168249
  0
ELLIPSE
  5
1AB
330
1F
100
AcDbEntity
  8
1
100
AcDbEllipse
 10
369.928017
 20
288.6290259999999
 30
0.0
 11
0.2880776699506633
 21
0.2247748192345823
 31
0.0
210
0.0
220
0.0
230
0.9999999999999998
 40
0.81881
 41
6.15474549582392
 42
6.301650808122496
  0
ELLIPSE
  5
1AC
330
1F
100
AcDbEntity
  8
1
100
AcDbEllipse
 10
369.928017
 20
288.6290259999999
 30
0.0
 11
0.2346916571783678
 21
0.2800576513054636
 31
0.0
210
0.0
220
0.0
230
1.0
 40
0.81881
 41
6.264719806558367
 42
6.411625119209375
  0
ELLIPSE
  5
1AD
330
1F
100
AcDbEntity
  8
1
100
AcDbEllipse
 10
369.779035
 20
280.0938700000001
 30
0.0
 11
0.2247748206407491
 21
-0.2880776723925687
 31
0.0
210
0.0
220
0.0
230
0.9999999999999998
 40
0.8188099999999998
 41
6.154745497196974
 42
6.30165080893362
  0
ELLIPSE
  5
1AE
330
1F
100
AcDbEntity
  8
1
100
AcDbEllipse
 10
369.779035
 20
280.0938700000001
 30
0.0
 11
0.2800576546164343
 21
-0.2346916595605092
 31
0.0
210
0.0
220
0.0
230
1.0
 40
0.81881
 41
6.264719805985979
 42
6.411625117819509
  0
ELLIPSE
  5
1AF
330
1F
100
AcDbEntity
  8
1
100
AcDbEllipse
 10
370.248736
 20
280.875584
 30
0.0
 11
0.3386995342576966
 21
-0.1370951680860152
 31
0.0
210
0.0
220
0.0
230
1.0
 40
0.8188099999999998
 41
6.15474549287546
 42
6.301650806185668
  0
ELLIPSE
  5
1B0
330
1F
100
AcDbEntity
  8
1
100
AcDbEllipse
 10
370.248736
 20
280.875584
 30
0.0
 11
0.359882878054009
 21
-0.06322011226303
 31
0.0
210
0.0
220
0.0
230
1.0
 40
0.81881
 41
6.264719804968027
 42
6.411625115827517
  0
ELLIPSE
  5
1B1
330
1F
100
AcDbEntity
  8
1
100
AcDbEllipse
 10
370.37015
 20
287.831396
 30
0.0
 11
0.3618699912401997
 21
0.0506218687170279
 31
0.0
210
0.0
220
0.0
230
1.0
 40
0.81881
 41
6.154745496168322
 42
6.301650808229053
  0
ELLIPSE
  5
1B2
330
1F
100
AcDbEntity
  8
1
100
AcDbEllipse
 10
364.4596180000001
 20
300.27237
 30
0.0
 11
3.588083700633127
 21
-1.26557518970776
 31
0.0
210
0.0
220
0.0
230
1.0
 40
0.9986239999999998
 41
1.945227451328569
 42
3.745261875445962
  0
ELLIPSE
  5
1B3
330
1F
100
AcDbEntity
  8
1
100
AcDbEllipse
 10
364.4596180000001
 20
300.27237
 30
0.0
 11
3.588083700633127
 21
-1.26557518970776
 31
0.0
210
0.0
220
0.0
230
1.0
 40
0.9986239999999998
 41
4.87456638589928
 42
6.283185307179585
  0
ELLIPSE
  5
1B4
330
1F
100
AcDbEntity
  8
1
100
AcDbEllipse
 10
364.4596180000001
 20
300.27237
 30
0.0
 11
3.588083700633127
 21
-1.26557518970776
 31
0.0
210
0.0
220
0.0
230
1.0
 40
0.9986239999999998
 41
0.0
 42
1.945227440221053
  0
ELLIPSE
  5
1B5
330
1F
100
AcDbEntity
  8
1
100
AcDbEllipse
 10
364.479414
 20
300.328496
 30
0.0
 11
3.531988007444661
 21
-1.245789330883938
 31
0.0
210
0.0
220
0.0
230
1.0
 40
0.9986239999999998
 41
1.945227552038378
 42
3.356097206659879
  0
ELLIPSE
  5
1B6
330
1F
100
AcDbEntity
  8
1
100
AcDbEllipse
 10
364.479414
 20
300.328496
 30
0.0
 11
3.531988007444661
 21
-1.245789330883938
 31
0.0
210
0.0
220
0.0
230
1.0
 40
0.9986239999999998
 41
5.419043491545747
 42
6.283185307179585
  0
ELLIPSE
  5
1B7
330
1F
100
AcDbEntity
  8
1
100
AcDbEllipse
 10
364.479414
 20
300.328496
 30
0.0
 11
3.531988007444661
 21
-1.245789330883938
 31
0.0
210
0.0
220
0.0
230
1.0
 40
0.9986239999999998
 41
0.0
 42
1.50893877539691
  0
ELLIPSE
  5
1B8
330
1F
100
AcDbEntity
  8
1
100
AcDbEllipse
 10
364.479414
 20
300.328496
 30
0.0
 11
3.531988007444661
 21
-1.245789330883938
 31
0.0
210
0.0
220
0.0
230
1.0
 40
0.9986239999999998
 41
1.632540859458619
 42
1.945227552038376
  0
ELLIPSE
  5
1B9
330
1F
100
AcDbEntity
  8
1
100
AcDbEllipse
 10
359.706923
 20
295.163307
 30
0.0
 11
0.4817434594942073
 21
0.5170545789036686
 31
0.0
210
0.0
220
0.0
230
0.9999999999999998
 40
0.01483
 41
0.5198738242501158
 42
1.536779664325308
  0
ELLIPSE
  5
1BA
330
1F
100
AcDbEntity
  8
1
100
AcDbEllipse
 10
359.3546970000001
 20
304.995748
 30
0.0
 11
0.5172967687689604
 21
-0.4819691095313844
 31
0.0
210
0.0
220
0.0
230
0.9999999999999998
 40
0.033998
 41
0.5687050474100462
 42
1.585610887725254
  0
ELLIPSE
  5
1BB
330
1F
100
AcDbEntity
  8
1
100
AcDbEllipse
 10
369.197383
 20
305.339104
 30
0.0
 11
0.4817434593673915
 21
0.5170545787629339
 31
0.0
210
0.0
220
0.0
230
1.0
 40
0.01483
 41
1.536779664646246
 42
2.553685504947636
  0
ELLIPSE
  5
1BC
330
1F
100
AcDbEntity
  8
1
100
AcDbEllipse
 10
369.549608
 20
295.506664
 30
0.0
 11
0.5172967686953105
 21
-0.4819691094610013
 31
0.0
210
0.0
220
0.0
230
1.0
 40
0.033998
 41
1.58561088766983
 42
2.602516728108732
  0
ELLIPSE
  5
1BD
330
1F
100
AcDbEntity
  8
1
100
AcDbEllipse
 10
364.45674
 20
300.264211
 30
0.0
 11
-3.677921936877201
 21
1.297262589546717
 31
0.0
210
0.0
220
0.0
230
1.0
 40
0.9986239999999998
 41
0.0
 42
6.283185307179585
  0
SPLINE
  5
1D0
330
1F
100
AcDbEntity
  8
1
100
AcDbSpline
210
0.0
220
0.0
230
1.0
 70
     8
 71
     3
 72
    27
 73
    23
 74
     0
 42
0.000000001
 43
0.0000000001
 40
0.0
 40
0.0
 40
0.0
 40
0.0
 40
0.1250000000000061
 40
0.1250000000000061
 40
0.1875000000000083
 40
0.1875000000000083
 40
0.2500000000000105
 40
0.2500000000000105
 40
0.3749999999999607
 40
0.3749999999999607
 40
0.4374999999999356
 40
0.4374999999999356
 40
0.4999999999999105
 40
0.4999999999999105
 40
0.6249999999999118
 40
0.6249999999999118
 40
0.6874999999999111
 40
0.6874999999999111
 40
0.7499999999999103
 40
0.7499999999999103
 40
0.8749999999999552
 40
1.0
 40
1.0
 40
1.0
 40
1.0
 10
364.3141105695221
 20
298.5605650371655
 30
0.0
 10
364.2848945938052
 20
298.5478435894082
 30
0.0
 10
364.254956646723
 20
298.5375515068606
 30
0.0
 10
364.2089877943785
 20
298.5257013477395
 30
0.0
 10
364.193487027324
 20
298.5223520313111
 30
0.0
 10
364.1621232504265
 20
298.5168792019203
 30
0.0
 10
364.1462141766189
 20
298.5147557988438
 30
0.0
 10
364.0986985514141
 20
298.5103427884159
 30
0.0
 10
364.0670871698436
 20
298.5099461359742
 30
0.0
 10
364.0197677274481
 20
298.5131083472229
 30
0.0
 10
364.0040109225266
 20
298.5147915351721
 30
0.0
 10
363.972530719576
 20
298.5194417955304
 30
0.0
 10
363.9567354680092
 20
298.5224279529295
 30
0.0
 10
363.9101064039602
 20
298.5332115399017
 30
0.0
 10
363.8799537904035
 20
298.5428045355781
 30
0.0
 10
363.8360829916007
 20
298.5606910810941
 30
0.0
 10
363.8216868434216
 20
298.5672389196354
 30
0.0
 10
363.7933554539429
 20
298.5815211047241
 30
0.0
 10
363.7793699566838
 20
298.5892866699965
 30
0.0
 10
363.7384858955091
 20
298.6141983164262
 30
0.0
 10
363.687357974898
 20
298.6513223386097
 30
0.0
 10
363.6427092846322
 20
298.6959164928132
 30
0.0
 10
363.6220558734864
 20
298.7201355068689
 30
0.0
  0
SPLINE
  5
1D1
330
1F
100
AcDbEntity
  8
1
100
AcDbSpline
210
0.0
220
0.0
230
1.0
 70
     8
 71
     3
 72
    16
 73
    12
 74
     0
 42
0.000000001
 43
0.0000000001
 40
0.0
 40
0.0
 40
0.0
 40
0.0
 40
0.3587940320751201
 40
0.3587940320751201
 40
0.5381910481126518
 40
0.5381910481126518
 40
0.7175880641501835
 40
0.7175880641501835
 40
0.8969850801877152
 40
0.8969850801877152
 40
1.0
 40
1.0
 40
1.0
 40
1.0
 10
363.6220558734864
 20
298.7201355068689
 30
0.0
 10
363.6155890203862
 20
298.7277187968651
 30
0.0
 10
363.610402796414
 20
298.7362549094924
 30
0.0
 10
363.6047887387998
 20
298.7496645405039
 30
0.0
 10
363.6032596240719
 20
298.7542608702523
 30
0.0
 10
363.6008909982896
 20
298.7637076492311
 30
0.0
 10
363.6000687264576
 20
298.7685122946622
 30
0.0
 10
363.5991481223668
 20
298.7780559398875
 30
0.0
 10
363.5990410706024
 20
298.7828285770398
 30
0.0
 10
363.5994203430182
 20
298.7903425248946
 30
0.0
 10
363.5996767216527
 20
298.7930955888101
 30
0.0
 10
363.6000467448739
 20
298.7958295626478
 30
0.0
  0
SPLINE
  5
1D2
330
1F
100
AcDbEntity
  8
1
100
AcDbSpline
210
0.0
220
0.0
230
1.0
 70
     8
 71
     3
 72
    10
 73
     6
 74
     0
 42
0.000000001
 43
0.0000000001
 40
0.0
 40
0.0
 40
0.0
 40
0.0
 40
0.6419716905422023
 40
0.6419716905422023
 40
1.0
 40
1.0
 40
1.0
 40
1.0
 10
363.6203590390509
 20
298.8921847887593
 30
0.0
 10
363.6223744506469
 20
298.8812179986604
 30
0.0
 10
363.6224766281209
 20
298.8702346189056
 30
0.0
 10
363.6198305354642
 20
298.8533451810538
 30
0.0
 10
363.618349799817
 20
298.8474815925552
 30
0.0
 10
363.6163395700076
 20
298.8417996361328
 30
0.0
  0
SPLINE
  5
1D3
330
1F
100
AcDbEntity
  8
1
100
AcDbSpline
210
0.0
220
0.0
230
1.0
 70
     8
 71
     3
 72
    10
 73
     6
 74
     0
 42
0.000000001
 43
0.0000000001
 40
0.0
 40
0.0
 40
0.0
 40
0.0
 40
0.1325035073303379
 40
0.1325035073303379
 40
1.0
 40
1.0
 40
1.0
 40
1.0
 10
364.3421813826749
 20
298.5792780587908
 30
0.0
 10
364.3411025221257
 20
298.578243696178
 30
0.0
 10
364.339997953325
 20
298.5772325511213
 30
0.0
 10
364.3314806783685
 20
298.5697956703475
 30
0.0
 10
364.3232451881125
 20
298.5645425039565
 30
0.0
 10
364.3141105695221
 20
298.5605650371655
 30
0.0
  0
SPLINE
  5
1D4
330
1F
100
AcDbEntity
  8
1
100
AcDbSpline
210
0.0
220
0.0
230
1.0
 70
     8
 71
     3
 72
     8
 73
     4
 74
     0
 42
0.000000001
 43
0.0000000001
 40
0.0
 40
0.0
 40
0.0
 40
0.0
 40
1.0
 40
1.0
 40
1.0
 40
1.0
 10
364.3777971830676
 20
298.6885367027363
 30
0.0
 10
364.381027786419
 20
298.6977533651234
 30
0.0
 10
364.385570587158
 20
298.7063772103903
 30
0.0
 10
364.3914971855297
 20
298.7143796572506
 30
0.0
  0
SPLINE
  5
1D5
330
1F
100
AcDbEntity
  8
1
100
AcDbSpline
210
0.0
220
0.0
230
1.0
 70
     8
 71
     3
 72
    20
 73
    16
 74
     0
 42
0.000000001
 43
0.0000000001
 40
0.0
 40
0.0
 40
0.0
 40
0.0
 40
0.1250000000000419
 40
0.1250000000000419
 40
0.2500000000000837
 40
0.2500000000000837
 40
0.3750000000001255
 40
0.3750000000001255
 40
0.5000000000001674
 40
0.5000000000001674
 40
0.6250000000002092
 40
0.6250000000002092
 40
0.7500000000002509
 40
0.7500000000002509
 40
1.0
 40
1.0
 40
1.0
 40
1.0
 10
363.0384840897128
 20
299.3610916806485
 30
0.0
 10
363.0344685166706
 20
299.3585178045608
 30
0.0
 10
363.0302954718024
 20
299.3562539663455
 30
0.0
 10
363.0216366305248
 20
299.3523423715777
 30
0.0
 10
363.0171431616348
 20
299.3506974968556
 30
0.0
 10
363.0080533974275
 20
299.34810556629
 30
0.0
 10
363.0034316892717
 20
299.3471452501921
 30
0.0
 10
362.9940326959211
 20
299.3459071480317
 30
0.0
 10
362.9892172754309
 20
299.3456318904429
 30
0.0
 10
362.9796580899958
 20
299.3458096870761
 30
0.0
 10
362.9749098438562
 20
299.3462552272085
 30
0.0
 10
362.9654774792279
 20
299.347866547073
 30
0.0
 10
362.9607626329172
 20
299.3490428426963
 30
0.0
 10
362.9469402721753
 20
299.3536631885983
 30
0.0
 10
362.9383257435638
 20
299.3580907284727
 30
0.0
 10
362.9303521047442
 20
299.3639503138308
 30
0.0
  0
SPLINE
  5
1D6
330
1F
100
AcDbEntity
  8
1
100
AcDbSpline
210
0.0
220
0.0
230
1.0
 70
     8
 71
     3
 72
    10
 73
     6
 74
     0
 42
0.000000001
 43
0.0000000001
 40
0.0
 40
0.0
 40
0.0
 40
0.0
 40
0.5
 40
0.5
 40
1.0
 40
1.0
 40
1.0
 40
1.0
 10
363.0384840897128
 20
299.3610916806484
 30
0.0
 10
363.0476627884491
 20
299.3669749837149
 30
0.0
 10
363.0575881694547
 20
299.3712276391865
 30
0.0
 10
363.078801741292
 20
299.3763488283183
 30
0.0
 10
363.0895958856186
 20
299.3771102892103
 30
0.0
 10
363.1005940745157
 20
299.3759646891004
 30
0.0
  0
SPLINE
  5
1D7
330
1F
100
AcDbEntity
  8
1
100
AcDbSpline
210
0.0
220
0.0
230
1.0
 70
     8
 71
     3
 72
    24
 73
    20
 74
     0
 42
0.000000001
 43
0.0000000001
 40
0.0
 40
0.0
 40
0.0
 40
0.0
 40
0.124999999999992
 40
0.124999999999992
 40
0.249999999999984
 40
0.249999999999984
 40
0.3125000000000039
 40
0.3125000000000039
 40
0.375000000000024
 40
0.375000000000024
 40
0.5000000000000192
 40
0.5000000000000192
 40
0.6250000000000144
 40
0.6250000000000144
 40
0.7500000000000096
 40
0.7500000000000096
 40
0.8750000000000047
 40
0.8750000000000047
 40
1.0
 40
1.0
 40
1.0
 40
1.0
 10
363.1005940745157
 20
299.3759646891004
 30
0.0
 10
363.131742447879
 20
299.3727201930946
 30
0.0
 10
363.1623741572786
 20
299.3670671443568
 30
0.0
 10
363.2226518987915
 20
299.3509440658632
 30
0.0
 10
363.252298356049
 20
299.340476392013
 30
0.0
 10
363.2960055765717
 20
299.3208620398427
 30
0.0
 10
363.3103534472237
 20
299.3137040282663
 30
0.0
 10
363.3382619791364
 20
299.2983271099785
 30
0.0
 10
363.351876767228
 20
299.2900844365261
 30
0.0
 10
363.3917052267201
 20
299.2636926413084
 30
0.0
 10
363.4169473812685
 20
299.2438565929093
 30
0.0
 10
363.4644324951046
 20
299.1996463396844
 30
0.0
 10
363.4859847596347
 20
299.175926736685
 30
0.0
 10
363.5249600243794
 20
299.1254393824439
 30
0.0
 10
363.5423877792695
 20
299.0986607736594
 30
0.0
 10
363.5730178404687
 20
299.0420298046948
 30
0.0
 10
363.585777399781
 20
299.0130058497838
 30
0.0
 10
363.6065952128417
 20
298.9536138539177
 30
0.0
 10
363.6146509511428
 20
298.9232451449051
 30
0.0
 10
363.6203590390509
 20
298.8921847887593
 30
0.0
  0
SPLINE
  5
1D8
330
1F
100
AcDbEntity
  8
1
100
AcDbSpline
210
0.0
220
0.0
230
1.0
 70
     8
 71
     3
 72
    18
 73
    14
 74
     0
 42
0.000000001
 43
0.0000000001
 40
0.0
 40
0.0
 40
0.0
 40
0.0
 40
0.2499999999996735
 40
0.2499999999996735
 40
0.3749999999996823
 40
0.3749999999996823
 40
0.499999999999691
 40
0.499999999999691
 40
0.6249999999996998
 40
0.6249999999996998
 40
0.7499999999997087
 40
0.7499999999997087
 40
1.0
 40
1.0
 40
1.0
 40
1.0
 10
365.2176032979316
 20
298.8365675082271
 30
0.0
 10
365.2078747522565
 20
298.8347842054464
 30
0.0
 10
365.1979837137021
 20
298.8345903617751
 30
0.0
 10
365.1837299412798
 20
298.8364809617404
 30
0.0
 10
365.1790446063134
 20
298.8374714251553
 30
0.0
 10
365.1698075239251
 20
298.8401779658636
 30
0.0
 10
365.1653034779553
 20
298.8418859094196
 30
0.0
 10
365.1567185619485
 20
298.845896102764
 30
0.0
 10
365.1526046537754
 20
298.8482077427388
 30
0.0
 10
365.1447293313279
 20
298.8534346402194
 30
0.0
 10
365.1409418671857
 20
298.8563769753936
 30
0.0
 10
365.1304168253969
 20
298.8658805564845
 30
0.0
 10
365.1244362590596
 20
298.8731173464447
 30
0.0
 10
365.1195007076491
 20
298.8812613997662
 30
0.0
  0
SPLINE
  5
1D9
330
1F
100
AcDbEntity
  8
1
100
AcDbSpline
210
0.0
220
0.0
230
1.0
 70
     8
 71
     3
 72
    24
 73
    20
 74
     0
 42
0.000000001
 43
0.0000000001
 40
0.0
 40
0.0
 40
0.0
 40
0.0
 40
0.1249999999999931
 40
0.1249999999999931
 40
0.2499999999999861
 40
0.2499999999999861
 40
0.3125000000000062
 40
0.3125000000000062
 40
0.3750000000000264
 40
0.3750000000000264
 40
0.5000000000000212
 40
0.5000000000000212
 40
0.6250000000000158
 40
0.6250000000000158
 40
0.7500000000000106
 40
0.7500000000000106
 40
0.8750000000000053
 40
0.8750000000000053
 40
1.0
 40
1.0
 40
1.0
 40
1.0
 10
364.3914971855297
 20
298.7143796572506
 30
0.0
 10
364.4103128442371
 20
298.7397856826809
 30
0.0
 10
364.4309189472568
 20
298.7635311979328
 30
0.0
 10
364.4757250003432
 20
298.8077405361059
 30
0.0
 10
364.4999231775162
 20
298.8282059167771
 30
0.0
 10
364.5391502019527
 20
298.8562697395602
 30
0.0
 10
364.5526378802113
 20
298.8651196389737
 30
0.0
 10
364.5801068330192
 20
298.8816011828054
 30
0.0
 10
364.5941361321981
 20
298.8892677633142
 30
0.0
 10
364.6371092624713
 20
298.9105462533715
 30
0.0
 10
364.6669812020971
 20
298.92246389547
 30
0.0
 10
364.7290155831151
 20
298.9414045906805
 30
0.0
 10
364.7602669423122
 20
298.9481583630021
 30
0.0
 10
364.8232183499257
 20
298.9565427220916
 30
0.0
 10
364.8549306450245
 20
298.9581719533792
 30
0.0
 10
364.9187830923224
 20
298.9562124760687
 30
0.0
 10
364.9499932339757
 20
298.952657131567
 30
0.0
 10
365.0111420588821
 20
298.9407895710841
 30
0.0
 10
365.041080004627
 20
298.9324748347028
 30
0.0
 10
365.0704061161452
 20
298.9217753966778
 30
0.0
  0
SPLINE
  5
1DA
330
1F
100
AcDbEntity
  8
1
100
AcDbSpline
210
0.0
220
0.0
230
1.0
 70
     8
 71
     3
 72
    10
 73
     6
 74
     0
 42
0.000000001
 43
0.0000000001
 40
0.0
 40
0.0
 40
0.0
 40
0.0
 40
0.5
 40
0.5
 40
1.0
 40
1.0
 40
1.0
 40
1.0
 10
365.0704061161452
 20
298.9217753966778
 30
0.0
 10
365.0807608970671
 20
298.9179975232744
 30
0.0
 10
365.0901563700398
 20
298.9125528242274
 30
0.0
 10
365.1068774513792
 20
298.8986839007509
 30
0.0
 10
365.1138654183815
 20
298.8905600763398
 30
0.0
 10
365.1195007076491
 20
298.8812613997662
 30
0.0
  0
SPLINE
  5
1DB
330
1F
100
AcDbEntity
  8
1
100
AcDbSpline
210
0.0
220
0.0
230
1.0
 70
     8
 71
     3
 72
    27
 73
    23
 74
     0
 42
0.000000001
 43
0.0000000001
 40
0.0
 40
0.0
 40
0.0
 40
0.0
 40
0.1358119458611035
 40
0.1358119458611035
 40
0.2037179187916786
 40
0.2037179187916786
 40
0.2716238917222535
 40
0.2716238917222535
 40
0.4074358375833976
 40
0.4074358375833976
 40
0.4753418105139565
 40
0.4753418105139565
 40
0.5432477834445151
 40
0.5432477834445151
 40
0.6790597293056329
 40
0.6790597293056329
 40
0.7469657022361959
 40
0.7469657022361959
 40
0.8148716751667588
 40
0.8148716751667588
 40
0.950683621027891
 40
1.0
 40
1.0
 40
1.0
 40
1.0
 10
362.9303521047442
 20
299.3639503138308
 30
0.0
 10
362.9048499186546
 20
299.382691097003
 30
0.0
 10
362.8810724200509
 20
299.4032926343442
 30
0.0
 10
362.8479572356233
 20
299.4369373226789
 30
0.0
 10
362.8373459538291
 20
299.4486113998043
 30
0.0
 10
362.8169954354775
 20
299.4728957257977
 30
0.0
 10
362.8072332571167
 20
299.4855458472834
 30
0.0
 10
362.7797334769574
 20
299.5243090050863
 30
0.0
 10
362.763619614438
 20
299.5513887212987
 30
0.0
 10
362.7427257892861
 20
299.5938336661042
 30
0.0
 10
362.7363098802413
 20
299.6082876387853
 30
0.0
 10
362.7245979159421
 20
299.6378192337912
 30
0.0
 10
362.7192823969332
 20
299.6529685828841
 30
0.0
 10
362.7052815709574
 20
299.6986914885954
 30
0.0
 10
362.698479133305
 20
299.7295894813884
 30
0.0
 10
362.6919578338093
 20
299.7765417904972
 30
0.0
 10
362.6904007549007
 20
299.7922939357093
 30
0.0
 10
362.6885359077979
 20
299.8240036414355
 30
0.0
 10
362.6882298829471
 20
299.8400203692538
 30
0.0
 10
362.6892340911187
 20
299.8879669992574
 30
0.0
 10
362.6935856774888
 20
299.9309025919643
 30
0.0
 10
362.7024180824277
 20
299.9730072019419
 30
0.0
 10
362.7050923261011
 20
299.9841637669326
 30
0.0
  0
SPLINE
  5
1DC
330
1F
100
AcDbEntity
  8
1
100
AcDbSpline
210
0.0
220
0.0
230
1.0
 70
     8
 71
     3
 72
    21
 73
    17
 74
     0
 42
0.000000001
 43
0.0000000001
 40
0.0
 40
0.0
 40
0.0
 40
0.0
 40
0.124362081915764
 40
0.124362081915764
 40
0.2119258737242132
 40
0.2119258737242132
 40
0.2994896655326625
 40
0.2994896655326625
 40
0.4746172491495092
 40
0.4746172491495092
 40
0.5621810409579023
 40
0.5621810409579023
 40
0.6497448327662953
 40
0.6497448327662953
 40
0.8248724163831477
 40
1.0
 40
1.0
 40
1.0
 40
1.0
 10
365.6374627411783
 20
299.1477396780435
 30
0.0
 10
365.6270775990422
 20
299.1277666404352
 30
0.0
 10
365.6156166495628
 20
299.1084649060943
 30
0.0
 10
365.5942732761047
 20
299.076703827173
 30
0.0
 10
365.5849247793658
 20
299.0639113326149
 30
0.0
 10
365.5651465050898
 20
299.0390010122933
 30
0.0
 10
365.5546643138318
 20
299.0268305435279
 30
0.0
 10
365.5220357534349
 20
298.9918912819572
 30
0.0
 10
365.4986957753717
 20
298.9706155715357
 30
0.0
 10
365.4613768880568
 20
298.9416365318896
 30
0.0
 10
365.4485505900634
 20
298.9324683073036
 30
0.0
 10
365.422114852245
 20
298.9151276192134
 30
0.0
 10
365.4084536633269
 20
298.906927444031
 30
0.0
 10
365.3666263123794
 20
298.8840666877237
 30
0.0
 10
365.3092143139414
 20
298.8584813121111
 30
0.0
 10
365.2486743330784
 20
298.8422630217424
 30
0.0
 10
365.2176032979316
 20
298.8365675082271
 30
0.0
  0
SPLINE
  5
1DD
330
1F
100
AcDbEntity
  8
1
100
AcDbSpline
210
0.0
220
0.0
230
1.0
 70
     8
 71
     3
 72
    18
 73
    14
 74
     0
 42
0.000000001
 43
0.0000000001
 40
0.0
 40
0.0
 40
0.0
 40
0.0
 40
0.2127774583462977
 40
0.2127774583462977
 40
0.4255549166925954
 40
0.4255549166925954
 40
0.5319436458657485
 40
0.5319436458657485
 40
0.6383323750389016
 40
0.6383323750389016
 40
0.8511098333852192
 40
0.8511098333852192
 40
1.0
 40
1.0
 40
1.0
 40
1.0
 10
363.0277411568274
 20
300.8230198396023
 30
0.0
 10
363.040226837125
 20
300.7948022938724
 30
0.0
 10
363.050391969346
 20
300.7657985376068
 30
0.0
 10
363.0661121686554
 20
300.7061691823386
 30
0.0
 10
363.0716694537643
 20
300.6755444357816
 30
0.0
 10
363.0762854087767
 20
300.6282502119433
 30
0.0
 10
363.077185551077
 20
300.6123565454919
 30
0.0
 10
363.077694078402
 20
300.5806942836722
 30
0.0
 10
363.0773086034508
 20
300.5648675870542
 30
0.0
 10
363.0742341979528
 20
300.5173968956533
 30
0.0
 10
363.0696291610074
 20
300.4857116680564
 30
0.0
 10
363.057263587795
 20
300.4320418039023
 30
0.0
 10
363.0509739861361
 20
300.4104528800852
 30
0.0
 10
363.0435324611245
 20
300.3893494462291
 30
0.0
  0
SPLINE
  5
1DE
330
1F
100
AcDbEntity
  8
1
100
AcDbSpline
210
0.0
220
0.0
230
1.0
 70
     8
 71
     3
 72
    10
 73
     6
 74
     0
 42
0.000000001
 43
0.0000000001
 40
0.0
 40
0.0
 40
0.0
 40
0.0
 40
0.5
 40
0.5
 40
1.0
 40
1.0
 40
1.0
 40
1.0
 10
362.9844858276198
 20
300.8684620699988
 30
0.0
 10
362.9940488240392
 20
300.8636148283452
 30
0.0
 10
363.0025757466059
 20
300.8573034607808
 30
0.0
 10
363.017383841395
 20
300.8418049366077
 30
0.0
 10
363.0233324355219
 20
300.8329835173587
 30
0.0
 10
363.0277411568274
 20
300.8230198396023
 30
0.0
  0
SPLINE
  5
1DF
330
1F
100
AcDbEntity
  8
1
100
AcDbSpline
210
0.0
220
0.0
230
1.0
 70
     8
 71
     3
 72
    20
 73
    16
 74
     0
 42
0.000000001
 43
0.0000000001
 40
0.0
 40
0.0
 40
0.0
 40
0.0
 40
0.125
 40
0.125
 40
0.25
 40
0.25
 40
0.375
 40
0.375
 40
0.5
 40
0.5
 40
0.625
 40
0.625
 40
0.75
 40
0.75
 40
1.0
 40
1.0
 40
1.0
 40
1.0
 10
362.9844858276198
 20
300.8684620699988
 30
0.0
 10
362.9803020717596
 20
300.8705827103071
 30
0.0
 10
362.9763079431997
 20
300.8729947771743
 30
0.0
 10
362.9686965548997
 20
300.8783977885956
 30
0.0
 10
362.965077579743
 20
300.8813970813558
 30
0.0
 10
362.9583899624549
 20
300.8878369012452
 30
0.0
 10
362.9552974598449
 20
300.8912923332114
 30
0.0
 10
362.9496237595818
 20
300.8986813810513
 30
0.0
 10
362.9470259846147
 20
300.902648820314
 30
0.0
 10
362.9424919695646
 20
300.9108924051166
 30
0.0
 10
362.9405474415122
 20
300.9151679524288
 30
0.0
 10
362.9373100044954
 20
300.9240286552647
 30
0.0
 10
362.9360111403768
 20
300.928644948208
 30
0.0
 10
362.933211699869
 20
300.9427743738072
 30
0.0
 10
362.9328003293796
 20
300.9523630560411
 30
0.0
 10
362.9339364338782
 20
300.9621284892224
 30
0.0
  0
SPLINE
  5
1E0
330
1F
100
AcDbEntity
  8
1
100
AcDbSpline
210
0.0
220
0.0
230
1.0
 70
     8
 71
     3
 72
    14
 73
    10
 74
     0
 42
0.000000001
 43
0.0000000001
 40
0.0
 40
0.0
 40
0.0
 40
0.0
 40
0.0909779694665562
 40
0.0909779694665562
 40
0.3939853129777043
 40
0.3939853129777043
 40
0.6969926564888523
 40
0.6969926564888523
 40
1.0
 40
1.0
 40
1.0
 40
1.0
 10
365.5957209593008
 20
299.9390908940318
 30
0.0
 10
365.5988940696016
 20
299.9480895199079
 30
0.0
 10
365.602275116441
 20
299.9569870006534
 30
0.0
 10
365.6178017758677
 20
299.9950882611747
 30
0.0
 10
365.6320169241652
 20
300.0233005573677
 30
0.0
 10
365.6650585805235
 20
300.0774581155108
 30
0.0
 10
365.6834002385923
 20
300.1026176100394
 30
0.0
 10
365.7234830305439
 20
300.1494380652817
 30
0.0
 10
365.7452259192559
 20
300.1710971152491
 30
0.0
 10
365.7686913449359
 20
300.1910254156709
 30
0.0
  0
SPLINE
  5
1E1
330
1F
100
AcDbEntity
  8
1
100
AcDbSpline
210
0.0
220
0.0
230
1.0
 70
     8
 71
     3
 72
    10
 73
     6
 74
     0
 42
0.000000001
 43
0.0000000001
 40
0.0
 40
0.0
 40
0.0
 40
0.0
 40
0.5
 40
0.5
 40
1.0
 40
1.0
 40
1.0
 40
1.0
 10
365.7686913449359
 20
300.1910254156709
 30
0.0
 10
365.7769771520716
 20
300.1980622389568
 30
0.0
 10
365.7862083017244
 20
300.2034296900471
 30
0.0
 10
365.8062002307527
 20
300.2108801881331
 30
0.0
 10
365.8165354317443
 20
300.2128205098501
 30
0.0
 10
365.8272073934186
 20
300.2130017168087
 30
0.0
  0
SPLINE
  5
1E2
330
1F
100
AcDbEntity
  8
1
100
AcDbSpline
210
0.0
220
0.0
230
1.0
 70
     8
 71
     3
 72
    16
 73
    12
 74
     0
 42
0.000000001
 43
0.0000000001
 40
0.0
 40
0.0
 40
0.0
 40
0.0
 40
0.063118467091256
 40
0.063118467091256
 40
0.2504947736730939
 40
0.2504947736730939
 40
0.4378710802549319
 40
0.4378710802549319
 40
0.6252473868367696
 40
0.6252473868367696
 40
1.0
 40
1.0
 40
1.0
 40
1.0
 10
365.8935601261754
 20
300.2424633338106
 30
0.0
 10
365.8924737359967
 20
300.2412955739795
 30
0.0
 10
365.8913560731701
 20
300.2401550273473
 30
0.0
 10
365.8867961203116
 20
300.2357369010451
 30
0.0
 10
365.8831378829991
 20
300.232708405146
 30
0.0
 10
365.8755234365014
 20
300.2273171945162
 30
0.0
 10
365.8715426799158
 20
300.2249302626632
 30
0.0
 10
365.8632401585176
 20
300.220764830677
 30
0.0
 10
365.8588824115879
 20
300.218977348025
 30
0.0
 10
365.8456409020686
 20
300.2146779146379
 30
0.0
 10
365.8365540272474
 20
300.2131604200668
 30
0.0
 10
365.8272073934185
 20
300.2130017168087
 30
0.0
  0
SPLINE
  5
1E3
330
1F
100
AcDbEntity
  8
1
100
AcDbSpline
210
0.0
220
0.0
230
1.0
 70
     8
 71
     3
 72
     8
 73
     4
 74
     0
 42
0.000000001
 43
0.0000000001
 40
0.0
 40
0.0
 40
0.0
 40
0.0
 40
1.0
 40
1.0
 40
1.0
 40
1.0
 10
362.9339364338782
 20
300.9621284892224
 30
0.0
 10
362.935216009016
 20
300.9731271302124
 30
0.0
 10
362.936800201123
 20
300.984058860024
 30
0.0
 10
362.9386873195908
 20
300.9949238022808
 30
0.0
  0
SPLINE
  5
1E4
330
1F
100
AcDbEntity
  8
1
100
AcDbSpline
210
0.0
220
0.0
230
1.0
 70
     8
 71
     3
 72
    10
 73
     6
 74
     0
 42
0.000000001
 43
0.0000000001
 40
0.0
 40
0.0
 40
0.0
 40
0.0
 40
0.6628244121505896
 40
0.6628244121505896
 40
1.0
 40
1.0
 40
1.0
 40
1.0
 10
364.2620051439354
 20
301.6431785868963
 30
0.0
 10
364.2615015745881
 20
301.6410070852022
 30
0.0
 10
364.2609168423502
 20
301.6388459656653
 30
0.0
 10
364.2599119263524
 20
301.6356024345448
 30
0.0
 10
364.2595538654337
 20
301.6345170990456
 30
0.0
 10
364.2591764480719
 20
301.6334401138141
 30
0.0
  0
SPLINE
  5
1E5
330
1F
100
AcDbEntity
  8
1
100
AcDbSpline
210
0.0
220
0.0
230
1.0
 70
     8
 71
     3
 72
    17
 73
    13
 74
     0
 42
0.000000001
 43
0.0000000001
 40
0.0
 40
0.0
 40
0.0
 40
0.0
 40
0.25
 40
0.5
 40
0.5
 40
0.75
 40
0.75
 40
0.8125
 40
0.8125
 40
0.875
 40
0.875
 40
1.0
 40
1.0
 40
1.0
 40
1.0
 10
300.0403037285352
 20
271.7113195433018
 30
0.0
 10
300.2685940145329
 20
271.728391686123
 30
0.0
 10
300.7305192419731
 20
271.7598485014564
 30
0.0
 10
301.2031961473076
 20
271.7840742163735
 30
0.0
 10
301.6813777452263
 20
271.8039107988144
 30
0.0
 10
301.923220322628
 20
271.8116346503004
 30
0.0
 10
302.2291119610752
 20
271.8181532919621
 30
0.0
 10
302.2904700022395
 20
271.8193005637954
 30
0.0
 10
302.4135504540793
 20
271.8212737896782
 30
0.0
 10
302.4752256204788
 20
271.8220984460792
 30
0.0
 10
302.6597599089508
 20
271.8240722848139
 30
0.0
 10
302.7824596254334
 20
271.8247266395552
 30
0.0
 10
302.9048419452992
 20
271.8247266395552
 30
0.0
  0
SPLINE
  5
1E6
330
1F
100
AcDbEntity
  8
1
100
AcDbSpline
210
0.0
220
0.0
230
1.0
 70
     8
 71
     3
 72
    16
 73
    12
 74
     0
 42
0.000000001
 43
0.0000000001
 40
0.0
 40
0.0
 40
0.0
 40
0.0
 40
0.1249999999999993
 40
0.1249999999999993
 40
0.2499999999999987
 40
0.2499999999999987
 40
0.4999999999999992
 40
0.4999999999999992
 40
0.7499999999999996
 40
0.7499999999999996
 40
1.0
 40
1.0
 40
1.0
 40
1.0
 10
314.1385115590838
 20
272.9331051724598
 30
0.0
 10
313.6795549542535
 20
272.8625238485076
 30
0.0
 10
313.2196833816026
 20
272.7953837515532
 30
0.0
 10
312.2978451458354
 20
272.6678297901635
 30
0.0
 10
311.8358785741238
 20
272.6074148701102
 30
0.0
 10
310.44654201358
 20
272.4358433895725
 30
0.0
 10
309.5157065448635
 20
272.3343862609961
 30
0.0
 10
307.6439960067709
 20
272.1541698556507
 30
0.0
 10
306.703129469466
 20
272.0753856846333
 30
0.0
 10
304.8113632826879
 20
271.9367718599618
 30
0.0
 10
303.8604719448013
 20
271.8769268806858
 30
0.0
 10
302.9048419452957
 20
271.8247266395552
 30
0.0
  0
SPLINE
  5
1E7
330
1F
100
AcDbEntity
  8
1
100
AcDbSpline
210
0.0
220
0.0
230
1.0
 70
     8
 71
     3
 72
    22
 73
    18
 74
     0
 42
0.000000001
 43
0.0000000001
 40
0.0
 40
0.0
 40
0.0
 40
0.0
 40
0.2437835332909589
 40
0.2437835332909589
 40
0.365675299936437
 40
0.365675299936437
 40
0.4875670665819152
 40
0.4875670665819152
 40
0.609458833227393
 40
0.609458833227393
 40
0.7313505998728712
 40
0.7313505998728712
 40
0.853242366518349
 40
0.853242366518349
 40
0.9751341331638272
 40
0.9751341331638272
 40
1.0
 40
1.0
 40
1.0
 40
1.0
 10
316.1832079923734
 20
273.648159253527
 30
0.0
 10
316.6704557675323
 20
273.8210979338385
 30
0.0
 10
317.1596244053411
 20
273.9920025655603
 30
0.0
 10
317.8974095457222
 20
274.2414374541091
 30
0.0
 10
318.1440011210818
 20
274.3234484274031
 30
0.0
 10
318.6385813309412
 20
274.4848759102643
 30
0.0
 10
318.8865700386998
 20
274.5642911463218
 30
0.0
 10
319.3839252401114
 20
274.7204773838866
 30
0.0
 10
319.6332915628823
 20
274.7972479147231
 30
0.0
 10
320.1332936242825
 20
274.9484022181301
 30
0.0
 10
320.3839289731893
 20
275.022786362682
 30
0.0
 10
320.886280159793
 20
275.1697341105519
 30
0.0
 10
321.1379954423637
 20
275.2422988249084
 30
0.0
 10
321.6422514142572
 20
275.3864598926516
 30
0.0
 10
321.8947914507773
 20
275.4580578807197
 30
0.0
 10
322.1991641242134
 20
275.5443386869973
 30
0.0
 10
322.2507463706133
 20
275.5589596942314
 30
0.0
 10
322.3023380903168
 20
275.5735884636949
 30
0.0
  0
SPLINE
  5
1E8
330
1F
100
AcDbEntity
  8
1
100
AcDbSpline
210
0.0
220
0.0
230
1.0
 70
    12
 71
     3
 72
     8
 73
     4
 74
     0
 42
0.000000001
 43
0.0000000001
 40
0.0
 40
0.0
 40
0.0
 40
0.0
 40
1.0
 40
1.0
 40
1.0
 40
1.0
 10
316.1832079923702
 20
273.6481592535264
 30
0.0
 41
1.002428729085564
 10
318.8440365182771
 20
274.1603352154635
 30
0.0
 41
1.003935963021223
 10
321.3851585899355
 20
274.563713665084
 30
0.0
 41
1.005472936761684
 10
323.9147267707796
 20
275.1480219784888
 30
0.0
 41
1.005406796412428
  0
SPLINE
  5
1E9
330
1F
100
AcDbEntity
  8
1
100
AcDbSpline
210
0.0
220
0.0
230
1.0
 70
     8
 71
     3
 72
   102
 73
    98
 74
     0
 42
0.000000001
 43
0.0000000001
 40
0.0
 40
0.0
 40
0.0
 40
0.0
 40
0.0312499999999989
 40
0.0312499999999989
 40
0.0468749999999981
 40
0.0468749999999981
 40
0.0624999999999974
 40
0.0781249999999967
 40
0.0781249999999967
 40
0.093749999999996
 40
0.093749999999996
 40
0.1249999999999948
 40
0.1249999999999948
 40
0.140624999999994
 40
0.140624999999994
 40
0.1562499999999933
 40
0.1562499999999933
 40
0.1718749999999925
 40
0.1718749999999925
 40
0.1874999999999917
 40
0.1874999999999917
 40
0.2187499999999906
 40
0.2499999999999895
 40
0.2499999999999895
 40
0.2656249999999885
 40
0.2656249999999885
 40
0.2812499999999875
 40
0.2968749999999866
 40
0.2968749999999866
 40
0.3124999999999856
 40
0.3124999999999856
 40
0.3437499999999838
 40
0.3437499999999838
 40
0.3593749999999831
 40
0.3593749999999831
 40
0.3749999999999824
 40
0.3906249999999816
 40
0.3906249999999816
 40
0.4062499999999809
 40
0.4218749999999802
 40
0.4218749999999802
 40
0.4374999999999794
 40
0.4374999999999794
 40
0.4687499999999786
 40
0.4687499999999786
 40
0.4843749999999785
 40
0.4843749999999785
 40
0.4999999999999782
 40
0.4999999999999782
 40
0.5312499999999785
 40
0.5312499999999785
 40
0.5468749999999793
 40
0.5468749999999793
 40
0.56249999999998
 40
0.5781249999999807
 40
0.5781249999999807
 40
0.5937499999999815
 40
0.5937499999999815
 40
0.624999999999983
 40
0.624999999999983
 40
0.6406249999999839
 40
0.6406249999999839
 40
0.6562499999999846
 40
0.6718749999999855
 40
0.6718749999999855
 40
0.6874999999999864
 40
0.6874999999999864
 40
0.7031249999999872
 40
0.7031249999999872
 40
0.7187499999999881
 40
0.7187499999999881
 40
0.7499999999999894
 40
0.7499999999999894
 40
0.7656249999999901
 40
0.7656249999999901
 40
0.7812499999999904
 40
0.796874999999991
 40
0.796874999999991
 40
0.8124999999999912
 40
0.8124999999999912
 40
0.8437499999999925
 40
0.8437499999999925
 40
0.8749999999999934
 40
0.8749999999999934
 40
0.8906249999999943
 40
0.8906249999999943
 40
0.9062499999999948
 40
0.9218749999999957
 40
0.9218749999999957
 40
0.9374999999999966
 40
0.9374999999999966
 40
0.9687499999999984
 40
0.9687499999999984
 40
0.9765624999999987
 40
0.9765624999999987
 40
0.9843749999999992
 40
1.0
 40
1.0
 40
1.0
 40
1.0
 10
368.5945026284288
 20
283.1534935137217
 30
0.0
 10
368.5808097221476
 20
283.0607070053836
 30
0.0
 10
368.5677938375576
 20
282.9666314499799
 30
0.0
 10
368.5492749281232
 20
282.823604757364
 30
0.0
 10
368.5432604571951
 20
282.7755299537085
 30
0.0
 10
368.5316228596822
 20
282.6791690082615
 30
0.0
 10
368.5203814214946
 20
282.5826506824112
 30
0.0
 10
368.5099253100251
 20
282.485820373407
 30
0.0
 10
368.4998625437075
 20
282.3888338019732
 30
0.0
 10
368.4950242958705
 20
282.3402186460069
 30
0.0
 10
368.481192496572
 20
282.1950744896533
 30
0.0
 10
368.4728480399433
 20
282.0989561575013
 30
0.0
 10
368.4616422398972
 20
281.9557422085885
 30
0.0
 10
368.4581342315837
 20
281.9082629851104
 30
0.0
 10
368.451596392688
 20
281.8141991246307
 30
0.0
 10
368.4485619495238
 20
281.7675561647155
 30
0.0
 10
368.4429599100341
 20
281.6750446923633
 30
0.0
 10
368.4403892904517
 20
281.6291165336653
 30
0.0
 10
368.435730964025
 20
281.53830120655
 30
0.0
 10
368.4336526108522
 20
281.4936084483664
 30
0.0
 10
368.4281502322094
 20
281.3616185969667
 30
0.0
 10
368.4227626654695
 20
281.1911873539366
 30
0.0
 10
368.4211888578308
 20
281.0316267956306
 30
0.0
 10
368.4214658203594
 20
280.9161102961448
 30
0.0
 10
368.4218034722456
 20
280.878252710899
 30
0.0
 10
368.4229632078289
 20
280.8046218386389
 30
0.0
 10
368.4246063894032
 20
280.7329106613287
 30
0.0
 10
368.4272097240832
 20
280.6650121148019
 30
0.0
 10
368.4302946753988
 20
280.5990259991158
 30
0.0
 10
368.4320783541057
 20
280.5670045414154
 30
0.0
 10
368.4381173203548
 20
280.4743968847578
 30
0.0
 10
368.4430669635501
 20
280.4170489970235
 30
0.0
 10
368.4518788786951
 20
280.3376222681987
 30
0.0
 10
368.4550421220748
 20
280.3123091713047
 30
0.0
 10
368.4617950625119
 20
280.2641664037977
 30
0.0
 10
368.4689805737144
 20
280.2184504841148
 30
0.0
 10
368.477030226339
 20
280.1775790358677
 30
0.0
 10
368.4855152785933
 20
280.1391524744418
 30
0.0
 10
368.4943969987503
 20
280.1033460273825
 30
0.0
 10
368.5040651153237
 20
280.0727339722411
 30
0.0
 10
368.5141269561857
 20
280.0447225879835
 30
0.0
 10
368.5193616842902
 20
280.0320030506199
 30
0.0
 10
368.5356154540844
 20
279.9978882196159
 30
0.0
 10
368.5471261523121
 20
279.9806215233104
 30
0.0
 10
368.5653929510857
 20
279.9628427292144
 30
0.0
 10
368.5716490987494
 20
279.9582734376045
 30
0.0
 10
368.5844989999042
 20
279.9518745771175
 30
0.0
 10
368.5911050632268
 20
279.9500453543608
 30
0.0
 10
368.6113397909909
 20
279.9487482544798
 30
0.0
 10
368.6253639587239
 20
279.9534332159703
 30
0.0
 10
368.6472050602577
 20
279.968819744836
 30
0.0
 10
368.6546308387717
 20
279.9753591974923
 30
0.0
 10
368.6696692483778
 20
279.9911797941324
 30
0.0
 10
368.6849069013574
 20
280.0097431570855
 30
0.0
 10
368.7005426581801
 20
280.0337867816515
 30
0.0
 10
368.7163793380453
 20
280.0605962947053
 30
0.0
 10
368.724404094356
 20
280.0753998313124
 30
0.0
 10
368.7486279643747
 20
280.1237034199512
 30
0.0
 10
368.7650240221092
 20
280.1611558140436
 30
0.0
 10
368.7899928791757
 20
280.2253062748426
 30
0.0
 10
368.7983700104125
 20
280.2480044118466
 30
0.0
 10
368.8151420523512
 20
280.295783063595
 30
0.0
 10
368.8319571688351
 20
280.3460077842444
 30
0.0
 10
368.8488586617715
 20
280.4011375538697
 30
0.0
 10
368.8658039158836
 20
280.4587523839913
 30
0.0
 10
368.8742617032537
 20
280.4886782638975
 30
0.0
 10
368.8911311686159
 20
280.5506967458299
 30
0.0
 10
368.8995455780581
 20
280.5827986252229
 30
0.0
 10
368.9163335736428
 20
280.6491971673747
 30
0.0
 10
368.9247190315638
 20
280.6835446152102
 30
0.0
 10
368.9497264551446
 20
280.7895577196921
 30
0.0
 10
368.9661480296312
 20
280.8639478940153
 30
0.0
 10
368.9904048532972
 20
280.981112387408
 30
0.0
 10
368.9984390074511
 20
281.0211603794603
 30
0.0
 10
369.0142828965691
 20
281.1026433530644
 30
0.0
 10
369.0299199318068
 20
281.1855909115085
 30
0.0
 10
369.0451445757223
 20
281.271458318869
 30
0.0
 10
369.0601614819302
 20
281.3587965688204
 30
0.0
 10
369.0675599484667
 20
281.4031708639284
 30
0.0
 10
369.089295038702
 20
281.5376101296854
 30
0.0
 10
369.1032234140035
 20
281.6292777325711
 30
0.0
 10
369.1299416228368
 20
281.8166760542815
 30
0.0
 10
369.1425984990532
 20
281.9114731449732
 30
0.0
 10
369.1605420221839
 20
282.0552976156756
 30
0.0
 10
369.1663581804767
 20
282.1035909129124
 30
0.0
 10
369.1775886671805
 20
282.2002914082919
 30
0.0
 10
369.1884128819313
 20
282.2970529522677
 30
0.0
 10
369.1984318760481
 20
282.3939354930018
 30
0.0
 10
369.208047650317
 20
282.4908786237066
 30
0.0
 10
369.2126572009602
 20
282.5394235422293
 30
0.0
 10
369.2257928821986
 20
282.6842176301277
 30
0.0
 10
369.2336585767769
 20
282.7799170704446
 30
0.0
 10
369.24238029177
 20
282.8985075433569
 30
0.0
 10
369.2440687096832
 20
282.9221730355951
 30
0.0
 10
369.2473183418949
 20
282.9691705102597
 30
0.0
 10
369.2520084747756
 20
283.039253932317
 30
0.0
 10
369.256153675928
 20
283.1081169338891
 30
0.0
 10
369.2586795600184
 20
283.1534935137009
 30
0.0
  0
SPLINE
  5
1EA
330
1F
100
AcDbEntity
  8
1
100
AcDbSpline
210
0.0
220
0.0
230
1.0
 70
     8
 71
     3
 72
    81
 73
    77
 74
     0
 42
0.000000001
 43
0.0000000001
 40
0.0
 40
0.0
 40
0.0
 40
0.0
 40
0.0312499999999995
 40
0.0312499999999995
 40
0.062499999999999
 40
0.062499999999999
 40
0.0937499999999985
 40
0.0937499999999985
 40
0.124999999999998
 40
0.124999999999998
 40
0.140624999999998
 40
0.140624999999998
 40
0.156249999999998
 40
0.156249999999998
 40
0.1874999999999974
 40
0.1874999999999974
 40
0.2499999999999968
 40
0.2499999999999968
 40
0.2656249999999963
 40
0.2656249999999963
 40
0.2812499999999958
 40
0.2812499999999958
 40
0.3124999999999946
 40
0.3437499999999933
 40
0.3437499999999933
 40
0.3749999999999922
 40
0.3749999999999922
 40
0.4062499999999911
 40
0.4062499999999911
 40
0.4218749999999907
 40
0.4218749999999907
 40
0.4374999999999905
 40
0.4687499999999907
 40
0.4687499999999907
 40
0.484374999999991
 40
0.484374999999991
 40
0.4999999999999912
 40
0.5312499999999916
 40
0.5312499999999916
 40
0.562499999999992
 40
0.562499999999992
 40
0.5937499999999924
 40
0.5937499999999924
 40
0.6249999999999928
 40
0.6249999999999928
 40
0.6562499999999931
 40
0.6562499999999931
 40
0.6718749999999934
 40
0.6718749999999934
 40
0.6874999999999935
 40
0.6874999999999935
 40
0.7499999999999955
 40
0.7499999999999955
 40
0.7812499999999966
 40
0.7812499999999966
 40
0.7968749999999969
 40
0.7968749999999969
 40
0.8124999999999971
 40
0.8124999999999971
 40
0.8437499999999978
 40
0.8437499999999978
 40
0.8593749999999982
 40
0.8593749999999982
 40
0.8749999999999985
 40
0.8749999999999985
 40
0.9062499999999987
 40
0.9062499999999987
 40
0.9218749999999992
 40
0.9218749999999992
 40
0.9374999999999992
 40
0.9374999999999992
 40
0.96875
 40
0.96875
 40
0.984375
 40
0.984375
 40
1.0
 40
1.0
 40
1.0
 40
1.0
 10
369.2586795600184
 20
283.1534935137009
 30
0.0
 10
369.2556505552593
 20
283.2155688489546
 30
0.0
 10
369.2522771326426
 20
283.2769997105055
 30
0.0
 10
369.2449052354654
 20
283.3974686082506
 30
0.0
 10
369.2409041798827
 20
283.4565868206407
 30
0.0
 10
369.2322754356049
 20
283.5726034573688
 30
0.0
 10
369.2276376865168
 20
283.6296064847119
 30
0.0
 10
369.2177962194651
 20
283.7406266757403
 30
0.0
 10
369.2125906692957
 20
283.7946913305295
 30
0.0
 10
369.2043572904982
 20
283.8736311715635
 30
0.0
 10
369.2015419080313
 20
283.8995845192858
 30
0.0
 10
369.1957686898289
 20
283.9507682662634
 30
0.0
 10
369.1928111008124
 20
283.9759926392686
 30
0.0
 10
369.1837787162443
 20
284.05013642559
 30
0.0
 10
369.1775274499472
 20
284.0976839614477
 30
0.0
 10
369.1580998724168
 20
284.2348065506905
 30
0.0
 10
369.144253717276
 20
284.3188938215385
 30
0.0
 10
369.1258177708503
 20
284.414759556094
 30
0.0
 10
369.1220738547344
 20
284.4334679611316
 30
0.0
 10
369.1144710208767
 20
284.4699426055701
 30
0.0
 10
369.1106060962994
 20
284.4877347533848
 30
0.0
 10
369.0988864319255
 20
284.5394515565947
 30
0.0
 10
369.082938890058
 20
284.6039591228696
 30
0.0
 10
369.0663519838795
 20
284.6596157676807
 30
0.0
 10
369.0494411698471
 20
284.7107884540839
 30
0.0
 10
369.0408682022561
 20
284.7339954397081
 30
0.0
 10
369.0235165150824
 20
284.7755984523717
 30
0.0
 10
369.0147332562662
 20
284.7940083257209
 30
0.0
 10
369.001395378211
 20
284.8179941172414
 30
0.0
 10
368.996919918937
 20
284.8253859271066
 30
0.0
 10
368.98795201563
 20
284.8388911932424
 30
0.0
 10
368.9744614377771
 20
284.8572561222388
 30
0.0
 10
368.9608551311296
 20
284.8699636442635
 30
0.0
 10
368.9471709170596
 20
284.8788626586748
 30
0.0
 10
368.9425915965122
 20
284.8811949661403
 30
0.0
 10
368.9334340105424
 20
284.8845647405286
 30
0.0
 10
368.9197031139429
 20
284.8876794126377
 30
0.0
 10
368.9059885861085
 20
284.8850018236952
 30
0.0
 10
368.8877172144606
 20
284.8762421750255
 30
0.0
 10
368.8785760397831
 20
284.8692443399741
 30
0.0
 10
368.8604624841226
 20
284.850120310621
 30
0.0
 10
368.8514730845508
 20
284.8379934699551
 30
0.0
 10
368.8336298517665
 20
284.808579309137
 30
0.0
 10
368.8247589156784
 20
284.7912459900466
 30
0.0
 10
368.8072947244282
 20
284.7516332086132
 30
0.0
 10
368.798689797153
 20
284.7293455526024
 30
0.0
 10
368.7859738727841
 20
284.6921782389515
 30
0.0
 10
368.7817671797721
 20
284.6791657672966
 30
0.0
 10
368.7734182682086
 20
284.6518828203946
 30
0.0
 10
368.7692814258873
 20
284.6376272532824
 30
0.0
 10
368.7488952597901
 20
284.5636949275925
 30
0.0
 10
368.7334309711705
 20
284.4957724203721
 30
0.0
 10
368.7114757029913
 20
284.3809917927691
 30
0.0
 10
368.7043651147624
 20
284.3405719880561
 30
0.0
 10
368.6940166109976
 20
284.2766444196467
 30
0.0
 10
368.6906200684007
 20
284.2547849400105
 30
0.0
 10
368.6839346269253
 20
284.2099474614632
 30
0.0
 10
368.6806406266843
 20
284.1869305073406
 30
0.0
 10
368.6709817356713
 20
284.1166007837671
 30
0.0
 10
368.6648276187498
 20
284.0679435976814
 30
0.0
 10
368.6560215680955
 20
283.9923178521501
 30
0.0
 10
368.6531571570019
 20
283.9666687480486
 30
0.0
 10
368.6475708019867
 20
283.9144858381957
 30
0.0
 10
368.6448459046888
 20
283.8879209607198
 30
0.0
 10
368.6369148507016
 20
283.8071786443957
 30
0.0
 10
368.6319494690831
 20
283.7519447491007
 30
0.0
 10
368.6249801423565
 20
283.6670038717997
 30
0.0
 10
368.6227369206193
 20
283.6383414869033
 30
0.0
 10
368.6184106938867
 20
283.5803172674994
 30
0.0
 10
368.6163255043267
 20
283.5509221236094
 30
0.0
 10
368.6103304412333
 20
283.4619574039944
 30
0.0
 10
368.6066820212197
 20
283.4016474242574
 30
0.0
 10
368.6017260040695
 20
283.3096989183039
 30
0.0
 10
368.600160204623
 20
283.278801861249
 30
0.0
 10
368.5972012842698
 20
283.2165118731394
 30
0.0
 10
368.5958068763748
 20
283.1850869378541
 30
0.0
 10
368.5945026284266
 20
283.1534935137217
 30
0.0
  0
SPLINE
  5
1EB
330
1F
100
AcDbEntity
  8
1
100
AcDbSpline
210
0.0
220
0.0
230
1.0
 70
     8
 71
     3
 72
    14
 73
    10
 74
     0
 42
0.000000001
 43
0.0000000001
 40
0.0
 40
0.0
 40
0.0
 40
0.0
 40
0.25
 40
0.25
 40
0.5
 40
0.5
 40
0.75
 40
0.75
 40
1.0
 40
1.0
 40
1.0
 40
1.0
 10
293.5322589432653
 20
271.4740459277729
 30
0.0
 10
294.0664088820367
 20
271.4893168290398
 30
0.0
 10
294.6025780534741
 20
271.5065534347915
 30
0.0
 10
295.678713521559
 20
271.5437764800641
 30
0.0
 10
296.2186780339367
 20
271.5637726720608
 30
0.0
 10
297.3026678645834
 20
271.6052530760799
 30
0.0
 10
297.8466956784441
 20
271.6267422074131
 30
0.0
 10
298.9395830329278
 20
271.6696108376827
 30
0.0
 10
299.4884482224764
 20
271.6909884020242
 30
0.0
 10
300.0403037285355
 20
271.7113195433018
 30
0.0
  0
SPLINE
  5
1EC
330
1F
100
AcDbEntity
  8
1
100
AcDbSpline
210
0.0
220
0.0
230
1.0
 70
     8
 71
     3
 72
     8
 73
     4
 74
     0
 42
0.000000001
 43
0.0000000001
 40
0.0
 40
0.0
 40
0.0
 40
0.0
 40
1.0
 40
1.0
 40
1.0
 40
1.0
 10
352.5408103132257
 20
294.4355117725526
 30
0.0
 10
352.4772894482335
 20
294.4751069730535
 30
0.0
 10
352.4135217278001
 20
294.514818870273
 30
0.0
 10
352.3495153822077
 20
294.5546435734847
 30
0.0
  0
SPLINE
  5
1ED
330
1F
100
AcDbEntity
  8
1
100
AcDbSpline
210
0.0
220
0.0
230
1.0
 70
     8
 71
     3
 72
    41
 73
    37
 74
     0
 42
0.000000001
 43
0.0000000001
 40
0.0
 40
0.0
 40
0.0
 40
0.0
 40
0.1249999999999946
 40
0.1249999999999946
 40
0.2499999999999892
 40
0.2499999999999892
 40
0.3124999999999872
 40
0.3124999999999872
 40
0.3749999999999852
 40
0.3749999999999852
 40
0.4374999999999833
 40
0.4374999999999833
 40
0.4687499999999822
 40
0.4687499999999822
 40
0.4999999999999812
 40
0.4999999999999812
 40
0.5624999999999844
 40
0.5624999999999844
 40
0.5937499999999858
 40
0.5937499999999858
 40
0.6249999999999874
 40
0.6562499999999889
 40
0.6562499999999889
 40
0.6874999999999904
 40
0.6874999999999904
 40
0.7187499999999921
 40
0.7187499999999921
 40
0.7499999999999935
 40
0.7499999999999935
 40
0.812499999999995
 40
0.812499999999995
 40
0.8749999999999968
 40
0.8749999999999968
 40
0.9374999999999984
 40
0.9374999999999984
 40
1.0
 40
1.0
 40
1.0
 40
1.0
 10
352.3495153822077
 20
294.5546435734847
 30
0.0
 10
352.3196346595452
 20
294.5732353381102
 30
0.0
 10
352.2911230123575
 20
294.592878873126
 30
0.0
 10
352.2374170391653
 20
294.6347172629057
 30
0.0
 10
352.2122073233509
 20
294.6569002796107
 30
0.0
 10
352.1777137527706
 20
294.6927312250898
 30
0.0
 10
352.1667744954843
 20
294.7051048712202
 30
0.0
 10
352.1462711380848
 20
294.7309109882718
 30
0.0
 10
352.1367866913753
 20
294.7442493813193
 30
0.0
 10
352.1198122948133
 20
294.771794406619
 30
0.0
 10
352.1122978249232
 20
294.7860240272764
 30
0.0
 10
352.1028879728951
 20
294.808243166612
 30
0.0
 10
352.1000694623574
 20
294.8157911832983
 30
0.0
 10
352.0952112237284
 20
294.8310089330107
 30
0.0
 10
352.093160806677
 20
294.8387019922842
 30
0.0
 10
352.0882693642674
 20
294.8620610427738
 30
0.0
 10
352.0866692710192
 20
294.8780027623329
 30
0.0
 10
352.0875105319847
 20
294.9026342050089
 30
0.0
 10
352.0883487592476
 20
294.9110000033824
 30
0.0
 10
352.0912024147892
 20
294.9275579762863
 30
0.0
 10
352.0952277282755
 20
294.9440372849144
 30
0.0
 10
352.1017357036834
 20
294.9603492313226
 30
0.0
 10
352.1095784245579
 20
294.9765707976917
 30
0.0
 10
352.1141305963575
 20
294.9845441100507
 30
0.0
 10
352.124310341717
 20
294.9999627033609
 30
0.0
 10
352.1299577101367
 20
295.0074500132502
 30
0.0
 10
352.1423271902709
 20
295.0219963157255
 30
0.0
 10
352.1490840832641
 20
295.0290874508208
 30
0.0
 10
352.1706897905959
 20
295.0495121867376
 30
0.0
 10
352.1865667566266
 20
295.0617632793696
 30
0.0
 10
352.2206390985868
 20
295.0841149010157
 30
0.0
 10
352.238984516717
 20
295.0942646539389
 30
0.0
 10
352.2764461987056
 20
295.1122337127949
 30
0.0
 10
352.2956621995307
 20
295.1201373016361
 30
0.0
 10
352.3348489491504
 20
295.1342625949605
 30
0.0
 10
352.3548215304592
 20
295.140480220763
 30
0.0
 10
352.3751072853206
 20
295.1459998972464
 30
0.0
  0
SPLINE
  5
1EE
330
1F
100
AcDbEntity
  8
1
100
AcDbSpline
210
0.0
220
0.0
230
1.0
 70
     8
 71
     3
 72
    12
 73
     8
 74
     0
 42
0.000000001
 43
0.0000000001
 40
0.0
 40
0.0
 40
0.0
 40
0.0
 40
0.1635300992169859
 40
0.1635300992169859
 40
0.581765049608493
 40
0.581765049608493
 40
1.0
 40
1.0
 40
1.0
 40
1.0
 10
291.5043403786456
 20
306.5370259782645
 30
0.0
 10
291.6116760078856
 20
306.523301794151
 30
0.0
 10
291.7195053336143
 20
306.5104269171401
 30
0.0
 10
292.1049137253362
 20
306.4677777601083
 30
0.0
 10
292.3852970561963
 20
306.4429139129883
 30
0.0
 10
292.9532292892785
 20
306.4062672179912
 30
0.0
 10
293.2407765464225
 20
306.3944819362812
 30
0.0
 10
293.5322589432653
 20
306.3901300495457
 30
0.0
  0
SPLINE
  5
1EF
330
1F
100
AcDbEntity
  8
1
100
AcDbSpline
210
0.0
220
0.0
230
1.0
 70
     8
 71
     3
 72
    23
 73
    19
 74
     0
 42
0.000000001
 43
0.0000000001
 40
0.0
 40
0.0
 40
0.0
 40
0.0
 40
0.1249999999999998
 40
0.2499999999999996
 40
0.2499999999999996
 40
0.3749999999999996
 40
0.3749999999999996
 40
0.4999999999999998
 40
0.4999999999999998
 40
0.53125
 40
0.53125
 40
0.5624999999999995
 40
0.6249999999999986
 40
0.6249999999999986
 40
0.7499999999999991
 40
0.8749999999999996
 40
0.8749999999999996
 40
1.0
 40
1.0
 40
1.0
 40
1.0
 10
279.4048419452957
 20
275.4057020281513
 30
0.0
 10
279.2262211135272
 20
275.2522691656443
 30
0.0
 10
278.8849653181695
 20
274.9381877122798
 30
0.0
 10
278.5749632321178
 20
274.6109684531363
 30
0.0
 10
278.2805132830638
 20
274.2776811299993
 30
0.0
 10
278.1410640241976
 20
274.1080030576114
 30
0.0
 10
277.8779248904663
 20
273.7629491616817
 30
0.0
 10
277.7542337191751
 20
273.5875733359111
 30
0.0
 10
277.6097898025576
 20
273.3649466007348
 30
0.0
 10
277.5813855781354
 20
273.320210515118
 30
0.0
 10
277.5257249810185
 20
273.2305901937839
 30
0.0
 10
277.4440570072195
 20
273.0961056989805
 30
0.0
 10
277.367814833523
 20
272.9614922709632
 30
0.0
 10
277.2224827729973
 20
272.6921742948103
 30
0.0
 10
277.0477580514313
 20
272.3328452696261
 30
0.0
 10
276.9107935156499
 20
271.9737862074995
 30
0.0
 10
276.7928864751462
 20
271.6151738490747
 30
0.0
 10
276.7434604788834
 20
271.4360907893924
 30
0.0
 10
276.7038351791523
 20
271.2573603538856
 30
0.0
  0
SPLINE
  5
1F0
330
1F
100
AcDbEntity
  8
1
100
AcDbSpline
210
0.0
220
0.0
230
1.0
 70
     8
 71
     3
 72
    30
 73
    26
 74
     0
 42
0.000000001
 43
0.0000000001
 40
0.0
 40
0.0
 40
0.0
 40
0.0
 40
0.1250000000000006
 40
0.1250000000000006
 40
0.2500000000000012
 40
0.2500000000000012
 40
0.3750000000000018
 40
0.3750000000000018
 40
0.4375000000000019
 40
0.4375000000000019
 40
0.4687500000000017
 40
0.4687500000000017
 40
0.5000000000000015
 40
0.5000000000000015
 40
0.6250000000000006
 40
0.6250000000000006
 40
0.7499999999999997
 40
0.7499999999999997
 40
0.8124999999999994
 40
0.8124999999999994
 40
0.8437499999999996
 40
0.8437499999999996
 40
0.875
 40
0.875
 40
1.0
 40
1.0
 40
1.0
 40
1.0
 10
282.2185504442805
 20
278.7198380031244
 30
0.0
 10
282.5226086314166
 20
279.0189689019906
 30
0.0
 10
282.8389505183356
 20
279.3026647244651
 30
0.0
 10
283.4968203737552
 20
279.839328930691
 30
0.0
 10
283.8383433198848
 20
280.0923023101286
 30
0.0
 10
284.5479361343253
 20
280.5666262148704
 30
0.0
 10
284.9159963037688
 20
280.7879889427935
 30
0.0
 10
285.4897368326722
 20
281.094680037126
 30
0.0
 10
285.6846004182876
 20
281.1926737697677
 30
0.0
 10
285.9826307098023
 20
281.3329818908711
 30
0.0
 10
286.0830378653931
 20
281.378680056181
 30
0.0
 10
286.2847018698098
 20
281.4673000801321
 30
0.0
 10
286.3860698616286
 20
281.5102775182918
 30
0.0
 10
286.8956097444726
 20
281.718459972332
 30
0.0
 10
287.3118613430077
 20
281.8636252143144
 30
0.0
 10
288.1624310722395
 20
282.1089691739402
 30
0.0
 10
288.5967466967718
 20
282.2091650485532
 30
0.0
 10
289.2628001019482
 20
282.3224536910889
 30
0.0
 10
289.4872524250391
 20
282.3540307065712
 30
0.0
 10
289.8277562738278
 20
282.3915145265883
 30
0.0
 10
289.9414785168602
 20
282.4023136300232
 30
0.0
 10
290.1691771657191
 20
282.4204667312457
 30
0.0
 10
290.2831835278157
 20
282.4278240397062
 30
0.0
 10
290.853987184464
 20
282.4559103410772
 30
0.0
 10
291.3131068509184
 20
282.4506145964631
 30
0.0
 10
291.7744847486456
 20
282.4156117644001
 30
0.0
  0
SPLINE
  5
1F1
330
1F
100
AcDbEntity
  8
1
100
AcDbSpline
210
0.0
220
0.0
230
1.0
 70
     8
 71
     3
 72
    14
 73
    10
 74
     0
 42
0.000000001
 43
0.0000000001
 40
0.0
 40
0.0
 40
0.0
 40
0.0
 40
0.25
 40
0.25
 40
0.5
 40
0.5
 40
0.75
 40
0.75
 40
1.0
 40
1.0
 40
1.0
 40
1.0
 10
282.2185504442805
 20
278.7198380031244
 30
0.0
 10
281.9687234734802
 20
278.4740594992125
 30
0.0
 10
281.7224518416533
 20
278.2216078099962
 30
0.0
 10
281.2374019325022
 20
277.7021406727542
 30
0.0
 10
280.9986219347118
 20
277.4351299579246
 30
0.0
 10
280.5289930908944
 20
276.8850706373265
 30
0.0
 10
280.2981414737356
 20
276.6020299472949
 30
0.0
 10
279.8449297878394
 20
276.0179908454108
 30
0.0
 10
279.6225648434476
 20
275.7170067778413
 30
0.0
 10
279.4048419452957
 20
275.4057020281514
 30
0.0
  0
SPLINE
  5
1F2
330
1F
100
AcDbEntity
  8
1
100
AcDbSpline
210
0.0
220
0.0
230
1.0
 70
     8
 71
     3
 72
     8
 73
     4
 74
     0
 42
0.000000001
 43
0.0000000001
 40
0.0
 40
0.0
 40
0.0
 40
0.0
 40
1.0
 40
1.0
 40
1.0
 40
1.0
 10
352.9790969644059
 20
294.1741924434822
 30
0.0
 10
352.8316225224983
 20
294.2582105479448
 30
0.0
 10
352.6855238157574
 20
294.3453058197755
 30
0.0
 10
352.5408103132263
 20
294.4355117725534
 30
0.0
  0
SPLINE
  5
1F3
330
1F
100
AcDbEntity
  8
1
100
AcDbSpline
210
0.0
220
0.0
230
1.0
 70
     8
 71
     3
 72
    46
 73
    42
 74
     0
 42
0.000000001
 43
0.0000000001
 40
0.0
 40
0.0
 40
0.0
 40
0.0
 40
0.0625000000000045
 40
0.0625000000000045
 40
0.1250000000000089
 40
0.1250000000000089
 40
0.14062500000001
 40
0.14062500000001
 40
0.1562500000000112
 40
0.1562500000000112
 40
0.1875000000000134
 40
0.2500000000000134
 40
0.2500000000000134
 40
0.3750000000000092
 40
0.3750000000000092
 40
0.406250000000008
 40
0.406250000000008
 40
0.4375000000000068
 40
0.5000000000000005
 40
0.5000000000000005
 40
0.5624999999999944
 40
0.5624999999999944
 40
0.6249999999999881
 40
0.6249999999999881
 40
0.640624999999988
 40
0.640624999999988
 40
0.6562499999999877
 40
0.6874999999999877
 40
0.6874999999999877
 40
0.7499999999999897
 40
0.7499999999999897
 40
0.8124999999999918
 40
0.8124999999999918
 40
0.8437499999999936
 40
0.8437499999999936
 40
0.8593749999999944
 40
0.8593749999999944
 40
0.8749999999999953
 40
0.8749999999999953
 40
0.9374999999999978
 40
1.0
 40
1.0
 40
1.0
 40
1.0
 10
352.3751072853206
 20
295.1459998972464
 30
0.0
 10
352.5530644469637
 20
295.1944213618112
 30
0.0
 10
352.7305210285438
 20
295.2468942093381
 30
0.0
 10
353.0842619107053
 20
295.3613276159802
 30
0.0
 10
353.2605465983864
 20
295.4232850421528
 30
0.0
 10
353.4800404703589
 20
295.5077082153621
 30
0.0
 10
353.5238960387996
 20
295.5249425320594
 30
0.0
 10
353.611517060363
 20
295.5601405026575
 30
0.0
 10
353.6553216581557
 20
295.5781206771017
 30
0.0
 10
353.786309852475
 20
295.6330827669328
 30
0.0
 10
354.0460332345795
 20
295.7468543450788
 30
0.0
 10
354.2986804397602
 20
295.8727097196783
 30
0.0
 10
354.7936314352571
 20
296.142083639429
 30
0.0
 10
355.1098518650718
 20
296.3451414637871
 30
0.0
 10
355.4844174777987
 20
296.6343295237263
 30
0.0
 10
355.5584179050916
 20
296.694058232767
 30
0.0
 10
355.7029319108656
 20
296.8161020259585
 30
0.0
 10
355.9148917485965
 20
297.0033453247059
 30
0.0
 10
356.1123346524446
 20
297.2031938860687
 30
0.0
 10
356.362472532707
 20
297.4810503331464
 30
0.0
 10
356.4809847406303
 20
297.6256718616247
 30
0.0
 10
356.7045485299504
 20
297.9266029743168
 30
0.0
 10
356.8096044170164
 20
298.0829088198562
 30
0.0
 10
356.9321508686069
 20
298.2859092025539
 30
0.0
 10
356.9562218728277
 20
298.3268971804457
 30
0.0
 10
357.0032063122354
 20
298.4091641587329
 30
0.0
 10
357.0720542748684
 20
298.5331769721616
 30
0.0
 10
357.1360693280415
 20
298.6590068293455
 30
0.0
 10
357.2577533476712
 20
298.9130525013505
 30
0.0
 10
357.3304315860991
 20
299.0855911651265
 30
0.0
 10
357.4590270641046
 20
299.4369701766935
 30
0.0
 10
357.5149470707004
 20
299.6158094841602
 30
0.0
 10
357.5859225311087
 20
299.8889202083093
 30
0.0
 10
357.6074255094185
 20
299.9807675294816
 30
0.0
 10
357.6363574881918
 20
300.1197876774777
 30
0.0
 10
357.6454532088151
 20
300.1663683130701
 30
0.0
 10
357.6624914235381
 20
300.2598111635092
 30
0.0
 10
357.6704165836924
 20
300.3065735854296
 30
0.0
 10
357.7070794223212
 20
300.5405902109735
 30
0.0
 10
357.7468274105248
 20
300.9163222347713
 30
0.0
 10
357.7482724857696
 20
301.2946980845601
 30
0.0
 10
357.7389860263587
 20
301.4845768719621
 30
0.0
  0
SPLINE
  5
1F4
330
1F
100
AcDbEntity
  8
1
100
AcDbSpline
210
0.0
220
0.0
230
1.0
 70
    12
 71
     3
 72
     9
 73
     5
 74
     0
 42
0.000000001
 43
0.0000000001
 40
0.0
 40
0.0
 40
0.0
 40
0.0
 40
0.5328289101917699
 40
1.0
 40
1.0
 40
1.0
 40
1.0
 10
332.6944350209891
 20
301.1959500028853
 30
0.0
 41
1.005406980633574
 10
337.1460639895204
 20
301.6309943939106
 30
0.0
 41
1.005488511470777
 10
345.7013368901361
 20
300.9602917437663
 30
0.0
 41
0.9954612187148851
 10
353.9845327181956
 20
300.4371216269188
 30
0.0
 41
1.004289412551226
 10
357.7389860263587
 20
301.4845768719621
 30
0.0
 41
1.002942154244274
  0
SPLINE
  5
1F5
330
1F
100
AcDbEntity
  8
1
100
AcDbSpline
210
0.0
220
0.0
230
1.0
 70
     8
 71
     3
 72
     8
 73
     4
 74
     0
 42
0.000000001
 43
0.0000000001
 40
0.0
 40
0.0
 40
0.0
 40
0.0
 40
1.0
 40
1.0
 40
1.0
 40
1.0
 10
291.7744847486456
 20
282.4156117644001
 30
0.0
 10
292.3560558176591
 20
282.3714903737534
 30
0.0
 10
292.941963406588
 20
282.3055399068472
 30
0.0
 10
293.5322589432653
 20
282.2175014874152
 30
0.0
  0
SPLINE
  5
1F6
330
1F
100
AcDbEntity
  8
1
100
AcDbSpline
210
0.0
220
0.0
230
1.0
 70
     8
 71
     3
 72
    14
 73
    10
 74
     0
 42
0.000000001
 43
0.0000000001
 40
0.0
 40
0.0
 40
0.0
 40
0.0
 40
0.2500000000000001
 40
0.2500000000000001
 40
0.5000000000000002
 40
0.5000000000000002
 40
0.7500000000000004
 40
0.7500000000000004
 40
1.0
 40
1.0
 40
1.0
 40
1.0
 10
279.4048419452957
 20
266.4139489390038
 30
0.0
 10
279.6247295339841
 20
266.4788106996731
 30
0.0
 10
279.8492754483424
 20
266.5590159229682
 30
0.0
 10
280.3060148455094
 20
266.7448677438293
 30
0.0
 10
280.5382132713983
 20
266.8505342548383
 30
0.0
 10
281.0088850919535
 20
267.083474495352
 30
0.0
 10
281.2473601922936
 20
267.2107578385763
 30
0.0
 10
281.7293965071528
 20
267.4840189809233
 30
0.0
 10
281.9729573860956
 20
267.6300009410531
 30
0.0
 10
282.2185504442805
 20
267.784239104951
 30
0.0
  0
SPLINE
  5
1F7
330
1F
100
AcDbEntity
  8
1
100
AcDbSpline
210
0.0
220
0.0
230
1.0
 70
     8
 71
     3
 72
    33
 73
    29
 74
     0
 42
0.000000001
 43
0.0000000001
 40
0.0
 40
0.0
 40
0.0
 40
0.0
 40
0.1249999999999994
 40
0.1249999999999994
 40
0.2499999999999988
 40
0.2499999999999988
 40
0.3124999999999984
 40
0.3124999999999984
 40
0.343749999999998
 40
0.343749999999998
 40
0.3593749999999981
 40
0.3593749999999981
 40
0.3749999999999982
 40
0.3749999999999982
 40
0.4999999999999988
 40
0.4999999999999988
 40
0.6249999999999992
 40
0.6249999999999992
 40
0.6874999999999999
 40
0.6874999999999999
 40
0.7031249999999997
 40
0.7031249999999997
 40
0.7187499999999996
 40
0.7499999999999997
 40
0.7499999999999997
 40
0.8749999999999998
 40
0.8749999999999998
 40
1.0
 40
1.0
 40
1.0
 40
1.0
 10
276.7038351791523
 20
271.2573603538857
 30
0.0
 10
276.6516324981787
 20
270.9892954219798
 30
0.0
 10
276.6225438068155
 20
270.7280905057929
 30
0.0
 10
276.6081627463233
 20
270.2191732152288
 30
0.0
 10
276.6228805506728
 20
269.9714613891019
 30
0.0
 10
276.6773959179101
 20
269.6099303488428
 30
0.0
 10
276.7009876923964
 20
269.4910936391761
 30
0.0
 10
276.7445734573378
 20
269.3153459925246
 30
0.0
 10
276.7604692351468
 20
269.2571813965675
 30
0.0
 10
276.7863799090294
 20
269.17056149711
 30
0.0
 10
276.7953537248113
 20
269.1418201229631
 30
0.0
 10
276.8139290764731
 20
269.0847295594463
 30
0.0
 10
276.8235364404098
 20
269.0563606730533
 30
0.0
 10
276.9128520361233
 20
268.8026076257423
 30
0.0
 10
277.0124336376836
 20
268.5881663489143
 30
0.0
 10
277.2498362035477
 20
268.1795447862289
 30
0.0
 10
277.3876670913979
 20
267.9853707480864
 30
0.0
 10
277.6226526995789
 20
267.7082095535002
 30
0.0
 10
277.7056987678012
 20
267.6181757673194
 30
0.0
 10
277.815436410386
 20
267.5084816551766
 30
0.0
 10
277.8376766706822
 20
267.4866899636983
 30
0.0
 10
277.882632909835
 20
267.443500603314
 30
0.0
 10
277.950823007499
 20
267.3792651647104
 30
0.0
 10
278.0212615364848
 20
267.3166474831046
 30
0.0
 10
278.2609822072327
 20
267.1114004378331
 30
0.0
 10
278.4684746824928
 20
266.9583069475315
 30
0.0
 10
278.9138489952634
 20
266.6718232321087
 30
0.0
 10
279.1517345775791
 20
266.5384394227994
 30
0.0
 10
279.4048419452957
 20
266.4139489390038
 30
0.0
  0
SPLINE
  5
1F8
330
1F
100
AcDbEntity
  8
1
100
AcDbSpline
210
0.0
220
0.0
230
1.0
 70
     8
 71
     3
 72
    74
 73
    70
 74
     0
 42
0.000000001
 43
0.0000000001
 40
0.0
 40
0.0
 40
0.0
 40
0.0
 40
0.062499999999999
 40
0.062499999999999
 40
0.0937499999999986
 40
0.0937499999999986
 40
0.1249999999999981
 40
0.1249999999999981
 40
0.1562499999999976
 40
0.1562499999999976
 40
0.1874999999999971
 40
0.1874999999999971
 40
0.2187499999999966
 40
0.2187499999999966
 40
0.2499999999999962
 40
0.2499999999999962
 40
0.2812499999999957
 40
0.2812499999999957
 40
0.3124999999999952
 40
0.3124999999999952
 40
0.3437499999999947
 40
0.3437499999999947
 40
0.3749999999999942
 40
0.3749999999999942
 40
0.4062499999999938
 40
0.4062499999999938
 40
0.4218749999999936
 40
0.4218749999999936
 40
0.4374999999999933
 40
0.4374999999999933
 40
0.4687499999999928
 40
0.4687499999999928
 40
0.4999999999999923
 40
0.4999999999999923
 40
0.531249999999992
 40
0.531249999999992
 40
0.5624999999999913
 40
0.5624999999999913
 40
0.593749999999991
 40
0.593749999999991
 40
0.6249999999999904
 40
0.6249999999999904
 40
0.6562499999999899
 40
0.6562499999999899
 40
0.6874999999999895
 40
0.6874999999999895
 40
0.718749999999989
 40
0.718749999999989
 40
0.7343749999999892
 40
0.7343749999999892
 40
0.7499999999999892
 40
0.7499999999999892
 40
0.7812499999999901
 40
0.7812499999999901
 40
0.8124999999999909
 40
0.8124999999999909
 40
0.8281249999999916
 40
0.8281249999999916
 40
0.8437499999999925
 40
0.8437499999999925
 40
0.8749999999999939
 40
0.8749999999999939
 40
0.9062499999999953
 40
0.9062499999999953
 40
0.9374999999999969
 40
0.9374999999999969
 40
0.9687499999999984
 40
0.9687499999999984
 40
1.0
 40
1.0
 40
1.0
 40
1.0
 10
302.9048419452957
 20
280.8626338212216
 30
0.0
 10
304.0203148382894
 20
280.6132398544764
 30
0.0
 10
305.1289822424293
 20
280.3506118247383
 30
0.0
 10
306.7814677051389
 20
279.9387943270917
 30
0.0
 10
307.3305492260195
 20
279.7985616175362
 30
0.0
 10
308.4252540468519
 20
279.5127651495904
 30
0.0
 10
308.9708768754474
 20
279.3672008874809
 30
0.0
 10
310.058775712391
 20
279.0715291669363
 30
0.0
 10
310.6010513150509
 20
278.921421578312
 30
0.0
 10
311.6824571365021
 20
278.6176610735158
 30
0.0
 10
312.2215870814596
 20
278.4640085364576
 30
0.0
 10
313.297003520416
 20
278.1543628015825
 30
0.0
 10
313.8332899430273
 20
277.9983705973183
 30
0.0
 10
314.9034272197214
 20
277.6854367659481
 30
0.0
 10
315.4372782671433
 20
277.5284967872458
 30
0.0
 10
316.5030570234145
 20
277.2152056625976
 30
0.0
 10
317.0349852283483
 20
277.0588567646334
 30
0.0
 10
318.0975246517993
 20
276.7483743058071
 30
0.0
 10
318.628136667487
 20
276.5942434253093
 30
0.0
 10
319.6887247357603
 20
276.289837064759
 30
0.0
 10
320.2187018356366
 20
276.1395644276425
 30
0.0
 10
321.2787478504437
 20
275.8444441863828
 30
0.0
 10
321.8088179636585
 20
275.69959925479
 30
0.0
 10
322.8697904249503
 20
275.4167495606186
 30
0.0
 10
323.4008394240159
 20
275.2787118232804
 30
0.0
 10
324.1977083053876
 20
275.077889129478
 30
0.0
 10
324.4634052856791
 20
275.0119779242155
 30
0.0
 10
324.9950522784634
 20
274.8823256428782
 30
0.0
 10
325.2610152009034
 20
274.8186026113913
 30
0.0
 10
326.0593186846645
 20
274.6306619519174
 30
0.0
 10
326.5920313569969
 20
274.5095991861706
 30
0.0
 10
327.6575375680534
 20
274.2744028937815
 30
0.0
 10
328.1903304861547
 20
274.160266570229
 30
0.0
 10
329.254869300686
 20
273.9374873725977
 30
0.0
 10
329.7866140598578
 20
273.8288408641151
 30
0.0
 10
330.84776711967
 20
273.6158028847439
 30
0.0
 10
331.3771737653486
 20
273.5114069959471
 30
0.0
 10
332.432241567207
 20
273.3059503271498
 30
0.0
 10
332.9577983082349
 20
273.2048070726503
 30
0.0
 10
334.0060257638062
 20
273.007665961538
 30
0.0
 10
334.5287072341449
 20
272.9116826724076
 30
0.0
 10
335.5724854584293
 20
272.726746342482
 30
0.0
 10
336.0935834207439
 20
272.6377966636191
 30
0.0
 10
337.1355907127958
 20
272.4684919572018
 30
0.0
 10
337.6565009955401
 20
272.3881393953265
 30
0.0
 10
338.6996099496114
 20
272.2372061880458
 30
0.0
 10
339.2218093228287
 20
272.1666271618982
 30
0.0
 10
340.0072245406687
 20
272.0686343306329
 30
0.0
 10
340.2693826805093
 20
272.037279022895
 30
0.0
 10
340.7946004280512
 20
271.9772321133973
 30
0.0
 10
341.0577307388513
 20
271.9485333477505
 30
0.0
 10
341.8482095798382
 20
271.8665123123145
 30
0.0
 10
342.3764969149512
 20
271.8172925032593
 30
0.0
 10
343.437110611038
 20
271.7294253674058
 30
0.0
 10
343.969437084319
 20
271.6907761201268
 30
0.0
 10
344.7720719284129
 20
271.6401166774128
 30
0.0
 10
345.0403081208547
 20
271.6244457896534
 30
0.0
 10
345.5783537309895
 20
271.595395025437
 30
0.0
 10
345.8481806795596
 20
271.5820219678167
 30
0.0
 10
346.6601783575035
 20
271.5450430787051
 30
0.0
 10
347.2047443732308
 20
271.5244921560545
 30
0.0
 10
348.298371474957
 20
271.4894095742917
 30
0.0
 10
348.8474310358959
 20
271.4748810861939
 30
0.0
 10
349.9479626474348
 20
271.4504287556148
 30
0.0
 10
350.4994332802607
 20
271.44050651131
 30
0.0
 10
351.6026423704885
 20
271.4245397812749
 30
0.0
 10
352.1543793588052
 20
271.418495056691
 30
0.0
 10
353.2559570909647
 20
271.4102229830099
 30
0.0
 10
353.8057961633843
 20
271.4079935137004
 30
0.0
 10
354.3536186433306
 20
271.4079935137005
 30
0.0
  0
SPLINE
  5
1F9
330
1F
100
AcDbEntity
  8
1
100
AcDbSpline
210
0.0
220
0.0
230
1.0
 70
     8
 71
     3
 72
    51
 73
    47
 74
     0
 42
0.000000001
 43
0.0000000001
 40
0.0
 40
0.0
 40
0.0
 40
0.0
 40
0.0624999999999999
 40
0.0624999999999999
 40
0.1249999999999996
 40
0.1249999999999996
 40
0.1874999999999993
 40
0.1874999999999993
 40
0.2499999999999989
 40
0.2499999999999989
 40
0.2656249999999988
 40
0.2656249999999988
 40
0.2812499999999987
 40
0.2812499999999987
 40
0.3124999999999986
 40
0.3124999999999986
 40
0.3749999999999983
 40
0.3749999999999983
 40
0.4374999999999981
 40
0.4374999999999981
 40
0.4999999999999977
 40
0.4999999999999977
 40
0.5312499999999978
 40
0.5312499999999978
 40
0.5624999999999978
 40
0.5624999999999978
 40
0.5937499999999979
 40
0.5937499999999979
 40
0.6249999999999979
 40
0.6562499999999979
 40
0.6562499999999979
 40
0.6874999999999982
 40
0.6874999999999982
 40
0.7499999999999983
 40
0.7499999999999983
 40
0.7812499999999986
 40
0.7812499999999986
 40
0.8124999999999987
 40
0.8124999999999987
 40
0.8749999999999994
 40
0.8749999999999994
 40
0.9374999999999998
 40
0.9374999999999998
 40
0.9687499999999998
 40
0.9687499999999998
 40
1.0
 40
1.0
 40
1.0
 40
1.0
 10
302.9048419452958
 20
306.1760943393798
 30
0.0
 10
303.7228248453098
 20
306.1422615159427
 30
0.0
 10
304.5377737619957
 20
306.1032271772585
 30
0.0
 10
306.1614902043199
 20
306.0126060632017
 30
0.0
 10
306.9702556857474
 20
305.9610149323826
 30
0.0
 10
308.5816849543085
 20
305.8430341126739
 30
0.0
 10
309.3843462926246
 20
305.776637348989
 30
0.0
 10
310.9839113708911
 20
305.6268759913181
 30
0.0
 10
311.7808127514899
 20
305.5435013091949
 30
0.0
 10
312.7737678017087
 20
305.4275309475755
 30
0.0
 10
312.9722011485462
 20
305.4037505454528
 30
0.0
 10
313.3687670509513
 20
305.3549945339445
 30
0.0
 10
313.5669180079535
 20
305.3300164323044
 30
0.0
 10
314.1606882787995
 20
305.2532936187771
 30
0.0
 10
314.5556888090467
 20
305.1997510143421
 30
0.0
 10
315.7384067812476
 20
305.0317969584201
 30
0.0
 10
316.5238245021862
 20
304.9100215468036
 30
0.0
 10
318.0902941870518
 20
304.6468920736814
 30
0.0
 10
318.871349731315
 20
304.5055314485575
 30
0.0
 10
320.4313271513233
 20
304.2045363179027
 30
0.0
 10
321.2102561400296
 20
304.0449028266635
 30
0.0
 10
322.378959655178
 20
303.7937675313888
 30
0.0
 10
322.7685809181267
 20
303.7081189985562
 30
0.0
 10
323.5482560008013
 20
303.5334023325743
 30
0.0
 10
323.9383439349093
 20
303.4443266243011
 30
0.0
 10
324.718948807805
 20
303.2633501647357
 30
0.0
 10
325.109517234317
 20
303.1714709673811
 30
0.0
 10
325.8913714460045
 20
302.9853054134381
 30
0.0
 10
326.6738486173849
 20
302.7966040258249
 30
0.0
 10
327.457056564249
 20
302.6022276179951
 30
0.0
 10
328.2404321885309
 20
302.4047469710778
 30
0.0
 10
328.632229669929
 20
302.3044474515312
 30
0.0
 10
329.8074947035397
 20
301.9986104412759
 30
0.0
 10
330.5905236222603
 20
301.7881813499031
 30
0.0
 10
331.763972369748
 20
301.4619820494148
 30
0.0
 10
332.1549354497823
 20
301.3514795146036
 30
0.0
 10
332.9365571137422
 20
301.1270195077422
 30
0.0
 10
333.3272335088913
 20
301.0130925198469
 30
0.0
 10
334.499140877734
 20
300.6666944411912
 30
0.0
 10
335.2802652409156
 20
300.429626214786
 30
0.0
 10
336.8432983098319
 20
299.9452467160747
 30
0.0
 10
337.6252042606932
 20
299.6979371240824
 30
0.0
 10
338.7991121913345
 20
299.3203169043935
 30
0.0
 10
339.1906433300387
 20
299.1933101379383
 30
0.0
 10
339.973714555325
 20
298.9372898566418
 30
0.0
 10
340.3652677047623
 20
298.8082727376683
 30
0.0
 10
340.7568455868721
 20
298.678273494231
 30
0.0
  0
SPLINE
  5
1FA
330
1F
100
AcDbEntity
  8
1
100
AcDbSpline
210
0.0
220
0.0
230
1.0
 70
     8
 71
     3
 72
    47
 73
    43
 74
     0
 42
0.000000001
 43
0.0000000001
 40
0.0
 40
0.0
 40
0.0
 40
0.0
 40
0.0528792767227714
 40
0.0528792767227714
 40
0.1057585534455429
 40
0.1057585534455429
 40
0.1586378301683143
 40
0.1586378301683143
 40
0.2115171068910857
 40
0.2115171068910857
 40
0.2247369260717788
 40
0.2247369260717788
 40
0.237956745252472
 40
0.2643963836138594
 40
0.2643963836138594
 40
0.3172756603366342
 40
0.3172756603366342
 40
0.3437152986980216
 40
0.3437152986980216
 40
0.370154937059409
 40
0.370154937059409
 40
0.4230342137821851
 40
0.4230342137821851
 40
0.528792767227738
 40
0.528792767227738
 40
0.6345513206732909
 40
0.6345513206732909
 40
0.6874305973960676
 40
0.6874305973960676
 40
0.7403098741188441
 40
0.7403098741188441
 40
0.7931891508416205
 40
0.7931891508416205
 40
0.8196287892030083
 40
0.8196287892030083
 40
0.8460684275643963
 40
0.8460684275643963
 40
0.8989477042871715
 40
0.8989477042871715
 40
0.9518269810099472
 40
0.9518269810099472
 40
1.0
 40
1.0
 40
1.0
 40
1.0
 10
357.595518711925
 20
306.3229976171715
 30
0.0
 10
357.0892587606591
 20
306.3560009298043
 30
0.0
 10
356.57543302531
 20
306.3780517938383
 30
0.0
 10
355.5313509162723
 20
306.4047670193172
 30
0.0
 10
355.001089605116
 20
306.4094471122298
 30
0.0
 10
353.9239982524632
 20
306.4057784260277
 30
0.0
 10
353.3771652641332
 20
306.3974439990799
 30
0.0
 10
352.2680902093465
 20
306.3714544050274
 30
0.0
 10
351.7058494779583
 20
306.3538102726419
 30
0.0
 10
350.9949742244989
 20
306.3275984380407
 30
0.0
 10
350.8523627115746
 20
306.3221437687448
 30
0.0
 10
350.5667920070082
 20
306.3108583763642
 30
0.0
 10
350.1377817278946
 20
306.2933601608164
 30
0.0
 10
349.7069637248433
 20
306.2742748503238
 30
0.0
 10
348.8433853511157
 20
306.2341863075839
 30
0.0
 10
348.26506350097
 20
306.2049473342595
 30
0.0
 10
347.3958390586703
 20
306.1572946938895
 30
0.0
 10
347.1058109117864
 20
306.1407669932928
 30
0.0
 10
346.5255757096684
 20
306.106291331689
 30
0.0
 10
346.235379671106
 20
306.0883371420057
 30
0.0
 10
345.3650588964282
 20
306.0320643302465
 30
0.0
 10
344.7850893298632
 20
305.9913917331231
 30
0.0
 10
343.0461748356411
 20
305.8595881113327
 30
0.0
 10
341.8882509974478
 20
305.758687343231
 30
0.0
 10
339.5762004520803
 20
305.5284224327526
 30
0.0
 10
338.4220595336336
 20
305.3990555667336
 30
0.0
 10
336.6940350403522
 20
305.181513764125
 30
0.0
 10
336.1185540313392
 20
305.1050828866292
 30
0.0
 10
334.9687356762249
 20
304.9439147191108
 30
0.0
 10
334.3943953493613
 20
304.8591829572012
 30
0.0
 10
333.2470555695909
 20
304.6807278202908
 30
0.0
 10
332.6740526966199
 20
304.5870127960959
 30
0.0
 10
331.8158594475825
 20
304.4388630235185
 30
0.0
 10
331.5300166280487
 20
304.3882103304345
 30
0.0
 10
330.9587460426454
 20
304.2843157525282
 30
0.0
 10
330.6732849218678
 20
304.2310671209252
 30
0.0
 10
329.8177014433621
 20
304.0674129681768
 30
0.0
 10
329.248765771003
 20
303.9531599669613
 30
0.0
 10
328.1135123500658
 20
303.7143097012998
 30
0.0
 10
327.547197694354
 20
303.5897043694127
 30
0.0
 10
326.4669436166349
 20
303.3421325091905
 30
0.0
 10
325.9528297251704
 20
303.2200017278043
 30
0.0
 10
325.4392356187827
 20
303.0942148578632
 30
0.0
  0
SPLINE
  5
1FB
330
1F
100
AcDbEntity
  8
1
100
AcDbSpline
210
0.0
220
0.0
230
1.0
 70
     8
 71
     3
 72
    37
 73
    33
 74
     0
 42
0.000000001
 43
0.0000000001
 40
0.0
 40
0.0
 40
0.0
 40
0.0
 40
0.0624999999999991
 40
0.0624999999999991
 40
0.1249999999999981
 40
0.1249999999999981
 40
0.1874999999999972
 40
0.1874999999999972
 40
0.2499999999999962
 40
0.2499999999999962
 40
0.3124999999999959
 40
0.3124999999999959
 40
0.3281249999999958
 40
0.3281249999999958
 40
0.3437499999999957
 40
0.3437499999999957
 40
0.3749999999999959
 40
0.3749999999999959
 40
0.4374999999999963
 40
0.4374999999999963
 40
0.4999999999999968
 40
0.4999999999999968
 40
0.6249999999999975
 40
0.6249999999999975
 40
0.7499999999999982
 40
0.7499999999999982
 40
0.8749999999999987
 40
0.8749999999999987
 40
0.9062499999999989
 40
0.9062499999999989
 40
0.9374999999999992
 40
1.0
 40
1.0
 40
1.0
 40
1.0
 10
293.5322589432653
 20
271.4740459277729
 30
0.0
 10
293.2364579300124
 20
271.4655892235029
 30
0.0
 10
292.9452590060573
 20
271.4491109512231
 30
0.0
 10
292.3709967203023
 20
271.4023425950278
 30
0.0
 10
292.0879361935824
 20
271.3720487411336
 30
0.0
 10
291.529147722942
 20
271.2994495724498
 30
0.0
 10
291.2534215629098
 20
271.2571416989771
 30
0.0
 10
290.7086885031613
 20
271.16198749251
 30
0.0
 10
290.439682759962
 20
271.1091393151493
 30
0.0
 10
289.9079242083828
 20
270.9941145085767
 30
0.0
 10
289.6451721694015
 20
270.9319364731807
 30
0.0
 10
289.3204230865928
 20
270.8490054138928
 30
0.0
 10
289.2556580809282
 20
270.8321583045831
 30
0.0
 10
289.1264932548359
 20
270.7979560645234
 30
0.0
 10
289.0620730403754
 20
270.7805950335482
 30
0.0
 10
288.8697774900837
 20
270.7278874801853
 30
0.0
 10
288.742734748086
 20
270.6918828028971
 30
0.0
 10
288.3649280780137
 20
270.5814547447432
 30
0.0
 10
288.1174801648679
 20
270.5046228919956
 30
0.0
 10
287.6308277716948
 20
270.3453658535673
 30
0.0
 10
287.3916246015106
 20
270.2629391504418
 30
0.0
 10
286.6857235000235
 20
270.0082732776976
 30
0.0
 10
286.2306847850512
 20
269.8286900892749
 30
0.0
 10
285.3496662619125
 20
269.4539512552652
 30
0.0
 10
284.9237031910433
 20
269.2587735130298
 30
0.0
 10
284.1002027715916
 20
268.8557431427119
 30
0.0
 10
283.7026743477762
 20
268.6478759826175
 30
0.0
 10
283.2237623808286
 20
268.3815916463788
 30
0.0
 10
283.1288337691168
 20
268.3279834645099
 30
0.0
 10
282.9410878832745
 20
268.2203245576541
 30
0.0
 10
282.6626289700284
 20
268.0581713517001
 30
0.0
 10
282.3936444469168
 20
267.894202219038
 30
0.0
 10
282.2185504442805
 20
267.784239104951
 30
0.0
  0
SPLINE
  5
203
330
1F
100
AcDbEntity
  8
1
100
AcDbSpline
210
0.0
220
0.0
230
1.0
 70
     8
 71
     3
 72
    14
 73
    10
 74
     0
 42
0.000000001
 43
0.0000000001
 40
0.0
 40
0.0
 40
0.0
 40
0.0
 40
0.25
 40
0.25
 40
0.5
 40
0.5
 40
0.75
 40
0.75
 40
1.0
 40
1.0
 40
1.0
 40
1.0
 10
300.2382713817433
 20
306.2392177495148
 30
0.0
 10
299.6676444301292
 20
306.2515016443478
 30
0.0
 10
299.100354861868
 20
306.2650118407788
 30
0.0
 10
297.9717513991299
 20
306.2927674806222
 30
0.0
 10
297.4104354350663
 20
306.3070111371176
 30
0.0
 10
296.2932698488015
 20
306.334493216099
 30
0.0
 10
295.7374185843036
 20
306.3477332641306
 30
0.0
 10
294.6309250066777
 20
306.3714581142902
 30
0.0
 10
294.0802820166337
 20
306.3819479624984
 30
0.0
 10
293.5322589432653
 20
306.3901300495457
 30
0.0
  0
SPLINE
  5
204
330
1F
100
AcDbEntity
  8
1
100
AcDbSpline
210
0.0
220
0.0
230
1.0
 70
     8
 71
     3
 72
    30
 73
    26
 74
     0
 42
0.000000001
 43
0.0000000001
 40
0.0
 40
0.0
 40
0.0
 40
0.0
 40
0.0624999999999988
 40
0.0624999999999988
 40
0.1249999999999975
 40
0.1249999999999975
 40
0.1874999999999963
 40
0.1874999999999963
 40
0.2187499999999956
 40
0.2187499999999956
 40
0.2499999999999949
 40
0.2499999999999949
 40
0.312499999999996
 40
0.312499999999996
 40
0.3749999999999971
 40
0.3749999999999971
 40
0.4374999999999983
 40
0.4374999999999983
 40
0.4999999999999993
 40
0.4999999999999993
 40
0.6249999999999988
 40
0.6249999999999988
 40
0.7499999999999984
 40
0.7499999999999984
 40
1.0
 40
1.0
 40
1.0
 40
1.0
 10
352.6876558576952
 20
291.8646207846523
 30
0.0
 10
352.4455522739863
 20
291.9844229729307
 30
0.0
 10
352.2012892465668
 20
292.1081897893534
 30
0.0
 10
351.709593891599
 20
292.3615420950497
 30
0.0
 10
351.4621540756849
 20
292.4911413325789
 30
0.0
 10
350.9648316643529
 20
292.7548246257995
 30
0.0
 10
350.7149451865342
 20
292.8889158093797
 30
0.0
 10
350.3386514733223
 20
293.0927404073756
 30
0.0
 10
350.2129747089332
 20
293.1611327144087
 30
0.0
 10
349.9611770984583
 20
293.2987326397448
 30
0.0
 10
349.8350229012169
 20
293.3679604808503
 30
0.0
 10
349.4571720757912
 20
293.5760941984216
 30
0.0
 10
349.2056627522314
 20
293.7156773811715
 30
0.0
 10
348.7033004714793
 20
293.9962318382507
 30
0.0
 10
348.452447976315
 20
294.1372040896825
 30
0.0
 10
347.9513132666089
 20
294.420354628945
 30
0.0
 10
347.7010313201087
 20
294.5625334836332
 30
0.0
 10
347.2009795809947
 20
294.8479743022799
 30
0.0
 10
346.9512099463745
 20
294.9912366003648
 30
0.0
 10
346.202614858428
 20
295.4225330811997
 30
0.0
 10
345.7044943217983
 20
295.7120580303555
 30
0.0
 10
344.7100753742427
 20
296.2949613822748
 30
0.0
 10
344.2137830881891
 20
296.5883527379924
 30
0.0
 10
342.7276218471561
 20
297.4742698252864
 30
0.0
 10
341.7404641321054
 20
298.0725293200501
 30
0.0
 10
340.7568455868838
 20
298.6782734942271
 30
0.0
  0
SPLINE
  5
205
330
1F
100
AcDbEntity
  8
1
100
AcDbSpline
210
0.0
220
0.0
230
1.0
 70
     8
 71
     3
 72
    34
 73
    30
 74
     0
 42
0.000000001
 43
0.0000000001
 40
0.0
 40
0.0
 40
0.0
 40
0.0
 40
0.0624999999999989
 40
0.0624999999999989
 40
0.1249999999999978
 40
0.1249999999999978
 40
0.2499999999999955
 40
0.2499999999999955
 40
0.2812499999999992
 40
0.2812499999999992
 40
0.3125000000000029
 40
0.3125000000000029
 40
0.3750000000000283
 40
0.3750000000000283
 40
0.5000000000000606
 40
0.5000000000000606
 40
0.5625000000000674
 40
0.5625000000000674
 40
0.5937500000000706
 40
0.5937500000000706
 40
0.6250000000000739
 40
0.6250000000000739
 40
0.6875000000000617
 40
0.6875000000000617
 40
0.7500000000000492
 40
0.7500000000000492
 40
0.8750000000000246
 40
0.8750000000000246
 40
1.0
 40
1.0
 40
1.0
 40
1.0
 10
361.3380126728468
 20
293.3603236991528
 30
0.0
 10
361.2999622560779
 20
293.3350996095003
 30
0.0
 10
361.2614931747655
 20
293.3110332058268
 30
0.0
 10
361.1836865616236
 20
293.2651156681803
 30
0.0
 10
361.144349290975
 20
293.2432649075881
 30
0.0
 10
361.0249876079719
 20
293.180948804018
 30
0.0
 10
360.9436199277821
 20
293.1437048053572
 30
0.0
 10
360.8394437556929
 20
293.1024782751797
 30
0.0
 10
360.8184846943013
 20
293.0945005938551
 30
0.0
 10
360.776310975641
 20
293.0790841611783
 30
0.0
 10
360.7550711296759
 20
293.0716372135551
 30
0.0
 10
360.6911862639587
 20
293.0501895811628
 30
0.0
 10
360.6483704115792
 20
293.0370749462492
 30
0.0
 10
360.5191604294983
 20
293.0012446648514
 30
0.0
 10
360.4320077790178
 20
292.9820242726894
 30
0.0
 10
360.2993386433559
 20
292.9603759293933
 30
0.0
 10
360.2547909606352
 20
292.9543615692643
 30
0.0
 10
360.1874277081408
 20
292.9472054642368
 30
0.0
 10
360.1648830434453
 20
292.9451312653656
 30
0.0
 10
360.1196052335812
 20
292.9416185286848
 30
0.0
 10
360.0968394845829
 20
292.9401784731942
 30
0.0
 10
360.0284641977743
 20
292.9368442450851
 30
0.0
 10
359.9832079565239
 20
292.9359525560919
 30
0.0
 10
359.8933107068904
 20
292.9367159445441
 30
0.0
 10
359.8486691556169
 20
292.9383706921188
 30
0.0
 10
359.7155606072089
 20
292.9470117964417
 30
0.0
 10
359.6279078669567
 20
292.957657259218
 30
0.0
 10
359.454101268262
 20
292.9883266981396
 30
0.0
 10
359.3679439677784
 20
293.008349494685
 30
0.0
 10
359.2822360954111
 20
293.0331473106678
 30
0.0
  0
SPLINE
  5
206
330
1F
100
AcDbEntity
  8
1
100
AcDbSpline
210
0.0
220
0.0
230
1.0
 70
     8
 71
     3
 72
    23
 73
    19
 74
     0
 42
0.000000001
 43
0.0000000001
 40
0.0
 40
0.0
 40
0.0
 40
0.0
 40
0.1249999999999946
 40
0.2499999999999891
 40
0.3749999999999838
 40
0.3749999999999838
 40
0.4374999999999842
 40
0.4374999999999842
 40
0.4999999999999848
 40
0.4999999999999848
 40
0.6249999999999855
 40
0.7499999999999863
 40
0.7499999999999863
 40
0.8124999999999896
 40
0.8124999999999896
 40
0.874999999999993
 40
0.874999999999993
 40
1.0
 40
1.0
 40
1.0
 40
1.0
 10
359.2823956729575
 20
292.7612127972697
 30
0.0
 10
359.0088331720926
 20
292.7516029084259
 30
0.0
 10
358.4631691026467
 20
292.750052937568
 30
0.0
 10
357.6489824422667
 20
292.7998203558372
 30
0.0
 10
357.1090529571502
 20
292.8675597889482
 30
0.0
 10
356.7051884545357
 20
292.9314235989886
 30
0.0
 10
356.5707475328887
 20
292.9548897617669
 30
0.0
 10
356.3022302143389
 20
293.0062157947941
 30
0.0
 10
356.1685207345176
 20
293.0340069034123
 30
0.0
 10
355.7693959113501
 20
293.1236406256469
 30
0.0
 10
355.2422477988483
 20
293.2598949395333
 30
0.0
 10
354.7250863898873
 20
293.4293789138656
 30
0.0
 10
354.3409903035201
 20
293.569009289983
 30
0.0
 10
354.2138727469298
 20
293.6175382496265
 30
0.0
 10
353.9616587777925
 20
293.7184531177737
 30
0.0
 10
353.8365287910544
 20
293.7708512206868
 30
0.0
 10
353.464057218987
 20
293.9338266050367
 30
0.0
 10
353.2196308737336
 20
294.0501796419743
 30
0.0
 10
352.9790969644059
 20
294.1741924434822
 30
0.0
  0
SPLINE
  5
207
330
1F
100
AcDbEntity
  8
1
100
AcDbSpline
210
0.0
220
0.0
230
1.0
 70
     8
 71
     3
 72
     8
 73
     4
 74
     0
 42
0.000000001
 43
0.0000000001
 40
0.0
 40
0.0
 40
0.0
 40
0.0
 40
1.0
 40
1.0
 40
1.0
 40
1.0
 10
359.2823956729575
 20
292.7612127972697
 30
0.0
 10
359.2859533140278
 20
292.7613377724952
 30
0.0
 10
359.2895119197909
 20
292.7614623472325
 30
0.0
 10
359.2930714918052
 20
292.7615865208344
 30
0.0
  0
SPLINE
  5
208
330
1F
100
AcDbEntity
  8
1
100
AcDbSpline
210
0.0
220
0.0
230
1.0
 70
     8
 71
     3
 72
    25
 73
    21
 74
     0
 42
0.000000001
 43
0.0000000001
 40
0.0
 40
0.0
 40
0.0
 40
0.0
 40
0.125000000000001
 40
0.125000000000001
 40
0.2500000000000019
 40
0.2500000000000019
 40
0.3125000000000052
 40
0.3125000000000052
 40
0.3750000000000084
 40
0.3750000000000084
 40
0.5000000000000148
 40
0.5000000000000148
 40
0.5625000000000151
 40
0.5625000000000151
 40
0.6250000000000156
 40
0.6250000000000156
 40
0.7500000000000105
 40
0.8750000000000051
 40
0.8750000000000051
 40
1.0
 40
1.0
 40
1.0
 40
1.0
 10
352.7204709670386
 20
290.9055091549888
 30
0.0
 10
352.9705120538353
 20
290.752472816835
 30
0.0
 10
353.2255360522744
 20
290.6090520235109
 30
0.0
 10
353.7454454580192
 20
290.3413656373775
 30
0.0
 10
354.0103305991629
 20
290.2170993976561
 30
0.0
 10
354.4150799943529
 20
290.0452001880041
 30
0.0
 10
354.5513376160274
 20
289.9902846807789
 30
0.0
 10
354.8252508223837
 20
289.8857388061986
 30
0.0
 10
354.963017164422
 20
289.8360570141541
 30
0.0
 10
355.378729494459
 20
289.6947432942528
 30
0.0
 10
355.659085533593
 20
289.6108328811724
 30
0.0
 10
356.0844357620828
 20
289.5004289226824
 30
0.0
 10
356.2270573639949
 20
289.4661994292123
 30
0.0
 10
356.5137743118593
 20
289.4029640207975
 30
0.0
 10
356.6573768756111
 20
289.3740653585336
 30
0.0
 10
357.0889071497465
 20
289.2954212189722
 30
0.0
 10
357.6662056753927
 20
289.2120113251538
 30
0.0
 10
358.2473014176458
 20
289.1709351941772
 30
0.0
 10
358.8303023939164
 20
289.1511048441549
 30
0.0
 10
359.1227554227808
 20
289.1518117137874
 30
0.0
 10
359.4161812386492
 20
289.1633663019859
 30
0.0
  0
SPLINE
  5
209
330
1F
100
AcDbEntity
  8
1
100
AcDbSpline
210
0.0
220
0.0
230
1.0
 70
     8
 71
     3
 72
    85
 73
    81
 74
     0
 42
0.000000001
 43
0.0000000001
 40
0.0
 40
0.0
 40
0.0
 40
0.0
 40
0.062499999999991
 40
0.062499999999991
 40
0.124999999999982
 40
0.124999999999982
 40
0.1406249999999798
 40
0.1406249999999798
 40
0.1562499999999775
 40
0.1562499999999775
 40
0.1874999999999732
 40
0.1874999999999732
 40
0.249999999999966
 40
0.249999999999966
 40
0.2812499999999624
 40
0.2812499999999624
 40
0.3124999999999588
 40
0.3124999999999588
 40
0.3749999999999529
 40
0.3749999999999529
 40
0.40624999999995
 40
0.40624999999995
 40
0.4218749999999486
 40
0.4218749999999486
 40
0.4374999999999473
 40
0.4374999999999473
 40
0.4687499999999444
 40
0.4687499999999444
 40
0.4999999999999416
 40
0.4999999999999416
 40
0.5312499999999388
 40
0.5312499999999388
 40
0.5468749999999373
 40
0.5468749999999373
 40
0.5546874999999365
 40
0.5546874999999365
 40
0.5624999999999357
 40
0.5624999999999357
 40
0.5937499999999324
 40
0.5937499999999324
 40
0.6093749999999307
 40
0.6093749999999307
 40
0.6249999999999289
 40
0.6249999999999289
 40
0.6562499999999267
 40
0.6562499999999267
 40
0.6640624999999268
 40
0.6640624999999268
 40
0.6718749999999269
 40
0.6718749999999269
 40
0.6874999999999283
 40
0.6874999999999283
 40
0.7031249999999299
 40
0.7031249999999299
 40
0.7109374999999316
 40
0.7109374999999316
 40
0.7187499999999334
 40
0.7187499999999334
 40
0.7343749999999372
 40
0.7343749999999372
 40
0.749999999999941
 40
0.749999999999941
 40
0.7812499999999463
 40
0.7812499999999463
 40
0.7890624999999482
 40
0.7890624999999482
 40
0.7968749999999499
 40
0.8124999999999539
 40
0.8124999999999539
 40
0.8437499999999614
 40
0.8437499999999614
 40
0.874999999999969
 40
0.874999999999969
 40
0.9062499999999767
 40
0.9062499999999767
 40
0.9374999999999845
 40
0.9374999999999845
 40
0.9687499999999925
 40
0.9687499999999925
 40
1.0
 40
1.0
 40
1.0
 40
1.0
 10
352.9790969644058
 20
294.1741924434822
 30
0.0
 10
353.1970657699376
 20
294.0082239093808
 30
0.0
 10
353.4157818725613
 20
293.8493348597993
 30
0.0
 10
353.8534732408097
 20
293.544988335354
 30
0.0
 10
354.0724567521439
 20
293.3995349334795
 30
0.0
 10
354.3452416000557
 20
293.2256706898852
 30
0.0
 10
354.3997496260365
 20
293.1912953177175
 30
0.0
 10
354.5086323116397
 20
293.1233274399952
 30
0.0
 10
354.5630200135652
 20
293.0897271833262
 30
0.0
 10
354.7256898787184
 20
292.9902237325431
 30
0.0
 10
354.8335489512605
 20
292.9255751471331
 30
0.0
 10
355.1548085438722
 20
292.7364790182483
 30
0.0
 10
355.3659393767203
 20
292.6168928507586
 30
0.0
 10
355.6751245315114
 20
292.4462267685602
 30
0.0
 10
355.7769235385125
 20
292.3907876969335
 30
0.0
 10
355.9773400240319
 20
292.2826001065178
 30
0.0
 10
356.0758790377849
 20
292.2298554413418
 30
0.0
 10
356.3662182344574
 20
292.075254383181
 30
0.0
 10
356.552881599115
 20
291.9770560035592
 30
0.0
 10
356.8178090413272
 20
291.8353431876557
 30
0.0
 10
356.9035910029042
 20
291.7890315757751
 30
0.0
 10
357.0276386041239
 20
291.7206838133
 30
0.0
 10
357.068214682981
 20
291.6980873969436
 30
0.0
 10
357.1476457047087
 20
291.6532158285769
 30
0.0
 10
357.186337945516
 20
291.6310323754828
 30
0.0
 10
357.2990648692455
 20
291.5651669231722
 30
0.0
 10
357.3697750710405
 20
291.5221693466125
 30
0.0
 10
357.5003938637436
 20
291.4375901606441
 30
0.0
 10
357.5603222397474
 20
291.3960082728299
 30
0.0
 10
357.6665018770068
 20
291.3138372133026
 30
0.0
 10
357.7127928842871
 20
291.273246667651
 30
0.0
 10
357.7684525445356
 20
291.2127927185704
 30
0.0
 10
357.7846922045881
 20
291.1927134967106
 30
0.0
 10
357.8049042542722
 20
291.1626692712097
 30
0.0
 10
357.8109483733157
 20
291.1526670232114
 30
0.0
 10
357.8215082872343
 20
291.1326830288821
 30
0.0
 10
357.8260310169699
 20
291.1226777238811
 30
0.0
 10
357.844277495851
 20
291.0730986133077
 30
0.0
 10
357.8451379125012
 20
291.0347109231176
 30
0.0
 10
357.8196539810587
 20
290.9796512630232
 30
0.0
 10
357.8066749060994
 20
290.9617253194742
 30
0.0
 10
357.7704170782366
 20
290.9269513515902
 30
0.0
 10
357.7474966514862
 20
290.9104656726302
 30
0.0
 10
357.6643019015107
 20
290.8640270756165
 30
0.0
 10
357.5895229398491
 20
290.8370484847761
 30
0.0
 10
357.4722767446953
 20
290.8095576334409
 30
0.0
 10
357.4475685030892
 20
290.8043615498205
 30
0.0
 10
357.3964701840811
 20
290.7947489663643
 30
0.0
 10
357.3700305800684
 20
290.79031618741
 30
0.0
 10
357.2879207698342
 20
290.7782327746728
 30
0.0
 10
357.2295674056212
 20
290.7717627184085
 30
0.0
 10
357.1066095383212
 20
290.7619621524881
 30
0.0
 10
357.0420041785391
 20
290.7586321173804
 30
0.0
 10
356.941058116513
 20
290.755979223908
 30
0.0
 10
356.906899794475
 20
290.7554902086675
 30
0.0
 10
356.8378540288307
 20
290.7552752775402
 30
0.0
 10
356.8029364822734
 20
290.7555485759127
 30
0.0
 10
356.6971347088649
 20
290.7574682509368
 30
0.0
 10
356.6252054997877
 20
290.7602131408228
 30
0.0
 10
356.4791581693916
 20
290.7684443008696
 30
0.0
 10
356.4050387750782
 20
290.7739310419015
 30
0.0
 10
356.1801156763952
 20
290.794274742711
 30
0.0
 10
356.0267782254223
 20
290.8130070822407
 30
0.0
 10
355.832664219983
 20
290.8422871361125
 30
0.0
 10
355.793747296201
 20
290.848432827886
 30
0.0
 10
355.7159270080322
 20
290.8612588678781
 30
0.0
 10
355.5991388705804
 20
290.8813117871596
 30
0.0
 10
355.4822811223173
 20
290.9037290701827
 30
0.0
 10
355.2486979449704
 20
290.9515415793045
 30
0.0
 10
355.0931630586877
 20
290.987379904548
 30
0.0
 10
354.7833335815521
 20
291.0662668447023
 30
0.0
 10
354.6290345034984
 20
291.1093177283732
 30
0.0
 10
354.3222345010688
 20
291.2021275735352
 30
0.0
 10
354.1697308724362
 20
291.251887865838
 30
0.0
 10
353.8668898044461
 20
291.3577693567892
 30
0.0
 10
353.7165506258954
 20
291.4138914029353
 30
0.0
 10
353.4182806481807
 20
291.5322730458731
 30
0.0
 10
353.2703486789906
 20
291.5945332032324
 30
0.0
 10
352.9770517714155
 20
291.7250710502929
 30
0.0
 10
352.8316860175902
 20
291.7933491080041
 30
0.0
 10
352.6876558576953
 20
291.8646207846523
 30
0.0
  0
SPLINE
  5
20A
330
1F
100
AcDbEntity
  8
1
100
AcDbSpline
210
0.0
220
0.0
230
1.0
 70
     8
 71
     3
 72
    12
 73
     8
 74
     0
 42
0.000000001
 43
0.0000000001
 40
0.0
 40
0.0
 40
0.0
 40
0.0
 40
0.4999999999999709
 40
0.4999999999999709
 40
0.7499999999999855
 40
0.7499999999999855
 40
1.0
 40
1.0
 40
1.0
 40
1.0
 10
359.2822360954103
 20
293.0331473106681
 30
0.0
 10
359.1807343345895
 20
293.0625147645234
 30
0.0
 10
359.081761823036
 20
293.0979886004818
 30
0.0
 10
358.936639547403
 20
293.1601504170266
 30
0.0
 10
358.888824152446
 20
293.1823689883089
 30
0.0
 10
358.7942524540425
 20
293.2298417710138
 30
0.0
 10
358.7474966663955
 20
293.2550956397272
 30
0.0
 10
358.7012400822171
 20
293.2819148097167
 30
0.0
  0
SPLINE
  5
20B
330
1F
100
AcDbEntity
  8
1
100
AcDbSpline
210
0.0
220
0.0
230
1.0
 70
    12
 71
     2
 72
     6
 73
     3
 74
     0
 42
0.000000001
 43
0.0000000001
 40
0.0
 40
0.0
 40
0.0
 40
1.0
 40
1.0
 40
1.0
 10
357.6952001765022
 20
306.3498514516804
 30
0.0
 41
0.5000005930530249
 10
357.8073826368417
 20
306.3496919792026
 30
0.0
 41
0.499999406946975
 10
357.9195642864896
 20
306.3495320700584
 30
0.0
 41
0.5000005930530249
  0
SPLINE
  5
20C
330
1F
100
AcDbEntity
  8
1
100
AcDbSpline
210
0.0
220
0.0
230
1.0
 70
     8
 71
     3
 72
    15
 73
    11
 74
     0
 42
0.000000001
 43
0.0000000001
 40
0.0
 40
0.0
 40
0.0
 40
0.0
 40
0.0625000000000024
 40
0.0625000000000024
 40
0.1250000000000047
 40
0.2500000000000057
 40
0.2500000000000057
 40
0.5000000000000038
 40
0.7500000000000019
 40
1.0
 40
1.0
 40
1.0
 40
1.0
 10
302.9048419452951
 20
306.1760943393797
 30
0.0
 10
302.8477846380543
 20
306.1760943393797
 30
0.0
 10
302.7907046430782
 20
306.1761864537773
 30
0.0
 10
302.6768522696071
 20
306.1765528297282
 30
0.0
 10
302.5063775960197
 20
306.1773754413553
 30
0.0
 10
302.3368057494569
 20
306.1790059720883
 30
0.0
 10
301.9988465832325
 20
306.1833045116928
 30
0.0
 10
301.5513903099238
 20
306.1918091019797
 30
0.0
 10
300.8894696583201
 20
306.2120045585442
 30
0.0
 10
300.4543123690439
 20
306.2296253924431
 30
0.0
 10
300.2382713817434
 20
306.2392177495163
 30
0.0
  0
SPLINE
  5
20D
330
1F
100
AcDbEntity
  8
1
100
AcDbSpline
210
0.0
220
0.0
230
1.0
 70
     8
 71
     3
 72
    10
 73
     6
 74
     0
 42
0.000000001
 43
0.0000000001
 40
0.0
 40
0.0
 40
0.0
 40
0.0
 40
0.5
 40
0.5
 40
1.0
 40
1.0
 40
1.0
 40
1.0
 10
357.7389860263587
 20
301.4845768719621
 30
0.0
 10
357.7102156831276
 20
302.290841234769
 30
0.0
 10
357.6843394447759
 20
303.0971884426975
 30
0.0
 10
357.636921085605
 20
304.7100069247191
 30
0.0
 10
357.6153856247672
 20
305.5164783894574
 30
0.0
 10
357.5955187119249
 20
306.3229976171715
 30
0.0
  0
SPLINE
  5
20E
330
1F
100
AcDbEntity
  8
1
100
AcDbSpline
210
0.0
220
0.0
230
1.0
 70
    12
 71
     2
 72
     6
 73
     3
 74
     0
 42
0.000000001
 43
0.0000000001
 40
0.0
 40
0.0
 40
0.0
 40
1.0
 40
1.0
 40
1.0
 10
357.5955187119243
 20
306.3229976171715
 30
0.0
 41
0.4999963415521571
 10
357.6429526054786
 20
306.3229160646692
 30
0.0
 41
0.5000036584478429
 10
357.6903862804602
 20
306.3228344341049
 30
0.0
 41
0.4999963415521571
  0
SPLINE
  5
20F
330
1F
100
AcDbEntity
  8
1
100
AcDbSpline
210
0.0
220
0.0
230
1.0
 70
    28
 71
     4
 72
    13
 73
     8
 74
     0
 42
0.000000001
 43
0.0000000001
 40
0.0
 40
0.0
 40
0.0
 40
0.0
 40
0.0
 40
0.2744714017177412
 40
0.2744714017177412
 40
0.2744714017177412
 40
1.0
 40
1.0
 40
1.0
 40
1.0
 40
1.0
 10
302.9048419452956
 20
280.8663076395468
 30
0.0
 41
0.9990832018257384
 10
302.9048419452957
 20
280.2769112375013
 30
0.0
 41
0.9999176762916903
 10
302.9048419452957
 20
279.6709755399979
 30
0.0
 41
1.000835326186685
 10
302.9048419452957
 20
279.0587651784936
 30
0.0
 41
1.00156323924462
 10
302.9048419452957
 20
276.8481247551934
 30
0.0
 41
1.00156323924462
 10
302.9048419452957
 20
275.0723451197641
 30
0.0
 41
0.9964770281457223
 10
302.9048419452957
 20
273.339750196699
 30
0.0
 41
0.9962448445977072
 10
302.9048419452957
 20
271.8247266395552
 30
0.0
 41
0.9978557877225442
  0
SPLINE
  5
210
330
1F
100
AcDbEntity
  8
1
100
AcDbSpline
210
0.0
220
0.0
230
1.0
 70
     9
 71
     3
 72
   133
 73
   129
 74
     0
 42
0.000000001
 43
0.0000000001
 40
0.0
 40
0.0
 40
0.0
 40
0.0
 40
0.0312500000000179
 40
0.0312500000000179
 40
0.0468750000000268
 40
0.0468750000000268
 40
0.0546875000000305
 40
0.0546875000000305
 40
0.0625000000000343
 40
0.0625000000000343
 40
0.0937500000000461
 40
0.0937500000000461
 40
0.1093750000000507
 40
0.1093750000000507
 40
0.1250000000000554
 40
0.1250000000000554
 40
0.1562500000000615
 40
0.1562500000000615
 40
0.164062500000063
 40
0.164062500000063
 40
0.1718750000000646
 40
0.1718750000000646
 40
0.1875000000000635
 40
0.2031250000000624
 40
0.2031250000000624
 40
0.210937500000064
 40
0.210937500000064
 40
0.2187500000000657
 40
0.2187500000000657
 40
0.2500000000000633
 40
0.2500000000000633
 40
0.2656250000000622
 40
0.2656250000000622
 40
0.2734375000000638
 40
0.2734375000000638
 40
0.2812500000000655
 40
0.2812500000000655
 40
0.3125000000000677
 40
0.3125000000000677
 40
0.3203125000000672
 40
0.3203125000000672
 40
0.3281250000000667
 40
0.3281250000000667
 40
0.3437500000000657
 40
0.3593750000000647
 40
0.3593750000000647
 40
0.3671875000000641
 40
0.3671875000000641
 40
0.3750000000000635
 40
0.3750000000000635
 40
0.4062500000000611
 40
0.4062500000000611
 40
0.4218750000000611
 40
0.4218750000000611
 40
0.4296875000000611
 40
0.4296875000000611
 40
0.4375000000000611
 40
0.4375000000000611
 40
0.4687500000000596
 40
0.4687500000000596
 40
0.4765625000000594
 40
0.4765625000000594
 40
0.4843750000000589
 40
0.4843750000000589
 40
0.5000000000000579
 40
0.5000000000000579
 40
0.5312500000000564
 40
0.5312500000000564
 40
0.5390625000000568
 40
0.5390625000000568
 40
0.546875000000057
 40
0.546875000000057
 40
0.5625000000000564
 40
0.5781250000000559
 40
0.5781250000000559
 40
0.5859375000000555
 40
0.5859375000000555
 40
0.5937500000000552
 40
0.5937500000000552
 40
0.6250000000000623
 40
0.6250000000000623
 40
0.6406250000000661
 40
0.6406250000000661
 40
0.6484375000000675
 40
0.6484375000000675
 40
0.6562500000000691
 40
0.6562500000000691
 40
0.6875000000000715
 40
0.6875000000000715
 40
0.6953125000000742
 40
0.6953125000000742
 40
0.703125000000077
 40
0.703125000000077
 40
0.718750000000078
 40
0.718750000000078
 40
0.7500000000000762
 40
0.7500000000000762
 40
0.7578125000000746
 40
0.7578125000000746
 40
0.765625000000073
 40
0.765625000000073
 40
0.7812500000000741
 40
0.7968750000000754
 40
0.7968750000000754
 40
0.8046875000000738
 40
0.8046875000000738
 40
0.8125000000000722
 40
0.8125000000000722
 40
0.8437500000000577
 40
0.8437500000000577
 40
0.8515625000000541
 40
0.8515625000000541
 40
0.8593750000000504
 40
0.8593750000000504
 40
0.8750000000000465
 40
0.8750000000000465
 40
0.9062500000000358
 40
0.9062500000000358
 40
0.9218750000000294
 40
0.9218750000000294
 40
0.9375000000000227
 40
0.9531250000000163
 40
0.9531250000000163
 40
0.9609375000000138
 40
0.9609375000000138
 40
0.9687500000000111
 40
0.9687500000000111
 40
1.0
 40
1.0
 40
1.0
 40
1.0
 10
363.9691615337858
 20
284.6341862655649
 30
0.0
 10
363.9708086294634
 20
284.7285483137394
 30
0.0
 10
363.9815596843043
 20
284.8214617960857
 30
0.0
 10
364.0109920926524
 20
284.9586938095029
 30
0.0
 10
364.0230359812999
 20
285.0040786932953
 30
0.0
 10
364.0445492295677
 20
285.0715962215273
 30
0.0
 10
364.0522958839734
 20
285.0940085833115
 30
0.0
 10
364.0689697060513
 20
285.138640450957
 30
0.0
 10
364.0778343814219
 20
285.1606912381801
 30
0.0
 10
364.124700158229
 20
285.2695049920588
 30
0.0
 10
364.1703115188744
 20
285.3521304625005
 30
0.0
 10
364.2509048667843
 20
285.4693692211115
 30
0.0
 10
364.2798122624907
 20
285.5073246807974
 30
0.0
 10
364.3418903794136
 20
285.5808774733159
 30
0.0
 10
364.3745886708002
 20
285.6159072320845
 30
0.0
 10
364.477231334185
 20
285.7155786180866
 30
0.0
 10
364.5518019763817
 20
285.7749983729742
 30
0.0
 10
364.6528726661655
 20
285.840228557836
 30
0.0
 10
364.6734991623384
 20
285.8528274632595
 30
0.0
 10
364.715498426099
 20
285.8770508707428
 30
0.0
 10
364.7367194740689
 20
285.8885889378485
 30
0.0
 10
364.8010334691222
 20
285.9215153183964
 30
0.0
 10
364.8885177920612
 20
285.9609246303268
 30
0.0
 10
364.9794047556103
 20
285.9914946232323
 30
0.0
 10
365.0488608354008
 20
286.0110640972192
 30
0.0
 10
365.0722283983409
 20
286.0170265737738
 30
0.0
 10
365.1194020465131
 20
286.0278101581121
 30
0.0
 10
365.1432768447955
 20
286.0326425188198
 30
0.0
 10
365.2628291450478
 20
286.0537196666555
 30
0.0
 10
365.3586917679096
 20
286.0608122271399
 30
0.0
 10
365.5028064407312
 20
286.0572502624133
 30
0.0
 10
365.5508985275945
 20
286.0536784087054
 30
0.0
 10
365.6231198739398
 20
286.0446377383656
 30
0.0
 10
365.6472341468673
 20
286.0410006938856
 30
0.0
 10
365.6949435990715
 20
286.0325758853638
 30
0.0
 10
365.7186057567362
 20
286.0277814786756
 30
0.0
 10
365.8359705406051
 20
286.0009515677269
 30
0.0
 10
365.9268631133486
 20
285.9704257972816
 30
0.0
 10
366.0367114824328
 20
285.9209168466854
 30
0.0
 10
366.0584910385257
 20
285.9104422538557
 30
0.0
 10
366.1016622160054
 20
285.8883252918448
 30
0.0
 10
366.1229221705424
 20
285.8767486928823
 30
0.0
 10
366.1855096379607
 20
285.840623847228
 30
0.0
 10
366.2659922812413
 20
285.7886405504526
 30
0.0
 10
366.3406829723118
 20
285.7292265808474
 30
0.0
 10
366.3945192403338
 20
285.6818749938661
 30
0.0
 10
366.4121003913481
 20
285.6656251223863
 30
0.0
 10
366.4465245341274
 20
285.6321824337912
 30
0.0
 10
366.4634094950562
 20
285.6149437691245
 30
0.0
 10
366.5454140858401
 20
285.5269320269634
 30
0.0
 10
366.602903982569
 20
285.4513131690234
 30
0.0
 10
366.6775181804937
 20
285.3304918532365
 30
0.0
 10
366.7004385603606
 20
285.2889766573942
 30
0.0
 10
366.7318357596572
 20
285.2248133159529
 30
0.0
 10
366.7418204096936
 20
285.2030641707803
 30
0.0
 10
366.7605891619966
 20
285.1593751726417
 30
0.0
 10
366.7693970531434
 20
285.1373921315126
 30
0.0
 10
366.8106146185341
 20
285.0268017093023
 30
0.0
 10
366.8346358829019
 20
284.9361884348899
 30
0.0
 10
366.8536341286162
 20
284.8203187100778
 30
0.0
 10
366.8568775697265
 20
284.7970133863443
 30
0.0
 10
366.8622366112093
 20
284.7501368549741
 30
0.0
 10
366.8643487083503
 20
284.7265599480396
 30
0.0
 10
366.8689320396466
 20
284.6561713890765
 30
0.0
 10
366.8696872435941
 20
284.6094535938172
 30
0.0
 10
366.8652635527797
 20
284.4699064402897
 30
0.0
 10
366.8534574787141
 20
284.3776790869693
 30
0.0
 10
366.8273788253745
 20
284.2634073410966
 30
0.0
 10
366.8215851563851
 20
284.2405926629918
 30
0.0
 10
366.8089747038222
 20
284.1955369497829
 30
0.0
 10
366.8021455246391
 20
284.1732361957004
 30
0.0
 10
366.7801110939055
 20
284.1070028667224
 30
0.0
 10
366.7466134819904
 20
284.0204727218552
 30
0.0
 10
366.7049631173894
 20
283.9374480256119
 30
0.0
 10
366.670610258404
 20
283.8765094462955
 30
0.0
 10
366.6586391957239
 20
283.856418623197
 30
0.0
 10
366.6336353197049
 20
283.8166884554837
 30
0.0
 10
366.6205675328073
 20
283.7970021774925
 30
0.0
 10
366.5531632164448
 20
283.7006462415297
 30
0.0
 10
366.4924496253512
 20
283.6296708849723
 30
0.0
 10
366.3912764004987
 20
283.5321925846867
 30
0.0
 10
366.3558561757073
 20
283.5012079783267
 30
0.0
 10
366.3000771434963
 20
283.4570727014486
 30
0.0
 10
366.2809937690389
 20
283.4427181274658
 30
0.0
 10
366.2421460324039
 20
283.4149780053588
 30
0.0
 10
366.2224403596742
 20
283.4016303738588
 30
0.0
 10
366.1225214756757
 20
283.3374642269808
 30
0.0
 10
366.0381772992708
 20
283.2942856788534
 30
0.0
 10
365.9271197206075
 20
283.2506374287022
 30
0.0
 10
365.904624274768
 20
283.2424288181074
 30
0.0
 10
365.859051884003
 20
283.2270770092375
 30
0.0
 10
365.8359212356477
 20
283.2199189276939
 30
0.0
 10
365.7660027711401
 20
283.2001952440496
 30
0.0
 10
365.7190725345303
 20
283.1894710709746
 30
0.0
 10
365.577352968803
 20
283.164369282669
 30
0.0
 10
365.481643752653
 20
283.1569921899075
 30
0.0
 10
365.3604167591567
 20
283.1598588418215
 30
0.0
 10
365.3360327807311
 20
283.161049307322
 30
0.0
 10
365.28765810375
 20
283.1646319879065
 30
0.0
 10
365.2636129983156
 20
283.1670225642798
 30
0.0
 10
365.1918956623773
 20
283.1759560558656
 30
0.0
 10
365.0973850820006
 20
283.1925564827342
 30
0.0
 10
365.0050574545437
 20
283.2183719393499
 30
0.0
 10
364.9366384287682
 20
283.241231666625
 30
0.0
 10
364.9139441297322
 20
283.2494458808001
 30
0.0
 10
364.8689466284699
 20
283.2670196525127
 30
0.0
 10
364.8467816386222
 20
283.2763236306297
 30
0.0
 10
364.7375795567116
 20
283.3253624006774
 30
0.0
 10
364.6553634331884
 20
283.3725788101917
 30
0.0
 10
364.5587973072738
 20
283.4413121498816
 30
0.0
 10
364.5397972030984
 20
283.4555490660063
 30
0.0
 10
364.5024292060563
 20
283.4850151372097
 30
0.0
 10
364.4840545526641
 20
283.5002551425025
 30
0.0
 10
364.430453043853
 20
283.5469766597091
 30
0.0
 10
364.3965431485377
 20
283.579609658411
 30
0.0
 10
364.300081456082
 20
283.6818241964123
 30
0.0
 10
364.24274743276
 20
283.7556801751272
 30
0.0
 10
364.1673410118581
 20
283.875246518812
 30
0.0
 10
364.1443168684999
 20
283.9160587603092
 30
0.0
 10
364.1024975613959
 20
283.9992532214972
 30
0.0
 10
364.0648490541768
 20
284.0841119516138
 30
0.0
 10
364.0354449505588
 20
284.1722828187296
 30
0.0
 10
364.0165368547149
 20
284.2396812387314
 30
0.0
 10
364.0107592502475
 20
284.2623594474389
 30
0.0
 10
364.0002749399875
 20
284.3081492639381
 30
0.0
 10
363.9955886116068
 20
284.3311793977173
 30
0.0
 10
363.9750165914593
 20
284.4465043397781
 30
0.0
 10
363.9675144381082
 20
284.5398242173908
 30
0.0
 10
363.9691615337858
 20
284.634186265565
 30
0.0
  0
SPLINE
  5
211
330
1F
100
AcDbEntity
  8
1
100
AcDbSpline
210
0.0
220
0.0
230
1.0
 70
     8
 71
     3
 72
     8
 73
     4
 74
     0
 42
0.000000001
 43
0.0000000001
 40
0.0
 40
0.0
 40
0.0
 40
0.0
 40
1.0
 40
1.0
 40
1.0
 40
1.0
 10
370.0081269389877
 20
279.8092402055162
 30
0.0
 10
370.0251824081699
 20
279.8231778142169
 30
0.0
 10
370.0409723155494
 20
279.8384259505285
 30
0.0
 10
370.0554966611258
 20
279.8549846144509
 30
0.0
  0
SPLINE
  5
212
330
1F
100
AcDbEntity
  8
1
100
AcDbSpline
210
0.0
220
0.0
230
1.0
 70
     8
 71
     3
 72
     8
 73
     4
 74
     0
 42
0.000000001
 43
0.0000000001
 40
0.0
 40
0.0
 40
0.0
 40
0.0
 40
1.0
 40
1.0
 40
1.0
 40
1.0
 10
370.5894505876547
 20
280.7436331788933
 30
0.0
 10
370.5972522528897
 20
280.7642312366872
 30
0.0
 10
370.6033026456479
 20
280.7853314637831
 30
0.0
 10
370.6076017659293
 20
280.8069338601809
 30
0.0
  0
SPLINE
  5
213
330
1F
100
AcDbEntity
  8
1
100
AcDbSpline
210
0.0
220
0.0
230
1.0
 70
     8
 71
     3
 72
     8
 73
     4
 74
     0
 42
0.000000001
 43
0.0000000001
 40
0.0
 40
0.0
 40
0.0
 40
0.0
 40
1.0
 40
1.0
 40
1.0
 40
1.0
 10
370.7311931720172
 20
287.8874807728481
 30
0.0
 10
370.7276505834055
 20
287.9092200467837
 30
0.0
 10
370.7223402636891
 20
287.9305185758535
 30
0.0
 10
370.7152622128679
 20
287.9513763600573
 30
0.0
  0
SPLINE
  5
214
330
1F
100
AcDbEntity
  8
1
100
AcDbSpline
210
0.0
220
0.0
230
1.0
 70
     8
 71
     3
 72
     8
 73
     4
 74
     0
 42
0.000000001
 43
0.0000000001
 40
0.0
 40
0.0
 40
0.0
 40
0.0
 40
1.0
 40
1.0
 40
1.0
 40
1.0
 10
370.2126469442886
 20
288.8581183071029
 30
0.0
 10
370.1987093355878
 20
288.8751737762852
 30
0.0
 10
370.1834611992763
 20
288.8909636836646
 30
0.0
 10
370.166902535354
 20
288.9054880292412
 30
0.0
  0
SPLINE
  5
215
330
1F
100
AcDbEntity
  8
1
100
AcDbSpline
210
0.0
220
0.0
230
1.0
 70
     8
 71
     3
 72
    36
 73
    32
 74
     0
 42
0.000000001
 43
0.0000000001
 40
0.0
 40
0.0
 40
0.0
 40
0.0
 40
0.1249999999999812
 40
0.1249999999999812
 40
0.1874999999999677
 40
0.1874999999999677
 40
0.2187499999999666
 40
0.2187499999999666
 40
0.2499999999999655
 40
0.2499999999999655
 40
0.3749999999999649
 40
0.3749999999999649
 40
0.4062499999999649
 40
0.4062499999999649
 40
0.4374999999999646
 40
0.4374999999999646
 40
0.4999999999999643
 40
0.4999999999999643
 40
0.6249999999999888
 40
0.6249999999999888
 40
0.6562499999999951
 40
0.6562499999999951
 40
0.6875000000000011
 40
0.7500000000000143
 40
0.8125000000000277
 40
0.8125000000000277
 40
0.8437500000000341
 40
0.8437500000000341
 40
0.8750000000000408
 40
0.8750000000000408
 40
1.0
 40
1.0
 40
1.0
 40
1.0
 10
358.3151936959266
 20
294.491297424236
 30
0.0
 10
358.3170248925096
 20
294.4401792697032
 30
0.0
 10
358.3239857166095
 20
294.3901203034479
 30
0.0
 10
358.3416814341521
 20
294.3165297916105
 30
0.0
 10
358.348798888784
 20
294.2922513011925
 30
0.0
 10
358.3613331506381
 20
294.2562172301589
 30
0.0
 10
358.3658340858445
 20
294.244239619436
 30
0.0
 10
358.3754042815856
 20
294.2205711680047
 30
0.0
 10
358.3804635645677
 20
294.2088998350321
 30
0.0
 10
358.4071006194323
 20
294.1513396412776
 30
0.0
 10
358.4326609243987
 20
294.1078167942259
 30
0.0
 10
358.4698523463044
 20
294.056526925616
 30
0.0
 10
358.4775551227391
 20
294.0464260860137
 30
0.0
 10
358.4934977782003
 20
294.0265434982215
 30
0.0
 10
358.5017577234362
 20
294.0167407519162
 30
0.0
 10
358.5271039323753
 20
293.9881035292334
 30
0.0
 10
358.5448075161836
 20
293.9699637037401
 30
0.0
 10
358.6002678331517
 20
293.9183180119326
 30
0.0
 10
358.6403509921218
 20
293.8875586126282
 30
0.0
 10
358.6944662708431
 20
293.8538449477945
 30
0.0
 10
358.7055122619739
 20
293.8473314890131
 30
0.0
 10
358.7277778059832
 20
293.8349238050789
 30
0.0
 10
358.7615116834172
 20
293.8171916367905
 30
0.0
 10
358.819382465129
 20
293.791955789619
 30
0.0
 10
358.8674217985111
 20
293.7763339764458
 30
0.0
 10
358.9041190602648
 20
293.76636752378
 30
0.0
 10
358.9164629800622
 20
293.7633375628628
 30
0.0
 10
358.941378845235
 20
293.7578751949061
 30
0.0
 10
358.9539691307995
 20
293.7554410903149
 30
0.0
 10
359.0169176865618
 20
293.744895350197
 30
0.0
 10
359.0676752929584
 20
293.7415033352406
 30
0.0
 10
359.1188421241211
 20
293.7432882604229
 30
0.0
  0
SPLINE
  5
216
330
1F
100
AcDbEntity
  8
1
100
AcDbSpline
210
0.0
220
0.0
230
1.0
 70
     8
 71
     3
 72
    36
 73
    32
 74
     0
 42
0.000000001
 43
0.0000000001
 40
0.0
 40
0.0
 40
0.0
 40
0.0
 40
0.1249999999999648
 40
0.1249999999999648
 40
0.1874999999999553
 40
0.1874999999999553
 40
0.2187499999999449
 40
0.2187499999999449
 40
0.2499999999999346
 40
0.2499999999999346
 40
0.3749999999999166
 40
0.3749999999999166
 40
0.4062499999999173
 40
0.4062499999999173
 40
0.437499999999918
 40
0.437499999999918
 40
0.4999999999999193
 40
0.4999999999999193
 40
0.6249999999999472
 40
0.6249999999999472
 40
0.6562499999999553
 40
0.6562499999999553
 40
0.6874999999999634
 40
0.7499999999999833
 40
0.8125000000000033
 40
0.8125000000000033
 40
0.8437500000000143
 40
0.8437500000000143
 40
0.8750000000000254
 40
0.8750000000000254
 40
1.0
 40
1.0
 40
1.0
 40
1.0
 10
370.606553292615
 20
306.0605638276022
 30
0.0
 10
370.6047220960321
 20
306.1116819821351
 30
0.0
 10
370.5977612719321
 20
306.1617409483903
 30
0.0
 10
370.5800655543896
 20
306.2353314602277
 30
0.0
 10
370.5729480997577
 20
306.2596099506456
 30
0.0
 10
370.5604138379036
 20
306.2956440216793
 30
0.0
 10
370.5559129026971
 20
306.3076216324022
 30
0.0
 10
370.546342706956
 20
306.3312900838336
 30
0.0
 10
370.5412834239738
 20
306.3429614168061
 30
0.0
 10
370.5146463691092
 20
306.4005216105606
 30
0.0
 10
370.489086064143
 20
306.4440444576123
 30
0.0
 10
370.4518946422372
 20
306.4953343262222
 30
0.0
 10
370.4441918658027
 20
306.5054351658245
 30
0.0
 10
370.4282492103413
 20
306.5253177536167
 30
0.0
 10
370.4199892651055
 20
306.535120499922
 30
0.0
 10
370.3946430561663
 20
306.5637577226049
 30
0.0
 10
370.3769394723581
 20
306.5818975480981
 30
0.0
 10
370.32147915539
 20
306.6335432399057
 30
0.0
 10
370.2813959964199
 20
306.6643026392101
 30
0.0
 10
370.2272807176986
 20
306.6980163040437
 30
0.0
 10
370.2162347265678
 20
306.7045297628251
 30
0.0
 10
370.1939691825586
 20
306.7169374467593
 30
0.0
 10
370.1602353051246
 20
306.7346696150476
 30
0.0
 10
370.1023645234126
 20
306.7599054622192
 30
0.0
 10
370.0543251900306
 20
306.7755272753924
 30
0.0
 10
370.0176279282769
 20
306.7854937280582
 30
0.0
 10
370.0052840084795
 20
306.7885236889754
 30
0.0
 10
369.9803681433067
 20
306.7939860569321
 30
0.0
 10
369.9677778577421
 20
306.7964201615233
 30
0.0
 10
369.9048293019798
 20
306.8069659016412
 30
0.0
 10
369.8540716955832
 20
306.8103579165977
 30
0.0
 10
369.8029048644206
 20
306.8085729914153
 30
0.0
  0
SPLINE
  5
217
330
1F
100
AcDbEntity
  8
1
100
AcDbSpline
210
0.0
220
0.0
230
1.0
 70
     8
 71
     3
 72
    36
 73
    32
 74
     0
 42
0.000000001
 43
0.0000000001
 40
0.0
 40
0.0
 40
0.0
 40
0.0
 40
0.1249999999998865
 40
0.1249999999998865
 40
0.1874999999998297
 40
0.1874999999998297
 40
0.2187499999998174
 40
0.2187499999998174
 40
0.2499999999998051
 40
0.2499999999998051
 40
0.3749999999998418
 40
0.3749999999998418
 40
0.4062499999998442
 40
0.4062499999998442
 40
0.4374999999998463
 40
0.4374999999998463
 40
0.4999999999998819
 40
0.4999999999998819
 40
0.6249999999999467
 40
0.6249999999999467
 40
0.6562499999999576
 40
0.6562499999999576
 40
0.6874999999999684
 40
0.7499999999999748
 40
0.8124999999999813
 40
0.8124999999999813
 40
0.8437499999999849
 40
0.8437499999999849
 40
0.8749999999999886
 40
0.8749999999999886
 40
1.0
 40
1.0
 40
1.0
 40
1.0
 10
358.6647256653424
 20
306.4200240802164
 30
0.0
 10
358.6135542444815
 20
306.4182389949251
 30
0.0
 10
358.563447578748
 20
306.4113288614929
 30
0.0
 10
358.4897933905079
 20
306.3937156562505
 30
0.0
 10
358.4654949973956
 20
306.3866267938522
 30
0.0
 10
358.4294330887732
 20
306.3741370791134
 30
0.0
 10
358.4174465139013
 20
306.3696513095913
 30
0.0
 10
358.3937609327193
 20
306.3601118062555
 30
0.0
 10
358.3820814464589
 20
306.3550680224591
 30
0.0
 10
358.3244824987389
 20
306.3285092115396
 30
0.0
 10
358.2809350293074
 20
306.3030138734078
 30
0.0
 10
358.2296222502035
 20
306.2659065843111
 30
0.0
 10
358.2195172255392
 20
306.258220782013
 30
0.0
 10
358.1996270738837
 20
306.242312374504
 30
0.0
 10
358.1898209435773
 20
306.2340697427118
 30
0.0
 10
358.1611748853321
 20
306.2087754148135
 30
0.0
 10
358.143030886782
 20
306.191106459835
 30
0.0
 10
358.0913776812558
 20
306.1357501502263
 30
0.0
 10
358.0606198974458
 20
306.0957364894655
 30
0.0
 10
358.0269167976119
 20
306.0417082898632
 30
0.0
 10
358.0204058903791
 20
306.0306797553146
 30
0.0
 10
358.0080041238595
 20
306.0084487755437
 30
0.0
 10
357.9902820650307
 20
305.974766344389
 30
0.0
 10
357.9650691228157
 20
305.9169793420364
 30
0.0
 10
357.9494720388356
 20
305.8690049543707
 30
0.0
 10
357.9395265873862
 20
305.832355605755
 30
0.0
 10
357.9365040366836
 20
305.8200275240668
 30
0.0
 10
357.9310573272521
 20
305.7951430632456
 30
0.0
 10
357.9286314849899
 20
305.7825683650331
 30
0.0
 10
357.9181287973687
 20
305.7196963396549
 30
0.0
 10
357.9147769814601
 20
305.6689960277437
 30
0.0
 10
357.9166080137983
 20
305.6178824581313
 30
0.0
  0
SPLINE
  5
218
330
1F
100
AcDbEntity
  8
1
100
AcDbSpline
210
0.0
220
0.0
230
1.0
 70
     8
 71
     3
 72
    36
 73
    32
 74
     0
 42
0.000000001
 43
0.0000000001
 40
0.0
 40
0.0
 40
0.0
 40
0.0
 40
0.1249999999998723
 40
0.1249999999998723
 40
0.1874999999998082
 40
0.1874999999998082
 40
0.2187499999997919
 40
0.2187499999997919
 40
0.2499999999997756
 40
0.2499999999997756
 40
0.3749999999998059
 40
0.3749999999998059
 40
0.4062499999998066
 40
0.4062499999998066
 40
0.4374999999998074
 40
0.4374999999998074
 40
0.4999999999998355
 40
0.4999999999998355
 40
0.6249999999998921
 40
0.6249999999998921
 40
0.6562499999999057
 40
0.6562499999999057
 40
0.6874999999999194
 40
0.7499999999999295
 40
0.8124999999999397
 40
0.8124999999999397
 40
0.8437499999999504
 40
0.8437499999999504
 40
0.8749999999999609
 40
0.8749999999999609
 40
1.0
 40
1.0
 40
1.0
 40
1.0
 10
370.2570213231993
 20
294.1318371716219
 30
0.0
 10
370.3081927440602
 20
294.1336222569131
 30
0.0
 10
370.3582994097936
 20
294.1405323903453
 30
0.0
 10
370.4319535980336
 20
294.1581455955877
 30
0.0
 10
370.456251991146
 20
294.1652344579861
 30
0.0
 10
370.4923138997685
 20
294.1777241727248
 30
0.0
 10
370.5043004746404
 20
294.1822099422468
 30
0.0
 10
370.5279860558222
 20
294.1917494455827
 30
0.0
 10
370.5396655420829
 20
294.1967932293792
 30
0.0
 10
370.5972644898028
 20
294.2233520402987
 30
0.0
 10
370.6408119592343
 20
294.2488473784304
 30
0.0
 10
370.6921247383381
 20
294.2859546675271
 30
0.0
 10
370.7022297630025
 20
294.2936404698252
 30
0.0
 10
370.722119914658
 20
294.3095488773342
 30
0.0
 10
370.7319260449642
 20
294.3177915091264
 30
0.0
 10
370.7605721032095
 20
294.3430858370247
 30
0.0
 10
370.7787161017597
 20
294.3607547920032
 30
0.0
 10
370.8303693072858
 20
294.4161111016119
 30
0.0
 10
370.8611270910959
 20
294.4561247623727
 30
0.0
 10
370.8948301909298
 20
294.5101529619751
 30
0.0
 10
370.9013410981626
 20
294.5211814965237
 30
0.0
 10
370.9137428646822
 20
294.5434124762945
 30
0.0
 10
370.9314649235109
 20
294.5770949074492
 30
0.0
 10
370.956677865726
 20
294.6348819098019
 30
0.0
 10
370.9722749497061
 20
294.6828562974675
 30
0.0
 10
370.9822204011555
 20
294.7195056460832
 30
0.0
 10
370.985242951858
 20
294.7318337277714
 30
0.0
 10
370.9906896612896
 20
294.7567181885926
 30
0.0
 10
370.9931155035518
 20
294.7692928868051
 30
0.0
 10
371.003618191173
 20
294.8321649121833
 30
0.0
 10
371.0069700070815
 20
294.8828652240946
 30
0.0
 10
371.0051389747434
 20
294.9339787937068
 30
0.0
  0
SPLINE
  5
219
330
1F
100
AcDbEntity
  8
1
100
AcDbSpline
210
0.0
220
0.0
230
1.0
 70
     8
 71
     3
 72
    22
 73
    18
 74
     0
 42
0.000000001
 43
0.0000000001
 40
0.0
 40
0.0
 40
0.0
 40
0.0
 40
0.0697983721639646
 40
0.0697983721639646
 40
0.2026843189976839
 40
0.2026843189976839
 40
0.3355702658314033
 40
0.3355702658314033
 40
0.4684562126651226
 40
0.4684562126651226
 40
0.6013421594988421
 40
0.6013421594988421
 40
0.7342281063325613
 40
0.7342281063325613
 40
0.8671140531662807
 40
0.8671140531662807
 40
1.0
 40
1.0
 40
1.0
 40
1.0
 10
323.9539605542759
 20
275.1403435741455
 30
0.0
 10
323.7243222544142
 20
275.0800831453201
 30
0.0
 10
323.4947498316254
 20
275.0204514365977
 30
0.0
 10
322.8283738088822
 20
274.8490068056655
 30
0.0
 10
322.39181290025
 20
274.7387485152915
 30
0.0
 10
321.5195455955559
 20
274.5223568379352
 30
0.0
 10
321.0838384652215
 20
274.4162262523628
 30
0.0
 10
320.2132931309874
 20
274.2081960649274
 30
0.0
 10
319.7784540651111
 20
274.1062991079733
 30
0.0
 10
318.9095153391242
 20
273.9070271740026
 30
0.0
 10
318.4754148679242
 20
273.8096544635179
 30
0.0
 10
317.6077055928419
 20
273.6198325570304
 30
0.0
 10
317.174096127572
 20
273.5273851810512
 30
0.0
 10
316.3070253153372
 20
273.3478645672042
 30
0.0
 10
315.8735634935454
 20
273.2607927344294
 30
0.0
 10
315.0063657514348
 20
273.0924747293453
 30
0.0
 10
314.5726295414765
 20
273.0112296259788
 30
0.0
 10
314.138511559084
 20
272.9331051724594
 30
0.0
  0
SPLINE
  5
21A
330
1F
100
AcDbEntity
  8
1
100
AcDbSpline
210
0.0
220
0.0
230
1.0
 70
     8
 71
     3
 72
     8
 73
     4
 74
     0
 42
0.000000001
 43
0.0000000001
 40
0.0
 40
0.0
 40
0.0
 40
0.0
 40
1.0
 40
1.0
 40
1.0
 40
1.0
 10
314.1385115590844
 20
272.9331051724571
 30
0.0
 10
314.8191513920573
 20
273.1668842782516
 30
0.0
 10
315.5000602190019
 20
273.4066421854771
 30
0.0
 10
316.1832079923736
 20
273.6481592535271
 30
0.0
  0
LINE
  5
239
330
1F
100
AcDbEntity
  8
SK4
100
AcDbLine
 10
200.904842
 20
288.907994
 30
0.0
 11
277.404842
 21
288.907994
 31
0.0
  0
LINE
  5
23A
330
1F
100
AcDbEntity
  8
4
100
AcDbLine
 10
270.532259
 20
288.907994
 30
0.0
 11
375.022081
 21
288.907994
 31
0.0
  0
MTEXT
  5
240
330
1F
100
AcDbEntity
  8
SK6
100
AcDbMText
 10
258.520787
 20
241.27662
 30
0.0
 40
3.5
 41
0.0
 71
     7
 72
     5
  1
\W0.7022;802D-36-72-S40
  7
cesky
 73
     2
 44
0.8433729999999998
  0
MTEXT
  5
351
330
1F
100
AcDbEntity
  8
2
100
AcDbMText
 10
284.827842
 20
340.562135
 30
0.0
 40
3.5
 41
0.0
 71
     7
 72
     5
  1
\W0.7809;167
  7
cesky
 73
     2
 44
0.8433729999999998
  0
LINE
  5
352
330
1F
100
AcDbEntity
  8
2
100
AcDbLine
 10
371.404842
 20
308.907994
 30
0.0
 11
371.404842
 21
341.687968
 31
0.0
  0
LINE
  5
353
330
1F
100
AcDbEntity
  8
2
100
AcDbLine
 10
204.404842
 20
306.907994
 30
0.0
 11
204.404842
 21
341.687968
 31
0.0
  0
LINE
  5
354
330
1F
100
AcDbEntity
  8
2
100
AcDbLine
 10
371.404842
 20
340.687968
 30
0.0
 11
204.404842
 21
340.687968
 31
0.0
  0
SOLID
  5
355
330
1F
100
AcDbEntity
  8
2
100
AcDbTrace
 10
371.404842
 20
340.687968
 30
0.0
 11
367.904844
 21
340.070823
 31
0.0
 12
367.90484
 22
341.305112
 32
0.0
 13
367.90484
 23
341.305112
 33
0.0
  0
SOLID
  5
356
330
1F
100
AcDbEntity
  8
2
100
AcDbTrace
 10
204.404842
 20
340.687968
 30
0.0
 11
207.90484
 21
341.305112
 31
0.0
 12
207.904844
 22
340.070823
 32
0.0
 13
207.904844
 23
340.070823
 33
0.0
  0
MTEXT
  5
357
330
1F
100
AcDbEntity
  8
2
100
AcDbMText
 10
237.590342
 20
327.385163
 30
0.0
 40
3.5
 41
0.0
 71
     7
 72
     5
  1
\W0.7045;70
  7
cesky
 73
     2
 44
0.8433729999999998
  0
LINE
  5
358
330
1F
100
AcDbEntity
  8
2
100
AcDbLine
 10
274.404842
 20
288.907994
 30
0.0
 11
274.404842
 21
328.5109970000001
 31
0.0
  0
LINE
  5
359
330
1F
100
AcDbEntity
  8
2
100
AcDbLine
 10
204.404842
 20
306.907994
 30
0.0
 11
204.404842
 21
328.5109970000001
 31
0.0
  0
LINE
  5
35A
330
1F
100
AcDbEntity
  8
2
100
AcDbLine
 10
274.404842
 20
327.510997
 30
0.0
 11
204.404842
 21
327.510997
 31
0.0
  0
SOLID
  5
35B
330
1F
100
AcDbEntity
  8
2
100
AcDbTrace
 10
274.404842
 20
327.510997
 30
0.0
 11
270.904844
 21
326.893852
 31
0.0
 12
270.90484
 22
328.128141
 32
0.0
 13
270.90484
 23
328.128141
 33
0.0
  0
SOLID
  5
35C
330
1F
100
AcDbEntity
  8
2
100
AcDbTrace
 10
204.404842
 20
327.510997
 30
0.0
 11
207.90484
 21
328.128141
 31
0.0
 12
207.904844
 22
326.893852
 32
0.0
 13
207.904844
 23
326.893852
 33
0.0
  0
MTEXT
  5
35D
330
1F
100
AcDbEntity
  8
2
100
AcDbMText
 10
328.329166
 20
315.788929
 30
0.0
 40
3.5
 41
0.0
 71
     7
 72
     5
  1
\W0.8459;77,5
  7
cesky
 73
     2
 44
0.8433729999999998
  0
LINE
  5
35E
330
1F
100
AcDbEntity
  8
2
100
AcDbLine
 10
371.404842
 20
308.907994
 30
0.0
 11
371.404842
 21
316.914763
 31
0.0
  0
LINE
  5
35F
330
1F
100
AcDbEntity
  8
2
100
AcDbLine
 10
293.93249
 20
306.666057
 30
0.0
 11
293.93249
 21
316.914763
 31
0.0
  0
LINE
  5
360
330
1F
100
AcDbEntity
  8
2
100
AcDbLine
 10
371.404842
 20
315.914763
 30
0.0
 11
293.93249
 21
315.914763
 31
0.0
  0
SOLID
  5
361
330
1F
100
AcDbEntity
  8
2
100
AcDbTrace
 10
371.404842
 20
315.914763
 30
0.0
 11
367.904844
 21
315.297618
 31
0.0
 12
367.90484
 22
316.531907
 32
0.0
 13
367.90484
 23
316.531907
 33
0.0
  0
SOLID
  5
362
330
1F
100
AcDbEntity
  8
2
100
AcDbTrace
 10
293.93249
 20
315.914763
 30
0.0
 11
297.432488
 21
316.531907
 31
0.0
 12
297.432492
 22
315.297618
 32
0.0
 13
297.432492
 23
315.297618
 33
0.0
  0
MTEXT
  5
363
330
1F
100
AcDbEntity
  8
2
100
AcDbMText
 10
321.090342
 20
327.385163
 30
0.0
 40
3.5
 41
0.0
 71
     7
 72
     5
  1
\W0.7045;97
  7
cesky
 73
     2
 44
0.8433729999999998
  0
LINE
  5
364
330
1F
100
AcDbEntity
  8
2
100
AcDbLine
 10
371.404842
 20
306.907994
 30
0.0
 11
371.404842
 21
328.5109970000001
 31
0.0
  0
LINE
  5
365
330
1F
100
AcDbEntity
  8
2
100
AcDbLine
 10
274.404842
 20
289.907567
 30
0.0
 11
274.404842
 21
328.5109970000001
 31
0.0
  0
LINE
  5
366
330
1F
100
AcDbEntity
  8
2
100
AcDbLine
 10
371.404842
 20
327.510997
 30
0.0
 11
274.404842
 21
327.510997
 31
0.0
  0
SOLID
  5
367
330
1F
100
AcDbEntity
  8
2
100
AcDbTrace
 10
371.404842
 20
327.510997
 30
0.0
 11
367.904844
 21
326.893852
 31
0.0
 12
367.90484
 22
328.128141
 32
0.0
 13
367.90484
 23
328.128141
 33
0.0
  0
SOLID
  5
368
330
1F
100
AcDbEntity
  8
2
100
AcDbTrace
 10
274.404842
 20
327.510997
 30
0.0
 11
277.90484
 21
328.128141
 31
0.0
 12
277.904844
 22
326.893852
 32
0.0
 13
277.904844
 23
326.893852
 33
0.0
  0
MTEXT
  5
369
330
1F
100
AcDbEntity
  8
2
100
AcDbMText
 10
387.523628
 20
288.802757
 30
0.0
 40
3.5
 41
0.0
 71
     7
 72
     5
  1
\W0.7259;36
  7
cesky
 11
0.0000000000000001
 21
1.0
 31
0.0
 73
     2
 44
0.8433729999999998
  0
MTEXT
  5
36A
330
1F
100
AcDbEntity
  8
2
100
AcDbMText
 10
387.523628
 20
282.065257
 30
0.0
 40
3.5
 41
0.0
 71
     7
 72
     5
  1
\W3.0115;\H2.63;%%c\H3.50;
  7
cesky
 11
0.0000000000000001
 21
1.0
 31
0.0
 73
     2
 44
0.8433729999999998
  0
LINE
  5
36B
330
1F
100
AcDbEntity
  8
2
100
AcDbLine
 10
373.404842
 20
306.907994
 30
0.0
 11
388.711044
 21
306.907994
 31
0.0
  0
LINE
  5
36C
330
1F
100
AcDbEntity
  8
2
100
AcDbLine
 10
387.711044
 20
306.907994
 30
0.0
 11
387.711044
 21
281.907757
 31
0.0
  0
SOLID
  5
36D
330
1F
100
AcDbEntity
  8
2
100
AcDbTrace
 10
387.711044
 20
306.907994
 30
0.0
 11
388.328189
 21
303.407996
 31
0.0
 12
387.0939
 22
303.407991
 32
0.0
 13
387.0939
 23
303.407991
 33
0.0
  0
MTEXT
  5
36E
330
1F
100
AcDbEntity
  8
SK2
100
AcDbMText
 10
192.819032
 20
290.434244
 30
0.0
 40
3.5
 41
0.0
 71
     7
 72
     5
  1
\W0.7045;40
  7
cesky
 11
0.0000000000000001
 21
1.0
 31
0.0
 73
     2
 44
0.8433729999999998
  0
MTEXT
  5
36F
330
1F
100
AcDbEntity
  8
SK2
100
AcDbMText
 10
192.819032
 20
283.696744
 30
0.0
 40
3.5
 41
0.0
 71
     7
 72
     5
  1
\W3.0115;\H2.63;%%c\H3.50;
  7
cesky
 11
0.0000000000000001
 21
1.0
 31
0.0
 73
     2
 44
0.8433729999999998
  0
LINE
  5
370
330
1F
100
AcDbEntity
  8
SK2
100
AcDbLine
 10
206.404842
 20
308.907994
 30
0.0
 11
192.006449
 21
308.907994
 31
0.0
  0
LINE
  5
371
330
1F
100
AcDbEntity
  8
SK2
100
AcDbLine
 10
206.404842
 20
268.907994
 30
0.0
 11
192.006449
 21
268.907994
 31
0.0
  0
LINE
  5
372
330
1F
100
AcDbEntity
  8
SK2
100
AcDbLine
 10
193.006449
 20
308.907994
 30
0.0
 11
193.006449
 21
268.907994
 31
0.0
  0
SOLID
  5
373
330
1F
100
AcDbEntity
  8
SK2
100
AcDbTrace
 10
193.006449
 20
308.907994
 30
0.0
 11
193.623593
 21
305.407996
 31
0.0
 12
192.389304
 22
305.407991
 32
0.0
 13
192.389304
 23
305.407991
 33
0.0
  0
SOLID
  5
374
330
1F
100
AcDbEntity
  8
SK2
100
AcDbTrace
 10
193.006449
 20
268.907994
 30
0.0
 11
192.389304
 21
272.407991
 31
0.0
 12
193.623593
 22
272.407996
 32
0.0
 13
193.623593
 23
272.407996
 33
0.0
  0
MTEXT
  5
375
330
1F
100
AcDbEntity
  8
SK2
100
AcDbMText
 10
179.247371
 20
290.434244
 30
0.0
 40
3.5
 41
0.0
 71
     7
 72
     5
  1
\W0.7045;50
  7
cesky
 11
0.0000000000000001
 21
1.0
 31
0.0
 73
     2
 44
0.8433729999999998
  0
MTEXT
  5
376
330
1F
100
AcDbEntity
  8
SK2
100
AcDbMText
 10
179.247371
 20
283.696744
 30
0.0
 40
3.5
 41
0.0
 71
     7
 72
     5
  1
\W3.0115;\H2.63;%%c\H3.50;
  7
cesky
 11
0.0000000000000001
 21
1.0
 31
0.0
 73
     2
 44
0.8433729999999998
  0
LINE
  5
377
330
1F
100
AcDbEntity
  8
SK2
100
AcDbLine
 10
274.904842
 20
313.907994
 30
0.0
 11
178.434788
 21
313.907994
 31
0.0
  0
LINE
  5
378
330
1F
100
AcDbEntity
  8
SK2
100
AcDbLine
 10
274.904842
 20
263.907994
 30
0.0
 11
178.434788
 21
263.907994
 31
0.0
  0
LINE
  5
379
330
1F
100
AcDbEntity
  8
SK2
100
AcDbLine
 10
179.434788
 20
313.907994
 30
0.0
 11
179.434788
 21
263.907994
 31
0.0
  0
SOLID
  5
37A
330
1F
100
AcDbEntity
  8
SK2
100
AcDbTrace
 10
179.434788
 20
313.907994
 30
0.0
 11
180.051932
 21
310.407996
 31
0.0
 12
178.817644
 22
310.407991
 32
0.0
 13
178.817644
 23
310.407991
 33
0.0
  0
SOLID
  5
37B
330
1F
100
AcDbEntity
  8
SK2
100
AcDbTrace
 10
179.434788
 20
263.907994
 30
0.0
 11
178.817644
 21
267.4079910000001
 31
0.0
 12
180.051932
 22
267.407996
 32
0.0
 13
180.051932
 23
267.407996
 33
0.0
  0
LINE
  5
37C
330
1F
100
AcDbEntity
  8
CUT
100
AcDbLine
 10
369.8029048644206
 20
306.9049267109345
 30
0.0
 11
358.6647256653424
 21
306.4972119845732
 31
0.0
  0
LINE
  5
37F
330
1F
100
AcDbEntity
  8
CUT
100
AcDbLine
 10
371.2334058386328
 20
297.3026386918775
 30
0.0
 11
370.9048193077228
 21
297.849462084272
 31
0.0
  0
LINE
  5
381
330
1F
100
AcDbEntity
  8
CUT
100
AcDbLine
 10
371.3998607906599
 20
290.0309651127017
 30
0.0
 11
371.2754235247553
 21
297.1561161883041
 31
0.0
  0
LINE
  5
382
330
1F
100
AcDbEntity
  8
CUT
100
AcDbLine
 10
370.9048193077228
 20
297.849462084272
 30
0.0
 11
370.606553292615
 21
306.1586309572965
 31
0.0
  0
LINE
  5
383
330
1F
100
AcDbEntity
  8
CUT
100
AcDbLine
 10
357.916608
 20
288.907994
 30
0.0
 11
371.399861
 21
288.907994
 31
0.0
  0
LINE
  5
384
330
1F
100
AcDbEntity
  8
CUT
100
AcDbLine
 10
357.916608
 20
305.693666
 30
0.0
 11
357.916608
 21
288.907994
 31
0.0
  0
LINE
  5
385
330
1F
100
AcDbEntity
  8
CUT
100
AcDbLine
 10
371.399861
 20
288.907994
 30
0.0
 11
371.399861
 21
290.030965
 31
0.0
  0
LINE
  5
386
330
1F
100
AcDbEntity
  8
CUT
100
AcDbLine
 10
370.606553292615
 20
306.1586309572965
 30
0.0
 11
370.606553292615
 21
306.1586309572965
 31
0.0
  0
ARC
  5
387
330
1F
100
AcDbEntity
  8
CUT
100
AcDbCircle
 10
369.8268464748906
 20
306.1248560304326
 30
0.0
 40
0.7804379970827649
100
AcDbArc
 50
2.480357615124405
 51
91.75794680367401
  0
LINE
  5
388
330
1F
100
AcDbEntity
  8
CUT
100
AcDbLine
 10
358.6647256653424
 20
306.4972119845732
 30
0.0
 11
358.6647256653424
 21
306.4972119845732
 31
0.0
  0
ARC
  5
389
330
1F
100
AcDbEntity
  8
CUT
100
AcDbCircle
 10
358.6984734754424
 20
305.7157627124532
 30
0.0
 40
0.7821776521886128
100
AcDbArc
 50
92.47284937099275
 51
181.6188598316248
  0
LINE
  5
38A
330
1F
100
AcDbEntity
  8
CUT
100
AcDbLine
 10
371.2754235247554
 20
297.1561161883041
 30
0.0
 11
371.2754235247554
 21
297.1561161883041
 31
0.0
  0
ARC
  5
38B
330
1F
100
AcDbEntity
  8
CUT
100
AcDbCircle
 10
370.9810540226306
 20
297.1509868714708
 30
0.0
 40
0.2944141872810484
100
AcDbArc
 50
0.9982639708976115
 51
31.00392878131692
  0
ENDSEC
  0
SECTION
  2
OBJECTS
  0
DICTIONARY
  5
C
330
0
100
AcDbDictionary
281
     1
  3
ACAD_CIP_PREVIOUS_PRODUCT_INFO
350
34E
  3
ACAD_COLOR
350
349
  3
ACAD_DETAILVIEWSTYLE
350
345
  3
ACAD_GROUP
350
D
  3
ACAD_LAYOUT
350
1A
  3
ACAD_MATERIAL
350
43
  3
ACAD_MLEADERSTYLE
350
6B
  3
ACAD_MLINESTYLE
350
17
  3
ACAD_PLOTSETTINGS
350
19
  3
ACAD_PLOTSTYLENAME
350
E
  3
ACAD_SCALELIST
350
47
  3
ACAD_SECTIONVIEWSTYLE
350
346
  3
ACAD_TABLESTYLE
350
69
  3
ACAD_VISUALSTYLE
350
2A
  3
ACDB_RECOMPOSE_DATA
350
3B7
  3
AcDbVariableDictionary
350
302
  0
DICTIONARY
  5
39A
330
10
100
AcDbDictionary
280
     1
281
     1
  3
ADSK_XREC_LAYER_RECONCILED
360
39B
  0
DICTIONARY
  5
39C
330
38C
100
AcDbDictionary
280
     1
281
     1
  3
ADSK_XREC_LAYER_RECONCILED
360
39D
  0
DICTIONARY
  5
39E
330
38D
100
AcDbDictionary
280
     1
281
     1
  3
ADSK_XREC_LAYER_RECONCILED
360
39F
  0
DICTIONARY
  5
3A0
330
38E
100
AcDbDictionary
280
     1
281
     1
  3
ADSK_XREC_LAYER_RECONCILED
360
3A1
  0
DICTIONARY
  5
3A2
330
390
100
AcDbDictionary
280
     1
281
     1
  3
ADSK_XREC_LAYER_RECONCILED
360
3A3
  0
DICTIONARY
  5
3A4
330
391
100
AcDbDictionary
280
     1
281
     1
  3
ADSK_XREC_LAYER_RECONCILED
360
3A5
  0
DICTIONARY
  5
3A6
330
393
100
AcDbDictionary
280
     1
281
     1
  3
ADSK_XREC_LAYER_RECONCILED
360
3A7
  0
DICTIONARY
  5
3A8
330
394
100
AcDbDictionary
280
     1
281
     1
  3
ADSK_XREC_LAYER_RECONCILED
360
3A9
  0
DICTIONARY
  5
3AA
330
395
100
AcDbDictionary
280
     1
281
     1
  3
ADSK_XREC_LAYER_RECONCILED
360
3AB
  0
DICTIONARY
  5
3AC
330
396
100
AcDbDictionary
280
     1
281
     1
  3
ADSK_XREC_LAYER_RECONCILED
360
3AD
  0
DICTIONARY
  5
3AE
330
397
100
AcDbDictionary
280
     1
281
     1
  3
ADSK_XREC_LAYER_RECONCILED
360
3AF
  0
DICTIONARY
  5
3B0
330
398
100
AcDbDictionary
280
     1
281
     1
  3
ADSK_XREC_LAYER_RECONCILED
360
3B1
  0
DICTIONARY
  5
34F
330
1F
100
AcDbDictionary
280
     1
281
     1
  3
ACAD_SORTENTS
360
350
  0
XRECORD
  5
34E
102
{ACAD_REACTORS
330
C
102
}
330
C
100
AcDbXrecord
280
     1
300
ACD
300
2019
300
87084ACD_2019_0F
  0
DICTIONARY
  5
349
102
{ACAD_REACTORS
330
C
102
}
330
C
100
AcDbDictionary
281
     1
  0
DICTIONARY
  5
345
102
{ACAD_REACTORS
330
C
102
}
330
C
100
AcDbDictionary
281
     1
  3
Metric50
350
34B
  0
DICTIONARY
  5
D
102
{ACAD_REACTORS
330
C
102
}
330
C
100
AcDbDictionary
281
     1
  3
NULOVY_BOD
350
399
  0
DICTIONARY
  5
1A
102
{ACAD_REACTORS
330
C
102
}
330
C
100
AcDbDictionary
281
     1
  3
Layout1
350
1E
  3
Layout2
350
26
  3
Model
350
22
  0
DICTIONARY
  5
43
102
{ACAD_REACTORS
330
C
102
}
330
C
100
AcDbDictionary
281
     1
  3
ByBlock
350
45
  3
ByLayer
350
44
  3
Global
350
46
  0
DICTIONARY
  5
6B
102
{ACAD_REACTORS
330
C
102
}
330
C
100
AcDbDictionary
281
     1
  3
Standard
350
6C
  0
DICTIONARY
  5
17
102
{ACAD_REACTORS
330
C
102
}
330
C
100
AcDbDictionary
281
     1
  3
Standard
350
18
  0
DICTIONARY
  5
19
102
{ACAD_REACTORS
330
C
102
}
330
C
100
AcDbDictionary
281
     1
  0
ACDBDICTIONARYWDFLT
  5
E
102
{ACAD_REACTORS
330
C
102
}
330
C
100
AcDbDictionary
281
     1
  3
Normal
350
F
100
AcDbDictionaryWithDefault
340
F
  0
DICTIONARY
  5
47
102
{ACAD_REACTORS
330
C
102
}
330
C
100
AcDbDictionary
281
     1
  3
A0
350
48
  3
A1
350
49
  3
A2
350
4A
  3
A3
350
4B
  3
A4
350
4C
  3
A5
350
4D
  3
A6
350
4E
  3
A7
350
4F
  3
A8
350
50
  3
A9
350
51
  3
B0
350
52
  3
B1
350
53
  3
B2
350
54
  3
B3
350
55
  3
B4
350
56
  3
B5
350
57
  3
B6
350
58
  3
B7
350
59
  3
B8
350
5A
  3
B9
350
5B
  3
C0
350
5C
  3
C1
350
5D
  3
C2
350
5E
  3
C3
350
5F
  3
C4
350
60
  3
C5
350
61
  3
C6
350
62
  3
C7
350
63
  3
C8
350
64
  3
C9
350
65
  3
D0
350
66
  3
D1
350
67
  3
D2
350
68
  0
DICTIONARY
  5
346
102
{ACAD_REACTORS
330
C
102
}
330
C
100
AcDbDictionary
281
     1
  3
Metric50
350
34A
  0
DICTIONARY
  5
69
102
{ACAD_REACTORS
330
C
102
}
330
C
100
AcDbDictionary
281
     1
  3
Standard
350
6A
  0
DICTIONARY
  5
2A
102
{ACAD_REACTORS
330
C
102
}
330
C
100
AcDbDictionary
281
     1
  3
2dWireframe
350
2F
  3
Basic
350
32
  3
Brighten
350
36
  3
ColorChange
350
3A
  3
Conceptual
350
34
  3
Dim
350
35
  3
EdgeColorOff
350
3D
  3
Facepattern
350
39
  3
Flat
350
2B
  3
FlatWithEdges
350
2C
  3
Gouraud
350
2D
  3
GouraudWithEdges
350
2E
  3
Hidden
350
31
  3
JitterOff
350
3B
  3
Linepattern
350
38
  3
OverhangOff
350
3C
  3
Realistic
350
33
  3
Shaded
350
42
  3
Shaded with edges
350
41
  3
Shades of Gray
350
3E
  3
Sketchy
350
3F
  3
Thicken
350
37
  3
Wireframe
350
30
  3
X-Ray
350
40
  0
XRECORD
  5
3B7
102
{ACAD_REACTORS
330
C
102
}
330
C
100
AcDbXrecord
280
     1
 90
        1
330
6A
  0
DICTIONARY
  5
302
102
{ACAD_REACTORS
330
C
102
}
330
C
100
AcDbDictionary
281
     1
  3
CANNOSCALE
350
303
  3
CMLEADERSTYLE
350
344
  3
CTABLESTYLE
350
343
  3
CVIEWDETAILSTYLE
350
3B2
  3
CVIEWSECTIONSTYLE
350
3B3
  3
MSLTSCALE
350
304
  3
XCLIPFRAME
350
3B4
  0
XRECORD
  5
39B
102
{ACAD_REACTORS
330
39A
102
}
330
39A
100
AcDbXrecord
280
     1
290
     1
  0
XRECORD
  5
39D
102
{ACAD_REACTORS
330
39C
102
}
330
39C
100
AcDbXrecord
280
     1
290
     1
  0
XRECORD
  5
39F
102
{ACAD_REACTORS
330
39E
102
}
330
39E
100
AcDbXrecord
280
     1
290
     1
  0
XRECORD
  5
3A1
102
{ACAD_REACTORS
330
3A0
102
}
330
3A0
100
AcDbXrecord
280
     1
290
     1
  0
XRECORD
  5
3A3
102
{ACAD_REACTORS
330
3A2
102
}
330
3A2
100
AcDbXrecord
280
     1
290
     1
  0
XRECORD
  5
3A5
102
{ACAD_REACTORS
330
3A4
102
}
330
3A4
100
AcDbXrecord
280
     1
290
     1
  0
XRECORD
  5
3A7
102
{ACAD_REACTORS
330
3A6
102
}
330
3A6
100
AcDbXrecord
280
     1
290
     1
  0
XRECORD
  5
3A9
102
{ACAD_REACTORS
330
3A8
102
}
330
3A8
100
AcDbXrecord
280
     1
290
     1
  0
XRECORD
  5
3AB
102
{ACAD_REACTORS
330
3AA
102
}
330
3AA
100
AcDbXrecord
280
     1
290
     1
  0
XRECORD
  5
3AD
102
{ACAD_REACTORS
330
3AC
102
}
330
3AC
100
AcDbXrecord
280
     1
290
     1
  0
XRECORD
  5
3AF
102
{ACAD_REACTORS
330
3AE
102
}
330
3AE
100
AcDbXrecord
280
     1
290
     1
  0
XRECORD
  5
3B1
102
{ACAD_REACTORS
330
3B0
102
}
330
3B0
100
AcDbXrecord
280
     1
290
     1
  0
SORTENTSTABLE
  5
350
102
{ACAD_REACTORS
330
34F
102
}
330
34F
100
AcDbSortentsTable
330
1F
331
351
  5
2BC
331
352
  5
2D5
331
353
  5
351
331
354
  5
352
331
355
  5
353
331
356
  5
354
331
357
  5
355
331
358
  5
356
331
359
  5
357
331
35A
  5
358
331
35B
  5
359
331
35C
  5
35A
331
35D
  5
35B
331
35E
  5
35C
331
35F
  5
35D
331
360
  5
35E
331
361
  5
35F
331
362
  5
360
331
363
  5
361
331
364
  5
362
331
365
  5
363
331
366
  5
364
331
367
  5
365
331
368
  5
366
331
369
  5
367
331
36A
  5
368
331
36B
  5
369
331
36C
  5
36A
331
36D
  5
36B
331
37F
  5
384
331
381
  5
387
331
382
  5
388
331
383
  5
389
331
384
  5
38A
331
385
  5
38B
331
386
  5
37F
331
387
  5
381
331
388
  5
382
331
389
  5
383
331
38A
  5
385
331
38B
  5
386
  0
ACDBDETAILVIEWSTYLE
  5
34B
102
{ACAD_XDICTIONARY
360
3EB
102
}
102
{ACAD_REACTORS
330
345
102
}
330
345
100
AcDbModelDocViewStyle
 70
     0
  3
Metric50
290
     0
100
AcDbDetailViewStyle
 70
     0
 71
     0
 90
        3
 71
     1
340
11
 62
   256
 40
5.0
340
0
 62
   256
 40
5.0
300

 40
0.0
280
     1
 71
     2
340
16
 90
       25
 62
   256
 71
     3
340
11
 62
   256
 40
5.0
 90
        0
 40
15.0
 90
        1
300
%<\AcVar ViewDetailId>% (%<\AcVar ViewScale \f "%sn">%)
 71
     4
340
16
 90
       25
 62
   256
340
16
 90
       25
 62
   256
280
     0
  0
GROUP
  5
399
102
{ACAD_REACTORS
330
D
102
}
330
D
100
AcDbGroup
300

 70
     0
 71
     1
340
73
  0
LAYOUT
  5
1E
102
{ACAD_REACTORS
330
1A
102
}
330
1A
100
AcDbPlotSettings
  1

  2
none_device
  4

  6

 40
0.0
 41
0.0
 42
0.0
 43
0.0
 44
0.0
 45
0.0
 46
0.0
 47
0.0
 48
0.0
 49
0.0
140
0.0
141
0.0
142
1.0
143
1.0
 70
   688
 72
     0
 73
     0
 74
     5
  7

 75
    16
147
1.0
 76
     0
 77
     2
 78
   300
148
0.0
149
0.0
100
AcDbLayout
  1
Layout1
 70
     1
 71
     1
 10
-0.5
 20
-0.5
 11
5.0
 21
5.0
 12
0.0
 22
0.0
 32
0.0
 14
-0.5
 24
-0.5
 34
-0.5
 15
5.0
 25
5.0
 35
5.0
146
0.0
 13
0.0
 23
0.0
 33
0.0
 16
1.0
 26
0.0
 36
0.0
 17
0.0
 27
1.0
 37
0.0
 76
     0
330
1B
  0
LAYOUT
  5
26
102
{ACAD_REACTORS
330
1A
102
}
330
1A
100
AcDbPlotSettings
  1

  2
none_device
  4

  6

 40
0.0
 41
0.0
 42
0.0
 43
0.0
 44
0.0
 45
0.0
 46
0.0
 47
0.0
 48
0.0
 49
0.0
140
0.0
141
0.0
142
1.0
143
1.0
 70
   688
 72
     0
 73
     0
 74
     5
  7

 75
    16
147
1.0
 76
     0
 77
     2
 78
   300
148
0.0
149
0.0
100
AcDbLayout
  1
Layout2
 70
     1
 71
     2
 10
0.0
 20
0.0
 11
0.0
 21
0.0
 12
0.0
 22
0.0
 32
0.0
 14
0.0
 24
0.0
 34
0.0
 15
0.0
 25
0.0
 35
0.0
146
0.0
 13
0.0
 23
0.0
 33
0.0
 16
1.0
 26
0.0
 36
0.0
 17
0.0
 27
1.0
 37
0.0
 76
     0
330
23
  0
LAYOUT
  5
22
102
{ACAD_REACTORS
330
1A
102
}
330
1A
100
AcDbPlotSettings
  1

  2
none_device
  4
Letter_(8.50_x_11.00_Inches)
  6

 40
6.349999999999999
 41
6.349999999999999
 42
6.350005
 43
6.350005
 44
215.9
 45
279.4
 46
0.0
 47
0.0
 48
0.0
 49
0.0
140
0.0
141
0.0
142
1.0
143
1.0
 70
  1712
 72
     0
 73
     0
 74
     0
  7

 75
     0
147
1.0
 76
     0
 77
     2
 78
   300
148
0.0
149
0.0
100
AcDbLayout
  1
Model
 70
     1
 71
     0
 10
-0.5
 20
-0.5
 11
5.0
 21
5.0
 12
0.0
 22
0.0
 32
0.0
 14
-0.5
 24
-0.5
 34
-0.5
 15
5.0
 25
5.0
 35
5.0
146
0.0
 13
0.0
 23
0.0
 33
0.0
 16
1.0
 26
0.0
 36
0.0
 17
0.0
 27
1.0
 37
0.0
 76
     0
330
1F
331
29
  0
MATERIAL
  5
45
102
{ACAD_XDICTIONARY
360
338
102
}
102
{ACAD_REACTORS
330
43
102
}
330
43
100
AcDbMaterial
  1
ByBlock
  0
MATERIAL
  5
44
102
{ACAD_XDICTIONARY
360
336
102
}
102
{ACAD_REACTORS
330
43
102
}
330
43
100
AcDbMaterial
  1
ByLayer
  0
MATERIAL
  5
46
102
{ACAD_XDICTIONARY
360
33A
102
}
102
{ACAD_REACTORS
330
43
102
}
330
43
100
AcDbMaterial
  1
Global
  0
MLEADERSTYLE
  5
6C
102
{ACAD_REACTORS
330
6B
102
}
330
6B
100
AcDbMLeaderStyle
170
     2
171
     1
172
     0
 90
        2
 40
0.0
 41
0.0
173
     1
 91
-1056964608
340
14
 92
       -2
290
     1
 42
0.09
291
     1
 43
0.36
  3
Standard
 44
0.18
300

342
11
174
     1
178
     6
175
     1
176
     0
 93
-1056964608
 45
0.18
292
     0
297
     0
 46
0.18
 94
-1056964608
 47
1.0
 49
1.0
140
1.0
293
     1
141
0.0
294
     1
177
     0
142
1.0
295
     0
296
     0
143
0.125
1001
ACAD_MLEADERVER
1070
     2
  0
MLINESTYLE
  5
18
102
{ACAD_REACTORS
330
17
102
}
330
17
100
AcDbMlineStyle
  2
STANDARD
 70
     0
  3

 62
   256
 51
90.0
 52
90.0
 71
     2
 49
0.5
 62
   256
  6
BYLAYER
 49
-0.5
 62
   256
  6
BYLAYER
  0
ACDBPLACEHOLDER
  5
F
102
{ACAD_REACTORS
330
E
102
}
330
E
  0
SCALE
  5
48
102
{ACAD_REACTORS
330
47
102
}
330
47
100
AcDbScale
 70
     0
300
1:1
140
1.0
141
1.0
290
     1
  0
SCALE
  5
49
102
{ACAD_REACTORS
330
47
102
}
330
47
100
AcDbScale
 70
     0
300
1:2
140
1.0
141
2.0
290
     0
  0
SCALE
  5
4A
102
{ACAD_REACTORS
330
47
102
}
330
47
100
AcDbScale
 70
     0
300
1:4
140
1.0
141
4.0
290
     0
  0
SCALE
  5
4B
102
{ACAD_REACTORS
330
47
102
}
330
47
100
AcDbScale
 70
     0
300
1:5
140
1.0
141
5.0
290
     0
  0
SCALE
  5
4C
102
{ACAD_REACTORS
330
47
102
}
330
47
100
AcDbScale
 70
     0
300
1:8
140
1.0
141
8.0
290
     0
  0
SCALE
  5
4D
102
{ACAD_REACTORS
330
47
102
}
330
47
100
AcDbScale
 70
     0
300
1:10
140
1.0
141
10.0
290
     0
  0
SCALE
  5
4E
102
{ACAD_REACTORS
330
47
102
}
330
47
100
AcDbScale
 70
     0
300
1:16
140
1.0
141
16.0
290
     0
  0
SCALE
  5
4F
102
{ACAD_REACTORS
330
47
102
}
330
47
100
AcDbScale
 70
     0
300
1:20
140
1.0
141
20.0
290
     0
  0
SCALE
  5
50
102
{ACAD_REACTORS
330
47
102
}
330
47
100
AcDbScale
 70
     0
300
1:30
140
1.0
141
30.0
290
     0
  0
SCALE
  5
51
102
{ACAD_REACTORS
330
47
102
}
330
47
100
AcDbScale
 70
     0
300
1:40
140
1.0
141
40.0
290
     0
  0
SCALE
  5
52
102
{ACAD_REACTORS
330
47
102
}
330
47
100
AcDbScale
 70
     0
300
1:50
140
1.0
141
50.0
290
     0
  0
SCALE
  5
53
102
{ACAD_REACTORS
330
47
102
}
330
47
100
AcDbScale
 70
     0
300
1:100
140
1.0
141
100.0
290
     0
  0
SCALE
  5
54
102
{ACAD_REACTORS
330
47
102
}
330
47
100
AcDbScale
 70
     0
300
2:1
140
2.0
141
1.0
290
     0
  0
SCALE
  5
55
102
{ACAD_REACTORS
330
47
102
}
330
47
100
AcDbScale
 70
     0
300
4:1
140
4.0
141
1.0
290
     0
  0
SCALE
  5
56
102
{ACAD_REACTORS
330
47
102
}
330
47
100
AcDbScale
 70
     0
300
8:1
140
8.0
141
1.0
290
     0
  0
SCALE
  5
57
102
{ACAD_REACTORS
330
47
102
}
330
47
100
AcDbScale
 70
     0
300
10:1
140
10.0
141
1.0
290
     0
  0
SCALE
  5
58
102
{ACAD_REACTORS
330
47
102
}
330
47
100
AcDbScale
 70
     0
300
100:1
140
100.0
141
1.0
290
     0
  0
SCALE
  5
59
102
{ACAD_REACTORS
330
47
102
}
330
47
100
AcDbScale
 70
     0
300
1/128" = 1'-0"
140
0.007812
141
12.0
290
     0
  0
SCALE
  5
5A
102
{ACAD_REACTORS
330
47
102
}
330
47
100
AcDbScale
 70
     0
300
1/64" = 1'-0"
140
0.015625
141
12.0
290
     0
  0
SCALE
  5
5B
102
{ACAD_REACTORS
330
47
102
}
330
47
100
AcDbScale
 70
     0
300
1/32" = 1'-0"
140
0.03125
141
12.0
290
     0
  0
SCALE
  5
5C
102
{ACAD_REACTORS
330
47
102
}
330
47
100
AcDbScale
 70
     0
300
1/16" = 1'-0"
140
0.0625
141
12.0
290
     0
  0
SCALE
  5
5D
102
{ACAD_REACTORS
330
47
102
}
330
47
100
AcDbScale
 70
     0
300
3/32" = 1'-0"
140
0.09375
141
12.0
290
     0
  0
SCALE
  5
5E
102
{ACAD_REACTORS
330
47
102
}
330
47
100
AcDbScale
 70
     0
300
1/8" = 1'-0"
140
0.125
141
12.0
290
     0
  0
SCALE
  5
5F
102
{ACAD_REACTORS
330
47
102
}
330
47
100
AcDbScale
 70
     0
300
3/16" = 1'-0"
140
0.1875
141
12.0
290
     0
  0
SCALE
  5
60
102
{ACAD_REACTORS
330
47
102
}
330
47
100
AcDbScale
 70
     0
300
1/4" = 1'-0"
140
0.25
141
12.0
290
     0
  0
SCALE
  5
61
102
{ACAD_REACTORS
330
47
102
}
330
47
100
AcDbScale
 70
     0
300
3/8" = 1'-0"
140
0.375
141
12.0
290
     0
  0
SCALE
  5
62
102
{ACAD_REACTORS
330
47
102
}
330
47
100
AcDbScale
 70
     0
300
1/2" = 1'-0"
140
0.5
141
12.0
290
     0
  0
SCALE
  5
63
102
{ACAD_REACTORS
330
47
102
}
330
47
100
AcDbScale
 70
     0
300
3/4" = 1'-0"
140
0.75
141
12.0
290
     0
  0
SCALE
  5
64
102
{ACAD_REACTORS
330
47
102
}
330
47
100
AcDbScale
 70
     0
300
1" = 1'-0"
140
1.0
141
12.0
290
     0
  0
SCALE
  5
65
102
{ACAD_REACTORS
330
47
102
}
330
47
100
AcDbScale
 70
     0
300
1-1/2" = 1'-0"
140
1.5
141
12.0
290
     0
  0
SCALE
  5
66
102
{ACAD_REACTORS
330
47
102
}
330
47
100
AcDbScale
 70
     0
300
3" = 1'-0"
140
3.0
141
12.0
290
     0
  0
SCALE
  5
67
102
{ACAD_REACTORS
330
47
102
}
330
47
100
AcDbScale
 70
     0
300
6" = 1'-0"
140
6.0
141
12.0
290
     0
  0
SCALE
  5
68
102
{ACAD_REACTORS
330
47
102
}
330
47
100
AcDbScale
 70
     0
300
1'-0" = 1'-0"
140
12.0
141
12.0
290
     0
  0
ACDBSECTIONVIEWSTYLE
  5
34A
102
{ACAD_XDICTIONARY
360
3E9
102
}
102
{ACAD_REACTORS
330
346
102
}
330
346
100
AcDbModelDocViewStyle
 70
     0
  3
Metric50
290
     0
100
AcDbSectionViewStyle
 70
     0
 71
     0
 90
      102
 71
     1
340
11
 62
   256
 40
5.0
340
0
340
0
 62
   256
 40
5.0
300
I, O, Q, S, X, Z
 40
10.0
 90
        0
 40
2.5
 90
        0
 71
     2
340
16
 90
       25
 62
   256
340
16
 90
       50
 62
   256
 40
5.0
 40
2.5
 40
5.0
 71
     3
340
11
 62
   256
 40
5.0
 90
        0
 40
15.0
 90
        1
300
%<\AcVar ViewSectionStartId>%-%<\AcVar ViewSectionEndId>% (%<\AcVar ViewScale \f "%sn">%)
 71
     4
 62
   256
 62
   257
300
ANSI31
 40
1.0
 90
        0
290
     0
290
     0
 90
        6
 40
0.0
 40
1.570796326794896
 40
0.2617993877991494
 40
1.308996938995747
 40
-0.2617993877991494
 40
1.832595714594046
  0
TABLESTYLE
  5
6A
102
{ACAD_XDICTIONARY
360
33C
102
}
102
{ACAD_REACTORS
330
69
102
}
330
69
100
AcDbTableStyle
  3
Standard
 70
     0
 71
     0
 40
0.06
 41
0.06
280
     0
281
     0
  7
Standard
140
0.18
170
     2
 62
     0
 63
     7
283
     0
274
    -2
284
     1
 64
     0
275
    -2
285
     1
 65
     0
276
    -2
286
     1
 66
     0
277
    -2
287
     1
 67
     0
278
    -2
288
     1
 68
     0
279
    -2
289
     1
 69
     0
  7
Standard
140
0.25
170
     5
 62
     0
 63
     7
283
     0
274
    -2
284
     1
 64
     0
275
    -2
285
     1
 65
     0
276
    -2
286
     1
 66
     0
277
    -2
287
     1
 67
     0
278
    -2
288
     1
 68
     0
279
    -2
289
     1
 69
     0
  7
Standard
140
0.18
170
     5
 62
     0
 63
     7
283
     0
274
    -2
284
     1
 64
     0
275
    -2
285
     1
 65
     0
276
    -2
286
     1
 66
     0
277
    -2
287
     1
 67
     0
278
    -2
288
     1
 68
     0
279
    -2
289
     1
 69
     0
  0
VISUALSTYLE
  5
2F
102
{ACAD_XDICTIONARY
360
3C0
102
}
102
{ACAD_REACTORS
330
2A
102
}
330
2A
100
AcDbVisualStyle
  2

 70
     4
 71
     0
 72
     2
 73
     0
 90
        0
 40
-0.6
 41
-30.0
 62
     5
 63
     7
421
 16777215
 74
     1
 91
        4
 64
     7
 65
   257
 75
     1
175
     1
 42
1.0
 92
        0
 66
   257
 43
1.0
 76
     1
 77
     6
 78
     2
 67
     7
 79
     5
170
     0
171
     0
290
     0
174
     0
 93
        1
 44
0.0
173
     0
291
     0
 45
0.0
1001
ACAD
1000
AcDbSavedByObjectVersion
1070
     0
  0
VISUALSTYLE
  5
32
102
{ACAD_XDICTIONARY
360
3C6
102
}
102
{ACAD_REACTORS
330
2A
102
}
330
2A
100
AcDbVisualStyle
  2

 70
     7
 71
     1
 72
     0
 73
     1
 90
        0
 40
-0.6
 41
-30.0
 62
     5
 63
     7
421
 16777215
 74
     0
 91
        4
 64
     7
 65
   257
 75
     1
175
     1
 42
1.0
 92
        8
 66
     7
 43
1.0
 76
     1
 77
     6
 78
     2
 67
     7
 79
     5
170
     0
171
     0
290
     0
174
     0
 93
        1
 44
0.0
173
     0
291
     1
 45
0.0
1001
ACAD
1000
AcDbSavedByObjectVersion
1070
     0
  0
VISUALSTYLE
  5
36
102
{ACAD_XDICTIONARY
360
3CE
102
}
102
{ACAD_REACTORS
330
2A
102
}
330
2A
100
AcDbVisualStyle
  2

 70
    12
 71
     2
 72
     2
 73
     0
 90
        0
 40
-0.6
 41
-30.0
 62
     5
 63
     7
421
 16777215
 74
     1
 91
        4
 64
     7
 65
   257
 75
     1
175
     1
 42
1.0
 92
        8
 66
     7
 43
1.0
 76
     1
 77
     6
 78
     2
 67
     7
 79
     5
170
     0
171
     0
290
     0
174
     0
 93
        1
 44
50.0
173
     0
291
     1
 45
0.0
1001
ACAD
1000
AcDbSavedByObjectVersion
1070
     0
  0
VISUALSTYLE
  5
3A
102
{ACAD_XDICTIONARY
360
3D6
102
}
102
{ACAD_REACTORS
330
2A
102
}
330
2A
100
AcDbVisualStyle
  2

 70
    16
 71
     2
 72
     2
 73
     3
 90
        0
 40
-0.6
 41
-30.0
 62
     5
 63
     8
421
  8421504
 74
     1
 91
        4
 64
     7
 65
   257
 75
     1
175
     1
 42
1.0
 92
        8
 66
     8
424
  8421504
 43
1.0
 76
     1
 77
     6
 78
     2
 67
     7
 79
     5
170
     0
171
     0
290
     0
174
     0
 93
        1
 44
0.0
173
     0
291
     1
 45
0.0
1001
ACAD
1000
AcDbSavedByObjectVersion
1070
     0
  0
VISUALSTYLE
  5
34
102
{ACAD_XDICTIONARY
360
3CA
102
}
102
{ACAD_REACTORS
330
2A
102
}
330
2A
100
AcDbVisualStyle
  2

 70
     9
 71
     3
 72
     2
 73
     0
 90
        0
 40
-0.6
 41
-30.0
 62
     5
 63
     7
421
 16777215
 74
     2
 91
        2
 64
     7
 65
   257
 75
     1
175
     1
 42
179.0
 92
        8
 66
     7
 43
1.0
 76
     1
 77
     6
 78
     2
 67
     7
 79
     3
170
     0
171
     0
290
     0
174
     0
 93
        1
 44
0.0
173
     0
291
     0
 45
0.0
1001
ACAD
1000
AcDbSavedByObjectVersion
1070
     0
  0
VISUALSTYLE
  5
35
102
{ACAD_XDICTIONARY
360
3CC
102
}
102
{ACAD_REACTORS
330
2A
102
}
330
2A
100
AcDbVisualStyle
  2

 70
    11
 71
     2
 72
     2
 73
     0
 90
        0
 40
-0.6
 41
-30.0
 62
     5
 63
     7
421
 16777215
 74
     1
 91
        4
 64
     7
 65
   257
 75
     1
175
     1
 42
1.0
 92
        8
 66
     7
 43
1.0
 76
     1
 77
     6
 78
     2
 67
     7
 79
     5
170
     0
171
     0
290
     0
174
     0
 93
        1
 44
-50.0
173
     0
291
     1
 45
0.0
1001
ACAD
1000
AcDbSavedByObjectVersion
1070
     0
  0
VISUALSTYLE
  5
3D
102
{ACAD_XDICTIONARY
360
3DC
102
}
102
{ACAD_REACTORS
330
2A
102
}
330
2A
100
AcDbVisualStyle
  2

 70
    22
 71
     2
 72
     2
 73
     0
 90
        0
 40
-0.6
 41
-30.0
 62
     5
 63
     7
421
 16777215
 74
     1
 91
        4
 64
     7
 65
   257
 75
     1
175
     1
 42
1.0
 92
        8
 66
     7
 43
1.0
 76
     1
 77
     6
 78
     2
 67
     7
 79
     5
170
     0
171
     0
290
     0
174
     0
 93
        1
 44
0.0
173
     0
291
     1
 45
0.0
1001
ACAD
1000
AcDbSavedByObjectVersion
1070
     0
  0
VISUALSTYLE
  5
39
102
{ACAD_XDICTIONARY
360
3D4
102
}
102
{ACAD_REACTORS
330
2A
102
}
330
2A
100
AcDbVisualStyle
  2

 70
    15
 71
     2
 72
     2
 73
     0
 90
        0
 40
-0.6
 41
-30.0
 62
     5
 63
     7
421
 16777215
 74
     1
 91
        4
 64
     7
 65
   257
 75
     1
175
     1
 42
1.0
 92
        8
 66
     7
 43
1.0
 76
     1
 77
     6
 78
     2
 67
     7
 79
     5
170
     0
171
     0
290
     0
174
     0
 93
        1
 44
0.0
173
     0
291
     1
 45
0.0
1001
ACAD
1000
AcDbSavedByObjectVersion
1070
     0
  0
VISUALSTYLE
  5
2B
102
{ACAD_XDICTIONARY
360
3B8
102
}
102
{ACAD_REACTORS
330
2A
102
}
330
2A
100
AcDbVisualStyle
  2

 70
     0
 71
     2
 72
     1
 73
     1
 90
        2
 40
-0.6
 41
30.0
 62
     5
 63
     7
421
 16777215
 74
     0
 91
        0
 64
     7
 65
   257
 75
     1
175
     1
 42
1.0
 92
        8
 66
     7
 43
1.0
 76
     1
 77
     6
 78
     2
 67
     7
 79
     5
170
     0
171
     0
290
     0
174
     0
 93
       13
 44
0.0
173
     0
291
     1
 45
0.0
1001
ACAD
1000
AcDbSavedByObjectVersion
1070
     0
  0
VISUALSTYLE
  5
2C
102
{ACAD_XDICTIONARY
360
3BA
102
}
102
{ACAD_REACTORS
330
2A
102
}
330
2A
100
AcDbVisualStyle
  2

 70
     1
 71
     2
 72
     1
 73
     1
 90
        2
 40
-0.6
 41
30.0
 62
     5
 63
     7
421
 16777215
 74
     1
 91
        0
 64
     7
 65
   257
 75
     1
175
     1
 42
1.0
 92
        0
 66
   257
 43
1.0
 76
     1
 77
     6
 78
     2
 67
     7
 79
     5
170
     0
171
     0
290
     0
174
     0
 93
       13
 44
0.0
173
     0
291
     1
 45
0.0
1001
ACAD
1000
AcDbSavedByObjectVersion
1070
     0
  0
VISUALSTYLE
  5
2D
102
{ACAD_XDICTIONARY
360
3BC
102
}
102
{ACAD_REACTORS
330
2A
102
}
330
2A
100
AcDbVisualStyle
  2

 70
     2
 71
     2
 72
     2
 73
     1
 90
        2
 40
-0.6
 41
30.0
 62
     5
 63
     7
421
 16777215
 74
     0
 91
        0
 64
     7
 65
   257
 75
     1
175
     1
 42
1.0
 92
        0
 66
     7
 43
1.0
 76
     1
 77
     6
 78
     2
 67
     7
 79
     5
170
     0
171
     0
290
     0
174
     0
 93
       13
 44
0.0
173
     0
291
     1
 45
0.0
1001
ACAD
1000
AcDbSavedByObjectVersion
1070
     0
  0
VISUALSTYLE
  5
2E
102
{ACAD_XDICTIONARY
360
3BE
102
}
102
{ACAD_REACTORS
330
2A
102
}
330
2A
100
AcDbVisualStyle
  2

 70
     3
 71
     2
 72
     2
 73
     1
 90
        2
 40
-0.6
 41
30.0
 62
     5
 63
     7
421
 16777215
 74
     1
 91
        0
 64
     7
 65
   257
 75
     1
175
     1
 42
1.0
 92
        0
 66
   257
 43
1.0
 76
     1
 77
     6
 78
     2
 67
     7
 79
     5
170
     0
171
     0
290
     0
174
     0
 93
       13
 44
0.0
173
     0
291
     1
 45
0.0
1001
ACAD
1000
AcDbSavedByObjectVersion
1070
     0
  0
VISUALSTYLE
  5
31
102
{ACAD_XDICTIONARY
360
3C4
102
}
102
{ACAD_REACTORS
330
2A
102
}
330
2A
100
AcDbVisualStyle
  2

 70
     6
 71
     1
 72
     2
 73
     2
 90
        0
 40
-0.6
 41
-30.0
 62
     5
 63
     7
421
 16777215
 74
     2
 91
        2
 64
     7
 65
   257
 75
     2
175
     1
 42
40.0
 92
        0
 66
   257
 43
1.0
 76
     1
 77
     6
 78
     2
 67
     7
 79
     3
170
     0
171
     0
290
     0
174
     0
 93
        1
 44
0.0
173
     0
291
     0
 45
0.0
1001
ACAD
1000
AcDbSavedByObjectVersion
1070
     0
  0
VISUALSTYLE
  5
3B
102
{ACAD_XDICTIONARY
360
3D8
102
}
102
{ACAD_REACTORS
330
2A
102
}
330
2A
100
AcDbVisualStyle
  2

 70
    20
 71
     2
 72
     2
 73
     0
 90
        0
 40
-0.6
 41
-30.0
 62
     5
 63
     7
421
 16777215
 74
     1
 91
        4
 64
     7
 65
   257
 75
     1
175
     1
 42
1.0
 92
       10
 66
     7
 43
1.0
 76
     1
 77
     6
 78
     2
 67
     7
 79
     5
170
     0
171
     0
290
     0
174
     0
 93
        1
 44
0.0
173
     0
291
     1
 45
0.0
1001
ACAD
1000
AcDbSavedByObjectVersion
1070
     0
  0
VISUALSTYLE
  5
38
102
{ACAD_XDICTIONARY
360
3D2
102
}
102
{ACAD_REACTORS
330
2A
102
}
330
2A
100
AcDbVisualStyle
  2

 70
    14
 71
     2
 72
     2
 73
     0
 90
        0
 40
-0.6
 41
-30.0
 62
     5
 63
     7
421
 16777215
 74
     1
 91
        4
 64
     7
 65
   257
 75
     7
175
     7
 42
1.0
 92
        8
 66
     7
 43
1.0
 76
     1
 77
     6
 78
     2
 67
     7
 79
     5
170
     0
171
     0
290
     0
174
     0
 93
        1
 44
0.0
173
     0
291
     1
 45
0.0
1001
ACAD
1000
AcDbSavedByObjectVersion
1070
     0
  0
VISUALSTYLE
  5
3C
102
{ACAD_XDICTIONARY
360
3DA
102
}
102
{ACAD_REACTORS
330
2A
102
}
330
2A
100
AcDbVisualStyle
  2

 70
    21
 71
     2
 72
     2
 73
     0
 90
        0
 40
-0.6
 41
-30.0
 62
     5
 63
     7
421
 16777215
 74
     1
 91
        4
 64
     7
 65
   257
 75
     1
175
     1
 42
1.0
 92
        9
 66
     7
 43
1.0
 76
     1
 77
     6
 78
     2
 67
     7
 79
     5
170
     0
171
     0
290
     0
174
     0
 93
        1
 44
0.0
173
     0
291
     1
 45
0.0
1001
ACAD
1000
AcDbSavedByObjectVersion
1070
     0
  0
VISUALSTYLE
  5
33
102
{ACAD_XDICTIONARY
360
3C8
102
}
102
{ACAD_REACTORS
330
2A
102
}
330
2A
100
AcDbVisualStyle
  2

 70
     8
 71
     2
 72
     3
 73
     0
 90
        2
 40
-0.6
 41
30.0
 62
     5
 63
     7
421
 16777215
 74
     0
 91
        0
 64
     7
 65
   257
 75
     1
175
     1
 42
1.0
 92
        8
 66
   257
 43
1.0
 76
     1
 77
     6
 78
     2
 67
     7
 79
     3
170
     0
171
     0
290
     0
174
     0
 93
       13
 44
0.0
173
     0
291
     0
 45
0.0
1001
ACAD
1000
AcDbSavedByObjectVersion
1070
     0
  0
VISUALSTYLE
  5
42
102
{ACAD_XDICTIONARY
360
3E6
102
}
102
{ACAD_REACTORS
330
2A
102
}
330
2A
100
AcDbVisualStyle
  2

 70
    27
 71
     2
 72
     2
 73
     1
 90
        2
 40
-0.6
 41
30.0
 62
     5
 63
     7
421
 16777215
 74
     0
 91
        4
 64
     7
 65
   257
 75
     1
175
     1
 42
1.0
 92
        8
 66
   257
 43
1.0
 76
     1
 77
     6
 78
     2
 67
     8
425
  7895160
 79
     3
170
     0
171
     0
290
     0
174
     0
 93
        5
 44
0.0
173
     0
291
     0
 45
0.0
1001
ACAD
1000
AcDbSavedByObjectVersion
1070
     0
  0
VISUALSTYLE
  5
41
102
{ACAD_XDICTIONARY
360
3E4
102
}
102
{ACAD_REACTORS
330
2A
102
}
330
2A
100
AcDbVisualStyle
  2

 70
    26
 71
     2
 72
     2
 73
     1
 90
        2
 40
-0.6
 41
30.0
 62
     5
 63
     7
421
 16777215
 74
     1
 91
       10
 64
     7
 65
   257
 75
     2
175
     1
 42
1.0
 92
        8
 66
   257
 43
1.0
 76
     1
 77
     6
 78
     2
 67
     7
 79
     3
170
     0
171
     0
290
     0
174
     0
 93
        5
 44
0.0
173
     0
291
     0
 45
0.0
1001
ACAD
1000
AcDbSavedByObjectVersion
1070
     0
  0
VISUALSTYLE
  5
3E
102
{ACAD_XDICTIONARY
360
3DE
102
}
102
{ACAD_REACTORS
330
2A
102
}
330
2A
100
AcDbVisualStyle
  2

 70
    23
 71
     2
 72
     2
 73
     3
 90
        0
 40
-0.6
 41
-30.0
 62
     5
 63
     7
421
 16777215
 74
     2
 91
        2
 64
     7
 65
     7
 75
     1
175
     1
 42
40.0
 92
        8
 66
     7
 43
1.0
 76
     1
 77
     6
 78
     2
 67
     7
 79
     3
170
     0
171
     0
290
     0
174
     0
 93
        1
 44
0.0
173
     0
291
     0
 45
0.0
1001
ACAD
1000
AcDbSavedByObjectVersion
1070
     0
  0
VISUALSTYLE
  5
3F
102
{ACAD_XDICTIONARY
360
3E0
102
}
102
{ACAD_REACTORS
330
2A
102
}
330
2A
100
AcDbVisualStyle
  2

 70
    24
 71
     1
 72
     2
 73
     2
 90
        0
 40
-0.6
 41
-30.0
 62
     5
 63
     7
421
 16777215
 74
     2
 91
        2
 64
     7
 65
     7
 75
     1
175
     1
 42
40.0
 92
       11
 66
     7
 43
1.0
 76
     1
 77
     6
 78
     2
 67
     7
 79
     6
170
     0
171
     0
290
     0
174
     0
 93
        1
 44
0.0
173
     0
291
     0
 45
0.0
1001
ACAD
1000
AcDbSavedByObjectVersion
1070
     0
  0
VISUALSTYLE
  5
37
102
{ACAD_XDICTIONARY
360
3D0
102
}
102
{ACAD_REACTORS
330
2A
102
}
330
2A
100
AcDbVisualStyle
  2

 70
    13
 71
     2
 72
     2
 73
     0
 90
        0
 40
-0.6
 41
-30.0
 62
     5
 63
     7
421
 16777215
 74
     1
 91
        4
 64
     7
 65
   257
 75
     1
175
     1
 42
1.0
 92
       12
 66
     7
 43
1.0
 76
     1
 77
     6
 78
     2
 67
     7
 79
     5
170
     0
171
     0
290
     0
174
     0
 93
        1
 44
0.0
173
     0
291
     1
 45
0.0
1001
ACAD
1000
AcDbSavedByObjectVersion
1070
     0
  0
VISUALSTYLE
  5
30
102
{ACAD_XDICTIONARY
360
3C2
102
}
102
{ACAD_REACTORS
330
2A
102
}
330
2A
100
AcDbVisualStyle
  2

 70
     5
 71
     0
 72
     2
 73
     0
 90
        0
 40
-0.6
 41
-30.0
 62
     5
 63
     7
421
 16777215
 74
     1
 91
        4
 64
     7
 65
   257
 75
     1
175
     1
 42
1.0
 92
        0
 66
   257
 43
1.0
 76
     1
 77
     6
 78
     2
 67
     7
 79
     3
170
     0
171
     0
290
     0
174
     0
 93
        1
 44
0.0
173
     0
291
     0
 45
0.0
1001
ACAD
1000
AcDbSavedByObjectVersion
1070
     0
  0
VISUALSTYLE
  5
40
102
{ACAD_XDICTIONARY
360
3E2
102
}
102
{ACAD_REACTORS
330
2A
102
}
330
2A
100
AcDbVisualStyle
  2

 70
    25
 71
     2
 72
     2
 73
     1
 90
        1
 40
0.5
 41
-30.0
 62
     5
 63
     7
421
 16777215
 74
     1
 91
        0
 64
     7
 65
   257
 75
     1
175
     1
 42
1.0
 92
        8
 66
     7
 43
1.0
 76
     1
 77
     6
 78
     2
 67
     7
 79
     3
170
     0
171
     0
290
     0
174
     0
 93
       13
 44
0.0
173
     0
291
     0
 45
0.0
1001
ACAD
1000
AcDbSavedByObjectVersion
1070
     0
  0
DICTIONARYVAR
  5
303
102
{ACAD_REACTORS
330
302
102
}
330
302
100
DictionaryVariables
280
     0
  1
1:1
  0
DICTIONARYVAR
  5
344
102
{ACAD_REACTORS
330
302
102
}
330
302
100
DictionaryVariables
280
     0
  1
STANDARD
  0
DICTIONARYVAR
  5
343
102
{ACAD_REACTORS
330
302
102
}
330
302
100
DictionaryVariables
280
     0
  1
STANDARD
  0
DICTIONARYVAR
  5
3B2
102
{ACAD_REACTORS
330
302
102
}
330
302
100
DictionaryVariables
280
     0
  1
Metric50
  0
DICTIONARYVAR
  5
3B3
102
{ACAD_REACTORS
330
302
102
}
330
302
100
DictionaryVariables
280
     0
  1
Metric50
  0
DICTIONARYVAR
  5
304
102
{ACAD_REACTORS
330
302
102
}
330
302
100
DictionaryVariables
280
     0
  1
1
  0
DICTIONARYVAR
  5
3B4
102
{ACAD_REACTORS
330
302
102
}
330
302
100
DictionaryVariables
280
     0
  1
2
  0
DICTIONARY
  5
3EB
330
34B
100
AcDbDictionary
280
     1
281
     1
  3
ACAD_XREC_ROUNDTRIP
360
3EC
  0
DICTIONARY
  5
338
330
45
100
AcDbDictionary
280
     1
281
     1
  3
ACAD_XREC_ROUNDTRIP
360
339
  0
DICTIONARY
  5
336
330
44
100
AcDbDictionary
280
     1
281
     1
  3
ACAD_XREC_ROUNDTRIP
360
337
  0
DICTIONARY
  5
33A
330
46
100
AcDbDictionary
280
     1
281
     1
  3
ACAD_XREC_ROUNDTRIP
360
33B
  0
DICTIONARY
  5
3E9
330
34A
100
AcDbDictionary
280
     1
281
     1
  3
ACAD_XREC_ROUNDTRIP
360
3EA
  0
DICTIONARY
  5
33C
330
6A
100
AcDbDictionary
280
     1
281
     1
  3
ACAD_ROUNDTRIP_2008_TABLESTYLE_CELLSTYLEMAP
360
3B6
  3
ACAD_XREC_ROUNDTRIP
360
3E8
  0
DICTIONARY
  5
3C0
330
2F
100
AcDbDictionary
280
     1
281
     1
  3
ACAD_XREC_ROUNDTRIP
360
3C1
  0
DICTIONARY
  5
3C6
330
32
100
AcDbDictionary
280
     1
281
     1
  3
ACAD_XREC_ROUNDTRIP
360
3C7
  0
DICTIONARY
  5
3CE
330
36
100
AcDbDictionary
280
     1
281
     1
  3
ACAD_XREC_ROUNDTRIP
360
3CF
  0
DICTIONARY
  5
3D6
330
3A
100
AcDbDictionary
280
     1
281
     1
  3
ACAD_XREC_ROUNDTRIP
360
3D7
  0
DICTIONARY
  5
3CA
330
34
100
AcDbDictionary
280
     1
281
     1
  3
ACAD_XREC_ROUNDTRIP
360
3CB
  0
DICTIONARY
  5
3CC
330
35
100
AcDbDictionary
280
     1
281
     1
  3
ACAD_XREC_ROUNDTRIP
360
3CD
  0
DICTIONARY
  5
3DC
330
3D
100
AcDbDictionary
280
     1
281
     1
  3
ACAD_XREC_ROUNDTRIP
360
3DD
  0
DICTIONARY
  5
3D4
330
39
100
AcDbDictionary
280
     1
281
     1
  3
ACAD_XREC_ROUNDTRIP
360
3D5
  0
DICTIONARY
  5
3B8
330
2B
100
AcDbDictionary
280
     1
281
     1
  3
ACAD_XREC_ROUNDTRIP
360
3B9
  0
DICTIONARY
  5
3BA
330
2C
100
AcDbDictionary
280
     1
281
     1
  3
ACAD_XREC_ROUNDTRIP
360
3BB
  0
DICTIONARY
  5
3BC
330
2D
100
AcDbDictionary
280
     1
281
     1
  3
ACAD_XREC_ROUNDTRIP
360
3BD
  0
DICTIONARY
  5
3BE
330
2E
100
AcDbDictionary
280
     1
281
     1
  3
ACAD_XREC_ROUNDTRIP
360
3BF
  0
DICTIONARY
  5
3C4
330
31
100
AcDbDictionary
280
     1
281
     1
  3
ACAD_XREC_ROUNDTRIP
360
3C5
  0
DICTIONARY
  5
3D8
330
3B
100
AcDbDictionary
280
     1
281
     1
  3
ACAD_XREC_ROUNDTRIP
360
3D9
  0
DICTIONARY
  5
3D2
330
38
100
AcDbDictionary
280
     1
281
     1
  3
ACAD_XREC_ROUNDTRIP
360
3D3
  0
DICTIONARY
  5
3DA
330
3C
100
AcDbDictionary
280
     1
281
     1
  3
ACAD_XREC_ROUNDTRIP
360
3DB
  0
DICTIONARY
  5
3C8
330
33
100
AcDbDictionary
280
     1
281
     1
  3
ACAD_XREC_ROUNDTRIP
360
3C9
  0
DICTIONARY
  5
3E6
330
42
100
AcDbDictionary
280
     1
281
     1
  3
ACAD_XREC_ROUNDTRIP
360
3E7
  0
DICTIONARY
  5
3E4
330
41
100
AcDbDictionary
280
     1
281
     1
  3
ACAD_XREC_ROUNDTRIP
360
3E5
  0
DICTIONARY
  5
3DE
330
3E
100
AcDbDictionary
280
     1
281
     1
  3
ACAD_XREC_ROUNDTRIP
360
3DF
  0
DICTIONARY
  5
3E0
330
3F
100
AcDbDictionary
280
     1
281
     1
  3
ACAD_XREC_ROUNDTRIP
360
3E1
  0
DICTIONARY
  5
3D0
330
37
100
AcDbDictionary
280
     1
281
     1
  3
ACAD_XREC_ROUNDTRIP
360
3D1
  0
DICTIONARY
  5
3C2
330
30
100
AcDbDictionary
280
     1
281
     1
  3
ACAD_XREC_ROUNDTRIP
360
3C3
  0
DICTIONARY
  5
3E2
330
40
100
AcDbDictionary
280
     1
281
     1
  3
ACAD_XREC_ROUNDTRIP
360
3E3
  0
XRECORD
  5
3EC
102
{ACAD_REACTORS
330
3EB
102
}
330
3EB
100
AcDbXrecord
280
     1
102
DISPLAYNAME
  1
Metric50
102
FLAGS
 90
        0
  0
XRECORD
  5
339
102
{ACAD_REACTORS
330
338
102
}
330
338
100
AcDbXrecord
280
     1
102
MATERIAL
148
0.0
149
0.0
149
0.0
 93
        0
 94
      127
282
     0
 72
     1
 77
     1
171
     1
175
     1
179
     1
273
     0
  0
XRECORD
  5
337
102
{ACAD_REACTORS
330
336
102
}
330
336
100
AcDbXrecord
280
     1
102
MATERIAL
148
0.0
149
0.0
149
0.0
 93
        0
 94
      127
282
     0
 72
     1
 77
     1
171
     1
175
     1
179
     1
273
     0
  0
XRECORD
  5
33B
102
{ACAD_REACTORS
330
33A
102
}
330
33A
100
AcDbXrecord
280
     1
102
MATERIAL
148
0.0
149
0.0
149
0.0
 93
        0
 94
      127
282
     0
 72
     1
 77
     1
171
     1
175
     1
179
     1
273
     0
  0
XRECORD
  5
3EA
102
{ACAD_REACTORS
330
3E9
102
}
330
3E9
100
AcDbXrecord
280
     1
102
DISPLAYNAME
  1
Metric50
102
FLAGS
 90
        0
  0
CELLSTYLEMAP
  5
3B6
102
{ACAD_REACTORS
330
33C
102
}
330
33C
100
AcDbCellStyleMap
 90
        3
300
CELLSTYLE
  1
TABLEFORMAT_BEGIN
 90
        5
170
     1
 91
        0
 92
    32768
 62
   257
 93
        1
300
CONTENTFORMAT
  1
CONTENTFORMAT_BEGIN
 90
        0
 91
        0
 92
        4
 93
        0
300

 40
0.0
140
1.0
 94
        5
 62
     0
340
11
144
0.25
309
CONTENTFORMAT_END
171
     1
301
MARGIN
  1
CELLMARGIN_BEGIN
 40
0.06
 40
0.06
 40
0.06
 40
0.06
 40
0.18
 40
0.18
309
CELLMARGIN_END
 94
        6
 95
        1
302
GRIDFORMAT
  1
GRIDFORMAT_BEGIN
 90
        0
 91
        1
 62
     0
 92
       -2
340
14
 93
        0
 40
0.045
309
GRIDFORMAT_END
 95
        2
302
GRIDFORMAT
  1
GRIDFORMAT_BEGIN
 90
        0
 91
        1
 62
     0
 92
       -2
340
14
 93
        0
 40
0.045
309
GRIDFORMAT_END
 95
        4
302
GRIDFORMAT
  1
GRIDFORMAT_BEGIN
 90
        0
 91
        1
 62
     0
 92
       -2
340
14
 93
        0
 40
0.045
309
GRIDFORMAT_END
 95
        8
302
GRIDFORMAT
  1
GRIDFORMAT_BEGIN
 90
        0
 91
        1
 62
     0
 92
       -2
340
14
 93
        0
 40
0.045
309
GRIDFORMAT_END
 95
       16
302
GRIDFORMAT
  1
GRIDFORMAT_BEGIN
 90
        0
 91
        1
 62
     0
 92
       -2
340
14
 93
        0
 40
0.045
309
GRIDFORMAT_END
 95
       32
302
GRIDFORMAT
  1
GRIDFORMAT_BEGIN
 90
        0
 91
        1
 62
     0
 92
       -2
340
14
 93
        0
 40
0.045
309
GRIDFORMAT_END
309
TABLEFORMAT_END
  1
CELLSTYLE_BEGIN
 90
        1
 91
        1
300
_TITLE
309
CELLSTYLE_END
300
CELLSTYLE
  1
TABLEFORMAT_BEGIN
 90
        5
170
     1
 91
        0
 92
        0
 62
   257
 93
        1
300
CONTENTFORMAT
  1
CONTENTFORMAT_BEGIN
 90
        0
 91
        0
 92
        4
 93
        0
300

 40
0.0
140
1.0
 94
        5
 62
     0
340
11
144
0.18
309
CONTENTFORMAT_END
171
     1
301
MARGIN
  1
CELLMARGIN_BEGIN
 40
0.06
 40
0.06
 40
0.06
 40
0.06
 40
0.18
 40
0.18
309
CELLMARGIN_END
 94
        6
 95
        1
302
GRIDFORMAT
  1
GRIDFORMAT_BEGIN
 90
        0
 91
        1
 62
     0
 92
       -2
340
14
 93
        0
 40
0.045
309
GRIDFORMAT_END
 95
        2
302
GRIDFORMAT
  1
GRIDFORMAT_BEGIN
 90
        0
 91
        1
 62
     0
 92
       -2
340
14
 93
        0
 40
0.045
309
GRIDFORMAT_END
 95
        4
302
GRIDFORMAT
  1
GRIDFORMAT_BEGIN
 90
        0
 91
        1
 62
     0
 92
       -2
340
14
 93
        0
 40
0.045
309
GRIDFORMAT_END
 95
        8
302
GRIDFORMAT
  1
GRIDFORMAT_BEGIN
 90
        0
 91
        1
 62
     0
 92
       -2
340
14
 93
        0
 40
0.045
309
GRIDFORMAT_END
 95
       16
302
GRIDFORMAT
  1
GRIDFORMAT_BEGIN
 90
        0
 91
        1
 62
     0
 92
       -2
340
14
 93
        0
 40
0.045
309
GRIDFORMAT_END
 95
       32
302
GRIDFORMAT
  1
GRIDFORMAT_BEGIN
 90
        0
 91
        1
 62
     0
 92
       -2
340
14
 93
        0
 40
0.045
309
GRIDFORMAT_END
309
TABLEFORMAT_END
  1
CELLSTYLE_BEGIN
 90
        2
 91
        1
300
_HEADER
309
CELLSTYLE_END
300
CELLSTYLE
  1
TABLEFORMAT_BEGIN
 90
        5
170
     1
 91
        0
 92
        0
 62
   257
 93
        1
300
CONTENTFORMAT
  1
CONTENTFORMAT_BEGIN
 90
        0
 91
        0
 92
        4
 93
        0
300

 40
0.0
140
1.0
 94
        2
 62
     0
340
11
144
0.18
309
CONTENTFORMAT_END
171
     1
301
MARGIN
  1
CELLMARGIN_BEGIN
 40
0.06
 40
0.06
 40
0.06
 40
0.06
 40
0.18
 40
0.18
309
CELLMARGIN_END
 94
        6
 95
        1
302
GRIDFORMAT
  1
GRIDFORMAT_BEGIN
 90
        0
 91
        1
 62
     0
 92
       -2
340
14
 93
        0
 40
0.045
309
GRIDFORMAT_END
 95
        2
302
GRIDFORMAT
  1
GRIDFORMAT_BEGIN
 90
        0
 91
        1
 62
     0
 92
       -2
340
14
 93
        0
 40
0.045
309
GRIDFORMAT_END
 95
        4
302
GRIDFORMAT
  1
GRIDFORMAT_BEGIN
 90
        0
 91
        1
 62
     0
 92
       -2
340
14
 93
        0
 40
0.045
309
GRIDFORMAT_END
 95
        8
302
GRIDFORMAT
  1
GRIDFORMAT_BEGIN
 90
        0
 91
        1
 62
     0
 92
       -2
340
14
 93
        0
 40
0.045
309
GRIDFORMAT_END
 95
       16
302
GRIDFORMAT
  1
GRIDFORMAT_BEGIN
 90
        0
 91
        1
 62
     0
 92
       -2
340
14
 93
        0
 40
0.045
309
GRIDFORMAT_END
 95
       32
302
GRIDFORMAT
  1
GRIDFORMAT_BEGIN
 90
        0
 91
        1
 62
     0
 92
       -2
340
14
 93
        0
 40
0.045
309
GRIDFORMAT_END
309
TABLEFORMAT_END
  1
CELLSTYLE_BEGIN
 90
        3
 91
        2
300
_DATA
309
CELLSTYLE_END
  0
XRECORD
  5
3E8
102
{ACAD_REACTORS
330
33C
102
}
330
33C
100
AcDbXrecord
280
     1
102
ACAD_ROUNDTRIP_PRE2007_TABLESTYLE
 90
        4
 91
        0
  1

 92
        4
 93
        0
  2

 94
        4
 95
        0
  3

  0
XRECORD
  5
3C1
102
{ACAD_REACTORS
330
3C0
102
}
330
3C0
100
AcDbXrecord
280
     1
102
RTVSPost2010Prop28
280
     1
102
RTVSPost2010PropOp28
 70
     1
102
RTVSPost2010Prop29
280
     1
102
RTVSPost2010PropOp29
 70
     1
102
RTVSPost2010Prop30
280
     0
102
RTVSPost2010PropOp30
 70
     1
102
RTVSPost2010Prop31
280
     0
102
RTVSPost2010PropOp31
 70
     1
102
RTVSPost2010Prop32
280
     0
102
RTVSPost2010PropOp32
 70
     1
102
RTVSPost2010Prop33
280
     0
102
RTVSPost2010PropOp33
 70
     1
102
RTVSPost2010Prop34
280
     0
102
RTVSPost2010PropOp34
 70
     1
102
RTVSPost2010Prop35
280
     0
102
RTVSPost2010PropOp35
 70
     1
102
RTVSPost2010Prop36
280
     0
102
RTVSPost2010PropOp36
 70
     1
102
RTVSPost2010Prop37
 90
       50
102
RTVSPost2010PropOp37
 70
     1
102
RTVSPost2010Prop38
140
0.0
102
RTVSPost2010PropOp38
 70
     1
102
RTVSPost2010Prop39
140
1.0
102
RTVSPost2010PropOp39
 70
     1
102
RTVSPost2010Prop40
 90
        0
102
RTVSPost2010PropOp40
 70
     1
102
RTVSPost2010Prop41ColorIndex
 90
       18
102
RTVSPost2010Prop41ColorRGB
 90
        0
102
RTVSPost2010PropOp41
 70
     1
102
RTVSPost2010Prop42
 90
       50
102
RTVSPost2010PropOp42
 70
     1
102
RTVSPost2010Prop43
 90
        3
102
RTVSPost2010PropOp43
 70
     1
102
RTVSPost2010Prop44ColorIndex
 90
        5
102
RTVSPost2010Prop44ColorRGB
 90
      255
102
RTVSPost2010PropOp44
 70
     1
102
RTVSPost2010Prop45
280
     0
102
RTVSPost2010PropOp45
 70
     1
102
RTVSPost2010Prop46
 90
       50
102
RTVSPost2010PropOp46
 70
     1
102
RTVSPost2010Prop47
 90
       50
102
RTVSPost2010PropOp47
 70
     1
102
RTVSPost2010Prop48
 90
       50
102
RTVSPost2010PropOp48
 70
     1
102
RTVSPost2010Prop49
280
     0
102
RTVSPost2010PropOp49
 70
     1
102
RTVSPost2010Prop50
 90
       50
102
RTVSPost2010PropOp50
 70
     1
102
RTVSPost2010Prop51ColorIndex
 90
      256
102
RTVSPost2010Prop51ColorRGB
 90
-16777216
102
RTVSPost2010PropOp51
 70
     0
102
RTVSPost2010Prop52
140
1.0
102
RTVSPost2010PropOp52
 70
     0
102
RTVSPost2010Prop53
 90
        2
102
RTVSPost2010PropOp53
 70
     1
102
RTVSPost2010Prop54
  1
strokes_ogs.tif
102
RTVSPost2010PropOp54
 70
     1
102
RTVSPost2010Prop55
280
     0
102
RTVSPost2010PropOp55
 70
     1
102
RTVSPost2010Prop56
140
1.0
102
RTVSPost2010PropOp56
 70
     1
102
RTVSPost2010Prop57
140
1.0
102
RTVSPost2010PropOp57
 70
     1
102
RTVSPropertyOp0
 70
     1
102
RTVSPropertyOp1
 70
     1
102
RTVSPropertyOp2
 70
     1
102
RTVSPropertyOp3
 70
     1
102
RTVSPropertyOp4
 70
     1
102
RTVSPropertyOp5
 70
     1
102
RTVSPropertyOp6
 70
     1
102
RTVSPropertyOp7
 70
     1
102
RTVSPropertyOp8
 70
     1
102
RTVSPropertyOp9
 70
     1
102
RTVSPropertyOp10
 70
     1
102
RTVSPropertyOp11
 70
     1
102
RTVSPropertyOp12
 70
     1
102
RTVSPropertyOp13
 70
     1
102
RTVSPropertyOp14
 70
     1
102
RTVSPropertyOp15
 70
     1
102
RTVSPropertyOp16
 70
     1
102
RTVSPropertyOp17
 70
     1
102
RTVSPropertyOp18
 70
     1
102
RTVSPropertyOp19
 70
     1
102
RTVSPropertyOp20
 70
     1
102
RTVSPropertyOp21
 70
     1
102
RTVSPropertyOp22
 70
     1
102
RTVSPropertyOp23
 70
     1
102
RTVSPropertyOp24
 70
     1
102
RTVSPropertyOp25
 70
     1
102
RTVSPropertyOp26
 70
     1
102
RTVSPropertyOp27
 70
     1
102
RTVSPropertyOp28
 70
     1
102
RTVSPropertyOp29
 70
     1
102
RTVSPropertyOp30
 70
     1
102
RTVSPropertyOp31
 70
     1
102
RTVSPropertyOp32
 70
     1
102
RTVSPropertyOp33
 70
     1
102
RTVSPropertyOp34
 70
     1
102
RTVSPropertyOp35
 70
     1
102
RTVSPropertyOp36
 70
     1
102
RTVSPropertyOp37
 70
     1
102
RTVSPropertyOp38
 70
     1
102
RTVSPropertyOp39
 70
     1
102
RTVSPropertyOp40
 70
     1
102
RTVSPropertyOp41
 70
     1
102
RTVSPropertyOp42
 70
     1
102
RTVSPropertyOp43
 70
     1
102
RTVSPropertyOp44
 70
     1
102
RTVSPropertyOp45
 70
     1
102
RTVSPropertyOp46
 70
     1
102
RTVSPropertyOp47
 70
     1
102
RTVSPropertyOp48
 70
     1
102
RTVSPropertyOp49
 70
     1
102
RTVSPropertyOp50
 70
     1
102
RTVSPropertyOp51
 70
     0
102
RTVSPropertyOp52
 70
     0
102
RTVSPropertyOp53
 70
     1
102
RTVSPropertyOp54
 70
     1
102
RTVSPropertyOp55
 70
     1
102
RTVSPropertyOp56
 70
     1
102
RTVSPropertyOp57
 70
     1
102
RTVSPropertyOp58
 70
     1
102
RTVSPropertyOp59
 70
     1
102
RTVSPropertyOp60
 70
     1
102
RTVSPropertyOp61
 70
     1
102
RTVSPropertyOp62
 70
     1
  0
XRECORD
  5
3C7
102
{ACAD_REACTORS
330
3C6
102
}
330
3C6
100
AcDbXrecord
280
     1
102
RTVSPost2010Prop28
280
     0
102
RTVSPost2010PropOp28
 70
     1
102
RTVSPost2010Prop29
280
     1
102
RTVSPost2010PropOp29
 70
     1
102
RTVSPost2010Prop30
280
     1
102
RTVSPost2010PropOp30
 70
     1
102
RTVSPost2010Prop31
280
     0
102
RTVSPost2010PropOp31
 70
     1
102
RTVSPost2010Prop32
280
     0
102
RTVSPost2010PropOp32
 70
     1
102
RTVSPost2010Prop33
280
     0
102
RTVSPost2010PropOp33
 70
     1
102
RTVSPost2010Prop34
280
     0
102
RTVSPost2010PropOp34
 70
     1
102
RTVSPost2010Prop35
280
     0
102
RTVSPost2010PropOp35
 70
     1
102
RTVSPost2010Prop36
280
     0
102
RTVSPost2010PropOp36
 70
     1
102
RTVSPost2010Prop37
 90
       50
102
RTVSPost2010PropOp37
 70
     1
102
RTVSPost2010Prop38
140
0.0
102
RTVSPost2010PropOp38
 70
     1
102
RTVSPost2010Prop39
140
1.0
102
RTVSPost2010PropOp39
 70
     1
102
RTVSPost2010Prop40
 90
        0
102
RTVSPost2010PropOp40
 70
     1
102
RTVSPost2010Prop41ColorIndex
 90
       18
102
RTVSPost2010Prop41ColorRGB
 90
        0
102
RTVSPost2010PropOp41
 70
     1
102
RTVSPost2010Prop42
 90
       50
102
RTVSPost2010PropOp42
 70
     1
102
RTVSPost2010Prop43
 90
        3
102
RTVSPost2010PropOp43
 70
     1
102
RTVSPost2010Prop44ColorIndex
 90
        5
102
RTVSPost2010Prop44ColorRGB
 90
      255
102
RTVSPost2010PropOp44
 70
     1
102
RTVSPost2010Prop45
280
     0
102
RTVSPost2010PropOp45
 70
     1
102
RTVSPost2010Prop46
 90
       50
102
RTVSPost2010PropOp46
 70
     1
102
RTVSPost2010Prop47
 90
       50
102
RTVSPost2010PropOp47
 70
     1
102
RTVSPost2010Prop48
 90
       50
102
RTVSPost2010PropOp48
 70
     1
102
RTVSPost2010Prop49
280
     0
102
RTVSPost2010PropOp49
 70
     1
102
RTVSPost2010Prop50
 90
       50
102
RTVSPost2010PropOp50
 70
     1
102
RTVSPost2010Prop51ColorIndex
 90
      256
102
RTVSPost2010Prop51ColorRGB
 90
-16777216
102
RTVSPost2010PropOp51
 70
     0
102
RTVSPost2010Prop52
140
1.0
102
RTVSPost2010PropOp52
 70
     0
102
RTVSPost2010Prop53
 90
        2
102
RTVSPost2010PropOp53
 70
     1
102
RTVSPost2010Prop54
  1
strokes_ogs.tif
102
RTVSPost2010PropOp54
 70
     1
102
RTVSPost2010Prop55
280
     0
102
RTVSPost2010PropOp55
 70
     1
102
RTVSPost2010Prop56
140
1.0
102
RTVSPost2010PropOp56
 70
     1
102
RTVSPost2010Prop57
140
1.0
102
RTVSPost2010PropOp57
 70
     1
102
RTVSPropertyOp0
 70
     1
102
RTVSPropertyOp1
 70
     1
102
RTVSPropertyOp2
 70
     1
102
RTVSPropertyOp3
 70
     1
102
RTVSPropertyOp4
 70
     1
102
RTVSPropertyOp5
 70
     1
102
RTVSPropertyOp6
 70
     1
102
RTVSPropertyOp7
 70
     1
102
RTVSPropertyOp8
 70
     1
102
RTVSPropertyOp9
 70
     1
102
RTVSPropertyOp10
 70
     1
102
RTVSPropertyOp11
 70
     1
102
RTVSPropertyOp12
 70
     1
102
RTVSPropertyOp13
 70
     1
102
RTVSPropertyOp14
 70
     1
102
RTVSPropertyOp15
 70
     1
102
RTVSPropertyOp16
 70
     1
102
RTVSPropertyOp17
 70
     1
102
RTVSPropertyOp18
 70
     1
102
RTVSPropertyOp19
 70
     1
102
RTVSPropertyOp20
 70
     1
102
RTVSPropertyOp21
 70
     1
102
RTVSPropertyOp22
 70
     1
102
RTVSPropertyOp23
 70
     1
102
RTVSPropertyOp24
 70
     1
102
RTVSPropertyOp25
 70
     1
102
RTVSPropertyOp26
 70
     1
102
RTVSPropertyOp27
 70
     1
102
RTVSPropertyOp28
 70
     1
102
RTVSPropertyOp29
 70
     1
102
RTVSPropertyOp30
 70
     1
102
RTVSPropertyOp31
 70
     1
102
RTVSPropertyOp32
 70
     1
102
RTVSPropertyOp33
 70
     1
102
RTVSPropertyOp34
 70
     1
102
RTVSPropertyOp35
 70
     1
102
RTVSPropertyOp36
 70
     1
102
RTVSPropertyOp37
 70
     1
102
RTVSPropertyOp38
 70
     1
102
RTVSPropertyOp39
 70
     1
102
RTVSPropertyOp40
 70
     1
102
RTVSPropertyOp41
 70
     1
102
RTVSPropertyOp42
 70
     1
102
RTVSPropertyOp43
 70
     1
102
RTVSPropertyOp44
 70
     1
102
RTVSPropertyOp45
 70
     1
102
RTVSPropertyOp46
 70
     1
102
RTVSPropertyOp47
 70
     1
102
RTVSPropertyOp48
 70
     1
102
RTVSPropertyOp49
 70
     1
102
RTVSPropertyOp50
 70
     1
102
RTVSPropertyOp51
 70
     0
102
RTVSPropertyOp52
 70
     0
102
RTVSPropertyOp53
 70
     1
102
RTVSPropertyOp54
 70
     1
102
RTVSPropertyOp55
 70
     1
102
RTVSPropertyOp56
 70
     1
102
RTVSPropertyOp57
 70
     1
102
RTVSPropertyOp58
 70
     1
102
RTVSPropertyOp59
 70
     1
102
RTVSPropertyOp60
 70
     1
102
RTVSPropertyOp61
 70
     1
102
RTVSPropertyOp62
 70
     1
  0
XRECORD
  5
3CF
102
{ACAD_REACTORS
330
3CE
102
}
330
3CE
100
AcDbXrecord
280
     1
102
RTVSPost2010Prop28
280
     0
102
RTVSPost2010PropOp28
 70
     1
102
RTVSPost2010Prop29
280
     1
102
RTVSPost2010PropOp29
 70
     1
102
RTVSPost2010Prop30
280
     1
102
RTVSPost2010PropOp30
 70
     1
102
RTVSPost2010Prop31
280
     0
102
RTVSPost2010PropOp31
 70
     1
102
RTVSPost2010Prop32
280
     0
102
RTVSPost2010PropOp32
 70
     1
102
RTVSPost2010Prop33
280
     0
102
RTVSPost2010PropOp33
 70
     1
102
RTVSPost2010Prop34
280
     0
102
RTVSPost2010PropOp34
 70
     1
102
RTVSPost2010Prop35
280
     0
102
RTVSPost2010PropOp35
 70
     1
102
RTVSPost2010Prop36
280
     0
102
RTVSPost2010PropOp36
 70
     1
102
RTVSPost2010Prop37
 90
       50
102
RTVSPost2010PropOp37
 70
     1
102
RTVSPost2010Prop38
140
0.0
102
RTVSPost2010PropOp38
 70
     1
102
RTVSPost2010Prop39
140
1.0
102
RTVSPost2010PropOp39
 70
     1
102
RTVSPost2010Prop40
 90
        0
102
RTVSPost2010PropOp40
 70
     1
102
RTVSPost2010Prop41ColorIndex
 90
       18
102
RTVSPost2010Prop41ColorRGB
 90
        0
102
RTVSPost2010PropOp41
 70
     1
102
RTVSPost2010Prop42
 90
       50
102
RTVSPost2010PropOp42
 70
     1
102
RTVSPost2010Prop43
 90
        3
102
RTVSPost2010PropOp43
 70
     1
102
RTVSPost2010Prop44ColorIndex
 90
        5
102
RTVSPost2010Prop44ColorRGB
 90
      255
102
RTVSPost2010PropOp44
 70
     1
102
RTVSPost2010Prop45
280
     0
102
RTVSPost2010PropOp45
 70
     1
102
RTVSPost2010Prop46
 90
       50
102
RTVSPost2010PropOp46
 70
     1
102
RTVSPost2010Prop47
 90
       50
102
RTVSPost2010PropOp47
 70
     1
102
RTVSPost2010Prop48
 90
       50
102
RTVSPost2010PropOp48
 70
     1
102
RTVSPost2010Prop49
280
     0
102
RTVSPost2010PropOp49
 70
     1
102
RTVSPost2010Prop50
 90
       50
102
RTVSPost2010PropOp50
 70
     1
102
RTVSPost2010Prop51ColorIndex
 90
      256
102
RTVSPost2010Prop51ColorRGB
 90
-16777216
102
RTVSPost2010PropOp51
 70
     0
102
RTVSPost2010Prop52
140
1.0
102
RTVSPost2010PropOp52
 70
     0
102
RTVSPost2010Prop53
 90
        2
102
RTVSPost2010PropOp53
 70
     1
102
RTVSPost2010Prop54
  1
strokes_ogs.tif
102
RTVSPost2010PropOp54
 70
     1
102
RTVSPost2010Prop55
280
     0
102
RTVSPost2010PropOp55
 70
     1
102
RTVSPost2010Prop56
140
1.0
102
RTVSPost2010PropOp56
 70
     1
102
RTVSPost2010Prop57
140
1.0
102
RTVSPost2010PropOp57
 70
     1
102
RTVSPropertyOp0
 70
     1
102
RTVSPropertyOp1
 70
     1
102
RTVSPropertyOp2
 70
     1
102
RTVSPropertyOp3
 70
     1
102
RTVSPropertyOp4
 70
     1
102
RTVSPropertyOp5
 70
     1
102
RTVSPropertyOp6
 70
     1
102
RTVSPropertyOp7
 70
     1
102
RTVSPropertyOp8
 70
     1
102
RTVSPropertyOp9
 70
     1
102
RTVSPropertyOp10
 70
     1
102
RTVSPropertyOp11
 70
     1
102
RTVSPropertyOp12
 70
     1
102
RTVSPropertyOp13
 70
     1
102
RTVSPropertyOp14
 70
     1
102
RTVSPropertyOp15
 70
     1
102
RTVSPropertyOp16
 70
     1
102
RTVSPropertyOp17
 70
     1
102
RTVSPropertyOp18
 70
     1
102
RTVSPropertyOp19
 70
     1
102
RTVSPropertyOp20
 70
     1
102
RTVSPropertyOp21
 70
     1
102
RTVSPropertyOp22
 70
     1
102
RTVSPropertyOp23
 70
     1
102
RTVSPropertyOp24
 70
     1
102
RTVSPropertyOp25
 70
     1
102
RTVSPropertyOp26
 70
     1
102
RTVSPropertyOp27
 70
     1
102
RTVSPropertyOp28
 70
     1
102
RTVSPropertyOp29
 70
     1
102
RTVSPropertyOp30
 70
     1
102
RTVSPropertyOp31
 70
     1
102
RTVSPropertyOp32
 70
     1
102
RTVSPropertyOp33
 70
     1
102
RTVSPropertyOp34
 70
     1
102
RTVSPropertyOp35
 70
     1
102
RTVSPropertyOp36
 70
     1
102
RTVSPropertyOp37
 70
     1
102
RTVSPropertyOp38
 70
     1
102
RTVSPropertyOp39
 70
     1
102
RTVSPropertyOp40
 70
     1
102
RTVSPropertyOp41
 70
     1
102
RTVSPropertyOp42
 70
     1
102
RTVSPropertyOp43
 70
     1
102
RTVSPropertyOp44
 70
     1
102
RTVSPropertyOp45
 70
     1
102
RTVSPropertyOp46
 70
     1
102
RTVSPropertyOp47
 70
     1
102
RTVSPropertyOp48
 70
     1
102
RTVSPropertyOp49
 70
     1
102
RTVSPropertyOp50
 70
     1
102
RTVSPropertyOp51
 70
     0
102
RTVSPropertyOp52
 70
     0
102
RTVSPropertyOp53
 70
     1
102
RTVSPropertyOp54
 70
     1
102
RTVSPropertyOp55
 70
     1
102
RTVSPropertyOp56
 70
     1
102
RTVSPropertyOp57
 70
     1
102
RTVSPropertyOp58
 70
     1
102
RTVSPropertyOp59
 70
     1
102
RTVSPropertyOp60
 70
     1
102
RTVSPropertyOp61
 70
     1
102
RTVSPropertyOp62
 70
     1
  0
XRECORD
  5
3D7
102
{ACAD_REACTORS
330
3D6
102
}
330
3D6
100
AcDbXrecord
280
     1
102
RTVSPost2010Prop28
280
     0
102
RTVSPost2010PropOp28
 70
     1
102
RTVSPost2010Prop29
280
     1
102
RTVSPost2010PropOp29
 70
     1
102
RTVSPost2010Prop30
280
     1
102
RTVSPost2010PropOp30
 70
     1
102
RTVSPost2010Prop31
280
     0
102
RTVSPost2010PropOp31
 70
     1
102
RTVSPost2010Prop32
280
     0
102
RTVSPost2010PropOp32
 70
     1
102
RTVSPost2010Prop33
280
     0
102
RTVSPost2010PropOp33
 70
     1
102
RTVSPost2010Prop34
280
     0
102
RTVSPost2010PropOp34
 70
     1
102
RTVSPost2010Prop35
280
     0
102
RTVSPost2010PropOp35
 70
     1
102
RTVSPost2010Prop36
280
     0
102
RTVSPost2010PropOp36
 70
     1
102
RTVSPost2010Prop37
 90
       50
102
RTVSPost2010PropOp37
 70
     1
102
RTVSPost2010Prop38
140
0.0
102
RTVSPost2010PropOp38
 70
     1
102
RTVSPost2010Prop39
140
1.0
102
RTVSPost2010PropOp39
 70
     1
102
RTVSPost2010Prop40
 90
        0
102
RTVSPost2010PropOp40
 70
     1
102
RTVSPost2010Prop41ColorIndex
 90
       18
102
RTVSPost2010Prop41ColorRGB
 90
        0
102
RTVSPost2010PropOp41
 70
     1
102
RTVSPost2010Prop42
 90
       50
102
RTVSPost2010PropOp42
 70
     1
102
RTVSPost2010Prop43
 90
        3
102
RTVSPost2010PropOp43
 70
     1
102
RTVSPost2010Prop44ColorIndex
 90
        5
102
RTVSPost2010Prop44ColorRGB
 90
      255
102
RTVSPost2010PropOp44
 70
     1
102
RTVSPost2010Prop45
280
     0
102
RTVSPost2010PropOp45
 70
     1
102
RTVSPost2010Prop46
 90
       50
102
RTVSPost2010PropOp46
 70
     1
102
RTVSPost2010Prop47
 90
       50
102
RTVSPost2010PropOp47
 70
     1
102
RTVSPost2010Prop48
 90
       50
102
RTVSPost2010PropOp48
 70
     1
102
RTVSPost2010Prop49
280
     0
102
RTVSPost2010PropOp49
 70
     1
102
RTVSPost2010Prop50
 90
       50
102
RTVSPost2010PropOp50
 70
     1
102
RTVSPost2010Prop51ColorIndex
 90
      256
102
RTVSPost2010Prop51ColorRGB
 90
-16777216
102
RTVSPost2010PropOp51
 70
     0
102
RTVSPost2010Prop52
140
1.0
102
RTVSPost2010PropOp52
 70
     0
102
RTVSPost2010Prop53
 90
        2
102
RTVSPost2010PropOp53
 70
     1
102
RTVSPost2010Prop54
  1
strokes_ogs.tif
102
RTVSPost2010PropOp54
 70
     1
102
RTVSPost2010Prop55
280
     0
102
RTVSPost2010PropOp55
 70
     1
102
RTVSPost2010Prop56
140
1.0
102
RTVSPost2010PropOp56
 70
     1
102
RTVSPost2010Prop57
140
1.0
102
RTVSPost2010PropOp57
 70
     1
102
RTVSPropertyOp0
 70
     1
102
RTVSPropertyOp1
 70
     1
102
RTVSPropertyOp2
 70
     1
102
RTVSPropertyOp3
 70
     1
102
RTVSPropertyOp4
 70
     1
102
RTVSPropertyOp5
 70
     1
102
RTVSPropertyOp6
 70
     1
102
RTVSPropertyOp7
 70
     1
102
RTVSPropertyOp8
 70
     1
102
RTVSPropertyOp9
 70
     1
102
RTVSPropertyOp10
 70
     1
102
RTVSPropertyOp11
 70
     1
102
RTVSPropertyOp12
 70
     1
102
RTVSPropertyOp13
 70
     1
102
RTVSPropertyOp14
 70
     1
102
RTVSPropertyOp15
 70
     1
102
RTVSPropertyOp16
 70
     1
102
RTVSPropertyOp17
 70
     1
102
RTVSPropertyOp18
 70
     1
102
RTVSPropertyOp19
 70
     1
102
RTVSPropertyOp20
 70
     1
102
RTVSPropertyOp21
 70
     1
102
RTVSPropertyOp22
 70
     1
102
RTVSPropertyOp23
 70
     1
102
RTVSPropertyOp24
 70
     1
102
RTVSPropertyOp25
 70
     1
102
RTVSPropertyOp26
 70
     1
102
RTVSPropertyOp27
 70
     1
102
RTVSPropertyOp28
 70
     1
102
RTVSPropertyOp29
 70
     1
102
RTVSPropertyOp30
 70
     1
102
RTVSPropertyOp31
 70
     1
102
RTVSPropertyOp32
 70
     1
102
RTVSPropertyOp33
 70
     1
102
RTVSPropertyOp34
 70
     1
102
RTVSPropertyOp35
 70
     1
102
RTVSPropertyOp36
 70
     1
102
RTVSPropertyOp37
 70
     1
102
RTVSPropertyOp38
 70
     1
102
RTVSPropertyOp39
 70
     1
102
RTVSPropertyOp40
 70
     1
102
RTVSPropertyOp41
 70
     1
102
RTVSPropertyOp42
 70
     1
102
RTVSPropertyOp43
 70
     1
102
RTVSPropertyOp44
 70
     1
102
RTVSPropertyOp45
 70
     1
102
RTVSPropertyOp46
 70
     1
102
RTVSPropertyOp47
 70
     1
102
RTVSPropertyOp48
 70
     1
102
RTVSPropertyOp49
 70
     1
102
RTVSPropertyOp50
 70
     1
102
RTVSPropertyOp51
 70
     0
102
RTVSPropertyOp52
 70
     0
102
RTVSPropertyOp53
 70
     1
102
RTVSPropertyOp54
 70
     1
102
RTVSPropertyOp55
 70
     1
102
RTVSPropertyOp56
 70
     1
102
RTVSPropertyOp57
 70
     1
102
RTVSPropertyOp58
 70
     1
102
RTVSPropertyOp59
 70
     1
102
RTVSPropertyOp60
 70
     1
102
RTVSPropertyOp61
 70
     1
102
RTVSPropertyOp62
 70
     1
  0
XRECORD
  5
3CB
102
{ACAD_REACTORS
330
3CA
102
}
330
3CA
100
AcDbXrecord
280
     1
102
RTVSPost2010Prop28
280
     0
102
RTVSPost2010PropOp28
 70
     1
102
RTVSPost2010Prop29
280
     1
102
RTVSPost2010PropOp29
 70
     1
102
RTVSPost2010Prop30
280
     1
102
RTVSPost2010PropOp30
 70
     1
102
RTVSPost2010Prop31
280
     0
102
RTVSPost2010PropOp31
 70
     1
102
RTVSPost2010Prop32
280
     0
102
RTVSPost2010PropOp32
 70
     1
102
RTVSPost2010Prop33
280
     0
102
RTVSPost2010PropOp33
 70
     1
102
RTVSPost2010Prop34
280
     0
102
RTVSPost2010PropOp34
 70
     1
102
RTVSPost2010Prop35
280
     0
102
RTVSPost2010PropOp35
 70
     1
102
RTVSPost2010Prop36
280
     0
102
RTVSPost2010PropOp36
 70
     1
102
RTVSPost2010Prop37
 90
       50
102
RTVSPost2010PropOp37
 70
     1
102
RTVSPost2010Prop38
140
0.0
102
RTVSPost2010PropOp38
 70
     1
102
RTVSPost2010Prop39
140
1.0
102
RTVSPost2010PropOp39
 70
     1
102
RTVSPost2010Prop40
 90
        0
102
RTVSPost2010PropOp40
 70
     1
102
RTVSPost2010Prop41ColorIndex
 90
       18
102
RTVSPost2010Prop41ColorRGB
 90
        0
102
RTVSPost2010PropOp41
 70
     1
102
RTVSPost2010Prop42
 90
       50
102
RTVSPost2010PropOp42
 70
     1
102
RTVSPost2010Prop43
 90
        3
102
RTVSPost2010PropOp43
 70
     1
102
RTVSPost2010Prop44ColorIndex
 90
        5
102
RTVSPost2010Prop44ColorRGB
 90
      255
102
RTVSPost2010PropOp44
 70
     1
102
RTVSPost2010Prop45
280
     0
102
RTVSPost2010PropOp45
 70
     1
102
RTVSPost2010Prop46
 90
       50
102
RTVSPost2010PropOp46
 70
     1
102
RTVSPost2010Prop47
 90
       50
102
RTVSPost2010PropOp47
 70
     1
102
RTVSPost2010Prop48
 90
       50
102
RTVSPost2010PropOp48
 70
     1
102
RTVSPost2010Prop49
280
     0
102
RTVSPost2010PropOp49
 70
     1
102
RTVSPost2010Prop50
 90
       50
102
RTVSPost2010PropOp50
 70
     1
102
RTVSPost2010Prop51ColorIndex
 90
      256
102
RTVSPost2010Prop51ColorRGB
 90
-16777216
102
RTVSPost2010PropOp51
 70
     0
102
RTVSPost2010Prop52
140
1.0
102
RTVSPost2010PropOp52
 70
     0
102
RTVSPost2010Prop53
 90
        2
102
RTVSPost2010PropOp53
 70
     1
102
RTVSPost2010Prop54
  1
strokes_ogs.tif
102
RTVSPost2010PropOp54
 70
     1
102
RTVSPost2010Prop55
280
     0
102
RTVSPost2010PropOp55
 70
     1
102
RTVSPost2010Prop56
140
1.0
102
RTVSPost2010PropOp56
 70
     1
102
RTVSPost2010Prop57
140
1.0
102
RTVSPost2010PropOp57
 70
     1
102
RTVSPropertyOp0
 70
     1
102
RTVSPropertyOp1
 70
     1
102
RTVSPropertyOp2
 70
     1
102
RTVSPropertyOp3
 70
     1
102
RTVSPropertyOp4
 70
     1
102
RTVSPropertyOp5
 70
     1
102
RTVSPropertyOp6
 70
     1
102
RTVSPropertyOp7
 70
     1
102
RTVSPropertyOp8
 70
     1
102
RTVSPropertyOp9
 70
     1
102
RTVSPropertyOp10
 70
     1
102
RTVSPropertyOp11
 70
     1
102
RTVSPropertyOp12
 70
     1
102
RTVSPropertyOp13
 70
     1
102
RTVSPropertyOp14
 70
     1
102
RTVSPropertyOp15
 70
     1
102
RTVSPropertyOp16
 70
     1
102
RTVSPropertyOp17
 70
     1
102
RTVSPropertyOp18
 70
     1
102
RTVSPropertyOp19
 70
     1
102
RTVSPropertyOp20
 70
     1
102
RTVSPropertyOp21
 70
     1
102
RTVSPropertyOp22
 70
     1
102
RTVSPropertyOp23
 70
     1
102
RTVSPropertyOp24
 70
     1
102
RTVSPropertyOp25
 70
     1
102
RTVSPropertyOp26
 70
     1
102
RTVSPropertyOp27
 70
     1
102
RTVSPropertyOp28
 70
     1
102
RTVSPropertyOp29
 70
     1
102
RTVSPropertyOp30
 70
     1
102
RTVSPropertyOp31
 70
     1
102
RTVSPropertyOp32
 70
     1
102
RTVSPropertyOp33
 70
     1
102
RTVSPropertyOp34
 70
     1
102
RTVSPropertyOp35
 70
     1
102
RTVSPropertyOp36
 70
     1
102
RTVSPropertyOp37
 70
     1
102
RTVSPropertyOp38
 70
     1
102
RTVSPropertyOp39
 70
     1
102
RTVSPropertyOp40
 70
     1
102
RTVSPropertyOp41
 70
     1
102
RTVSPropertyOp42
 70
     1
102
RTVSPropertyOp43
 70
     1
102
RTVSPropertyOp44
 70
     1
102
RTVSPropertyOp45
 70
     1
102
RTVSPropertyOp46
 70
     1
102
RTVSPropertyOp47
 70
     1
102
RTVSPropertyOp48
 70
     1
102
RTVSPropertyOp49
 70
     1
102
RTVSPropertyOp50
 70
     1
102
RTVSPropertyOp51
 70
     0
102
RTVSPropertyOp52
 70
     0
102
RTVSPropertyOp53
 70
     1
102
RTVSPropertyOp54
 70
     1
102
RTVSPropertyOp55
 70
     1
102
RTVSPropertyOp56
 70
     1
102
RTVSPropertyOp57
 70
     1
102
RTVSPropertyOp58
 70
     1
102
RTVSPropertyOp59
 70
     1
102
RTVSPropertyOp60
 70
     1
102
RTVSPropertyOp61
 70
     1
102
RTVSPropertyOp62
 70
     1
  0
XRECORD
  5
3CD
102
{ACAD_REACTORS
330
3CC
102
}
330
3CC
100
AcDbXrecord
280
     1
102
RTVSPost2010Prop28
280
     0
102
RTVSPost2010PropOp28
 70
     1
102
RTVSPost2010Prop29
280
     1
102
RTVSPost2010PropOp29
 70
     1
102
RTVSPost2010Prop30
280
     1
102
RTVSPost2010PropOp30
 70
     1
102
RTVSPost2010Prop31
280
     0
102
RTVSPost2010PropOp31
 70
     1
102
RTVSPost2010Prop32
280
     0
102
RTVSPost2010PropOp32
 70
     1
102
RTVSPost2010Prop33
280
     0
102
RTVSPost2010PropOp33
 70
     1
102
RTVSPost2010Prop34
280
     0
102
RTVSPost2010PropOp34
 70
     1
102
RTVSPost2010Prop35
280
     0
102
RTVSPost2010PropOp35
 70
     1
102
RTVSPost2010Prop36
280
     0
102
RTVSPost2010PropOp36
 70
     1
102
RTVSPost2010Prop37
 90
       50
102
RTVSPost2010PropOp37
 70
     1
102
RTVSPost2010Prop38
140
0.0
102
RTVSPost2010PropOp38
 70
     1
102
RTVSPost2010Prop39
140
1.0
102
RTVSPost2010PropOp39
 70
     1
102
RTVSPost2010Prop40
 90
        0
102
RTVSPost2010PropOp40
 70
     1
102
RTVSPost2010Prop41ColorIndex
 90
       18
102
RTVSPost2010Prop41ColorRGB
 90
        0
102
RTVSPost2010PropOp41
 70
     1
102
RTVSPost2010Prop42
 90
       50
102
RTVSPost2010PropOp42
 70
     1
102
RTVSPost2010Prop43
 90
        3
102
RTVSPost2010PropOp43
 70
     1
102
RTVSPost2010Prop44ColorIndex
 90
        5
102
RTVSPost2010Prop44ColorRGB
 90
      255
102
RTVSPost2010PropOp44
 70
     1
102
RTVSPost2010Prop45
280
     0
102
RTVSPost2010PropOp45
 70
     1
102
RTVSPost2010Prop46
 90
       50
102
RTVSPost2010PropOp46
 70
     1
102
RTVSPost2010Prop47
 90
       50
102
RTVSPost2010PropOp47
 70
     1
102
RTVSPost2010Prop48
 90
       50
102
RTVSPost2010PropOp48
 70
     1
102
RTVSPost2010Prop49
280
     0
102
RTVSPost2010PropOp49
 70
     1
102
RTVSPost2010Prop50
 90
       50
102
RTVSPost2010PropOp50
 70
     1
102
RTVSPost2010Prop51ColorIndex
 90
      256
102
RTVSPost2010Prop51ColorRGB
 90
-16777216
102
RTVSPost2010PropOp51
 70
     0
102
RTVSPost2010Prop52
140
1.0
102
RTVSPost2010PropOp52
 70
     0
102
RTVSPost2010Prop53
 90
        2
102
RTVSPost2010PropOp53
 70
     1
102
RTVSPost2010Prop54
  1
strokes_ogs.tif
102
RTVSPost2010PropOp54
 70
     1
102
RTVSPost2010Prop55
280
     0
102
RTVSPost2010PropOp55
 70
     1
102
RTVSPost2010Prop56
140
1.0
102
RTVSPost2010PropOp56
 70
     1
102
RTVSPost2010Prop57
140
1.0
102
RTVSPost2010PropOp57
 70
     1
102
RTVSPropertyOp0
 70
     1
102
RTVSPropertyOp1
 70
     1
102
RTVSPropertyOp2
 70
     1
102
RTVSPropertyOp3
 70
     1
102
RTVSPropertyOp4
 70
     1
102
RTVSPropertyOp5
 70
     1
102
RTVSPropertyOp6
 70
     1
102
RTVSPropertyOp7
 70
     1
102
RTVSPropertyOp8
 70
     1
102
RTVSPropertyOp9
 70
     1
102
RTVSPropertyOp10
 70
     1
102
RTVSPropertyOp11
 70
     1
102
RTVSPropertyOp12
 70
     1
102
RTVSPropertyOp13
 70
     1
102
RTVSPropertyOp14
 70
     1
102
RTVSPropertyOp15
 70
     1
102
RTVSPropertyOp16
 70
     1
102
RTVSPropertyOp17
 70
     1
102
RTVSPropertyOp18
 70
     1
102
RTVSPropertyOp19
 70
     1
102
RTVSPropertyOp20
 70
     1
102
RTVSPropertyOp21
 70
     1
102
RTVSPropertyOp22
 70
     1
102
RTVSPropertyOp23
 70
     1
102
RTVSPropertyOp24
 70
     1
102
RTVSPropertyOp25
 70
     1
102
RTVSPropertyOp26
 70
     1
102
RTVSPropertyOp27
 70
     1
102
RTVSPropertyOp28
 70
     1
102
RTVSPropertyOp29
 70
     1
102
RTVSPropertyOp30
 70
     1
102
RTVSPropertyOp31
 70
     1
102
RTVSPropertyOp32
 70
     1
102
RTVSPropertyOp33
 70
     1
102
RTVSPropertyOp34
 70
     1
102
RTVSPropertyOp35
 70
     1
102
RTVSPropertyOp36
 70
     1
102
RTVSPropertyOp37
 70
     1
102
RTVSPropertyOp38
 70
     1
102
RTVSPropertyOp39
 70
     1
102
RTVSPropertyOp40
 70
     1
102
RTVSPropertyOp41
 70
     1
102
RTVSPropertyOp42
 70
     1
102
RTVSPropertyOp43
 70
     1
102
RTVSPropertyOp44
 70
     1
102
RTVSPropertyOp45
 70
     1
102
RTVSPropertyOp46
 70
     1
102
RTVSPropertyOp47
 70
     1
102
RTVSPropertyOp48
 70
     1
102
RTVSPropertyOp49
 70
     1
102
RTVSPropertyOp50
 70
     1
102
RTVSPropertyOp51
 70
     0
102
RTVSPropertyOp52
 70
     0
102
RTVSPropertyOp53
 70
     1
102
RTVSPropertyOp54
 70
     1
102
RTVSPropertyOp55
 70
     1
102
RTVSPropertyOp56
 70
     1
102
RTVSPropertyOp57
 70
     1
102
RTVSPropertyOp58
 70
     1
102
RTVSPropertyOp59
 70
     1
102
RTVSPropertyOp60
 70
     1
102
RTVSPropertyOp61
 70
     1
102
RTVSPropertyOp62
 70
     1
  0
XRECORD
  5
3DD
102
{ACAD_REACTORS
330
3DC
102
}
330
3DC
100
AcDbXrecord
280
     1
102
RTVSPost2010Prop28
280
     0
102
RTVSPost2010PropOp28
 70
     0
102
RTVSPost2010Prop29
280
     1
102
RTVSPost2010PropOp29
 70
     0
102
RTVSPost2010Prop30
280
     1
102
RTVSPost2010PropOp30
 70
     0
102
RTVSPost2010Prop31
280
     0
102
RTVSPost2010PropOp31
 70
     0
102
RTVSPost2010Prop32
280
     0
102
RTVSPost2010PropOp32
 70
     0
102
RTVSPost2010Prop33
280
     0
102
RTVSPost2010PropOp33
 70
     0
102
RTVSPost2010Prop34
280
     0
102
RTVSPost2010PropOp34
 70
     0
102
RTVSPost2010Prop35
280
     0
102
RTVSPost2010PropOp35
 70
     0
102
RTVSPost2010Prop36
280
     0
102
RTVSPost2010PropOp36
 70
     0
102
RTVSPost2010Prop37
 90
       50
102
RTVSPost2010PropOp37
 70
     0
102
RTVSPost2010Prop38
140
0.0
102
RTVSPost2010PropOp38
 70
     0
102
RTVSPost2010Prop39
140
1.0
102
RTVSPost2010PropOp39
 70
     0
102
RTVSPost2010Prop40
 90
        0
102
RTVSPost2010PropOp40
 70
     0
102
RTVSPost2010Prop41ColorIndex
 90
       18
102
RTVSPost2010Prop41ColorRGB
 90
        0
102
RTVSPost2010PropOp41
 70
     0
102
RTVSPost2010Prop42
 90
       50
102
RTVSPost2010PropOp42
 70
     0
102
RTVSPost2010Prop43
 90
        3
102
RTVSPost2010PropOp43
 70
     0
102
RTVSPost2010Prop44ColorIndex
 90
        5
102
RTVSPost2010Prop44ColorRGB
 90
      255
102
RTVSPost2010PropOp44
 70
     0
102
RTVSPost2010Prop45
280
     0
102
RTVSPost2010PropOp45
 70
     0
102
RTVSPost2010Prop46
 90
       50
102
RTVSPost2010PropOp46
 70
     0
102
RTVSPost2010Prop47
 90
       50
102
RTVSPost2010PropOp47
 70
     0
102
RTVSPost2010Prop48
 90
       50
102
RTVSPost2010PropOp48
 70
     0
102
RTVSPost2010Prop49
280
     0
102
RTVSPost2010PropOp49
 70
     0
102
RTVSPost2010Prop50
 90
       50
102
RTVSPost2010PropOp50
 70
     0
102
RTVSPost2010Prop51ColorIndex
 90
      256
102
RTVSPost2010Prop51ColorRGB
 90
-16777216
102
RTVSPost2010PropOp51
 70
     0
102
RTVSPost2010Prop52
140
1.0
102
RTVSPost2010PropOp52
 70
     0
102
RTVSPost2010Prop53
 90
        2
102
RTVSPost2010PropOp53
 70
     0
102
RTVSPost2010Prop54
  1
strokes_ogs.tif
102
RTVSPost2010PropOp54
 70
     0
102
RTVSPost2010Prop55
280
     0
102
RTVSPost2010PropOp55
 70
     0
102
RTVSPost2010Prop56
140
1.0
102
RTVSPost2010PropOp56
 70
     0
102
RTVSPost2010Prop57
140
1.0
102
RTVSPost2010PropOp57
 70
     0
102
RTVSPropertyOp0
 70
     0
102
RTVSPropertyOp1
 70
     0
102
RTVSPropertyOp2
 70
     0
102
RTVSPropertyOp3
 70
     0
102
RTVSPropertyOp4
 70
     0
102
RTVSPropertyOp5
 70
     0
102
RTVSPropertyOp6
 70
     0
102
RTVSPropertyOp7
 70
     0
102
RTVSPropertyOp8
 70
     0
102
RTVSPropertyOp9
 70
     0
102
RTVSPropertyOp10
 70
     0
102
RTVSPropertyOp11
 70
     0
102
RTVSPropertyOp12
 70
     0
102
RTVSPropertyOp13
 70
     0
102
RTVSPropertyOp14
 70
     2
102
RTVSPropertyOp15
 70
     0
102
RTVSPropertyOp16
 70
     0
102
RTVSPropertyOp17
 70
     0
102
RTVSPropertyOp18
 70
     0
102
RTVSPropertyOp19
 70
     0
102
RTVSPropertyOp20
 70
     0
102
RTVSPropertyOp21
 70
     0
102
RTVSPropertyOp22
 70
     0
102
RTVSPropertyOp23
 70
     0
102
RTVSPropertyOp24
 70
     0
102
RTVSPropertyOp25
 70
     0
102
RTVSPropertyOp26
 70
     0
102
RTVSPropertyOp27
 70
     0
102
RTVSPropertyOp28
 70
     0
102
RTVSPropertyOp29
 70
     0
102
RTVSPropertyOp30
 70
     0
102
RTVSPropertyOp31
 70
     0
102
RTVSPropertyOp32
 70
     0
102
RTVSPropertyOp33
 70
     0
102
RTVSPropertyOp34
 70
     0
102
RTVSPropertyOp35
 70
     0
102
RTVSPropertyOp36
 70
     0
102
RTVSPropertyOp37
 70
     0
102
RTVSPropertyOp38
 70
     0
102
RTVSPropertyOp39
 70
     0
102
RTVSPropertyOp40
 70
     0
102
RTVSPropertyOp41
 70
     0
102
RTVSPropertyOp42
 70
     0
102
RTVSPropertyOp43
 70
     0
102
RTVSPropertyOp44
 70
     0
102
RTVSPropertyOp45
 70
     0
102
RTVSPropertyOp46
 70
     0
102
RTVSPropertyOp47
 70
     0
102
RTVSPropertyOp48
 70
     0
102
RTVSPropertyOp49
 70
     0
102
RTVSPropertyOp50
 70
     0
102
RTVSPropertyOp51
 70
     0
102
RTVSPropertyOp52
 70
     0
102
RTVSPropertyOp53
 70
     0
102
RTVSPropertyOp54
 70
     0
102
RTVSPropertyOp55
 70
     0
102
RTVSPropertyOp56
 70
     0
102
RTVSPropertyOp57
 70
     0
102
RTVSPropertyOp58
 70
     1
102
RTVSPropertyOp59
 70
     1
102
RTVSPropertyOp60
 70
     1
102
RTVSPropertyOp61
 70
     1
102
RTVSPropertyOp62
 70
     1
  0
XRECORD
  5
3D5
102
{ACAD_REACTORS
330
3D4
102
}
330
3D4
100
AcDbXrecord
280
     1
102
RTVSPost2010Prop28
280
     0
102
RTVSPost2010PropOp28
 70
     1
102
RTVSPost2010Prop29
280
     1
102
RTVSPost2010PropOp29
 70
     1
102
RTVSPost2010Prop30
280
     1
102
RTVSPost2010PropOp30
 70
     1
102
RTVSPost2010Prop31
280
     0
102
RTVSPost2010PropOp31
 70
     1
102
RTVSPost2010Prop32
280
     0
102
RTVSPost2010PropOp32
 70
     1
102
RTVSPost2010Prop33
280
     0
102
RTVSPost2010PropOp33
 70
     1
102
RTVSPost2010Prop34
280
     0
102
RTVSPost2010PropOp34
 70
     1
102
RTVSPost2010Prop35
280
     0
102
RTVSPost2010PropOp35
 70
     1
102
RTVSPost2010Prop36
280
     0
102
RTVSPost2010PropOp36
 70
     1
102
RTVSPost2010Prop37
 90
       50
102
RTVSPost2010PropOp37
 70
     1
102
RTVSPost2010Prop38
140
0.0
102
RTVSPost2010PropOp38
 70
     1
102
RTVSPost2010Prop39
140
1.0
102
RTVSPost2010PropOp39
 70
     1
102
RTVSPost2010Prop40
 90
        0
102
RTVSPost2010PropOp40
 70
     1
102
RTVSPost2010Prop41ColorIndex
 90
       18
102
RTVSPost2010Prop41ColorRGB
 90
        0
102
RTVSPost2010PropOp41
 70
     1
102
RTVSPost2010Prop42
 90
       50
102
RTVSPost2010PropOp42
 70
     1
102
RTVSPost2010Prop43
 90
        3
102
RTVSPost2010PropOp43
 70
     1
102
RTVSPost2010Prop44ColorIndex
 90
        5
102
RTVSPost2010Prop44ColorRGB
 90
      255
102
RTVSPost2010PropOp44
 70
     1
102
RTVSPost2010Prop45
280
     0
102
RTVSPost2010PropOp45
 70
     1
102
RTVSPost2010Prop46
 90
       50
102
RTVSPost2010PropOp46
 70
     1
102
RTVSPost2010Prop47
 90
       50
102
RTVSPost2010PropOp47
 70
     1
102
RTVSPost2010Prop48
 90
       50
102
RTVSPost2010PropOp48
 70
     1
102
RTVSPost2010Prop49
280
     0
102
RTVSPost2010PropOp49
 70
     1
102
RTVSPost2010Prop50
 90
       50
102
RTVSPost2010PropOp50
 70
     1
102
RTVSPost2010Prop51ColorIndex
 90
      256
102
RTVSPost2010Prop51ColorRGB
 90
-16777216
102
RTVSPost2010PropOp51
 70
     0
102
RTVSPost2010Prop52
140
1.0
102
RTVSPost2010PropOp52
 70
     0
102
RTVSPost2010Prop53
 90
        2
102
RTVSPost2010PropOp53
 70
     1
102
RTVSPost2010Prop54
  1
strokes_ogs.tif
102
RTVSPost2010PropOp54
 70
     1
102
RTVSPost2010Prop55
280
     0
102
RTVSPost2010PropOp55
 70
     1
102
RTVSPost2010Prop56
140
1.0
102
RTVSPost2010PropOp56
 70
     1
102
RTVSPost2010Prop57
140
1.0
102
RTVSPost2010PropOp57
 70
     1
102
RTVSPropertyOp0
 70
     1
102
RTVSPropertyOp1
 70
     1
102
RTVSPropertyOp2
 70
     1
102
RTVSPropertyOp3
 70
     1
102
RTVSPropertyOp4
 70
     1
102
RTVSPropertyOp5
 70
     1
102
RTVSPropertyOp6
 70
     1
102
RTVSPropertyOp7
 70
     1
102
RTVSPropertyOp8
 70
     1
102
RTVSPropertyOp9
 70
     1
102
RTVSPropertyOp10
 70
     1
102
RTVSPropertyOp11
 70
     1
102
RTVSPropertyOp12
 70
     1
102
RTVSPropertyOp13
 70
     1
102
RTVSPropertyOp14
 70
     1
102
RTVSPropertyOp15
 70
     1
102
RTVSPropertyOp16
 70
     1
102
RTVSPropertyOp17
 70
     1
102
RTVSPropertyOp18
 70
     1
102
RTVSPropertyOp19
 70
     1
102
RTVSPropertyOp20
 70
     1
102
RTVSPropertyOp21
 70
     1
102
RTVSPropertyOp22
 70
     1
102
RTVSPropertyOp23
 70
     1
102
RTVSPropertyOp24
 70
     1
102
RTVSPropertyOp25
 70
     1
102
RTVSPropertyOp26
 70
     1
102
RTVSPropertyOp27
 70
     1
102
RTVSPropertyOp28
 70
     1
102
RTVSPropertyOp29
 70
     1
102
RTVSPropertyOp30
 70
     1
102
RTVSPropertyOp31
 70
     1
102
RTVSPropertyOp32
 70
     1
102
RTVSPropertyOp33
 70
     1
102
RTVSPropertyOp34
 70
     1
102
RTVSPropertyOp35
 70
     1
102
RTVSPropertyOp36
 70
     1
102
RTVSPropertyOp37
 70
     1
102
RTVSPropertyOp38
 70
     1
102
RTVSPropertyOp39
 70
     1
102
RTVSPropertyOp40
 70
     1
102
RTVSPropertyOp41
 70
     1
102
RTVSPropertyOp42
 70
     1
102
RTVSPropertyOp43
 70
     1
102
RTVSPropertyOp44
 70
     1
102
RTVSPropertyOp45
 70
     1
102
RTVSPropertyOp46
 70
     1
102
RTVSPropertyOp47
 70
     1
102
RTVSPropertyOp48
 70
     1
102
RTVSPropertyOp49
 70
     1
102
RTVSPropertyOp50
 70
     1
102
RTVSPropertyOp51
 70
     0
102
RTVSPropertyOp52
 70
     0
102
RTVSPropertyOp53
 70
     1
102
RTVSPropertyOp54
 70
     1
102
RTVSPropertyOp55
 70
     1
102
RTVSPropertyOp56
 70
     1
102
RTVSPropertyOp57
 70
     1
102
RTVSPropertyOp58
 70
     1
102
RTVSPropertyOp59
 70
     1
102
RTVSPropertyOp60
 70
     1
102
RTVSPropertyOp61
 70
     1
102
RTVSPropertyOp62
 70
     1
  0
XRECORD
  5
3B9
102
{ACAD_REACTORS
330
3B8
102
}
330
3B8
100
AcDbXrecord
280
     1
102
RTVSPost2010Prop28
280
     0
102
RTVSPost2010PropOp28
 70
     1
102
RTVSPost2010Prop29
280
     1
102
RTVSPost2010PropOp29
 70
     1
102
RTVSPost2010Prop30
280
     1
102
RTVSPost2010PropOp30
 70
     1
102
RTVSPost2010Prop31
280
     0
102
RTVSPost2010PropOp31
 70
     1
102
RTVSPost2010Prop32
280
     0
102
RTVSPost2010PropOp32
 70
     1
102
RTVSPost2010Prop33
280
     0
102
RTVSPost2010PropOp33
 70
     1
102
RTVSPost2010Prop34
280
     0
102
RTVSPost2010PropOp34
 70
     1
102
RTVSPost2010Prop35
280
     0
102
RTVSPost2010PropOp35
 70
     1
102
RTVSPost2010Prop36
280
     0
102
RTVSPost2010PropOp36
 70
     1
102
RTVSPost2010Prop37
 90
       50
102
RTVSPost2010PropOp37
 70
     1
102
RTVSPost2010Prop38
140
0.0
102
RTVSPost2010PropOp38
 70
     1
102
RTVSPost2010Prop39
140
1.0
102
RTVSPost2010PropOp39
 70
     1
102
RTVSPost2010Prop40
 90
        0
102
RTVSPost2010PropOp40
 70
     1
102
RTVSPost2010Prop41ColorIndex
 90
       18
102
RTVSPost2010Prop41ColorRGB
 90
        0
102
RTVSPost2010PropOp41
 70
     1
102
RTVSPost2010Prop42
 90
       50
102
RTVSPost2010PropOp42
 70
     1
102
RTVSPost2010Prop43
 90
        3
102
RTVSPost2010PropOp43
 70
     1
102
RTVSPost2010Prop44ColorIndex
 90
        5
102
RTVSPost2010Prop44ColorRGB
 90
      255
102
RTVSPost2010PropOp44
 70
     1
102
RTVSPost2010Prop45
280
     0
102
RTVSPost2010PropOp45
 70
     1
102
RTVSPost2010Prop46
 90
       50
102
RTVSPost2010PropOp46
 70
     1
102
RTVSPost2010Prop47
 90
       50
102
RTVSPost2010PropOp47
 70
     1
102
RTVSPost2010Prop48
 90
       50
102
RTVSPost2010PropOp48
 70
     1
102
RTVSPost2010Prop49
280
     0
102
RTVSPost2010PropOp49
 70
     1
102
RTVSPost2010Prop50
 90
       50
102
RTVSPost2010PropOp50
 70
     1
102
RTVSPost2010Prop51ColorIndex
 90
      256
102
RTVSPost2010Prop51ColorRGB
 90
-16777216
102
RTVSPost2010PropOp51
 70
     0
102
RTVSPost2010Prop52
140
1.0
102
RTVSPost2010PropOp52
 70
     0
102
RTVSPost2010Prop53
 90
        2
102
RTVSPost2010PropOp53
 70
     1
102
RTVSPost2010Prop54
  1
strokes_ogs.tif
102
RTVSPost2010PropOp54
 70
     1
102
RTVSPost2010Prop55
280
     0
102
RTVSPost2010PropOp55
 70
     1
102
RTVSPost2010Prop56
140
1.0
102
RTVSPost2010PropOp56
 70
     1
102
RTVSPost2010Prop57
140
1.0
102
RTVSPost2010PropOp57
 70
     1
102
RTVSPropertyOp0
 70
     1
102
RTVSPropertyOp1
 70
     1
102
RTVSPropertyOp2
 70
     1
102
RTVSPropertyOp3
 70
     1
102
RTVSPropertyOp4
 70
     1
102
RTVSPropertyOp5
 70
     1
102
RTVSPropertyOp6
 70
     1
102
RTVSPropertyOp7
 70
     1
102
RTVSPropertyOp8
 70
     1
102
RTVSPropertyOp9
 70
     1
102
RTVSPropertyOp10
 70
     1
102
RTVSPropertyOp11
 70
     1
102
RTVSPropertyOp12
 70
     1
102
RTVSPropertyOp13
 70
     1
102
RTVSPropertyOp14
 70
     1
102
RTVSPropertyOp15
 70
     1
102
RTVSPropertyOp16
 70
     1
102
RTVSPropertyOp17
 70
     1
102
RTVSPropertyOp18
 70
     1
102
RTVSPropertyOp19
 70
     1
102
RTVSPropertyOp20
 70
     1
102
RTVSPropertyOp21
 70
     1
102
RTVSPropertyOp22
 70
     1
102
RTVSPropertyOp23
 70
     1
102
RTVSPropertyOp24
 70
     1
102
RTVSPropertyOp25
 70
     1
102
RTVSPropertyOp26
 70
     1
102
RTVSPropertyOp27
 70
     1
102
RTVSPropertyOp28
 70
     1
102
RTVSPropertyOp29
 70
     1
102
RTVSPropertyOp30
 70
     1
102
RTVSPropertyOp31
 70
     1
102
RTVSPropertyOp32
 70
     1
102
RTVSPropertyOp33
 70
     1
102
RTVSPropertyOp34
 70
     1
102
RTVSPropertyOp35
 70
     1
102
RTVSPropertyOp36
 70
     1
102
RTVSPropertyOp37
 70
     1
102
RTVSPropertyOp38
 70
     1
102
RTVSPropertyOp39
 70
     1
102
RTVSPropertyOp40
 70
     1
102
RTVSPropertyOp41
 70
     1
102
RTVSPropertyOp42
 70
     1
102
RTVSPropertyOp43
 70
     1
102
RTVSPropertyOp44
 70
     1
102
RTVSPropertyOp45
 70
     1
102
RTVSPropertyOp46
 70
     1
102
RTVSPropertyOp47
 70
     1
102
RTVSPropertyOp48
 70
     1
102
RTVSPropertyOp49
 70
     1
102
RTVSPropertyOp50
 70
     1
102
RTVSPropertyOp51
 70
     0
102
RTVSPropertyOp52
 70
     0
102
RTVSPropertyOp53
 70
     1
102
RTVSPropertyOp54
 70
     1
102
RTVSPropertyOp55
 70
     1
102
RTVSPropertyOp56
 70
     1
102
RTVSPropertyOp57
 70
     1
102
RTVSPropertyOp58
 70
     1
102
RTVSPropertyOp59
 70
     1
102
RTVSPropertyOp60
 70
     1
102
RTVSPropertyOp61
 70
     1
102
RTVSPropertyOp62
 70
     1
  0
XRECORD
  5
3BB
102
{ACAD_REACTORS
330
3BA
102
}
330
3BA
100
AcDbXrecord
280
     1
102
RTVSPost2010Prop28
280
     0
102
RTVSPost2010PropOp28
 70
     1
102
RTVSPost2010Prop29
280
     1
102
RTVSPost2010PropOp29
 70
     1
102
RTVSPost2010Prop30
280
     1
102
RTVSPost2010PropOp30
 70
     1
102
RTVSPost2010Prop31
280
     0
102
RTVSPost2010PropOp31
 70
     1
102
RTVSPost2010Prop32
280
     0
102
RTVSPost2010PropOp32
 70
     1
102
RTVSPost2010Prop33
280
     0
102
RTVSPost2010PropOp33
 70
     1
102
RTVSPost2010Prop34
280
     0
102
RTVSPost2010PropOp34
 70
     1
102
RTVSPost2010Prop35
280
     0
102
RTVSPost2010PropOp35
 70
     1
102
RTVSPost2010Prop36
280
     0
102
RTVSPost2010PropOp36
 70
     1
102
RTVSPost2010Prop37
 90
       50
102
RTVSPost2010PropOp37
 70
     1
102
RTVSPost2010Prop38
140
0.0
102
RTVSPost2010PropOp38
 70
     1
102
RTVSPost2010Prop39
140
1.0
102
RTVSPost2010PropOp39
 70
     1
102
RTVSPost2010Prop40
 90
        0
102
RTVSPost2010PropOp40
 70
     1
102
RTVSPost2010Prop41ColorIndex
 90
       18
102
RTVSPost2010Prop41ColorRGB
 90
        0
102
RTVSPost2010PropOp41
 70
     1
102
RTVSPost2010Prop42
 90
       50
102
RTVSPost2010PropOp42
 70
     1
102
RTVSPost2010Prop43
 90
        3
102
RTVSPost2010PropOp43
 70
     1
102
RTVSPost2010Prop44ColorIndex
 90
        5
102
RTVSPost2010Prop44ColorRGB
 90
      255
102
RTVSPost2010PropOp44
 70
     1
102
RTVSPost2010Prop45
280
     0
102
RTVSPost2010PropOp45
 70
     1
102
RTVSPost2010Prop46
 90
       50
102
RTVSPost2010PropOp46
 70
     1
102
RTVSPost2010Prop47
 90
       50
102
RTVSPost2010PropOp47
 70
     1
102
RTVSPost2010Prop48
 90
       50
102
RTVSPost2010PropOp48
 70
     1
102
RTVSPost2010Prop49
280
     0
102
RTVSPost2010PropOp49
 70
     1
102
RTVSPost2010Prop50
 90
       50
102
RTVSPost2010PropOp50
 70
     1
102
RTVSPost2010Prop51ColorIndex
 90
      256
102
RTVSPost2010Prop51ColorRGB
 90
-16777216
102
RTVSPost2010PropOp51
 70
     0
102
RTVSPost2010Prop52
140
1.0
102
RTVSPost2010PropOp52
 70
     0
102
RTVSPost2010Prop53
 90
        2
102
RTVSPost2010PropOp53
 70
     1
102
RTVSPost2010Prop54
  1
strokes_ogs.tif
102
RTVSPost2010PropOp54
 70
     1
102
RTVSPost2010Prop55
280
     0
102
RTVSPost2010PropOp55
 70
     1
102
RTVSPost2010Prop56
140
1.0
102
RTVSPost2010PropOp56
 70
     1
102
RTVSPost2010Prop57
140
1.0
102
RTVSPost2010PropOp57
 70
     1
102
RTVSPropertyOp0
 70
     1
102
RTVSPropertyOp1
 70
     1
102
RTVSPropertyOp2
 70
     1
102
RTVSPropertyOp3
 70
     1
102
RTVSPropertyOp4
 70
     1
102
RTVSPropertyOp5
 70
     1
102
RTVSPropertyOp6
 70
     1
102
RTVSPropertyOp7
 70
     1
102
RTVSPropertyOp8
 70
     1
102
RTVSPropertyOp9
 70
     1
102
RTVSPropertyOp10
 70
     1
102
RTVSPropertyOp11
 70
     1
102
RTVSPropertyOp12
 70
     1
102
RTVSPropertyOp13
 70
     1
102
RTVSPropertyOp14
 70
     1
102
RTVSPropertyOp15
 70
     1
102
RTVSPropertyOp16
 70
     1
102
RTVSPropertyOp17
 70
     1
102
RTVSPropertyOp18
 70
     1
102
RTVSPropertyOp19
 70
     1
102
RTVSPropertyOp20
 70
     1
102
RTVSPropertyOp21
 70
     1
102
RTVSPropertyOp22
 70
     1
102
RTVSPropertyOp23
 70
     1
102
RTVSPropertyOp24
 70
     1
102
RTVSPropertyOp25
 70
     1
102
RTVSPropertyOp26
 70
     1
102
RTVSPropertyOp27
 70
     1
102
RTVSPropertyOp28
 70
     1
102
RTVSPropertyOp29
 70
     1
102
RTVSPropertyOp30
 70
     1
102
RTVSPropertyOp31
 70
     1
102
RTVSPropertyOp32
 70
     1
102
RTVSPropertyOp33
 70
     1
102
RTVSPropertyOp34
 70
     1
102
RTVSPropertyOp35
 70
     1
102
RTVSPropertyOp36
 70
     1
102
RTVSPropertyOp37
 70
     1
102
RTVSPropertyOp38
 70
     1
102
RTVSPropertyOp39
 70
     1
102
RTVSPropertyOp40
 70
     1
102
RTVSPropertyOp41
 70
     1
102
RTVSPropertyOp42
 70
     1
102
RTVSPropertyOp43
 70
     1
102
RTVSPropertyOp44
 70
     1
102
RTVSPropertyOp45
 70
     1
102
RTVSPropertyOp46
 70
     1
102
RTVSPropertyOp47
 70
     1
102
RTVSPropertyOp48
 70
     1
102
RTVSPropertyOp49
 70
     1
102
RTVSPropertyOp50
 70
     1
102
RTVSPropertyOp51
 70
     0
102
RTVSPropertyOp52
 70
     0
102
RTVSPropertyOp53
 70
     1
102
RTVSPropertyOp54
 70
     1
102
RTVSPropertyOp55
 70
     1
102
RTVSPropertyOp56
 70
     1
102
RTVSPropertyOp57
 70
     1
102
RTVSPropertyOp58
 70
     1
102
RTVSPropertyOp59
 70
     1
102
RTVSPropertyOp60
 70
     1
102
RTVSPropertyOp61
 70
     1
102
RTVSPropertyOp62
 70
     1
  0
XRECORD
  5
3BD
102
{ACAD_REACTORS
330
3BC
102
}
330
3BC
100
AcDbXrecord
280
     1
102
RTVSPost2010Prop28
280
     0
102
RTVSPost2010PropOp28
 70
     1
102
RTVSPost2010Prop29
280
     1
102
RTVSPost2010PropOp29
 70
     1
102
RTVSPost2010Prop30
280
     1
102
RTVSPost2010PropOp30
 70
     1
102
RTVSPost2010Prop31
280
     0
102
RTVSPost2010PropOp31
 70
     1
102
RTVSPost2010Prop32
280
     0
102
RTVSPost2010PropOp32
 70
     1
102
RTVSPost2010Prop33
280
     0
102
RTVSPost2010PropOp33
 70
     1
102
RTVSPost2010Prop34
280
     0
102
RTVSPost2010PropOp34
 70
     1
102
RTVSPost2010Prop35
280
     0
102
RTVSPost2010PropOp35
 70
     1
102
RTVSPost2010Prop36
280
     0
102
RTVSPost2010PropOp36
 70
     1
102
RTVSPost2010Prop37
 90
       50
102
RTVSPost2010PropOp37
 70
     1
102
RTVSPost2010Prop38
140
0.0
102
RTVSPost2010PropOp38
 70
     1
102
RTVSPost2010Prop39
140
1.0
102
RTVSPost2010PropOp39
 70
     1
102
RTVSPost2010Prop40
 90
        0
102
RTVSPost2010PropOp40
 70
     1
102
RTVSPost2010Prop41ColorIndex
 90
       18
102
RTVSPost2010Prop41ColorRGB
 90
        0
102
RTVSPost2010PropOp41
 70
     1
102
RTVSPost2010Prop42
 90
       50
102
RTVSPost2010PropOp42
 70
     1
102
RTVSPost2010Prop43
 90
        3
102
RTVSPost2010PropOp43
 70
     1
102
RTVSPost2010Prop44ColorIndex
 90
        5
102
RTVSPost2010Prop44ColorRGB
 90
      255
102
RTVSPost2010PropOp44
 70
     1
102
RTVSPost2010Prop45
280
     0
102
RTVSPost2010PropOp45
 70
     1
102
RTVSPost2010Prop46
 90
       50
102
RTVSPost2010PropOp46
 70
     1
102
RTVSPost2010Prop47
 90
       50
102
RTVSPost2010PropOp47
 70
     1
102
RTVSPost2010Prop48
 90
       50
102
RTVSPost2010PropOp48
 70
     1
102
RTVSPost2010Prop49
280
     0
102
RTVSPost2010PropOp49
 70
     1
102
RTVSPost2010Prop50
 90
       50
102
RTVSPost2010PropOp50
 70
     1
102
RTVSPost2010Prop51ColorIndex
 90
      256
102
RTVSPost2010Prop51ColorRGB
 90
-16777216
102
RTVSPost2010PropOp51
 70
     0
102
RTVSPost2010Prop52
140
1.0
102
RTVSPost2010PropOp52
 70
     0
102
RTVSPost2010Prop53
 90
        2
102
RTVSPost2010PropOp53
 70
     1
102
RTVSPost2010Prop54
  1
strokes_ogs.tif
102
RTVSPost2010PropOp54
 70
     1
102
RTVSPost2010Prop55
280
     0
102
RTVSPost2010PropOp55
 70
     1
102
RTVSPost2010Prop56
140
1.0
102
RTVSPost2010PropOp56
 70
     1
102
RTVSPost2010Prop57
140
1.0
102
RTVSPost2010PropOp57
 70
     1
102
RTVSPropertyOp0
 70
     1
102
RTVSPropertyOp1
 70
     1
102
RTVSPropertyOp2
 70
     1
102
RTVSPropertyOp3
 70
     1
102
RTVSPropertyOp4
 70
     1
102
RTVSPropertyOp5
 70
     1
102
RTVSPropertyOp6
 70
     1
102
RTVSPropertyOp7
 70
     1
102
RTVSPropertyOp8
 70
     1
102
RTVSPropertyOp9
 70
     1
102
RTVSPropertyOp10
 70
     1
102
RTVSPropertyOp11
 70
     1
102
RTVSPropertyOp12
 70
     1
102
RTVSPropertyOp13
 70
     1
102
RTVSPropertyOp14
 70
     1
102
RTVSPropertyOp15
 70
     1
102
RTVSPropertyOp16
 70
     1
102
RTVSPropertyOp17
 70
     1
102
RTVSPropertyOp18
 70
     1
102
RTVSPropertyOp19
 70
     1
102
RTVSPropertyOp20
 70
     1
102
RTVSPropertyOp21
 70
     1
102
RTVSPropertyOp22
 70
     1
102
RTVSPropertyOp23
 70
     1
102
RTVSPropertyOp24
 70
     1
102
RTVSPropertyOp25
 70
     1
102
RTVSPropertyOp26
 70
     1
102
RTVSPropertyOp27
 70
     1
102
RTVSPropertyOp28
 70
     1
102
RTVSPropertyOp29
 70
     1
102
RTVSPropertyOp30
 70
     1
102
RTVSPropertyOp31
 70
     1
102
RTVSPropertyOp32
 70
     1
102
RTVSPropertyOp33
 70
     1
102
RTVSPropertyOp34
 70
     1
102
RTVSPropertyOp35
 70
     1
102
RTVSPropertyOp36
 70
     1
102
RTVSPropertyOp37
 70
     1
102
RTVSPropertyOp38
 70
     1
102
RTVSPropertyOp39
 70
     1
102
RTVSPropertyOp40
 70
     1
102
RTVSPropertyOp41
 70
     1
102
RTVSPropertyOp42
 70
     1
102
RTVSPropertyOp43
 70
     1
102
RTVSPropertyOp44
 70
     1
102
RTVSPropertyOp45
 70
     1
102
RTVSPropertyOp46
 70
     1
102
RTVSPropertyOp47
 70
     1
102
RTVSPropertyOp48
 70
     1
102
RTVSPropertyOp49
 70
     1
102
RTVSPropertyOp50
 70
     1
102
RTVSPropertyOp51
 70
     0
102
RTVSPropertyOp52
 70
     0
102
RTVSPropertyOp53
 70
     1
102
RTVSPropertyOp54
 70
     1
102
RTVSPropertyOp55
 70
     1
102
RTVSPropertyOp56
 70
     1
102
RTVSPropertyOp57
 70
     1
102
RTVSPropertyOp58
 70
     1
102
RTVSPropertyOp59
 70
     1
102
RTVSPropertyOp60
 70
     1
102
RTVSPropertyOp61
 70
     1
102
RTVSPropertyOp62
 70
     1
  0
XRECORD
  5
3BF
102
{ACAD_REACTORS
330
3BE
102
}
330
3BE
100
AcDbXrecord
280
     1
102
RTVSPost2010Prop28
280
     0
102
RTVSPost2010PropOp28
 70
     1
102
RTVSPost2010Prop29
280
     1
102
RTVSPost2010PropOp29
 70
     1
102
RTVSPost2010Prop30
280
     1
102
RTVSPost2010PropOp30
 70
     1
102
RTVSPost2010Prop31
280
     0
102
RTVSPost2010PropOp31
 70
     1
102
RTVSPost2010Prop32
280
     0
102
RTVSPost2010PropOp32
 70
     1
102
RTVSPost2010Prop33
280
     0
102
RTVSPost2010PropOp33
 70
     1
102
RTVSPost2010Prop34
280
     0
102
RTVSPost2010PropOp34
 70
     1
102
RTVSPost2010Prop35
280
     0
102
RTVSPost2010PropOp35
 70
     1
102
RTVSPost2010Prop36
280
     0
102
RTVSPost2010PropOp36
 70
     1
102
RTVSPost2010Prop37
 90
       50
102
RTVSPost2010PropOp37
 70
     1
102
RTVSPost2010Prop38
140
0.0
102
RTVSPost2010PropOp38
 70
     1
102
RTVSPost2010Prop39
140
1.0
102
RTVSPost2010PropOp39
 70
     1
102
RTVSPost2010Prop40
 90
        0
102
RTVSPost2010PropOp40
 70
     1
102
RTVSPost2010Prop41ColorIndex
 90
       18
102
RTVSPost2010Prop41ColorRGB
 90
        0
102
RTVSPost2010PropOp41
 70
     1
102
RTVSPost2010Prop42
 90
       50
102
RTVSPost2010PropOp42
 70
     1
102
RTVSPost2010Prop43
 90
        3
102
RTVSPost2010PropOp43
 70
     1
102
RTVSPost2010Prop44ColorIndex
 90
        5
102
RTVSPost2010Prop44ColorRGB
 90
      255
102
RTVSPost2010PropOp44
 70
     1
102
RTVSPost2010Prop45
280
     0
102
RTVSPost2010PropOp45
 70
     1
102
RTVSPost2010Prop46
 90
       50
102
RTVSPost2010PropOp46
 70
     1
102
RTVSPost2010Prop47
 90
       50
102
RTVSPost2010PropOp47
 70
     1
102
RTVSPost2010Prop48
 90
       50
102
RTVSPost2010PropOp48
 70
     1
102
RTVSPost2010Prop49
280
     0
102
RTVSPost2010PropOp49
 70
     1
102
RTVSPost2010Prop50
 90
       50
102
RTVSPost2010PropOp50
 70
     1
102
RTVSPost2010Prop51ColorIndex
 90
      256
102
RTVSPost2010Prop51ColorRGB
 90
-16777216
102
RTVSPost2010PropOp51
 70
     0
102
RTVSPost2010Prop52
140
1.0
102
RTVSPost2010PropOp52
 70
     0
102
RTVSPost2010Prop53
 90
        2
102
RTVSPost2010PropOp53
 70
     1
102
RTVSPost2010Prop54
  1
strokes_ogs.tif
102
RTVSPost2010PropOp54
 70
     1
102
RTVSPost2010Prop55
280
     0
102
RTVSPost2010PropOp55
 70
     1
102
RTVSPost2010Prop56
140
1.0
102
RTVSPost2010PropOp56
 70
     1
102
RTVSPost2010Prop57
140
1.0
102
RTVSPost2010PropOp57
 70
     1
102
RTVSPropertyOp0
 70
     1
102
RTVSPropertyOp1
 70
     1
102
RTVSPropertyOp2
 70
     1
102
RTVSPropertyOp3
 70
     1
102
RTVSPropertyOp4
 70
     1
102
RTVSPropertyOp5
 70
     1
102
RTVSPropertyOp6
 70
     1
102
RTVSPropertyOp7
 70
     1
102
RTVSPropertyOp8
 70
     1
102
RTVSPropertyOp9
 70
     1
102
RTVSPropertyOp10
 70
     1
102
RTVSPropertyOp11
 70
     1
102
RTVSPropertyOp12
 70
     1
102
RTVSPropertyOp13
 70
     1
102
RTVSPropertyOp14
 70
     1
102
RTVSPropertyOp15
 70
     1
102
RTVSPropertyOp16
 70
     1
102
RTVSPropertyOp17
 70
     1
102
RTVSPropertyOp18
 70
     1
102
RTVSPropertyOp19
 70
     1
102
RTVSPropertyOp20
 70
     1
102
RTVSPropertyOp21
 70
     1
102
RTVSPropertyOp22
 70
     1
102
RTVSPropertyOp23
 70
     1
102
RTVSPropertyOp24
 70
     1
102
RTVSPropertyOp25
 70
     1
102
RTVSPropertyOp26
 70
     1
102
RTVSPropertyOp27
 70
     1
102
RTVSPropertyOp28
 70
     1
102
RTVSPropertyOp29
 70
     1
102
RTVSPropertyOp30
 70
     1
102
RTVSPropertyOp31
 70
     1
102
RTVSPropertyOp32
 70
     1
102
RTVSPropertyOp33
 70
     1
102
RTVSPropertyOp34
 70
     1
102
RTVSPropertyOp35
 70
     1
102
RTVSPropertyOp36
 70
     1
102
RTVSPropertyOp37
 70
     1
102
RTVSPropertyOp38
 70
     1
102
RTVSPropertyOp39
 70
     1
102
RTVSPropertyOp40
 70
     1
102
RTVSPropertyOp41
 70
     1
102
RTVSPropertyOp42
 70
     1
102
RTVSPropertyOp43
 70
     1
102
RTVSPropertyOp44
 70
     1
102
RTVSPropertyOp45
 70
     1
102
RTVSPropertyOp46
 70
     1
102
RTVSPropertyOp47
 70
     1
102
RTVSPropertyOp48
 70
     1
102
RTVSPropertyOp49
 70
     1
102
RTVSPropertyOp50
 70
     1
102
RTVSPropertyOp51
 70
     0
102
RTVSPropertyOp52
 70
     0
102
RTVSPropertyOp53
 70
     1
102
RTVSPropertyOp54
 70
     1
102
RTVSPropertyOp55
 70
     1
102
RTVSPropertyOp56
 70
     1
102
RTVSPropertyOp57
 70
     1
102
RTVSPropertyOp58
 70
     1
102
RTVSPropertyOp59
 70
     1
102
RTVSPropertyOp60
 70
     1
102
RTVSPropertyOp61
 70
     1
102
RTVSPropertyOp62
 70
     1
  0
XRECORD
  5
3C5
102
{ACAD_REACTORS
330
3C4
102
}
330
3C4
100
AcDbXrecord
280
     1
102
RTVSPost2010Prop28
280
     0
102
RTVSPost2010PropOp28
 70
     1
102
RTVSPost2010Prop29
280
     1
102
RTVSPost2010PropOp29
 70
     1
102
RTVSPost2010Prop30
280
     1
102
RTVSPost2010PropOp30
 70
     1
102
RTVSPost2010Prop31
280
     0
102
RTVSPost2010PropOp31
 70
     1
102
RTVSPost2010Prop32
280
     0
102
RTVSPost2010PropOp32
 70
     1
102
RTVSPost2010Prop33
280
     0
102
RTVSPost2010PropOp33
 70
     1
102
RTVSPost2010Prop34
280
     0
102
RTVSPost2010PropOp34
 70
     1
102
RTVSPost2010Prop35
280
     0
102
RTVSPost2010PropOp35
 70
     1
102
RTVSPost2010Prop36
280
     0
102
RTVSPost2010PropOp36
 70
     1
102
RTVSPost2010Prop37
 90
       50
102
RTVSPost2010PropOp37
 70
     1
102
RTVSPost2010Prop38
140
0.0
102
RTVSPost2010PropOp38
 70
     1
102
RTVSPost2010Prop39
140
1.0
102
RTVSPost2010PropOp39
 70
     1
102
RTVSPost2010Prop40
 90
        0
102
RTVSPost2010PropOp40
 70
     1
102
RTVSPost2010Prop41ColorIndex
 90
       18
102
RTVSPost2010Prop41ColorRGB
 90
        0
102
RTVSPost2010PropOp41
 70
     1
102
RTVSPost2010Prop42
 90
       50
102
RTVSPost2010PropOp42
 70
     1
102
RTVSPost2010Prop43
 90
        3
102
RTVSPost2010PropOp43
 70
     1
102
RTVSPost2010Prop44ColorIndex
 90
        5
102
RTVSPost2010Prop44ColorRGB
 90
      255
102
RTVSPost2010PropOp44
 70
     1
102
RTVSPost2010Prop45
280
     0
102
RTVSPost2010PropOp45
 70
     1
102
RTVSPost2010Prop46
 90
       50
102
RTVSPost2010PropOp46
 70
     1
102
RTVSPost2010Prop47
 90
       50
102
RTVSPost2010PropOp47
 70
     1
102
RTVSPost2010Prop48
 90
       50
102
RTVSPost2010PropOp48
 70
     1
102
RTVSPost2010Prop49
280
     0
102
RTVSPost2010PropOp49
 70
     1
102
RTVSPost2010Prop50
 90
       50
102
RTVSPost2010PropOp50
 70
     1
102
RTVSPost2010Prop51ColorIndex
 90
      256
102
RTVSPost2010Prop51ColorRGB
 90
-16777216
102
RTVSPost2010PropOp51
 70
     0
102
RTVSPost2010Prop52
140
1.0
102
RTVSPost2010PropOp52
 70
     0
102
RTVSPost2010Prop53
 90
        2
102
RTVSPost2010PropOp53
 70
     1
102
RTVSPost2010Prop54
  1
strokes_ogs.tif
102
RTVSPost2010PropOp54
 70
     1
102
RTVSPost2010Prop55
280
     0
102
RTVSPost2010PropOp55
 70
     1
102
RTVSPost2010Prop56
140
1.0
102
RTVSPost2010PropOp56
 70
     1
102
RTVSPost2010Prop57
140
1.0
102
RTVSPost2010PropOp57
 70
     1
102
RTVSPropertyOp0
 70
     1
102
RTVSPropertyOp1
 70
     1
102
RTVSPropertyOp2
 70
     1
102
RTVSPropertyOp3
 70
     1
102
RTVSPropertyOp4
 70
     1
102
RTVSPropertyOp5
 70
     1
102
RTVSPropertyOp6
 70
     1
102
RTVSPropertyOp7
 70
     1
102
RTVSPropertyOp8
 70
     1
102
RTVSPropertyOp9
 70
     1
102
RTVSPropertyOp10
 70
     1
102
RTVSPropertyOp11
 70
     1
102
RTVSPropertyOp12
 70
     1
102
RTVSPropertyOp13
 70
     1
102
RTVSPropertyOp14
 70
     1
102
RTVSPropertyOp15
 70
     1
102
RTVSPropertyOp16
 70
     1
102
RTVSPropertyOp17
 70
     1
102
RTVSPropertyOp18
 70
     1
102
RTVSPropertyOp19
 70
     1
102
RTVSPropertyOp20
 70
     1
102
RTVSPropertyOp21
 70
     1
102
RTVSPropertyOp22
 70
     1
102
RTVSPropertyOp23
 70
     1
102
RTVSPropertyOp24
 70
     1
102
RTVSPropertyOp25
 70
     1
102
RTVSPropertyOp26
 70
     1
102
RTVSPropertyOp27
 70
     1
102
RTVSPropertyOp28
 70
     1
102
RTVSPropertyOp29
 70
     1
102
RTVSPropertyOp30
 70
     1
102
RTVSPropertyOp31
 70
     1
102
RTVSPropertyOp32
 70
     1
102
RTVSPropertyOp33
 70
     1
102
RTVSPropertyOp34
 70
     1
102
RTVSPropertyOp35
 70
     1
102
RTVSPropertyOp36
 70
     1
102
RTVSPropertyOp37
 70
     1
102
RTVSPropertyOp38
 70
     1
102
RTVSPropertyOp39
 70
     1
102
RTVSPropertyOp40
 70
     1
102
RTVSPropertyOp41
 70
     1
102
RTVSPropertyOp42
 70
     1
102
RTVSPropertyOp43
 70
     1
102
RTVSPropertyOp44
 70
     1
102
RTVSPropertyOp45
 70
     1
102
RTVSPropertyOp46
 70
     1
102
RTVSPropertyOp47
 70
     1
102
RTVSPropertyOp48
 70
     1
102
RTVSPropertyOp49
 70
     1
102
RTVSPropertyOp50
 70
     1
102
RTVSPropertyOp51
 70
     0
102
RTVSPropertyOp52
 70
     0
102
RTVSPropertyOp53
 70
     1
102
RTVSPropertyOp54
 70
     1
102
RTVSPropertyOp55
 70
     1
102
RTVSPropertyOp56
 70
     1
102
RTVSPropertyOp57
 70
     1
102
RTVSPropertyOp58
 70
     1
102
RTVSPropertyOp59
 70
     1
102
RTVSPropertyOp60
 70
     1
102
RTVSPropertyOp61
 70
     1
102
RTVSPropertyOp62
 70
     1
  0
XRECORD
  5
3D9
102
{ACAD_REACTORS
330
3D8
102
}
330
3D8
100
AcDbXrecord
280
     1
102
RTVSPost2010Prop28
280
     0
102
RTVSPost2010PropOp28
 70
     0
102
RTVSPost2010Prop29
280
     1
102
RTVSPost2010PropOp29
 70
     0
102
RTVSPost2010Prop30
280
     1
102
RTVSPost2010PropOp30
 70
     0
102
RTVSPost2010Prop31
280
     0
102
RTVSPost2010PropOp31
 70
     0
102
RTVSPost2010Prop32
280
     0
102
RTVSPost2010PropOp32
 70
     0
102
RTVSPost2010Prop33
280
     0
102
RTVSPost2010PropOp33
 70
     0
102
RTVSPost2010Prop34
280
     0
102
RTVSPost2010PropOp34
 70
     0
102
RTVSPost2010Prop35
280
     0
102
RTVSPost2010PropOp35
 70
     0
102
RTVSPost2010Prop36
280
     0
102
RTVSPost2010PropOp36
 70
     0
102
RTVSPost2010Prop37
 90
       50
102
RTVSPost2010PropOp37
 70
     0
102
RTVSPost2010Prop38
140
0.0
102
RTVSPost2010PropOp38
 70
     0
102
RTVSPost2010Prop39
140
1.0
102
RTVSPost2010PropOp39
 70
     0
102
RTVSPost2010Prop40
 90
        0
102
RTVSPost2010PropOp40
 70
     0
102
RTVSPost2010Prop41ColorIndex
 90
       18
102
RTVSPost2010Prop41ColorRGB
 90
        0
102
RTVSPost2010PropOp41
 70
     0
102
RTVSPost2010Prop42
 90
       50
102
RTVSPost2010PropOp42
 70
     0
102
RTVSPost2010Prop43
 90
        3
102
RTVSPost2010PropOp43
 70
     0
102
RTVSPost2010Prop44ColorIndex
 90
        5
102
RTVSPost2010Prop44ColorRGB
 90
      255
102
RTVSPost2010PropOp44
 70
     0
102
RTVSPost2010Prop45
280
     0
102
RTVSPost2010PropOp45
 70
     0
102
RTVSPost2010Prop46
 90
       50
102
RTVSPost2010PropOp46
 70
     0
102
RTVSPost2010Prop47
 90
       50
102
RTVSPost2010PropOp47
 70
     0
102
RTVSPost2010Prop48
 90
       50
102
RTVSPost2010PropOp48
 70
     0
102
RTVSPost2010Prop49
280
     0
102
RTVSPost2010PropOp49
 70
     0
102
RTVSPost2010Prop50
 90
       50
102
RTVSPost2010PropOp50
 70
     0
102
RTVSPost2010Prop51ColorIndex
 90
      256
102
RTVSPost2010Prop51ColorRGB
 90
-16777216
102
RTVSPost2010PropOp51
 70
     0
102
RTVSPost2010Prop52
140
1.0
102
RTVSPost2010PropOp52
 70
     0
102
RTVSPost2010Prop53
 90
        2
102
RTVSPost2010PropOp53
 70
     0
102
RTVSPost2010Prop54
  1
strokes_ogs.tif
102
RTVSPost2010PropOp54
 70
     0
102
RTVSPost2010Prop55
280
     0
102
RTVSPost2010PropOp55
 70
     0
102
RTVSPost2010Prop56
140
1.0
102
RTVSPost2010PropOp56
 70
     0
102
RTVSPost2010Prop57
140
1.0
102
RTVSPost2010PropOp57
 70
     0
102
RTVSPropertyOp0
 70
     0
102
RTVSPropertyOp1
 70
     0
102
RTVSPropertyOp2
 70
     0
102
RTVSPropertyOp3
 70
     0
102
RTVSPropertyOp4
 70
     0
102
RTVSPropertyOp5
 70
     0
102
RTVSPropertyOp6
 70
     0
102
RTVSPropertyOp7
 70
     0
102
RTVSPropertyOp8
 70
     0
102
RTVSPropertyOp9
 70
     0
102
RTVSPropertyOp10
 70
     0
102
RTVSPropertyOp11
 70
     0
102
RTVSPropertyOp12
 70
     0
102
RTVSPropertyOp13
 70
     0
102
RTVSPropertyOp14
 70
     2
102
RTVSPropertyOp15
 70
     0
102
RTVSPropertyOp16
 70
     0
102
RTVSPropertyOp17
 70
     0
102
RTVSPropertyOp18
 70
     0
102
RTVSPropertyOp19
 70
     0
102
RTVSPropertyOp20
 70
     0
102
RTVSPropertyOp21
 70
     0
102
RTVSPropertyOp22
 70
     0
102
RTVSPropertyOp23
 70
     0
102
RTVSPropertyOp24
 70
     0
102
RTVSPropertyOp25
 70
     0
102
RTVSPropertyOp26
 70
     0
102
RTVSPropertyOp27
 70
     0
102
RTVSPropertyOp28
 70
     0
102
RTVSPropertyOp29
 70
     0
102
RTVSPropertyOp30
 70
     0
102
RTVSPropertyOp31
 70
     0
102
RTVSPropertyOp32
 70
     0
102
RTVSPropertyOp33
 70
     0
102
RTVSPropertyOp34
 70
     0
102
RTVSPropertyOp35
 70
     0
102
RTVSPropertyOp36
 70
     0
102
RTVSPropertyOp37
 70
     0
102
RTVSPropertyOp38
 70
     0
102
RTVSPropertyOp39
 70
     0
102
RTVSPropertyOp40
 70
     0
102
RTVSPropertyOp41
 70
     0
102
RTVSPropertyOp42
 70
     0
102
RTVSPropertyOp43
 70
     0
102
RTVSPropertyOp44
 70
     0
102
RTVSPropertyOp45
 70
     0
102
RTVSPropertyOp46
 70
     0
102
RTVSPropertyOp47
 70
     0
102
RTVSPropertyOp48
 70
     0
102
RTVSPropertyOp49
 70
     0
102
RTVSPropertyOp50
 70
     0
102
RTVSPropertyOp51
 70
     0
102
RTVSPropertyOp52
 70
     0
102
RTVSPropertyOp53
 70
     0
102
RTVSPropertyOp54
 70
     0
102
RTVSPropertyOp55
 70
     0
102
RTVSPropertyOp56
 70
     0
102
RTVSPropertyOp57
 70
     0
102
RTVSPropertyOp58
 70
     1
102
RTVSPropertyOp59
 70
     1
102
RTVSPropertyOp60
 70
     1
102
RTVSPropertyOp61
 70
     1
102
RTVSPropertyOp62
 70
     1
  0
XRECORD
  5
3D3
102
{ACAD_REACTORS
330
3D2
102
}
330
3D2
100
AcDbXrecord
280
     1
102
RTVSPost2010Prop28
280
     0
102
RTVSPost2010PropOp28
 70
     1
102
RTVSPost2010Prop29
280
     1
102
RTVSPost2010PropOp29
 70
     1
102
RTVSPost2010Prop30
280
     1
102
RTVSPost2010PropOp30
 70
     1
102
RTVSPost2010Prop31
280
     0
102
RTVSPost2010PropOp31
 70
     1
102
RTVSPost2010Prop32
280
     0
102
RTVSPost2010PropOp32
 70
     1
102
RTVSPost2010Prop33
280
     0
102
RTVSPost2010PropOp33
 70
     1
102
RTVSPost2010Prop34
280
     0
102
RTVSPost2010PropOp34
 70
     1
102
RTVSPost2010Prop35
280
     0
102
RTVSPost2010PropOp35
 70
     1
102
RTVSPost2010Prop36
280
     0
102
RTVSPost2010PropOp36
 70
     1
102
RTVSPost2010Prop37
 90
       50
102
RTVSPost2010PropOp37
 70
     1
102
RTVSPost2010Prop38
140
0.0
102
RTVSPost2010PropOp38
 70
     1
102
RTVSPost2010Prop39
140
1.0
102
RTVSPost2010PropOp39
 70
     1
102
RTVSPost2010Prop40
 90
        0
102
RTVSPost2010PropOp40
 70
     1
102
RTVSPost2010Prop41ColorIndex
 90
       18
102
RTVSPost2010Prop41ColorRGB
 90
        0
102
RTVSPost2010PropOp41
 70
     1
102
RTVSPost2010Prop42
 90
       50
102
RTVSPost2010PropOp42
 70
     1
102
RTVSPost2010Prop43
 90
        3
102
RTVSPost2010PropOp43
 70
     1
102
RTVSPost2010Prop44ColorIndex
 90
        5
102
RTVSPost2010Prop44ColorRGB
 90
      255
102
RTVSPost2010PropOp44
 70
     1
102
RTVSPost2010Prop45
280
     0
102
RTVSPost2010PropOp45
 70
     1
102
RTVSPost2010Prop46
 90
       50
102
RTVSPost2010PropOp46
 70
     1
102
RTVSPost2010Prop47
 90
       50
102
RTVSPost2010PropOp47
 70
     1
102
RTVSPost2010Prop48
 90
       50
102
RTVSPost2010PropOp48
 70
     1
102
RTVSPost2010Prop49
280
     0
102
RTVSPost2010PropOp49
 70
     1
102
RTVSPost2010Prop50
 90
       50
102
RTVSPost2010PropOp50
 70
     1
102
RTVSPost2010Prop51ColorIndex
 90
      256
102
RTVSPost2010Prop51ColorRGB
 90
-16777216
102
RTVSPost2010PropOp51
 70
     0
102
RTVSPost2010Prop52
140
1.0
102
RTVSPost2010PropOp52
 70
     0
102
RTVSPost2010Prop53
 90
        2
102
RTVSPost2010PropOp53
 70
     1
102
RTVSPost2010Prop54
  1
strokes_ogs.tif
102
RTVSPost2010PropOp54
 70
     1
102
RTVSPost2010Prop55
280
     0
102
RTVSPost2010PropOp55
 70
     1
102
RTVSPost2010Prop56
140
1.0
102
RTVSPost2010PropOp56
 70
     1
102
RTVSPost2010Prop57
140
1.0
102
RTVSPost2010PropOp57
 70
     1
102
RTVSPropertyOp0
 70
     1
102
RTVSPropertyOp1
 70
     1
102
RTVSPropertyOp2
 70
     1
102
RTVSPropertyOp3
 70
     1
102
RTVSPropertyOp4
 70
     1
102
RTVSPropertyOp5
 70
     1
102
RTVSPropertyOp6
 70
     1
102
RTVSPropertyOp7
 70
     1
102
RTVSPropertyOp8
 70
     1
102
RTVSPropertyOp9
 70
     1
102
RTVSPropertyOp10
 70
     1
102
RTVSPropertyOp11
 70
     1
102
RTVSPropertyOp12
 70
     1
102
RTVSPropertyOp13
 70
     1
102
RTVSPropertyOp14
 70
     1
102
RTVSPropertyOp15
 70
     1
102
RTVSPropertyOp16
 70
     1
102
RTVSPropertyOp17
 70
     1
102
RTVSPropertyOp18
 70
     1
102
RTVSPropertyOp19
 70
     1
102
RTVSPropertyOp20
 70
     1
102
RTVSPropertyOp21
 70
     1
102
RTVSPropertyOp22
 70
     1
102
RTVSPropertyOp23
 70
     1
102
RTVSPropertyOp24
 70
     1
102
RTVSPropertyOp25
 70
     1
102
RTVSPropertyOp26
 70
     1
102
RTVSPropertyOp27
 70
     1
102
RTVSPropertyOp28
 70
     1
102
RTVSPropertyOp29
 70
     1
102
RTVSPropertyOp30
 70
     1
102
RTVSPropertyOp31
 70
     1
102
RTVSPropertyOp32
 70
     1
102
RTVSPropertyOp33
 70
     1
102
RTVSPropertyOp34
 70
     1
102
RTVSPropertyOp35
 70
     1
102
RTVSPropertyOp36
 70
     1
102
RTVSPropertyOp37
 70
     1
102
RTVSPropertyOp38
 70
     1
102
RTVSPropertyOp39
 70
     1
102
RTVSPropertyOp40
 70
     1
102
RTVSPropertyOp41
 70
     1
102
RTVSPropertyOp42
 70
     1
102
RTVSPropertyOp43
 70
     1
102
RTVSPropertyOp44
 70
     1
102
RTVSPropertyOp45
 70
     1
102
RTVSPropertyOp46
 70
     1
102
RTVSPropertyOp47
 70
     1
102
RTVSPropertyOp48
 70
     1
102
RTVSPropertyOp49
 70
     1
102
RTVSPropertyOp50
 70
     1
102
RTVSPropertyOp51
 70
     0
102
RTVSPropertyOp52
 70
     0
102
RTVSPropertyOp53
 70
     1
102
RTVSPropertyOp54
 70
     1
102
RTVSPropertyOp55
 70
     1
102
RTVSPropertyOp56
 70
     1
102
RTVSPropertyOp57
 70
     1
102
RTVSPropertyOp58
 70
     1
102
RTVSPropertyOp59
 70
     1
102
RTVSPropertyOp60
 70
     1
102
RTVSPropertyOp61
 70
     1
102
RTVSPropertyOp62
 70
     1
  0
XRECORD
  5
3DB
102
{ACAD_REACTORS
330
3DA
102
}
330
3DA
100
AcDbXrecord
280
     1
102
RTVSPost2010Prop28
280
     0
102
RTVSPost2010PropOp28
 70
     0
102
RTVSPost2010Prop29
280
     1
102
RTVSPost2010PropOp29
 70
     0
102
RTVSPost2010Prop30
280
     1
102
RTVSPost2010PropOp30
 70
     0
102
RTVSPost2010Prop31
280
     0
102
RTVSPost2010PropOp31
 70
     0
102
RTVSPost2010Prop32
280
     0
102
RTVSPost2010PropOp32
 70
     0
102
RTVSPost2010Prop33
280
     0
102
RTVSPost2010PropOp33
 70
     0
102
RTVSPost2010Prop34
280
     0
102
RTVSPost2010PropOp34
 70
     0
102
RTVSPost2010Prop35
280
     0
102
RTVSPost2010PropOp35
 70
     0
102
RTVSPost2010Prop36
280
     0
102
RTVSPost2010PropOp36
 70
     0
102
RTVSPost2010Prop37
 90
       50
102
RTVSPost2010PropOp37
 70
     0
102
RTVSPost2010Prop38
140
0.0
102
RTVSPost2010PropOp38
 70
     0
102
RTVSPost2010Prop39
140
1.0
102
RTVSPost2010PropOp39
 70
     0
102
RTVSPost2010Prop40
 90
        0
102
RTVSPost2010PropOp40
 70
     0
102
RTVSPost2010Prop41ColorIndex
 90
       18
102
RTVSPost2010Prop41ColorRGB
 90
        0
102
RTVSPost2010PropOp41
 70
     0
102
RTVSPost2010Prop42
 90
       50
102
RTVSPost2010PropOp42
 70
     0
102
RTVSPost2010Prop43
 90
        3
102
RTVSPost2010PropOp43
 70
     0
102
RTVSPost2010Prop44ColorIndex
 90
        5
102
RTVSPost2010Prop44ColorRGB
 90
      255
102
RTVSPost2010PropOp44
 70
     0
102
RTVSPost2010Prop45
280
     0
102
RTVSPost2010PropOp45
 70
     0
102
RTVSPost2010Prop46
 90
       50
102
RTVSPost2010PropOp46
 70
     0
102
RTVSPost2010Prop47
 90
       50
102
RTVSPost2010PropOp47
 70
     0
102
RTVSPost2010Prop48
 90
       50
102
RTVSPost2010PropOp48
 70
     0
102
RTVSPost2010Prop49
280
     0
102
RTVSPost2010PropOp49
 70
     0
102
RTVSPost2010Prop50
 90
       50
102
RTVSPost2010PropOp50
 70
     0
102
RTVSPost2010Prop51ColorIndex
 90
      256
102
RTVSPost2010Prop51ColorRGB
 90
-16777216
102
RTVSPost2010PropOp51
 70
     0
102
RTVSPost2010Prop52
140
1.0
102
RTVSPost2010PropOp52
 70
     0
102
RTVSPost2010Prop53
 90
        2
102
RTVSPost2010PropOp53
 70
     0
102
RTVSPost2010Prop54
  1
strokes_ogs.tif
102
RTVSPost2010PropOp54
 70
     0
102
RTVSPost2010Prop55
280
     0
102
RTVSPost2010PropOp55
 70
     0
102
RTVSPost2010Prop56
140
1.0
102
RTVSPost2010PropOp56
 70
     0
102
RTVSPost2010Prop57
140
1.0
102
RTVSPost2010PropOp57
 70
     0
102
RTVSPropertyOp0
 70
     0
102
RTVSPropertyOp1
 70
     0
102
RTVSPropertyOp2
 70
     0
102
RTVSPropertyOp3
 70
     0
102
RTVSPropertyOp4
 70
     0
102
RTVSPropertyOp5
 70
     0
102
RTVSPropertyOp6
 70
     0
102
RTVSPropertyOp7
 70
     0
102
RTVSPropertyOp8
 70
     0
102
RTVSPropertyOp9
 70
     0
102
RTVSPropertyOp10
 70
     0
102
RTVSPropertyOp11
 70
     0
102
RTVSPropertyOp12
 70
     0
102
RTVSPropertyOp13
 70
     0
102
RTVSPropertyOp14
 70
     2
102
RTVSPropertyOp15
 70
     0
102
RTVSPropertyOp16
 70
     0
102
RTVSPropertyOp17
 70
     0
102
RTVSPropertyOp18
 70
     0
102
RTVSPropertyOp19
 70
     0
102
RTVSPropertyOp20
 70
     0
102
RTVSPropertyOp21
 70
     0
102
RTVSPropertyOp22
 70
     0
102
RTVSPropertyOp23
 70
     0
102
RTVSPropertyOp24
 70
     0
102
RTVSPropertyOp25
 70
     0
102
RTVSPropertyOp26
 70
     0
102
RTVSPropertyOp27
 70
     0
102
RTVSPropertyOp28
 70
     0
102
RTVSPropertyOp29
 70
     0
102
RTVSPropertyOp30
 70
     0
102
RTVSPropertyOp31
 70
     0
102
RTVSPropertyOp32
 70
     0
102
RTVSPropertyOp33
 70
     0
102
RTVSPropertyOp34
 70
     0
102
RTVSPropertyOp35
 70
     0
102
RTVSPropertyOp36
 70
     0
102
RTVSPropertyOp37
 70
     0
102
RTVSPropertyOp38
 70
     0
102
RTVSPropertyOp39
 70
     0
102
RTVSPropertyOp40
 70
     0
102
RTVSPropertyOp41
 70
     0
102
RTVSPropertyOp42
 70
     0
102
RTVSPropertyOp43
 70
     0
102
RTVSPropertyOp44
 70
     0
102
RTVSPropertyOp45
 70
     0
102
RTVSPropertyOp46
 70
     0
102
RTVSPropertyOp47
 70
     0
102
RTVSPropertyOp48
 70
     0
102
RTVSPropertyOp49
 70
     0
102
RTVSPropertyOp50
 70
     0
102
RTVSPropertyOp51
 70
     0
102
RTVSPropertyOp52
 70
     0
102
RTVSPropertyOp53
 70
     0
102
RTVSPropertyOp54
 70
     0
102
RTVSPropertyOp55
 70
     0
102
RTVSPropertyOp56
 70
     0
102
RTVSPropertyOp57
 70
     0
102
RTVSPropertyOp58
 70
     1
102
RTVSPropertyOp59
 70
     1
102
RTVSPropertyOp60
 70
     1
102
RTVSPropertyOp61
 70
     1
102
RTVSPropertyOp62
 70
     1
  0
XRECORD
  5
3C9
102
{ACAD_REACTORS
330
3C8
102
}
330
3C8
100
AcDbXrecord
280
     1
102
RTVSPost2010Prop28
280
     0
102
RTVSPost2010PropOp28
 70
     1
102
RTVSPost2010Prop29
280
     1
102
RTVSPost2010PropOp29
 70
     1
102
RTVSPost2010Prop30
280
     1
102
RTVSPost2010PropOp30
 70
     1
102
RTVSPost2010Prop31
280
     0
102
RTVSPost2010PropOp31
 70
     1
102
RTVSPost2010Prop32
280
     0
102
RTVSPost2010PropOp32
 70
     1
102
RTVSPost2010Prop33
280
     0
102
RTVSPost2010PropOp33
 70
     1
102
RTVSPost2010Prop34
280
     0
102
RTVSPost2010PropOp34
 70
     1
102
RTVSPost2010Prop35
280
     0
102
RTVSPost2010PropOp35
 70
     1
102
RTVSPost2010Prop36
280
     0
102
RTVSPost2010PropOp36
 70
     1
102
RTVSPost2010Prop37
 90
       50
102
RTVSPost2010PropOp37
 70
     1
102
RTVSPost2010Prop38
140
0.0
102
RTVSPost2010PropOp38
 70
     1
102
RTVSPost2010Prop39
140
1.0
102
RTVSPost2010PropOp39
 70
     1
102
RTVSPost2010Prop40
 90
        0
102
RTVSPost2010PropOp40
 70
     1
102
RTVSPost2010Prop41ColorIndex
 90
       18
102
RTVSPost2010Prop41ColorRGB
 90
        0
102
RTVSPost2010PropOp41
 70
     1
102
RTVSPost2010Prop42
 90
       50
102
RTVSPost2010PropOp42
 70
     1
102
RTVSPost2010Prop43
 90
        3
102
RTVSPost2010PropOp43
 70
     1
102
RTVSPost2010Prop44ColorIndex
 90
        5
102
RTVSPost2010Prop44ColorRGB
 90
      255
102
RTVSPost2010PropOp44
 70
     1
102
RTVSPost2010Prop45
280
     0
102
RTVSPost2010PropOp45
 70
     1
102
RTVSPost2010Prop46
 90
       50
102
RTVSPost2010PropOp46
 70
     1
102
RTVSPost2010Prop47
 90
       50
102
RTVSPost2010PropOp47
 70
     1
102
RTVSPost2010Prop48
 90
       50
102
RTVSPost2010PropOp48
 70
     1
102
RTVSPost2010Prop49
280
     0
102
RTVSPost2010PropOp49
 70
     1
102
RTVSPost2010Prop50
 90
       50
102
RTVSPost2010PropOp50
 70
     1
102
RTVSPost2010Prop51ColorIndex
 90
      256
102
RTVSPost2010Prop51ColorRGB
 90
-16777216
102
RTVSPost2010PropOp51
 70
     0
102
RTVSPost2010Prop52
140
1.0
102
RTVSPost2010PropOp52
 70
     0
102
RTVSPost2010Prop53
 90
        2
102
RTVSPost2010PropOp53
 70
     1
102
RTVSPost2010Prop54
  1
strokes_ogs.tif
102
RTVSPost2010PropOp54
 70
     1
102
RTVSPost2010Prop55
280
     0
102
RTVSPost2010PropOp55
 70
     1
102
RTVSPost2010Prop56
140
1.0
102
RTVSPost2010PropOp56
 70
     1
102
RTVSPost2010Prop57
140
1.0
102
RTVSPost2010PropOp57
 70
     1
102
RTVSPropertyOp0
 70
     1
102
RTVSPropertyOp1
 70
     1
102
RTVSPropertyOp2
 70
     1
102
RTVSPropertyOp3
 70
     1
102
RTVSPropertyOp4
 70
     1
102
RTVSPropertyOp5
 70
     1
102
RTVSPropertyOp6
 70
     1
102
RTVSPropertyOp7
 70
     1
102
RTVSPropertyOp8
 70
     1
102
RTVSPropertyOp9
 70
     1
102
RTVSPropertyOp10
 70
     1
102
RTVSPropertyOp11
 70
     1
102
RTVSPropertyOp12
 70
     1
102
RTVSPropertyOp13
 70
     1
102
RTVSPropertyOp14
 70
     1
102
RTVSPropertyOp15
 70
     1
102
RTVSPropertyOp16
 70
     1
102
RTVSPropertyOp17
 70
     1
102
RTVSPropertyOp18
 70
     1
102
RTVSPropertyOp19
 70
     1
102
RTVSPropertyOp20
 70
     1
102
RTVSPropertyOp21
 70
     1
102
RTVSPropertyOp22
 70
     1
102
RTVSPropertyOp23
 70
     1
102
RTVSPropertyOp24
 70
     1
102
RTVSPropertyOp25
 70
     1
102
RTVSPropertyOp26
 70
     1
102
RTVSPropertyOp27
 70
     1
102
RTVSPropertyOp28
 70
     1
102
RTVSPropertyOp29
 70
     1
102
RTVSPropertyOp30
 70
     1
102
RTVSPropertyOp31
 70
     1
102
RTVSPropertyOp32
 70
     1
102
RTVSPropertyOp33
 70
     1
102
RTVSPropertyOp34
 70
     1
102
RTVSPropertyOp35
 70
     1
102
RTVSPropertyOp36
 70
     1
102
RTVSPropertyOp37
 70
     1
102
RTVSPropertyOp38
 70
     1
102
RTVSPropertyOp39
 70
     1
102
RTVSPropertyOp40
 70
     1
102
RTVSPropertyOp41
 70
     1
102
RTVSPropertyOp42
 70
     1
102
RTVSPropertyOp43
 70
     1
102
RTVSPropertyOp44
 70
     1
102
RTVSPropertyOp45
 70
     1
102
RTVSPropertyOp46
 70
     1
102
RTVSPropertyOp47
 70
     1
102
RTVSPropertyOp48
 70
     1
102
RTVSPropertyOp49
 70
     1
102
RTVSPropertyOp50
 70
     1
102
RTVSPropertyOp51
 70
     0
102
RTVSPropertyOp52
 70
     0
102
RTVSPropertyOp53
 70
     1
102
RTVSPropertyOp54
 70
     1
102
RTVSPropertyOp55
 70
     1
102
RTVSPropertyOp56
 70
     1
102
RTVSPropertyOp57
 70
     1
102
RTVSPropertyOp58
 70
     1
102
RTVSPropertyOp59
 70
     1
102
RTVSPropertyOp60
 70
     1
102
RTVSPropertyOp61
 70
     1
102
RTVSPropertyOp62
 70
     1
  0
XRECORD
  5
3E7
102
{ACAD_REACTORS
330
3E6
102
}
330
3E6
100
AcDbXrecord
280
     1
102
RTVSPost2010Prop28
280
     0
102
RTVSPost2010PropOp28
 70
     1
102
RTVSPost2010Prop29
280
     1
102
RTVSPost2010PropOp29
 70
     1
102
RTVSPost2010Prop30
280
     1
102
RTVSPost2010PropOp30
 70
     1
102
RTVSPost2010Prop31
280
     0
102
RTVSPost2010PropOp31
 70
     1
102
RTVSPost2010Prop32
280
     0
102
RTVSPost2010PropOp32
 70
     1
102
RTVSPost2010Prop33
280
     0
102
RTVSPost2010PropOp33
 70
     1
102
RTVSPost2010Prop34
280
     0
102
RTVSPost2010PropOp34
 70
     1
102
RTVSPost2010Prop35
280
     0
102
RTVSPost2010PropOp35
 70
     1
102
RTVSPost2010Prop36
280
     0
102
RTVSPost2010PropOp36
 70
     1
102
RTVSPost2010Prop37
 90
       50
102
RTVSPost2010PropOp37
 70
     1
102
RTVSPost2010Prop38
140
0.0
102
RTVSPost2010PropOp38
 70
     1
102
RTVSPost2010Prop39
140
1.0
102
RTVSPost2010PropOp39
 70
     1
102
RTVSPost2010Prop40
 90
        0
102
RTVSPost2010PropOp40
 70
     1
102
RTVSPost2010Prop41ColorIndex
 90
       18
102
RTVSPost2010Prop41ColorRGB
 90
        0
102
RTVSPost2010PropOp41
 70
     1
102
RTVSPost2010Prop42
 90
       50
102
RTVSPost2010PropOp42
 70
     1
102
RTVSPost2010Prop43
 90
        3
102
RTVSPost2010PropOp43
 70
     1
102
RTVSPost2010Prop44ColorIndex
 90
        5
102
RTVSPost2010Prop44ColorRGB
 90
      255
102
RTVSPost2010PropOp44
 70
     1
102
RTVSPost2010Prop45
280
     0
102
RTVSPost2010PropOp45
 70
     1
102
RTVSPost2010Prop46
 90
       50
102
RTVSPost2010PropOp46
 70
     1
102
RTVSPost2010Prop47
 90
       50
102
RTVSPost2010PropOp47
 70
     1
102
RTVSPost2010Prop48
 90
       50
102
RTVSPost2010PropOp48
 70
     1
102
RTVSPost2010Prop49
280
     0
102
RTVSPost2010PropOp49
 70
     1
102
RTVSPost2010Prop50
 90
       50
102
RTVSPost2010PropOp50
 70
     1
102
RTVSPost2010Prop51ColorIndex
 90
      256
102
RTVSPost2010Prop51ColorRGB
 90
-16777216
102
RTVSPost2010PropOp51
 70
     0
102
RTVSPost2010Prop52
140
1.0
102
RTVSPost2010PropOp52
 70
     0
102
RTVSPost2010Prop53
 90
        2
102
RTVSPost2010PropOp53
 70
     1
102
RTVSPost2010Prop54
  1
strokes_ogs.tif
102
RTVSPost2010PropOp54
 70
     1
102
RTVSPost2010Prop55
280
     0
102
RTVSPost2010PropOp55
 70
     1
102
RTVSPost2010Prop56
140
1.0
102
RTVSPost2010PropOp56
 70
     1
102
RTVSPost2010Prop57
140
1.0
102
RTVSPost2010PropOp57
 70
     1
102
RTVSPropertyOp0
 70
     1
102
RTVSPropertyOp1
 70
     1
102
RTVSPropertyOp2
 70
     1
102
RTVSPropertyOp3
 70
     1
102
RTVSPropertyOp4
 70
     1
102
RTVSPropertyOp5
 70
     1
102
RTVSPropertyOp6
 70
     1
102
RTVSPropertyOp7
 70
     1
102
RTVSPropertyOp8
 70
     1
102
RTVSPropertyOp9
 70
     1
102
RTVSPropertyOp10
 70
     1
102
RTVSPropertyOp11
 70
     1
102
RTVSPropertyOp12
 70
     1
102
RTVSPropertyOp13
 70
     1
102
RTVSPropertyOp14
 70
     1
102
RTVSPropertyOp15
 70
     1
102
RTVSPropertyOp16
 70
     1
102
RTVSPropertyOp17
 70
     1
102
RTVSPropertyOp18
 70
     1
102
RTVSPropertyOp19
 70
     1
102
RTVSPropertyOp20
 70
     1
102
RTVSPropertyOp21
 70
     1
102
RTVSPropertyOp22
 70
     1
102
RTVSPropertyOp23
 70
     1
102
RTVSPropertyOp24
 70
     1
102
RTVSPropertyOp25
 70
     1
102
RTVSPropertyOp26
 70
     1
102
RTVSPropertyOp27
 70
     1
102
RTVSPropertyOp28
 70
     1
102
RTVSPropertyOp29
 70
     1
102
RTVSPropertyOp30
 70
     1
102
RTVSPropertyOp31
 70
     1
102
RTVSPropertyOp32
 70
     1
102
RTVSPropertyOp33
 70
     1
102
RTVSPropertyOp34
 70
     1
102
RTVSPropertyOp35
 70
     1
102
RTVSPropertyOp36
 70
     1
102
RTVSPropertyOp37
 70
     1
102
RTVSPropertyOp38
 70
     1
102
RTVSPropertyOp39
 70
     1
102
RTVSPropertyOp40
 70
     1
102
RTVSPropertyOp41
 70
     1
102
RTVSPropertyOp42
 70
     1
102
RTVSPropertyOp43
 70
     1
102
RTVSPropertyOp44
 70
     1
102
RTVSPropertyOp45
 70
     1
102
RTVSPropertyOp46
 70
     1
102
RTVSPropertyOp47
 70
     1
102
RTVSPropertyOp48
 70
     1
102
RTVSPropertyOp49
 70
     1
102
RTVSPropertyOp50
 70
     1
102
RTVSPropertyOp51
 70
     0
102
RTVSPropertyOp52
 70
     0
102
RTVSPropertyOp53
 70
     1
102
RTVSPropertyOp54
 70
     1
102
RTVSPropertyOp55
 70
     1
102
RTVSPropertyOp56
 70
     1
102
RTVSPropertyOp57
 70
     1
102
RTVSPropertyOp58
 70
     1
102
RTVSPropertyOp59
 70
     1
102
RTVSPropertyOp60
 70
     1
102
RTVSPropertyOp61
 70
     1
102
RTVSPropertyOp62
 70
     1
  0
XRECORD
  5
3E5
102
{ACAD_REACTORS
330
3E4
102
}
330
3E4
100
AcDbXrecord
280
     1
102
RTVSPost2010Prop28
280
     0
102
RTVSPost2010PropOp28
 70
     1
102
RTVSPost2010Prop29
280
     1
102
RTVSPost2010PropOp29
 70
     1
102
RTVSPost2010Prop30
280
     1
102
RTVSPost2010PropOp30
 70
     1
102
RTVSPost2010Prop31
280
     0
102
RTVSPost2010PropOp31
 70
     1
102
RTVSPost2010Prop32
280
     0
102
RTVSPost2010PropOp32
 70
     1
102
RTVSPost2010Prop33
280
     0
102
RTVSPost2010PropOp33
 70
     1
102
RTVSPost2010Prop34
280
     0
102
RTVSPost2010PropOp34
 70
     1
102
RTVSPost2010Prop35
280
     0
102
RTVSPost2010PropOp35
 70
     1
102
RTVSPost2010Prop36
280
     0
102
RTVSPost2010PropOp36
 70
     1
102
RTVSPost2010Prop37
 90
       50
102
RTVSPost2010PropOp37
 70
     1
102
RTVSPost2010Prop38
140
0.0
102
RTVSPost2010PropOp38
 70
     1
102
RTVSPost2010Prop39
140
1.0
102
RTVSPost2010PropOp39
 70
     1
102
RTVSPost2010Prop40
 90
        0
102
RTVSPost2010PropOp40
 70
     1
102
RTVSPost2010Prop41ColorIndex
 90
       18
102
RTVSPost2010Prop41ColorRGB
 90
        0
102
RTVSPost2010PropOp41
 70
     1
102
RTVSPost2010Prop42
 90
       50
102
RTVSPost2010PropOp42
 70
     1
102
RTVSPost2010Prop43
 90
        3
102
RTVSPost2010PropOp43
 70
     1
102
RTVSPost2010Prop44ColorIndex
 90
        5
102
RTVSPost2010Prop44ColorRGB
 90
      255
102
RTVSPost2010PropOp44
 70
     1
102
RTVSPost2010Prop45
280
     0
102
RTVSPost2010PropOp45
 70
     1
102
RTVSPost2010Prop46
 90
       50
102
RTVSPost2010PropOp46
 70
     1
102
RTVSPost2010Prop47
 90
       50
102
RTVSPost2010PropOp47
 70
     1
102
RTVSPost2010Prop48
 90
       50
102
RTVSPost2010PropOp48
 70
     1
102
RTVSPost2010Prop49
280
     0
102
RTVSPost2010PropOp49
 70
     1
102
RTVSPost2010Prop50
 90
       50
102
RTVSPost2010PropOp50
 70
     1
102
RTVSPost2010Prop51ColorIndex
 90
      256
102
RTVSPost2010Prop51ColorRGB
 90
-16777216
102
RTVSPost2010PropOp51
 70
     0
102
RTVSPost2010Prop52
140
1.0
102
RTVSPost2010PropOp52
 70
     0
102
RTVSPost2010Prop53
 90
        2
102
RTVSPost2010PropOp53
 70
     1
102
RTVSPost2010Prop54
  1
strokes_ogs.tif
102
RTVSPost2010PropOp54
 70
     1
102
RTVSPost2010Prop55
280
     0
102
RTVSPost2010PropOp55
 70
     1
102
RTVSPost2010Prop56
140
1.0
102
RTVSPost2010PropOp56
 70
     1
102
RTVSPost2010Prop57
140
1.0
102
RTVSPost2010PropOp57
 70
     1
102
RTVSPropertyOp0
 70
     1
102
RTVSPropertyOp1
 70
     1
102
RTVSPropertyOp2
 70
     1
102
RTVSPropertyOp3
 70
     1
102
RTVSPropertyOp4
 70
     1
102
RTVSPropertyOp5
 70
     1
102
RTVSPropertyOp6
 70
     1
102
RTVSPropertyOp7
 70
     1
102
RTVSPropertyOp8
 70
     1
102
RTVSPropertyOp9
 70
     1
102
RTVSPropertyOp10
 70
     1
102
RTVSPropertyOp11
 70
     1
102
RTVSPropertyOp12
 70
     1
102
RTVSPropertyOp13
 70
     1
102
RTVSPropertyOp14
 70
     1
102
RTVSPropertyOp15
 70
     1
102
RTVSPropertyOp16
 70
     1
102
RTVSPropertyOp17
 70
     1
102
RTVSPropertyOp18
 70
     1
102
RTVSPropertyOp19
 70
     1
102
RTVSPropertyOp20
 70
     1
102
RTVSPropertyOp21
 70
     1
102
RTVSPropertyOp22
 70
     1
102
RTVSPropertyOp23
 70
     1
102
RTVSPropertyOp24
 70
     1
102
RTVSPropertyOp25
 70
     1
102
RTVSPropertyOp26
 70
     1
102
RTVSPropertyOp27
 70
     1
102
RTVSPropertyOp28
 70
     1
102
RTVSPropertyOp29
 70
     1
102
RTVSPropertyOp30
 70
     1
102
RTVSPropertyOp31
 70
     1
102
RTVSPropertyOp32
 70
     1
102
RTVSPropertyOp33
 70
     1
102
RTVSPropertyOp34
 70
     1
102
RTVSPropertyOp35
 70
     1
102
RTVSPropertyOp36
 70
     1
102
RTVSPropertyOp37
 70
     1
102
RTVSPropertyOp38
 70
     1
102
RTVSPropertyOp39
 70
     1
102
RTVSPropertyOp40
 70
     1
102
RTVSPropertyOp41
 70
     1
102
RTVSPropertyOp42
 70
     1
102
RTVSPropertyOp43
 70
     1
102
RTVSPropertyOp44
 70
     1
102
RTVSPropertyOp45
 70
     1
102
RTVSPropertyOp46
 70
     1
102
RTVSPropertyOp47
 70
     1
102
RTVSPropertyOp48
 70
     1
102
RTVSPropertyOp49
 70
     1
102
RTVSPropertyOp50
 70
     1
102
RTVSPropertyOp51
 70
     0
102
RTVSPropertyOp52
 70
     0
102
RTVSPropertyOp53
 70
     1
102
RTVSPropertyOp54
 70
     1
102
RTVSPropertyOp55
 70
     1
102
RTVSPropertyOp56
 70
     1
102
RTVSPropertyOp57
 70
     1
102
RTVSPropertyOp58
 70
     1
102
RTVSPropertyOp59
 70
     1
102
RTVSPropertyOp60
 70
     1
102
RTVSPropertyOp61
 70
     1
102
RTVSPropertyOp62
 70
     1
  0
XRECORD
  5
3DF
102
{ACAD_REACTORS
330
3DE
102
}
330
3DE
100
AcDbXrecord
280
     1
102
RTVSPost2010Prop28
280
     0
102
RTVSPost2010PropOp28
 70
     1
102
RTVSPost2010Prop29
280
     1
102
RTVSPost2010PropOp29
 70
     1
102
RTVSPost2010Prop30
280
     1
102
RTVSPost2010PropOp30
 70
     1
102
RTVSPost2010Prop31
280
     0
102
RTVSPost2010PropOp31
 70
     1
102
RTVSPost2010Prop32
280
     0
102
RTVSPost2010PropOp32
 70
     1
102
RTVSPost2010Prop33
280
     0
102
RTVSPost2010PropOp33
 70
     1
102
RTVSPost2010Prop34
280
     0
102
RTVSPost2010PropOp34
 70
     1
102
RTVSPost2010Prop35
280
     0
102
RTVSPost2010PropOp35
 70
     1
102
RTVSPost2010Prop36
280
     0
102
RTVSPost2010PropOp36
 70
     1
102
RTVSPost2010Prop37
 90
       50
102
RTVSPost2010PropOp37
 70
     1
102
RTVSPost2010Prop38
140
0.0
102
RTVSPost2010PropOp38
 70
     1
102
RTVSPost2010Prop39
140
1.0
102
RTVSPost2010PropOp39
 70
     1
102
RTVSPost2010Prop40
 90
        0
102
RTVSPost2010PropOp40
 70
     1
102
RTVSPost2010Prop41ColorIndex
 90
       18
102
RTVSPost2010Prop41ColorRGB
 90
        0
102
RTVSPost2010PropOp41
 70
     1
102
RTVSPost2010Prop42
 90
       50
102
RTVSPost2010PropOp42
 70
     1
102
RTVSPost2010Prop43
 90
        3
102
RTVSPost2010PropOp43
 70
     1
102
RTVSPost2010Prop44ColorIndex
 90
        5
102
RTVSPost2010Prop44ColorRGB
 90
      255
102
RTVSPost2010PropOp44
 70
     1
102
RTVSPost2010Prop45
280
     0
102
RTVSPost2010PropOp45
 70
     1
102
RTVSPost2010Prop46
 90
       50
102
RTVSPost2010PropOp46
 70
     1
102
RTVSPost2010Prop47
 90
       50
102
RTVSPost2010PropOp47
 70
     1
102
RTVSPost2010Prop48
 90
       50
102
RTVSPost2010PropOp48
 70
     1
102
RTVSPost2010Prop49
280
     0
102
RTVSPost2010PropOp49
 70
     1
102
RTVSPost2010Prop50
 90
       50
102
RTVSPost2010PropOp50
 70
     1
102
RTVSPost2010Prop51ColorIndex
 90
      256
102
RTVSPost2010Prop51ColorRGB
 90
-16777216
102
RTVSPost2010PropOp51
 70
     0
102
RTVSPost2010Prop52
140
1.0
102
RTVSPost2010PropOp52
 70
     0
102
RTVSPost2010Prop53
 90
        2
102
RTVSPost2010PropOp53
 70
     1
102
RTVSPost2010Prop54
  1
strokes_ogs.tif
102
RTVSPost2010PropOp54
 70
     1
102
RTVSPost2010Prop55
280
     0
102
RTVSPost2010PropOp55
 70
     1
102
RTVSPost2010Prop56
140
1.0
102
RTVSPost2010PropOp56
 70
     1
102
RTVSPost2010Prop57
140
1.0
102
RTVSPost2010PropOp57
 70
     1
102
RTVSPropertyOp0
 70
     1
102
RTVSPropertyOp1
 70
     1
102
RTVSPropertyOp2
 70
     1
102
RTVSPropertyOp3
 70
     1
102
RTVSPropertyOp4
 70
     1
102
RTVSPropertyOp5
 70
     1
102
RTVSPropertyOp6
 70
     1
102
RTVSPropertyOp7
 70
     1
102
RTVSPropertyOp8
 70
     1
102
RTVSPropertyOp9
 70
     1
102
RTVSPropertyOp10
 70
     1
102
RTVSPropertyOp11
 70
     1
102
RTVSPropertyOp12
 70
     1
102
RTVSPropertyOp13
 70
     1
102
RTVSPropertyOp14
 70
     1
102
RTVSPropertyOp15
 70
     1
102
RTVSPropertyOp16
 70
     1
102
RTVSPropertyOp17
 70
     1
102
RTVSPropertyOp18
 70
     1
102
RTVSPropertyOp19
 70
     1
102
RTVSPropertyOp20
 70
     1
102
RTVSPropertyOp21
 70
     1
102
RTVSPropertyOp22
 70
     1
102
RTVSPropertyOp23
 70
     1
102
RTVSPropertyOp24
 70
     1
102
RTVSPropertyOp25
 70
     1
102
RTVSPropertyOp26
 70
     1
102
RTVSPropertyOp27
 70
     1
102
RTVSPropertyOp28
 70
     1
102
RTVSPropertyOp29
 70
     1
102
RTVSPropertyOp30
 70
     1
102
RTVSPropertyOp31
 70
     1
102
RTVSPropertyOp32
 70
     1
102
RTVSPropertyOp33
 70
     1
102
RTVSPropertyOp34
 70
     1
102
RTVSPropertyOp35
 70
     1
102
RTVSPropertyOp36
 70
     1
102
RTVSPropertyOp37
 70
     1
102
RTVSPropertyOp38
 70
     1
102
RTVSPropertyOp39
 70
     1
102
RTVSPropertyOp40
 70
     1
102
RTVSPropertyOp41
 70
     1
102
RTVSPropertyOp42
 70
     1
102
RTVSPropertyOp43
 70
     1
102
RTVSPropertyOp44
 70
     1
102
RTVSPropertyOp45
 70
     1
102
RTVSPropertyOp46
 70
     1
102
RTVSPropertyOp47
 70
     1
102
RTVSPropertyOp48
 70
     1
102
RTVSPropertyOp49
 70
     1
102
RTVSPropertyOp50
 70
     1
102
RTVSPropertyOp51
 70
     0
102
RTVSPropertyOp52
 70
     0
102
RTVSPropertyOp53
 70
     1
102
RTVSPropertyOp54
 70
     1
102
RTVSPropertyOp55
 70
     1
102
RTVSPropertyOp56
 70
     1
102
RTVSPropertyOp57
 70
     1
102
RTVSPropertyOp58
 70
     1
102
RTVSPropertyOp59
 70
     1
102
RTVSPropertyOp60
 70
     1
102
RTVSPropertyOp61
 70
     1
102
RTVSPropertyOp62
 70
     1
  0
XRECORD
  5
3E1
102
{ACAD_REACTORS
330
3E0
102
}
330
3E0
100
AcDbXrecord
280
     1
102
RTVSPost2010Prop28
280
     0
102
RTVSPost2010PropOp28
 70
     1
102
RTVSPost2010Prop29
280
     1
102
RTVSPost2010PropOp29
 70
     1
102
RTVSPost2010Prop30
280
     1
102
RTVSPost2010PropOp30
 70
     1
102
RTVSPost2010Prop31
280
     0
102
RTVSPost2010PropOp31
 70
     1
102
RTVSPost2010Prop32
280
     0
102
RTVSPost2010PropOp32
 70
     1
102
RTVSPost2010Prop33
280
     0
102
RTVSPost2010PropOp33
 70
     1
102
RTVSPost2010Prop34
280
     0
102
RTVSPost2010PropOp34
 70
     1
102
RTVSPost2010Prop35
280
     0
102
RTVSPost2010PropOp35
 70
     1
102
RTVSPost2010Prop36
280
     0
102
RTVSPost2010PropOp36
 70
     1
102
RTVSPost2010Prop37
 90
       50
102
RTVSPost2010PropOp37
 70
     1
102
RTVSPost2010Prop38
140
0.0
102
RTVSPost2010PropOp38
 70
     1
102
RTVSPost2010Prop39
140
1.0
102
RTVSPost2010PropOp39
 70
     1
102
RTVSPost2010Prop40
 90
        0
102
RTVSPost2010PropOp40
 70
     1
102
RTVSPost2010Prop41ColorIndex
 90
       18
102
RTVSPost2010Prop41ColorRGB
 90
        0
102
RTVSPost2010PropOp41
 70
     1
102
RTVSPost2010Prop42
 90
       50
102
RTVSPost2010PropOp42
 70
     1
102
RTVSPost2010Prop43
 90
        3
102
RTVSPost2010PropOp43
 70
     1
102
RTVSPost2010Prop44ColorIndex
 90
        5
102
RTVSPost2010Prop44ColorRGB
 90
      255
102
RTVSPost2010PropOp44
 70
     1
102
RTVSPost2010Prop45
280
     0
102
RTVSPost2010PropOp45
 70
     1
102
RTVSPost2010Prop46
 90
       50
102
RTVSPost2010PropOp46
 70
     1
102
RTVSPost2010Prop47
 90
       50
102
RTVSPost2010PropOp47
 70
     1
102
RTVSPost2010Prop48
 90
       50
102
RTVSPost2010PropOp48
 70
     1
102
RTVSPost2010Prop49
280
     0
102
RTVSPost2010PropOp49
 70
     1
102
RTVSPost2010Prop50
 90
       50
102
RTVSPost2010PropOp50
 70
     1
102
RTVSPost2010Prop51ColorIndex
 90
      256
102
RTVSPost2010Prop51ColorRGB
 90
-16777216
102
RTVSPost2010PropOp51
 70
     0
102
RTVSPost2010Prop52
140
1.0
102
RTVSPost2010PropOp52
 70
     0
102
RTVSPost2010Prop53
 90
        2
102
RTVSPost2010PropOp53
 70
     1
102
RTVSPost2010Prop54
  1
strokes_ogs.tif
102
RTVSPost2010PropOp54
 70
     1
102
RTVSPost2010Prop55
280
     0
102
RTVSPost2010PropOp55
 70
     1
102
RTVSPost2010Prop56
140
1.0
102
RTVSPost2010PropOp56
 70
     1
102
RTVSPost2010Prop57
140
1.0
102
RTVSPost2010PropOp57
 70
     1
102
RTVSPropertyOp0
 70
     1
102
RTVSPropertyOp1
 70
     1
102
RTVSPropertyOp2
 70
     1
102
RTVSPropertyOp3
 70
     1
102
RTVSPropertyOp4
 70
     1
102
RTVSPropertyOp5
 70
     1
102
RTVSPropertyOp6
 70
     1
102
RTVSPropertyOp7
 70
     1
102
RTVSPropertyOp8
 70
     1
102
RTVSPropertyOp9
 70
     1
102
RTVSPropertyOp10
 70
     1
102
RTVSPropertyOp11
 70
     1
102
RTVSPropertyOp12
 70
     1
102
RTVSPropertyOp13
 70
     1
102
RTVSPropertyOp14
 70
     1
102
RTVSPropertyOp15
 70
     1
102
RTVSPropertyOp16
 70
     1
102
RTVSPropertyOp17
 70
     1
102
RTVSPropertyOp18
 70
     1
102
RTVSPropertyOp19
 70
     1
102
RTVSPropertyOp20
 70
     1
102
RTVSPropertyOp21
 70
     1
102
RTVSPropertyOp22
 70
     1
102
RTVSPropertyOp23
 70
     1
102
RTVSPropertyOp24
 70
     1
102
RTVSPropertyOp25
 70
     1
102
RTVSPropertyOp26
 70
     1
102
RTVSPropertyOp27
 70
     1
102
RTVSPropertyOp28
 70
     1
102
RTVSPropertyOp29
 70
     1
102
RTVSPropertyOp30
 70
     1
102
RTVSPropertyOp31
 70
     1
102
RTVSPropertyOp32
 70
     1
102
RTVSPropertyOp33
 70
     1
102
RTVSPropertyOp34
 70
     1
102
RTVSPropertyOp35
 70
     1
102
RTVSPropertyOp36
 70
     1
102
RTVSPropertyOp37
 70
     1
102
RTVSPropertyOp38
 70
     1
102
RTVSPropertyOp39
 70
     1
102
RTVSPropertyOp40
 70
     1
102
RTVSPropertyOp41
 70
     1
102
RTVSPropertyOp42
 70
     1
102
RTVSPropertyOp43
 70
     1
102
RTVSPropertyOp44
 70
     1
102
RTVSPropertyOp45
 70
     1
102
RTVSPropertyOp46
 70
     1
102
RTVSPropertyOp47
 70
     1
102
RTVSPropertyOp48
 70
     1
102
RTVSPropertyOp49
 70
     1
102
RTVSPropertyOp50
 70
     1
102
RTVSPropertyOp51
 70
     0
102
RTVSPropertyOp52
 70
     0
102
RTVSPropertyOp53
 70
     1
102
RTVSPropertyOp54
 70
     1
102
RTVSPropertyOp55
 70
     1
102
RTVSPropertyOp56
 70
     1
102
RTVSPropertyOp57
 70
     1
102
RTVSPropertyOp58
 70
     1
102
RTVSPropertyOp59
 70
     1
102
RTVSPropertyOp60
 70
     1
102
RTVSPropertyOp61
 70
     1
102
RTVSPropertyOp62
 70
     1
  0
XRECORD
  5
3D1
102
{ACAD_REACTORS
330
3D0
102
}
330
3D0
100
AcDbXrecord
280
     1
102
RTVSPost2010Prop28
280
     0
102
RTVSPost2010PropOp28
 70
     1
102
RTVSPost2010Prop29
280
     1
102
RTVSPost2010PropOp29
 70
     1
102
RTVSPost2010Prop30
280
     1
102
RTVSPost2010PropOp30
 70
     1
102
RTVSPost2010Prop31
280
     0
102
RTVSPost2010PropOp31
 70
     1
102
RTVSPost2010Prop32
280
     0
102
RTVSPost2010PropOp32
 70
     1
102
RTVSPost2010Prop33
280
     0
102
RTVSPost2010PropOp33
 70
     1
102
RTVSPost2010Prop34
280
     0
102
RTVSPost2010PropOp34
 70
     1
102
RTVSPost2010Prop35
280
     0
102
RTVSPost2010PropOp35
 70
     1
102
RTVSPost2010Prop36
280
     0
102
RTVSPost2010PropOp36
 70
     1
102
RTVSPost2010Prop37
 90
       50
102
RTVSPost2010PropOp37
 70
     1
102
RTVSPost2010Prop38
140
0.0
102
RTVSPost2010PropOp38
 70
     1
102
RTVSPost2010Prop39
140
1.0
102
RTVSPost2010PropOp39
 70
     1
102
RTVSPost2010Prop40
 90
        0
102
RTVSPost2010PropOp40
 70
     1
102
RTVSPost2010Prop41ColorIndex
 90
       18
102
RTVSPost2010Prop41ColorRGB
 90
        0
102
RTVSPost2010PropOp41
 70
     1
102
RTVSPost2010Prop42
 90
       50
102
RTVSPost2010PropOp42
 70
     1
102
RTVSPost2010Prop43
 90
        3
102
RTVSPost2010PropOp43
 70
     1
102
RTVSPost2010Prop44ColorIndex
 90
        5
102
RTVSPost2010Prop44ColorRGB
 90
      255
102
RTVSPost2010PropOp44
 70
     1
102
RTVSPost2010Prop45
280
     0
102
RTVSPost2010PropOp45
 70
     1
102
RTVSPost2010Prop46
 90
       50
102
RTVSPost2010PropOp46
 70
     1
102
RTVSPost2010Prop47
 90
       50
102
RTVSPost2010PropOp47
 70
     1
102
RTVSPost2010Prop48
 90
       50
102
RTVSPost2010PropOp48
 70
     1
102
RTVSPost2010Prop49
280
     0
102
RTVSPost2010PropOp49
 70
     1
102
RTVSPost2010Prop50
 90
       50
102
RTVSPost2010PropOp50
 70
     1
102
RTVSPost2010Prop51ColorIndex
 90
      256
102
RTVSPost2010Prop51ColorRGB
 90
-16777216
102
RTVSPost2010PropOp51
 70
     0
102
RTVSPost2010Prop52
140
1.0
102
RTVSPost2010PropOp52
 70
     0
102
RTVSPost2010Prop53
 90
        2
102
RTVSPost2010PropOp53
 70
     1
102
RTVSPost2010Prop54
  1
strokes_ogs.tif
102
RTVSPost2010PropOp54
 70
     1
102
RTVSPost2010Prop55
280
     0
102
RTVSPost2010PropOp55
 70
     1
102
RTVSPost2010Prop56
140
1.0
102
RTVSPost2010PropOp56
 70
     1
102
RTVSPost2010Prop57
140
1.0
102
RTVSPost2010PropOp57
 70
     1
102
RTVSPropertyOp0
 70
     1
102
RTVSPropertyOp1
 70
     1
102
RTVSPropertyOp2
 70
     1
102
RTVSPropertyOp3
 70
     1
102
RTVSPropertyOp4
 70
     1
102
RTVSPropertyOp5
 70
     1
102
RTVSPropertyOp6
 70
     1
102
RTVSPropertyOp7
 70
     1
102
RTVSPropertyOp8
 70
     1
102
RTVSPropertyOp9
 70
     1
102
RTVSPropertyOp10
 70
     1
102
RTVSPropertyOp11
 70
     1
102
RTVSPropertyOp12
 70
     1
102
RTVSPropertyOp13
 70
     1
102
RTVSPropertyOp14
 70
     1
102
RTVSPropertyOp15
 70
     1
102
RTVSPropertyOp16
 70
     1
102
RTVSPropertyOp17
 70
     1
102
RTVSPropertyOp18
 70
     1
102
RTVSPropertyOp19
 70
     1
102
RTVSPropertyOp20
 70
     1
102
RTVSPropertyOp21
 70
     1
102
RTVSPropertyOp22
 70
     1
102
RTVSPropertyOp23
 70
     1
102
RTVSPropertyOp24
 70
     1
102
RTVSPropertyOp25
 70
     1
102
RTVSPropertyOp26
 70
     1
102
RTVSPropertyOp27
 70
     1
102
RTVSPropertyOp28
 70
     1
102
RTVSPropertyOp29
 70
     1
102
RTVSPropertyOp30
 70
     1
102
RTVSPropertyOp31
 70
     1
102
RTVSPropertyOp32
 70
     1
102
RTVSPropertyOp33
 70
     1
102
RTVSPropertyOp34
 70
     1
102
RTVSPropertyOp35
 70
     1
102
RTVSPropertyOp36
 70
     1
102
RTVSPropertyOp37
 70
     1
102
RTVSPropertyOp38
 70
     1
102
RTVSPropertyOp39
 70
     1
102
RTVSPropertyOp40
 70
     1
102
RTVSPropertyOp41
 70
     1
102
RTVSPropertyOp42
 70
     1
102
RTVSPropertyOp43
 70
     1
102
RTVSPropertyOp44
 70
     1
102
RTVSPropertyOp45
 70
     1
102
RTVSPropertyOp46
 70
     1
102
RTVSPropertyOp47
 70
     1
102
RTVSPropertyOp48
 70
     1
102
RTVSPropertyOp49
 70
     1
102
RTVSPropertyOp50
 70
     1
102
RTVSPropertyOp51
 70
     0
102
RTVSPropertyOp52
 70
     0
102
RTVSPropertyOp53
 70
     1
102
RTVSPropertyOp54
 70
     1
102
RTVSPropertyOp55
 70
     1
102
RTVSPropertyOp56
 70
     1
102
RTVSPropertyOp57
 70
     1
102
RTVSPropertyOp58
 70
     1
102
RTVSPropertyOp59
 70
     1
102
RTVSPropertyOp60
 70
     1
102
RTVSPropertyOp61
 70
     1
102
RTVSPropertyOp62
 70
     1
  0
XRECORD
  5
3C3
102
{ACAD_REACTORS
330
3C2
102
}
330
3C2
100
AcDbXrecord
280
     1
102
RTVSPost2010Prop28
280
     0
102
RTVSPost2010PropOp28
 70
     1
102
RTVSPost2010Prop29
280
     1
102
RTVSPost2010PropOp29
 70
     1
102
RTVSPost2010Prop30
280
     1
102
RTVSPost2010PropOp30
 70
     1
102
RTVSPost2010Prop31
280
     0
102
RTVSPost2010PropOp31
 70
     1
102
RTVSPost2010Prop32
280
     0
102
RTVSPost2010PropOp32
 70
     1
102
RTVSPost2010Prop33
280
     0
102
RTVSPost2010PropOp33
 70
     1
102
RTVSPost2010Prop34
280
     0
102
RTVSPost2010PropOp34
 70
     1
102
RTVSPost2010Prop35
280
     0
102
RTVSPost2010PropOp35
 70
     1
102
RTVSPost2010Prop36
280
     0
102
RTVSPost2010PropOp36
 70
     1
102
RTVSPost2010Prop37
 90
       50
102
RTVSPost2010PropOp37
 70
     1
102
RTVSPost2010Prop38
140
0.0
102
RTVSPost2010PropOp38
 70
     1
102
RTVSPost2010Prop39
140
1.0
102
RTVSPost2010PropOp39
 70
     1
102
RTVSPost2010Prop40
 90
        0
102
RTVSPost2010PropOp40
 70
     1
102
RTVSPost2010Prop41ColorIndex
 90
       18
102
RTVSPost2010Prop41ColorRGB
 90
        0
102
RTVSPost2010PropOp41
 70
     1
102
RTVSPost2010Prop42
 90
       50
102
RTVSPost2010PropOp42
 70
     1
102
RTVSPost2010Prop43
 90
        3
102
RTVSPost2010PropOp43
 70
     1
102
RTVSPost2010Prop44ColorIndex
 90
        5
102
RTVSPost2010Prop44ColorRGB
 90
      255
102
RTVSPost2010PropOp44
 70
     1
102
RTVSPost2010Prop45
280
     0
102
RTVSPost2010PropOp45
 70
     1
102
RTVSPost2010Prop46
 90
       50
102
RTVSPost2010PropOp46
 70
     1
102
RTVSPost2010Prop47
 90
       50
102
RTVSPost2010PropOp47
 70
     1
102
RTVSPost2010Prop48
 90
       50
102
RTVSPost2010PropOp48
 70
     1
102
RTVSPost2010Prop49
280
     0
102
RTVSPost2010PropOp49
 70
     1
102
RTVSPost2010Prop50
 90
       50
102
RTVSPost2010PropOp50
 70
     1
102
RTVSPost2010Prop51ColorIndex
 90
      256
102
RTVSPost2010Prop51ColorRGB
 90
-16777216
102
RTVSPost2010PropOp51
 70
     0
102
RTVSPost2010Prop52
140
1.0
102
RTVSPost2010PropOp52
 70
     0
102
RTVSPost2010Prop53
 90
        2
102
RTVSPost2010PropOp53
 70
     1
102
RTVSPost2010Prop54
  1
strokes_ogs.tif
102
RTVSPost2010PropOp54
 70
     1
102
RTVSPost2010Prop55
280
     0
102
RTVSPost2010PropOp55
 70
     1
102
RTVSPost2010Prop56
140
1.0
102
RTVSPost2010PropOp56
 70
     1
102
RTVSPost2010Prop57
140
1.0
102
RTVSPost2010PropOp57
 70
     1
102
RTVSPropertyOp0
 70
     1
102
RTVSPropertyOp1
 70
     1
102
RTVSPropertyOp2
 70
     1
102
RTVSPropertyOp3
 70
     1
102
RTVSPropertyOp4
 70
     1
102
RTVSPropertyOp5
 70
     1
102
RTVSPropertyOp6
 70
     1
102
RTVSPropertyOp7
 70
     1
102
RTVSPropertyOp8
 70
     1
102
RTVSPropertyOp9
 70
     1
102
RTVSPropertyOp10
 70
     1
102
RTVSPropertyOp11
 70
     1
102
RTVSPropertyOp12
 70
     1
102
RTVSPropertyOp13
 70
     1
102
RTVSPropertyOp14
 70
     1
102
RTVSPropertyOp15
 70
     1
102
RTVSPropertyOp16
 70
     1
102
RTVSPropertyOp17
 70
     1
102
RTVSPropertyOp18
 70
     1
102
RTVSPropertyOp19
 70
     1
102
RTVSPropertyOp20
 70
     1
102
RTVSPropertyOp21
 70
     1
102
RTVSPropertyOp22
 70
     1
102
RTVSPropertyOp23
 70
     1
102
RTVSPropertyOp24
 70
     1
102
RTVSPropertyOp25
 70
     1
102
RTVSPropertyOp26
 70
     1
102
RTVSPropertyOp27
 70
     1
102
RTVSPropertyOp28
 70
     1
102
RTVSPropertyOp29
 70
     1
102
RTVSPropertyOp30
 70
     1
102
RTVSPropertyOp31
 70
     1
102
RTVSPropertyOp32
 70
     1
102
RTVSPropertyOp33
 70
     1
102
RTVSPropertyOp34
 70
     1
102
RTVSPropertyOp35
 70
     1
102
RTVSPropertyOp36
 70
     1
102
RTVSPropertyOp37
 70
     1
102
RTVSPropertyOp38
 70
     1
102
RTVSPropertyOp39
 70
     1
102
RTVSPropertyOp40
 70
     1
102
RTVSPropertyOp41
 70
     1
102
RTVSPropertyOp42
 70
     1
102
RTVSPropertyOp43
 70
     1
102
RTVSPropertyOp44
 70
     1
102
RTVSPropertyOp45
 70
     1
102
RTVSPropertyOp46
 70
     1
102
RTVSPropertyOp47
 70
     1
102
RTVSPropertyOp48
 70
     1
102
RTVSPropertyOp49
 70
     1
102
RTVSPropertyOp50
 70
     1
102
RTVSPropertyOp51
 70
     0
102
RTVSPropertyOp52
 70
     0
102
RTVSPropertyOp53
 70
     1
102
RTVSPropertyOp54
 70
     1
102
RTVSPropertyOp55
 70
     1
102
RTVSPropertyOp56
 70
     1
102
RTVSPropertyOp57
 70
     1
102
RTVSPropertyOp58
 70
     1
102
RTVSPropertyOp59
 70
     1
102
RTVSPropertyOp60
 70
     1
102
RTVSPropertyOp61
 70
     1
102
RTVSPropertyOp62
 70
     1
  0
XRECORD
  5
3E3
102
{ACAD_REACTORS
330
3E2
102
}
330
3E2
100
AcDbXrecord
280
     1
102
RTVSPost2010Prop28
280
     0
102
RTVSPost2010PropOp28
 70
     1
102
RTVSPost2010Prop29
280
     1
102
RTVSPost2010PropOp29
 70
     1
102
RTVSPost2010Prop30
280
     1
102
RTVSPost2010PropOp30
 70
     1
102
RTVSPost2010Prop31
280
     0
102
RTVSPost2010PropOp31
 70
     1
102
RTVSPost2010Prop32
280
     0
102
RTVSPost2010PropOp32
 70
     1
102
RTVSPost2010Prop33
280
     0
102
RTVSPost2010PropOp33
 70
     1
102
RTVSPost2010Prop34
280
     0
102
RTVSPost2010PropOp34
 70
     1
102
RTVSPost2010Prop35
280
     0
102
RTVSPost2010PropOp35
 70
     1
102
RTVSPost2010Prop36
280
     0
102
RTVSPost2010PropOp36
 70
     1
102
RTVSPost2010Prop37
 90
       50
102
RTVSPost2010PropOp37
 70
     1
102
RTVSPost2010Prop38
140
0.0
102
RTVSPost2010PropOp38
 70
     1
102
RTVSPost2010Prop39
140
1.0
102
RTVSPost2010PropOp39
 70
     1
102
RTVSPost2010Prop40
 90
        0
102
RTVSPost2010PropOp40
 70
     1
102
RTVSPost2010Prop41ColorIndex
 90
       18
102
RTVSPost2010Prop41ColorRGB
 90
        0
102
RTVSPost2010PropOp41
 70
     1
102
RTVSPost2010Prop42
 90
       50
102
RTVSPost2010PropOp42
 70
     1
102
RTVSPost2010Prop43
 90
        3
102
RTVSPost2010PropOp43
 70
     1
102
RTVSPost2010Prop44ColorIndex
 90
        5
102
RTVSPost2010Prop44ColorRGB
 90
      255
102
RTVSPost2010PropOp44
 70
     1
102
RTVSPost2010Prop45
280
     0
102
RTVSPost2010PropOp45
 70
     1
102
RTVSPost2010Prop46
 90
       50
102
RTVSPost2010PropOp46
 70
     1
102
RTVSPost2010Prop47
 90
       50
102
RTVSPost2010PropOp47
 70
     1
102
RTVSPost2010Prop48
 90
       50
102
RTVSPost2010PropOp48
 70
     1
102
RTVSPost2010Prop49
280
     0
102
RTVSPost2010PropOp49
 70
     1
102
RTVSPost2010Prop50
 90
       50
102
RTVSPost2010PropOp50
 70
     1
102
RTVSPost2010Prop51ColorIndex
 90
      256
102
RTVSPost2010Prop51ColorRGB
 90
-16777216
102
RTVSPost2010PropOp51
 70
     0
102
RTVSPost2010Prop52
140
1.0
102
RTVSPost2010PropOp52
 70
     0
102
RTVSPost2010Prop53
 90
        2
102
RTVSPost2010PropOp53
 70
     1
102
RTVSPost2010Prop54
  1
strokes_ogs.tif
102
RTVSPost2010PropOp54
 70
     1
102
RTVSPost2010Prop55
280
     0
102
RTVSPost2010PropOp55
 70
     1
102
RTVSPost2010Prop56
140
1.0
102
RTVSPost2010PropOp56
 70
     1
102
RTVSPost2010Prop57
140
1.0
102
RTVSPost2010PropOp57
 70
     1
102
RTVSPropertyOp0
 70
     1
102
RTVSPropertyOp1
 70
     1
102
RTVSPropertyOp2
 70
     1
102
RTVSPropertyOp3
 70
     1
102
RTVSPropertyOp4
 70
     1
102
RTVSPropertyOp5
 70
     1
102
RTVSPropertyOp6
 70
     1
102
RTVSPropertyOp7
 70
     1
102
RTVSPropertyOp8
 70
     1
102
RTVSPropertyOp9
 70
     1
102
RTVSPropertyOp10
 70
     1
102
RTVSPropertyOp11
 70
     1
102
RTVSPropertyOp12
 70
     1
102
RTVSPropertyOp13
 70
     1
102
RTVSPropertyOp14
 70
     1
102
RTVSPropertyOp15
 70
     1
102
RTVSPropertyOp16
 70
     1
102
RTVSPropertyOp17
 70
     1
102
RTVSPropertyOp18
 70
     1
102
RTVSPropertyOp19
 70
     1
102
RTVSPropertyOp20
 70
     1
102
RTVSPropertyOp21
 70
     1
102
RTVSPropertyOp22
 70
     1
102
RTVSPropertyOp23
 70
     1
102
RTVSPropertyOp24
 70
     1
102
RTVSPropertyOp25
 70
     1
102
RTVSPropertyOp26
 70
     1
102
RTVSPropertyOp27
 70
     1
102
RTVSPropertyOp28
 70
     1
102
RTVSPropertyOp29
 70
     1
102
RTVSPropertyOp30
 70
     1
102
RTVSPropertyOp31
 70
     1
102
RTVSPropertyOp32
 70
     1
102
RTVSPropertyOp33
 70
     1
102
RTVSPropertyOp34
 70
     1
102
RTVSPropertyOp35
 70
     1
102
RTVSPropertyOp36
 70
     1
102
RTVSPropertyOp37
 70
     1
102
RTVSPropertyOp38
 70
     1
102
RTVSPropertyOp39
 70
     1
102
RTVSPropertyOp40
 70
     1
102
RTVSPropertyOp41
 70
     1
102
RTVSPropertyOp42
 70
     1
102
RTVSPropertyOp43
 70
     1
102
RTVSPropertyOp44
 70
     1
102
RTVSPropertyOp45
 70
     1
102
RTVSPropertyOp46
 70
     1
102
RTVSPropertyOp47
 70
     1
102
RTVSPropertyOp48
 70
     1
102
RTVSPropertyOp49
 70
     1
102
RTVSPropertyOp50
 70
     1
102
RTVSPropertyOp51
 70
     0
102
RTVSPropertyOp52
 70
     0
102
RTVSPropertyOp53
 70
     1
102
RTVSPropertyOp54
 70
     1
102
RTVSPropertyOp55
 70
     1
102
RTVSPropertyOp56
 70
     1
102
RTVSPropertyOp57
 70
     1
102
RTVSPropertyOp58
 70
     1
102
RTVSPropertyOp59
 70
     1
102
RTVSPropertyOp60
 70
     1
102
RTVSPropertyOp61
 70
     1
102
RTVSPropertyOp62
 70
     1
  0
ENDSEC
  0
EOF
