  0
SECTION
  2
HEADER
  9
$ACADVER
  1
AC1018
  9
$ACADMAINTVER
 70
   104
  9
$DWGCODEPAGE
  3
ANSI_1250
  9
$LASTSAVEDBY
  1
wq7085
  9
$INSBASE
 10
0.0
 20
0.0
 30
0.0
  9
$EXTMIN
 10
174.5807043333333
 20
114.534924
 30
0.0
  9
$EXTMAX
 10
379.724664
 20
345.2288016666667
 30
0.0
  9
$LIMMIN
 10
-0.5
 20
-0.5
  9
$LIMMAX
 10
5.0
 20
5.0
  9
$ORTHOMODE
 70
     0
  9
$REGENMODE
 70
     1
  9
$FILLMODE
 70
     1
  9
$QTEXTMODE
 70
     0
  9
$MIRRTEXT
 70
     1
  9
$LTSCALE
 40
1.0
  9
$ATTMODE
 70
     1
  9
$TEXTSIZE
 40
0.2
  9
$TRACEWID
 40
0.05
  9
$TEXTSTYLE
  7
Standard
  9
$CLAYER
  8
0
  9
$CELTYPE
  6
ByLayer
  9
$CECOLOR
 62
   256
  9
$CELTSCALE
 40
1.0
  9
$DISPSILH
 70
     0
  9
$DIMSCALE
 40
1.0
  9
$DIMASZ
 40
0.18
  9
$DIMEXO
 40
0.0625
  9
$DIMDLI
 40
0.38
  9
$DIMRND
 40
0.0
  9
$DIMDLE
 40
0.0
  9
$DIMEXE
 40
0.18
  9
$DIMTP
 40
0.0
  9
$DIMTM
 40
0.0
  9
$DIMTXT
 40
0.18
  9
$DIMCEN
 40
0.09
  9
$DIMTSZ
 40
0.0
  9
$DIMTOL
 70
     0
  9
$DIMLIM
 70
     0
  9
$DIMTIH
 70
     1
  9
$DIMTOH
 70
     1
  9
$DIMSE1
 70
     0
  9
$DIMSE2
 70
     0
  9
$DIMTAD
 70
     0
  9
$DIMZIN
 70
     0
  9
$DIMBLK
  1

  9
$DIMASO
 70
     1
  9
$DIMSHO
 70
     1
  9
$DIMPOST
  1

  9
$DIMAPOST
  1

  9
$DIMALT
 70
     0
  9
$DIMALTD
 70
     2
  9
$DIMALTF
 40
25.4
  9
$DIMLFAC
 40
1.0
  9
$DIMTOFL
 70
     0
  9
$DIMTVP
 40
0.0
  9
$DIMTIX
 70
     0
  9
$DIMSOXD
 70
     0
  9
$DIMSAH
 70
     0
  9
$DIMBLK1
  1

  9
$DIMBLK2
  1

  9
$DIMSTYLE
  2
Standard
  9
$DIMCLRD
 70
     0
  9
$DIMCLRE
 70
     0
  9
$DIMCLRT
 70
     0
  9
$DIMTFAC
 40
1.0
  9
$DIMGAP
 40
0.09
  9
$DIMJUST
 70
     0
  9
$DIMSD1
 70
     0
  9
$DIMSD2
 70
     0
  9
$DIMTOLJ
 70
     1
  9
$DIMTZIN
 70
     0
  9
$DIMALTZ
 70
     0
  9
$DIMALTTZ
 70
     0
  9
$DIMUPT
 70
     0
  9
$DIMDEC
 70
     4
  9
$DIMTDEC
 70
     4
  9
$DIMALTU
 70
     2
  9
$DIMALTTD
 70
     2
  9
$DIMTXSTY
  7
Standard
  9
$DIMAUNIT
 70
     0
  9
$DIMADEC
 70
     0
  9
$DIMALTRND
 40
0.0
  9
$DIMAZIN
 70
     0
  9
$DIMDSEP
 70
    46
  9
$DIMATFIT
 70
     3
  9
$DIMFRAC
 70
     0
  9
$DIMLDRBLK
  1

  9
$DIMLUNIT
 70
     2
  9
$DIMLWD
 70
    -2
  9
$DIMLWE
 70
    -2
  9
$DIMTMOVE
 70
     0
  9
$LUNITS
 70
     2
  9
$LUPREC
 70
     4
  9
$SKETCHINC
 40
0.1
  9
$FILLETRAD
 40
0.5
  9
$AUNITS
 70
     0
  9
$AUPREC
 70
     0
  9
$MENU
  1
.
  9
$ELEVATION
 40
0.0
  9
$PELEVATION
 40
0.0
  9
$THICKNESS
 40
0.0
  9
$LIMCHECK
 70
     0
  9
$CHAMFERA
 40
0.0
  9
$CHAMFERB
 40
0.0
  9
$CHAMFERC
 40
0.0
  9
$CHAMFERD
 40
0.0
  9
$SKPOLY
 70
     0
  9
$TDCREATE
 40
2458955.427488426
  9
$TDUCREATE
 40
2458955.344161759
  9
$TDUPDATE
 40
2458955.429247685
  9
$TDUUPDATE
 40
2458955.345914352
  9
$TDINDWG
 40
0.0003703819
  9
$TDUSRTIMER
 40
0.0003703819
  9
$USRTIMER
 70
     1
  9
$ANGBASE
 50
0.0
  9
$ANGDIR
 70
     0
  9
$PDMODE
 70
     0
  9
$PDSIZE
 40
0.0
  9
$PLINEWID
 40
0.0
  9
$SPLFRAME
 70
     0
  9
$SPLINETYPE
 70
     6
  9
$SPLINESEGS
 70
     8
  9
$HANDSEED
  5
3A6
  9
$SURFTAB1
 70
     6
  9
$SURFTAB2
 70
     6
  9
$SURFTYPE
 70
     6
  9
$SURFU
 70
     6
  9
$SURFV
 70
     6
  9
$UCSBASE
  2

  9
$UCSNAME
  2

  9
$UCSORG
 10
274.404842
 20
288.907994
 30
0.0
  9
$UCSXDIR
 10
1.0
 20
0.0
 30
0.0
  9
$UCSYDIR
 10
0.0
 20
1.0
 30
0.0
  9
$UCSORTHOREF
  2

  9
$UCSORTHOVIEW
 70
     0
  9
$UCSORGTOP
 10
0.0
 20
0.0
 30
0.0
  9
$UCSORGBOTTOM
 10
0.0
 20
0.0
 30
0.0
  9
$UCSORGLEFT
 10
0.0
 20
0.0
 30
0.0
  9
$UCSORGRIGHT
 10
0.0
 20
0.0
 30
0.0
  9
$UCSORGFRONT
 10
0.0
 20
0.0
 30
0.0
  9
$UCSORGBACK
 10
0.0
 20
0.0
 30
0.0
  9
$PUCSBASE
  2

  9
$PUCSNAME
  2

  9
$PUCSORG
 10
0.0
 20
0.0
 30
0.0
  9
$PUCSXDIR
 10
1.0
 20
0.0
 30
0.0
  9
$PUCSYDIR
 10
0.0
 20
1.0
 30
0.0
  9
$PUCSORTHOREF
  2

  9
$PUCSORTHOVIEW
 70
     0
  9
$PUCSORGTOP
 10
0.0
 20
0.0
 30
0.0
  9
$PUCSORGBOTTOM
 10
0.0
 20
0.0
 30
0.0
  9
$PUCSORGLEFT
 10
0.0
 20
0.0
 30
0.0
  9
$PUCSORGRIGHT
 10
0.0
 20
0.0
 30
0.0
  9
$PUCSORGFRONT
 10
0.0
 20
0.0
 30
0.0
  9
$PUCSORGBACK
 10
0.0
 20
0.0
 30
0.0
  9
$USERI1
 70
     0
  9
$USERI2
 70
     0
  9
$USERI3
 70
     0
  9
$USERI4
 70
     0
  9
$USERI5
 70
     0
  9
$USERR1
 40
0.0
  9
$USERR2
 40
0.0
  9
$USERR3
 40
0.0
  9
$USERR4
 40
0.0
  9
$USERR5
 40
0.0
  9
$WORLDVIEW
 70
     1
  9
$SHADEDGE
 70
     3
  9
$SHADEDIF
 70
    70
  9
$TILEMODE
 70
     1
  9
$MAXACTVP
 70
    64
  9
$PINSBASE
 10
0.0
 20
0.0
 30
0.0
  9
$PLIMCHECK
 70
     0
  9
$PEXTMIN
 10
-0.5
 20
-0.5
 30
-0.5
  9
$PEXTMAX
 10
5.0
 20
5.0
 30
5.0
  9
$PLIMMIN
 10
-0.5
 20
-0.5
  9
$PLIMMAX
 10
5.0
 20
5.0
  9
$UNITMODE
 70
     0
  9
$VISRETAIN
 70
     1
  9
$PLINEGEN
 70
     0
  9
$PSLTSCALE
 70
     1
  9
$TREEDEPTH
 70
  3020
  9
$CMLSTYLE
  2
Standard
  9
$CMLJUST
 70
     0
  9
$CMLSCALE
 40
1.0
  9
$PROXYGRAPHICS
 70
     1
  9
$MEASUREMENT
 70
     1
  9
$CELWEIGHT
370
    13
  9
$ENDCAPS
280
     0
  9
$JOINSTYLE
280
     0
  9
$LWDISPLAY
290
     0
  9
$INSUNITS
 70
     4
  9
$HYPERLINKBASE
  1

  9
$STYLESHEET
  1

  9
$XEDIT
290
     1
  9
$CEPSNTYPE
380
     0
  9
$PSTYLEMODE
290
     1
  9
$FINGERPRINTGUID
  2
{A995AD60-ABF3-4757-BF5D-0E1B689B58B8}
  9
$VERSIONGUID
  2
{92CDB266-70AE-864A-95AB-DBAE3BF5EDAA}
  9
$EXTNAMES
290
     1
  9
$PSVPSCALE
 40
0.0
  9
$OLESTARTUP
290
     0
  9
$SORTENTS
280
   127
  9
$INDEXCTL
280
     0
  9
$HIDETEXT
280
     1
  9
$XCLIPFRAME
290
     0
  9
$HALOGAP
280
     0
  9
$OBSCOLOR
 70
   257
  9
$OBSLTYPE
280
     0
  9
$INTERSECTIONDISPLAY
280
     0
  9
$INTERSECTIONCOLOR
 70
   257
  9
$DIMASSOC
280
     2
  9
$PROJECTNAME
  1

  0
ENDSEC
  0
SECTION
  2
CLASSES
  0
CLASS
  1
ACDBDICTIONARYWDFLT
  2
AcDbDictionaryWithDefault
  3
ObjectDBX Classes
 90
        0
 91
        1
280
     0
281
     0
  0
CLASS
  1
VISUALSTYLE
  2
AcDbVisualStyle
  3
ObjectDBX Classes
 90
     4095
 91
       24
280
     0
281
     0
  0
CLASS
  1
MATERIAL
  2
AcDbMaterial
  3
ObjectDBX Classes
 90
     1153
 91
        3
280
     0
281
     0
  0
CLASS
  1
SCALE
  2
AcDbScale
  3
ObjectDBX Classes
 90
     1153
 91
       33
280
     0
281
     0
  0
CLASS
  1
TABLESTYLE
  2
AcDbTableStyle
  3
ObjectDBX Classes
 90
     4095
 91
        1
280
     0
281
     0
  0
CLASS
  1
MLEADERSTYLE
  2
AcDbMLeaderStyle
  3
ACDB_MLEADERSTYLE_CLASS
 90
     4095
 91
        1
280
     0
281
     0
  0
CLASS
  1
SUN
  2
AcDbSun
  3
SCENEOE
 90
     1153
 91
        0
280
     0
281
     0
  0
CLASS
  1
DIMASSOC
  2
AcDbDimAssoc
  3
"AcDbDimAssoc|Product Desc:     AcDim ARX App For Dimension|Company:          Autodesk, Inc.|WEB Address:      www.autodesk.com"
 90
        0
 91
        7
280
     0
281
     0
  0
CLASS
  1
DICTIONARYVAR
  2
AcDbDictionaryVar
  3
ObjectDBX Classes
 90
        0
 91
        8
280
     0
281
     0
  0
CLASS
  1
CELLSTYLEMAP
  2
AcDbCellStyleMap
  3
ObjectDBX Classes
 90
     1152
 91
        2
280
     0
281
     0
  0
CLASS
  1
ACDBSECTIONVIEWSTYLE
  2
AcDbSectionViewStyle
  3
ObjectDBX Classes
 90
     1025
 91
        1
280
     0
281
     0
  0
CLASS
  1
ACDBDETAILVIEWSTYLE
  2
AcDbDetailViewStyle
  3
ObjectDBX Classes
 90
     1025
 91
        1
280
     0
281
     0
  0
CLASS
  1
SORTENTSTABLE
  2
AcDbSortentsTable
  3
ObjectDBX Classes
 90
        0
 91
        1
280
     0
281
     0
  0
ENDSEC
  0
SECTION
  2
TABLES
  0
TABLE
  2
VPORT
  5
8
330
0
100
AcDbSymbolTable
 70
    16
  0
VPORT
  5
29
330
8
100
AcDbSymbolTableRecord
100
AcDbViewportTableRecord
  2
*Active
 70
     0
 10
0.0
 20
0.0
 11
1.0
 21
1.0
 12
266.0700627282486
 22
295.1498435225894
 13
0.0
 23
0.0
 14
0.5
 24
0.5
 15
0.5
 25
0.5
 16
0.0
 26
0.0
 36
1.0
 17
0.0
 27
0.0
 37
0.0
 40
203.2634633617269
 41
2.283154121863799
 42
50.0
 43
409.662237
 44
-409.662237
 50
0.0
 51
0.0
 71
     0
 72
   100
 73
     1
 74
     3
 75
     0
 76
     0
 77
     0
 78
     0
281
     0
 65
     1
110
274.404842
120
288.907994
130
0.0
111
1.0
121
0.0
131
0.0
112
0.0
122
1.0
132
0.0
 79
     0
146
0.0
1001
ACAD_NAV_VCDISPLAY
1070
     3
  0
VPORT
  5
2A7
330
8
100
AcDbSymbolTableRecord
100
AcDbViewportTableRecord
  2
L1
 70
     0
 10
0.0
 20
0.0
 11
1.0
 21
1.0
 12
276.6484759999999
 22
229.718654
 13
0.0
 23
0.0
 14
0.5
 24
0.5
 15
0.5
 25
0.5
 16
0.0
 26
0.0
 36
1.0
 17
0.0
 27
0.0
 37
0.0
 40
207.433333
 41
0.085602
 42
50.0
 43
409.662237
 44
-409.662237
 50
0.0
 51
0.0
 71
     0
 72
   100
 73
     1
 74
     3
 75
     0
 76
     0
 77
     0
 78
     0
281
     0
 65
     1
110
0.0
120
0.0
130
0.0
111
1.0
121
0.0
131
0.0
112
0.0
122
1.0
132
0.0
 79
     0
146
0.0
  0
VPORT
  5
2A8
330
8
100
AcDbSymbolTableRecord
100
AcDbViewportTableRecord
  2
L2
 70
     0
 10
0.0
 20
0.0
 11
0.5
 21
1.0
 12
0.0
 22
0.0
 13
0.0
 23
0.0
 14
0.5
 24
0.5
 15
0.5
 25
0.5
 16
0.0
 26
-1.0
 36
0.0
 17
0.0
 27
0.0
 37
0.0
 40
1319.143726
 41
0.013461
 42
50.0
 43
679.601336
 44
-679.601336
 50
0.0
 51
0.0
 71
     0
 72
   100
 73
     1
 74
     3
 75
     0
 76
     0
 77
     0
 78
     0
281
     0
 65
     1
110
0.0
120
0.0
130
0.0
111
1.0
121
0.0
131
0.0
112
0.0
122
1.0
132
0.0
 79
     0
146
0.0
  0
VPORT
  5
2A9
330
8
100
AcDbSymbolTableRecord
100
AcDbViewportTableRecord
  2
L2
 70
     0
 10
0.5
 20
0.0
 11
1.0
 21
1.0
 12
0.0
 22
0.0
 13
0.0
 23
0.0
 14
0.5
 24
0.5
 15
0.5
 25
0.5
 16
1.0
 26
0.0
 36
0.0
 17
0.0
 27
0.0
 37
0.0
 40
1319.143726
 41
0.013461
 42
50.0
 43
667.6767099999999
 44
-667.6767099999999
 50
0.0
 51
0.0
 71
     0
 72
   100
 73
     1
 74
     3
 75
     0
 76
     0
 77
     0
 78
     0
281
     0
 65
     1
110
0.0
120
0.0
130
0.0
111
1.0
121
0.0
131
0.0
112
0.0
122
1.0
132
0.0
 79
     0
146
0.0
  0
VPORT
  5
2AA
330
8
100
AcDbSymbolTableRecord
100
AcDbViewportTableRecord
  2
L3
 70
     0
 10
0.0
 20
0.5
 11
1.0
 21
1.0
 12
276.6484759999999
 22
229.718654
 13
0.0
 23
0.0
 14
0.5
 24
0.5
 15
0.5
 25
0.5
 16
0.0
 26
0.0
 36
1.0
 17
0.0
 27
0.0
 37
0.0
 40
207.433333
 41
0.085602
 42
50.0
 43
409.662237
 44
-409.662237
 50
0.0
 51
0.0
 71
     0
 72
   100
 73
     1
 74
     3
 75
     0
 76
     0
 77
     0
 78
     0
281
     0
 65
     1
110
0.0
120
0.0
130
0.0
111
1.0
121
0.0
131
0.0
112
0.0
122
1.0
132
0.0
 79
     0
146
0.0
  0
VPORT
  5
2AB
330
8
100
AcDbSymbolTableRecord
100
AcDbViewportTableRecord
  2
L3
 70
     0
 10
0.0
 20
0.0
 11
1.0
 21
0.5
 12
0.0
 22
0.0
 13
0.0
 23
0.0
 14
0.5
 24
0.5
 15
0.5
 25
0.5
 16
0.0
 26
-1.0
 36
0.0
 17
0.0
 27
0.0
 37
0.0
 40
1319.143726
 41
0.013461
 42
50.0
 43
679.601336
 44
-679.601336
 50
0.0
 51
0.0
 71
     0
 72
   100
 73
     1
 74
     3
 75
     0
 76
     0
 77
     0
 78
     0
281
     0
 65
     1
110
0.0
120
0.0
130
0.0
111
1.0
121
0.0
131
0.0
112
0.0
122
1.0
132
0.0
 79
     0
146
0.0
  0
VPORT
  5
2AC
330
8
100
AcDbSymbolTableRecord
100
AcDbViewportTableRecord
  2
L4
 70
     0
 10
0.0
 20
0.5
 11
0.5
 21
1.0
 12
276.6484759999999
 22
229.718654
 13
0.0
 23
0.0
 14
0.5
 24
0.5
 15
0.5
 25
0.5
 16
0.0
 26
0.0
 36
1.0
 17
0.0
 27
0.0
 37
0.0
 40
207.433333
 41
0.085602
 42
50.0
 43
409.662237
 44
-409.662237
 50
0.0
 51
0.0
 71
     0
 72
   100
 73
     1
 74
     3
 75
     0
 76
     0
 77
     0
 78
     0
281
     0
 65
     1
110
0.0
120
0.0
130
0.0
111
1.0
121
0.0
131
0.0
112
0.0
122
1.0
132
0.0
 79
     0
146
0.0
  0
VPORT
  5
2AD
330
8
100
AcDbSymbolTableRecord
100
AcDbViewportTableRecord
  2
L4
 70
     0
 10
0.0
 20
0.0
 11
0.5
 21
0.5
 12
0.0
 22
0.0
 13
0.0
 23
0.0
 14
0.5
 24
0.5
 15
0.5
 25
0.5
 16
0.0
 26
-1.0
 36
0.0
 17
0.0
 27
0.0
 37
0.0
 40
1319.143726
 41
0.013461
 42
50.0
 43
679.601336
 44
-679.601336
 50
0.0
 51
0.0
 71
     0
 72
   100
 73
     1
 74
     3
 75
     0
 76
     0
 77
     0
 78
     0
281
     0
 65
     1
110
0.0
120
0.0
130
0.0
111
1.0
121
0.0
131
0.0
112
0.0
122
1.0
132
0.0
 79
     0
146
0.0
  0
VPORT
  5
2AE
330
8
100
AcDbSymbolTableRecord
100
AcDbViewportTableRecord
  2
L4
 70
     0
 10
0.5
 20
0.0
 11
1.0
 21
0.5
 12
0.0
 22
0.0
 13
0.0
 23
0.0
 14
0.5
 24
0.5
 15
0.5
 25
0.5
 16
1.0
 26
0.0
 36
0.0
 17
0.0
 27
0.0
 37
0.0
 40
1319.143726
 41
0.013461
 42
50.0
 43
667.6767099999999
 44
-667.6767099999999
 50
0.0
 51
0.0
 71
     0
 72
   100
 73
     1
 74
     3
 75
     0
 76
     0
 77
     0
 78
     0
281
     0
 65
     1
110
0.0
120
0.0
130
0.0
111
1.0
121
0.0
131
0.0
112
0.0
122
1.0
132
0.0
 79
     0
146
0.0
  0
VPORT
  5
2AF
330
8
100
AcDbSymbolTableRecord
100
AcDbViewportTableRecord
  2
L4
 70
     0
 10
0.5
 20
0.5
 11
1.0
 21
1.0
 12
0.0
 22
0.0
 13
0.0
 23
0.0
 14
0.5
 24
0.5
 15
0.5
 25
0.5
 16
0.5773502691896259
 26
-0.5773502691896259
 36
0.5773502691896259
 17
0.0
 27
0.0
 37
0.0
 40
1295.484074
 41
0.013707
 42
50.0
 43
674.79345
 44
-674.79345
 50
0.0
 51
0.0
 71
     0
 72
   100
 73
     1
 74
     3
 75
     0
 76
     0
 77
     0
 78
     0
281
     0
 65
     1
110
0.0
120
0.0
130
0.0
111
1.0
121
0.0
131
0.0
112
0.0
122
1.0
132
0.0
 79
     0
146
0.0
  0
VPORT
  5
2B0
330
8
100
AcDbSymbolTableRecord
100
AcDbViewportTableRecord
  2
L6
 70
     0
 10
0.0
 20
0.5
 11
0.333333
 21
1.0
 12
0.0
 22
0.0
 13
0.0
 23
0.0
 14
0.5
 24
0.5
 15
0.5
 25
0.5
 16
0.7188730927569434
 26
-0.5850486126764433
 36
0.3754192287502549
 17
0.0
 27
0.0
 37
0.0
 40
1367.187154
 41
0.012988
 42
50.0
 43
707.8776949999999
 44
-707.8776949999999
 50
0.0
 51
0.0
 71
     0
 72
   100
 73
     1
 74
     3
 75
     0
 76
     0
 77
     0
 78
     0
281
     0
 65
     1
110
0.0
120
0.0
130
0.0
111
1.0
121
0.0
131
0.0
112
0.0
122
1.0
132
0.0
 79
     0
146
0.0
  0
VPORT
  5
2B1
330
8
100
AcDbSymbolTableRecord
100
AcDbViewportTableRecord
  2
L6
 70
     0
 10
0.0
 20
0.0
 11
0.333333
 21
0.5
 12
0.0
 22
0.0
 13
0.0
 23
0.0
 14
0.5
 24
0.5
 15
0.5
 25
0.5
 16
-1.0
 26
0.0
 36
0.0
 17
0.0
 27
0.0
 37
0.0
 40
1319.143726
 41
0.013461
 42
50.0
 43
667.6767099999999
 44
-667.6767099999999
 50
0.0
 51
0.0
 71
     0
 72
   100
 73
     1
 74
     3
 75
     0
 76
     0
 77
     0
 78
     0
281
     0
 65
     1
110
0.0
120
0.0
130
0.0
111
1.0
121
0.0
131
0.0
112
0.0
122
1.0
132
0.0
 79
     0
146
0.0
  0
VPORT
  5
2B2
330
8
100
AcDbSymbolTableRecord
100
AcDbViewportTableRecord
  2
L6
 70
     0
 10
0.333333
 20
0.5
 11
0.666667
 21
1.0
 12
276.6484759999999
 22
229.718654
 13
0.0
 23
0.0
 14
0.5
 24
0.5
 15
0.5
 25
0.5
 16
0.0
 26
0.0
 36
1.0
 17
0.0
 27
0.0
 37
0.0
 40
207.433333
 41
0.085602
 42
50.0
 43
409.662237
 44
-409.662237
 50
0.0
 51
0.0
 71
     0
 72
   100
 73
     1
 74
     3
 75
     0
 76
     0
 77
     0
 78
     0
281
     0
 65
     1
110
0.0
120
0.0
130
0.0
111
1.0
121
0.0
131
0.0
112
0.0
122
1.0
132
0.0
 79
     0
146
0.0
  0
VPORT
  5
2B3
330
8
100
AcDbSymbolTableRecord
100
AcDbViewportTableRecord
  2
L6
 70
     0
 10
0.333333
 20
0.0
 11
0.666667
 21
0.5
 12
0.0
 22
0.0
 13
0.0
 23
0.0
 14
0.5
 24
0.5
 15
0.5
 25
0.5
 16
0.0
 26
-1.0
 36
0.0
 17
0.0
 27
0.0
 37
0.0
 40
1319.143726
 41
0.013461
 42
50.0
 43
679.601336
 44
-679.601336
 50
0.0
 51
0.0
 71
     0
 72
   100
 73
     1
 74
     3
 75
     0
 76
     0
 77
     0
 78
     0
281
     0
 65
     1
110
0.0
120
0.0
130
0.0
111
1.0
121
0.0
131
0.0
112
0.0
122
1.0
132
0.0
 79
     0
146
0.0
  0
VPORT
  5
2B4
330
8
100
AcDbSymbolTableRecord
100
AcDbViewportTableRecord
  2
L6
 70
     0
 10
0.666667
 20
0.5
 11
1.0
 21
1.0
 12
0.0
 22
0.0
 13
0.0
 23
0.0
 14
0.5
 24
0.5
 15
0.5
 25
0.5
 16
0.5773502691896259
 26
-0.5773502691896259
 36
0.5773502691896259
 17
0.0
 27
0.0
 37
0.0
 40
1295.484074
 41
0.013707
 42
50.0
 43
674.79345
 44
-674.79345
 50
0.0
 51
0.0
 71
     0
 72
   100
 73
     1
 74
     3
 75
     0
 76
     0
 77
     0
 78
     0
281
     0
 65
     1
110
0.0
120
0.0
130
0.0
111
1.0
121
0.0
131
0.0
112
0.0
122
1.0
132
0.0
 79
     0
146
0.0
  0
VPORT
  5
2B5
330
8
100
AcDbSymbolTableRecord
100
AcDbViewportTableRecord
  2
L6
 70
     0
 10
0.666667
 20
0.0
 11
1.0
 21
0.5
 12
0.0
 22
0.0
 13
0.0
 23
0.0
 14
0.5
 24
0.5
 15
0.5
 25
0.5
 16
1.0
 26
0.0
 36
0.0
 17
0.0
 27
0.0
 37
0.0
 40
1319.143726
 41
0.013461
 42
50.0
 43
667.6767099999999
 44
-667.6767099999999
 50
0.0
 51
0.0
 71
     0
 72
   100
 73
     1
 74
     3
 75
     0
 76
     0
 77
     0
 78
     0
281
     0
 65
     1
110
0.0
120
0.0
130
0.0
111
1.0
121
0.0
131
0.0
112
0.0
122
1.0
132
0.0
 79
     0
146
0.0
  0
ENDTAB
  0
TABLE
  2
LTYPE
  5
5
330
0
100
AcDbSymbolTable
 70
     7
  0
LTYPE
  5
14
330
5
100
AcDbSymbolTableRecord
100
AcDbLinetypeTableRecord
  2
ByBlock
 70
     0
  3

 72
    65
 73
     0
 40
0.0
  0
LTYPE
  5
15
330
5
100
AcDbSymbolTableRecord
100
AcDbLinetypeTableRecord
  2
ByLayer
 70
     0
  3

 72
    65
 73
     0
 40
0.0
  0
LTYPE
  5
16
330
5
100
AcDbSymbolTableRecord
100
AcDbLinetypeTableRecord
  2
Continuous
 70
     0
  3
Solid line
 72
    65
 73
     0
 40
0.0
  0
LTYPE
  5
6E
330
5
100
AcDbSymbolTableRecord
100
AcDbLinetypeTableRecord
  2
CENTER
 70
     0
  3
____ _ ____ _ ____ _ ____
 72
    65
 73
     4
 40
47.4
 49
22.0
 74
     4
 75
     0
340
0
 46
0.0
 50
0.0
 44
0.0
 45
0.0
 49
-8.5
 74
     4
 75
     0
340
0
 46
0.0
 50
0.0
 44
0.0
 45
0.0
 49
8.5
 74
     4
 75
     0
340
0
 46
0.0
 50
0.0
 44
0.0
 45
0.0
 49
-8.5
 74
     4
 75
     0
340
0
 46
0.0
 50
0.0
 44
0.0
 45
0.0
  0
LTYPE
  5
6F
330
5
100
AcDbSymbolTableRecord
100
AcDbLinetypeTableRecord
  2
DASHDOT
 70
     0
  3
_._._._._._._._._._._._._._._._.
 72
    65
 73
     4
 40
70.0
 49
31.0
 74
     4
 75
     0
340
0
 46
0.0
 50
0.0
 44
0.0
 45
0.0
 49
-13.0
 74
     4
 75
     0
340
0
 46
0.0
 50
0.0
 44
0.0
 45
0.0
 49
13.0
 74
     4
 75
     0
340
0
 46
0.0
 50
0.0
 44
0.0
 45
0.0
 49
-13.0
 74
     4
 75
     0
340
0
 46
0.0
 50
0.0
 44
0.0
 45
0.0
  0
LTYPE
  5
70
330
5
100
AcDbSymbolTableRecord
100
AcDbLinetypeTableRecord
  2
DASHED
 70
     0
  3
__ __ __ __ __ __ __ __ __
 72
    65
 73
     2
 40
25.72
 49
12.86
 74
     4
 75
     0
340
0
 46
0.0
 50
0.0
 44
0.0
 45
0.0
 49
-12.86
 74
     4
 75
     0
340
0
 46
0.0
 50
0.0
 44
0.0
 45
0.0
  0
LTYPE
  5
71
330
5
100
AcDbSymbolTableRecord
100
AcDbLinetypeTableRecord
  2
DOT
 70
     0
  3
.........................
 72
    65
 73
     2
 40
10.0
 49
0.0
 74
     4
 75
     0
340
0
 46
0.0
 50
0.0
 44
0.0
 45
0.0
 49
-10.0
 74
     4
 75
     0
340
0
 46
0.0
 50
0.0
 44
0.0
 45
0.0
  0
LTYPE
  5
72
330
5
100
AcDbSymbolTableRecord
100
AcDbLinetypeTableRecord
  2
PHANTOM
 70
     0
  3
____ _ _ ____ _ _ _____ _ _ ____
 72
    65
 73
     6
 40
50.5
 49
18.0
 74
     4
 75
     0
340
0
 46
0.0
 50
0.0
 44
0.0
 45
0.0
 49
-6.5
 74
     4
 75
     0
340
0
 46
0.0
 50
0.0
 44
0.0
 45
0.0
 49
6.5
 74
     4
 75
     0
340
0
 46
0.0
 50
0.0
 44
0.0
 45
0.0
 49
-6.5
 74
     4
 75
     0
340
0
 46
0.0
 50
0.0
 44
0.0
 45
0.0
 49
6.5
 74
     4
 75
     0
340
0
 46
0.0
 50
0.0
 44
0.0
 45
0.0
 49
-6.5
 74
     4
 75
     0
340
0
 46
0.0
 50
0.0
 44
0.0
 45
0.0
  0
LTYPE
  5
348
330
5
100
AcDbSymbolTableRecord
100
AcDbLinetypeTableRecord
  2
CENTER2
 70
     0
  3
Center (.5x) ___ _ ___ _ ___ _ ___ _ ___ _ ___
 72
    65
 73
     4
 40
1.125
 49
0.75
 74
     0
 49
-0.125
 74
     0
 49
0.125
 74
     0
 49
-0.125
 74
     0
  0
ENDTAB
  0
TABLE
  2
LAYER
  5
2
330
0
100
AcDbSymbolTable
 70
    22
  0
LAYER
  5
10
102
{ACAD_XDICTIONARY
360
353
102
}
330
2
100
AcDbSymbolTableRecord
100
AcDbLayerTableRecord
  2
0
 70
     0
 62
     7
  6
Continuous
370
    -3
390
F
  0
LAYER
  5
201
330
2
100
AcDbSymbolTableRecord
100
AcDbLayerTableRecord
  2
Defpoints
 70
     0
 62
     7
  6
Continuous
290
     0
370
    -3
390
F
  0
LAYER
  5
345
102
{ACAD_XDICTIONARY
360
355
102
}
330
2
100
AcDbSymbolTableRecord
100
AcDbLayerTableRecord
  2
1
 70
     0
 62
     4
  6
Continuous
370
    -3
390
F
  0
LAYER
  5
346
102
{ACAD_XDICTIONARY
360
357
102
}
330
2
100
AcDbSymbolTableRecord
100
AcDbLayerTableRecord
  2
2
 70
     0
 62
     7
  6
Continuous
370
    -3
390
F
  0
LAYER
  5
347
102
{ACAD_XDICTIONARY
360
359
102
}
330
2
100
AcDbSymbolTableRecord
100
AcDbLayerTableRecord
  2
4
 70
     0
 62
     2
  6
CENTER2
370
    -3
390
F
  0
LAYER
  5
349
102
{ACAD_XDICTIONARY
360
35B
102
}
330
2
100
AcDbSymbolTableRecord
100
AcDbLayerTableRecord
  2
SK1
 70
     0
 62
     4
  6
Continuous
370
    -3
390
F
  0
LAYER
  5
34A
102
{ACAD_XDICTIONARY
360
35D
102
}
330
2
100
AcDbSymbolTableRecord
100
AcDbLayerTableRecord
  2
SK2
 70
     0
 62
     7
  6
Continuous
370
    -3
390
F
  0
LAYER
  5
34C
102
{ACAD_XDICTIONARY
360
35F
102
}
330
2
100
AcDbSymbolTableRecord
100
AcDbLayerTableRecord
  2
SK4
 70
     0
 62
     2
  6
CENTER2
370
    -3
390
F
  0
LAYER
  5
34D
102
{ACAD_XDICTIONARY
360
361
102
}
330
2
100
AcDbSymbolTableRecord
100
AcDbLayerTableRecord
  2
SK6
 70
     0
 62
     5
  6
Continuous
370
    -3
390
F
  0
LAYER
  5
34E
102
{ACAD_XDICTIONARY
360
363
102
}
330
2
100
AcDbSymbolTableRecord
100
AcDbLayerTableRecord
  2
CUT
 70
     0
 62
     1
  6
Continuous
370
    -3
390
F
  0
LAYER
  5
34F
102
{ACAD_XDICTIONARY
360
365
102
}
330
2
100
AcDbSymbolTableRecord
100
AcDbLayerTableRecord
  2
NOCUT
 70
     0
 62
     7
  6
Continuous
370
    -3
390
F
  0
LAYER
  5
350
102
{ACAD_XDICTIONARY
360
367
102
}
330
2
100
AcDbSymbolTableRecord
100
AcDbLayerTableRecord
  2
80
 70
     0
 62
     6
  6
Continuous
370
    -3
390
F
  0
LAYER
  5
351
102
{ACAD_XDICTIONARY
360
369
102
}
330
2
100
AcDbSymbolTableRecord
100
AcDbLayerTableRecord
  2
81
 70
     0
 62
     3
  6
Continuous
370
    -3
390
F
  0
ENDTAB
  0
TABLE
  2
STYLE
  5
3
330
0
100
AcDbSymbolTable
 70
     3
  0
STYLE
  5
11
330
3
100
AcDbSymbolTableRecord
100
AcDbTextStyleTableRecord
  2
Standard
 70
     0
 40
0.0
 41
1.0
 50
0.0
 71
     0
 42
0.2
  3
txt
  4

  0
STYLE
  5
1F5
330
3
100
AcDbSymbolTableRecord
100
AcDbTextStyleTableRecord
  2
cesky
 70
     0
 40
0.0
 41
1.0
 50
0.0
 71
     0
 42
0.2
  3
simplex.shx
  4

  0
STYLE
  5
1F6
330
3
100
AcDbSymbolTableRecord
100
AcDbTextStyleTableRecord
  2
DWGDirectTextStyle
 70
     0
 40
0.0
 41
1.0
 50
0.0
 71
     0
 42
0.2
  3
simplex
  4

  0
ENDTAB
  0
TABLE
  2
VIEW
  5
6
330
0
100
AcDbSymbolTable
 70
     0
  0
ENDTAB
  0
TABLE
  2
UCS
  5
7
330
0
100
AcDbSymbolTable
 70
     0
  0
ENDTAB
  0
TABLE
  2
APPID
  5
9
330
0
100
AcDbSymbolTable
 70
     7
  0
APPID
  5
12
330
9
100
AcDbSymbolTableRecord
100
AcDbRegAppTableRecord
  2
ACAD
 70
     0
  0
APPID
  5
1FD
330
9
100
AcDbSymbolTableRecord
100
AcDbRegAppTableRecord
  2
ACAD_DSTYLE_DIMBREAK
 70
     0
  0
APPID
  5
2B6
330
9
100
AcDbSymbolTableRecord
100
AcDbRegAppTableRecord
  2
ACAD_DSTYLE_DIM_LINETYPE
 70
     0
  0
APPID
  5
2B7
330
9
100
AcDbSymbolTableRecord
100
AcDbRegAppTableRecord
  2
ACAD_DSTYLE_DIM_EXT1_LINETYPE
 70
     0
  0
APPID
  5
2B8
330
9
100
AcDbSymbolTableRecord
100
AcDbRegAppTableRecord
  2
ACAD_DSTYLE_DIM_EXT2_LINETYPE
 70
     0
  0
APPID
  5
2F8
330
9
100
AcDbSymbolTableRecord
100
AcDbRegAppTableRecord
  2
ACAD_MLEADERVER
 70
     0
  0
APPID
  5
36E
330
9
100
AcDbSymbolTableRecord
100
AcDbRegAppTableRecord
  2
ACAD_NAV_VCDISPLAY
 70
     0
  0
ENDTAB
  0
TABLE
  2
DIMSTYLE
  5
A
330
0
100
AcDbSymbolTable
 70
     1
100
AcDbDimStyleTable
 71
     0
  0
DIMSTYLE
105
27
330
A
100
AcDbSymbolTableRecord
100
AcDbDimStyleTableRecord
  2
Standard
 70
     0
340
11
1001
ACAD_DSTYLE_DIMBREAK
1070
   391
1040
6.349999999999999
  0
ENDTAB
  0
TABLE
  2
BLOCK_RECORD
  5
1
330
0
100
AcDbSymbolTable
 70
    16
  0
BLOCK_RECORD
  5
1F
102
{ACAD_XDICTIONARY
360
308
102
}
330
1
100
AcDbSymbolTableRecord
100
AcDbBlockTableRecord
  2
*Model_Space
340
22
  0
BLOCK_RECORD
  5
1B
330
1
100
AcDbSymbolTableRecord
100
AcDbBlockTableRecord
  2
*Paper_Space
340
1E
  0
BLOCK_RECORD
  5
23
330
1
100
AcDbSymbolTableRecord
100
AcDbBlockTableRecord
  2
*Paper_Space0
340
26
  0
BLOCK_RECORD
  5
1F8
330
1
100
AcDbSymbolTableRecord
100
AcDbBlockTableRecord
  2
ASSORTED_DRAFT1
340
0
  0
BLOCK_RECORD
  5
202
330
1
100
AcDbSymbolTableRecord
100
AcDbBlockTableRecord
  2
*D2
340
0
  0
BLOCK_RECORD
  5
20D
330
1
100
AcDbSymbolTableRecord
100
AcDbBlockTableRecord
  2
_U0
340
0
  0
BLOCK_RECORD
  5
218
330
1
100
AcDbSymbolTableRecord
100
AcDbBlockTableRecord
  2
*D4
340
0
  0
BLOCK_RECORD
  5
224
330
1
100
AcDbSymbolTableRecord
100
AcDbBlockTableRecord
  2
_U1
340
0
  0
BLOCK_RECORD
  5
231
330
1
100
AcDbSymbolTableRecord
100
AcDbBlockTableRecord
  2
*D6
340
0
  0
BLOCK_RECORD
  5
23D
330
1
100
AcDbSymbolTableRecord
100
AcDbBlockTableRecord
  2
_U2
340
0
  0
BLOCK_RECORD
  5
24A
330
1
100
AcDbSymbolTableRecord
100
AcDbBlockTableRecord
  2
*D8
340
0
  0
BLOCK_RECORD
  5
256
330
1
100
AcDbSymbolTableRecord
100
AcDbBlockTableRecord
  2
_U3
340
0
  0
BLOCK_RECORD
  5
262
330
1
100
AcDbSymbolTableRecord
100
AcDbBlockTableRecord
  2
*D10
340
0
  0
BLOCK_RECORD
  5
26E
330
1
100
AcDbSymbolTableRecord
100
AcDbBlockTableRecord
  2
_U4
340
0
  0
BLOCK_RECORD
  5
27A
330
1
100
AcDbSymbolTableRecord
100
AcDbBlockTableRecord
  2
*D12
340
0
  0
BLOCK_RECORD
  5
286
330
1
100
AcDbSymbolTableRecord
100
AcDbBlockTableRecord
  2
_U5
340
0
  0
BLOCK_RECORD
  5
292
330
1
100
AcDbSymbolTableRecord
100
AcDbBlockTableRecord
  2
*D14
340
0
  0
BLOCK_RECORD
  5
29E
330
1
100
AcDbSymbolTableRecord
100
AcDbBlockTableRecord
  2
_U6
340
0
  0
ENDTAB
  0
ENDSEC
  0
SECTION
  2
BLOCKS
  0
BLOCK
  5
20
330
1F
100
AcDbEntity
  8
0
100
AcDbBlockBegin
  2
*Model_Space
 70
     0
 10
0.0
 20
0.0
 30
0.0
  3
*Model_Space
  1

  0
ENDBLK
  5
21
330
1F
100
AcDbEntity
  8
0
100
AcDbBlockEnd
  0
BLOCK
  5
1C
330
1B
100
AcDbEntity
 67
     1
  8
0
100
AcDbBlockBegin
  2
*Paper_Space
 70
     0
 10
0.0
 20
0.0
 30
0.0
  3
*Paper_Space
  1

  0
ENDBLK
  5
1D
330
1B
100
AcDbEntity
 67
     1
  8
0
100
AcDbBlockEnd
  0
BLOCK
  5
24
330
23
100
AcDbEntity
 67
     1
  8
0
100
AcDbBlockBegin
  2
*Paper_Space0
 70
     0
 10
0.0
 20
0.0
 30
0.0
  3
*Paper_Space0
  1

  0
ENDBLK
  5
25
330
23
100
AcDbEntity
 67
     1
  8
0
100
AcDbBlockEnd
  0
BLOCK
  5
1FB
330
1F8
100
AcDbEntity
  8
0
100
AcDbBlockBegin
  2
ASSORTED_DRAFT1
 70
     0
 10
0.0
 20
0.0
 30
0.0
  3
ASSORTED_DRAFT1
  1

  0
SOLID
  5
1F9
330
1F8
100
AcDbEntity
  8
0
 62
   254
370
    13
100
AcDbTrace
 10
270.185042
 20
168.534924
 30
0.0
 11
265.185046
 21
167.42645
 31
0.0
 12
265.1850379999999
 22
169.643397
 32
0.0
 13
270.185042
 23
168.534924
 33
0.0
  0
ENDBLK
  5
1FC
330
1F8
100
AcDbEntity
  8
0
100
AcDbBlockEnd
  0
BLOCK
  5
203
330
202
100
AcDbEntity
  8
0
100
AcDbBlockBegin
  2
*D2
 70
     1
 10
0.0
 20
0.0
 30
0.0
  3
*D2
  1

  0
LINE
  5
205
330
202
100
AcDbEntity
  8
0
 62
   254
370
    -2
100
AcDbLine
 10
294.703832
 20
288.907994
 30
0.0
 11
379.724664
 21
288.907994
 31
0.0
  0
LINE
  5
206
330
202
100
AcDbEntity
  8
0
 62
   254
370
    -2
100
AcDbLine
 10
330.83929
 20
304.907994
 30
0.0
 11
379.724664
 21
304.907994
 31
0.0
  0
LINE
  5
207
330
202
100
AcDbEntity
  8
0
 62
   254
370
    -2
100
AcDbLine
 10
378.724664
 20
288.907994
 30
0.0
 11
378.724664
 21
304.907994
 31
0.0
  0
SOLID
  5
208
330
202
100
AcDbEntity
  8
0
 62
   254
100
AcDbTrace
 10
379.307998
 20
301.407994
 30
0.0
 11
378.141331
 21
301.407994
 31
0.0
 12
378.724664
 22
304.907994
 32
0.0
 13
378.724664
 23
304.907994
 33
0.0
  0
MTEXT
  5
209
330
202
100
AcDbEntity
  8
0
 62
   254
370
    13
100
AcDbMText
 10
373.474664
 20
279.07466
 30
0.0
 40
3.5
 41
0.0
 71
     5
 72
     1
  1
\A1;32
  7
cesky
 11
0.0
 21
1.0
 31
0.0
 73
     1
 44
1.0
  0
POINT
  5
20A
330
202
100
AcDbEntity
  8
Defpoints
 62
     0
100
AcDbPoint
 10
294.703832
 20
288.907994
 30
0.0
  0
POINT
  5
20B
330
202
100
AcDbEntity
  8
Defpoints
 62
     0
100
AcDbPoint
 10
330.83929
 20
304.907994
 30
0.0
  0
POINT
  5
20C
330
202
100
AcDbEntity
  8
Defpoints
 62
     0
100
AcDbPoint
 10
378.724664
 20
304.907994
 30
0.0
  0
ENDBLK
  5
204
330
202
100
AcDbEntity
  8
0
100
AcDbBlockEnd
  0
BLOCK
  5
213
330
20D
100
AcDbEntity
  8
0
100
AcDbBlockBegin
  2
_U0
 70
     0
 10
0.0
 20
0.0
 30
0.0
  3
_U0
  1

  0
ENDBLK
  5
214
330
20D
100
AcDbEntity
  8
0
100
AcDbBlockEnd
  0
BLOCK
  5
219
330
218
100
AcDbEntity
  8
0
100
AcDbBlockBegin
  2
*D4
 70
     1
 10
0.0
 20
0.0
 30
0.0
  3
*D4
  1

  0
LINE
  5
21B
330
218
100
AcDbEntity
  8
0
 62
    95
370
    -2
100
AcDbLine
 10
206.404842
 20
308.907994
 30
0.0
 11
192.006449
 21
308.907994
 31
0.0
  0
LINE
  5
21C
330
218
100
AcDbEntity
  8
0
 62
    95
370
    -2
100
AcDbLine
 10
206.404842
 20
268.907994
 30
0.0
 11
192.006449
 21
268.907994
 31
0.0
  0
LINE
  5
21D
330
218
100
AcDbEntity
  8
0
 62
    95
370
    -2
100
AcDbLine
 10
193.006449
 20
305.407994
 30
0.0
 11
193.006449
 21
272.407994
 31
0.0
  0
SOLID
  5
21E
330
218
100
AcDbEntity
  8
0
 62
    95
100
AcDbTrace
 10
193.589782
 20
305.407994
 30
0.0
 11
192.423116
 21
305.407994
 31
0.0
 12
193.006449
 22
308.907994
 32
0.0
 13
193.006449
 23
308.907994
 33
0.0
  0
SOLID
  5
21F
330
218
100
AcDbEntity
  8
0
 62
    95
100
AcDbTrace
 10
192.423116
 20
272.407994
 30
0.0
 11
193.589782
 21
272.407994
 31
0.0
 12
193.006449
 22
268.907994
 32
0.0
 13
193.006449
 23
268.907994
 33
0.0
  0
MTEXT
  5
220
330
218
100
AcDbEntity
  8
0
 62
    95
370
    13
100
AcDbMText
 10
187.756449
 20
288.907994
 30
0.0
 40
3.5
 41
0.0
 71
     5
 72
     1
  1
\A1;40
  7
cesky
 11
0.0
 21
1.0
 31
0.0
 73
     1
 44
1.0
  0
POINT
  5
221
330
218
100
AcDbEntity
  8
Defpoints
 62
     0
100
AcDbPoint
 10
206.404842
 20
308.907994
 30
0.0
  0
POINT
  5
222
330
218
100
AcDbEntity
  8
Defpoints
 62
     0
100
AcDbPoint
 10
206.404842
 20
268.907994
 30
0.0
  0
POINT
  5
223
330
218
100
AcDbEntity
  8
Defpoints
 62
     0
100
AcDbPoint
 10
193.006449
 20
268.907994
 30
0.0
  0
ENDBLK
  5
21A
330
218
100
AcDbEntity
  8
0
100
AcDbBlockEnd
  0
BLOCK
  5
22C
330
224
100
AcDbEntity
  8
0
100
AcDbBlockBegin
  2
_U1
 70
     0
 10
0.0
 20
0.0
 30
0.0
  3
_U1
  1

  0
ENDBLK
  5
22D
330
224
100
AcDbEntity
  8
0
100
AcDbBlockEnd
  0
BLOCK
  5
232
330
231
100
AcDbEntity
  8
0
100
AcDbBlockBegin
  2
*D6
 70
     1
 10
0.0
 20
0.0
 30
0.0
  3
*D6
  1

  0
LINE
  5
234
330
231
100
AcDbEntity
  8
0
 62
    95
370
    -2
100
AcDbLine
 10
277.154842
 20
313.907994
 30
0.0
 11
178.434788
 21
313.907994
 31
0.0
  0
LINE
  5
235
330
231
100
AcDbEntity
  8
0
 62
    95
370
    -2
100
AcDbLine
 10
277.154842
 20
263.907994
 30
0.0
 11
178.434788
 21
263.907994
 31
0.0
  0
LINE
  5
236
330
231
100
AcDbEntity
  8
0
 62
    95
370
    -2
100
AcDbLine
 10
179.434788
 20
310.407994
 30
0.0
 11
179.434788
 21
267.407994
 31
0.0
  0
SOLID
  5
237
330
231
100
AcDbEntity
  8
0
 62
    95
100
AcDbTrace
 10
180.018121
 20
310.407994
 30
0.0
 11
178.851455
 21
310.407994
 31
0.0
 12
179.434788
 22
313.907994
 32
0.0
 13
179.434788
 23
313.907994
 33
0.0
  0
SOLID
  5
238
330
231
100
AcDbEntity
  8
0
 62
    95
100
AcDbTrace
 10
178.851455
 20
267.407994
 30
0.0
 11
180.018121
 21
267.407994
 31
0.0
 12
179.434788
 22
263.907994
 32
0.0
 13
179.434788
 23
263.907994
 33
0.0
  0
MTEXT
  5
239
330
231
100
AcDbEntity
  8
0
 62
    95
370
    13
100
AcDbMText
 10
174.184788
 20
288.907994
 30
0.0
 40
3.5
 41
0.0
 71
     5
 72
     1
  1
\A1;50
  7
cesky
 11
0.0
 21
1.0
 31
0.0
 73
     1
 44
1.0
  0
POINT
  5
23A
330
231
100
AcDbEntity
  8
Defpoints
 62
     0
100
AcDbPoint
 10
277.154842
 20
313.907994
 30
0.0
  0
POINT
  5
23B
330
231
100
AcDbEntity
  8
Defpoints
 62
     0
100
AcDbPoint
 10
277.154842
 20
263.907994
 30
0.0
  0
POINT
  5
23C
330
231
100
AcDbEntity
  8
Defpoints
 62
     0
100
AcDbPoint
 10
179.434788
 20
263.907994
 30
0.0
  0
ENDBLK
  5
233
330
231
100
AcDbEntity
  8
0
100
AcDbBlockEnd
  0
BLOCK
  5
245
330
23D
100
AcDbEntity
  8
0
100
AcDbBlockBegin
  2
_U2
 70
     0
 10
0.0
 20
0.0
 30
0.0
  3
_U2
  1

  0
ENDBLK
  5
246
330
23D
100
AcDbEntity
  8
0
100
AcDbBlockEnd
  0
BLOCK
  5
24B
330
24A
100
AcDbEntity
  8
0
100
AcDbBlockBegin
  2
*D8
 70
     1
 10
0.0
 20
0.0
 30
0.0
  3
*D8
  1

  0
LINE
  5
24D
330
24A
100
AcDbEntity
  8
0
 62
   254
370
    -2
100
AcDbLine
 10
363.404842
 20
306.907994
 30
0.0
 11
363.404842
 21
341.687968
 31
0.0
  0
LINE
  5
24E
330
24A
100
AcDbEntity
  8
0
 62
   254
370
    -2
100
AcDbLine
 10
204.404842
 20
306.907994
 30
0.0
 11
204.404842
 21
341.687968
 31
0.0
  0
LINE
  5
24F
330
24A
100
AcDbEntity
  8
0
 62
   254
370
    -2
100
AcDbLine
 10
359.904842
 20
340.687968
 30
0.0
 11
207.904842
 21
340.687968
 31
0.0
  0
SOLID
  5
250
330
24A
100
AcDbEntity
  8
0
 62
   254
100
AcDbTrace
 10
359.904842
 20
340.104634
 30
0.0
 11
359.904842
 21
341.271301
 31
0.0
 12
363.404842
 22
340.687968
 32
0.0
 13
363.404842
 23
340.687968
 33
0.0
  0
SOLID
  5
251
330
24A
100
AcDbEntity
  8
0
 62
   254
100
AcDbTrace
 10
207.904842
 20
341.271301
 30
0.0
 11
207.904842
 21
340.104634
 31
0.0
 12
204.404842
 22
340.687968
 32
0.0
 13
204.404842
 23
340.687968
 33
0.0
  0
MTEXT
  5
252
330
24A
100
AcDbEntity
  8
0
 62
   254
370
    13
100
AcDbMText
 10
283.904842
 20
345.937968
 30
0.0
 40
3.5
 41
0.0
 71
     5
 72
     1
  1
\A1;159
  7
cesky
 73
     1
 44
1.0
  0
POINT
  5
253
330
24A
100
AcDbEntity
  8
Defpoints
 62
     0
100
AcDbPoint
 10
363.404842
 20
306.907994
 30
0.0
  0
POINT
  5
254
330
24A
100
AcDbEntity
  8
Defpoints
 62
     0
100
AcDbPoint
 10
204.404842
 20
306.907994
 30
0.0
  0
POINT
  5
255
330
24A
100
AcDbEntity
  8
Defpoints
 62
     0
100
AcDbPoint
 10
204.404842
 20
340.687968
 30
0.0
  0
ENDBLK
  5
24C
330
24A
100
AcDbEntity
  8
0
100
AcDbBlockEnd
  0
BLOCK
  5
25D
330
256
100
AcDbEntity
  8
0
100
AcDbBlockBegin
  2
_U3
 70
     0
 10
0.0
 20
0.0
 30
0.0
  3
_U3
  1

  0
ENDBLK
  5
25E
330
256
100
AcDbEntity
  8
0
100
AcDbBlockEnd
  0
BLOCK
  5
263
330
262
100
AcDbEntity
  8
0
100
AcDbBlockBegin
  2
*D10
 70
     1
 10
0.0
 20
0.0
 30
0.0
  3
*D10
  1

  0
LINE
  5
265
330
262
100
AcDbEntity
  8
0
 62
   254
370
    -2
100
AcDbLine
 10
274.404842
 20
288.907994
 30
0.0
 11
274.404842
 21
328.5109970000001
 31
0.0
  0
LINE
  5
266
330
262
100
AcDbEntity
  8
0
 62
   254
370
    -2
100
AcDbLine
 10
204.404842
 20
297.907994
 30
0.0
 11
204.404842
 21
328.5109970000001
 31
0.0
  0
LINE
  5
267
330
262
100
AcDbEntity
  8
0
 62
   254
370
    -2
100
AcDbLine
 10
270.904842
 20
327.510997
 30
0.0
 11
207.904842
 21
327.510997
 31
0.0
  0
SOLID
  5
268
330
262
100
AcDbEntity
  8
0
 62
   254
100
AcDbTrace
 10
270.904842
 20
326.927663
 30
0.0
 11
270.904842
 21
328.09433
 31
0.0
 12
274.404842
 22
327.510997
 32
0.0
 13
274.404842
 23
327.510997
 33
0.0
  0
SOLID
  5
269
330
262
100
AcDbEntity
  8
0
 62
   254
100
AcDbTrace
 10
207.904842
 20
328.09433
 30
0.0
 11
207.904842
 21
326.927663
 31
0.0
 12
204.404842
 22
327.510997
 32
0.0
 13
204.404842
 23
327.510997
 33
0.0
  0
MTEXT
  5
26A
330
262
100
AcDbEntity
  8
0
 62
   254
370
    13
100
AcDbMText
 10
239.404842
 20
332.7609970000001
 30
0.0
 40
3.5
 41
0.0
 71
     5
 72
     1
  1
\A1;70
  7
cesky
 73
     1
 44
1.0
  0
POINT
  5
26B
330
262
100
AcDbEntity
  8
Defpoints
 62
     0
100
AcDbPoint
 10
274.404842
 20
288.907994
 30
0.0
  0
POINT
  5
26C
330
262
100
AcDbEntity
  8
Defpoints
 62
     0
100
AcDbPoint
 10
204.404842
 20
297.907994
 30
0.0
  0
POINT
  5
26D
330
262
100
AcDbEntity
  8
Defpoints
 62
     0
100
AcDbPoint
 10
204.404842
 20
327.510997
 30
0.0
  0
ENDBLK
  5
264
330
262
100
AcDbEntity
  8
0
100
AcDbBlockEnd
  0
BLOCK
  5
275
330
26E
100
AcDbEntity
  8
0
100
AcDbBlockBegin
  2
_U4
 70
     0
 10
0.0
 20
0.0
 30
0.0
  3
_U4
  1

  0
ENDBLK
  5
276
330
26E
100
AcDbEntity
  8
0
100
AcDbBlockEnd
  0
BLOCK
  5
27B
330
27A
100
AcDbEntity
  8
0
100
AcDbBlockBegin
  2
*D12
 70
     1
 10
0.0
 20
0.0
 30
0.0
  3
*D12
  1

  0
LINE
  5
27D
330
27A
100
AcDbEntity
  8
0
 62
   254
370
    -2
100
AcDbLine
 10
363.404842
 20
304.907994
 30
0.0
 11
363.404842
 21
317.637587
 31
0.0
  0
LINE
  5
27E
330
27A
100
AcDbEntity
  8
0
 62
   254
370
    -2
100
AcDbLine
 10
293.406366
 20
304.613487
 30
0.0
 11
293.406366
 21
317.637587
 31
0.0
  0
LINE
  5
27F
330
27A
100
AcDbEntity
  8
0
 62
   254
370
    -2
100
AcDbLine
 10
359.904842
 20
316.637587
 30
0.0
 11
296.906366
 21
316.637587
 31
0.0
  0
SOLID
  5
280
330
27A
100
AcDbEntity
  8
0
 62
   254
100
AcDbTrace
 10
359.904842
 20
316.054254
 30
0.0
 11
359.904842
 21
317.220921
 31
0.0
 12
363.404842
 22
316.637587
 32
0.0
 13
363.404842
 23
316.637587
 33
0.0
  0
SOLID
  5
281
330
27A
100
AcDbEntity
  8
0
 62
   254
100
AcDbTrace
 10
296.906366
 20
317.220921
 30
0.0
 11
296.906366
 21
316.054254
 31
0.0
 12
293.406366
 22
316.637587
 32
0.0
 13
293.406366
 23
316.637587
 33
0.0
  0
MTEXT
  5
282
330
27A
100
AcDbEntity
  8
0
 62
   254
370
    13
100
AcDbMText
 10
328.405604
 20
321.887587
 30
0.0
 40
3.5
 41
0.0
 71
     5
 72
     1
  1
\A1;70
  7
cesky
 73
     1
 44
1.0
  0
POINT
  5
283
330
27A
100
AcDbEntity
  8
Defpoints
 62
     0
100
AcDbPoint
 10
363.404842
 20
304.907994
 30
0.0
  0
POINT
  5
284
330
27A
100
AcDbEntity
  8
Defpoints
 62
     0
100
AcDbPoint
 10
293.406366
 20
304.613487
 30
0.0
  0
POINT
  5
285
330
27A
100
AcDbEntity
  8
Defpoints
 62
     0
100
AcDbPoint
 10
293.406366
 20
316.637587
 30
0.0
  0
ENDBLK
  5
27C
330
27A
100
AcDbEntity
  8
0
100
AcDbBlockEnd
  0
BLOCK
  5
28D
330
286
100
AcDbEntity
  8
0
100
AcDbBlockBegin
  2
_U5
 70
     0
 10
0.0
 20
0.0
 30
0.0
  3
_U5
  1

  0
ENDBLK
  5
28E
330
286
100
AcDbEntity
  8
0
100
AcDbBlockEnd
  0
BLOCK
  5
293
330
292
100
AcDbEntity
  8
0
100
AcDbBlockBegin
  2
*D14
 70
     1
 10
0.0
 20
0.0
 30
0.0
  3
*D14
  1

  0
LINE
  5
295
330
292
100
AcDbEntity
  8
0
 62
   254
370
    -2
100
AcDbLine
 10
363.404842
 20
304.907994
 30
0.0
 11
363.404842
 21
328.5109970000001
 31
0.0
  0
LINE
  5
296
330
292
100
AcDbEntity
  8
0
 62
   254
370
    -2
100
AcDbLine
 10
274.404842
 20
288.907994
 30
0.0
 11
274.404842
 21
328.5109970000001
 31
0.0
  0
LINE
  5
297
330
292
100
AcDbEntity
  8
0
 62
   254
370
    -2
100
AcDbLine
 10
359.904842
 20
327.510997
 30
0.0
 11
277.904842
 21
327.510997
 31
0.0
  0
SOLID
  5
298
330
292
100
AcDbEntity
  8
0
 62
   254
100
AcDbTrace
 10
359.904842
 20
326.927663
 30
0.0
 11
359.904842
 21
328.09433
 31
0.0
 12
363.404842
 22
327.510997
 32
0.0
 13
363.404842
 23
327.510997
 33
0.0
  0
SOLID
  5
299
330
292
100
AcDbEntity
  8
0
 62
   254
100
AcDbTrace
 10
277.904842
 20
328.09433
 30
0.0
 11
277.904842
 21
326.927663
 31
0.0
 12
274.404842
 22
327.510997
 32
0.0
 13
274.404842
 23
327.510997
 33
0.0
  0
MTEXT
  5
29A
330
292
100
AcDbEntity
  8
0
 62
   254
370
    13
100
AcDbMText
 10
318.904842
 20
332.7609970000001
 30
0.0
 40
3.5
 41
0.0
 71
     5
 72
     1
  1
\A1;89
  7
cesky
 73
     1
 44
1.0
  0
POINT
  5
29B
330
292
100
AcDbEntity
  8
Defpoints
 62
     0
100
AcDbPoint
 10
363.404842
 20
304.907994
 30
0.0
  0
POINT
  5
29C
330
292
100
AcDbEntity
  8
Defpoints
 62
     0
100
AcDbPoint
 10
274.404842
 20
288.907994
 30
0.0
  0
POINT
  5
29D
330
292
100
AcDbEntity
  8
Defpoints
 62
     0
100
AcDbPoint
 10
274.404842
 20
327.510997
 30
0.0
  0
ENDBLK
  5
294
330
292
100
AcDbEntity
  8
0
100
AcDbBlockEnd
  0
BLOCK
  5
2A5
330
29E
100
AcDbEntity
  8
0
100
AcDbBlockBegin
  2
_U6
 70
     0
 10
0.0
 20
0.0
 30
0.0
  3
_U6
  1

  0
ENDBLK
  5
2A6
330
29E
100
AcDbEntity
  8
0
100
AcDbBlockEnd
  0
ENDSEC
  0
SECTION
  2
ENTITIES
  0
POINT
  5
73
102
{ACAD_REACTORS
330
352
102
}
330
1F
100
AcDbEntity
  8
80
100
AcDbPoint
 10
274.404842
 20
288.907994
 30
0.0
  0
POINT
  5
76
330
1F
100
AcDbEntity
  8
SK4
 60
     1
100
AcDbPoint
 10
206.404842
 20
288.907994
 30
0.0
  0
POINT
  5
78
330
1F
100
AcDbEntity
  8
SK4
 60
     1
100
AcDbPoint
 10
274.404842
 20
288.907994
 30
0.0
  0
POINT
  5
79
330
1F
100
AcDbEntity
  8
4
 60
     1
100
AcDbPoint
 10
294.703832
 20
288.907994
 30
0.0
  0
POINT
  5
7A
330
1F
100
AcDbEntity
  8
4
 60
     1
100
AcDbPoint
 10
362.506645
 20
288.907994
 30
0.0
  0
POINT
  5
7B
330
1F
100
AcDbEntity
  8
SK6
 60
     1
100
AcDbPoint
 10
274.404842
 20
288.907994
 30
0.0
  0
POINT
  5
7C
330
1F
100
AcDbEntity
  8
SK6
 60
     1
100
AcDbPoint
 10
293.406366
 20
304.613487
 30
0.0
  0
LINE
  5
7D
330
1F
100
AcDbEntity
  8
81
100
AcDbLine
 10
363.404842
 20
306.907994
 30
0.0
 11
363.404842
 21
302.907994
 31
0.0
  0
LINE
  5
7E
330
1F
100
AcDbEntity
  8
SK1
100
AcDbLine
 10
206.404842
 20
268.907994
 30
0.0
 11
274.404842
 21
268.907994
 31
0.0
  0
LINE
  5
80
330
1F
100
AcDbEntity
  8
81
100
AcDbLine
 10
361.404842
 20
304.907994
 30
0.0
 11
365.404842
 21
304.907994
 31
0.0
  0
LINE
  5
81
330
1F
100
AcDbEntity
  8
80
100
AcDbLine
 10
274.404842
 20
287.90842
 30
0.0
 11
274.404842
 21
289.907567
 31
0.0
  0
LINE
  5
82
330
1F
100
AcDbEntity
  8
1
100
AcDbLine
 10
274.904842
 20
263.907994
 30
0.0
 11
279.404842
 21
263.907994
 31
0.0
  0
LINE
  5
83
330
1F
100
AcDbEntity
  8
SK1
100
AcDbLine
 10
204.404842
 20
306.907994
 30
0.0
 11
204.404842
 21
270.907994
 31
0.0
  0
LINE
  5
84
330
1F
100
AcDbEntity
  8
SK1
100
AcDbLine
 10
204.404842
 20
270.907994
 30
0.0
 11
206.404842
 21
268.907994
 31
0.0
  0
LINE
  5
85
330
1F
100
AcDbEntity
  8
SK1
100
AcDbLine
 10
206.404842
 20
308.907994
 30
0.0
 11
204.404842
 21
306.907994
 31
0.0
  0
LINE
  5
86
330
1F
100
AcDbEntity
  8
SK1
100
AcDbLine
 10
206.404842
 20
308.907994
 30
0.0
 11
206.404842
 21
268.907994
 31
0.0
  0
LINE
  5
87
330
1F
100
AcDbEntity
  8
1
100
AcDbLine
 10
274.404842
 20
313.407994
 30
0.0
 11
274.404842
 21
288.907994
 31
0.0
  0
LINE
  5
88
330
1F
100
AcDbEntity
  8
1
100
AcDbLine
 10
274.404842
 20
288.907994
 30
0.0
 11
274.404842
 21
264.407994
 31
0.0
  0
LINE
  5
89
330
1F
100
AcDbEntity
  8
1
100
AcDbLine
 10
359.296494
 20
300.482434
 30
0.0
 11
359.327476
 21
300.588845
 31
0.0
  0
LINE
  5
8B
330
1F
100
AcDbEntity
  8
1
100
AcDbLine
 10
357.373779
 20
298.494325
 30
0.0
 11
357.343025
 21
298.3887
 31
0.0
  0
LINE
  5
8C
330
1F
100
AcDbEntity
  8
1
100
AcDbLine
 10
358.101446
 20
298.202742
 30
0.0
 11
358.132124
 21
298.308107
 31
0.0
  0
LINE
  5
8D
330
1F
100
AcDbEntity
  8
1
100
AcDbLine
 10
357.258645
 20
300.9573
 30
0.0
 11
357.289592
 21
301.063589
 31
0.0
  0
LINE
  5
8E
330
1F
100
AcDbEntity
  8
1
100
AcDbLine
 10
356.524182
 20
299.774579
 30
0.0
 11
356.493754
 21
299.670072
 31
0.0
  0
LINE
  5
8F
330
1F
100
AcDbEntity
  8
1
100
AcDbLine
 10
356.593231
 20
299.764636
 30
0.0
 11
356.562366
 21
299.658631
 31
0.0
  0
LINE
  5
90
330
1F
100
AcDbEntity
  8
1
100
AcDbLine
 10
359.427931
 20
298.99473
 30
0.0
 11
359.458341
 21
299.099172
 31
0.0
  0
LINE
  5
91
330
1F
100
AcDbEntity
  8
1
100
AcDbLine
 10
359.357101
 20
299.014631
 30
0.0
 11
359.387971
 21
299.120654
 31
0.0
  0
LINE
  5
92
330
1F
100
AcDbEntity
  8
1
100
AcDbLine
 10
358.09991
 20
298.219558
 30
0.0
 11
358.1307
 21
298.325308
 31
0.0
  0
LINE
  5
93
330
1F
100
AcDbEntity
  8
1
100
AcDbLine
 10
362.682658
 20
290.047775
 30
0.0
 11
362.190758
 21
289.572752
 31
0.0
  0
LINE
  5
95
330
1F
100
AcDbEntity
  8
1
100
AcDbLine
 10
362.122838
 20
289.507163
 30
0.0
 11
362.190758
 21
289.572752
 31
0.0
  0
LINE
  5
96
330
1F
100
AcDbEntity
  8
1
100
AcDbLine
 10
363.388062
 20
288.77519
 30
0.0
 11
362.724553
 21
288.609759
 31
0.0
  0
LINE
  5
97
330
1F
100
AcDbEntity
  8
1
100
AcDbLine
 10
362.1170370000001
 20
288.458288
 30
0.0
 11
362.724553
 21
288.609759
 31
0.0
  0
LINE
  5
98
330
1F
100
AcDbEntity
  8
1
100
AcDbLine
 10
362.59984
 20
281.464907
 30
0.0
 11
361.954856
 21
281.649853
 31
0.0
  0
LINE
  5
99
330
1F
100
AcDbEntity
  8
1
100
AcDbLine
 10
362.59984
 20
281.464907
 30
0.0
 11
363.264067
 21
281.274443
 31
0.0
  0
LINE
  5
9A
330
1F
100
AcDbEntity
  8
1
100
AcDbLine
 10
362.032761
 20
280.52113
 30
0.0
 11
361.862191
 21
280.69776
 31
0.0
  0
LINE
  5
9B
330
1F
100
AcDbEntity
  8
1
100
AcDbLine
 10
362.507783
 20
280.02923
 30
0.0
 11
362.032761
 21
280.52113
 31
0.0
  0
LINE
  5
9C
330
1F
100
AcDbEntity
  8
1
100
AcDbLine
 10
350.960894
 20
291.819034
 30
0.0
 11
350.972517
 21
291.479325
 31
0.0
  0
LINE
  5
9D
330
1F
100
AcDbEntity
  8
1
100
AcDbLine
 10
360.946334
 20
294.383333
 30
0.0
 11
354.459826
 21
294.157183
 31
0.0
  0
LINE
  5
9E
330
1F
100
AcDbEntity
  8
1
100
AcDbLine
 10
288.904842
 20
304.165364
 30
0.0
 11
288.904842
 21
282.673947
 31
0.0
  0
LINE
  5
9F
330
1F
100
AcDbEntity
  8
1
100
AcDbLine
 10
353.561673
 20
304.30354
 30
0.0
 11
353.558093
 21
304.407097
 31
0.0
  0
LINE
  5
A0
330
1F
100
AcDbEntity
  8
1
100
AcDbLine
 10
356.254055
 20
294.867003
 30
0.0
 11
362.490091
 21
295.084421
 31
0.0
  0
LINE
  5
A1
330
1F
100
AcDbEntity
  8
1
100
AcDbLine
 10
362.491335
 20
294.936623
 30
0.0
 11
362.490091
 21
295.084421
 31
0.0
  0
LINE
  5
A2
330
1F
100
AcDbEntity
  8
1
100
AcDbLine
 10
362.411038
 20
294.398593
 30
0.0
 11
354.46784
 21
294.121656
 31
0.0
  0
LINE
  5
A3
330
1F
100
AcDbEntity
  8
1
100
AcDbLine
 10
362.411038
 20
294.398593
 30
0.0
 11
360.542619
 21
291.302922
 31
0.0
  0
LINE
  5
A4
330
1F
100
AcDbEntity
  8
1
100
AcDbLine
 10
361.660482
 20
273.407994
 30
0.0
 11
345.58755
 21
273.407994
 31
0.0
  0
LINE
  5
A5
330
1F
100
AcDbEntity
  8
1
100
AcDbLine
 10
362.694842
 20
295.371537
 30
0.0
 11
362.694842
 21
290.99217
 31
0.0
  0
LINE
  5
A6
330
1F
100
AcDbEntity
  8
1
100
AcDbLine
 10
274.904842
 20
263.907994
 30
0.0
 11
274.904842
 21
288.907994
 31
0.0
  0
LINE
  5
A7
330
1F
100
AcDbEntity
  8
1
100
AcDbLine
 10
274.904842
 20
288.907994
 30
0.0
 11
274.904842
 21
313.907994
 31
0.0
  0
LINE
  5
A8
330
1F
100
AcDbEntity
  8
1
100
AcDbLine
 10
279.404842
 20
263.907994
 30
0.0
 11
279.404842
 21
266.61133
 31
0.0
  0
LINE
  5
A9
330
1F
100
AcDbEntity
  8
1
100
AcDbLine
 10
279.404842
 20
313.907994
 30
0.0
 11
279.404842
 21
273.868345
 31
0.0
  0
LINE
  5
AA
330
1F
100
AcDbEntity
  8
1
100
AcDbLine
 10
355.432726
 20
300.572157
 30
0.0
 11
355.412274
 21
300.501914
 31
0.0
  0
LINE
  5
AB
330
1F
100
AcDbEntity
  8
1
100
AcDbLine
 10
360.692991
 20
298.964374
 30
0.0
 11
360.713443
 21
299.034617
 31
0.0
  0
LINE
  5
AC
330
1F
100
AcDbEntity
  8
1
100
AcDbLine
 10
279.404842
 20
263.907994
 30
0.0
 11
284.804337
 21
269.307488
 31
0.0
  0
LINE
  5
AD
330
1F
100
AcDbEntity
  8
1
100
AcDbLine
 10
284.804337
 20
308.508499
 30
0.0
 11
279.404842
 21
313.907994
 31
0.0
  0
LINE
  5
AE
330
1F
100
AcDbEntity
  8
SK1
100
AcDbLine
 10
274.404842
 20
308.907994
 30
0.0
 11
206.404842
 21
308.907994
 31
0.0
  0
LINE
  5
AF
330
1F
100
AcDbEntity
  8
1
100
AcDbLine
 10
274.904842
 20
263.907994
 30
0.0
 11
274.404842
 21
264.407994
 31
0.0
  0
LINE
  5
B0
330
1F
100
AcDbEntity
  8
1
100
AcDbLine
 10
274.404842
 20
313.407994
 30
0.0
 11
274.904842
 21
313.907994
 31
0.0
  0
LINE
  5
B1
330
1F
100
AcDbEntity
  8
1
100
AcDbLine
 10
279.404842
 20
313.907994
 30
0.0
 11
274.904842
 21
313.907994
 31
0.0
  0
LINE
  5
B2
330
1F
100
AcDbEntity
  8
1
100
AcDbLine
 10
356.816155
 20
298.99361
 30
0.0
 11
356.847378
 21
299.100845
 31
0.0
  0
LINE
  5
B3
330
1F
100
AcDbEntity
  8
1
100
AcDbLine
 10
358.885778
 20
298.702302
 30
0.0
 11
358.854256
 21
298.594037
 31
0.0
  0
LINE
  5
B4
330
1F
100
AcDbEntity
  8
1
100
AcDbLine
 10
357.239588
 20
300.833024
 30
0.0
 11
357.27111
 21
300.9412890000001
 31
0.0
  0
LINE
  5
B5
330
1F
100
AcDbEntity
  8
1
100
AcDbLine
 10
359.308911
 20
300.540686
 30
0.0
 11
359.277688
 21
300.433451
 31
0.0
  0
LINE
  5
B6
330
1F
100
AcDbEntity
  8
1
100
AcDbLine
 10
353.534572
 20
304.407994
 30
0.0
 11
346.932873
 21
304.407994
 31
0.0
  0
LINE
  5
B7
330
1F
100
AcDbEntity
  8
1
100
AcDbLine
 10
362.53207
 20
295.103673
 30
0.0
 11
356.259287
 21
294.884975
 31
0.0
  0
LINE
  5
B8
330
1F
100
AcDbEntity
  8
1
100
AcDbLine
 10
356.254055
 20
294.867003
 30
0.0
 11
356.259287
 21
294.884975
 31
0.0
  0
LINE
  5
B9
330
1F
100
AcDbEntity
  8
1
100
AcDbLine
 10
353.332443
 20
303.912845
 30
0.0
 11
353.318015
 21
304.330204
 31
0.0
  0
LINE
  5
BA
330
1F
100
AcDbEntity
  8
1
100
AcDbLine
 10
353.326507
 20
297.59451
 30
0.0
 11
353.321275
 21
297.576539
 31
0.0
  0
LINE
  5
BB
330
1F
100
AcDbEntity
  8
1
100
AcDbLine
 10
353.326507
 20
297.59451
 30
0.0
 11
353.093648
 21
304.330595
 31
0.0
  0
LINE
  5
BC
330
1F
100
AcDbEntity
  8
1
100
AcDbLine
 10
353.088931
 20
304.297725
 30
0.0
 11
353.321275
 21
297.576539
 31
0.0
  0
LINE
  5
BD
330
1F
100
AcDbEntity
  8
1
100
AcDbLine
 10
362.53207
 20
295.103673
 30
0.0
 11
362.530343
 21
295.308972
 31
0.0
  0
LINE
  5
BE
330
1F
100
AcDbEntity
  8
1
100
AcDbLine
 10
362.53207
 20
295.103673
 30
0.0
 11
362.490091
 21
295.084421
 31
0.0
  0
LINE
  5
BF
330
1F
100
AcDbEntity
  8
1
100
AcDbLine
 10
362.248277
 20
278.946057
 30
0.0
 11
362.206186
 21
278.94673
 31
0.0
  0
LINE
  5
C0
330
1F
100
AcDbEntity
  8
1
100
AcDbLine
 10
361.989678
 20
279.577912
 30
0.0
 11
361.813908
 21
279.580724
 31
0.0
  0
LINE
  5
C1
330
1F
100
AcDbEntity
  8
1
100
AcDbLine
 10
360.672149
 20
283.153494
 30
0.0
 11
362.122841
 21
283.153494
 31
0.0
  0
LINE
  5
C2
330
1F
100
AcDbEntity
  8
1
100
AcDbLine
 10
362.193111
 20
290.373196
 30
0.0
 11
362.36918
 21
290.370122
 31
0.0
  0
LINE
  5
C3
330
1F
100
AcDbEntity
  8
1
100
AcDbLine
 10
362.65268
 20
290.992906
 30
0.0
 11
362.694842
 21
290.99217
 31
0.0
  0
LINE
  5
C4
330
1F
100
AcDbEntity
  8
1
100
AcDbLine
 10
362.411038
 20
294.398593
 30
0.0
 11
362.425571
 21
294.405258
 31
0.0
  0
LINE
  5
C5
330
1F
100
AcDbEntity
  8
1
100
AcDbLine
 10
361.796742
 20
280.081063
 30
0.0
 11
362.122841
 21
283.153494
 31
0.0
  0
LINE
  5
C6
330
1F
100
AcDbEntity
  8
1
100
AcDbLine
 10
362.122841
 20
283.153494
 30
0.0
 11
362.122841
 21
289.874346
 31
0.0
  0
LINE
  5
C7
330
1F
100
AcDbEntity
  8
1
100
AcDbLine
 10
362.231468
 20
279.184931
 30
0.0
 11
361.989678
 21
279.577912
 31
0.0
  0
LINE
  5
C8
330
1F
100
AcDbEntity
  8
1
100
AcDbLine
 10
362.231468
 20
279.184931
 30
0.0
 11
362.206186
 21
278.94673
 31
0.0
  0
LINE
  5
C9
330
1F
100
AcDbEntity
  8
1
100
AcDbLine
 10
362.36918
 20
290.370122
 30
0.0
 11
362.65268
 21
290.754295
 31
0.0
  0
LINE
  5
CA
330
1F
100
AcDbEntity
  8
1
100
AcDbLine
 10
362.65268
 20
290.992906
 30
0.0
 11
362.65268
 21
290.754295
 31
0.0
  0
LINE
  5
CB
330
1F
100
AcDbEntity
  8
1
100
AcDbLine
 10
361.660482
 20
273.407994
 30
0.0
 11
362.248277
 21
278.946057
 31
0.0
  0
LINE
  5
D0
330
1F
100
AcDbEntity
  8
80
100
AcDbLine
 10
275.404416
 20
288.907994
 30
0.0
 11
273.405268
 21
288.907994
 31
0.0
  0
LINE
  5
D1
330
1F
100
AcDbEntity
  8
1
100
AcDbLine
 10
362.237296
 20
289.511736
 30
0.0
 11
362.69747
 21
288.681559
 31
0.0
  0
LINE
  5
D2
330
1F
100
AcDbEntity
  8
1
100
AcDbLine
 10
362.122835
 20
289.62654
 30
0.0
 11
362.131403
 21
289.621391
 31
0.0
  0
LINE
  5
D3
330
1F
100
AcDbEntity
  8
1
100
AcDbLine
 10
361.971745
 20
280.474592
 30
0.0
 11
361.830174
 21
280.396117
 31
0.0
  0
LINE
  5
D4
330
1F
100
AcDbEntity
  8
1
100
AcDbLine
 10
362.570267
 20
281.394096
 30
0.0
 11
362.0814
 21
280.580484
 31
0.0
  0
LINE
  5
D5
330
1F
100
AcDbEntity
  8
1
100
AcDbLine
 10
362.734349
 20
288.533649
 30
0.0
 11
362.612285
 21
281.540629
 31
0.0
  0
LINE
  5
D6
330
1F
100
AcDbEntity
  8
1
100
AcDbLine
 10
353.597979
 20
295.752187
 30
0.0
 11
353.31121
 21
303.712052
 31
0.0
  0
LINE
  5
D7
330
1F
100
AcDbEntity
  8
1
100
AcDbLine
 10
354.587679
 20
303.258701
 30
0.0
 11
361.582091
 21
303.502559
 31
0.0
  0
LINE
  5
D8
330
1F
100
AcDbEntity
  8
1
100
AcDbLine
 10
354.839261
 20
296.275529
 30
0.0
 11
354.587679
 21
303.258701
 31
0.0
  0
LINE
  5
D9
330
1F
100
AcDbEntity
  8
1
100
AcDbLine
 10
361.833673
 20
296.519387
 30
0.0
 11
354.839261
 21
296.275529
 31
0.0
  0
LINE
  5
DA
330
1F
100
AcDbEntity
  8
1
100
AcDbLine
 10
361.582091
 20
303.502559
 30
0.0
 11
361.833673
 21
296.519387
 31
0.0
  0
LINE
  5
DB
330
1F
100
AcDbEntity
  8
1
100
AcDbLine
 10
354.055789
 20
304.510099
 30
0.0
 11
362.028465
 21
304.788063
 31
0.0
  0
LINE
  5
DC
330
1F
100
AcDbEntity
  8
1
100
AcDbLine
 10
362.828606
 20
304.043872
 30
0.0
 11
363.115375
 21
296.084008
 31
0.0
  0
LINE
  5
DD
330
1F
100
AcDbEntity
  8
1
100
AcDbLine
 10
362.370796
 20
295.285961
 30
0.0
 11
354.39812
 21
295.007996
 31
0.0
  0
LINE
  5
DE
330
1F
100
AcDbEntity
  8
1
100
AcDbLine
 10
363.359382
 20
288.846592
 30
0.0
 11
362.728011
 21
289.985615
 31
0.0
  0
LINE
  5
DF
330
1F
100
AcDbEntity
  8
1
100
AcDbLine
 10
362.556683
 20
280.088314
 30
0.0
 11
362.67449
 21
280.273751
 31
0.0
  0
LINE
  5
E0
330
1F
100
AcDbEntity
  8
1
100
AcDbLine
 10
363.233406
 20
281.203944
 30
0.0
 11
362.67449
 21
280.273751
 31
0.0
  0
LINE
  5
E1
330
1F
100
AcDbEntity
  8
1
100
AcDbLine
 10
362.623573
 20
290.096675
 30
0.0
 11
362.438136
 21
290.214481
 31
0.0
  0
LINE
  5
E2
330
1F
100
AcDbEntity
  8
1
100
AcDbLine
 10
362.182754
 20
290.36793
 30
0.0
 11
362.438136
 21
290.214481
 31
0.0
  0
LINE
  5
E3
330
1F
100
AcDbEntity
  8
1
100
AcDbLine
 10
363.399861
 20
288.479483
 30
0.0
 11
363.2754240000001
 21
281.350477
 31
0.0
  0
LINE
  5
E4
330
1F
100
AcDbEntity
  8
1
100
AcDbLine
 10
363.399861
 20
288.479483
 30
0.0
 11
363.398222
 21
288.699171
 31
0.0
  0
LINE
  5
E5
330
1F
100
AcDbEntity
  8
1
100
AcDbLine
 10
361.790721
 20
279.620858
 30
0.0
 11
362.445624
 21
279.983876
 31
0.0
  0
LINE
  5
10F
330
1F
100
AcDbEntity
  8
NOCUT
100
AcDbLine
 10
362.694842
 20
288.907994
 30
0.0
 11
204.404842
 21
288.907994
 31
0.0
  0
LINE
  5
110
330
1F
100
AcDbEntity
  8
NOCUT
100
AcDbLine
 10
279.404842
 20
313.907994
 30
0.0
 11
274.904842
 21
313.907994
 31
0.0
  0
LINE
  5
111
330
1F
100
AcDbEntity
  8
NOCUT
100
AcDbLine
 10
274.404842
 20
308.907994
 30
0.0
 11
206.404842
 21
308.907994
 31
0.0
  0
LINE
  5
112
330
1F
100
AcDbEntity
  8
NOCUT
100
AcDbLine
 10
274.404842
 20
308.907994
 30
0.0
 11
274.404842
 21
313.407994
 31
0.0
  0
LINE
  5
113
330
1F
100
AcDbEntity
  8
NOCUT
100
AcDbLine
 10
274.404842
 20
313.407994
 30
0.0
 11
274.904842
 21
313.907994
 31
0.0
  0
LINE
  5
114
330
1F
100
AcDbEntity
  8
NOCUT
100
AcDbLine
 10
279.404842
 20
313.907994
 30
0.0
 11
284.804337
 21
308.508499
 31
0.0
  0
LINE
  5
115
330
1F
100
AcDbEntity
  8
NOCUT
100
AcDbLine
 10
294.703832
 20
304.407994
 30
0.0
 11
362.3852129999999
 21
304.407994
 31
0.0
  0
LINE
  5
116
330
1F
100
AcDbEntity
  8
NOCUT
100
AcDbLine
 10
204.404842
 20
306.907994
 30
0.0
 11
204.404842
 21
288.907994
 31
0.0
  0
LINE
  5
117
330
1F
100
AcDbEntity
  8
NOCUT
100
AcDbLine
 10
204.404842
 20
306.907994
 30
0.0
 11
206.404842
 21
308.907994
 31
0.0
  0
LINE
  5
118
330
1F
100
AcDbEntity
  8
NOCUT
100
AcDbLine
 10
362.3852129999999
 20
304.407994
 30
0.0
 11
362.694842
 21
295.612658
 31
0.0
  0
LINE
  5
119
330
1F
100
AcDbEntity
  8
NOCUT
100
AcDbLine
 10
362.694842
 20
295.612658
 30
0.0
 11
362.694842
 21
288.907994
 31
0.0
  0
ARC
  5
122
330
1F
100
AcDbEntity
  8
1
100
AcDbCircle
 10
294.703832
 20
318.407994
 30
0.0
 40
14.0
100
AcDbArc
 50
225.0
 51
256.056199
  0
ARC
  5
123
330
1F
100
AcDbEntity
  8
1
100
AcDbCircle
 10
294.703832
 20
259.407994
 30
0.0
 40
14.0
100
AcDbArc
 50
106.952165
 51
135.0
  0
ARC
  5
124
330
1F
100
AcDbEntity
  8
1
100
AcDbCircle
 10
357.418941
 20
285.29888
 30
0.0
 40
1.75
100
AcDbArc
 50
75.0
 51
345.0
  0
CIRCLE
  5
125
330
1F
100
AcDbEntity
  8
1
100
AcDbCircle
 10
357.418941
 20
285.29888
 30
0.0
 40
1.35
  0
ARC
  5
134
330
1F
100
AcDbEntity
  8
NOCUT
100
AcDbCircle
 10
294.703832
 20
318.407994
 30
0.0
 40
14.0
100
AcDbArc
 50
225.0
 51
270.0
  0
ELLIPSE
  5
135
330
1F
100
AcDbEntity
  8
1
100
AcDbEllipse
 10
354.01395
 20
306.727136
 30
0.0
 11
-12.09764183579767
 21
3.52236596803314
 31
0.0
210
0.0
220
0.0
230
1.0
 40
0.998052
 41
1.582811088770535
 42
1.88900141464199
  0
ELLIPSE
  5
136
330
1F
100
AcDbEntity
  8
1
100
AcDbEllipse
 10
358.073084
 20
299.803387
 30
0.0
 11
-2.640358337178063
 21
0.7687703501659629
 31
0.0
210
0.0
220
0.0
230
1.0
 40
0.9980519999999998
 41
3.141676065826233
 42
6.283170368985068
  0
ELLIPSE
  5
137
330
1F
100
AcDbEntity
  8
1
100
AcDbEllipse
 10
352.131969
 20
292.5290470000001
 30
0.0
 11
-5.095485456658505
 21
-0.2003194751686118
 31
0.0
210
0.0
220
0.0
230
0.9999999999999998
 40
0.22151
 41
2.057241323800686
 42
4.223688030034379
  0
ELLIPSE
  5
138
330
1F
100
AcDbEntity
  8
1
100
AcDbEllipse
 10
354.072692
 20
288.907994
 30
0.0
 11
0.5180727106740965
 21
-15.49999668623192
 31
0.0
210
0.0
220
0.0
230
0.9999999999999998
 40
0.01946
 41
3.029632161019464
 42
3.130186059564772
  0
ELLIPSE
  5
139
330
1F
100
AcDbEntity
  8
1
100
AcDbEllipse
 10
354.8595029999999
 20
296.299285
 30
0.0
 11
1.920260608856771
 21
-0.5591057092116122
 31
0.0
210
0.0
220
0.0
230
1.0
 40
0.998052
 41
5.648680162846022
 42
5.766932522207535
  0
ELLIPSE
  5
13A
330
1F
100
AcDbEntity
  8
1
100
AcDbEllipse
 10
353.940587
 20
288.907994
 30
0.0
 11
0.4142345837261458
 21
-15.49989018668185
 31
0.0
210
0.0
220
0.0
230
1.0
 40
0.140844
 41
3.127072428870723
 42
3.238057336749033
  0
ELLIPSE
  5
13B
330
1F
100
AcDbEntity
  8
1
100
AcDbEllipse
 10
360.0907279999999
 20
288.907994
 30
0.0
 11
26.59278216915775
 21
-15.2917099430604
 31
0.0
210
0.0
220
0.0
230
0.9999999999999998
 40
0.095233
 41
4.134029791245813
 42
4.290571715838801
  0
ELLIPSE
  5
13C
330
1F
100
AcDbEntity
  8
1
100
AcDbEllipse
 10
211.070715
 20
288.907993
 30
0.0
 11
404.329642882328
 21
15.11546761619823
 31
0.0
210
0.0
220
0.0
230
1.0
 40
0.008486
 41
5.074892806570228
 42
5.090734515182409
  0
ELLIPSE
  5
13D
330
1F
100
AcDbEntity
  8
1
100
AcDbEllipse
 10
354.864735
 20
296.317256
 30
0.0
 11
-1.920260608856772
 21
0.5591057092116093
 31
0.0
210
0.0
220
0.0
230
1.0
 40
0.998052
 41
2.625339868617747
 42
2.756391476033019
  0
ELLIPSE
  5
13E
330
1F
100
AcDbEntity
  8
1
100
AcDbEllipse
 10
354.932235
 20
296.549086
 30
0.0
 11
-1.920260608856772
 21
0.5591057092116093
 31
0.0
210
0.0
220
0.0
230
1.0
 40
0.998052
 41
0.0651734313057226
 42
1.889555020043263
  0
ELLIPSE
  5
13F
330
1F
100
AcDbEntity
  8
1
100
AcDbEllipse
 10
354.932235
 20
296.549086
 30
0.0
 11
-1.920260608856772
 21
0.5591057092116093
 31
0.0
210
0.0
220
0.0
230
1.0
 40
0.998052
 41
1.889555020043264
 42
2.5938606680409
  0
ELLIPSE
  5
140
330
1F
100
AcDbEntity
  8
1
100
AcDbEllipse
 10
354.864735
 20
296.317256
 30
0.0
 11
-1.920260608856772
 21
0.5591057092116093
 31
0.0
210
0.0
220
0.0
230
1.0
 40
0.998052
 41
5.729902201158871
 42
5.872831053995013
  0
ELLIPSE
  5
141
330
1F
100
AcDbEntity
  8
1
100
AcDbEllipse
 10
354.8595029999999
 20
296.299285
 30
0.0
 11
1.920260608856771
 21
-0.5591057092116122
 31
0.0
210
0.0
220
0.0
230
1.0
 40
0.998052
 41
2.731238400405221
 42
4.395444007950829
  0
ELLIPSE
  5
142
330
1F
100
AcDbEntity
  8
1
100
AcDbEllipse
 10
353.639072
 20
288.908151
 30
0.0
 11
0.5180671080494005
 21
-15.49983904205737
 31
0.0
210
0.0
220
0.0
230
1.0
 40
0.01946
 41
3.240918754735332
 42
3.260295571441228
  0
ELLIPSE
  5
143
330
1F
100
AcDbEntity
  8
1
100
AcDbEllipse
 10
300.270155
 20
288.8877930000001
 30
0.0
 11
889.1187700006298
 21
-0.9283705254019166
 31
0.0
210
0.0
220
0.0
230
0.9999999999999998
 40
0.017424
 41
1.511373763801584
 42
1.513940096449613
  0
ELLIPSE
  5
144
330
1F
100
AcDbEntity
  8
1
100
AcDbEllipse
 10
362.42137
 20
294.904536
 30
0.0
 11
0.0003004688419235
 21
0.500308094109704
 31
0.0
210
0.0
220
0.0
230
0.9999999999999996
 40
0.140095
 41
3.205856114034542
 42
4.776652440821176
  0
ELLIPSE
  5
145
330
1F
100
AcDbEntity
  8
1
100
AcDbEllipse
 10
318.025742
 20
288.907994
 30
0.0
 11
100.698113935661
 21
-11.45986874322693
 31
0.0
210
0.0
220
0.0
230
1.0
 40
0.103642
 41
4.49047548016493
 42
4.523029340881208
  0
ELLIPSE
  5
146
330
1F
100
AcDbEntity
  8
1
100
AcDbEllipse
 10
363.305608
 20
288.907994
 30
0.0
 11
1.67770092601644
 21
15.4982470307806
 31
0.0
210
0.0
220
0.0
230
0.9999999999999998
 40
0.138944
 41
1.966199622727501
 42
3.156632395651062
  0
ELLIPSE
  5
147
330
1F
100
AcDbEntity
  8
1
100
AcDbEllipse
 10
362.694842
 20
288.907994
 30
0.0
 11
0.0
 21
15.5000000000575
 31
0.0
210
0.0
220
0.0
230
0.9999999999999998
 40
0.140541
 41
1.415663339480431
 42
1.951159880664421
  0
ELLIPSE
  5
148
330
1F
100
AcDbEntity
  8
1
100
AcDbEllipse
 10
297.904842
 20
278.759313
 30
0.0
 11
-1.797586027890365
 21
-7.795427151371077
 31
0.0
210
0.0
220
0.0
230
1.0
 40
0.205081
 41
4.472894026667043
 42
5.495804286177259
  0
ELLIPSE
  5
149
330
1F
100
AcDbEntity
  8
1
100
AcDbEllipse
 10
361.866893
 20
280.07994
 30
0.0
 11
0.0538770024355817
 21
0.499161142510146
 31
0.0
210
0.0
220
0.0
230
1.0
 40
0.139171
 41
1.583568179250217
 42
3.154364506042731
  0
ELLIPSE
  5
14A
330
1F
100
AcDbEntity
  8
1
100
AcDbEllipse
 10
362.193111
 20
289.87312
 30
0.0
 11
0.0001758288819762
 21
-0.5000776676640136
 31
0.0
210
0.0
220
0.0
230
1.0
 40
0.140519
 41
3.139090475969331
 42
4.709886802767976
  0
ELLIPSE
  5
14B
330
1F
100
AcDbEntity
  8
1
100
AcDbEllipse
 10
362.969907
 20
281.358792
 30
0.0
 11
-0.2941597133632818
 21
0.0843489404830548
 31
0.0
210
0.0
220
0.0
230
0.9999999999999996
 40
0.9803469999999999
 41
2.884713024277104
 42
3.398472282902503
  0
ELLIPSE
  5
14C
330
1F
100
AcDbEntity
  8
1
100
AcDbEllipse
 10
363.105838
 20
288.704824
 30
0.0
 11
0.1315188415320035
 21
-0.2701031954448806
 31
0.0
210
0.0
220
0.0
230
1.0
 40
0.9668319999999999
 41
1.111868185835259
 42
1.625627444363896
  0
ELLIPSE
  5
14D
330
1F
100
AcDbEntity
  8
1
100
AcDbEllipse
 10
362.37015
 20
288.521396
 30
0.0
 11
0.3432777645937422
 21
0.1251912126700219
 31
0.0
210
0.0
220
0.0
230
1.0
 40
0.81881
 41
6.264719806480083
 42
6.411625118749072
  0
ELLIPSE
  5
14E
330
1F
100
AcDbEntity
  8
1
100
AcDbEllipse
 10
361.928017
 20
289.3190259999999
 30
0.0
 11
0.2880776785878899
 21
0.2247748244191275
 31
0.0
210
0.0
220
0.0
230
1.0
 40
0.81881
 41
6.154745500330845
 42
6.301650810616374
  0
ELLIPSE
  5
14F
330
1F
100
AcDbEntity
  8
1
100
AcDbEllipse
 10
361.928017
 20
289.3190259999999
 30
0.0
 11
0.2346916568733369
 21
0.2800576505152559
 31
0.0
210
0.0
220
0.0
230
1.0
 40
0.81881
 41
6.264719807151077
 42
6.411625119963848
  0
ELLIPSE
  5
150
330
1F
100
AcDbEntity
  8
1
100
AcDbEllipse
 10
361.779035
 20
280.78387
 30
0.0
 11
0.2247748147317639
 21
-0.2880776617901637
 31
0.0
210
0.0
220
0.0
230
0.9999999999999998
 40
0.8188100000000002
 41
6.154745490910036
 42
6.301650805062693
  0
ELLIPSE
  5
151
330
1F
100
AcDbEntity
  8
1
100
AcDbEllipse
 10
361.779035
 20
280.78387
 30
0.0
 11
0.2800576557752186
 21
-0.2346916602285433
 31
0.0
210
0.0
220
0.0
230
1.0
 40
0.8188100000000002
 41
6.264719805499908
 42
6.41162511706703
  0
ELLIPSE
  5
152
330
1F
100
AcDbEntity
  8
1
100
AcDbEllipse
 10
362.248736
 20
281.565584
 30
0.0
 11
0.3386995365509602
 21
-0.1370951693371682
 31
0.0
210
0.0
220
0.0
230
0.9999999999999998
 40
0.81881
 41
6.154745494003287
 42
6.301650806790437
  0
ELLIPSE
  5
153
330
1F
100
AcDbEntity
  8
1
100
AcDbEllipse
 10
362.248736
 20
281.565584
 30
0.0
 11
0.3598828494463523
 21
-0.0632201110552993
 31
0.0
210
0.0
220
0.0
230
1.0
 40
0.81881
 41
6.264719812673796
 42
6.411625129249516
  0
ELLIPSE
  5
154
330
1F
100
AcDbEntity
  8
1
100
AcDbEllipse
 10
362.37015
 20
288.521396
 30
0.0
 11
0.361869967640822
 21
0.0506218685285377
 31
0.0
210
0.0
220
0.0
230
1.0
 40
0.81881
 41
6.154745485142181
 42
6.301650801913577
  0
ELLIPSE
  5
155
330
1F
100
AcDbEntity
  8
1
100
AcDbEllipse
 10
358.213554
 20
299.8989279999999
 30
0.0
 11
3.028958793588649
 21
-0.8819157913520719
 31
0.0
210
0.0
220
0.0
230
0.9999999999999998
 40
0.998052
 41
0.0
 42
6.283185307179585
  0
ELLIPSE
  5
156
330
1F
100
AcDbEntity
  8
1
100
AcDbEllipse
 10
358.23335
 20
299.96692
 30
0.0
 11
2.971847526405752
 21
-0.8652871965691595
 31
0.0
210
0.0
220
0.0
230
1.0
 40
0.998052
 41
2.153645304639022
 42
6.283185307179585
  0
ELLIPSE
  5
157
330
1F
100
AcDbEntity
  8
1
100
AcDbEllipse
 10
358.23335
 20
299.96692
 30
0.0
 11
2.971847526405752
 21
-0.8652871965691595
 31
0.0
210
0.0
220
0.0
230
1.0
 40
0.998052
 41
0.0
 42
0.9879180006003204
  0
ELLIPSE
  5
158
330
1F
100
AcDbEntity
  8
1
100
AcDbEllipse
 10
354.317006
 20
295.680743
 30
0.0
 11
0.9632000772638129
 21
1.033992035885014
 31
0.0
210
0.0
220
0.0
230
1.0
 40
0.019879
 41
0.97654357795959
 42
1.531354611113721
  0
ELLIPSE
  5
159
330
1F
100
AcDbEntity
  8
1
100
AcDbEllipse
 10
354.027559
 20
303.714948
 30
0.0
 11
1.034591726085048
 21
-0.9637587098288367
 31
0.0
210
0.0
220
0.0
230
1.0
 40
0.039416
 41
1.035838489192655
 42
1.590649521962619
  0
ELLIPSE
  5
15A
330
1F
100
AcDbEntity
  8
1
100
AcDbEllipse
 10
362.074695
 20
303.995508
 30
0.0
 11
0.9632000774929508
 21
1.033992036141492
 31
0.0
210
0.0
220
0.0
230
1.0
 40
0.019879
 41
1.53135461085987
 42
2.086165643894382
  0
ELLIPSE
  5
15B
330
1F
100
AcDbEntity
  8
1
100
AcDbEllipse
 10
362.364142
 20
295.961303
 30
0.0
 11
1.034591725776452
 21
-0.9637587095589303
 31
0.0
210
0.0
220
0.0
230
1.0
 40
0.039416
 41
1.590649522199949
 42
2.145460555120273
  0
ELLIPSE
  5
15C
330
1F
100
AcDbEntity
  8
1
100
AcDbEllipse
 10
358.210676
 20
299.889044
 30
0.0
 11
-3.120423489392261
 21
0.9085467774688668
 31
0.0
210
0.0
220
0.0
230
1.0
 40
0.998052
 41
0.0
 42
6.283185307179585
  0
ELLIPSE
  5
15D
330
1F
100
AcDbEntity
  8
1
100
AcDbEllipse
 10
357.423654
 20
298.337885
 30
0.0
 11
-0.0915171458923713
 21
0.0266462575564883
 31
0.0
210
0.0
220
0.0
230
1.0
 40
0.998052
 41
5.401613433948445
 42
6.078345350829138
  0
ELLIPSE
  5
15E
330
1F
100
AcDbEntity
  8
1
100
AcDbEllipse
 10
357.255265
 20
298.427222
 30
0.0
 11
-0.0915171458923711
 21
0.0266462575564882
 31
0.0
210
0.0
220
0.0
230
1.0
 40
0.998052
 41
1.736422004760553
 42
2.936752697239449
  0
ELLIPSE
  5
15F
330
1F
100
AcDbEntity
  8
1
100
AcDbEllipse
 10
357.314364
 20
298.928368
 30
0.0
 11
-0.5769369382086554
 21
0.1679817492062007
 31
0.0
210
0.0
220
0.0
230
1.0
 40
0.998052
 41
0.4718919605303266
 42
1.736422004760466
  0
ELLIPSE
  5
160
330
1F
100
AcDbEntity
  8
1
100
AcDbEllipse
 10
356.817874
 20
298.834028
 30
0.0
 11
-0.0915171458923733
 21
0.0266462575564889
 31
0.0
210
0.0
220
0.0
230
1.0
 40
0.9980519999999998
 41
5.554746575230891
 42
6.755077267709856
  0
ELLIPSE
  5
161
330
1F
100
AcDbEntity
  8
1
100
AcDbEllipse
 10
356.716699
 20
298.995406
 30
0.0
 11
-0.0915171458923733
 21
0.0266462575564889
 31
0.0
210
0.0
220
0.0
230
1.0
 40
0.9980519999999998
 41
2.413153921641253
 42
3.089885838521884
  0
ELLIPSE
  5
162
330
1F
100
AcDbEntity
  8
1
100
AcDbEllipse
 10
356.239218
 20
299.161592
 30
0.0
 11
-0.5769369382086551
 21
0.1679817492062006
 31
0.0
210
0.0
220
0.0
230
1.0
 40
0.998052
 41
3.089885838521801
 42
4.354415882751971
  0
ELLIPSE
  5
163
330
1F
100
AcDbEntity
  8
1
100
AcDbEllipse
 10
356.541416
 20
299.565834
 30
0.0
 11
-0.0915171458923713
 21
0.0266462575564883
 31
0.0
210
0.0
220
0.0
230
1.0
 40
0.998052
 41
4.354415882751796
 42
5.031147799632326
  0
ELLIPSE
  5
164
330
1F
100
AcDbEntity
  8
1
100
AcDbEllipse
 10
356.534565
 20
299.75601
 30
0.0
 11
-0.0915171458923711
 21
0.0266462575564882
 31
0.0
210
0.0
220
0.0
230
1.0
 40
0.998052
 41
0.6892244535639469
 42
1.889555146042698
  0
ELLIPSE
  5
165
330
1F
100
AcDbEntity
  8
1
100
AcDbEllipse
 10
356.998888
 20
299.9550319999999
 30
0.0
 11
-0.5769369382086554
 21
0.1679817492062007
 31
0.0
210
0.0
220
0.0
230
1.0
 40
0.998052
 41
5.70787971651328
 42
6.972409760743465
  0
ELLIPSE
  5
166
330
1F
100
AcDbEntity
  8
1
100
AcDbEllipse
 10
356.668358
 20
300.337214
 30
0.0
 11
-0.0915171458923733
 21
0.0266462575564889
 31
0.0
210
0.0
220
0.0
230
1.0
 40
0.9980519999999998
 41
4.5075490240345
 42
5.707879716513454
  0
ELLIPSE
  5
167
330
1F
100
AcDbEntity
  8
1
100
AcDbEllipse
 10
356.757665
 20
300.505233
 30
0.0
 11
-0.0915171458923733
 21
0.0266462575564889
 31
0.0
210
0.0
220
0.0
230
1.0
 40
0.9980519999999998
 41
1.365956370444547
 42
2.042688287325439
  0
ELLIPSE
  5
168
330
1F
100
AcDbEntity
  8
1
100
AcDbEllipse
 10
356.662651
 20
301.001006
 30
0.0
 11
-0.5769369382086551
 21
0.1679817492062006
 31
0.0
210
0.0
220
0.0
230
1.0
 40
0.998052
 41
2.042688287325229
 42
3.307218331555386
  0
ELLIPSE
  5
169
330
1F
100
AcDbEntity
  8
1
100
AcDbEllipse
 10
357.164684
 20
300.941479
 30
0.0
 11
-0.0915171458923713
 21
0.0266462575564883
 31
0.0
210
0.0
220
0.0
230
1.0
 40
0.998052
 41
3.307218331555471
 42
3.983950248436148
  0
ELLIPSE
  5
16A
330
1F
100
AcDbEntity
  8
1
100
AcDbEllipse
 10
357.326221
 20
301.042319
 30
0.0
 11
-0.0915171458923711
 21
0.0266462575564882
 31
0.0
210
0.0
220
0.0
230
1.0
 40
0.998052
 41
5.925212209546638
 42
7.125542902025941
  0
ELLIPSE
  5
16B
330
1F
100
AcDbEntity
  8
1
100
AcDbEllipse
 10
357.731446
 20
300.740194
 30
0.0
 11
-0.5769369382086554
 21
0.1679817492062007
 31
0.0
210
0.0
220
0.0
230
1.0
 40
0.998052
 41
4.660682165316681
 42
5.92521220954688
  0
ELLIPSE
  5
16C
330
1F
100
AcDbEntity
  8
1
100
AcDbEllipse
 10
357.897406
 20
301.216716
 30
0.0
 11
-0.0915171458923733
 21
0.0266462575564889
 31
0.0
210
0.0
220
0.0
230
1.0
 40
0.9980519999999998
 41
3.460351472837686
 42
4.660682165316509
  0
ELLIPSE
  5
16D
330
1F
100
AcDbEntity
  8
1
100
AcDbEllipse
 10
358.087888
 20
301.223357
 30
0.0
 11
-0.0915171458923733
 21
0.0266462575564889
 31
0.0
210
0.0
220
0.0
230
1.0
 40
0.9980519999999998
 41
0.3187588192478927
 42
0.9954907361284488
  0
ELLIPSE
  5
16E
330
1F
100
AcDbEntity
  8
1
100
AcDbEllipse
 10
358.470354
 20
301.552944
 30
0.0
 11
-0.5769369382086551
 21
0.1679817492062006
 31
0.0
210
0.0
220
0.0
230
1.0
 40
0.998052
 41
0.9954907361285863
 42
2.260020780358772
  0
ELLIPSE
  5
16F
330
1F
100
AcDbEntity
  8
1
100
AcDbEllipse
 10
358.67019
 20
301.089176
 30
0.0
 11
-0.0915171458923713
 21
0.0266462575564883
 31
0.0
210
0.0
220
0.0
230
1.0
 40
0.998052
 41
2.260020780358813
 42
2.936752697239491
  0
ELLIPSE
  5
170
330
1F
100
AcDbEntity
  8
1
100
AcDbEllipse
 10
358.838578
 20
300.999839
 30
0.0
 11
-0.0915171458923711
 21
0.0266462575564882
 31
0.0
210
0.0
220
0.0
230
1.0
 40
0.998052
 41
4.878014658350027
 42
6.078345350829168
  0
ELLIPSE
  5
171
330
1F
100
AcDbEntity
  8
1
100
AcDbEllipse
 10
358.779479
 20
300.498693
 30
0.0
 11
-0.5769369382086554
 21
0.1679817492062007
 31
0.0
210
0.0
220
0.0
230
1.0
 40
0.998052
 41
3.613484614120087
 42
4.878014658350285
  0
ELLIPSE
  5
172
330
1F
100
AcDbEntity
  8
1
100
AcDbEllipse
 10
359.27597
 20
300.593032
 30
0.0
 11
-0.0915171458923733
 21
0.0266462575564889
 31
0.0
210
0.0
220
0.0
230
1.0
 40
0.9980519999999998
 41
2.41315392164121
 42
3.613484614120126
  0
ELLIPSE
  5
173
330
1F
100
AcDbEntity
  8
1
100
AcDbEllipse
 10
359.377144
 20
300.431655
 30
0.0
 11
-0.0915171458923733
 21
0.0266462575564889
 31
0.0
210
0.0
220
0.0
230
1.0
 40
0.9980519999999998
 41
5.554746575231003
 42
6.231478492111745
  0
ELLIPSE
  5
174
330
1F
100
AcDbEntity
  8
1
100
AcDbEllipse
 10
359.854625
 20
300.265469
 30
0.0
 11
-0.5769369382086551
 21
0.1679817492062006
 31
0.0
210
0.0
220
0.0
230
1.0
 40
0.998052
 41
6.231478492111581
 42
7.496008536341793
  0
ELLIPSE
  5
175
330
1F
100
AcDbEntity
  8
1
100
AcDbEllipse
 10
359.552427
 20
299.861227
 30
0.0
 11
-0.0915171458923713
 21
0.0266462575564883
 31
0.0
210
0.0
220
0.0
230
1.0
 40
0.998052
 41
1.212823229162309
 42
1.88955514604284
  0
ELLIPSE
  5
176
330
1F
100
AcDbEntity
  8
1
100
AcDbEllipse
 10
359.559279
 20
299.671051
 30
0.0
 11
-0.0915171458923711
 21
0.0266462575564882
 31
0.0
210
0.0
220
0.0
230
1.0
 40
0.998052
 41
3.830817107153624
 42
5.031147799632655
  0
ELLIPSE
  5
177
330
1F
100
AcDbEntity
  8
1
100
AcDbEllipse
 10
359.094955
 20
299.472029
 30
0.0
 11
-0.5769369382086554
 21
0.1679817492062007
 31
0.0
210
0.0
220
0.0
230
1.0
 40
0.998052
 41
2.5662870629235
 42
3.830817107153671
  0
ELLIPSE
  5
178
330
1F
100
AcDbEntity
  8
1
100
AcDbEllipse
 10
359.425486
 20
299.089847
 30
0.0
 11
-0.0915171458923733
 21
0.0266462575564889
 31
0.0
210
0.0
220
0.0
230
1.0
 40
0.9980519999999998
 41
1.365956370444547
 42
2.566287062923599
  0
ELLIPSE
  5
179
330
1F
100
AcDbEntity
  8
1
100
AcDbEllipse
 10
359.3361779999999
 20
298.921828
 30
0.0
 11
-0.0915171458923733
 21
0.0266462575564889
 31
0.0
210
0.0
220
0.0
230
1.0
 40
0.9980519999999998
 41
4.50754902403424
 42
5.184280940914898
  0
ELLIPSE
  5
17A
330
1F
100
AcDbEntity
  8
1
100
AcDbEllipse
 10
359.431193
 20
298.426055
 30
0.0
 11
-0.5769369382086551
 21
0.1679817492062006
 31
0.0
210
0.0
220
0.0
230
1.0
 40
0.998052
 41
5.184280940914973
 42
6.448810985145173
  0
ELLIPSE
  5
17B
330
1F
100
AcDbEntity
  8
1
100
AcDbEllipse
 10
358.929159
 20
298.4855819999999
 30
0.0
 11
-0.0915171458923713
 21
0.0266462575564883
 31
0.0
210
0.0
220
0.0
230
1.0
 40
0.998052
 41
0.1656256779657035
 42
0.8423575948462932
  0
ELLIPSE
  5
17C
330
1F
100
AcDbEntity
  8
1
100
AcDbEllipse
 10
358.767622
 20
298.384742
 30
0.0
 11
-0.0915171458923711
 21
0.0266462575564882
 31
0.0
210
0.0
220
0.0
230
1.0
 40
0.998052
 41
2.783619555957019
 42
3.983950248436086
  0
ELLIPSE
  5
17D
330
1F
100
AcDbEntity
  8
1
100
AcDbEllipse
 10
358.362398
 20
298.686866
 30
0.0
 11
-0.5769369382086554
 21
0.1679817492062007
 31
0.0
210
0.0
220
0.0
230
1.0
 40
0.998052
 41
1.519089511726888
 42
2.78361955595707
  0
ELLIPSE
  5
17E
330
1F
100
AcDbEntity
  8
1
100
AcDbEllipse
 10
358.196438
 20
298.210345
 30
0.0
 11
-0.0915171458923733
 21
0.0266462575564889
 31
0.0
210
0.0
220
0.0
230
1.0
 40
0.9980519999999998
 41
0.3187588192479395
 42
1.51908951172687
  0
ELLIPSE
  5
17F
330
1F
100
AcDbEntity
  8
1
100
AcDbEllipse
 10
358.005955
 20
298.203703
 30
0.0
 11
-0.0915171458923733
 21
0.0266462575564889
 31
0.0
210
0.0
220
0.0
230
1.0
 40
0.9980519999999998
 41
3.460351472837756
 42
4.137083389718573
  0
ELLIPSE
  5
180
330
1F
100
AcDbEntity
  8
1
100
AcDbEllipse
 10
357.623489
 20
297.874117
 30
0.0
 11
-0.5769369382086551
 21
0.1679817492062006
 31
0.0
210
0.0
220
0.0
230
1.0
 40
0.998052
 41
4.137083389718406
 42
5.401613433948583
  0
ELLIPSE
  5
181
330
1F
100
AcDbEntity
  8
1
100
AcDbEllipse
 10
358.046922
 20
299.71353
 30
0.0
 11
1.728234547971096
 21
-0.5031951382904513
 31
0.0
210
0.0
220
0.0
230
1.0
 40
0.9980519999999998
 41
0.0
 42
6.283185307179585
  0
ELLIPSE
  5
182
330
1F
100
AcDbEntity
  8
1
100
AcDbEllipse
 10
358.052632
 20
299.733144
 30
0.0
 11
2.640358337178061
 21
-0.7687703501659669
 31
0.0
210
0.0
220
0.0
230
1.0
 40
0.9980519999999998
 41
0.0
 42
6.283185307179585
  0
ELLIPSE
  5
183
330
1F
100
AcDbEntity
  8
1
100
AcDbEllipse
 10
362.305732
 20
280.23846
 30
0.0
 11
0.2546671896346161
 21
0.1593661330551784
 31
0.0
210
0.0
220
0.0
230
0.9999999999999998
 40
0.9668319999999999
 41
4.657557862187018
 42
5.171317120790468
  0
ELLIPSE
  5
184
330
1F
100
AcDbEntity
  8
1
100
AcDbEllipse
 10
362.473427
 20
289.845723
 30
0.0
 11
0.1593661329212797
 21
-0.2546671897524928
 31
0.0
210
0.0
220
0.0
230
1.0
 40
0.9668319999999999
 41
1.515965209208648
 42
2.029724467763787
  0
SPLINE
  5
18B
330
1F
100
AcDbEntity
  8
1
100
AcDbSpline
210
0.0
220
0.0
230
1.0
 70
     8
 71
     3
 72
    10
 73
     6
 74
     0
 42
0.000000001
 43
0.0000000001
 40
0.0
 40
0.0
 40
0.0
 40
0.0
 40
0.5
 40
0.5
 40
1.0
 40
1.0
 40
1.0
 40
1.0
 10
294.7038318185191
 20
273.4970927280272
 30
0.0
 10
294.3085523265946
 20
273.4866406961111
 30
0.0
 10
293.9212095008634
 20
273.4584363521612
 30
0.0
 10
293.1600451105962
 20
273.3726491691091
 30
0.0
 10
292.7862263575219
 20
273.31506602137
 30
0.0
 10
292.4181758582022
 20
273.2451333169259
 30
0.0
  0
SPLINE
  5
18D
330
1F
100
AcDbEntity
  8
1
100
AcDbSpline
210
0.0
220
0.0
230
1.0
 70
     8
 71
     3
 72
    26
 73
    22
 74
     0
 42
0.000000001
 43
0.0000000001
 40
0.0
 40
0.0
 40
0.0
 40
0.0
 40
0.1249999999999995
 40
0.1249999999999995
 40
0.249999999999999
 40
0.249999999999999
 40
0.3749999999999985
 40
0.3749999999999985
 40
0.4999999999999981
 40
0.4999999999999981
 40
0.6249999999999976
 40
0.6249999999999976
 40
0.6874999999999975
 40
0.6874999999999975
 40
0.7187499999999977
 40
0.7187499999999977
 40
0.7499999999999979
 40
0.7499999999999979
 40
0.8749999999999989
 40
0.8749999999999989
 40
1.0
 40
1.0
 40
1.0
 40
1.0
 10
292.4181758582022
 20
273.2451333169259
 30
0.0
 10
292.0476545091042
 20
273.1747311301484
 30
0.0
 10
291.6875140944938
 20
273.0927725757513
 30
0.0
 10
290.9842136168666
 20
272.9099524302835
 30
0.0
 10
290.6410739067841
 20
272.809068181716
 30
0.0
 10
289.9694511182113
 20
272.5909834827067
 30
0.0
 10
289.6409799426892
 20
272.4737697815236
 30
0.0
 10
288.9972966353832
 20
272.2245820139995
 30
0.0
 10
288.6820916217765
 20
272.0926000234896
 30
0.0
 10
288.0641960493944
 20
271.8147045760149
 30
0.0
 10
287.7615096858459
 20
271.6687864487976
 30
0.0
 10
287.3166747035175
 20
271.4396735946804
 30
0.0
 10
287.1699322669268
 20
271.3615928435464
 30
0.0
 10
286.9521265379692
 20
271.2419024644823
 30
0.0
 10
286.8798906678153
 20
271.2015665672541
 30
0.0
 10
286.7362729408425
 20
271.1200810395892
 30
0.0
 10
286.6649655633045
 20
271.0789740225529
 30
0.0
 10
286.3109257564167
 20
270.8716251882821
 30
0.0
 10
286.0356691240793
 20
270.6999533425065
 30
0.0
 10
285.5011012038117
 20
270.3450277854928
 30
0.0
 10
285.2417918300658
 20
270.1617726838911
 30
0.0
 10
284.9906333397806
 20
269.9725972062073
 30
0.0
  0
SPLINE
  5
18E
330
1F
100
AcDbEntity
  8
1
100
AcDbSpline
210
0.0
220
0.0
230
1.0
 70
     8
 71
     3
 72
     8
 73
     4
 74
     0
 42
0.000000001
 43
0.0000000001
 40
0.0
 40
0.0
 40
0.0
 40
0.0
 40
1.0
 40
1.0
 40
1.0
 40
1.0
 10
359.308965788895
 20
300.5408834050528
 30
0.0
 10
359.3117917764881
 20
300.55057585012
 30
0.0
 10
359.3148726008145
 20
300.5601967511191
 30
0.0
 10
359.3182086528214
 20
300.5697471583073
 30
0.0
  0
SPLINE
  5
18F
330
1F
100
AcDbEntity
  8
1
100
AcDbSpline
210
0.0
220
0.0
230
1.0
 70
     8
 71
     3
 72
    10
 73
     6
 74
     0
 42
0.000000001
 43
0.0000000001
 40
0.0
 40
0.0
 40
0.0
 40
0.0
 40
0.9387481976766578
 40
0.9387481976766578
 40
1.0
 40
1.0
 40
1.0
 40
1.0
 10
357.2904181205656
 20
301.0370171672785
 30
0.0
 10
357.2869219398596
 20
301.0065999735216
 30
0.0
 10
357.2810387758832
 20
300.9766411221814
 30
0.0
 10
357.2722326470605
 20
300.9451818795882
 30
0.0
 10
357.2716831179801
 20
300.9432567587749
 30
0.0
 10
357.2711233964287
 20
300.9413334529503
 30
0.0
  0
SPLINE
  5
190
330
1F
100
AcDbEntity
  8
1
100
AcDbSpline
210
0.0
220
0.0
230
1.0
 70
     8
 71
     3
 72
    20
 73
    16
 74
     0
 42
0.000000001
 43
0.0000000001
 40
0.0
 40
0.0
 40
0.0
 40
0.0
 40
0.1250000000000417
 40
0.1250000000000417
 40
0.2500000000000835
 40
0.2500000000000835
 40
0.3750000000001252
 40
0.3750000000001252
 40
0.5000000000001671
 40
0.5000000000001671
 40
0.6250000000002088
 40
0.6250000000002088
 40
0.7500000000002505
 40
0.7500000000002505
 40
1.0
 40
1.0
 40
1.0
 40
1.0
 10
357.3701658445768
 20
298.488015818082
 30
0.0
 10
357.3679326812288
 20
298.4837681058973
 30
0.0
 10
357.365408333197
 20
298.4797104382737
 30
0.0
 10
357.3597812098535
 20
298.4719727814336
 30
0.0
 10
357.3566699456721
 20
298.4682910021979
 30
0.0
 10
357.3500118257119
 20
298.4614814953962
 30
0.0
 10
357.3464493884066
 20
298.4583295247792
 30
0.0
 10
357.3388505548478
 20
298.4525398036567
 30
0.0
 10
357.3347795647856
 20
298.4498850559088
 30
0.0
 10
357.326338124542
 20
298.4452427846439
 30
0.0
 10
357.3219681130716
 20
298.4432468792376
 30
0.0
 10
357.3129272931617
 20
298.439912112273
 30
0.0
 10
357.3082248214898
 20
298.4385670161353
 30
0.0
 10
357.2938544935098
 20
298.4356394155491
 30
0.0
 10
357.284131261966
 20
298.4351579548552
 30
0.0
 10
357.2742581485803
 20
298.436239757952
 30
0.0
  0
SPLINE
  5
191
330
1F
100
AcDbEntity
  8
1
100
AcDbSpline
210
0.0
220
0.0
230
1.0
 70
     8
 71
     3
 72
    18
 73
    14
 74
     0
 42
0.000000001
 43
0.0000000001
 40
0.0
 40
0.0
 40
0.0
 40
0.0
 40
0.2500000000002143
 40
0.2500000000002143
 40
0.3750000000001851
 40
0.3750000000001851
 40
0.500000000000156
 40
0.500000000000156
 40
0.625000000000127
 40
0.625000000000127
 40
0.7500000000000977
 40
0.7500000000000977
 40
1.0
 40
1.0
 40
1.0
 40
1.0
 10
358.1952840584801
 20
298.2240049248488
 30
0.0
 10
358.1859290888565
 20
298.2273556345542
 30
0.0
 10
358.1772174916097
 20
298.2321752128186
 30
0.0
 10
358.1657361392965
 20
298.241013483989
 30
0.0
 10
358.1621445989012
 20
298.2442405085426
 30
0.0
 10
358.1554364659827
 20
298.2512598776088
 30
0.0
 10
358.1523561869551
 20
298.2550225206127
 30
0.0
 10
358.1468588246534
 20
298.2628519192178
 30
0.0
 10
358.1444171697967
 20
298.266943932932
 30
0.0
 10
358.1401389667509
 20
298.2754766146912
 30
0.0
 10
358.1382929622063
 20
298.279954242049
 30
0.0
 10
358.1338174918677
 20
298.2935576608482
 30
0.0
 10
358.1321814420475
 20
298.3028899410214
 30
0.0
 10
358.1319028679098
 20
298.3124864130154
 30
0.0
  0
SPLINE
  5
192
330
1F
100
AcDbEntity
  8
1
100
AcDbSpline
210
0.0
220
0.0
230
1.0
 70
     8
 71
     3
 72
    10
 73
     6
 74
     0
 42
0.000000001
 43
0.0000000001
 40
0.0
 40
0.0
 40
0.0
 40
0.0
 40
0.5
 40
0.5
 40
1.0
 40
1.0
 40
1.0
 40
1.0
 10
357.3701658445768
 20
298.488015818082
 30
0.0
 10
357.3752702851355
 20
298.4977250023099
 30
0.0
 10
357.3818360189463
 20
298.5063950727559
 30
0.0
 10
357.3978324292131
 20
298.5214803502128
 30
0.0
 10
357.4068859666538
 20
298.5275566419085
 30
0.0
 10
357.4170626989974
 20
298.5320807223974
 30
0.0
  0
SPLINE
  5
193
330
1F
100
AcDbEntity
  8
1
100
AcDbSpline
210
0.0
220
0.0
230
1.0
 70
     8
 71
     3
 72
    10
 73
     6
 74
     0
 42
0.000000001
 43
0.0000000001
 40
0.0
 40
0.0
 40
0.0
 40
0.0
 40
0.5
 40
0.5
 40
1.0
 40
1.0
 40
1.0
 40
1.0
 10
358.1091465375248
 20
298.3726017149293
 30
0.0
 10
358.1162987432198
 20
298.3640843314138
 30
0.0
 10
358.1217920305968
 20
298.35459745768
 30
0.0
 10
358.1295092463597
 20
298.3340585117072
 30
0.0
 10
358.1315847926995
 20
298.3234436392428
 30
0.0
 10
358.1319028679098
 20
298.3124864130154
 30
0.0
  0
SPLINE
  5
194
330
1F
100
AcDbEntity
  8
1
100
AcDbSpline
210
0.0
220
0.0
230
1.0
 70
     8
 71
     3
 72
    27
 73
    23
 74
     0
 42
0.000000001
 43
0.0000000001
 40
0.0
 40
0.0
 40
0.0
 40
0.0
 40
0.127352077729666
 40
0.127352077729666
 40
0.191028116594499
 40
0.191028116594499
 40
0.254704155459332
 40
0.254704155459332
 40
0.3820562331890009
 40
0.3820562331890009
 40
0.4457322720538354
 40
0.4457322720538354
 40
0.50940831091867
 40
0.50940831091867
 40
0.6367603886483341
 40
0.6367603886483341
 40
0.7004364275131635
 40
0.7004364275131635
 40
0.7641124663779929
 40
0.7641124663779929
 40
0.8914645441076453
 40
1.0
 40
1.0
 40
1.0
 40
1.0
 10
357.2742581485803
 20
298.436239757952
 30
0.0
 10
357.2426785193155
 20
298.4396999573238
 30
0.0
 10
357.2116757657734
 20
298.4456372881274
 30
0.0
 10
357.1660285183709
 20
298.4581983098558
 30
0.0
 10
357.1509562201105
 20
298.4629972944453
 30
0.0
 10
357.1211049980318
 20
298.4738435294128
 30
0.0
 10
357.1062860470838
 20
298.4799138905732
 30
0.0
 10
357.0629811679747
 20
298.499724754761
 30
0.0
 10
357.0354286890827
 20
298.5151165289406
 30
0.0
 10
356.9960456204098
 20
298.5414277541373
 30
0.0
 10
356.9832437095249
 20
298.5507379348426
 30
0.0
 10
356.9583048047907
 20
298.5704597498614
 30
0.0
 10
356.9461150385645
 20
298.580923800646
 30
0.0
 10
356.9111038994588
 20
298.6135294490239
 30
0.0
 10
356.8897618850892
 20
298.6368953500987
 30
0.0
 10
356.8606564065478
 20
298.6743136275572
 30
0.0
 10
356.8514415122046
 20
298.68718319966
 30
0.0
 10
356.8339982205198
 20
298.7137262788032
 30
0.0
 10
356.8257418849369
 20
298.7274518178152
 30
0.0
 10
356.802699701284
 20
298.7695029215791
 30
0.0
 10
356.7787512386969
 20
298.8230217443888
 30
0.0
 10
356.7627826523519
 20
298.8793571147592
 30
0.0
 10
356.7571681845776
 20
298.9058882636012
 30
0.0
  0
SPLINE
  5
195
330
1F
100
AcDbEntity
  8
1
100
AcDbSpline
210
0.0
220
0.0
230
1.0
 70
     8
 71
     3
 72
    24
 73
    20
 74
     0
 42
0.000000001
 43
0.0000000001
 40
0.0
 40
0.0
 40
0.0
 40
0.0
 40
0.1249999999999996
 40
0.1249999999999996
 40
0.249999999999999
 40
0.249999999999999
 40
0.3124999999999991
 40
0.3124999999999991
 40
0.3749999999999991
 40
0.3749999999999991
 40
0.4999999999999993
 40
0.4999999999999993
 40
0.6249999999999996
 40
0.6249999999999996
 40
0.7499999999999997
 40
0.7499999999999997
 40
0.8749999999999998
 40
0.8749999999999998
 40
1.0
 40
1.0
 40
1.0
 40
1.0
 10
357.4170626989974
 20
298.5320807223974
 30
0.0
 10
357.4458836240919
 20
298.5448931046525
 30
0.0
 10
357.4754424844634
 20
298.5553553975023
 30
0.0
 10
357.5360716466664
 20
298.5716019486138
 30
0.0
 10
357.5671411666164
 20
298.5773884687692
 30
0.0
 10
357.6150017587372
 20
298.5822859347045
 30
0.0
 10
357.6310659638244
 20
298.5832687714171
 30
0.0
 10
357.6630271893524
 20
298.5839174503828
 30
0.0
 10
357.6789830204138
 20
298.5835897866493
 30
0.0
 10
357.7267781403209
 20
298.5806507886726
 30
0.0
 10
357.7585959313747
 20
298.5760853967338
 30
0.0
 10
357.8218290462443
 20
298.5615046853811
 30
0.0
 10
357.8523206381594
 20
298.5517112308833
 30
0.0
 10
357.9111868680682
 20
298.5274018296152
 30
0.0
 10
357.9395717500184
 20
298.512878384391
 30
0.0
 10
357.9941548467201
 20
298.4790416400062
 30
0.0
 10
358.0195609136568
 20
298.4602252014527
 30
0.0
 10
358.0669301636167
 20
298.4190667853485
 30
0.0
 10
358.0888914738437
 20
298.3967229654722
 30
0.0
 10
358.1091465375248
 20
298.3726017149293
 30
0.0
  0
SPLINE
  5
196
330
1F
100
AcDbEntity
  8
1
100
AcDbSpline
210
0.0
220
0.0
230
1.0
 70
     8
 71
     3
 72
    27
 73
    23
 74
     0
 42
0.000000001
 43
0.0000000001
 40
0.0
 40
0.0
 40
0.0
 40
0.0
 40
0.0942325378069133
 40
0.0942325378069133
 40
0.1589302136778373
 40
0.1589302136778373
 40
0.2236278895487611
 40
0.2236278895487611
 40
0.353023241290605
 40
0.353023241290605
 40
0.4177209171615285
 40
0.4177209171615285
 40
0.482418593032452
 40
0.482418593032452
 40
0.6118139447742971
 40
0.6118139447742971
 40
0.6765116206452474
 40
0.6765116206452474
 40
0.741209296516198
 40
0.741209296516198
 40
0.870604648258099
 40
1.0
 40
1.0
 40
1.0
 40
1.0
 10
358.8582277949722
 20
298.4107668100141
 30
0.0
 10
358.8436400443158
 20
298.3927859051975
 30
0.0
 10
358.8280885092418
 20
298.3757285148862
 30
0.0
 10
358.8002535572451
 20
298.3485007485978
 30
0.0
 10
358.7884714733498
 20
298.337849416592
 30
0.0
 10
358.7639874406309
 20
298.3174297250638
 30
0.0
 10
358.7512454417017
 20
298.3076383952471
 30
0.0
 10
358.7122351624604
 20
298.2800687373983
 30
0.0
 10
358.6850269200092
 20
298.2639309858949
 30
0.0
 10
358.6424411769667
 20
298.2430338905895
 30
0.0
 10
358.6279489884434
 20
298.2366223512163
 30
0.0
 10
358.5983586244382
 20
298.2249301878237
 30
0.0
 10
358.5831887033522
 20
298.2196302178826
 30
0.0
 10
358.5374318804572
 20
298.2056921783705
 30
0.0
 10
358.5065476056893
 20
298.1989527892043
 30
0.0
 10
358.4596692209566
 20
298.1925572052432
 30
0.0
 10
358.443950660953
 20
298.1910472531297
 30
0.0
 10
358.4123264545103
 20
298.1892873711322
 30
0.0
 10
358.3963618739181
 20
298.1890394219949
 30
0.0
 10
358.3485988555472
 20
298.1902330369005
 30
0.0
 10
358.2859166625825
 20
298.1969076230563
 30
0.0
 10
358.2251615194152
 20
298.2133035861643
 30
0.0
 10
358.1952840584801
 20
298.2240049248488
 30
0.0
  0
SPLINE
  5
197
330
1F
100
AcDbEntity
  8
1
100
AcDbSpline
210
0.0
220
0.0
230
1.0
 70
     8
 71
     3
 72
    24
 73
    20
 74
     0
 42
0.000000001
 43
0.0000000001
 40
0.0
 40
0.0
 40
0.0
 40
0.0
 40
0.1303866274994733
 40
0.1303866274994733
 40
0.2607732549989467
 40
0.2607732549989467
 40
0.3259665687486832
 40
0.3259665687486832
 40
0.3911598824984199
 40
0.3911598824984199
 40
0.5215465099978869
 40
0.5215465099978869
 40
0.651933137497354
 40
0.651933137497354
 40
0.782319764996821
 40
0.782319764996821
 40
0.9127063924962879
 40
0.9127063924962879
 40
1.0
 40
1.0
 40
1.0
 40
1.0
 10
356.6294746623797
 20
299.7488068990239
 30
0.0
 10
356.6546468296012
 20
299.7306774261868
 30
0.0
 10
356.6781832749859
 20
299.7107023313936
 30
0.0
 10
356.7220307504805
 20
299.6670319032482
 30
0.0
 10
356.7423433028117
 20
299.643338423764
 30
0.0
 10
356.7702289727336
 20
299.6047529121553
 30
0.0
 10
356.7790285064991
 20
299.5914581699988
 30
0.0
 10
356.7954292881974
 20
299.5643268903092
 30
0.0
 10
356.8030652465578
 20
299.5504431327508
 30
0.0
 10
356.8242820761546
 20
299.5078345071379
 30
0.0
 10
356.8361988678415
 20
299.478109679202
 30
0.0
 10
356.8552249850077
 20
299.4161605315217
 30
0.0
 10
356.8620636407039
 20
299.3848463816761
 30
0.0
 10
356.8706951939703
 20
299.3215757120186
 30
0.0
 10
356.8724868045176
 20
299.2896068291467
 30
0.0
 10
356.8709249119627
 20
299.2250583711851
 30
0.0
 10
356.8675988028058
 20
299.1934193848105
 30
0.0
 10
356.8581163194779
 20
299.141548773174
 30
0.0
 10
356.8532575547096
 20
299.1210032566644
 30
0.0
 10
356.8473405289713
 20
299.1007083370368
 30
0.0
  0
SPLINE
  5
198
330
1F
100
AcDbEntity
  8
1
100
AcDbSpline
210
0.0
220
0.0
230
1.0
 70
     8
 71
     3
 72
    10
 73
     6
 74
     0
 42
0.000000001
 43
0.0000000001
 40
0.0
 40
0.0
 40
0.0
 40
0.0
 40
0.5
 40
0.5
 40
1.0
 40
1.0
 40
1.0
 40
1.0
 10
356.5686969902958
 20
299.7663844485976
 30
0.0
 10
356.5795058119127
 20
299.7669932833311
 30
0.0
 10
356.590150161398
 20
299.7658165842729
 30
0.0
 10
356.6109276173937
 20
299.7598496833835
 30
0.0
 10
356.6205858935754
 20
299.7552087591092
 30
0.0
 10
356.6294746623798
 20
299.7488068990239
 30
0.0
  0
SPLINE
  5
199
330
1F
100
AcDbEntity
  8
1
100
AcDbSpline
210
0.0
220
0.0
230
1.0
 70
     8
 71
     3
 72
    20
 73
    16
 74
     0
 42
0.000000001
 43
0.0000000001
 40
0.0
 40
0.0
 40
0.0
 40
0.0
 40
0.1250000000000318
 40
0.1250000000000318
 40
0.2500000000000636
 40
0.2500000000000636
 40
0.3750000000000954
 40
0.3750000000000954
 40
0.5000000000001271
 40
0.5000000000001271
 40
0.6250000000001589
 40
0.6250000000001589
 40
0.7500000000001908
 40
0.7500000000001908
 40
1.0
 40
1.0
 40
1.0
 40
1.0
 10
356.5686969902958
 20
299.7663844485976
 30
0.0
 10
356.563968064787
 20
299.7661180796812
 30
0.0
 10
356.5592574733439
 20
299.7661987706576
 30
0.0
 10
356.5498728783398
 20
299.7670497868528
 30
0.0
 10
356.5451934842532
 20
299.7678264286324
 30
0.0
 10
356.5360927118372
 20
299.7700373286407
 30
0.0
 10
356.5316428791656
 20
299.7714725222709
 30
0.0
 10
356.5229482738438
 20
299.775013001056
 30
0.0
 10
356.5186719481353
 20
299.7771392158816
 30
0.0
 10
356.5105420231483
 20
299.7819901354539
 30
0.0
 10
356.506681086729
 20
299.7847103748611
 30
0.0
 10
356.4993719910852
 20
299.7907456234275
 30
0.0
 10
356.4959027295378
 20
299.7940847560265
 30
0.0
 10
356.4863130860047
 20
299.8048937846195
 30
0.0
 10
356.4811053986203
 20
299.8129762167446
 30
0.0
 10
356.4771601002411
 20
299.8219883277665
 30
0.0
  0
SPLINE
  5
19A
330
1F
100
AcDbEntity
  8
1
100
AcDbSpline
210
0.0
220
0.0
230
1.0
 70
     8
 71
     3
 72
    22
 73
    18
 74
     0
 42
0.000000001
 43
0.0000000001
 40
0.0
 40
0.0
 40
0.0
 40
0.0
 40
0.134791683900486
 40
0.134791683900486
 40
0.2068923769087904
 40
0.2068923769087904
 40
0.2789930699170951
 40
0.2789930699170951
 40
0.4231944559336762
 40
0.4231944559336762
 40
0.5673958419502571
 40
0.5673958419502571
 40
0.7115972279668381
 40
0.7115972279668381
 40
0.855798613983419
 40
0.855798613983419
 40
1.0
 40
1.0
 40
1.0
 40
1.0
 10
358.885769129562
 20
298.7022716343834
 30
0.0
 10
358.8940158223366
 20
298.7306083138117
 30
0.0
 10
358.904327397433
 20
298.758479926368
 30
0.0
 10
358.9235626524336
 20
298.8005164300612
 30
0.0
 10
358.9308677568092
 20
298.8149324358256
 30
0.0
 10
358.9464974851353
 20
298.842950143797
 30
0.0
 10
358.9548465004761
 20
298.8566062790807
 30
0.0
 10
358.9814951962154
 20
298.8965178263237
 30
0.0
 10
359.0014198484058
 20
298.921760796329
 30
0.0
 10
359.0456275017506
 20
298.9691294949345
 30
0.0
 10
359.0692562241091
 20
298.9905664207072
 30
0.0
 10
359.1193972943269
 20
299.0292060579691
 30
0.0
 10
359.145920393163
 20
299.0464134351644
 30
0.0
 10
359.2018852746178
 20
299.0765038394384
 30
0.0
 10
359.2305087407063
 20
299.0889522272624
 30
0.0
 10
359.2889895572607
 20
299.1090803725136
 30
0.0
 10
359.3188474994017
 20
299.1167575675089
 30
0.0
 10
359.349349033163
 20
299.1220578825847
 30
0.0
  0
SPLINE
  5
19B
330
1F
100
AcDbEntity
  8
1
100
AcDbSpline
210
0.0
220
0.0
230
1.0
 70
     8
 71
     3
 72
    10
 73
     6
 74
     0
 42
0.000000001
 43
0.0000000001
 40
0.0
 40
0.0
 40
0.0
 40
0.0
 40
0.5
 40
0.5
 40
1.0
 40
1.0
 40
1.0
 40
1.0
 10
359.349349033163
 20
299.1220578825847
 30
0.0
 10
359.3601185142624
 20
299.123929317755
 30
0.0
 10
359.3708830416249
 20
299.1238757116444
 30
0.0
 10
359.3920986324826
 20
299.1201505262226
 30
0.0
 10
359.402111053753
 20
299.1165718957225
 30
0.0
 10
359.4115382633806
 20
299.111299790667
 30
0.0
  0
SPLINE
  5
19C
330
1F
100
AcDbEntity
  8
1
100
AcDbSpline
210
0.0
220
0.0
230
1.0
 70
     8
 71
     3
 72
    18
 73
    14
 74
     0
 42
0.000000001
 43
0.0000000001
 40
0.0
 40
0.0
 40
0.0
 40
0.0
 40
0.2499999999996849
 40
0.2499999999996849
 40
0.3749999999996839
 40
0.3749999999996839
 40
0.499999999999683
 40
0.499999999999683
 40
0.624999999999682
 40
0.624999999999682
 40
0.749999999999681
 40
0.749999999999681
 40
1.0
 40
1.0
 40
1.0
 40
1.0
 10
359.5179362914675
 20
299.1212929178847
 30
0.0
 10
359.5104477880209
 20
299.1149041919224
 30
0.0
 10
359.5020360973993
 20
299.1098150967561
 30
0.0
 10
359.4888445556348
 20
299.1043654851705
 30
0.0
 10
359.4843265111576
 20
299.1028945883719
 30
0.0
 10
359.4750477786482
 20
299.1006493895114
 30
0.0
 10
359.4703321346768
 20
299.0998917574817
 30
0.0
 10
359.4609720718616
 20
299.0991031591023
 30
0.0
 10
359.4562946105233
 20
299.0990639107952
 30
0.0
 10
359.4469456069573
 20
299.0996850251631
 30
0.0
 10
359.4422383200791
 20
299.1003559433162
 30
0.0
 10
359.4285036265649
 20
299.1033729362446
 30
0.0
 10
359.4197947845423
 20
299.1066823854457
 30
0.0
 10
359.4115382633806
 20
299.111299790667
 30
0.0
  0
SPLINE
  5
19D
330
1F
100
AcDbEntity
  8
1
100
AcDbSpline
210
0.0
220
0.0
230
1.0
 70
     8
 71
     3
 72
    14
 73
    10
 74
     0
 42
0.000000001
 43
0.0000000001
 40
0.0
 40
0.0
 40
0.0
 40
0.0
 40
0.1100234234122596
 40
0.1100234234122596
 40
0.4066822822748401
 40
0.4066822822748401
 40
0.7033411411374199
 40
0.7033411411374199
 40
1.0
 40
1.0
 40
1.0
 40
1.0
 10
317.5315393170202
 20
276.1484752985812
 30
0.0
 10
317.3453112711736
 20
276.0980499471927
 30
0.0
 10
317.1591087357519
 20
276.0482884388547
 30
0.0
 10
316.4709378853757
 20
275.8667960445823
 30
0.0
 10
315.9691300414285
 20
275.7392098949549
 30
0.0
 10
314.9657196860224
 20
275.4937732467832
 30
0.0
 10
314.4641170378472
 20
275.3759257142334
 30
0.0
 10
313.4607758884227
 20
275.1502707946017
 30
0.0
 10
312.9590364485058
 20
275.042466923862
 30
0.0
 10
312.4569787519153
 20
274.9398735815103
 30
0.0
  0
SPLINE
  5
19E
330
1F
100
AcDbEntity
  8
1
100
AcDbSpline
210
0.0
220
0.0
230
1.0
 70
     8
 71
     3
 72
    14
 73
    10
 74
     0
 42
0.000000001
 43
0.0000000001
 40
0.0
 40
0.0
 40
0.0
 40
0.0
 40
0.4739616947972309
 40
0.4739616947972309
 40
0.7109425421958485
 40
0.7109425421958485
 40
0.9479233895944664
 40
0.9479233895944664
 40
1.0
 40
1.0
 40
1.0
 40
1.0
 10
312.4569787519152
 20
274.9398735815106
 30
0.0
 10
313.0755329034768
 20
275.152105895433
 30
0.0
 10
313.6930913860003
 20
275.3734242215714
 30
0.0
 10
314.6183933237661
 20
275.7201751115987
 30
0.0
 10
314.9266466730555
 20
275.838240807972
 30
0.0
 10
315.5427623957593
 20
276.0798276509981
 30
0.0
 10
315.850624987842
 20
276.2033467876989
 30
0.0
 10
316.2258356525849
 20
276.3577969564472
 30
0.0
 10
316.2934215779003
 20
276.3857725218745
 30
0.0
 10
316.360994407645
 20
276.4139037345446
 30
0.0
  0
SPLINE
  5
19F
330
1F
100
AcDbEntity
  8
1
100
AcDbSpline
210
0.0
220
0.0
230
1.0
 70
     8
 71
     3
 72
    14
 73
    10
 74
     0
 42
0.000000001
 43
0.0000000001
 40
0.0
 40
0.0
 40
0.0
 40
0.0
 40
0.1413084416071048
 40
0.1413084416071048
 40
0.5706542208035512
 40
0.5706542208035512
 40
0.7853271104017755
 40
0.7853271104017755
 40
1.0
 40
1.0
 40
1.0
 40
1.0
 10
291.3297047523947
 20
304.8206568968805
 30
0.0
 10
291.4799535646728
 20
304.7833482246404
 30
0.0
 10
291.6313075844533
 20
304.7479732222566
 30
0.0
 10
292.2471580256475
 20
304.6133480240198
 30
0.0
 10
292.7210821497693
 20
304.5308697834698
 30
0.0
 10
293.4501698301044
 20
304.4417356003354
 30
0.0
 10
293.6962395373829
 20
304.4178088931215
 30
0.0
 10
294.1949557052327
 20
304.3828615454694
 30
0.0
 10
294.4476011646945
 20
304.3718396134661
 30
0.0
 10
294.7038318185192
 20
304.3680473072468
 30
0.0
  0
SPLINE
  5
1A0
330
1F
100
AcDbEntity
  8
1
100
AcDbSpline
210
0.0
220
0.0
230
1.0
 70
     8
 71
     3
 72
    22
 73
    18
 74
     0
 42
0.000000001
 43
0.0000000001
 40
0.0
 40
0.0
 40
0.0
 40
0.0
 40
0.125000000000002
 40
0.125000000000002
 40
0.250000000000004
 40
0.375000000000006
 40
0.500000000000008
 40
0.500000000000008
 40
0.5312500000000077
 40
0.5312500000000077
 40
0.5625000000000075
 40
0.5625000000000075
 40
0.6250000000000071
 40
0.6250000000000071
 40
0.7500000000000047
 40
0.8750000000000023
 40
1.0
 40
1.0
 40
1.0
 40
1.0
 10
279.4048419452957
 20
273.868345385036
 30
0.0
 10
279.2585734338361
 20
273.7500284489814
 30
0.0
 10
279.1189802617097
 20
273.6287830964144
 30
0.0
 10
278.8526762320239
 20
273.38101841942
 30
0.0
 10
278.5992561007376
 20
273.1279786087583
 30
0.0
 10
278.257110929229
 20
272.7339548875089
 30
0.0
 10
278.0543523084809
 20
272.4623194907987
 30
0.0
 10
277.9356998959325
 20
272.2899023036151
 30
0.0
 10
277.9123736102372
 20
272.2552863700835
 30
0.0
 10
277.8665357920131
 20
272.1857923532519
 30
0.0
 10
277.8440256028828
 20
272.1509142457321
 30
0.0
 10
277.7779952046642
 20
272.0463260290199
 30
0.0
 10
277.7358783680837
 20
271.976518362846
 30
0.0
 10
277.6151536095467
 20
271.7669112384665
 30
0.0
 10
277.4691716299425
 20
271.4869480852482
 30
0.0
 10
277.2944571342949
 20
271.066391530037
 30
0.0
 10
277.2075803815258
 20
270.7860677173818
 30
0.0
 10
277.1717105724694
 20
270.6460070809535
 30
0.0
  0
SPLINE
  5
1A1
330
1F
100
AcDbEntity
  8
1
100
AcDbSpline
210
0.0
220
0.0
230
1.0
 70
     8
 71
     3
 72
    10
 73
     6
 74
     0
 42
0.000000001
 43
0.0000000001
 40
0.0
 40
0.0
 40
0.0
 40
0.0
 40
0.5
 40
0.5
 40
1.0
 40
1.0
 40
1.0
 40
1.0
 10
284.8043368819073
 20
279.6136851706896
 30
0.0
 10
285.1175985191033
 20
279.832342505301
 30
0.0
 10
285.4452728190674
 20
280.0289000829598
 30
0.0
 10
286.1302369223986
 20
280.376119564631
 30
0.0
 10
286.4875267294527
 20
280.5267948457988
 30
0.0
 10
286.8604779273498
 20
280.6524849191777
 30
0.0
  0
SPLINE
  5
1A2
330
1F
100
AcDbEntity
  8
1
100
AcDbSpline
210
0.0
220
0.0
230
1.0
 70
     8
 71
     3
 72
    25
 73
    21
 74
     0
 42
0.000000001
 43
0.0000000001
 40
0.0
 40
0.0
 40
0.0
 40
0.0
 40
0.1249999999999994
 40
0.1249999999999994
 40
0.2499999999999987
 40
0.2499999999999987
 40
0.3749999999999981
 40
0.3749999999999981
 40
0.4999999999999975
 40
0.4999999999999975
 40
0.6249999999999972
 40
0.6249999999999972
 40
0.6562499999999972
 40
0.6562499999999972
 40
0.6874999999999969
 40
0.7499999999999973
 40
0.7499999999999973
 40
0.8749999999999985
 40
0.8749999999999985
 40
1.0
 40
1.0
 40
1.0
 40
1.0
 10
284.8043368819073
 20
279.6136851706896
 30
0.0
 10
284.5564712693114
 20
279.4406744098534
 30
0.0
 10
284.3105949506311
 20
279.2613212286591
 30
0.0
 10
283.8232546423114
 20
278.8879888651558
 30
0.0
 10
283.5817893714567
 20
278.6940151220743
 30
0.0
 10
283.1035645938295
 20
278.2896608422566
 30
0.0
 10
282.8668037007247
 20
278.0792871075337
 30
0.0
 10
282.3981835482538
 20
277.6403209606
 30
0.0
 10
282.1663228824523
 20
277.4117374700729
 30
0.0
 10
281.7076435129885
 20
276.9342771969564
 30
0.0
 10
281.480823259087
 20
276.6854138271256
 30
0.0
 10
281.2005294406129
 20
276.359988312698
 30
0.0
 10
281.1445552875948
 20
276.2940905928886
 30
0.0
 10
281.0334712247856
 20
276.1614533249963
 30
0.0
 10
280.8680549907211
 20
275.961142108381
 30
0.0
 10
280.7062717584678
 20
275.7567355280457
 30
0.0
 10
280.3875781311869
 20
275.3423552867808
 30
0.0
 10
280.1816009155579
 20
275.0586955995572
 30
0.0
 10
279.7830010171095
 20
274.4756723586327
 30
0.0
 10
279.5903696398744
 20
274.176320911861
 30
0.0
 10
279.4048419452957
 20
273.868345385036
 30
0.0
  0
SPLINE
  5
1A3
330
1F
100
AcDbEntity
  8
1
100
AcDbSpline
210
0.0
220
0.0
230
1.0
 70
     8
 71
     3
 72
    14
 73
    10
 74
     0
 42
0.000000001
 43
0.0000000001
 40
0.0
 40
0.0
 40
0.0
 40
0.0
 40
0.25
 40
0.25
 40
0.5
 40
0.5
 40
0.75
 40
0.75
 40
1.0
 40
1.0
 40
1.0
 40
1.0
 10
354.4850151849129
 20
293.6196731447619
 30
0.0
 10
354.2792208474863
 20
293.6357470767386
 30
0.0
 10
354.0705404729967
 20
293.6546273989512
 30
0.0
 10
353.6481406791841
 20
293.6992496769088
 30
0.0
 10
353.4344183400638
 20
293.7249872038973
 30
0.0
 10
353.0023967997997
 20
293.7843771784688
 30
0.0
 10
352.7840961885903
 20
293.8180264946363
 30
0.0
 10
352.3431817114808
 20
293.8942205776159
 30
0.0
 10
352.1205674303075
 20
293.9367626882674
 30
0.0
 10
351.8958419452958
 20
293.9842483780751
 30
0.0
  0
SPLINE
  5
1A4
330
1F
100
AcDbEntity
  8
1
100
AcDbSpline
210
0.0
220
0.0
230
1.0
 70
     9
 71
     3
 72
   177
 73
   173
 74
     0
 42
0.000000001
 43
0.0000000001
 40
0.0
 40
0.0
 40
0.0
 40
0.0
 40
0.0156250000000021
 40
0.0156250000000021
 40
0.0234375000000033
 40
0.0234375000000033
 40
0.0312500000000045
 40
0.0312500000000045
 40
0.0468750000000066
 40
0.0468750000000066
 40
0.0546875000000078
 40
0.0546875000000078
 40
0.062500000000009
 40
0.062500000000009
 40
0.078125000000012
 40
0.078125000000012
 40
0.093750000000015
 40
0.093750000000015
 40
0.1015625000000161
 40
0.1015625000000161
 40
0.1093750000000172
 40
0.1093750000000172
 40
0.1250000000000188
 40
0.1250000000000188
 40
0.1328125000000197
 40
0.1328125000000197
 40
0.1406250000000206
 40
0.1484375000000215
 40
0.1484375000000215
 40
0.1562500000000225
 40
0.1562500000000225
 40
0.1718750000000244
 40
0.1718750000000244
 40
0.1796875000000252
 40
0.1796875000000252
 40
0.1875000000000261
 40
0.1875000000000261
 40
0.2031250000000276
 40
0.2031250000000276
 40
0.2109375000000282
 40
0.2109375000000282
 40
0.2187500000000288
 40
0.2265625000000294
 40
0.2265625000000294
 40
0.23437500000003
 40
0.23437500000003
 40
0.2500000000000311
 40
0.2500000000000311
 40
0.2812500000000335
 40
0.2812500000000335
 40
0.2890625000000341
 40
0.2890625000000341
 40
0.2968750000000347
 40
0.3046875000000353
 40
0.3046875000000353
 40
0.3125000000000359
 40
0.3125000000000359
 40
0.3281250000000369
 40
0.3281250000000369
 40
0.3437500000000379
 40
0.3437500000000379
 40
0.3593750000000388
 40
0.3593750000000388
 40
0.3671875000000394
 40
0.3671875000000394
 40
0.37500000000004
 40
0.37500000000004
 40
0.3906250000000409
 40
0.3906250000000409
 40
0.4062500000000419
 40
0.4062500000000419
 40
0.4140625000000423
 40
0.4140625000000423
 40
0.4218750000000428
 40
0.4218750000000428
 40
0.4375000000000429
 40
0.4375000000000429
 40
0.4453125000000428
 40
0.4453125000000428
 40
0.4531250000000428
 40
0.4531250000000428
 40
0.468750000000042
 40
0.468750000000042
 40
0.4843750000000413
 40
0.4843750000000413
 40
0.4921875000000407
 40
0.4921875000000407
 40
0.5000000000000401
 40
0.5000000000000401
 40
0.5156250000000396
 40
0.5156250000000396
 40
0.5234375000000392
 40
0.5234375000000392
 40
0.5312500000000389
 40
0.5312500000000389
 40
0.5468750000000382
 40
0.5468750000000382
 40
0.5546875000000381
 40
0.5546875000000381
 40
0.5625000000000377
 40
0.5703125000000373
 40
0.5703125000000373
 40
0.5781250000000372
 40
0.5781250000000372
 40
0.5937500000000357
 40
0.5937500000000357
 40
0.601562500000035
 40
0.601562500000035
 40
0.6093750000000342
 40
0.6093750000000342
 40
0.6250000000000328
 40
0.6250000000000328
 40
0.6406250000000312
 40
0.6406250000000312
 40
0.6562500000000298
 40
0.6718750000000284
 40
0.6718750000000284
 40
0.6796875000000275
 40
0.6796875000000275
 40
0.6875000000000267
 40
0.6875000000000267
 40
0.7031250000000247
 40
0.7031250000000247
 40
0.7187500000000228
 40
0.7187500000000228
 40
0.7265625000000218
 40
0.7265625000000218
 40
0.7343750000000209
 40
0.7343750000000209
 40
0.7500000000000191
 40
0.7500000000000191
 40
0.7578125000000183
 40
0.7578125000000183
 40
0.7656250000000174
 40
0.7656250000000174
 40
0.7812500000000158
 40
0.7812500000000158
 40
0.7968750000000142
 40
0.7968750000000142
 40
0.8046875000000133
 40
0.8046875000000133
 40
0.8125000000000126
 40
0.8125000000000126
 40
0.8437500000000103
 40
0.8437500000000103
 40
0.8515625000000095
 40
0.8515625000000095
 40
0.859375000000009
 40
0.859375000000009
 40
0.8750000000000078
 40
0.8750000000000078
 40
0.8828125000000072
 40
0.8828125000000072
 40
0.8906250000000067
 40
0.8906250000000067
 40
0.906250000000006
 40
0.906250000000006
 40
0.9140625000000055
 40
0.9140625000000055
 40
0.9218750000000051
 40
0.9218750000000051
 40
0.9375000000000039
 40
0.9375000000000039
 40
0.9453125000000035
 40
0.9453125000000035
 40
0.9531250000000031
 40
0.9531250000000031
 40
0.9687500000000019
 40
0.9687500000000019
 40
0.984375000000001
 40
0.984375000000001
 40
1.0
 40
1.0
 40
1.0
 40
1.0
 10
361.0804980433653
 20
283.4579536006927
 30
0.0
 10
361.0896526134324
 20
283.456575261569
 30
0.0
 10
361.098779728008
 20
283.4584166158423
 30
0.0
 10
361.1124293617121
 20
283.465991174128
 30
0.0
 10
361.1169723876163
 20
283.4693195575859
 30
0.0
 10
361.1260446098991
 20
283.4775981068728
 30
0.0
 10
361.1305743694355
 20
283.4825518435531
 30
0.0
 10
361.1440687610874
 20
283.4997746831236
 30
0.0
 10
361.1529635350196
 20
283.5144190381079
 30
0.0
 10
361.166152606849
 20
283.5411560096227
 30
0.0
 10
361.1705293483516
 20
283.5508798760108
 30
0.0
 10
361.1791974416401
 20
283.5718589932086
 30
0.0
 10
361.1834876548371
 20
283.5831084684303
 30
0.0
 10
361.1962272892122
 20
283.6191280602384
 30
0.0
 10
361.2045460308108
 20
283.6461636975915
 30
0.0
 10
361.2208297250687
 20
283.7063684186332
 30
0.0
 10
361.2287288696825
 20
283.7392954012573
 30
0.0
 10
361.2402101802748
 20
283.7928755969178
 30
0.0
 10
361.243976249626
 20
283.8114363894909
 30
0.0
 10
361.2513853463889
 20
283.8499706069175
 30
0.0
 10
361.2550274875703
 20
283.8699431574044
 30
0.0
 10
361.2657077448069
 20
283.9316476408733
 30
0.0
 10
361.2725213174199
 20
283.9752679619475
 30
0.0
 10
361.2822806915781
 20
284.0444332438344
 30
0.0
 10
361.2854608922284
 20
284.0681454250561
 30
0.0
 10
361.2916362891954
 20
284.1165968296508
 30
0.0
 10
361.2976307665909
 20
284.1660972360035
 30
0.0
 10
361.303265432848
 20
284.2176838871637
 30
0.0
 10
361.3087198741371
 20
284.2703155126531
 30
0.0
 10
361.3113592061529
 20
284.2971779044534
 30
0.0
 10
361.3189894298745
 20
284.3791851622772
 30
0.0
 10
361.3236710205202
 20
284.4354962294897
 30
0.0
 10
361.3300916114408
 20
284.5223977242044
 30
0.0
 10
361.3321313228247
 20
284.5517714590036
 30
0.0
 10
361.3360085451983
 20
284.6113370418568
 30
0.0
 10
361.3378419922086
 20
284.6414705987232
 30
0.0
 10
361.3430119317407
 20
284.7326295937358
 30
0.0
 10
361.3460264043959
 20
284.7945265472747
 30
0.0
 10
361.3499005669105
 20
284.8890566331768
 30
0.0
 10
361.3510842337348
 20
284.920869560623
 30
0.0
 10
361.3532226434367
 20
284.984715186187
 30
0.0
 10
361.3551357624877
 20
285.0488605018721
 30
0.0
 10
361.356601375861
 20
285.1136011064881
 30
0.0
 10
361.3578431340286
 20
285.1786394917419
 30
0.0
 10
361.3583527642702
 20
285.2113740434111
 30
0.0
 10
361.3595372389615
 20
285.309467952127
 30
0.0
 10
361.3598701885843
 20
285.3746581265167
 30
0.0
 10
361.3595470243029
 20
285.5696330210258
 30
0.0
 10
361.3575811129274
 20
285.6988276162192
 30
0.0
 10
361.3529026307487
 20
285.8593201541111
 30
0.0
 10
361.3518536707216
 20
285.8913875147002
 30
0.0
 10
361.3495471472262
 20
285.9549130713449
 30
0.0
 10
361.3470287668982
 20
286.0179552293958
 30
0.0
 10
361.3440895990123
 20
286.0800372668255
 30
0.0
 10
361.3409399866192
 20
286.141639128197
 30
0.0
 10
361.3392577878848
 20
286.1722359711899
 30
0.0
 10
361.3339095934413
 20
286.2630273489498
 30
0.0
 10
361.3299504720811
 20
286.3221163303073
 30
0.0
 10
361.3212534570117
 20
286.4374483106194
 30
0.0
 10
361.3165022676286
 20
286.4938174130422
 30
0.0
 10
361.3063038768777
 20
286.6026911431586
 30
0.0
 10
361.3008530674682
 20
286.6552768988327
 30
0.0
 10
361.2921496414129
 20
286.7313799691519
 30
0.0
 10
361.2891570883539
 20
286.7563091164932
 30
0.0
 10
361.2830236152726
 20
286.8050044340768
 30
0.0
 10
361.2798803753203
 20
286.8287935063039
 30
0.0
 10
361.2702223994057
 20
286.8984941206134
 30
0.0
 10
361.2634751121303
 20
286.9427717101773
 30
0.0
 10
361.2493867277512
 20
287.0267252304437
 30
0.0
 10
361.2420900600117
 20
287.0661420867758
 30
0.0
 10
361.230769084142
 20
287.1214552875427
 30
0.0
 10
361.2269326519186
 20
287.1392565461231
 30
0.0
 10
361.2191333554404
 20
287.1735771417792
 30
0.0
 10
361.2151719667501
 20
287.190087110478
 30
0.0
 10
361.2031585199158
 20
287.2374394831913
 30
0.0
 10
361.1949580349436
 20
287.2661973294938
 30
0.0
 10
361.1823690364179
 20
287.3051039617523
 30
0.0
 10
361.1781189617603
 20
287.3173809164098
 30
0.0
 10
361.1695553583456
 20
287.3404161491746
 30
0.0
 10
361.1652417671024
 20
287.3511775323272
 30
0.0
 10
361.1522059830364
 20
287.3812015049287
 30
0.0
 10
361.1433890095058
 20
287.3982093800921
 30
0.0
 10
361.1254986142967
 20
287.4261245502844
 30
0.0
 10
361.1164903729203
 20
287.4369281142303
 30
0.0
 10
361.1028961044559
 20
287.4484057347122
 30
0.0
 10
361.0983503312277
 20
287.4514433032165
 30
0.0
 10
361.0892298415312
 20
287.4559285131576
 30
0.0
 10
361.0846523614983
 20
287.4573743569509
 30
0.0
 10
361.0709488075499
 20
287.4592922991787
 30
0.0
 10
361.0618286254129
 20
287.4573664191828
 30
0.0
 10
361.0481717419387
 20
287.4496483341673
 30
0.0
 10
361.0436180908477
 20
287.446264192125
 30
0.0
 10
361.0345443483383
 20
287.4378865348195
 30
0.0
 10
361.0300300564244
 20
287.432900533622
 30
0.0
 10
361.0165546440799
 20
287.4155607081214
 30
0.0
 10
361.0076608209765
 20
287.4008309250973
 30
0.0
 10
360.9944566280141
 20
287.3739155921463
 30
0.0
 10
360.9900864895339
 20
287.3641543032976
 30
0.0
 10
360.9814366404561
 20
287.3431205390714
 30
0.0
 10
360.972868580172
 20
287.320558287649
 30
0.0
 10
360.9644641469686
 20
287.2949381368881
 30
0.0
 10
360.9561421555871
 20
287.2677772949911
 30
0.0
 10
360.9520186512441
 20
287.253410564867
 30
0.0
 10
360.9398382220305
 20
287.2082166327612
 30
0.0
 10
360.9319515425976
 20
287.1752444506
 30
0.0
 10
360.9204726279864
 20
287.1215133847758
 30
0.0
 10
360.9167003075443
 20
287.1028649579521
 30
0.0
 10
360.9092976623549
 20
287.0642473025559
 30
0.0
 10
360.9056710680065
 20
287.0443005538547
 30
0.0
 10
360.8950141779882
 20
286.9825575714871
 30
0.0
 10
360.8882062230131
 20
286.938863316569
 30
0.0
 10
360.8751899337373
 20
286.8463561181244
 30
0.0
 10
360.8690563643195
 20
286.7980684866712
 30
0.0
 10
360.8575389534657
 20
286.697765620671
 30
0.0
 10
360.8467622185814
 20
286.5936687377013
 30
0.0
 10
360.8374563336239
 20
286.4820376159931
 30
0.0
 10
360.8310407859511
 20
286.3954259437377
 30
0.0
 10
360.8289926372806
 20
286.3660137116836
 30
0.0
 10
360.8251084576509
 20
286.3065089541495
 30
0.0
 10
360.8232744704723
 20
286.2764569090158
 30
0.0
 10
360.8180940361505
 20
286.1854094827509
 30
0.0
 10
360.8150683317497
 20
286.123524985354
 30
0.0
 10
360.8098769674321
 20
285.997371900638
 30
0.0
 10
360.8077315175771
 20
285.9335877979388
 30
0.0
 10
360.8051818692417
 20
285.8369494920101
 30
0.0
 10
360.8044434246935
 20
285.8045714366436
 30
0.0
 10
360.8031901619838
 20
285.739483640164
 30
0.0
 10
360.8026758302312
 20
285.7067781597574
 30
0.0
 10
360.8014758305217
 20
285.6086954487667
 30
0.0
 10
360.8011285687764
 20
285.5431756119029
 30
0.0
 10
360.8012830773616
 20
285.4446998875732
 30
0.0
 10
360.8014478513741
 20
285.4118001846818
 30
0.0
 10
360.8020017131155
 20
285.3462301262502
 30
0.0
 10
360.802390507983
 20
285.3135430134859
 30
0.0
 10
360.8038896621881
 20
285.2157729540637
 30
0.0
 10
360.8053336859074
 20
285.1509237953877
 30
0.0
 10
360.8091047041703
 20
285.022243440438
 30
0.0
 10
360.8114196603166
 20
284.9587944773401
 30
0.0
 10
360.8155278598187
 20
284.864940411197
 30
0.0
 10
360.8170034136313
 20
284.8338760196289
 30
0.0
 10
360.8201677272246
 20
284.7721896943921
 30
0.0
 10
360.821852610879
 20
284.7416501904678
 30
0.0
 10
360.8307435423093
 20
284.5911322023927
 30
0.0
 10
360.8393704817219
 20
284.4769515260536
 30
0.0
 10
360.8520061920389
 20
284.3418502394658
 30
0.0
 10
360.8546267561128
 20
284.3152145867647
 30
0.0
 10
360.8600570133899
 20
284.2627218980494
 30
0.0
 10
360.8628708242596
 20
284.2368291072612
 30
0.0
 10
360.8715729036929
 20
284.1605897554231
 30
0.0
 10
360.8776905954386
 20
284.1119317473783
 30
0.0
 10
360.8873371743809
 20
284.0421667981597
 30
0.0
 10
360.8906311805291
 20
284.0194497825903
 30
0.0
 10
360.8973770921265
 20
283.9750981275022
 30
0.0
 10
360.9008285191952
 20
283.9534701896499
 30
0.0
 10
360.9113655828947
 20
283.8905496743269
 30
0.0
 10
360.9186509862492
 20
283.8510981767614
 30
0.0
 10
360.9299702331414
 20
283.7956651617056
 30
0.0
 10
360.9338132589909
 20
283.777792536076
 30
0.0
 10
360.9416080400113
 20
283.7434124037533
 30
0.0
 10
360.9455558059488
 20
283.726919949807
 30
0.0
 10
360.957549361096
 20
283.6795233911942
 30
0.0
 10
360.9657450502364
 20
283.6506951403367
 30
0.0
 10
360.9783415154288
 20
283.6116478391703
 30
0.0
 10
360.9825873201016
 20
283.599346268636
 30
0.0
 10
360.991133769011
 20
283.5762790322199
 30
0.0
 10
360.9954398119086
 20
283.5654962265165
 30
0.0
 10
361.0084561651532
 20
283.5353949672558
 30
0.0
 10
361.0172644611254
 20
283.518318205439
 30
0.0
 10
361.0351469195069
 20
283.49024711069
 30
0.0
 10
361.0441481818085
 20
283.4793702270343
 30
0.0
 10
361.0622454998233
 20
283.4639157296948
 30
0.0
 10
361.0713434732983
 20
283.4593319398166
 30
0.0
 10
361.0804980433654
 20
283.4579536006927
 30
0.0
  0
SPLINE
  5
1A5
330
1F
100
AcDbEntity
  8
1
100
AcDbSpline
210
0.0
220
0.0
230
1.0
 70
     8
 71
     3
 72
    14
 73
    10
 74
     0
 42
0.000000001
 43
0.0000000001
 40
0.0
 40
0.0
 40
0.0
 40
0.0
 40
0.25
 40
0.25
 40
0.5
 40
0.5
 40
0.75
 40
0.75
 40
1.0
 40
1.0
 40
1.0
 40
1.0
 10
351.8958419452957
 20
291.6001779209902
 30
0.0
 10
352.1270466078895
 20
291.569379405676
 30
0.0
 10
352.3559520982335
 20
291.5474027241104
 30
0.0
 10
352.809074000323
 20
291.5200306267285
 30
0.0
 10
353.0332908584311
 20
291.5146379480218
 30
0.0
 10
353.4767436662471
 20
291.5196599741882
 30
0.0
 10
353.6959812755676
 20
291.5300764160031
 30
0.0
 10
354.1289532527305
 20
291.5661575123786
 30
0.0
 10
354.3426911357822
 20
291.5918231500664
 30
0.0
 10
354.5532637816779
 20
291.6249206001151
 30
0.0
  0
SPLINE
  5
1A6
330
1F
100
AcDbEntity
  8
1
100
AcDbSpline
210
0.0
220
0.0
230
1.0
 70
    24
 71
     3
 72
    22
 73
    18
 74
     0
 42
0.000000001
 43
0.0000000001
 40
0.0
 40
0.0
 40
0.0
 40
0.0
 40
0.1251261105543929
 40
0.1251261105543929
 40
0.2502522211087859
 40
0.2502522211087859
 40
0.3753783316631789
 40
0.3753783316631789
 40
0.5005044422175718
 40
0.5005044422175718
 40
0.6256305527719645
 40
0.6256305527719645
 40
0.7507566633263573
 40
0.7507566633263573
 40
0.87588277388075
 40
0.87588277388075
 40
1.0
 40
1.0
 40
1.0
 40
1.0
 10
351.8958419452957
 20
293.9842483780751
 30
0.0
 10
351.8958419452957
 20
293.576469883381
 30
0.0
 10
351.8958419452957
 20
293.1949986275434
 30
0.0
 10
351.8958419452957
 20
292.4977909436213
 30
0.0
 10
351.8958419452957
 20
292.1820683816801
 30
0.0
 10
351.8958419452957
 20
291.6272448025308
 30
0.0
 10
351.8958419452957
 20
291.3881548197155
 30
0.0
 10
351.8958419452957
 20
290.9948417458123
 30
0.0
 10
351.8958419452957
 20
290.8406264769783
 30
0.0
 10
351.8958419452957
 20
290.6223825666863
 30
0.0
 10
351.8958419452958
 20
290.5583582656874
 30
0.0
 10
351.8958419452957
 20
290.5227070284356
 30
0.0
 10
351.8958419452957
 20
290.5510808012184
 30
0.0
 10
351.8958419452957
 20
290.6992512400027
 30
0.0
 10
351.8958419452957
 20
290.8190449591741
 30
0.0
 10
351.8958419452957
 20
291.1446113790387
 30
0.0
 10
351.8958419452956
 20
291.3496766516772
 30
0.0
 10
351.8958419452956
 20
291.5942071169464
 30
0.0
  0
SPLINE
  5
1A7
330
1F
100
AcDbEntity
  8
1
100
AcDbSpline
210
0.0
220
0.0
230
1.0
 70
     8
 71
     3
 72
    10
 73
     6
 74
     0
 42
0.000000001
 43
0.0000000001
 40
0.0
 40
0.0
 40
0.0
 40
0.0
 40
0.5
 40
0.5
 40
1.0
 40
1.0
 40
1.0
 40
1.0
 10
350.0377914201454
 20
294.7432356125174
 30
0.0
 10
350.3461771031453
 20
294.5935609357226
 30
0.0
 10
350.655816079952
 20
294.4559006518269
 30
0.0
 10
351.2759194908931
 20
294.2033508345303
 30
0.0
 10
351.5863955553064
 20
294.0884783144731
 30
0.0
 10
351.8958419452957
 20
293.9842483780751
 30
0.0
  0
SPLINE
  5
1A8
330
1F
100
AcDbEntity
  8
1
100
AcDbSpline
210
0.0
220
0.0
230
1.0
 70
     8
 71
     3
 72
     8
 73
     4
 74
     0
 42
0.000000001
 43
0.0000000001
 40
0.0
 40
0.0
 40
0.0
 40
0.0
 40
1.0
 40
1.0
 40
1.0
 40
1.0
 10
295.5895355359407
 20
304.3546360932769
 30
0.0
 10
295.2936930491728
 20
304.3591715970683
 30
0.0
 10
294.9984849465428
 20
304.3636863345325
 30
0.0
 10
294.7038318185191
 20
304.3680473072468
 30
0.0
  0
SPLINE
  5
1A9
330
1F
100
AcDbEntity
  8
1
100
AcDbSpline
210
0.0
220
0.0
230
1.0
 70
     8
 71
     3
 72
    14
 73
    10
 74
     0
 42
0.000000001
 43
0.0000000001
 40
0.0
 40
0.0
 40
0.0
 40
0.0
 40
0.25
 40
0.25
 40
0.5
 40
0.5
 40
0.75
 40
0.75
 40
1.0
 40
1.0
 40
1.0
 40
1.0
 10
347.8667525180798
 20
293.0848509395006
 30
0.0
 10
347.5692667757602
 20
293.2530338704724
 30
0.0
 10
347.2727996470617
 20
293.4224024190671
 30
0.0
 10
346.6814616794377
 20
293.7629975213401
 30
0.0
 10
346.3865937380439
 20
293.934227447607
 30
0.0
 10
345.7981762974493
 20
294.2782219039065
 30
0.0
 10
345.5046282449434
 20
294.4509881178229
 30
0.0
 10
344.918664194469
 20
294.797838203089
 30
0.0
 10
344.6262489663982
 20
294.971922970563
 30
0.0
 10
344.3343369117787
 20
295.1465934079113
 30
0.0
  0
SPLINE
  5
1AA
330
1F
100
AcDbEntity
  8
1
100
AcDbSpline
210
0.0
220
0.0
230
1.0
 70
     8
 71
     3
 72
    26
 73
    22
 74
     0
 42
0.000000001
 43
0.0000000001
 40
0.0
 40
0.0
 40
0.0
 40
0.0
 40
0.1250000000000234
 40
0.1250000000000234
 40
0.2500000000000468
 40
0.2500000000000468
 40
0.312500000000048
 40
0.312500000000048
 40
0.3750000000000494
 40
0.3750000000000494
 40
0.5000000000000301
 40
0.5000000000000301
 40
0.6250000000000106
 40
0.6250000000000106
 40
0.6875000000000007
 40
0.6875000000000007
 40
0.7499999999999908
 40
0.7499999999999908
 40
0.8749999999999953
 40
0.8749999999999953
 40
1.0
 40
1.0
 40
1.0
 40
1.0
 10
356.0752333373969
 20
294.7129281696797
 30
0.0
 10
356.0174689934435
 20
294.6688300066633
 30
0.0
 10
355.9580544661567
 20
294.6281945410893
 30
0.0
 10
355.8358267327594
 20
294.5534333777138
 30
0.0
 10
355.7730162662273
 20
294.5193108825969
 30
0.0
 10
355.6760855497658
 20
294.4729906819421
 30
0.0
 10
355.6433076982863
 20
294.458364537961
 30
0.0
 10
355.5774789677142
 20
294.4310253958894
 30
0.0
 10
355.5443444110107
 20
294.4182703571792
 30
0.0
 10
355.444212755943
 20
294.3827021354772
 30
0.0
 10
355.3764934631078
 20
294.3625712694542
 30
0.0
 10
355.2386432440831
 20
294.3295718354928
 30
0.0
 10
355.1685092420887
 20
294.3167019698415
 30
0.0
 10
355.0610219541874
 20
294.3032842843622
 30
0.0
 10
355.0246495218988
 20
294.2997935108766
 30
0.0
 10
354.9524641964443
 20
294.2949665949872
 30
0.0
 10
354.9165351803744
 20
294.2936067831608
 30
0.0
 10
354.8092263497917
 20
294.2925953848695
 30
0.0
 10
354.738330069343
 20
294.2960039769892
 30
0.0
 10
354.5975686094219
 20
294.310623376288
 30
0.0
 10
354.5276974093126
 20
294.321829613007
 30
0.0
 10
354.4581663082415
 20
294.3369064686888
 30
0.0
  0
SPLINE
  5
1AB
330
1F
100
AcDbEntity
  8
1
100
AcDbSpline
210
0.0
220
0.0
230
1.0
 70
     8
 71
     3
 72
    18
 73
    14
 74
     0
 42
0.000000001
 43
0.0000000001
 40
0.0
 40
0.0
 40
0.0
 40
0.0
 40
0.2500000000000091
 40
0.2500000000000091
 40
0.3125000000000067
 40
0.3125000000000067
 40
0.3750000000000046
 40
0.3750000000000046
 40
0.5
 40
0.5
 40
0.75
 40
0.75
 40
1.0
 40
1.0
 40
1.0
 40
1.0
 10
350.0377914201455
 20
294.7432356125174
 30
0.0
 10
350.3926455058437
 20
294.6276969368677
 30
0.0
 10
350.7522194401091
 20
294.527725738893
 30
0.0
 10
351.2075948215592
 20
294.4223397507017
 30
0.0
 10
351.2989658600375
 20
294.4022431968284
 30
0.0
 10
351.4823023381999
 20
294.364021421301
 30
0.0
 10
351.5743372831829
 20
294.345883686031
 30
0.0
 10
351.8507645626895
 20
294.2945512379736
 30
0.0
 10
352.0353932510277
 20
294.2644438114811
 30
0.0
 10
352.5902991899862
 20
294.1863399912165
 30
0.0
 10
352.9615942873953
 20
294.1505385208904
 30
0.0
 10
353.7068881218891
 20
294.1113863598897
 30
0.0
 10
354.0808867754297
 20
294.1080344270395
 30
0.0
 10
354.4562642864807
 20
294.1212501496665
 30
0.0
  0
SPLINE
  5
1AC
330
1F
100
AcDbEntity
  8
1
100
AcDbSpline
210
0.0
220
0.0
230
1.0
 70
     8
 71
     3
 72
     8
 73
     4
 74
     0
 42
0.000000001
 43
0.0000000001
 40
0.0
 40
0.0
 40
0.0
 40
0.0
 40
1.0
 40
1.0
 40
1.0
 40
1.0
 10
354.4562642864807
 20
294.1212501496665
 30
0.0
 10
354.4601218188882
 20
294.1213859598224
 30
0.0
 10
354.4639804958812
 20
294.121521151151
 30
0.0
 10
354.4678403194754
 20
294.1216557225624
 30
0.0
  0
SPLINE
  5
1AD
330
1F
100
AcDbEntity
  8
1
100
AcDbSpline
210
0.0
220
0.0
230
1.0
 70
     8
 71
     3
 72
    26
 73
    22
 74
     0
 42
0.000000001
 43
0.0000000001
 40
0.0
 40
0.0
 40
0.0
 40
0.0
 40
0.1250000000000025
 40
0.1250000000000025
 40
0.2500000000000049
 40
0.2500000000000049
 40
0.2812500000000055
 40
0.2812500000000055
 40
0.3125000000000061
 40
0.3750000000000072
 40
0.3750000000000072
 40
0.5000000000000093
 40
0.5000000000000093
 40
0.5625000000000103
 40
0.5625000000000103
 40
0.6250000000000114
 40
0.6250000000000114
 40
0.7500000000000076
 40
0.8750000000000039
 40
0.8750000000000039
 40
1.0
 40
1.0
 40
1.0
 40
1.0
 10
347.8745076728354
 20
292.8581852576424
 30
0.0
 10
348.1216310086241
 20
292.7016740234926
 30
0.0
 10
348.3743247039766
 20
292.5545648145355
 30
0.0
 10
348.8907487964537
 20
292.2793745164172
 30
0.0
 10
349.1544786291948
 20
292.1512920044269
 30
0.0
 10
349.4910691461214
 20
292.0033561129086
 30
0.0
 10
349.5587663657308
 20
291.9743649626432
 30
0.0
 10
349.6945818150999
 20
291.917722528236
 30
0.0
 10
349.8990063827395
 20
291.8347361095078
 30
0.0
 10
350.105524169471
 20
291.757668295356
 30
0.0
 10
350.5213324644453
 20
291.6114160699598
 30
0.0
 10
350.8022308810699
 20
291.5244155030531
 30
0.0
 10
351.2291169050807
 20
291.409812904174
 30
0.0
 10
351.3725092135498
 20
291.3742306278716
 30
0.0
 10
351.6595953244075
 20
291.3087593918276
 30
0.0
 10
351.8034305043953
 20
291.2788254814658
 30
0.0
 10
352.2357999140523
 20
291.1973305809872
 30
0.0
 10
352.8145933649949
 20
291.1107985596581
 30
0.0
 10
353.3979231745807
 20
291.068059127958
 30
0.0
 10
353.9835328179145
 20
291.0473701914558
 30
0.0
 10
354.2774774248564
 20
291.0480497486461
 30
0.0
 10
354.5725908659758
 20
291.0600335194803
 30
0.0
  0
SPLINE
  5
1AE
330
1F
100
AcDbEntity
  8
1
100
AcDbSpline
210
0.0
220
0.0
230
1.0
 70
     8
 71
     3
 72
    20
 73
    16
 74
     0
 42
0.000000001
 43
0.0000000001
 40
0.0
 40
0.0
 40
0.0
 40
0.0
 40
0.1250000000000102
 40
0.1250000000000102
 40
0.2500000000000204
 40
0.2500000000000204
 40
0.3750000000000305
 40
0.3750000000000305
 40
0.4375000000000311
 40
0.4375000000000311
 40
0.5000000000000317
 40
0.5000000000000317
 40
0.7500000000000158
 40
0.7500000000000158
 40
1.0
 40
1.0
 40
1.0
 40
1.0
 10
351.8958419452959
 20
291.6001779209899
 30
0.0
 10
351.7189395486371
 20
291.6350541602943
 30
0.0
 10
351.5430008815472
 20
291.6734220781149
 30
0.0
 10
351.1930070791266
 20
291.7569941059737
 30
0.0
 10
351.018952214924
 20
291.8021991110143
 30
0.0
 10
350.6727123942318
 20
291.8994008563946
 30
0.0
 10
350.5005275928804
 20
291.9513981071345
 30
0.0
 10
350.2436600394038
 20
292.0345140214162
 30
0.0
 10
350.1582726314754
 20
292.0630732432444
 30
0.0
 10
349.9879711032954
 20
292.1219103095357
 30
0.0
 10
349.9030187522631
 20
292.1522022947783
 30
0.0
 10
349.4798814482584
 20
292.3078368185242
 30
0.0
 10
349.1480262275528
 20
292.4451140777767
 30
0.0
 10
348.497478963662
 20
292.7454154942138
 30
0.0
 10
348.1787872304698
 20
292.9084427792793
 30
0.0
 10
347.86675251806
 20
293.0848509395119
 30
0.0
  0
SPLINE
  5
1AF
330
1F
100
AcDbEntity
  8
1
100
AcDbSpline
210
0.0
220
0.0
230
1.0
 70
     8
 71
     3
 72
    42
 73
    38
 74
     0
 42
0.000000001
 43
0.0000000001
 40
0.0
 40
0.0
 40
0.0
 40
0.0
 40
0.1249999999999921
 40
0.1249999999999921
 40
0.2499999999999841
 40
0.2499999999999841
 40
0.3749999999999762
 40
0.3749999999999762
 40
0.4374999999999727
 40
0.4374999999999727
 40
0.4999999999999692
 40
0.4999999999999692
 40
0.5624999999999658
 40
0.5624999999999658
 40
0.6249999999999623
 40
0.6249999999999623
 40
0.656249999999968
 40
0.656249999999968
 40
0.6874999999999735
 40
0.6874999999999735
 40
0.7187499999999791
 40
0.7187499999999791
 40
0.7499999999999846
 40
0.7499999999999846
 40
0.8124999999999925
 40
0.8124999999999925
 40
0.8437499999999937
 40
0.8437499999999937
 40
0.8749999999999948
 40
0.8749999999999948
 40
0.9062499999999964
 40
0.9062499999999964
 40
0.9374999999999975
 40
0.9374999999999975
 40
0.9687499999999987
 40
0.9687499999999987
 40
1.0
 40
1.0
 40
1.0
 40
1.0
 10
349.4676808621256
 20
294.9687073935789
 30
0.0
 10
349.4281498787248
 20
294.985435776647
 30
0.0
 10
349.3896264845985
 20
295.0035385411823
 30
0.0
 10
349.3147880483088
 20
295.0427614260783
 30
0.0
 10
349.2784697262142
 20
295.0638770745006
 30
0.0
 10
349.2084014178201
 20
295.1096235753744
 30
0.0
 10
349.174642541863
 20
295.1342423300205
 30
0.0
 10
349.1264497417532
 20
295.1745213125181
 30
0.0
 10
349.1107961983986
 20
295.1885104053283
 30
0.0
 10
349.0804666221453
 20
295.2178279962108
 30
0.0
 10
349.0659051594434
 20
295.2330514394152
 30
0.0
 10
349.0383972295882
 20
295.2645928416281
 30
0.0
 10
349.0254171636022
 20
295.2809389967186
 30
0.0
 10
349.0013359114322
 20
295.3150268089693
 30
0.0
 10
348.9902291944869
 20
295.3327644144529
 30
0.0
 10
348.9753932641243
 20
295.3607231831422
 30
0.0
 10
348.9707541447821
 20
295.3702697553579
 30
0.0
 10
348.962200925279
 20
295.3898996887179
 30
0.0
 10
348.9582909771204
 20
295.399986703025
 30
0.0
 10
348.9514601380886
 20
295.4204330296307
 30
0.0
 10
348.9485202764151
 20
295.4308313460574
 30
0.0
 10
348.9437467397828
 20
295.4520344285651
 30
0.0
 10
348.9419093066097
 20
295.4628650632987
 30
0.0
 10
348.9384048401341
 20
295.4959189467846
 30
0.0
 10
348.9387690038508
 20
295.5181383742791
 30
0.0
 10
348.9444736947333
 20
295.5518093429293
 30
0.0
 10
348.947286098883
 20
295.563190608662
 30
0.0
 10
348.9546495990751
 20
295.5853033914568
 30
0.0
 10
348.9591943053887
 20
295.5960925339875
 30
0.0
 10
348.9700226347503
 20
295.6171311727925
 30
0.0
 10
348.9763740216802
 20
295.6274638588754
 30
0.0
 10
348.990427788433
 20
295.6470225140783
 30
0.0
 10
348.9981257293057
 20
295.656281219781
 30
0.0
 10
349.0147183957985
 20
295.6738697471675
 30
0.0
 10
349.0236597071398
 20
295.6822352939727
 30
0.0
 10
349.0423654707553
 20
295.6979079799081
 30
0.0
 10
349.0521213268113
 20
295.7052201532857
 30
0.0
 10
349.0622216762048
 20
295.7120842439912
 30
0.0
  0
SPLINE
  5
1B0
330
1F
100
AcDbEntity
  8
1
100
AcDbSpline
210
0.0
220
0.0
230
1.0
 70
     8
 71
     3
 72
    68
 73
    64
 74
     0
 42
0.000000001
 43
0.0000000001
 40
0.0
 40
0.0
 40
0.0
 40
0.0
 40
0.0625000000000001
 40
0.0625000000000001
 40
0.1250000000000002
 40
0.1250000000000002
 40
0.1875000000000003
 40
0.1875000000000003
 40
0.2187500000000001
 40
0.2187500000000001
 40
0.2499999999999999
 40
0.2499999999999999
 40
0.2812499999999998
 40
0.2812499999999998
 40
0.3124999999999996
 40
0.3124999999999996
 40
0.3437499999999994
 40
0.3437499999999994
 40
0.3593749999999994
 40
0.3593749999999994
 40
0.3749999999999993
 40
0.3749999999999993
 40
0.4374999999999984
 40
0.4374999999999984
 40
0.4687499999999979
 40
0.4687499999999979
 40
0.4999999999999975
 40
0.4999999999999975
 40
0.5312499999999969
 40
0.5312499999999969
 40
0.5624999999999965
 40
0.5624999999999965
 40
0.5781249999999963
 40
0.5781249999999963
 40
0.593749999999996
 40
0.593749999999996
 40
0.624999999999996
 40
0.624999999999996
 40
0.656249999999996
 40
0.656249999999996
 40
0.687499999999996
 40
0.687499999999996
 40
0.7031249999999958
 40
0.7031249999999958
 40
0.7187499999999957
 40
0.7187499999999957
 40
0.7499999999999955
 40
0.7499999999999955
 40
0.8124999999999952
 40
0.8124999999999952
 40
0.8437499999999955
 40
0.8437499999999955
 40
0.8593749999999957
 40
0.8593749999999957
 40
0.8749999999999957
 40
0.8749999999999957
 40
0.9062499999999968
 40
0.9062499999999968
 40
0.937499999999998
 40
0.937499999999998
 40
0.9687499999999989
 40
0.9687499999999989
 40
1.0
 40
1.0
 40
1.0
 40
1.0
 10
297.9048419452957
 20
280.8150962013966
 30
0.0
 10
298.9257369686449
 20
280.6083800067768
 30
0.0
 10
299.9420380087539
 20
280.3929223079522
 30
0.0
 10
301.9650981361147
 20
279.9463522605548
 30
0.0
 10
302.9718492373028
 20
279.7152256112162
 30
0.0
 10
304.9759171338552
 20
279.2407373716653
 30
0.0
 10
305.9732257951377
 20
278.9973686459009
 30
0.0
 10
307.4627368454175
 20
278.6271831622465
 30
0.0
 10
307.9581716937423
 20
278.5029488035509
 30
0.0
 10
308.9470947784467
 20
278.2536645327102
 30
0.0
 10
309.4405829734945
 20
278.128615264558
 30
0.0
 10
310.4258650926385
 20
277.8786748930391
 30
0.0
 10
310.917659122951
 20
277.7537848210246
 30
0.0
 10
311.8998660031337
 20
277.5052217982662
 30
0.0
 10
312.3902791307957
 20
277.3815502373698
 30
0.0
 10
313.3700923614567
 20
277.1365319361432
 30
0.0
 10
313.8594929151698
 20
277.015186846463
 30
0.0
 10
314.5931431810259
 20
276.8357456144488
 30
0.0
 10
314.8376065546382
 20
276.7763642254905
 30
0.0
 10
315.3261517672006
 20
276.6586625641165
 30
0.0
 10
315.5702691422707
 20
276.6003336265401
 30
0.0
 10
316.7902289880792
 20
276.311612465194
 30
0.0
 10
317.7641870825136
 20
276.0900839161308
 30
0.0
 10
319.225082551763
 20
275.7770014159544
 30
0.0
 10
319.7120252319712
 20
275.6758042352178
 30
0.0
 10
320.6866853422316
 20
275.4807800262995
 30
0.0
 10
321.174405889966
 20
275.3869552856694
 30
0.0
 10
322.1513252024885
 20
275.2073059514994
 30
0.0
 10
322.6405233044413
 20
275.1214783079101
 30
0.0
 10
323.6209627801722
 20
274.9580799555619
 30
0.0
 10
324.1122028280603
 20
274.880505946312
 30
0.0
 10
324.850942087145
 20
274.7703295780817
 30
0.0
 10
325.0975010263174
 20
274.7346331196694
 30
0.0
 10
325.5912965041464
 20
274.6652806690792
 30
0.0
 10
325.8385404938658
 20
274.631632123171
 30
0.0
 10
326.5812186263295
 20
274.5335556768891
 30
0.0
 10
327.0775889193118
 20
274.4719805414204
 30
0.0
 10
328.0723276778471
 20
274.3554439575078
 30
0.0
 10
328.5706970304638
 20
274.3004848672669
 30
0.0
 10
329.5690148783949
 20
274.1964290291866
 30
0.0
 10
330.0689641784001
 20
274.147333972554
 30
0.0
 10
330.8198019397778
 20
274.0776645318951
 30
0.0
 10
331.0702564443177
 20
274.0551030089172
 30
0.0
 10
331.571217428979
 20
274.0112682099665
 30
0.0
 10
331.8217449053883
 20
273.9899928881701
 30
0.0
 10
332.5734216977621
 20
273.928015518254
 30
0.0
 10
333.0746652380632
 20
273.8891583615384
 30
0.0
 10
334.5784084806922
 20
273.7794908407358
 30
0.0
 10
335.5809161978994
 20
273.7155282701005
 30
0.0
 10
337.0832939987231
 20
273.632432726537
 30
0.0
 10
337.5838566232839
 20
273.606889837808
 30
0.0
 10
338.3342025968373
 20
273.5718287153348
 30
0.0
 10
338.5842334009092
 20
273.5606839779579
 30
0.0
 10
339.0841162333174
 20
273.5394983612009
 30
0.0
 10
339.3339748198708
 20
273.5294612060446
 30
0.0
 10
340.0834129679965
 20
273.5010915235627
 30
0.0
 10
340.5828564562279
 20
273.4845080994684
 30
0.0
 10
341.581940531553
 20
273.4562200096003
 30
0.0
 10
342.0815814591995
 20
273.4445144867593
 30
0.0
 10
343.0815692404889
 20
273.4259769368688
 30
0.0
 10
343.5819160676641
 20
273.4191437827165
 30
0.0
 10
344.5837661807987
 20
273.4101526188914
 30
0.0
 10
345.08526905657
 20
273.4079935137005
 30
0.0
 10
345.5875495088853
 20
273.4079935137005
 30
0.0
  0
SPLINE
  5
1B1
330
1F
100
AcDbEntity
  8
1
100
AcDbSpline
210
0.0
220
0.0
230
1.0
 70
     8
 71
     3
 72
    64
 73
    60
 74
     0
 42
0.000000001
 43
0.0000000001
 40
0.0
 40
0.0
 40
0.0
 40
0.0
 40
0.062499999999999
 40
0.062499999999999
 40
0.1249999999999981
 40
0.1249999999999981
 40
0.1562499999999977
 40
0.1562499999999977
 40
0.1874999999999975
 40
0.1874999999999975
 40
0.2187499999999973
 40
0.2187499999999973
 40
0.2499999999999971
 40
0.2499999999999971
 40
0.2656249999999971
 40
0.2656249999999971
 40
0.2812499999999969
 40
0.2812499999999969
 40
0.3124999999999968
 40
0.3124999999999968
 40
0.3437499999999967
 40
0.3437499999999967
 40
0.3749999999999965
 40
0.3749999999999965
 40
0.4062499999999963
 40
0.4062499999999963
 40
0.4374999999999963
 40
0.4374999999999963
 40
0.4531249999999963
 40
0.4531249999999963
 40
0.4687499999999964
 40
0.4687499999999964
 40
0.4999999999999967
 40
0.4999999999999967
 40
0.5312499999999968
 40
0.5312499999999968
 40
0.5624999999999969
 40
0.5624999999999969
 40
0.5937499999999972
 40
0.5937499999999972
 40
0.6249999999999973
 40
0.6249999999999973
 40
0.6562499999999975
 40
0.6562499999999975
 40
0.6874999999999977
 40
0.6874999999999977
 40
0.7499999999999984
 40
0.7499999999999984
 40
0.8124999999999992
 40
0.8124999999999992
 40
0.875
 40
0.875
 40
0.90625
 40
0.90625
 40
0.9375
 40
0.9375
 40
0.96875
 40
0.96875
 40
1.0
 40
1.0
 40
1.0
 40
1.0
 10
297.9048419452959
 20
304.3135996936032
 30
0.0
 10
298.9053821998845
 20
304.2885648661841
 30
0.0
 10
299.9017025069201
 20
304.2570518481567
 30
0.0
 10
301.8855345976424
 20
304.1769655489226
 30
0.0
 10
302.8730374103392
 20
304.1283763340488
 30
0.0
 10
304.3477861453825
 20
304.0393600302364
 30
0.0
 10
304.8382897426103
 20
304.0069980652225
 30
0.0
 10
305.8172285519074
 20
303.9363636565686
 30
0.0
 10
306.3056635180092
 20
303.898090060849
 30
0.0
 10
307.2806130947107
 20
303.8151525932226
 30
0.0
 10
307.7671275490702
 20
303.7704874126871
 30
0.0
 10
308.7384487112107
 20
303.6743769903533
 30
0.0
 10
309.2232553976469
 20
303.6229303898655
 30
0.0
 10
309.9493946364978
 20
303.5404809704963
 30
0.0
 10
310.1912944410565
 20
303.5121152178062
 30
0.0
 10
310.6746123879576
 20
303.4536299453461
 30
0.0
 10
310.9160162986241
 20
303.4235124085638
 30
0.0
 10
311.6395405442627
 20
303.3305330433017
 30
0.0
 10
312.1209711612179
 20
303.265037888599
 30
0.0
 10
313.0824665054096
 20
303.127169057648
 30
0.0
 10
313.5625318034106
 20
303.0547950317658
 30
0.0
 10
314.5218337847142
 20
302.9035211027736
 30
0.0
 10
315.0010712310606
 20
302.8246214098889
 30
0.0
 10
315.9592993344562
 20
302.6608662029123
 30
0.0
 10
316.4382908863766
 20
302.5760115033378
 30
0.0
 10
317.3966284452295
 20
302.4011184767872
 30
0.0
 10
317.8759753950609
 20
302.3110815277495
 30
0.0
 10
318.5957062236225
 20
302.1728442802404
 30
0.0
 10
318.8357359271567
 20
302.1262377717059
 30
0.0
 10
319.3160975324202
 20
302.0320885123147
 30
0.0
 10
319.5564215274511
 20
301.9845353759349
 30
0.0
 10
320.2777208984235
 20
301.8403312765145
 30
0.0
 10
320.7590184434798
 20
301.7421324166112
 30
0.0
 10
321.7220559038921
 20
301.5410791489708
 30
0.0
 10
322.2038648257562
 20
301.4382080194352
 30
0.0
 10
323.1672923495519
 20
301.2274798928257
 30
0.0
 10
323.6488884070016
 20
301.1196286131637
 30
0.0
 10
324.6117217632155
 20
300.898704666479
 30
0.0
 10
325.0929602921195
 20
300.7856329019784
 30
0.0
 10
326.0550599404888
 20
300.554160086853
 30
0.0
 10
326.5359353126622
 20
300.4357797520011
 30
0.0
 10
327.4976939116422
 20
300.1943266936156
 30
0.0
 10
327.9786031004355
 20
300.0712464291867
 30
0.0
 10
328.9405550978736
 20
299.8208854032734
 30
0.0
 10
329.4215139080536
 20
299.6936259796405
 30
0.0
 10
330.8645872399486
 20
299.3061391699594
 30
0.0
 10
331.8269208565194
 20
299.0402478320358
 30
0.0
 10
333.75280071942
 20
298.4949675859287
 30
0.0
 10
334.7164955502862
 20
298.2155390013982
 30
0.0
 10
336.6436863557042
 20
297.6437019038129
 30
0.0
 10
337.6073085495474
 20
297.3512776305905
 30
0.0
 10
339.0522159936528
 20
296.9015281505384
 30
0.0
 10
339.5337608746889
 20
296.7497497690878
 30
0.0
 10
340.4963680591046
 20
296.4416937579926
 30
0.0
 10
340.9773741715823
 20
296.2854267558943
 30
0.0
 10
341.9382151420935
 20
295.9681435703843
 30
0.0
 10
342.4181112990947
 20
295.8071047612908
 30
0.0
 10
343.3769059476568
 20
295.4802727571541
 30
0.0
 10
343.8558033083867
 20
295.3144755477569
 30
0.0
 10
344.3343369117788
 20
295.1465934079112
 30
0.0
  0
SPLINE
  5
1B2
330
1F
100
AcDbEntity
  8
1
100
AcDbSpline
210
0.0
220
0.0
230
1.0
 70
     8
 71
     3
 72
    46
 73
    42
 74
     0
 42
0.000000001
 43
0.0000000001
 40
0.0
 40
0.0
 40
0.0
 40
0.0
 40
0.0531250829540931
 40
0.0531250829540931
 40
0.1062501659081862
 40
0.1062501659081862
 40
0.1593752488622792
 40
0.1593752488622792
 40
0.2125003318163723
 40
0.2125003318163723
 40
0.2656254147704654
 40
0.2656254147704654
 40
0.3187504977245584
 40
0.3187504977245584
 40
0.3718755806786516
 40
0.3718755806786516
 40
0.3984381221556981
 40
0.3984381221556981
 40
0.4250006636327446
 40
0.4250006636327446
 40
0.4781257465868365
 40
0.4781257465868365
 40
0.5312508295409284
 40
0.5312508295409284
 40
0.6375009954491114
 40
0.6375009954491114
 40
0.690626078403203
 40
0.690626078403203
 40
0.7437511613572946
 40
0.7437511613572946
 40
0.7968762443113862
 40
0.7968762443113862
 40
0.8234387857884321
 40
0.8234387857884321
 40
0.8500013272654777
 40
0.8500013272654777
 40
0.9031264102195688
 40
0.9031264102195688
 40
0.9562514931736597
 40
0.9562514931736597
 40
1.0
 40
1.0
 40
1.0
 40
1.0
 10
350.8110147489907
 20
304.3024139042096
 30
0.0
 10
350.2928165956952
 20
304.3340095162087
 30
0.0
 10
349.7712276726753
 20
304.3573900223336
 30
0.0
 10
348.7205014311205
 20
304.3906146374535
 30
0.0
 10
348.1913642062326
 20
304.4004700520033
 30
0.0
 10
347.1253594278314
 20
304.4095275195348
 30
0.0
 10
346.5884929126472
 20
304.4087382684892
 30
0.0
 10
345.5074176730821
 20
304.3990500859764
 30
0.0
 10
344.9632110424415
 20
304.3901569739797
 30
0.0
 10
343.8683669925272
 20
304.3662468975607
 30
0.0
 10
343.3177326163072
 20
304.3512329809932
 30
0.0
 10
342.2113901220866
 20
304.3163771339576
 30
0.0
 10
341.6556856983738
 20
304.2965360576234
 30
0.0
 10
340.5409034074277
 20
304.2525758995862
 30
0.0
 10
339.9818294737187
 20
304.2284564128336
 30
0.0
 10
339.1421340869182
 20
304.1889196674508
 30
0.0
 10
338.8620612554456
 20
304.1751730170849
 30
0.0
 10
338.301785284177
 20
304.1464667953693
 30
0.0
 10
338.0215659605378
 20
304.1315122711927
 30
0.0
 10
337.1810172924137
 20
304.0848252369075
 30
0.0
 10
336.6207084643875
 20
304.0512686820088
 30
0.0
 10
335.500570774756
 20
303.9790049249485
 30
0.0
 10
334.9407427024623
 20
303.9402962929063
 30
0.0
 10
333.2624486973079
 20
303.8158493475245
 30
0.0
 10
332.1451965491013
 20
303.721819530012
 30
0.0
 10
330.4730754433514
 20
303.5611822374563
 30
0.0
 10
329.9163205448328
 20
303.5043648364684
 30
0.0
 10
328.8042473615129
 20
303.3835505816615
 30
0.0
 10
328.2489264816426
 20
303.3195582112262
 30
0.0
 10
327.139979316875
 20
303.1835648301271
 30
0.0
 10
326.5863500003951
 20
303.1115709969149
 30
0.0
 10
325.7574818881416
 20
302.9966734786191
 30
0.0
 10
325.4814628082016
 20
302.9572108146276
 30
0.0
 10
324.9299927969599
 20
302.8758157492905
 30
0.0
 10
324.6545061896807
 20
302.8338907845509
 30
0.0
 10
323.8289763198628
 20
302.7044295533585
 30
0.0
 10
323.2801178598173
 20
302.6132354106736
 30
0.0
 10
322.1849831641454
 20
302.421081017155
 30
0.0
 10
321.6387105248148
 20
302.3201122360211
 30
0.0
 10
320.644381431083
 20
302.1275156943708
 30
0.0
 10
320.1960086250313
 20
302.0373798143824
 30
0.0
 10
319.7480537493006
 20
301.9444184203198
 30
0.0
  0
SPLINE
  5
1B3
330
1F
100
AcDbEntity
  8
1
100
AcDbSpline
210
0.0
220
0.0
230
1.0
 70
     8
 71
     3
 72
     8
 73
     4
 74
     0
 42
0.000000001
 43
0.0000000001
 40
0.0
 40
0.0
 40
0.0
 40
0.0
 40
1.0
 40
1.0
 40
1.0
 40
1.0
 10
284.9906333397806
 20
269.9725972062074
 30
0.0
 10
284.9279717323299
 20
269.9253997592547
 30
0.0
 10
284.865871225161
 20
269.8778917134938
 30
0.0
 10
284.8043368819073
 20
269.8300796035479
 30
0.0
  0
SPLINE
  5
1B7
330
1F
100
AcDbEntity
  8
1
100
AcDbSpline
210
0.0
220
0.0
230
1.0
 70
     8
 71
     3
 72
    18
 73
    14
 74
     0
 42
0.000000001
 43
0.0000000001
 40
0.0
 40
0.0
 40
0.0
 40
0.0
 40
0.2500000000000011
 40
0.2500000000000011
 40
0.5000000000000022
 40
0.5000000000000022
 40
0.6250000000000027
 40
0.6250000000000027
 40
0.6875000000000029
 40
0.6875000000000029
 40
0.7500000000000031
 40
0.7500000000000031
 40
1.0
 40
1.0
 40
1.0
 40
1.0
 10
295.5035936572027
 20
273.5192461759512
 30
0.0
 10
295.6913105569297
 20
273.5302907614013
 30
0.0
 10
295.8823120089972
 20
273.5408505003943
 30
0.0
 10
296.2709674066514
 20
273.5599457100305
 30
0.0
 10
296.4686206671514
 20
273.5684820542477
 30
0.0
 10
296.7702821883565
 20
273.5791076857811
 30
0.0
 10
296.8717010484493
 20
273.5822876697229
 30
0.0
 10
297.0251651375299
 20
273.5864430990106
 30
0.0
 10
297.0765425726113
 20
273.587725893163
 30
0.0
 10
297.1797506504069
 20
273.5900757460633
 30
0.0
 10
297.2316666011202
 20
273.5911442854891
 30
0.0
 10
297.4912741904216
 20
273.5959017716702
 30
0.0
 10
297.6983527499198
 20
273.5978194842062
 30
0.0
 10
297.9048419452957
 20
273.5978194842062
 30
0.0
  0
SPLINE
  5
1B8
330
1F
100
AcDbEntity
  8
1
100
AcDbSpline
210
0.0
220
0.0
230
1.0
 70
     8
 71
     3
 72
    24
 73
    20
 74
     0
 42
0.000000001
 43
0.0000000001
 40
0.0
 40
0.0
 40
0.0
 40
0.0
 40
0.0624999999999999
 40
0.0624999999999999
 40
0.1249999999999998
 40
0.1249999999999998
 40
0.2499999999999994
 40
0.2499999999999994
 40
0.3749999999999991
 40
0.3749999999999991
 40
0.4999999999999988
 40
0.4999999999999988
 40
0.6249999999999992
 40
0.6249999999999992
 40
0.7499999999999995
 40
0.7499999999999995
 40
0.8749999999999998
 40
0.8749999999999998
 40
1.0
 40
1.0
 40
1.0
 40
1.0
 10
312.4569787519154
 20
274.9398735815101
 30
0.0
 10
312.1594727749765
 20
274.890998844272
 30
0.0
 10
311.8616491051417
 20
274.843484457561
 30
0.0
 10
311.265434458449
 20
274.7512715737378
 30
0.0
 10
310.9671362613763
 20
274.7065871167374
 30
0.0
 10
310.0715198003246
 20
274.5768390668561
 30
0.0
 10
309.4734746537849
 20
274.4960947873593
 30
0.0
 10
308.2747638911081
 20
274.3459605420848
 30
0.0
 10
307.6740979607869
 20
274.2765668706157
 30
0.0
 10
306.4696226079336
 20
274.1485709968305
 30
0.0
 10
305.8658134917596
 20
274.08996482814
 30
0.0
 10
304.6546927399048
 20
273.9826963033642
 30
0.0
 10
304.0473817949616
 20
273.9340303654803
 30
0.0
 10
302.829046462116
 20
273.8456252876621
 30
0.0
 10
302.2180229296611
 20
273.805883285671
 30
0.0
 10
300.9921755955819
 20
273.7342374032847
 30
0.0
 10
300.3773526533899
 20
273.7023314613545
 30
0.0
 10
299.1439174818155
 20
273.6452713453315
 30
0.0
 10
298.5253060206137
 20
273.6201158343632
 30
0.0
 10
297.9048419452957
 20
273.5978194842062
 30
0.0
  0
SPLINE
  5
1B9
330
1F
100
AcDbEntity
  8
1
100
AcDbSpline
210
0.0
220
0.0
230
1.0
 70
     8
 71
     3
 72
     8
 73
     4
 74
     0
 42
0.000000001
 43
0.0000000001
 40
0.0
 40
0.0
 40
0.0
 40
0.0
 40
1.0
 40
1.0
 40
1.0
 40
1.0
 10
294.7038318185191
 20
273.4970927280272
 30
0.0
 10
294.9702622703112
 20
273.5041377168072
 30
0.0
 10
295.2367978871186
 20
273.5115555204246
 30
0.0
 10
295.5035936572025
 20
273.5192461759512
 30
0.0
  0
SPLINE
  5
1BA
330
1F
100
AcDbEntity
  8
1
100
AcDbSpline
210
0.0
220
0.0
230
1.0
 70
     8
 71
     3
 72
    18
 73
    14
 74
     0
 42
0.000000001
 43
0.0000000001
 40
0.0
 40
0.0
 40
0.0
 40
0.0
 40
0.2499999999999989
 40
0.2499999999999989
 40
0.4999999999999978
 40
0.4999999999999978
 40
0.7499999999999967
 40
0.7499999999999967
 40
0.8125000000000083
 40
0.8125000000000083
 40
0.87500000000002
 40
0.87500000000002
 40
1.0
 40
1.0
 40
1.0
 40
1.0
 10
354.4581663082418
 20
294.3369064686887
 30
0.0
 10
354.3932405890337
 20
294.3509847111363
 30
0.0
 10
354.3296023040542
 20
294.3681954014802
 30
0.0
 10
354.204463834685
 20
294.4086297111403
 30
0.0
 10
354.1429665251288
 20
294.4318545508304
 30
0.0
 10
354.0218224994171
 20
294.4843662454628
 30
0.0
 10
353.9621785333787
 20
294.5136513110735
 30
0.0
 10
353.8886384019314
 20
294.5542644537328
 30
0.0
 10
353.8739811468959
 20
294.5625882719033
 30
0.0
 10
353.8447644420868
 20
294.5796475028598
 30
0.0
 10
353.8302025655582
 20
294.5883854824452
 30
0.0
 10
353.7869656963503
 20
294.6150370158333
 30
0.0
 10
353.7586376950097
 20
294.633446154326
 30
0.0
 10
353.7308017740527
 20
294.6524773230676
 30
0.0
  0
SPLINE
  5
1BB
330
1F
100
AcDbEntity
  8
1
100
AcDbSpline
210
0.0
220
0.0
230
1.0
 70
    12
 71
     2
 72
     6
 73
     3
 74
     0
 42
0.000000001
 43
0.0000000001
 40
0.0
 40
0.0
 40
0.0
 40
1.0
 40
1.0
 40
1.0
 10
353.0936484211983
 20
304.3305951893104
 30
0.0
 41
0.5000053057181815
 10
353.2058323044801
 20
304.3303997066532
 30
0.0
 41
0.4999946942818185
 10
353.3180150483691
 20
304.330203731514
 30
0.0
 41
0.5000053057181815
  0
SPLINE
  5
1BC
330
1F
100
AcDbEntity
  8
1
100
AcDbSpline
210
0.0
220
0.0
230
1.0
 70
     8
 71
     3
 72
    17
 73
    13
 74
     0
 42
0.000000001
 43
0.0000000001
 40
0.0
 40
0.0
 40
0.0
 40
0.0
 40
0.2500000000000011
 40
0.2500000000000011
 40
0.5000000000000022
 40
0.7500000000000031
 40
0.7500000000000031
 40
0.8750000000000037
 40
0.8750000000000037
 40
0.9375000000000019
 40
0.9375000000000019
 40
1.0
 40
1.0
 40
1.0
 40
1.0
 10
297.9048419452972
 20
304.3135996936032
 30
0.0
 10
297.7064086533344
 20
304.3135996936032
 30
0.0
 10
297.50936866501
 20
304.3146140279925
 30
0.0
 10
297.1179850775435
 20
304.3185128506095
 30
0.0
 10
296.7292982201297
 20
304.3242812488305
 30
0.0
 10
296.3459246798593
 20
304.333191447755
 30
0.0
 10
296.0603917211271
 20
304.3407211315561
 30
0.0
 10
295.9655472912048
 20
304.3433710672677
 30
0.0
 10
295.8237843428027
 20
304.3475038511768
 30
0.0
 10
295.7766528677
 20
304.3489065743885
 30
0.0
 10
295.6828159836205
 20
304.3517467563973
 30
0.0
 10
295.6360834104648
 20
304.3531850033529
 30
0.0
 10
295.5895355359401
 20
304.3546360932779
 30
0.0
  0
SPLINE
  5
1BD
330
1F
100
AcDbEntity
  8
1
100
AcDbSpline
210
0.0
220
0.0
230
1.0
 70
     8
 71
     3
 72
    10
 73
     6
 74
     0
 42
0.000000001
 43
0.0000000001
 40
0.0
 40
0.0
 40
0.0
 40
0.0
 40
0.5
 40
0.5
 40
1.0
 40
1.0
 40
1.0
 40
1.0
 10
351.0517449352639
 20
299.2189154957523
 30
0.0
 10
350.9994562439157
 20
300.0655553034563
 30
0.0
 10
350.9549496854554
 20
300.9126331208039
 30
0.0
 10
350.8760927211695
 20
302.6072419475024
 30
0.0
 10
350.8417909941052
 20
303.454755884866
 30
0.0
 10
350.8110147489898
 20
304.3024139042308
 30
0.0
  0
SPLINE
  5
1BE
330
1F
100
AcDbEntity
  8
1
100
AcDbSpline
210
0.0
220
0.0
230
1.0
 70
    28
 71
     4
 72
    13
 73
     8
 74
     0
 42
0.000000001
 43
0.0000000001
 40
0.0
 40
0.0
 40
0.0
 40
0.0
 40
0.0
 40
0.0210194912628494
 40
0.0210194912628494
 40
0.0210194912628494
 40
1.0
 40
1.0
 40
1.0
 40
1.0
 40
1.0
 10
297.9048419452957
 20
280.8149744842062
 30
0.0
 41
0.9890279107837919
 10
297.9048419452957
 20
280.7756499290684
 30
0.0
 41
0.9888588696654078
 10
297.9048419452957
 20
280.7362195707025
 30
0.0
 41
0.9886926106603256
 10
297.9048419452957
 20
280.6966868111129
 30
0.0
 41
0.9885292559273883
 10
297.9048419452957
 20
278.796857750343
 30
0.0
 41
0.9809012475642616
 10
297.9048419452957
 20
276.7452459365737
 30
0.0
 41
0.9799800182752013
 10
297.9048419452957
 20
274.9276033491408
 30
0.0
 41
0.9970829470311844
 10
297.9048419452957
 20
273.5978194842062
 30
0.0
 41
1.003440557006332
  0
SPLINE
  5
1BF
330
1F
100
AcDbEntity
  8
1
100
AcDbSpline
210
0.0
220
0.0
230
1.0
 70
     9
 71
     3
 72
   130
 73
   126
 74
     0
 42
0.000000001
 43
0.0000000001
 40
0.0
 40
0.0
 40
0.0
 40
0.0
 40
0.0312499999999886
 40
0.0312499999999886
 40
0.0468749999999834
 40
0.0468749999999834
 40
0.0624999999999782
 40
0.0624999999999782
 40
0.0937499999999677
 40
0.0937499999999677
 40
0.1093749999999625
 40
0.1093749999999625
 40
0.1249999999999573
 40
0.1249999999999573
 40
0.1562499999999439
 40
0.1562499999999439
 40
0.1640624999999415
 40
0.1640624999999415
 40
0.171874999999939
 40
0.171874999999939
 40
0.1874999999999342
 40
0.2031249999999293
 40
0.2031249999999293
 40
0.2109374999999268
 40
0.2109374999999268
 40
0.2187499999999243
 40
0.2187499999999243
 40
0.2499999999999233
 40
0.2499999999999233
 40
0.2656249999999227
 40
0.2656249999999227
 40
0.2734374999999203
 40
0.2734374999999203
 40
0.2812499999999178
 40
0.2812499999999178
 40
0.3124999999999123
 40
0.3124999999999123
 40
0.320312499999913
 40
0.320312499999913
 40
0.3281249999999136
 40
0.3281249999999136
 40
0.3437499999999149
 40
0.3593749999999162
 40
0.3593749999999162
 40
0.3671874999999184
 40
0.3671874999999184
 40
0.3749999999999207
 40
0.3749999999999207
 40
0.4062499999999269
 40
0.4062499999999269
 40
0.4218749999999298
 40
0.4218749999999298
 40
0.4296874999999303
 40
0.4296874999999303
 40
0.4374999999999308
 40
0.4374999999999308
 40
0.46874999999993
 40
0.46874999999993
 40
0.4765624999999294
 40
0.4765624999999294
 40
0.4843749999999289
 40
0.4843749999999289
 40
0.4999999999999279
 40
0.4999999999999279
 40
0.5312499999999261
 40
0.5312499999999261
 40
0.5390624999999262
 40
0.5390624999999262
 40
0.5468749999999264
 40
0.5468749999999264
 40
0.5624999999999255
 40
0.5781249999999247
 40
0.5781249999999247
 40
0.5859374999999232
 40
0.5859374999999232
 40
0.5937499999999217
 40
0.5937499999999217
 40
0.6249999999999137
 40
0.6249999999999137
 40
0.6406249999999081
 40
0.6406249999999081
 40
0.6484374999999054
 40
0.6484374999999054
 40
0.6562499999999027
 40
0.6562499999999027
 40
0.6874999999999032
 40
0.6874999999999032
 40
0.6953124999999013
 40
0.6953124999999013
 40
0.7031249999998992
 40
0.7031249999998992
 40
0.7187499999998954
 40
0.7187499999998954
 40
0.7499999999998921
 40
0.7499999999998921
 40
0.7578124999998924
 40
0.7578124999998924
 40
0.7656249999998927
 40
0.7656249999998927
 40
0.7812499999998933
 40
0.7968749999998939
 40
0.7968749999998939
 40
0.8046874999998962
 40
0.8046874999998962
 40
0.8124999999998987
 40
0.8124999999998987
 40
0.8437499999999205
 40
0.8437499999999205
 40
0.8515624999999252
 40
0.8515624999999252
 40
0.8593749999999296
 40
0.8593749999999296
 40
0.8749999999999385
 40
0.8749999999999385
 40
0.9062499999999536
 40
0.9062499999999536
 40
0.9374999999999683
 40
0.9374999999999683
 40
0.953124999999976
 40
0.953124999999976
 40
0.9609374999999802
 40
0.9609374999999802
 40
0.9687499999999843
 40
0.9687499999999843
 40
1.0
 40
1.0
 40
1.0
 40
1.0
 10
355.9691615337858
 20
285.324186265565
 30
0.0
 10
355.9708116217318
 20
285.4187197406728
 30
0.0
 10
355.9815986056335
 20
285.5118035260142
 30
0.0
 10
356.0111367262105
 20
285.6492873827371
 30
0.0
 10
356.0232245860701
 20
285.6947555879894
 30
0.0
 10
356.0520160171503
 20
285.7849436919348
 30
0.0
 10
356.0688161428695
 20
285.8298377315664
 30
0.0
 10
356.1252268085823
 20
285.9605545586888
 30
0.0
 10
356.1709714655858
 20
286.043254768747
 30
0.0
 10
356.251792257349
 20
286.1605760901318
 30
0.0
 10
356.2807911263411
 20
286.1985671075751
 30
0.0
 10
356.3430177144612
 20
286.272127713771
 30
0.0
 10
356.3757270452622
 20
286.3070867263223
 30
0.0
 10
356.4784944918939
 20
286.4066531672849
 30
0.0
 10
356.5531479883026
 20
286.4660005314429
 30
0.0
 10
356.6543265441989
 20
286.5311320255962
 30
0.0
 10
356.6750021323692
 20
286.5437261938173
 30
0.0
 10
356.7169677815129
 20
286.5678641106275
 30
0.0
 10
356.7381723085724
 20
286.5793617972713
 30
0.0
 10
356.8024379050922
 20
286.6121732124004
 30
0.0
 10
356.8898608487581
 20
286.6514455443393
 30
0.0
 10
356.980695721419
 20
286.6819031043478
 30
0.0
 10
357.0501173774002
 20
286.7013948259108
 30
0.0
 10
357.073474240587
 20
286.7073324835252
 30
0.0
 10
357.1206282516989
 20
286.7180682050209
 30
0.0
 10
357.1444930177419
 20
286.7228765241151
 30
0.0
 10
357.2637944207468
 20
286.7438090186977
 30
0.0
 10
357.3594930987353
 20
286.7508368862342
 30
0.0
 10
357.5034163287418
 20
286.7472127208614
 30
0.0
 10
357.551453745068
 20
286.7436261354789
 30
0.0
 10
357.6236073351375
 20
286.7345679657607
 30
0.0
 10
357.6476719253454
 20
286.7309300266035
 30
0.0
 10
357.6952843682338
 20
286.7225089628037
 30
0.0
 10
357.7189019344918
 20
286.7177182004724
 30
0.0
 10
357.8360622066031
 20
286.6909127759769
 30
0.0
 10
357.9268496102852
 20
286.660426365423
 30
0.0
 10
358.0366285994412
 20
286.6109555789915
 30
0.0
 10
358.0583974167365
 20
286.600488073789
 30
0.0
 10
358.1015532307634
 20
286.5783832591807
 30
0.0
 10
358.1227792994584
 20
286.5668276084788
 30
0.0
 10
358.1853162702811
 20
286.5307425508954
 30
0.0
 10
358.2657588239886
 20
286.4788060168993
 30
0.0
 10
358.3404540503449
 20
286.4194151672414
 30
0.0
 10
358.3943072978234
 20
286.3720677304
 30
0.0
 10
358.4118963761143
 20
286.3558170408585
 30
0.0
 10
358.4463404099616
 20
286.3223675182386
 30
0.0
 10
358.4632386587542
 20
286.3051213147194
 30
0.0
 10
358.545288717938
 20
286.2170896566823
 30
0.0
 10
358.6028344215288
 20
286.1414228026309
 30
0.0
 10
358.6775339223074
 20
286.0204678648645
 30
0.0
 10
358.7004830636682
 20
285.9788978202288
 30
0.0
 10
358.7319203651042
 20
285.9146343303592
 30
0.0
 10
358.7419173955907
 20
285.8928496473224
 30
0.0
 10
358.7607065518302
 20
285.8490905536921
 30
0.0
 10
358.7695232489987
 20
285.8270712458878
 30
0.0
 10
358.8107773569664
 20
285.7162935088862
 30
0.0
 10
358.8348042642331
 20
285.6255115000297
 30
0.0
 10
358.8537690040464
 20
285.5094065573261
 30
0.0
 10
358.8570036895508
 20
285.4860529583008
 30
0.0
 10
358.8623407010587
 20
285.4390773221517
 30
0.0
 10
358.8644385035585
 20
285.4154595531266
 30
0.0
 10
358.8689737917325
 20
285.3449521312593
 30
0.0
 10
358.8696896208136
 20
285.2981573929958
 30
0.0
 10
358.8651264802147
 20
285.158386233328
 30
0.0
 10
358.8531994898306
 20
285.066018654065
 30
0.0
 10
358.826930642191
 20
284.9515825269227
 30
0.0
 10
358.8211028566782
 20
284.928759656282
 30
0.0
 10
358.8084243527659
 20
284.8836897587126
 30
0.0
 10
358.8015606822663
 20
284.8613827407238
 30
0.0
 10
358.7794213061062
 20
284.7951329713815
 30
0.0
 10
358.7457798354959
 20
284.7085871734132
 30
0.0
 10
358.7039760832533
 20
284.6255582050312
 30
0.0
 10
358.6695034033946
 20
284.564620413163
 30
0.0
 10
358.6574915973608
 20
284.5445305194781
 30
0.0
 10
358.6324043337505
 20
284.5048035224818
 30
0.0
 10
358.6193043779697
 20
284.4851363006078
 30
0.0
 10
358.5518051378912
 20
284.388960532991
 30
0.0
 10
358.4910232559789
 20
284.318111905086
 30
0.0
 10
358.3897380616536
 20
284.2208058946615
 30
0.0
 10
358.3542789064377
 20
284.1898757339192
 30
0.0
 10
358.2984357570083
 20
284.1458188759215
 30
0.0
 10
358.2793203373272
 20
284.1314839293584
 30
0.0
 10
358.2405123696258
 20
284.1038541914418
 30
0.0
 10
358.220826093005
 20
284.0905583610115
 30
0.0
 10
358.1210004753801
 20
284.0266362663718
 30
0.0
 10
358.0367191836563
 20
283.9836053892829
 30
0.0
 10
357.9257049054111
 20
283.940109259799
 30
0.0
 10
357.9032163395832
 20
283.9319294405442
 30
0.0
 10
357.8576535377885
 20
283.916632639594
 30
0.0
 10
357.8345082944309
 20
283.9094965665439
 30
0.0
 10
357.7647423643524
 20
283.8898893948698
 30
0.0
 10
357.7179040869919
 20
283.8792275307533
 30
0.0
 10
357.5764300667093
 20
283.8542802573689
 30
0.0
 10
357.4808444056691
 20
283.8469629926748
 30
0.0
 10
357.3597143517531
 20
283.8498877012312
 30
0.0
 10
357.3353730690292
 20
283.8510881498574
 30
0.0
 10
357.287108873664
 20
283.8546829349734
 30
0.0
 10
357.2631153330409
 20
283.8570770563667
 30
0.0
 10
357.1915421967275
 20
283.8660152465152
 30
0.0
 10
357.0971960431691
 20
283.8826064549881
 30
0.0
 10
357.0049810557846
 20
283.908396268843
 30
0.0
 10
356.9366278903115
 20
283.9312357864926
 30
0.0
 10
356.9139328733525
 20
283.9394509352644
 30
0.0
 10
356.8690265492481
 20
283.9569877821769
 30
0.0
 10
356.8469027976937
 20
283.9662723706788
 30
0.0
 10
356.7378868373511
 20
284.0152118757316
 30
0.0
 10
356.6557561233101
 20
284.0623416135447
 30
0.0
 10
356.5592348926902
 20
284.130990256406
 30
0.0
 10
356.540240634635
 20
284.1452114155016
 30
0.0
 10
356.5028783788265
 20
284.1746492192721
 30
0.0
 10
356.4845223378389
 20
284.1898614460358
 30
0.0
 10
356.4309648903085
 20
284.2365029801409
 30
0.0
 10
356.3970696623271
 20
284.2690883194099
 30
0.0
 10
356.3006166618143
 20
284.3711848172749
 30
0.0
 10
356.2432412554911
 20
284.4449947357102
 30
0.0
 10
356.1425625376356
 20
284.6044391423492
 30
0.0
 10
356.1007705329537
 20
284.6876936550713
 30
0.0
 10
356.050377906208
 20
284.8175370355387
 30
0.0
 10
356.0356395463557
 20
284.8616601369706
 30
0.0
 10
356.0166792017028
 20
284.9291390278422
 30
0.0
 10
356.0108845563892
 20
284.9518480630049
 30
0.0
 10
356.0003678883849
 20
284.9977081678
 30
0.0
 10
355.995671660823
 20
285.0207518128202
 30
0.0
 10
355.9750435977258
 20
285.1362026585741
 30
0.0
 10
355.9675114458398
 20
285.2296527904571
 30
0.0
 10
355.9691615337858
 20
285.324186265565
 30
0.0
  0
SPLINE
  5
1C0
330
1F
100
AcDbEntity
  8
1
100
AcDbSpline
210
0.0
220
0.0
230
1.0
 70
     8
 71
     3
 72
     8
 73
     4
 74
     0
 42
0.000000001
 43
0.0000000001
 40
0.0
 40
0.0
 40
0.0
 40
0.0
 40
1.0
 40
1.0
 40
1.0
 40
1.0
 10
350.0377914201455
 20
294.7432356125176
 30
0.0
 10
349.8465959581135
 20
294.8136524113945
 30
0.0
 10
349.6565327372629
 20
294.8887906741189
 30
0.0
 10
349.4676808621256
 20
294.9687073935789
 30
0.0
  0
SPLINE
  5
1C1
330
1F
100
AcDbEntity
  8
1
100
AcDbSpline
210
0.0
220
0.0
230
1.0
 70
     8
 71
     3
 72
    34
 73
    30
 74
     0
 42
0.000000001
 43
0.0000000001
 40
0.0
 40
0.0
 40
0.0
 40
0.0
 40
0.062499999999997
 40
0.062499999999997
 40
0.0937499999999956
 40
0.0937499999999956
 40
0.1249999999999943
 40
0.1249999999999943
 40
0.249999999999989
 40
0.249999999999989
 40
0.3749999999999837
 40
0.3749999999999837
 40
0.4999999999999785
 40
0.4999999999999785
 40
0.5312499999999788
 40
0.5312499999999788
 40
0.5624999999999794
 40
0.5624999999999794
 40
0.6249999999999813
 40
0.6249999999999813
 40
0.7499999999999865
 40
0.7499999999999865
 40
0.8124999999999891
 40
0.8124999999999891
 40
0.8437499999999904
 40
0.8437499999999904
 40
0.8749999999999914
 40
0.8749999999999914
 40
1.0
 40
1.0
 40
1.0
 40
1.0
 10
349.0622216762054
 20
295.7120842439905
 30
0.0
 10
349.1348968533566
 20
295.7614735263382
 30
0.0
 10
349.2066323820316
 20
295.8124417859476
 30
0.0
 10
349.3127202181633
 20
295.8914407361419
 30
0.0
 10
349.3478301069909
 20
295.9181983934712
 30
0.0
 10
349.417524768355
 20
295.9725961090533
 30
0.0
 10
349.4521406120571
 20
296.0002629629837
 30
0.0
 10
349.6230261173144
 20
296.1402009188187
 30
0.0
 10
349.7532874944867
 20
296.2576917298809
 30
0.0
 10
349.9998926329887
 20
296.5046338733604
 30
0.0
 10
350.1162453089743
 20
296.6340775447001
 30
0.0
 10
350.3335859636063
 20
296.9061690016988
 30
0.0
 10
350.4345904121344
 20
297.0488026334701
 30
0.0
 10
350.5498408690078
 20
297.236552239792
 30
0.0
 10
350.5723379520404
 20
297.2745774053913
 30
0.0
 10
350.6161778558691
 20
297.3516196865249
 30
0.0
 10
350.6375468234495
 20
297.3906925944438
 30
0.0
 10
350.6993442261872
 20
297.5084891240879
 30
0.0
 10
350.7376277959404
 20
297.5880582816636
 30
0.0
 10
350.843511612614
 20
297.8299595219434
 30
0.0
 10
350.9021910837117
 20
297.9954689466416
 30
0.0
 10
350.970724733357
 20
298.2506733184583
 30
0.0
 10
350.9903109541797
 20
298.3369019721487
 30
0.0
 10
351.0144851982881
 20
298.4680988656439
 30
0.0
 10
351.021658347784
 20
298.5120724145394
 30
0.0
 10
351.0341315343022
 20
298.5999636304411
 30
0.0
 10
351.0394462992649
 20
298.6439583507104
 30
0.0
 10
351.061397273361
 20
298.8641782440357
 30
0.0
 10
351.0642064333976
 20
299.0411400818688
 30
0.0
 10
351.0517449352639
 20
299.2189154957523
 30
0.0
  0
SPLINE
  5
1C2
330
1F
100
AcDbEntity
  8
1
100
AcDbSpline
210
0.0
220
0.0
230
1.0
 70
    12
 71
     3
 72
     9
 73
     5
 74
     0
 42
0.000000001
 43
0.0000000001
 40
0.0
 40
0.0
 40
0.0
 40
0.0
 40
0.4164028688044493
 40
1.0
 40
1.0
 40
1.0
 40
1.0
 10
329.9202417470269
 20
299.5603585482216
 30
0.0
 41
1.004326686963814
 10
332.8709361933517
 20
299.5390845531762
 30
0.0
 41
1.002811477514907
 10
340.0451342915063
 20
298.9446237285693
 30
0.0
 41
0.9966201193388988
 10
346.9818398442138
 20
298.5455543143299
 30
0.0
 41
1.005052353468082
 10
351.051744935264
 20
299.2189154957523
 30
0.0
 41
1.002200995499355
  0
SPLINE
  5
1C3
330
1F
100
AcDbEntity
  8
1
100
AcDbSpline
210
0.0
220
0.0
230
1.0
 70
     8
 71
     3
 72
    22
 73
    18
 74
     0
 42
0.000000001
 43
0.0000000001
 40
0.0
 40
0.0
 40
0.0
 40
0.0
 40
0.1249999999999999
 40
0.2499999999999997
 40
0.3749999999999996
 40
0.3749999999999996
 40
0.4062499999999992
 40
0.4062499999999992
 40
0.4374999999999985
 40
0.4374999999999985
 40
0.4999999999999986
 40
0.4999999999999986
 40
0.6249999999999991
 40
0.6249999999999991
 40
0.7499999999999993
 40
0.8749999999999996
 40
1.0
 40
1.0
 40
1.0
 40
1.0
 10
286.8604779273498
 20
280.6524849191777
 30
0.0
 10
287.1490663071274
 20
280.7497434742783
 30
0.0
 10
287.7388136220705
 20
280.9263070874213
 30
0.0
 10
288.6607133196222
 20
281.1379103502526
 30
0.0
 10
289.3002604359578
 20
281.243348976456
 30
0.0
 10
289.7079229590374
 20
281.2979001018049
 30
0.0
 10
289.7898532247102
 20
281.3082422372602
 30
0.0
 10
289.9545149894402
 20
281.3277821720006
 30
0.0
 10
290.0373232938126
 20
281.3369869596553
 30
0.0
 10
290.2859066805278
 20
281.3627674507147
 30
0.0
 10
290.4520985253732
 20
281.3775452289244
 30
0.0
 10
290.9520523619292
 20
281.4148071863753
 30
0.0
 10
291.2871908288133
 20
281.4302293610698
 30
0.0
 10
291.9610243934879
 20
281.4428264190367
 30
0.0
 10
292.6384149279061
 20
281.4371744471761
 30
0.0
 10
293.6649963387088
 20
281.3748487766673
 30
0.0
 10
294.3563715380982
 20
281.2974484947048
 30
0.0
 10
294.7038318185191
 20
281.2496536169738
 30
0.0
  0
SPLINE
  5
1C4
330
1F
100
AcDbEntity
  8
1
100
AcDbSpline
210
0.0
220
0.0
230
1.0
 70
     8
 71
     3
 72
    26
 73
    22
 74
     0
 42
0.000000001
 43
0.0000000001
 40
0.0
 40
0.0
 40
0.0
 40
0.0
 40
0.1249999999999999
 40
0.1249999999999999
 40
0.2499999999999999
 40
0.2499999999999999
 40
0.3749999999999998
 40
0.3749999999999998
 40
0.4062499999999998
 40
0.4062499999999998
 40
0.4374999999999997
 40
0.4374999999999997
 40
0.4999999999999993
 40
0.4999999999999993
 40
0.6249999999999996
 40
0.6249999999999996
 40
0.7499999999999997
 40
0.7499999999999997
 40
0.8749999999999998
 40
0.8749999999999998
 40
1.0
 40
1.0
 40
1.0
 40
1.0
 10
279.4048419452957
 20
266.6113304035946
 30
0.0
 10
279.5948939218212
 20
266.6510577276505
 30
0.0
 10
279.7920469791193
 20
266.709496390738
 30
0.0
 10
280.1987121894586
 20
266.8573672194643
 30
0.0
 10
280.4082370746695
 20
266.9468353881962
 30
0.0
 10
280.8381356428121
 20
267.1519810726381
 30
0.0
 10
281.0585177574886
 20
267.2676788120656
 30
0.0
 10
281.3398244639914
 20
267.4261424433187
 30
0.0
 10
281.3963769210583
 20
267.4585283191258
 30
0.0
 10
281.5100382642958
 20
267.5246257325188
 30
0.0
 10
281.5671798656562
 20
267.5583569597977
 30
0.0
 10
281.7391486546455
 20
267.6612987953222
 30
0.0
 10
281.8544267038045
 20
267.7321976463306
 30
0.0
 10
282.2019033093875
 20
267.9509445062426
 30
0.0
 10
282.4357508641194
 20
268.1048310726114
 30
0.0
 10
282.9063497606212
 20
268.4250123548194
 30
0.0
 10
283.1431011881359
 20
268.5913090191196
 30
0.0
 10
283.617810849331
 20
268.9329751038114
 30
0.0
 10
283.8557656522803
 20
269.1083397139764
 30
0.0
 10
284.3310182291738
 20
269.4652001535386
 30
0.0
 10
284.568308340801
 20
269.6466857138744
 30
0.0
 10
284.8043368819073
 20
269.8300796035479
 30
0.0
  0
SPLINE
  5
1C5
330
1F
100
AcDbEntity
  8
1
100
AcDbSpline
210
0.0
220
0.0
230
1.0
 70
     8
 71
     3
 72
    33
 73
    29
 74
     0
 42
0.000000001
 43
0.0000000001
 40
0.0
 40
0.0
 40
0.0
 40
0.0
 40
0.1250000000000003
 40
0.1250000000000003
 40
0.2500000000000006
 40
0.2500000000000006
 40
0.3125000000000001
 40
0.3125000000000001
 40
0.3437500000000001
 40
0.3437500000000001
 40
0.3593750000000002
 40
0.3593750000000002
 40
0.3750000000000003
 40
0.3750000000000003
 40
0.5000000000000027
 40
0.5000000000000027
 40
0.6250000000000052
 40
0.6250000000000052
 40
0.6875000000000066
 40
0.6875000000000066
 40
0.7031250000000064
 40
0.7031250000000064
 40
0.7187500000000063
 40
0.7500000000000057
 40
0.7500000000000057
 40
0.8750000000000028
 40
0.8750000000000028
 40
1.0
 40
1.0
 40
1.0
 40
1.0
 10
277.1717105724694
 20
270.6460070809534
 30
0.0
 10
277.1221560214889
 20
270.428377186069
 30
0.0
 10
277.0917917632095
 20
270.2155132410316
 30
0.0
 10
277.067684759273
 20
269.7992483373422
 30
0.0
 10
277.0739482881598
 20
269.5958474931347
 30
0.0
 10
277.110797482888
 20
269.2978292900128
 30
0.0
 10
277.1276690149385
 20
269.1996707770434
 30
0.0
 10
277.1599753422457
 20
269.0542059055685
 30
0.0
 10
277.171911471517
 20
269.0060131212125
 30
0.0
 10
277.1915892145964
 20
268.9341676080224
 30
0.0
 10
277.1984435873968
 20
268.9102974647045
 30
0.0
 10
277.2126962476936
 20
268.862866976932
 30
0.0
 10
277.2200999901916
 20
268.8392861778226
 30
0.0
 10
277.2892126257457
 20
268.6282549816324
 30
0.0
 10
277.3682055590544
 20
268.449157297317
 30
0.0
 10
277.5602591061767
 20
268.1066183057084
 30
0.0
 10
277.6733223693508
 20
267.9431807097864
 30
0.0
 10
277.868869003511
 20
267.7090800421434
 30
0.0
 10
277.938388481852
 20
267.6328918037999
 30
0.0
 10
278.0308462506002
 20
267.5399099838281
 30
0.0
 10
278.0496298295367
 20
267.5214133085275
 30
0.0
 10
278.0876557794611
 20
267.4847414674144
 30
0.0
 10
278.1454013456515
 20
267.4301957234563
 30
0.0
 10
278.2052561697543
 20
267.3770147238528
 30
0.0
 10
278.4094254667114
 20
267.2026901821628
 30
0.0
 10
278.5875977184531
 20
267.0726300220944
 30
0.0
 10
278.9736175068578
 20
266.8295178929097
 30
0.0
 10
279.1814607788185
 20
266.7164691065575
 30
0.0
 10
279.4048419452957
 20
266.6113304035946
 30
0.0
  0
SPLINE
  5
1C9
330
1F
100
AcDbEntity
  8
1
100
AcDbSpline
210
0.0
220
0.0
230
1.0
 70
     8
 71
     3
 72
     8
 73
     4
 74
     0
 42
0.000000001
 43
0.0000000001
 40
0.0
 40
0.0
 40
0.0
 40
0.0
 40
1.0
 40
1.0
 40
1.0
 40
1.0
 10
362.0081269389876
 20
280.4992402055162
 30
0.0
 10
362.0251824081699
 20
280.5131778142169
 30
0.0
 10
362.0409723155493
 20
280.5284259505285
 30
0.0
 10
362.0554966611259
 20
280.5449846144509
 30
0.0
  0
SPLINE
  5
1CA
330
1F
100
AcDbEntity
  8
1
100
AcDbSpline
210
0.0
220
0.0
230
1.0
 70
     8
 71
     3
 72
     8
 73
     4
 74
     0
 42
0.000000001
 43
0.0000000001
 40
0.0
 40
0.0
 40
0.0
 40
0.0
 40
1.0
 40
1.0
 40
1.0
 40
1.0
 10
362.5894505876547
 20
281.4336331788933
 30
0.0
 10
362.5972522528897
 20
281.4542312366872
 30
0.0
 10
362.6033026456479
 20
281.4753314637831
 30
0.0
 10
362.6076017659294
 20
281.4969338601808
 30
0.0
  0
SPLINE
  5
1CB
330
1F
100
AcDbEntity
  8
1
100
AcDbSpline
210
0.0
220
0.0
230
1.0
 70
     8
 71
     3
 72
     8
 73
     4
 74
     0
 42
0.000000001
 43
0.0000000001
 40
0.0
 40
0.0
 40
0.0
 40
0.0
 40
1.0
 40
1.0
 40
1.0
 40
1.0
 10
362.7311931720172
 20
288.5774807728481
 30
0.0
 10
362.7276505834055
 20
288.5992200467839
 30
0.0
 10
362.722340263689
 20
288.6205185758535
 30
0.0
 10
362.7152622128679
 20
288.6413763600573
 30
0.0
  0
SPLINE
  5
1CC
330
1F
100
AcDbEntity
  8
1
100
AcDbSpline
210
0.0
220
0.0
230
1.0
 70
     8
 71
     3
 72
     8
 73
     4
 74
     0
 42
0.000000001
 43
0.0000000001
 40
0.0
 40
0.0
 40
0.0
 40
0.0
 40
1.0
 40
1.0
 40
1.0
 40
1.0
 10
362.2126469442886
 20
289.5481183071029
 30
0.0
 10
362.1987093355879
 20
289.5651737762852
 30
0.0
 10
362.1834611992763
 20
289.5809636836646
 30
0.0
 10
362.166902535354
 20
289.5954880292411
 30
0.0
  0
SPLINE
  5
1CD
330
1F
100
AcDbEntity
  8
1
100
AcDbSpline
210
0.0
220
0.0
230
1.0
 70
     8
 71
     3
 72
    36
 73
    32
 74
     0
 42
0.000000001
 43
0.0000000001
 40
0.0
 40
0.0
 40
0.0
 40
0.0
 40
0.1249999999999152
 40
0.1249999999999152
 40
0.1874999999998718
 40
0.1874999999998718
 40
0.2187499999998557
 40
0.2187499999998557
 40
0.2499999999998396
 40
0.2499999999998396
 40
0.3749999999998082
 40
0.3749999999998082
 40
0.4062499999998104
 40
0.4062499999998104
 40
0.4374999999998126
 40
0.4374999999998126
 40
0.4999999999998188
 40
0.4999999999998188
 40
0.6249999999998561
 40
0.6249999999998561
 40
0.6562499999998578
 40
0.6562499999998578
 40
0.6874999999998593
 40
0.7499999999998942
 40
0.8124999999999287
 40
0.8124999999999287
 40
0.8437499999999463
 40
0.8437499999999463
 40
0.8749999999999637
 40
0.8749999999999637
 40
1.0
 40
1.0
 40
1.0
 40
1.0
 10
353.5979785768802
 20
295.7521870553053
 30
0.0
 10
353.5998101740275
 20
295.7013472844936
 30
0.0
 10
353.6067897807849
 20
295.6515702166691
 30
0.0
 10
353.6245015487278
 20
295.578399653959
 30
0.0
 10
353.6316225860925
 20
295.5542607152295
 30
0.0
 10
353.6441559486251
 20
295.518434575319
 30
0.0
 10
353.6486562036758
 20
295.5065248362229
 30
0.0
 10
353.6582152255702
 20
295.4830072941213
 30
0.0
 10
353.663267465324
 20
295.4714099604954
 30
0.0
 10
353.6898614615445
 20
295.4142122203527
 30
0.0
 10
353.7153620737812
 20
295.3709551947528
 30
0.0
 10
353.7524406345074
 20
295.3199636237182
 30
0.0
 10
353.7601189335787
 20
295.3099207436133
 30
0.0
 10
353.7760086745404
 20
295.2901505687092
 30
0.0
 10
353.7842353546901
 20
295.2804082492694
 30
0.0
 10
353.809463856054
 20
295.2519566555087
 30
0.0
 10
353.8270827296025
 20
295.23392697223
 30
0.0
 10
353.882272775793
 20
295.1825744333655
 30
0.0
 10
353.9221541070365
 20
295.1519608025821
 30
0.0
 10
353.9759988631908
 20
295.1183766391862
 30
0.0
 10
353.9869832058554
 20
295.1118904573324
 30
0.0
 10
354.0091192635765
 20
295.099533820717
 30
0.0
 10
354.0426582169541
 20
295.081868438715
 30
0.0
 10
354.1002023406775
 20
295.0567000805511
 30
0.0
 10
354.1479822193539
 20
295.0410956707807
 30
0.0
 10
354.1844872811146
 20
295.0311325977618
 30
0.0
 10
354.1967675363841
 20
295.0281021557805
 30
0.0
 10
354.2215572217779
 20
295.0226363868011
 30
0.0
 10
354.23408289372
 20
295.0201997997019
 30
0.0
 10
354.2967037909623
 20
295.0096388070211
 30
0.0
 10
354.3472036567142
 20
295.0062210246307
 30
0.0
 10
354.3981196470132
 20
295.0079961929791
 30
0.0
  0
SPLINE
  5
1CE
330
1F
100
AcDbEntity
  8
1
100
AcDbSpline
210
0.0
220
0.0
230
1.0
 70
     8
 71
     3
 72
    36
 73
    32
 74
     0
 42
0.000000001
 43
0.0000000001
 40
0.0
 40
0.0
 40
0.0
 40
0.0
 40
0.1250000000000498
 40
0.1250000000000498
 40
0.1875000000000747
 40
0.1875000000000747
 40
0.2187500000000835
 40
0.2187500000000835
 40
0.2500000000000923
 40
0.2500000000000923
 40
0.375000000000091
 40
0.375000000000091
 40
0.4062500000000991
 40
0.4062500000000991
 40
0.4375000000001072
 40
0.4375000000001072
 40
0.5000000000001231
 40
0.5000000000001231
 40
0.6250000000001551
 40
0.6250000000001551
 40
0.656250000000156
 40
0.656250000000156
 40
0.6875000000001568
 40
0.7500000000001314
 40
0.8125000000001058
 40
0.8125000000001058
 40
0.8437500000000943
 40
0.8437500000000943
 40
0.8750000000000827
 40
0.8750000000000827
 40
1.0
 40
1.0
 40
1.0
 40
1.0
 10
362.8286060818003
 20
304.0438722718281
 30
0.0
 10
362.826774484653
 20
304.0947120426399
 30
0.0
 10
362.8197948778957
 20
304.1444891104644
 30
0.0
 10
362.8020831099527
 20
304.2176596731746
 30
0.0
 10
362.794962072588
 20
304.2417986119041
 30
0.0
 10
362.7824287100555
 20
304.2776247518145
 30
0.0
 10
362.7779284550048
 20
304.2895344909107
 30
0.0
 10
362.7683694331103
 20
304.3130520330122
 30
0.0
 10
362.7633171933566
 20
304.3246493666382
 30
0.0
 10
362.736723197136
 20
304.3818471067808
 30
0.0
 10
362.7112225848993
 20
304.4251041323807
 30
0.0
 10
362.6741440241732
 20
304.4760957034153
 30
0.0
 10
362.6664657251018
 20
304.4861385835202
 30
0.0
 10
362.6505759841401
 20
304.5059087584244
 30
0.0
 10
362.6423493039904
 20
304.5156510778642
 30
0.0
 10
362.6171208026265
 20
304.5441026716248
 30
0.0
 10
362.599501929078
 20
304.5621323549037
 30
0.0
 10
362.5443118828875
 20
304.613484893768
 30
0.0
 10
362.504430551644
 20
304.6440985245516
 30
0.0
 10
362.4505857954896
 20
304.6776826879474
 30
0.0
 10
362.4396014528252
 20
304.6841688698011
 30
0.0
 10
362.417465395104
 20
304.6965255064165
 30
0.0
 10
362.3839264417264
 20
304.7141908884186
 30
0.0
 10
362.326382318003
 20
304.7393592465823
 30
0.0
 10
362.2786024393265
 20
304.7549636563528
 30
0.0
 10
362.2420973775659
 20
304.7649267293717
 30
0.0
 10
362.2298171222964
 20
304.767957171353
 30
0.0
 10
362.2050274369026
 20
304.7734229403325
 30
0.0
 10
362.1925017649605
 20
304.7758595274316
 30
0.0
 10
362.1298808677183
 20
304.7864205201124
 30
0.0
 10
362.0793810019663
 20
304.7898383025029
 30
0.0
 10
362.0284650116673
 20
304.7880631341545
 30
0.0
  0
SPLINE
  5
1CF
330
1F
100
AcDbEntity
  8
1
100
AcDbSpline
210
0.0
220
0.0
230
1.0
 70
     8
 71
     3
 72
    36
 73
    32
 74
     0
 42
0.000000001
 43
0.0000000001
 40
0.0
 40
0.0
 40
0.0
 40
0.0
 40
0.1249999999999603
 40
0.1249999999999603
 40
0.1874999999999232
 40
0.1874999999999232
 40
0.2187499999999208
 40
0.2187499999999208
 40
0.2499999999999184
 40
0.2499999999999184
 40
0.3750000000000058
 40
0.3750000000000058
 40
0.4062500000000087
 40
0.4062500000000087
 40
0.4375000000000117
 40
0.4375000000000117
 40
0.5000000000000204
 40
0.5000000000000204
 40
0.6250000000000377
 40
0.6250000000000377
 40
0.6562500000000357
 40
0.6562500000000357
 40
0.6875000000000338
 40
0.7500000000000298
 40
0.8125000000000257
 40
0.8125000000000257
 40
0.8437500000000238
 40
0.8437500000000238
 40
0.8750000000000218
 40
0.8750000000000218
 40
1.0
 40
1.0
 40
1.0
 40
1.0
 10
354.0557887655626
 20
304.5100985410879
 30
0.0
 10
354.0048671658821
 20
304.5083231771703
 30
0.0
 10
353.9550154090792
 20
304.5014071516541
 30
0.0
 10
353.8817428574909
 20
304.4838010929516
 30
0.0
 10
353.8575716105124
 20
304.4767170292491
 30
0.0
 10
353.8216995765406
 20
304.4642417703856
 30
0.0
 10
353.8097749302274
 20
304.4597613793641
 30
0.0
 10
353.7862286557532
 20
304.4502426873275
 30
0.0
 10
353.7746175073843
 20
304.4452108917154
 30
0.0
 10
353.7173533883741
 20
304.4187204806861
 30
0.0
 10
353.6740518032499
 20
304.3933070624726
 30
0.0
 10
353.6230150525913
 20
304.3563428207619
 30
0.0
 10
353.6129636674987
 20
304.3486876543233
 30
0.0
 10
353.5931775606061
 20
304.3328447244448
 30
0.0
 10
353.5834278053688
 20
304.3246417635179
 30
0.0
 10
353.5549557556147
 20
304.2994845094818
 30
0.0
 10
353.5369148175824
 20
304.2819134666877
 30
0.0
 10
353.4855354650163
 20
304.2268678828499
 30
0.0
 10
353.454913156539
 20
304.1870841436208
 30
0.0
 10
353.421330040223
 20
304.133363037557
 30
0.0
 10
353.4148446732158
 20
304.1224035374337
 30
0.0
 10
353.4024908557748
 20
304.1003167952727
 30
0.0
 10
353.3848314855126
 20
304.0668514552369
 30
0.0
 10
353.3596819102386
 20
304.0094282510273
 30
0.0
 10
353.3441018156882
 20
303.961743232453
 30
0.0
 10
353.3341605472715
 20
303.9253085953219
 30
0.0
 10
353.3311379693029
 20
303.9130516946292
 30
0.0
 10
353.3256891485763
 20
303.8883084720153
 30
0.0
 10
353.3232616606447
 20
303.8758059362879
 30
0.0
 10
353.3127488277517
 20
303.8132990098771
 30
0.0
 10
353.3093782826238
 20
303.7628857164871
 30
0.0
 10
353.3112096780075
 20
303.7120515460428
 30
0.0
  0
SPLINE
  5
1D0
330
1F
100
AcDbEntity
  8
1
100
AcDbSpline
210
0.0
220
0.0
230
1.0
 70
     8
 71
     3
 72
    36
 73
    32
 74
     0
 42
0.000000001
 43
0.0000000001
 40
0.0
 40
0.0
 40
0.0
 40
0.0
 40
0.1249999999999747
 40
0.1249999999999747
 40
0.187499999999979
 40
0.187499999999979
 40
0.218749999999997
 40
0.218749999999997
 40
0.250000000000015
 40
0.250000000000015
 40
0.3750000000000869
 40
0.3750000000000869
 40
0.4062500000000841
 40
0.4062500000000841
 40
0.4375000000000814
 40
0.4375000000000814
 40
0.5000000000000756
 40
0.5000000000000756
 40
0.6250000000000659
 40
0.6250000000000659
 40
0.6562500000000594
 40
0.6562500000000594
 40
0.6875000000000528
 40
0.7500000000000416
 40
0.8125000000000303
 40
0.8125000000000303
 40
0.8437500000000259
 40
0.8437500000000259
 40
0.8750000000000214
 40
0.8750000000000214
 40
1.0
 40
1.0
 40
1.0
 40
1.0
 10
362.3707958931179
 20
295.2859607860457
 30
0.0
 10
362.4217174927985
 20
295.2877361499631
 30
0.0
 10
362.4715692496012
 20
295.2946521754795
 30
0.0
 10
362.5448418011897
 20
295.3122582341819
 30
0.0
 10
362.5690130481681
 20
295.3193422978845
 30
0.0
 10
362.6048850821399
 20
295.331817556748
 30
0.0
 10
362.6168097284532
 20
295.3362979477695
 30
0.0
 10
362.6403560029274
 20
295.3458166398061
 30
0.0
 10
362.6519671512962
 20
295.3508484354182
 30
0.0
 10
362.7092312703064
 20
295.3773388464473
 30
0.0
 10
362.7525328554307
 20
295.4027522646608
 30
0.0
 10
362.8035696060892
 20
295.4397165063716
 30
0.0
 10
362.8136209911818
 20
295.4473716728102
 30
0.0
 10
362.8334070980744
 20
295.4632146026888
 30
0.0
 10
362.8431568533117
 20
295.4714175636156
 30
0.0
 10
362.8716289030658
 20
295.4965748176517
 30
0.0
 10
362.8896698410981
 20
295.5141458604458
 30
0.0
 10
362.9410491936642
 20
295.5691914442837
 30
0.0
 10
362.9716715021415
 20
295.6089751835128
 30
0.0
 10
363.0052546184575
 20
295.6626962895765
 30
0.0
 10
363.0117399854646
 20
295.6736557896999
 30
0.0
 10
363.0240938029057
 20
295.6957425318609
 30
0.0
 10
363.041753173168
 20
295.7292078718968
 30
0.0
 10
363.0669027484419
 20
295.7866310761062
 30
0.0
 10
363.0824828429924
 20
295.8343160946805
 30
0.0
 10
363.092424111409
 20
295.8707507318116
 30
0.0
 10
363.0954466893777
 20
295.8830076325043
 30
0.0
 10
363.1008955101043
 20
295.9077508551183
 30
0.0
 10
363.1033229980358
 20
295.9202533908456
 30
0.0
 10
363.1138358309288
 20
295.9827603172563
 30
0.0
 10
363.1172063760567
 20
296.0331736106464
 30
0.0
 10
363.115374980673
 20
296.0840077810907
 30
0.0
  0
SPLINE
  5
1D1
330
1F
100
AcDbEntity
  8
1
100
AcDbSpline
210
0.0
220
0.0
230
1.0
 70
     8
 71
     3
 72
    16
 73
    12
 74
     0
 42
0.000000001
 43
0.0000000001
 40
0.0
 40
0.0
 40
0.0
 40
0.0
 40
0.2879250972918514
 40
0.2879250972918514
 40
0.4318876459377616
 40
0.4318876459377616
 40
0.575850194583672
 40
0.575850194583672
 40
0.8637752918754925
 40
0.8637752918754925
 40
1.0
 40
1.0
 40
1.0
 40
1.0
 10
356.4771601002411
 20
299.8219883277665
 30
0.0
 10
356.4645415392683
 20
299.8508124778028
 30
0.0
 10
356.454335404453
 20
299.8804006274626
 30
0.0
 10
356.4425907511003
 20
299.9259030114555
 30
0.0
 10
356.4392726768612
 20
299.9412580522705
 30
0.0
 10
356.4338545373861
 20
299.9723497768285
 30
0.0
 10
356.4317546097357
 20
299.9881322659236
 30
0.0
 10
356.427399374535
 20
300.0353029018355
 30
0.0
 10
356.4270249375708
 20
300.0667282641201
 30
0.0
 10
356.4301402830874
 20
300.1129879602054
 30
0.0
 10
356.4317006421194
 20
300.1278400981114
 30
0.0
 10
356.433831624837
 20
300.1426869065564
 30
0.0
  0
SPLINE
  5
1D2
330
1F
100
AcDbEntity
  8
1
100
AcDbSpline
210
0.0
220
0.0
230
1.0
 70
     8
 71
     3
 72
    13
 73
     9
 74
     0
 42
0.000000001
 43
0.0000000001
 40
0.0
 40
0.0
 40
0.0
 40
0.0
 40
0.0353531015563424
 40
0.0353531015563424
 40
0.2282824812450739
 40
0.2282824812450739
 40
0.614141240622537
 40
1.0
 40
1.0
 40
1.0
 40
1.0
 10
359.6658912566625
 20
299.3130919796838
 30
0.0
 10
359.664633969234
 20
299.3104925405508
 30
0.0
 10
359.6633571106743
 20
299.3079010360792
 30
0.0
 10
359.6549854958232
 20
299.2912185025364
 30
0.0
 10
359.6472952522165
 20
299.2773064430965
 30
0.0
 10
359.6226357835354
 20
299.2366607532901
 30
0.0
 10
359.585913474632
 20
299.1858948827658
 30
0.0
 10
359.5418525824601
 20
299.1416968117031
 30
0.0
 10
359.5179362914675
 20
299.1212929178847
 30
0.0
  0
SPLINE
  5
1D3
330
1F
100
AcDbEntity
  8
1
100
AcDbSpline
210
0.0
220
0.0
230
1.0
 70
     8
 71
     3
 72
    10
 73
     6
 74
     0
 42
0.000000001
 43
0.0000000001
 40
0.0
 40
0.0
 40
0.0
 40
0.0
 40
0.5
 40
0.5
 40
1.0
 40
1.0
 40
1.0
 40
1.0
 10
357.2761593232148
 20
301.0973614417845
 30
0.0
 10
357.2819330276857
 20
301.0884954444997
 30
0.0
 10
357.286077759562
 20
301.0788790263522
 30
0.0
 10
357.2909886584478
 20
301.0582698250089
 30
0.0
 10
357.2916525881051
 20
301.0477571837396
 30
0.0
 10
357.2904181205656
 20
301.0370171672785
 30
0.0
  0
SPLINE
  5
1D4
330
1F
100
AcDbEntity
  8
1
100
AcDbSpline
210
0.0
220
0.0
230
1.0
 70
     8
 71
     3
 72
    10
 73
     6
 74
     0
 42
0.000000001
 43
0.0000000001
 40
0.0
 40
0.0
 40
0.0
 40
0.0
 40
0.7032214419537169
 40
0.7032214419537169
 40
1.0
 40
1.0
 40
1.0
 40
1.0
 10
357.2761593232148
 20
301.0973614417845
 30
0.0
 10
357.2736333952274
 20
301.1012402116093
 30
0.0
 10
357.2714173131189
 20
301.10527679446
 30
0.0
 10
357.268703765737
 20
301.1112397529756
 30
0.0
 10
357.267953797248
 20
301.1130386792038
 30
0.0
 10
357.2672619518107
 20
301.1148586358
 30
0.0
  0
SPLINE
  5
1D5
330
1F
100
AcDbEntity
  8
1
100
AcDbSpline
210
0.0
220
0.0
230
1.0
 70
     8
 71
     3
 72
    10
 73
     6
 74
     0
 42
0.000000001
 43
0.0000000001
 40
0.0
 40
0.0
 40
0.0
 40
0.0
 40
0.5
 40
0.5
 40
1.0
 40
1.0
 40
1.0
 40
1.0
 10
359.3182086528214
 20
300.5697471583073
 30
0.0
 10
359.3217727661877
 20
300.5799504566501
 30
0.0
 10
359.3269829379075
 20
300.5891796501353
 30
0.0
 10
359.3403529273671
 20
300.6055466617838
 30
0.0
 10
359.3482228192387
 20
300.6123542727447
 30
0.0
 10
359.3572635729667
 20
300.6178061889204
 30
0.0
  0
LINE
  5
1F2
330
1F
100
AcDbEntity
  8
SK4
100
AcDbLine
 10
200.904842
 20
288.907994
 30
0.0
 11
277.404842
 21
288.907994
 31
0.0
  0
LINE
  5
1F3
330
1F
100
AcDbEntity
  8
4
100
AcDbLine
 10
271.703832
 20
288.907994
 30
0.0
 11
367.306645
 21
288.907994
 31
0.0
  0
MTEXT
  5
1F4
330
1F
100
AcDbEntity
  8
SK6
100
AcDbMText
 10
258.520787
 20
241.27662
 30
0.0
 40
3.5
 41
0.0
 71
     7
 72
     5
  1
\W0.7022;802D-32-64-S40
  7
cesky
 73
     2
 44
0.8433729999999998
  0
MTEXT
  5
30A
330
1F
100
AcDbEntity
  8
2
100
AcDbMText
 10
378.537248
 20
288.150857
 30
0.0
 40
3.5
 41
0.0
 71
     7
 72
     5
  1
\W0.7045;32
  7
cesky
 11
0.0000000000000001
 21
1.0
 31
0.0
 73
     2
 44
0.8433729999999998
  0
MTEXT
  5
30B
330
1F
100
AcDbEntity
  8
2
100
AcDbMText
 10
378.537248
 20
281.413357
 30
0.0
 40
3.5
 41
0.0
 71
     7
 72
     5
  1
\W3.0115;\H2.63;%%c\H3.50;
  7
cesky
 11
0.0000000000000001
 21
1.0
 31
0.0
 73
     2
 44
0.8433729999999998
  0
LINE
  5
30C
330
1F
100
AcDbEntity
  8
2
100
AcDbLine
 10
365.404842
 20
304.907994
 30
0.0
 11
379.724664
 21
304.907994
 31
0.0
  0
LINE
  5
30D
330
1F
100
AcDbEntity
  8
2
100
AcDbLine
 10
378.724664
 20
304.907994
 30
0.0
 11
378.724664
 21
281.255857
 31
0.0
  0
SOLID
  5
30E
330
1F
100
AcDbEntity
  8
2
100
AcDbTrace
 10
378.724664
 20
304.907994
 30
0.0
 11
379.341809
 21
301.407996
 31
0.0
 12
378.10752
 22
301.407991
 32
0.0
 13
378.10752
 23
301.407991
 33
0.0
  0
MTEXT
  5
30F
330
1F
100
AcDbEntity
  8
2
100
AcDbMText
 10
280.827842
 20
340.562135
 30
0.0
 40
3.5
 41
0.0
 71
     7
 72
     5
  1
\W0.7969;159
  7
cesky
 73
     2
 44
0.8433729999999998
  0
LINE
  5
310
330
1F
100
AcDbEntity
  8
2
100
AcDbLine
 10
363.404842
 20
306.907994
 30
0.0
 11
363.404842
 21
341.687968
 31
0.0
  0
LINE
  5
311
330
1F
100
AcDbEntity
  8
2
100
AcDbLine
 10
204.404842
 20
306.907994
 30
0.0
 11
204.404842
 21
341.687968
 31
0.0
  0
LINE
  5
312
330
1F
100
AcDbEntity
  8
2
100
AcDbLine
 10
363.404842
 20
340.687968
 30
0.0
 11
204.404842
 21
340.687968
 31
0.0
  0
SOLID
  5
313
330
1F
100
AcDbEntity
  8
2
100
AcDbTrace
 10
363.404842
 20
340.687968
 30
0.0
 11
359.904844
 21
340.070823
 31
0.0
 12
359.90484
 22
341.305112
 32
0.0
 13
359.90484
 23
341.305112
 33
0.0
  0
SOLID
  5
314
330
1F
100
AcDbEntity
  8
2
100
AcDbTrace
 10
204.404842
 20
340.687968
 30
0.0
 11
207.90484
 21
341.305112
 31
0.0
 12
207.904844
 22
340.070823
 32
0.0
 13
207.904844
 23
340.070823
 33
0.0
  0
MTEXT
  5
315
330
1F
100
AcDbEntity
  8
2
100
AcDbMText
 10
237.590342
 20
327.385163
 30
0.0
 40
3.5
 41
0.0
 71
     7
 72
     5
  1
\W0.7045;70
  7
cesky
 73
     2
 44
0.8433729999999998
  0
LINE
  5
316
330
1F
100
AcDbEntity
  8
2
100
AcDbLine
 10
274.404842
 20
288.907994
 30
0.0
 11
274.404842
 21
328.5109970000001
 31
0.0
  0
LINE
  5
317
330
1F
100
AcDbEntity
  8
2
100
AcDbLine
 10
204.404842
 20
306.907994
 30
0.0
 11
204.404842
 21
328.5109970000001
 31
0.0
  0
LINE
  5
318
330
1F
100
AcDbEntity
  8
2
100
AcDbLine
 10
274.404842
 20
327.510997
 30
0.0
 11
204.404842
 21
327.510997
 31
0.0
  0
SOLID
  5
319
330
1F
100
AcDbEntity
  8
2
100
AcDbTrace
 10
274.404842
 20
327.510997
 30
0.0
 11
270.904844
 21
326.893852
 31
0.0
 12
270.90484
 22
328.128141
 32
0.0
 13
270.90484
 23
328.128141
 33
0.0
  0
SOLID
  5
31A
330
1F
100
AcDbEntity
  8
2
100
AcDbTrace
 10
204.404842
 20
327.510997
 30
0.0
 11
207.90484
 21
328.128141
 31
0.0
 12
207.904844
 22
326.893852
 32
0.0
 13
207.904844
 23
326.893852
 33
0.0
  0
MTEXT
  5
31B
330
1F
100
AcDbEntity
  8
2
100
AcDbMText
 10
326.591104
 20
316.511754
 30
0.0
 40
3.5
 41
0.0
 71
     7
 72
     5
  1
\W0.7045;70
  7
cesky
 73
     2
 44
0.8433729999999998
  0
LINE
  5
31C
330
1F
100
AcDbEntity
  8
2
100
AcDbLine
 10
363.404842
 20
306.907994
 30
0.0
 11
363.404842
 21
317.637587
 31
0.0
  0
LINE
  5
31D
330
1F
100
AcDbEntity
  8
2
100
AcDbLine
 10
293.406366
 20
304.613487
 30
0.0
 11
293.406366
 21
317.637587
 31
0.0
  0
LINE
  5
31E
330
1F
100
AcDbEntity
  8
2
100
AcDbLine
 10
363.404842
 20
316.637587
 30
0.0
 11
293.406366
 21
316.637587
 31
0.0
  0
SOLID
  5
31F
330
1F
100
AcDbEntity
  8
2
100
AcDbTrace
 10
363.404842
 20
316.637587
 30
0.0
 11
359.904844
 21
316.020443
 31
0.0
 12
359.90484
 22
317.254732
 32
0.0
 13
359.90484
 23
317.254732
 33
0.0
  0
SOLID
  5
320
330
1F
100
AcDbEntity
  8
2
100
AcDbTrace
 10
293.406366
 20
316.637587
 30
0.0
 11
296.906364
 21
317.254732
 31
0.0
 12
296.906369
 22
316.020443
 32
0.0
 13
296.906369
 23
316.020443
 33
0.0
  0
MTEXT
  5
321
330
1F
100
AcDbEntity
  8
2
100
AcDbMText
 10
317.090342
 20
327.385163
 30
0.0
 40
3.5
 41
0.0
 71
     7
 72
     5
  1
\W0.7259;89
  7
cesky
 73
     2
 44
0.8433729999999998
  0
LINE
  5
322
330
1F
100
AcDbEntity
  8
2
100
AcDbLine
 10
363.404842
 20
304.907994
 30
0.0
 11
363.404842
 21
328.5109970000001
 31
0.0
  0
LINE
  5
323
330
1F
100
AcDbEntity
  8
2
100
AcDbLine
 10
274.404842
 20
289.907567
 30
0.0
 11
274.404842
 21
328.5109970000001
 31
0.0
  0
LINE
  5
324
330
1F
100
AcDbEntity
  8
2
100
AcDbLine
 10
363.404842
 20
327.510997
 30
0.0
 11
274.404842
 21
327.510997
 31
0.0
  0
SOLID
  5
325
330
1F
100
AcDbEntity
  8
2
100
AcDbTrace
 10
363.404842
 20
327.510997
 30
0.0
 11
359.904844
 21
326.893852
 31
0.0
 12
359.90484
 22
328.128141
 32
0.0
 13
359.90484
 23
328.128141
 33
0.0
  0
SOLID
  5
326
330
1F
100
AcDbEntity
  8
2
100
AcDbTrace
 10
274.404842
 20
327.510997
 30
0.0
 11
277.90484
 21
328.128141
 31
0.0
 12
277.904844
 22
326.893852
 32
0.0
 13
277.904844
 23
326.893852
 33
0.0
  0
MTEXT
  5
327
330
1F
100
AcDbEntity
  8
SK2
100
AcDbMText
 10
192.819032
 20
290.434244
 30
0.0
 40
3.5
 41
0.0
 71
     7
 72
     5
  1
\W0.7045;40
  7
cesky
 11
0.0000000000000001
 21
1.0
 31
0.0
 73
     2
 44
0.8433729999999998
  0
MTEXT
  5
328
330
1F
100
AcDbEntity
  8
SK2
100
AcDbMText
 10
192.819032
 20
283.696744
 30
0.0
 40
3.5
 41
0.0
 71
     7
 72
     5
  1
\W3.0115;\H2.63;%%c\H3.50;
  7
cesky
 11
0.0000000000000001
 21
1.0
 31
0.0
 73
     2
 44
0.8433729999999998
  0
LINE
  5
329
330
1F
100
AcDbEntity
  8
SK2
100
AcDbLine
 10
206.404842
 20
308.907994
 30
0.0
 11
192.006449
 21
308.907994
 31
0.0
  0
LINE
  5
32A
330
1F
100
AcDbEntity
  8
SK2
100
AcDbLine
 10
206.404842
 20
268.907994
 30
0.0
 11
192.006449
 21
268.907994
 31
0.0
  0
LINE
  5
32B
330
1F
100
AcDbEntity
  8
SK2
100
AcDbLine
 10
193.006449
 20
308.907994
 30
0.0
 11
193.006449
 21
268.907994
 31
0.0
  0
SOLID
  5
32C
330
1F
100
AcDbEntity
  8
SK2
100
AcDbTrace
 10
193.006449
 20
308.907994
 30
0.0
 11
193.623593
 21
305.407996
 31
0.0
 12
192.389304
 22
305.407991
 32
0.0
 13
192.389304
 23
305.407991
 33
0.0
  0
SOLID
  5
32D
330
1F
100
AcDbEntity
  8
SK2
100
AcDbTrace
 10
193.006449
 20
268.907994
 30
0.0
 11
192.389304
 21
272.407991
 31
0.0
 12
193.623593
 22
272.407996
 32
0.0
 13
193.623593
 23
272.407996
 33
0.0
  0
MTEXT
  5
32E
330
1F
100
AcDbEntity
  8
SK2
100
AcDbMText
 10
179.247371
 20
290.434244
 30
0.0
 40
3.5
 41
0.0
 71
     7
 72
     5
  1
\W0.7045;50
  7
cesky
 11
0.0000000000000001
 21
1.0
 31
0.0
 73
     2
 44
0.8433729999999998
  0
MTEXT
  5
32F
330
1F
100
AcDbEntity
  8
SK2
100
AcDbMText
 10
179.247371
 20
283.696744
 30
0.0
 40
3.5
 41
0.0
 71
     7
 72
     5
  1
\W3.0115;\H2.63;%%c\H3.50;
  7
cesky
 11
0.0000000000000001
 21
1.0
 31
0.0
 73
     2
 44
0.8433729999999998
  0
LINE
  5
330
330
1F
100
AcDbEntity
  8
SK2
100
AcDbLine
 10
274.904842
 20
313.907994
 30
0.0
 11
178.434788
 21
313.907994
 31
0.0
  0
LINE
  5
331
330
1F
100
AcDbEntity
  8
SK2
100
AcDbLine
 10
274.904842
 20
263.907994
 30
0.0
 11
178.434788
 21
263.907994
 31
0.0
  0
LINE
  5
332
330
1F
100
AcDbEntity
  8
SK2
100
AcDbLine
 10
179.434788
 20
313.907994
 30
0.0
 11
179.434788
 21
263.907994
 31
0.0
  0
SOLID
  5
333
330
1F
100
AcDbEntity
  8
SK2
100
AcDbTrace
 10
179.434788
 20
313.907994
 30
0.0
 11
180.051932
 21
310.407996
 31
0.0
 12
178.817644
 22
310.407991
 32
0.0
 13
178.817644
 23
310.407991
 33
0.0
  0
SOLID
  5
334
330
1F
100
AcDbEntity
  8
SK2
100
AcDbTrace
 10
179.434788
 20
263.907994
 30
0.0
 11
178.817644
 21
267.4079910000001
 31
0.0
 12
180.051932
 22
267.407996
 32
0.0
 13
180.051932
 23
267.407996
 33
0.0
  0
LINE
  5
335
330
1F
100
AcDbEntity
  8
CUT
100
AcDbLine
 10
362.0284650116673
 20
304.905040926027
 30
0.0
 11
354.0557887655626
 21
304.6107448953678
 31
0.0
  0
LINE
  5
338
330
1F
100
AcDbEntity
  8
CUT
100
AcDbLine
 10
363.2334058386328
 20
296.6126920349482
 30
0.0
 11
363.0928096814857
 21
296.8466642059476
 31
0.0
  0
LINE
  5
33A
330
1F
100
AcDbEntity
  8
CUT
100
AcDbLine
 10
363.3998607906599
 20
289.3480174300097
 30
0.0
 11
363.2754235247554
 21
296.4661715315233
 31
0.0
  0
LINE
  5
33B
330
1F
100
AcDbEntity
  8
CUT
100
AcDbLine
 10
363.0928096814857
 20
296.8466642059476
 30
0.0
 11
362.8286060818003
 21
304.1627035294018
 31
0.0
  0
LINE
  5
33C
330
1F
100
AcDbEntity
  8
CUT
100
AcDbLine
 10
353.31121
 20
288.907994
 30
0.0
 11
363.399861
 21
288.907994
 31
0.0
  0
LINE
  5
33D
330
1F
100
AcDbEntity
  8
CUT
100
AcDbLine
 10
353.31121
 20
303.810957
 30
0.0
 11
353.31121
 21
288.907994
 31
0.0
  0
LINE
  5
33E
330
1F
100
AcDbEntity
  8
CUT
100
AcDbLine
 10
363.399861
 20
288.907994
 30
0.0
 11
363.399861
 21
289.348017
 31
0.0
  0
ARC
  5
33F
330
1F
100
AcDbEntity
  8
CUT
100
AcDbCircle
 10
362.0489229055873
 20
304.1250526505588
 30
0.0
 40
0.7805917267992275
100
AcDbArc
 50
2.764663937081933
 51
88.73315824083828
  0
ARC
  5
340
330
1F
100
AcDbEntity
  8
CUT
100
AcDbCircle
 10
362.0552550779866
 20
304.1802597116495
 30
0.0
 40
0.7252761655864432
100
AcDbArc
 50
89.13684941076875
 51
92.11685847258468
  0
ARC
  5
341
330
1F
100
AcDbEntity
  8
CUT
100
AcDbCircle
 10
354.0933048558021
 20
303.8287679329229
 30
0.0
 40
0.7828763802935299
100
AcDbArc
 50
92.74671357169649
 51
177.1591482308863
  0
ARC
  5
342
330
1F
100
AcDbEntity
  8
CUT
100
AcDbCircle
 10
354.0350624919294
 20
303.8369500538678
 30
0.0
 40
0.7243193563180855
100
AcDbArc
 50
177.577247532105
 51
182.0565603400921
  0
LINE
  5
343
330
1F
100
AcDbEntity
  8
CUT
100
AcDbLine
 10
363.2754235247554
 20
296.4661715315234
 30
0.0
 11
363.2754235247554
 21
296.4661715315234
 31
0.0
  0
ARC
  5
344
330
1F
100
AcDbEntity
  8
CUT
100
AcDbCircle
 10
362.9810609915984
 20
296.4610421429985
 30
0.0
 40
0.2944072206201145
100
AcDbArc
 50
0.9983015498348002
 51
31.00430570028362
  0
ENDSEC
  0
SECTION
  2
OBJECTS
  0
DICTIONARY
  5
C
330
0
100
AcDbDictionary
281
     1
  3
ACAD_CIP_PREVIOUS_PRODUCT_INFO
350
307
  3
ACAD_COLOR
350
302
  3
ACAD_DETAILVIEWSTYLE
350
2FE
  3
ACAD_GROUP
350
D
  3
ACAD_LAYOUT
350
1A
  3
ACAD_MATERIAL
350
43
  3
ACAD_MLEADERSTYLE
350
6B
  3
ACAD_MLINESTYLE
350
17
  3
ACAD_PLOTSETTINGS
350
19
  3
ACAD_PLOTSTYLENAME
350
E
  3
ACAD_SCALELIST
350
47
  3
ACAD_SECTIONVIEWSTYLE
350
2FF
  3
ACAD_TABLESTYLE
350
69
  3
ACAD_VISUALSTYLE
350
2A
  3
ACDB_RECOMPOSE_DATA
350
370
  3
AcDbVariableDictionary
350
2BB
  0
DICTIONARY
  5
353
330
10
100
AcDbDictionary
280
     1
281
     1
  3
ADSK_XREC_LAYER_RECONCILED
360
354
  0
DICTIONARY
  5
355
330
345
100
AcDbDictionary
280
     1
281
     1
  3
ADSK_XREC_LAYER_RECONCILED
360
356
  0
DICTIONARY
  5
357
330
346
100
AcDbDictionary
280
     1
281
     1
  3
ADSK_XREC_LAYER_RECONCILED
360
358
  0
DICTIONARY
  5
359
330
347
100
AcDbDictionary
280
     1
281
     1
  3
ADSK_XREC_LAYER_RECONCILED
360
35A
  0
DICTIONARY
  5
35B
330
349
100
AcDbDictionary
280
     1
281
     1
  3
ADSK_XREC_LAYER_RECONCILED
360
35C
  0
DICTIONARY
  5
35D
330
34A
100
AcDbDictionary
280
     1
281
     1
  3
ADSK_XREC_LAYER_RECONCILED
360
35E
  0
DICTIONARY
  5
35F
330
34C
100
AcDbDictionary
280
     1
281
     1
  3
ADSK_XREC_LAYER_RECONCILED
360
360
  0
DICTIONARY
  5
361
330
34D
100
AcDbDictionary
280
     1
281
     1
  3
ADSK_XREC_LAYER_RECONCILED
360
362
  0
DICTIONARY
  5
363
330
34E
100
AcDbDictionary
280
     1
281
     1
  3
ADSK_XREC_LAYER_RECONCILED
360
364
  0
DICTIONARY
  5
365
330
34F
100
AcDbDictionary
280
     1
281
     1
  3
ADSK_XREC_LAYER_RECONCILED
360
366
  0
DICTIONARY
  5
367
330
350
100
AcDbDictionary
280
     1
281
     1
  3
ADSK_XREC_LAYER_RECONCILED
360
368
  0
DICTIONARY
  5
369
330
351
100
AcDbDictionary
280
     1
281
     1
  3
ADSK_XREC_LAYER_RECONCILED
360
36A
  0
DICTIONARY
  5
308
330
1F
100
AcDbDictionary
280
     1
281
     1
  3
ACAD_SORTENTS
360
309
  0
XRECORD
  5
307
102
{ACAD_REACTORS
330
C
102
}
330
C
100
AcDbXrecord
280
     1
300
ACD
300
2019
300
87084ACD_2019_0F
  0
DICTIONARY
  5
302
102
{ACAD_REACTORS
330
C
102
}
330
C
100
AcDbDictionary
281
     1
  0
DICTIONARY
  5
2FE
102
{ACAD_REACTORS
330
C
102
}
330
C
100
AcDbDictionary
281
     1
  3
Metric50
350
304
  0
DICTIONARY
  5
D
102
{ACAD_REACTORS
330
C
102
}
330
C
100
AcDbDictionary
281
     1
  3
NULOVY_BOD
350
352
  0
DICTIONARY
  5
1A
102
{ACAD_REACTORS
330
C
102
}
330
C
100
AcDbDictionary
281
     1
  3
Layout1
350
1E
  3
Layout2
350
26
  3
Model
350
22
  0
DICTIONARY
  5
43
102
{ACAD_REACTORS
330
C
102
}
330
C
100
AcDbDictionary
281
     1
  3
ByBlock
350
45
  3
ByLayer
350
44
  3
Global
350
46
  0
DICTIONARY
  5
6B
102
{ACAD_REACTORS
330
C
102
}
330
C
100
AcDbDictionary
281
     1
  3
Standard
350
6C
  0
DICTIONARY
  5
17
102
{ACAD_REACTORS
330
C
102
}
330
C
100
AcDbDictionary
281
     1
  3
Standard
350
18
  0
DICTIONARY
  5
19
102
{ACAD_REACTORS
330
C
102
}
330
C
100
AcDbDictionary
281
     1
  0
ACDBDICTIONARYWDFLT
  5
E
102
{ACAD_REACTORS
330
C
102
}
330
C
100
AcDbDictionary
281
     1
  3
Normal
350
F
100
AcDbDictionaryWithDefault
340
F
  0
DICTIONARY
  5
47
102
{ACAD_REACTORS
330
C
102
}
330
C
100
AcDbDictionary
281
     1
  3
A0
350
48
  3
A1
350
49
  3
A2
350
4A
  3
A3
350
4B
  3
A4
350
4C
  3
A5
350
4D
  3
A6
350
4E
  3
A7
350
4F
  3
A8
350
50
  3
A9
350
51
  3
B0
350
52
  3
B1
350
53
  3
B2
350
54
  3
B3
350
55
  3
B4
350
56
  3
B5
350
57
  3
B6
350
58
  3
B7
350
59
  3
B8
350
5A
  3
B9
350
5B
  3
C0
350
5C
  3
C1
350
5D
  3
C2
350
5E
  3
C3
350
5F
  3
C4
350
60
  3
C5
350
61
  3
C6
350
62
  3
C7
350
63
  3
C8
350
64
  3
C9
350
65
  3
D0
350
66
  3
D1
350
67
  3
D2
350
68
  0
DICTIONARY
  5
2FF
102
{ACAD_REACTORS
330
C
102
}
330
C
100
AcDbDictionary
281
     1
  3
Metric50
350
303
  0
DICTIONARY
  5
69
102
{ACAD_REACTORS
330
C
102
}
330
C
100
AcDbDictionary
281
     1
  3
Standard
350
6A
  0
DICTIONARY
  5
2A
102
{ACAD_REACTORS
330
C
102
}
330
C
100
AcDbDictionary
281
     1
  3
2dWireframe
350
2F
  3
Basic
350
32
  3
Brighten
350
36
  3
ColorChange
350
3A
  3
Conceptual
350
34
  3
Dim
350
35
  3
EdgeColorOff
350
3D
  3
Facepattern
350
39
  3
Flat
350
2B
  3
FlatWithEdges
350
2C
  3
Gouraud
350
2D
  3
GouraudWithEdges
350
2E
  3
Hidden
350
31
  3
JitterOff
350
3B
  3
Linepattern
350
38
  3
OverhangOff
350
3C
  3
Realistic
350
33
  3
Shaded
350
42
  3
Shaded with edges
350
41
  3
Shades of Gray
350
3E
  3
Sketchy
350
3F
  3
Thicken
350
37
  3
Wireframe
350
30
  3
X-Ray
350
40
  0
XRECORD
  5
370
102
{ACAD_REACTORS
330
C
102
}
330
C
100
AcDbXrecord
280
     1
 90
        1
330
6A
  0
DICTIONARY
  5
2BB
102
{ACAD_REACTORS
330
C
102
}
330
C
100
AcDbDictionary
281
     1
  3
CANNOSCALE
350
2BC
  3
CMLEADERSTYLE
350
2FD
  3
CTABLESTYLE
350
2FC
  3
CVIEWDETAILSTYLE
350
36B
  3
CVIEWSECTIONSTYLE
350
36C
  3
MSLTSCALE
350
2BD
  3
XCLIPFRAME
350
36D
  0
XRECORD
  5
354
102
{ACAD_REACTORS
330
353
102
}
330
353
100
AcDbXrecord
280
     1
290
     1
  0
XRECORD
  5
356
102
{ACAD_REACTORS
330
355
102
}
330
355
100
AcDbXrecord
280
     1
290
     1
  0
XRECORD
  5
358
102
{ACAD_REACTORS
330
357
102
}
330
357
100
AcDbXrecord
280
     1
290
     1
  0
XRECORD
  5
35A
102
{ACAD_REACTORS
330
359
102
}
330
359
100
AcDbXrecord
280
     1
290
     1
  0
XRECORD
  5
35C
102
{ACAD_REACTORS
330
35B
102
}
330
35B
100
AcDbXrecord
280
     1
290
     1
  0
XRECORD
  5
35E
102
{ACAD_REACTORS
330
35D
102
}
330
35D
100
AcDbXrecord
280
     1
290
     1
  0
XRECORD
  5
360
102
{ACAD_REACTORS
330
35F
102
}
330
35F
100
AcDbXrecord
280
     1
290
     1
  0
XRECORD
  5
362
102
{ACAD_REACTORS
330
361
102
}
330
361
100
AcDbXrecord
280
     1
290
     1
  0
XRECORD
  5
364
102
{ACAD_REACTORS
330
363
102
}
330
363
100
AcDbXrecord
280
     1
290
     1
  0
XRECORD
  5
366
102
{ACAD_REACTORS
330
365
102
}
330
365
100
AcDbXrecord
280
     1
290
     1
  0
XRECORD
  5
368
102
{ACAD_REACTORS
330
367
102
}
330
367
100
AcDbXrecord
280
     1
290
     1
  0
XRECORD
  5
36A
102
{ACAD_REACTORS
330
369
102
}
330
369
100
AcDbXrecord
280
     1
290
     1
  0
SORTENTSTABLE
  5
309
102
{ACAD_REACTORS
330
308
102
}
330
308
100
AcDbSortentsTable
330
1F
331
30A
  5
215
331
30B
  5
22E
331
30C
  5
30A
331
30D
  5
30B
331
30E
  5
30C
331
30F
  5
31D
331
310
  5
31E
331
311
  5
31F
331
312
  5
320
331
313
  5
321
331
314
  5
322
331
315
  5
323
331
316
  5
324
331
317
  5
325
331
318
  5
326
331
319
  5
327
331
31A
  5
328
331
31B
  5
329
331
31C
  5
32A
331
31D
  5
32B
331
31E
  5
32C
331
31F
  5
32D
331
320
  5
32E
331
321
  5
32F
331
322
  5
330
331
323
  5
331
331
324
  5
332
331
325
  5
333
331
326
  5
334
331
327
  5
30F
331
328
  5
310
331
329
  5
311
331
32A
  5
312
331
32B
  5
313
331
32C
  5
314
331
32D
  5
315
331
32E
  5
316
331
32F
  5
317
331
330
  5
318
331
331
  5
319
331
332
  5
31A
331
333
  5
31B
331
334
  5
31C
331
338
  5
33D
331
33A
  5
340
331
33B
  5
341
331
33C
  5
342
331
33D
  5
343
331
33E
  5
344
331
33F
  5
338
331
340
  5
33A
331
341
  5
33B
331
342
  5
33C
331
343
  5
33E
331
344
  5
33F
  0
ACDBDETAILVIEWSTYLE
  5
304
102
{ACAD_XDICTIONARY
360
3A4
102
}
102
{ACAD_REACTORS
330
2FE
102
}
330
2FE
100
AcDbModelDocViewStyle
 70
     0
  3
Metric50
290
     0
100
AcDbDetailViewStyle
 70
     0
 71
     0
 90
        3
 71
     1
340
11
 62
   256
 40
5.0
340
0
 62
   256
 40
5.0
300

 40
0.0
280
     1
 71
     2
340
16
 90
       25
 62
   256
 71
     3
340
11
 62
   256
 40
5.0
 90
        0
 40
15.0
 90
        1
300
%<\AcVar ViewDetailId>% (%<\AcVar ViewScale \f "%sn">%)
 71
     4
340
16
 90
       25
 62
   256
340
16
 90
       25
 62
   256
280
     0
  0
GROUP
  5
352
102
{ACAD_REACTORS
330
D
102
}
330
D
100
AcDbGroup
300

 70
     0
 71
     1
340
73
  0
LAYOUT
  5
1E
102
{ACAD_REACTORS
330
1A
102
}
330
1A
100
AcDbPlotSettings
  1

  2
none_device
  4

  6

 40
0.0
 41
0.0
 42
0.0
 43
0.0
 44
0.0
 45
0.0
 46
0.0
 47
0.0
 48
0.0
 49
0.0
140
0.0
141
0.0
142
1.0
143
1.0
 70
   688
 72
     0
 73
     0
 74
     5
  7

 75
    16
147
1.0
 76
     0
 77
     2
 78
   300
148
0.0
149
0.0
100
AcDbLayout
  1
Layout1
 70
     1
 71
     1
 10
-0.5
 20
-0.5
 11
5.0
 21
5.0
 12
0.0
 22
0.0
 32
0.0
 14
-0.5
 24
-0.5
 34
-0.5
 15
5.0
 25
5.0
 35
5.0
146
0.0
 13
0.0
 23
0.0
 33
0.0
 16
1.0
 26
0.0
 36
0.0
 17
0.0
 27
1.0
 37
0.0
 76
     0
330
1B
  0
LAYOUT
  5
26
102
{ACAD_REACTORS
330
1A
102
}
330
1A
100
AcDbPlotSettings
  1

  2
none_device
  4

  6

 40
0.0
 41
0.0
 42
0.0
 43
0.0
 44
0.0
 45
0.0
 46
0.0
 47
0.0
 48
0.0
 49
0.0
140
0.0
141
0.0
142
1.0
143
1.0
 70
   688
 72
     0
 73
     0
 74
     5
  7

 75
    16
147
1.0
 76
     0
 77
     2
 78
   300
148
0.0
149
0.0
100
AcDbLayout
  1
Layout2
 70
     1
 71
     2
 10
0.0
 20
0.0
 11
0.0
 21
0.0
 12
0.0
 22
0.0
 32
0.0
 14
0.0
 24
0.0
 34
0.0
 15
0.0
 25
0.0
 35
0.0
146
0.0
 13
0.0
 23
0.0
 33
0.0
 16
1.0
 26
0.0
 36
0.0
 17
0.0
 27
1.0
 37
0.0
 76
     0
330
23
  0
LAYOUT
  5
22
102
{ACAD_REACTORS
330
1A
102
}
330
1A
100
AcDbPlotSettings
  1

  2
none_device
  4
Letter_(8.50_x_11.00_Inches)
  6

 40
6.349999999999999
 41
6.349999999999999
 42
6.350005
 43
6.350005
 44
215.9
 45
279.4
 46
0.0
 47
0.0
 48
0.0
 49
0.0
140
0.0
141
0.0
142
1.0
143
1.0
 70
  1712
 72
     0
 73
     0
 74
     0
  7

 75
     0
147
1.0
 76
     0
 77
     2
 78
   300
148
0.0
149
0.0
100
AcDbLayout
  1
Model
 70
     1
 71
     0
 10
-0.5
 20
-0.5
 11
5.0
 21
5.0
 12
0.0
 22
0.0
 32
0.0
 14
-0.5
 24
-0.5
 34
-0.5
 15
5.0
 25
5.0
 35
5.0
146
0.0
 13
0.0
 23
0.0
 33
0.0
 16
1.0
 26
0.0
 36
0.0
 17
0.0
 27
1.0
 37
0.0
 76
     0
330
1F
331
29
  0
MATERIAL
  5
45
102
{ACAD_XDICTIONARY
360
2F1
102
}
102
{ACAD_REACTORS
330
43
102
}
330
43
100
AcDbMaterial
  1
ByBlock
  0
MATERIAL
  5
44
102
{ACAD_XDICTIONARY
360
2EF
102
}
102
{ACAD_REACTORS
330
43
102
}
330
43
100
AcDbMaterial
  1
ByLayer
  0
MATERIAL
  5
46
102
{ACAD_XDICTIONARY
360
2F3
102
}
102
{ACAD_REACTORS
330
43
102
}
330
43
100
AcDbMaterial
  1
Global
  0
MLEADERSTYLE
  5
6C
102
{ACAD_REACTORS
330
6B
102
}
330
6B
100
AcDbMLeaderStyle
170
     2
171
     1
172
     0
 90
        2
 40
0.0
 41
0.0
173
     1
 91
-1056964608
340
14
 92
       -2
290
     1
 42
0.09
291
     1
 43
0.36
  3
Standard
 44
0.18
300

342
11
174
     1
178
     6
175
     1
176
     0
 93
-1056964608
 45
0.18
292
     0
297
     0
 46
0.18
 94
-1056964608
 47
1.0
 49
1.0
140
1.0
293
     1
141
0.0
294
     1
177
     0
142
1.0
295
     0
296
     0
143
0.125
1001
ACAD_MLEADERVER
1070
     2
  0
MLINESTYLE
  5
18
102
{ACAD_REACTORS
330
17
102
}
330
17
100
AcDbMlineStyle
  2
STANDARD
 70
     0
  3

 62
   256
 51
90.0
 52
90.0
 71
     2
 49
0.5
 62
   256
  6
BYLAYER
 49
-0.5
 62
   256
  6
BYLAYER
  0
ACDBPLACEHOLDER
  5
F
102
{ACAD_REACTORS
330
E
102
}
330
E
  0
SCALE
  5
48
102
{ACAD_REACTORS
330
47
102
}
330
47
100
AcDbScale
 70
     0
300
1:1
140
1.0
141
1.0
290
     1
  0
SCALE
  5
49
102
{ACAD_REACTORS
330
47
102
}
330
47
100
AcDbScale
 70
     0
300
1:2
140
1.0
141
2.0
290
     0
  0
SCALE
  5
4A
102
{ACAD_REACTORS
330
47
102
}
330
47
100
AcDbScale
 70
     0
300
1:4
140
1.0
141
4.0
290
     0
  0
SCALE
  5
4B
102
{ACAD_REACTORS
330
47
102
}
330
47
100
AcDbScale
 70
     0
300
1:5
140
1.0
141
5.0
290
     0
  0
SCALE
  5
4C
102
{ACAD_REACTORS
330
47
102
}
330
47
100
AcDbScale
 70
     0
300
1:8
140
1.0
141
8.0
290
     0
  0
SCALE
  5
4D
102
{ACAD_REACTORS
330
47
102
}
330
47
100
AcDbScale
 70
     0
300
1:10
140
1.0
141
10.0
290
     0
  0
SCALE
  5
4E
102
{ACAD_REACTORS
330
47
102
}
330
47
100
AcDbScale
 70
     0
300
1:16
140
1.0
141
16.0
290
     0
  0
SCALE
  5
4F
102
{ACAD_REACTORS
330
47
102
}
330
47
100
AcDbScale
 70
     0
300
1:20
140
1.0
141
20.0
290
     0
  0
SCALE
  5
50
102
{ACAD_REACTORS
330
47
102
}
330
47
100
AcDbScale
 70
     0
300
1:30
140
1.0
141
30.0
290
     0
  0
SCALE
  5
51
102
{ACAD_REACTORS
330
47
102
}
330
47
100
AcDbScale
 70
     0
300
1:40
140
1.0
141
40.0
290
     0
  0
SCALE
  5
52
102
{ACAD_REACTORS
330
47
102
}
330
47
100
AcDbScale
 70
     0
300
1:50
140
1.0
141
50.0
290
     0
  0
SCALE
  5
53
102
{ACAD_REACTORS
330
47
102
}
330
47
100
AcDbScale
 70
     0
300
1:100
140
1.0
141
100.0
290
     0
  0
SCALE
  5
54
102
{ACAD_REACTORS
330
47
102
}
330
47
100
AcDbScale
 70
     0
300
2:1
140
2.0
141
1.0
290
     0
  0
SCALE
  5
55
102
{ACAD_REACTORS
330
47
102
}
330
47
100
AcDbScale
 70
     0
300
4:1
140
4.0
141
1.0
290
     0
  0
SCALE
  5
56
102
{ACAD_REACTORS
330
47
102
}
330
47
100
AcDbScale
 70
     0
300
8:1
140
8.0
141
1.0
290
     0
  0
SCALE
  5
57
102
{ACAD_REACTORS
330
47
102
}
330
47
100
AcDbScale
 70
     0
300
10:1
140
10.0
141
1.0
290
     0
  0
SCALE
  5
58
102
{ACAD_REACTORS
330
47
102
}
330
47
100
AcDbScale
 70
     0
300
100:1
140
100.0
141
1.0
290
     0
  0
SCALE
  5
59
102
{ACAD_REACTORS
330
47
102
}
330
47
100
AcDbScale
 70
     0
300
1/128" = 1'-0"
140
0.007812
141
12.0
290
     0
  0
SCALE
  5
5A
102
{ACAD_REACTORS
330
47
102
}
330
47
100
AcDbScale
 70
     0
300
1/64" = 1'-0"
140
0.015625
141
12.0
290
     0
  0
SCALE
  5
5B
102
{ACAD_REACTORS
330
47
102
}
330
47
100
AcDbScale
 70
     0
300
1/32" = 1'-0"
140
0.03125
141
12.0
290
     0
  0
SCALE
  5
5C
102
{ACAD_REACTORS
330
47
102
}
330
47
100
AcDbScale
 70
     0
300
1/16" = 1'-0"
140
0.0625
141
12.0
290
     0
  0
SCALE
  5
5D
102
{ACAD_REACTORS
330
47
102
}
330
47
100
AcDbScale
 70
     0
300
3/32" = 1'-0"
140
0.09375
141
12.0
290
     0
  0
SCALE
  5
5E
102
{ACAD_REACTORS
330
47
102
}
330
47
100
AcDbScale
 70
     0
300
1/8" = 1'-0"
140
0.125
141
12.0
290
     0
  0
SCALE
  5
5F
102
{ACAD_REACTORS
330
47
102
}
330
47
100
AcDbScale
 70
     0
300
3/16" = 1'-0"
140
0.1875
141
12.0
290
     0
  0
SCALE
  5
60
102
{ACAD_REACTORS
330
47
102
}
330
47
100
AcDbScale
 70
     0
300
1/4" = 1'-0"
140
0.25
141
12.0
290
     0
  0
SCALE
  5
61
102
{ACAD_REACTORS
330
47
102
}
330
47
100
AcDbScale
 70
     0
300
3/8" = 1'-0"
140
0.375
141
12.0
290
     0
  0
SCALE
  5
62
102
{ACAD_REACTORS
330
47
102
}
330
47
100
AcDbScale
 70
     0
300
1/2" = 1'-0"
140
0.5
141
12.0
290
     0
  0
SCALE
  5
63
102
{ACAD_REACTORS
330
47
102
}
330
47
100
AcDbScale
 70
     0
300
3/4" = 1'-0"
140
0.75
141
12.0
290
     0
  0
SCALE
  5
64
102
{ACAD_REACTORS
330
47
102
}
330
47
100
AcDbScale
 70
     0
300
1" = 1'-0"
140
1.0
141
12.0
290
     0
  0
SCALE
  5
65
102
{ACAD_REACTORS
330
47
102
}
330
47
100
AcDbScale
 70
     0
300
1-1/2" = 1'-0"
140
1.5
141
12.0
290
     0
  0
SCALE
  5
66
102
{ACAD_REACTORS
330
47
102
}
330
47
100
AcDbScale
 70
     0
300
3" = 1'-0"
140
3.0
141
12.0
290
     0
  0
SCALE
  5
67
102
{ACAD_REACTORS
330
47
102
}
330
47
100
AcDbScale
 70
     0
300
6" = 1'-0"
140
6.0
141
12.0
290
     0
  0
SCALE
  5
68
102
{ACAD_REACTORS
330
47
102
}
330
47
100
AcDbScale
 70
     0
300
1'-0" = 1'-0"
140
12.0
141
12.0
290
     0
  0
ACDBSECTIONVIEWSTYLE
  5
303
102
{ACAD_XDICTIONARY
360
3A2
102
}
102
{ACAD_REACTORS
330
2FF
102
}
330
2FF
100
AcDbModelDocViewStyle
 70
     0
  3
Metric50
290
     0
100
AcDbSectionViewStyle
 70
     0
 71
     0
 90
      102
 71
     1
340
11
 62
   256
 40
5.0
340
0
340
0
 62
   256
 40
5.0
300
I, O, Q, S, X, Z
 40
10.0
 90
        0
 40
2.5
 90
        0
 71
     2
340
16
 90
       25
 62
   256
340
16
 90
       50
 62
   256
 40
5.0
 40
2.5
 40
5.0
 71
     3
340
11
 62
   256
 40
5.0
 90
        0
 40
15.0
 90
        1
300
%<\AcVar ViewSectionStartId>%-%<\AcVar ViewSectionEndId>% (%<\AcVar ViewScale \f "%sn">%)
 71
     4
 62
   256
 62
   257
300
ANSI31
 40
1.0
 90
        0
290
     0
290
     0
 90
        6
 40
0.0
 40
1.570796326794896
 40
0.2617993877991494
 40
1.308996938995747
 40
-0.2617993877991494
 40
1.832595714594046
  0
TABLESTYLE
  5
6A
102
{ACAD_XDICTIONARY
360
2F5
102
}
102
{ACAD_REACTORS
330
69
102
}
330
69
100
AcDbTableStyle
  3
Standard
 70
     0
 71
     0
 40
0.06
 41
0.06
280
     0
281
     0
  7
Standard
140
0.18
170
     2
 62
     0
 63
     7
283
     0
274
    -2
284
     1
 64
     0
275
    -2
285
     1
 65
     0
276
    -2
286
     1
 66
     0
277
    -2
287
     1
 67
     0
278
    -2
288
     1
 68
     0
279
    -2
289
     1
 69
     0
  7
Standard
140
0.25
170
     5
 62
     0
 63
     7
283
     0
274
    -2
284
     1
 64
     0
275
    -2
285
     1
 65
     0
276
    -2
286
     1
 66
     0
277
    -2
287
     1
 67
     0
278
    -2
288
     1
 68
     0
279
    -2
289
     1
 69
     0
  7
Standard
140
0.18
170
     5
 62
     0
 63
     7
283
     0
274
    -2
284
     1
 64
     0
275
    -2
285
     1
 65
     0
276
    -2
286
     1
 66
     0
277
    -2
287
     1
 67
     0
278
    -2
288
     1
 68
     0
279
    -2
289
     1
 69
     0
  0
VISUALSTYLE
  5
2F
102
{ACAD_XDICTIONARY
360
379
102
}
102
{ACAD_REACTORS
330
2A
102
}
330
2A
100
AcDbVisualStyle
  2

 70
     4
 71
     0
 72
     2
 73
     0
 90
        0
 40
-0.6
 41
-30.0
 62
     5
 63
     7
421
 16777215
 74
     1
 91
        4
 64
     7
 65
   257
 75
     1
175
     1
 42
1.0
 92
        0
 66
   257
 43
1.0
 76
     1
 77
     6
 78
     2
 67
     7
 79
     5
170
     0
171
     0
290
     0
174
     0
 93
        1
 44
0.0
173
     0
291
     0
 45
0.0
1001
ACAD
1000
AcDbSavedByObjectVersion
1070
     0
  0
VISUALSTYLE
  5
32
102
{ACAD_XDICTIONARY
360
37F
102
}
102
{ACAD_REACTORS
330
2A
102
}
330
2A
100
AcDbVisualStyle
  2

 70
     7
 71
     1
 72
     0
 73
     1
 90
        0
 40
-0.6
 41
-30.0
 62
     5
 63
     7
421
 16777215
 74
     0
 91
        4
 64
     7
 65
   257
 75
     1
175
     1
 42
1.0
 92
        8
 66
     7
 43
1.0
 76
     1
 77
     6
 78
     2
 67
     7
 79
     5
170
     0
171
     0
290
     0
174
     0
 93
        1
 44
0.0
173
     0
291
     1
 45
0.0
1001
ACAD
1000
AcDbSavedByObjectVersion
1070
     0
  0
VISUALSTYLE
  5
36
102
{ACAD_XDICTIONARY
360
387
102
}
102
{ACAD_REACTORS
330
2A
102
}
330
2A
100
AcDbVisualStyle
  2

 70
    12
 71
     2
 72
     2
 73
     0
 90
        0
 40
-0.6
 41
-30.0
 62
     5
 63
     7
421
 16777215
 74
     1
 91
        4
 64
     7
 65
   257
 75
     1
175
     1
 42
1.0
 92
        8
 66
     7
 43
1.0
 76
     1
 77
     6
 78
     2
 67
     7
 79
     5
170
     0
171
     0
290
     0
174
     0
 93
        1
 44
50.0
173
     0
291
     1
 45
0.0
1001
ACAD
1000
AcDbSavedByObjectVersion
1070
     0
  0
VISUALSTYLE
  5
3A
102
{ACAD_XDICTIONARY
360
38F
102
}
102
{ACAD_REACTORS
330
2A
102
}
330
2A
100
AcDbVisualStyle
  2

 70
    16
 71
     2
 72
     2
 73
     3
 90
        0
 40
-0.6
 41
-30.0
 62
     5
 63
     8
421
  8421504
 74
     1
 91
        4
 64
     7
 65
   257
 75
     1
175
     1
 42
1.0
 92
        8
 66
     8
424
  8421504
 43
1.0
 76
     1
 77
     6
 78
     2
 67
     7
 79
     5
170
     0
171
     0
290
     0
174
     0
 93
        1
 44
0.0
173
     0
291
     1
 45
0.0
1001
ACAD
1000
AcDbSavedByObjectVersion
1070
     0
  0
VISUALSTYLE
  5
34
102
{ACAD_XDICTIONARY
360
383
102
}
102
{ACAD_REACTORS
330
2A
102
}
330
2A
100
AcDbVisualStyle
  2

 70
     9
 71
     3
 72
     2
 73
     0
 90
        0
 40
-0.6
 41
-30.0
 62
     5
 63
     7
421
 16777215
 74
     2
 91
        2
 64
     7
 65
   257
 75
     1
175
     1
 42
179.0
 92
        8
 66
     7
 43
1.0
 76
     1
 77
     6
 78
     2
 67
     7
 79
     3
170
     0
171
     0
290
     0
174
     0
 93
        1
 44
0.0
173
     0
291
     0
 45
0.0
1001
ACAD
1000
AcDbSavedByObjectVersion
1070
     0
  0
VISUALSTYLE
  5
35
102
{ACAD_XDICTIONARY
360
385
102
}
102
{ACAD_REACTORS
330
2A
102
}
330
2A
100
AcDbVisualStyle
  2

 70
    11
 71
     2
 72
     2
 73
     0
 90
        0
 40
-0.6
 41
-30.0
 62
     5
 63
     7
421
 16777215
 74
     1
 91
        4
 64
     7
 65
   257
 75
     1
175
     1
 42
1.0
 92
        8
 66
     7
 43
1.0
 76
     1
 77
     6
 78
     2
 67
     7
 79
     5
170
     0
171
     0
290
     0
174
     0
 93
        1
 44
-50.0
173
     0
291
     1
 45
0.0
1001
ACAD
1000
AcDbSavedByObjectVersion
1070
     0
  0
VISUALSTYLE
  5
3D
102
{ACAD_XDICTIONARY
360
395
102
}
102
{ACAD_REACTORS
330
2A
102
}
330
2A
100
AcDbVisualStyle
  2

 70
    22
 71
     2
 72
     2
 73
     0
 90
        0
 40
-0.6
 41
-30.0
 62
     5
 63
     7
421
 16777215
 74
     1
 91
        4
 64
     7
 65
   257
 75
     1
175
     1
 42
1.0
 92
        8
 66
     7
 43
1.0
 76
     1
 77
     6
 78
     2
 67
     7
 79
     5
170
     0
171
     0
290
     0
174
     0
 93
        1
 44
0.0
173
     0
291
     1
 45
0.0
1001
ACAD
1000
AcDbSavedByObjectVersion
1070
     0
  0
VISUALSTYLE
  5
39
102
{ACAD_XDICTIONARY
360
38D
102
}
102
{ACAD_REACTORS
330
2A
102
}
330
2A
100
AcDbVisualStyle
  2

 70
    15
 71
     2
 72
     2
 73
     0
 90
        0
 40
-0.6
 41
-30.0
 62
     5
 63
     7
421
 16777215
 74
     1
 91
        4
 64
     7
 65
   257
 75
     1
175
     1
 42
1.0
 92
        8
 66
     7
 43
1.0
 76
     1
 77
     6
 78
     2
 67
     7
 79
     5
170
     0
171
     0
290
     0
174
     0
 93
        1
 44
0.0
173
     0
291
     1
 45
0.0
1001
ACAD
1000
AcDbSavedByObjectVersion
1070
     0
  0
VISUALSTYLE
  5
2B
102
{ACAD_XDICTIONARY
360
371
102
}
102
{ACAD_REACTORS
330
2A
102
}
330
2A
100
AcDbVisualStyle
  2

 70
     0
 71
     2
 72
     1
 73
     1
 90
        2
 40
-0.6
 41
30.0
 62
     5
 63
     7
421
 16777215
 74
     0
 91
        0
 64
     7
 65
   257
 75
     1
175
     1
 42
1.0
 92
        8
 66
     7
 43
1.0
 76
     1
 77
     6
 78
     2
 67
     7
 79
     5
170
     0
171
     0
290
     0
174
     0
 93
       13
 44
0.0
173
     0
291
     1
 45
0.0
1001
ACAD
1000
AcDbSavedByObjectVersion
1070
     0
  0
VISUALSTYLE
  5
2C
102
{ACAD_XDICTIONARY
360
373
102
}
102
{ACAD_REACTORS
330
2A
102
}
330
2A
100
AcDbVisualStyle
  2

 70
     1
 71
     2
 72
     1
 73
     1
 90
        2
 40
-0.6
 41
30.0
 62
     5
 63
     7
421
 16777215
 74
     1
 91
        0
 64
     7
 65
   257
 75
     1
175
     1
 42
1.0
 92
        0
 66
   257
 43
1.0
 76
     1
 77
     6
 78
     2
 67
     7
 79
     5
170
     0
171
     0
290
     0
174
     0
 93
       13
 44
0.0
173
     0
291
     1
 45
0.0
1001
ACAD
1000
AcDbSavedByObjectVersion
1070
     0
  0
VISUALSTYLE
  5
2D
102
{ACAD_XDICTIONARY
360
375
102
}
102
{ACAD_REACTORS
330
2A
102
}
330
2A
100
AcDbVisualStyle
  2

 70
     2
 71
     2
 72
     2
 73
     1
 90
        2
 40
-0.6
 41
30.0
 62
     5
 63
     7
421
 16777215
 74
     0
 91
        0
 64
     7
 65
   257
 75
     1
175
     1
 42
1.0
 92
        0
 66
     7
 43
1.0
 76
     1
 77
     6
 78
     2
 67
     7
 79
     5
170
     0
171
     0
290
     0
174
     0
 93
       13
 44
0.0
173
     0
291
     1
 45
0.0
1001
ACAD
1000
AcDbSavedByObjectVersion
1070
     0
  0
VISUALSTYLE
  5
2E
102
{ACAD_XDICTIONARY
360
377
102
}
102
{ACAD_REACTORS
330
2A
102
}
330
2A
100
AcDbVisualStyle
  2

 70
     3
 71
     2
 72
     2
 73
     1
 90
        2
 40
-0.6
 41
30.0
 62
     5
 63
     7
421
 16777215
 74
     1
 91
        0
 64
     7
 65
   257
 75
     1
175
     1
 42
1.0
 92
        0
 66
   257
 43
1.0
 76
     1
 77
     6
 78
     2
 67
     7
 79
     5
170
     0
171
     0
290
     0
174
     0
 93
       13
 44
0.0
173
     0
291
     1
 45
0.0
1001
ACAD
1000
AcDbSavedByObjectVersion
1070
     0
  0
VISUALSTYLE
  5
31
102
{ACAD_XDICTIONARY
360
37D
102
}
102
{ACAD_REACTORS
330
2A
102
}
330
2A
100
AcDbVisualStyle
  2

 70
     6
 71
     1
 72
     2
 73
     2
 90
        0
 40
-0.6
 41
-30.0
 62
     5
 63
     7
421
 16777215
 74
     2
 91
        2
 64
     7
 65
   257
 75
     2
175
     1
 42
40.0
 92
        0
 66
   257
 43
1.0
 76
     1
 77
     6
 78
     2
 67
     7
 79
     3
170
     0
171
     0
290
     0
174
     0
 93
        1
 44
0.0
173
     0
291
     0
 45
0.0
1001
ACAD
1000
AcDbSavedByObjectVersion
1070
     0
  0
VISUALSTYLE
  5
3B
102
{ACAD_XDICTIONARY
360
391
102
}
102
{ACAD_REACTORS
330
2A
102
}
330
2A
100
AcDbVisualStyle
  2

 70
    20
 71
     2
 72
     2
 73
     0
 90
        0
 40
-0.6
 41
-30.0
 62
     5
 63
     7
421
 16777215
 74
     1
 91
        4
 64
     7
 65
   257
 75
     1
175
     1
 42
1.0
 92
       10
 66
     7
 43
1.0
 76
     1
 77
     6
 78
     2
 67
     7
 79
     5
170
     0
171
     0
290
     0
174
     0
 93
        1
 44
0.0
173
     0
291
     1
 45
0.0
1001
ACAD
1000
AcDbSavedByObjectVersion
1070
     0
  0
VISUALSTYLE
  5
38
102
{ACAD_XDICTIONARY
360
38B
102
}
102
{ACAD_REACTORS
330
2A
102
}
330
2A
100
AcDbVisualStyle
  2

 70
    14
 71
     2
 72
     2
 73
     0
 90
        0
 40
-0.6
 41
-30.0
 62
     5
 63
     7
421
 16777215
 74
     1
 91
        4
 64
     7
 65
   257
 75
     7
175
     7
 42
1.0
 92
        8
 66
     7
 43
1.0
 76
     1
 77
     6
 78
     2
 67
     7
 79
     5
170
     0
171
     0
290
     0
174
     0
 93
        1
 44
0.0
173
     0
291
     1
 45
0.0
1001
ACAD
1000
AcDbSavedByObjectVersion
1070
     0
  0
VISUALSTYLE
  5
3C
102
{ACAD_XDICTIONARY
360
393
102
}
102
{ACAD_REACTORS
330
2A
102
}
330
2A
100
AcDbVisualStyle
  2

 70
    21
 71
     2
 72
     2
 73
     0
 90
        0
 40
-0.6
 41
-30.0
 62
     5
 63
     7
421
 16777215
 74
     1
 91
        4
 64
     7
 65
   257
 75
     1
175
     1
 42
1.0
 92
        9
 66
     7
 43
1.0
 76
     1
 77
     6
 78
     2
 67
     7
 79
     5
170
     0
171
     0
290
     0
174
     0
 93
        1
 44
0.0
173
     0
291
     1
 45
0.0
1001
ACAD
1000
AcDbSavedByObjectVersion
1070
     0
  0
VISUALSTYLE
  5
33
102
{ACAD_XDICTIONARY
360
381
102
}
102
{ACAD_REACTORS
330
2A
102
}
330
2A
100
AcDbVisualStyle
  2

 70
     8
 71
     2
 72
     3
 73
     0
 90
        2
 40
-0.6
 41
30.0
 62
     5
 63
     7
421
 16777215
 74
     0
 91
        0
 64
     7
 65
   257
 75
     1
175
     1
 42
1.0
 92
        8
 66
   257
 43
1.0
 76
     1
 77
     6
 78
     2
 67
     7
 79
     3
170
     0
171
     0
290
     0
174
     0
 93
       13
 44
0.0
173
     0
291
     0
 45
0.0
1001
ACAD
1000
AcDbSavedByObjectVersion
1070
     0
  0
VISUALSTYLE
  5
42
102
{ACAD_XDICTIONARY
360
39F
102
}
102
{ACAD_REACTORS
330
2A
102
}
330
2A
100
AcDbVisualStyle
  2

 70
    27
 71
     2
 72
     2
 73
     1
 90
        2
 40
-0.6
 41
30.0
 62
     5
 63
     7
421
 16777215
 74
     0
 91
        4
 64
     7
 65
   257
 75
     1
175
     1
 42
1.0
 92
        8
 66
   257
 43
1.0
 76
     1
 77
     6
 78
     2
 67
     8
425
  7895160
 79
     3
170
     0
171
     0
290
     0
174
     0
 93
        5
 44
0.0
173
     0
291
     0
 45
0.0
1001
ACAD
1000
AcDbSavedByObjectVersion
1070
     0
  0
VISUALSTYLE
  5
41
102
{ACAD_XDICTIONARY
360
39D
102
}
102
{ACAD_REACTORS
330
2A
102
}
330
2A
100
AcDbVisualStyle
  2

 70
    26
 71
     2
 72
     2
 73
     1
 90
        2
 40
-0.6
 41
30.0
 62
     5
 63
     7
421
 16777215
 74
     1
 91
       10
 64
     7
 65
   257
 75
     2
175
     1
 42
1.0
 92
        8
 66
   257
 43
1.0
 76
     1
 77
     6
 78
     2
 67
     7
 79
     3
170
     0
171
     0
290
     0
174
     0
 93
        5
 44
0.0
173
     0
291
     0
 45
0.0
1001
ACAD
1000
AcDbSavedByObjectVersion
1070
     0
  0
VISUALSTYLE
  5
3E
102
{ACAD_XDICTIONARY
360
397
102
}
102
{ACAD_REACTORS
330
2A
102
}
330
2A
100
AcDbVisualStyle
  2

 70
    23
 71
     2
 72
     2
 73
     3
 90
        0
 40
-0.6
 41
-30.0
 62
     5
 63
     7
421
 16777215
 74
     2
 91
        2
 64
     7
 65
     7
 75
     1
175
     1
 42
40.0
 92
        8
 66
     7
 43
1.0
 76
     1
 77
     6
 78
     2
 67
     7
 79
     3
170
     0
171
     0
290
     0
174
     0
 93
        1
 44
0.0
173
     0
291
     0
 45
0.0
1001
ACAD
1000
AcDbSavedByObjectVersion
1070
     0
  0
VISUALSTYLE
  5
3F
102
{ACAD_XDICTIONARY
360
399
102
}
102
{ACAD_REACTORS
330
2A
102
}
330
2A
100
AcDbVisualStyle
  2

 70
    24
 71
     1
 72
     2
 73
     2
 90
        0
 40
-0.6
 41
-30.0
 62
     5
 63
     7
421
 16777215
 74
     2
 91
        2
 64
     7
 65
     7
 75
     1
175
     1
 42
40.0
 92
       11
 66
     7
 43
1.0
 76
     1
 77
     6
 78
     2
 67
     7
 79
     6
170
     0
171
     0
290
     0
174
     0
 93
        1
 44
0.0
173
     0
291
     0
 45
0.0
1001
ACAD
1000
AcDbSavedByObjectVersion
1070
     0
  0
VISUALSTYLE
  5
37
102
{ACAD_XDICTIONARY
360
389
102
}
102
{ACAD_REACTORS
330
2A
102
}
330
2A
100
AcDbVisualStyle
  2

 70
    13
 71
     2
 72
     2
 73
     0
 90
        0
 40
-0.6
 41
-30.0
 62
     5
 63
     7
421
 16777215
 74
     1
 91
        4
 64
     7
 65
   257
 75
     1
175
     1
 42
1.0
 92
       12
 66
     7
 43
1.0
 76
     1
 77
     6
 78
     2
 67
     7
 79
     5
170
     0
171
     0
290
     0
174
     0
 93
        1
 44
0.0
173
     0
291
     1
 45
0.0
1001
ACAD
1000
AcDbSavedByObjectVersion
1070
     0
  0
VISUALSTYLE
  5
30
102
{ACAD_XDICTIONARY
360
37B
102
}
102
{ACAD_REACTORS
330
2A
102
}
330
2A
100
AcDbVisualStyle
  2

 70
     5
 71
     0
 72
     2
 73
     0
 90
        0
 40
-0.6
 41
-30.0
 62
     5
 63
     7
421
 16777215
 74
     1
 91
        4
 64
     7
 65
   257
 75
     1
175
     1
 42
1.0
 92
        0
 66
   257
 43
1.0
 76
     1
 77
     6
 78
     2
 67
     7
 79
     3
170
     0
171
     0
290
     0
174
     0
 93
        1
 44
0.0
173
     0
291
     0
 45
0.0
1001
ACAD
1000
AcDbSavedByObjectVersion
1070
     0
  0
VISUALSTYLE
  5
40
102
{ACAD_XDICTIONARY
360
39B
102
}
102
{ACAD_REACTORS
330
2A
102
}
330
2A
100
AcDbVisualStyle
  2

 70
    25
 71
     2
 72
     2
 73
     1
 90
        1
 40
0.5
 41
-30.0
 62
     5
 63
     7
421
 16777215
 74
     1
 91
        0
 64
     7
 65
   257
 75
     1
175
     1
 42
1.0
 92
        8
 66
     7
 43
1.0
 76
     1
 77
     6
 78
     2
 67
     7
 79
     3
170
     0
171
     0
290
     0
174
     0
 93
       13
 44
0.0
173
     0
291
     0
 45
0.0
1001
ACAD
1000
AcDbSavedByObjectVersion
1070
     0
  0
DICTIONARYVAR
  5
2BC
102
{ACAD_REACTORS
330
2BB
102
}
330
2BB
100
DictionaryVariables
280
     0
  1
1:1
  0
DICTIONARYVAR
  5
2FD
102
{ACAD_REACTORS
330
2BB
102
}
330
2BB
100
DictionaryVariables
280
     0
  1
STANDARD
  0
DICTIONARYVAR
  5
2FC
102
{ACAD_REACTORS
330
2BB
102
}
330
2BB
100
DictionaryVariables
280
     0
  1
STANDARD
  0
DICTIONARYVAR
  5
36B
102
{ACAD_REACTORS
330
2BB
102
}
330
2BB
100
DictionaryVariables
280
     0
  1
Metric50
  0
DICTIONARYVAR
  5
36C
102
{ACAD_REACTORS
330
2BB
102
}
330
2BB
100
DictionaryVariables
280
     0
  1
Metric50
  0
DICTIONARYVAR
  5
2BD
102
{ACAD_REACTORS
330
2BB
102
}
330
2BB
100
DictionaryVariables
280
     0
  1
1
  0
DICTIONARYVAR
  5
36D
102
{ACAD_REACTORS
330
2BB
102
}
330
2BB
100
DictionaryVariables
280
     0
  1
2
  0
DICTIONARY
  5
3A4
330
304
100
AcDbDictionary
280
     1
281
     1
  3
ACAD_XREC_ROUNDTRIP
360
3A5
  0
DICTIONARY
  5
2F1
330
45
100
AcDbDictionary
280
     1
281
     1
  3
ACAD_XREC_ROUNDTRIP
360
2F2
  0
DICTIONARY
  5
2EF
330
44
100
AcDbDictionary
280
     1
281
     1
  3
ACAD_XREC_ROUNDTRIP
360
2F0
  0
DICTIONARY
  5
2F3
330
46
100
AcDbDictionary
280
     1
281
     1
  3
ACAD_XREC_ROUNDTRIP
360
2F4
  0
DICTIONARY
  5
3A2
330
303
100
AcDbDictionary
280
     1
281
     1
  3
ACAD_XREC_ROUNDTRIP
360
3A3
  0
DICTIONARY
  5
2F5
330
6A
100
AcDbDictionary
280
     1
281
     1
  3
ACAD_ROUNDTRIP_2008_TABLESTYLE_CELLSTYLEMAP
360
36F
  3
ACAD_XREC_ROUNDTRIP
360
3A1
  0
DICTIONARY
  5
379
330
2F
100
AcDbDictionary
280
     1
281
     1
  3
ACAD_XREC_ROUNDTRIP
360
37A
  0
DICTIONARY
  5
37F
330
32
100
AcDbDictionary
280
     1
281
     1
  3
ACAD_XREC_ROUNDTRIP
360
380
  0
DICTIONARY
  5
387
330
36
100
AcDbDictionary
280
     1
281
     1
  3
ACAD_XREC_ROUNDTRIP
360
388
  0
DICTIONARY
  5
38F
330
3A
100
AcDbDictionary
280
     1
281
     1
  3
ACAD_XREC_ROUNDTRIP
360
390
  0
DICTIONARY
  5
383
330
34
100
AcDbDictionary
280
     1
281
     1
  3
ACAD_XREC_ROUNDTRIP
360
384
  0
DICTIONARY
  5
385
330
35
100
AcDbDictionary
280
     1
281
     1
  3
ACAD_XREC_ROUNDTRIP
360
386
  0
DICTIONARY
  5
395
330
3D
100
AcDbDictionary
280
     1
281
     1
  3
ACAD_XREC_ROUNDTRIP
360
396
  0
DICTIONARY
  5
38D
330
39
100
AcDbDictionary
280
     1
281
     1
  3
ACAD_XREC_ROUNDTRIP
360
38E
  0
DICTIONARY
  5
371
330
2B
100
AcDbDictionary
280
     1
281
     1
  3
ACAD_XREC_ROUNDTRIP
360
372
  0
DICTIONARY
  5
373
330
2C
100
AcDbDictionary
280
     1
281
     1
  3
ACAD_XREC_ROUNDTRIP
360
374
  0
DICTIONARY
  5
375
330
2D
100
AcDbDictionary
280
     1
281
     1
  3
ACAD_XREC_ROUNDTRIP
360
376
  0
DICTIONARY
  5
377
330
2E
100
AcDbDictionary
280
     1
281
     1
  3
ACAD_XREC_ROUNDTRIP
360
378
  0
DICTIONARY
  5
37D
330
31
100
AcDbDictionary
280
     1
281
     1
  3
ACAD_XREC_ROUNDTRIP
360
37E
  0
DICTIONARY
  5
391
330
3B
100
AcDbDictionary
280
     1
281
     1
  3
ACAD_XREC_ROUNDTRIP
360
392
  0
DICTIONARY
  5
38B
330
38
100
AcDbDictionary
280
     1
281
     1
  3
ACAD_XREC_ROUNDTRIP
360
38C
  0
DICTIONARY
  5
393
330
3C
100
AcDbDictionary
280
     1
281
     1
  3
ACAD_XREC_ROUNDTRIP
360
394
  0
DICTIONARY
  5
381
330
33
100
AcDbDictionary
280
     1
281
     1
  3
ACAD_XREC_ROUNDTRIP
360
382
  0
DICTIONARY
  5
39F
330
42
100
AcDbDictionary
280
     1
281
     1
  3
ACAD_XREC_ROUNDTRIP
360
3A0
  0
DICTIONARY
  5
39D
330
41
100
AcDbDictionary
280
     1
281
     1
  3
ACAD_XREC_ROUNDTRIP
360
39E
  0
DICTIONARY
  5
397
330
3E
100
AcDbDictionary
280
     1
281
     1
  3
ACAD_XREC_ROUNDTRIP
360
398
  0
DICTIONARY
  5
399
330
3F
100
AcDbDictionary
280
     1
281
     1
  3
ACAD_XREC_ROUNDTRIP
360
39A
  0
DICTIONARY
  5
389
330
37
100
AcDbDictionary
280
     1
281
     1
  3
ACAD_XREC_ROUNDTRIP
360
38A
  0
DICTIONARY
  5
37B
330
30
100
AcDbDictionary
280
     1
281
     1
  3
ACAD_XREC_ROUNDTRIP
360
37C
  0
DICTIONARY
  5
39B
330
40
100
AcDbDictionary
280
     1
281
     1
  3
ACAD_XREC_ROUNDTRIP
360
39C
  0
XRECORD
  5
3A5
102
{ACAD_REACTORS
330
3A4
102
}
330
3A4
100
AcDbXrecord
280
     1
102
DISPLAYNAME
  1
Metric50
102
FLAGS
 90
        0
  0
XRECORD
  5
2F2
102
{ACAD_REACTORS
330
2F1
102
}
330
2F1
100
AcDbXrecord
280
     1
102
MATERIAL
148
0.0
149
0.0
149
0.0
 93
        0
 94
      127
282
     0
 72
     1
 77
     1
171
     1
175
     1
179
     1
273
     0
  0
XRECORD
  5
2F0
102
{ACAD_REACTORS
330
2EF
102
}
330
2EF
100
AcDbXrecord
280
     1
102
MATERIAL
148
0.0
149
0.0
149
0.0
 93
        0
 94
      127
282
     0
 72
     1
 77
     1
171
     1
175
     1
179
     1
273
     0
  0
XRECORD
  5
2F4
102
{ACAD_REACTORS
330
2F3
102
}
330
2F3
100
AcDbXrecord
280
     1
102
MATERIAL
148
0.0
149
0.0
149
0.0
 93
        0
 94
      127
282
     0
 72
     1
 77
     1
171
     1
175
     1
179
     1
273
     0
  0
XRECORD
  5
3A3
102
{ACAD_REACTORS
330
3A2
102
}
330
3A2
100
AcDbXrecord
280
     1
102
DISPLAYNAME
  1
Metric50
102
FLAGS
 90
        0
  0
CELLSTYLEMAP
  5
36F
102
{ACAD_REACTORS
330
2F5
102
}
330
2F5
100
AcDbCellStyleMap
 90
        3
300
CELLSTYLE
  1
TABLEFORMAT_BEGIN
 90
        5
170
     1
 91
        0
 92
    32768
 62
   257
 93
        1
300
CONTENTFORMAT
  1
CONTENTFORMAT_BEGIN
 90
        0
 91
        0
 92
        4
 93
        0
300

 40
0.0
140
1.0
 94
        5
 62
     0
340
11
144
0.25
309
CONTENTFORMAT_END
171
     1
301
MARGIN
  1
CELLMARGIN_BEGIN
 40
0.06
 40
0.06
 40
0.06
 40
0.06
 40
0.18
 40
0.18
309
CELLMARGIN_END
 94
        6
 95
        1
302
GRIDFORMAT
  1
GRIDFORMAT_BEGIN
 90
        0
 91
        1
 62
     0
 92
       -2
340
14
 93
        0
 40
0.045
309
GRIDFORMAT_END
 95
        2
302
GRIDFORMAT
  1
GRIDFORMAT_BEGIN
 90
        0
 91
        1
 62
     0
 92
       -2
340
14
 93
        0
 40
0.045
309
GRIDFORMAT_END
 95
        4
302
GRIDFORMAT
  1
GRIDFORMAT_BEGIN
 90
        0
 91
        1
 62
     0
 92
       -2
340
14
 93
        0
 40
0.045
309
GRIDFORMAT_END
 95
        8
302
GRIDFORMAT
  1
GRIDFORMAT_BEGIN
 90
        0
 91
        1
 62
     0
 92
       -2
340
14
 93
        0
 40
0.045
309
GRIDFORMAT_END
 95
       16
302
GRIDFORMAT
  1
GRIDFORMAT_BEGIN
 90
        0
 91
        1
 62
     0
 92
       -2
340
14
 93
        0
 40
0.045
309
GRIDFORMAT_END
 95
       32
302
GRIDFORMAT
  1
GRIDFORMAT_BEGIN
 90
        0
 91
        1
 62
     0
 92
       -2
340
14
 93
        0
 40
0.045
309
GRIDFORMAT_END
309
TABLEFORMAT_END
  1
CELLSTYLE_BEGIN
 90
        1
 91
        1
300
_TITLE
309
CELLSTYLE_END
300
CELLSTYLE
  1
TABLEFORMAT_BEGIN
 90
        5
170
     1
 91
        0
 92
        0
 62
   257
 93
        1
300
CONTENTFORMAT
  1
CONTENTFORMAT_BEGIN
 90
        0
 91
        0
 92
        4
 93
        0
300

 40
0.0
140
1.0
 94
        5
 62
     0
340
11
144
0.18
309
CONTENTFORMAT_END
171
     1
301
MARGIN
  1
CELLMARGIN_BEGIN
 40
0.06
 40
0.06
 40
0.06
 40
0.06
 40
0.18
 40
0.18
309
CELLMARGIN_END
 94
        6
 95
        1
302
GRIDFORMAT
  1
GRIDFORMAT_BEGIN
 90
        0
 91
        1
 62
     0
 92
       -2
340
14
 93
        0
 40
0.045
309
GRIDFORMAT_END
 95
        2
302
GRIDFORMAT
  1
GRIDFORMAT_BEGIN
 90
        0
 91
        1
 62
     0
 92
       -2
340
14
 93
        0
 40
0.045
309
GRIDFORMAT_END
 95
        4
302
GRIDFORMAT
  1
GRIDFORMAT_BEGIN
 90
        0
 91
        1
 62
     0
 92
       -2
340
14
 93
        0
 40
0.045
309
GRIDFORMAT_END
 95
        8
302
GRIDFORMAT
  1
GRIDFORMAT_BEGIN
 90
        0
 91
        1
 62
     0
 92
       -2
340
14
 93
        0
 40
0.045
309
GRIDFORMAT_END
 95
       16
302
GRIDFORMAT
  1
GRIDFORMAT_BEGIN
 90
        0
 91
        1
 62
     0
 92
       -2
340
14
 93
        0
 40
0.045
309
GRIDFORMAT_END
 95
       32
302
GRIDFORMAT
  1
GRIDFORMAT_BEGIN
 90
        0
 91
        1
 62
     0
 92
       -2
340
14
 93
        0
 40
0.045
309
GRIDFORMAT_END
309
TABLEFORMAT_END
  1
CELLSTYLE_BEGIN
 90
        2
 91
        1
300
_HEADER
309
CELLSTYLE_END
300
CELLSTYLE
  1
TABLEFORMAT_BEGIN
 90
        5
170
     1
 91
        0
 92
        0
 62
   257
 93
        1
300
CONTENTFORMAT
  1
CONTENTFORMAT_BEGIN
 90
        0
 91
        0
 92
        4
 93
        0
300

 40
0.0
140
1.0
 94
        2
 62
     0
340
11
144
0.18
309
CONTENTFORMAT_END
171
     1
301
MARGIN
  1
CELLMARGIN_BEGIN
 40
0.06
 40
0.06
 40
0.06
 40
0.06
 40
0.18
 40
0.18
309
CELLMARGIN_END
 94
        6
 95
        1
302
GRIDFORMAT
  1
GRIDFORMAT_BEGIN
 90
        0
 91
        1
 62
     0
 92
       -2
340
14
 93
        0
 40
0.045
309
GRIDFORMAT_END
 95
        2
302
GRIDFORMAT
  1
GRIDFORMAT_BEGIN
 90
        0
 91
        1
 62
     0
 92
       -2
340
14
 93
        0
 40
0.045
309
GRIDFORMAT_END
 95
        4
302
GRIDFORMAT
  1
GRIDFORMAT_BEGIN
 90
        0
 91
        1
 62
     0
 92
       -2
340
14
 93
        0
 40
0.045
309
GRIDFORMAT_END
 95
        8
302
GRIDFORMAT
  1
GRIDFORMAT_BEGIN
 90
        0
 91
        1
 62
     0
 92
       -2
340
14
 93
        0
 40
0.045
309
GRIDFORMAT_END
 95
       16
302
GRIDFORMAT
  1
GRIDFORMAT_BEGIN
 90
        0
 91
        1
 62
     0
 92
       -2
340
14
 93
        0
 40
0.045
309
GRIDFORMAT_END
 95
       32
302
GRIDFORMAT
  1
GRIDFORMAT_BEGIN
 90
        0
 91
        1
 62
     0
 92
       -2
340
14
 93
        0
 40
0.045
309
GRIDFORMAT_END
309
TABLEFORMAT_END
  1
CELLSTYLE_BEGIN
 90
        3
 91
        2
300
_DATA
309
CELLSTYLE_END
  0
XRECORD
  5
3A1
102
{ACAD_REACTORS
330
2F5
102
}
330
2F5
100
AcDbXrecord
280
     1
102
ACAD_ROUNDTRIP_PRE2007_TABLESTYLE
 90
        4
 91
        0
  1

 92
        4
 93
        0
  2

 94
        4
 95
        0
  3

  0
XRECORD
  5
37A
102
{ACAD_REACTORS
330
379
102
}
330
379
100
AcDbXrecord
280
     1
102
RTVSPost2010Prop28
280
     1
102
RTVSPost2010PropOp28
 70
     1
102
RTVSPost2010Prop29
280
     1
102
RTVSPost2010PropOp29
 70
     1
102
RTVSPost2010Prop30
280
     0
102
RTVSPost2010PropOp30
 70
     1
102
RTVSPost2010Prop31
280
     0
102
RTVSPost2010PropOp31
 70
     1
102
RTVSPost2010Prop32
280
     0
102
RTVSPost2010PropOp32
 70
     1
102
RTVSPost2010Prop33
280
     0
102
RTVSPost2010PropOp33
 70
     1
102
RTVSPost2010Prop34
280
     0
102
RTVSPost2010PropOp34
 70
     1
102
RTVSPost2010Prop35
280
     0
102
RTVSPost2010PropOp35
 70
     1
102
RTVSPost2010Prop36
280
     0
102
RTVSPost2010PropOp36
 70
     1
102
RTVSPost2010Prop37
 90
       50
102
RTVSPost2010PropOp37
 70
     1
102
RTVSPost2010Prop38
140
0.0
102
RTVSPost2010PropOp38
 70
     1
102
RTVSPost2010Prop39
140
1.0
102
RTVSPost2010PropOp39
 70
     1
102
RTVSPost2010Prop40
 90
        0
102
RTVSPost2010PropOp40
 70
     1
102
RTVSPost2010Prop41ColorIndex
 90
       18
102
RTVSPost2010Prop41ColorRGB
 90
        0
102
RTVSPost2010PropOp41
 70
     1
102
RTVSPost2010Prop42
 90
       50
102
RTVSPost2010PropOp42
 70
     1
102
RTVSPost2010Prop43
 90
        3
102
RTVSPost2010PropOp43
 70
     1
102
RTVSPost2010Prop44ColorIndex
 90
        5
102
RTVSPost2010Prop44ColorRGB
 90
      255
102
RTVSPost2010PropOp44
 70
     1
102
RTVSPost2010Prop45
280
     0
102
RTVSPost2010PropOp45
 70
     1
102
RTVSPost2010Prop46
 90
       50
102
RTVSPost2010PropOp46
 70
     1
102
RTVSPost2010Prop47
 90
       50
102
RTVSPost2010PropOp47
 70
     1
102
RTVSPost2010Prop48
 90
       50
102
RTVSPost2010PropOp48
 70
     1
102
RTVSPost2010Prop49
280
     0
102
RTVSPost2010PropOp49
 70
     1
102
RTVSPost2010Prop50
 90
       50
102
RTVSPost2010PropOp50
 70
     1
102
RTVSPost2010Prop51ColorIndex
 90
      256
102
RTVSPost2010Prop51ColorRGB
 90
-16777216
102
RTVSPost2010PropOp51
 70
     0
102
RTVSPost2010Prop52
140
1.0
102
RTVSPost2010PropOp52
 70
     0
102
RTVSPost2010Prop53
 90
        2
102
RTVSPost2010PropOp53
 70
     1
102
RTVSPost2010Prop54
  1
strokes_ogs.tif
102
RTVSPost2010PropOp54
 70
     1
102
RTVSPost2010Prop55
280
     0
102
RTVSPost2010PropOp55
 70
     1
102
RTVSPost2010Prop56
140
1.0
102
RTVSPost2010PropOp56
 70
     1
102
RTVSPost2010Prop57
140
1.0
102
RTVSPost2010PropOp57
 70
     1
102
RTVSPropertyOp0
 70
     1
102
RTVSPropertyOp1
 70
     1
102
RTVSPropertyOp2
 70
     1
102
RTVSPropertyOp3
 70
     1
102
RTVSPropertyOp4
 70
     1
102
RTVSPropertyOp5
 70
     1
102
RTVSPropertyOp6
 70
     1
102
RTVSPropertyOp7
 70
     1
102
RTVSPropertyOp8
 70
     1
102
RTVSPropertyOp9
 70
     1
102
RTVSPropertyOp10
 70
     1
102
RTVSPropertyOp11
 70
     1
102
RTVSPropertyOp12
 70
     1
102
RTVSPropertyOp13
 70
     1
102
RTVSPropertyOp14
 70
     1
102
RTVSPropertyOp15
 70
     1
102
RTVSPropertyOp16
 70
     1
102
RTVSPropertyOp17
 70
     1
102
RTVSPropertyOp18
 70
     1
102
RTVSPropertyOp19
 70
     1
102
RTVSPropertyOp20
 70
     1
102
RTVSPropertyOp21
 70
     1
102
RTVSPropertyOp22
 70
     1
102
RTVSPropertyOp23
 70
     1
102
RTVSPropertyOp24
 70
     1
102
RTVSPropertyOp25
 70
     1
102
RTVSPropertyOp26
 70
     1
102
RTVSPropertyOp27
 70
     1
102
RTVSPropertyOp28
 70
     1
102
RTVSPropertyOp29
 70
     1
102
RTVSPropertyOp30
 70
     1
102
RTVSPropertyOp31
 70
     1
102
RTVSPropertyOp32
 70
     1
102
RTVSPropertyOp33
 70
     1
102
RTVSPropertyOp34
 70
     1
102
RTVSPropertyOp35
 70
     1
102
RTVSPropertyOp36
 70
     1
102
RTVSPropertyOp37
 70
     1
102
RTVSPropertyOp38
 70
     1
102
RTVSPropertyOp39
 70
     1
102
RTVSPropertyOp40
 70
     1
102
RTVSPropertyOp41
 70
     1
102
RTVSPropertyOp42
 70
     1
102
RTVSPropertyOp43
 70
     1
102
RTVSPropertyOp44
 70
     1
102
RTVSPropertyOp45
 70
     1
102
RTVSPropertyOp46
 70
     1
102
RTVSPropertyOp47
 70
     1
102
RTVSPropertyOp48
 70
     1
102
RTVSPropertyOp49
 70
     1
102
RTVSPropertyOp50
 70
     1
102
RTVSPropertyOp51
 70
     0
102
RTVSPropertyOp52
 70
     0
102
RTVSPropertyOp53
 70
     1
102
RTVSPropertyOp54
 70
     1
102
RTVSPropertyOp55
 70
     1
102
RTVSPropertyOp56
 70
     1
102
RTVSPropertyOp57
 70
     1
102
RTVSPropertyOp58
 70
     1
102
RTVSPropertyOp59
 70
     1
102
RTVSPropertyOp60
 70
     1
102
RTVSPropertyOp61
 70
     1
102
RTVSPropertyOp62
 70
     1
  0
XRECORD
  5
380
102
{ACAD_REACTORS
330
37F
102
}
330
37F
100
AcDbXrecord
280
     1
102
RTVSPost2010Prop28
280
     0
102
RTVSPost2010PropOp28
 70
     1
102
RTVSPost2010Prop29
280
     1
102
RTVSPost2010PropOp29
 70
     1
102
RTVSPost2010Prop30
280
     1
102
RTVSPost2010PropOp30
 70
     1
102
RTVSPost2010Prop31
280
     0
102
RTVSPost2010PropOp31
 70
     1
102
RTVSPost2010Prop32
280
     0
102
RTVSPost2010PropOp32
 70
     1
102
RTVSPost2010Prop33
280
     0
102
RTVSPost2010PropOp33
 70
     1
102
RTVSPost2010Prop34
280
     0
102
RTVSPost2010PropOp34
 70
     1
102
RTVSPost2010Prop35
280
     0
102
RTVSPost2010PropOp35
 70
     1
102
RTVSPost2010Prop36
280
     0
102
RTVSPost2010PropOp36
 70
     1
102
RTVSPost2010Prop37
 90
       50
102
RTVSPost2010PropOp37
 70
     1
102
RTVSPost2010Prop38
140
0.0
102
RTVSPost2010PropOp38
 70
     1
102
RTVSPost2010Prop39
140
1.0
102
RTVSPost2010PropOp39
 70
     1
102
RTVSPost2010Prop40
 90
        0
102
RTVSPost2010PropOp40
 70
     1
102
RTVSPost2010Prop41ColorIndex
 90
       18
102
RTVSPost2010Prop41ColorRGB
 90
        0
102
RTVSPost2010PropOp41
 70
     1
102
RTVSPost2010Prop42
 90
       50
102
RTVSPost2010PropOp42
 70
     1
102
RTVSPost2010Prop43
 90
        3
102
RTVSPost2010PropOp43
 70
     1
102
RTVSPost2010Prop44ColorIndex
 90
        5
102
RTVSPost2010Prop44ColorRGB
 90
      255
102
RTVSPost2010PropOp44
 70
     1
102
RTVSPost2010Prop45
280
     0
102
RTVSPost2010PropOp45
 70
     1
102
RTVSPost2010Prop46
 90
       50
102
RTVSPost2010PropOp46
 70
     1
102
RTVSPost2010Prop47
 90
       50
102
RTVSPost2010PropOp47
 70
     1
102
RTVSPost2010Prop48
 90
       50
102
RTVSPost2010PropOp48
 70
     1
102
RTVSPost2010Prop49
280
     0
102
RTVSPost2010PropOp49
 70
     1
102
RTVSPost2010Prop50
 90
       50
102
RTVSPost2010PropOp50
 70
     1
102
RTVSPost2010Prop51ColorIndex
 90
      256
102
RTVSPost2010Prop51ColorRGB
 90
-16777216
102
RTVSPost2010PropOp51
 70
     0
102
RTVSPost2010Prop52
140
1.0
102
RTVSPost2010PropOp52
 70
     0
102
RTVSPost2010Prop53
 90
        2
102
RTVSPost2010PropOp53
 70
     1
102
RTVSPost2010Prop54
  1
strokes_ogs.tif
102
RTVSPost2010PropOp54
 70
     1
102
RTVSPost2010Prop55
280
     0
102
RTVSPost2010PropOp55
 70
     1
102
RTVSPost2010Prop56
140
1.0
102
RTVSPost2010PropOp56
 70
     1
102
RTVSPost2010Prop57
140
1.0
102
RTVSPost2010PropOp57
 70
     1
102
RTVSPropertyOp0
 70
     1
102
RTVSPropertyOp1
 70
     1
102
RTVSPropertyOp2
 70
     1
102
RTVSPropertyOp3
 70
     1
102
RTVSPropertyOp4
 70
     1
102
RTVSPropertyOp5
 70
     1
102
RTVSPropertyOp6
 70
     1
102
RTVSPropertyOp7
 70
     1
102
RTVSPropertyOp8
 70
     1
102
RTVSPropertyOp9
 70
     1
102
RTVSPropertyOp10
 70
     1
102
RTVSPropertyOp11
 70
     1
102
RTVSPropertyOp12
 70
     1
102
RTVSPropertyOp13
 70
     1
102
RTVSPropertyOp14
 70
     1
102
RTVSPropertyOp15
 70
     1
102
RTVSPropertyOp16
 70
     1
102
RTVSPropertyOp17
 70
     1
102
RTVSPropertyOp18
 70
     1
102
RTVSPropertyOp19
 70
     1
102
RTVSPropertyOp20
 70
     1
102
RTVSPropertyOp21
 70
     1
102
RTVSPropertyOp22
 70
     1
102
RTVSPropertyOp23
 70
     1
102
RTVSPropertyOp24
 70
     1
102
RTVSPropertyOp25
 70
     1
102
RTVSPropertyOp26
 70
     1
102
RTVSPropertyOp27
 70
     1
102
RTVSPropertyOp28
 70
     1
102
RTVSPropertyOp29
 70
     1
102
RTVSPropertyOp30
 70
     1
102
RTVSPropertyOp31
 70
     1
102
RTVSPropertyOp32
 70
     1
102
RTVSPropertyOp33
 70
     1
102
RTVSPropertyOp34
 70
     1
102
RTVSPropertyOp35
 70
     1
102
RTVSPropertyOp36
 70
     1
102
RTVSPropertyOp37
 70
     1
102
RTVSPropertyOp38
 70
     1
102
RTVSPropertyOp39
 70
     1
102
RTVSPropertyOp40
 70
     1
102
RTVSPropertyOp41
 70
     1
102
RTVSPropertyOp42
 70
     1
102
RTVSPropertyOp43
 70
     1
102
RTVSPropertyOp44
 70
     1
102
RTVSPropertyOp45
 70
     1
102
RTVSPropertyOp46
 70
     1
102
RTVSPropertyOp47
 70
     1
102
RTVSPropertyOp48
 70
     1
102
RTVSPropertyOp49
 70
     1
102
RTVSPropertyOp50
 70
     1
102
RTVSPropertyOp51
 70
     0
102
RTVSPropertyOp52
 70
     0
102
RTVSPropertyOp53
 70
     1
102
RTVSPropertyOp54
 70
     1
102
RTVSPropertyOp55
 70
     1
102
RTVSPropertyOp56
 70
     1
102
RTVSPropertyOp57
 70
     1
102
RTVSPropertyOp58
 70
     1
102
RTVSPropertyOp59
 70
     1
102
RTVSPropertyOp60
 70
     1
102
RTVSPropertyOp61
 70
     1
102
RTVSPropertyOp62
 70
     1
  0
XRECORD
  5
388
102
{ACAD_REACTORS
330
387
102
}
330
387
100
AcDbXrecord
280
     1
102
RTVSPost2010Prop28
280
     0
102
RTVSPost2010PropOp28
 70
     1
102
RTVSPost2010Prop29
280
     1
102
RTVSPost2010PropOp29
 70
     1
102
RTVSPost2010Prop30
280
     1
102
RTVSPost2010PropOp30
 70
     1
102
RTVSPost2010Prop31
280
     0
102
RTVSPost2010PropOp31
 70
     1
102
RTVSPost2010Prop32
280
     0
102
RTVSPost2010PropOp32
 70
     1
102
RTVSPost2010Prop33
280
     0
102
RTVSPost2010PropOp33
 70
     1
102
RTVSPost2010Prop34
280
     0
102
RTVSPost2010PropOp34
 70
     1
102
RTVSPost2010Prop35
280
     0
102
RTVSPost2010PropOp35
 70
     1
102
RTVSPost2010Prop36
280
     0
102
RTVSPost2010PropOp36
 70
     1
102
RTVSPost2010Prop37
 90
       50
102
RTVSPost2010PropOp37
 70
     1
102
RTVSPost2010Prop38
140
0.0
102
RTVSPost2010PropOp38
 70
     1
102
RTVSPost2010Prop39
140
1.0
102
RTVSPost2010PropOp39
 70
     1
102
RTVSPost2010Prop40
 90
        0
102
RTVSPost2010PropOp40
 70
     1
102
RTVSPost2010Prop41ColorIndex
 90
       18
102
RTVSPost2010Prop41ColorRGB
 90
        0
102
RTVSPost2010PropOp41
 70
     1
102
RTVSPost2010Prop42
 90
       50
102
RTVSPost2010PropOp42
 70
     1
102
RTVSPost2010Prop43
 90
        3
102
RTVSPost2010PropOp43
 70
     1
102
RTVSPost2010Prop44ColorIndex
 90
        5
102
RTVSPost2010Prop44ColorRGB
 90
      255
102
RTVSPost2010PropOp44
 70
     1
102
RTVSPost2010Prop45
280
     0
102
RTVSPost2010PropOp45
 70
     1
102
RTVSPost2010Prop46
 90
       50
102
RTVSPost2010PropOp46
 70
     1
102
RTVSPost2010Prop47
 90
       50
102
RTVSPost2010PropOp47
 70
     1
102
RTVSPost2010Prop48
 90
       50
102
RTVSPost2010PropOp48
 70
     1
102
RTVSPost2010Prop49
280
     0
102
RTVSPost2010PropOp49
 70
     1
102
RTVSPost2010Prop50
 90
       50
102
RTVSPost2010PropOp50
 70
     1
102
RTVSPost2010Prop51ColorIndex
 90
      256
102
RTVSPost2010Prop51ColorRGB
 90
-16777216
102
RTVSPost2010PropOp51
 70
     0
102
RTVSPost2010Prop52
140
1.0
102
RTVSPost2010PropOp52
 70
     0
102
RTVSPost2010Prop53
 90
        2
102
RTVSPost2010PropOp53
 70
     1
102
RTVSPost2010Prop54
  1
strokes_ogs.tif
102
RTVSPost2010PropOp54
 70
     1
102
RTVSPost2010Prop55
280
     0
102
RTVSPost2010PropOp55
 70
     1
102
RTVSPost2010Prop56
140
1.0
102
RTVSPost2010PropOp56
 70
     1
102
RTVSPost2010Prop57
140
1.0
102
RTVSPost2010PropOp57
 70
     1
102
RTVSPropertyOp0
 70
     1
102
RTVSPropertyOp1
 70
     1
102
RTVSPropertyOp2
 70
     1
102
RTVSPropertyOp3
 70
     1
102
RTVSPropertyOp4
 70
     1
102
RTVSPropertyOp5
 70
     1
102
RTVSPropertyOp6
 70
     1
102
RTVSPropertyOp7
 70
     1
102
RTVSPropertyOp8
 70
     1
102
RTVSPropertyOp9
 70
     1
102
RTVSPropertyOp10
 70
     1
102
RTVSPropertyOp11
 70
     1
102
RTVSPropertyOp12
 70
     1
102
RTVSPropertyOp13
 70
     1
102
RTVSPropertyOp14
 70
     1
102
RTVSPropertyOp15
 70
     1
102
RTVSPropertyOp16
 70
     1
102
RTVSPropertyOp17
 70
     1
102
RTVSPropertyOp18
 70
     1
102
RTVSPropertyOp19
 70
     1
102
RTVSPropertyOp20
 70
     1
102
RTVSPropertyOp21
 70
     1
102
RTVSPropertyOp22
 70
     1
102
RTVSPropertyOp23
 70
     1
102
RTVSPropertyOp24
 70
     1
102
RTVSPropertyOp25
 70
     1
102
RTVSPropertyOp26
 70
     1
102
RTVSPropertyOp27
 70
     1
102
RTVSPropertyOp28
 70
     1
102
RTVSPropertyOp29
 70
     1
102
RTVSPropertyOp30
 70
     1
102
RTVSPropertyOp31
 70
     1
102
RTVSPropertyOp32
 70
     1
102
RTVSPropertyOp33
 70
     1
102
RTVSPropertyOp34
 70
     1
102
RTVSPropertyOp35
 70
     1
102
RTVSPropertyOp36
 70
     1
102
RTVSPropertyOp37
 70
     1
102
RTVSPropertyOp38
 70
     1
102
RTVSPropertyOp39
 70
     1
102
RTVSPropertyOp40
 70
     1
102
RTVSPropertyOp41
 70
     1
102
RTVSPropertyOp42
 70
     1
102
RTVSPropertyOp43
 70
     1
102
RTVSPropertyOp44
 70
     1
102
RTVSPropertyOp45
 70
     1
102
RTVSPropertyOp46
 70
     1
102
RTVSPropertyOp47
 70
     1
102
RTVSPropertyOp48
 70
     1
102
RTVSPropertyOp49
 70
     1
102
RTVSPropertyOp50
 70
     1
102
RTVSPropertyOp51
 70
     0
102
RTVSPropertyOp52
 70
     0
102
RTVSPropertyOp53
 70
     1
102
RTVSPropertyOp54
 70
     1
102
RTVSPropertyOp55
 70
     1
102
RTVSPropertyOp56
 70
     1
102
RTVSPropertyOp57
 70
     1
102
RTVSPropertyOp58
 70
     1
102
RTVSPropertyOp59
 70
     1
102
RTVSPropertyOp60
 70
     1
102
RTVSPropertyOp61
 70
     1
102
RTVSPropertyOp62
 70
     1
  0
XRECORD
  5
390
102
{ACAD_REACTORS
330
38F
102
}
330
38F
100
AcDbXrecord
280
     1
102
RTVSPost2010Prop28
280
     0
102
RTVSPost2010PropOp28
 70
     1
102
RTVSPost2010Prop29
280
     1
102
RTVSPost2010PropOp29
 70
     1
102
RTVSPost2010Prop30
280
     1
102
RTVSPost2010PropOp30
 70
     1
102
RTVSPost2010Prop31
280
     0
102
RTVSPost2010PropOp31
 70
     1
102
RTVSPost2010Prop32
280
     0
102
RTVSPost2010PropOp32
 70
     1
102
RTVSPost2010Prop33
280
     0
102
RTVSPost2010PropOp33
 70
     1
102
RTVSPost2010Prop34
280
     0
102
RTVSPost2010PropOp34
 70
     1
102
RTVSPost2010Prop35
280
     0
102
RTVSPost2010PropOp35
 70
     1
102
RTVSPost2010Prop36
280
     0
102
RTVSPost2010PropOp36
 70
     1
102
RTVSPost2010Prop37
 90
       50
102
RTVSPost2010PropOp37
 70
     1
102
RTVSPost2010Prop38
140
0.0
102
RTVSPost2010PropOp38
 70
     1
102
RTVSPost2010Prop39
140
1.0
102
RTVSPost2010PropOp39
 70
     1
102
RTVSPost2010Prop40
 90
        0
102
RTVSPost2010PropOp40
 70
     1
102
RTVSPost2010Prop41ColorIndex
 90
       18
102
RTVSPost2010Prop41ColorRGB
 90
        0
102
RTVSPost2010PropOp41
 70
     1
102
RTVSPost2010Prop42
 90
       50
102
RTVSPost2010PropOp42
 70
     1
102
RTVSPost2010Prop43
 90
        3
102
RTVSPost2010PropOp43
 70
     1
102
RTVSPost2010Prop44ColorIndex
 90
        5
102
RTVSPost2010Prop44ColorRGB
 90
      255
102
RTVSPost2010PropOp44
 70
     1
102
RTVSPost2010Prop45
280
     0
102
RTVSPost2010PropOp45
 70
     1
102
RTVSPost2010Prop46
 90
       50
102
RTVSPost2010PropOp46
 70
     1
102
RTVSPost2010Prop47
 90
       50
102
RTVSPost2010PropOp47
 70
     1
102
RTVSPost2010Prop48
 90
       50
102
RTVSPost2010PropOp48
 70
     1
102
RTVSPost2010Prop49
280
     0
102
RTVSPost2010PropOp49
 70
     1
102
RTVSPost2010Prop50
 90
       50
102
RTVSPost2010PropOp50
 70
     1
102
RTVSPost2010Prop51ColorIndex
 90
      256
102
RTVSPost2010Prop51ColorRGB
 90
-16777216
102
RTVSPost2010PropOp51
 70
     0
102
RTVSPost2010Prop52
140
1.0
102
RTVSPost2010PropOp52
 70
     0
102
RTVSPost2010Prop53
 90
        2
102
RTVSPost2010PropOp53
 70
     1
102
RTVSPost2010Prop54
  1
strokes_ogs.tif
102
RTVSPost2010PropOp54
 70
     1
102
RTVSPost2010Prop55
280
     0
102
RTVSPost2010PropOp55
 70
     1
102
RTVSPost2010Prop56
140
1.0
102
RTVSPost2010PropOp56
 70
     1
102
RTVSPost2010Prop57
140
1.0
102
RTVSPost2010PropOp57
 70
     1
102
RTVSPropertyOp0
 70
     1
102
RTVSPropertyOp1
 70
     1
102
RTVSPropertyOp2
 70
     1
102
RTVSPropertyOp3
 70
     1
102
RTVSPropertyOp4
 70
     1
102
RTVSPropertyOp5
 70
     1
102
RTVSPropertyOp6
 70
     1
102
RTVSPropertyOp7
 70
     1
102
RTVSPropertyOp8
 70
     1
102
RTVSPropertyOp9
 70
     1
102
RTVSPropertyOp10
 70
     1
102
RTVSPropertyOp11
 70
     1
102
RTVSPropertyOp12
 70
     1
102
RTVSPropertyOp13
 70
     1
102
RTVSPropertyOp14
 70
     1
102
RTVSPropertyOp15
 70
     1
102
RTVSPropertyOp16
 70
     1
102
RTVSPropertyOp17
 70
     1
102
RTVSPropertyOp18
 70
     1
102
RTVSPropertyOp19
 70
     1
102
RTVSPropertyOp20
 70
     1
102
RTVSPropertyOp21
 70
     1
102
RTVSPropertyOp22
 70
     1
102
RTVSPropertyOp23
 70
     1
102
RTVSPropertyOp24
 70
     1
102
RTVSPropertyOp25
 70
     1
102
RTVSPropertyOp26
 70
     1
102
RTVSPropertyOp27
 70
     1
102
RTVSPropertyOp28
 70
     1
102
RTVSPropertyOp29
 70
     1
102
RTVSPropertyOp30
 70
     1
102
RTVSPropertyOp31
 70
     1
102
RTVSPropertyOp32
 70
     1
102
RTVSPropertyOp33
 70
     1
102
RTVSPropertyOp34
 70
     1
102
RTVSPropertyOp35
 70
     1
102
RTVSPropertyOp36
 70
     1
102
RTVSPropertyOp37
 70
     1
102
RTVSPropertyOp38
 70
     1
102
RTVSPropertyOp39
 70
     1
102
RTVSPropertyOp40
 70
     1
102
RTVSPropertyOp41
 70
     1
102
RTVSPropertyOp42
 70
     1
102
RTVSPropertyOp43
 70
     1
102
RTVSPropertyOp44
 70
     1
102
RTVSPropertyOp45
 70
     1
102
RTVSPropertyOp46
 70
     1
102
RTVSPropertyOp47
 70
     1
102
RTVSPropertyOp48
 70
     1
102
RTVSPropertyOp49
 70
     1
102
RTVSPropertyOp50
 70
     1
102
RTVSPropertyOp51
 70
     0
102
RTVSPropertyOp52
 70
     0
102
RTVSPropertyOp53
 70
     1
102
RTVSPropertyOp54
 70
     1
102
RTVSPropertyOp55
 70
     1
102
RTVSPropertyOp56
 70
     1
102
RTVSPropertyOp57
 70
     1
102
RTVSPropertyOp58
 70
     1
102
RTVSPropertyOp59
 70
     1
102
RTVSPropertyOp60
 70
     1
102
RTVSPropertyOp61
 70
     1
102
RTVSPropertyOp62
 70
     1
  0
XRECORD
  5
384
102
{ACAD_REACTORS
330
383
102
}
330
383
100
AcDbXrecord
280
     1
102
RTVSPost2010Prop28
280
     0
102
RTVSPost2010PropOp28
 70
     1
102
RTVSPost2010Prop29
280
     1
102
RTVSPost2010PropOp29
 70
     1
102
RTVSPost2010Prop30
280
     1
102
RTVSPost2010PropOp30
 70
     1
102
RTVSPost2010Prop31
280
     0
102
RTVSPost2010PropOp31
 70
     1
102
RTVSPost2010Prop32
280
     0
102
RTVSPost2010PropOp32
 70
     1
102
RTVSPost2010Prop33
280
     0
102
RTVSPost2010PropOp33
 70
     1
102
RTVSPost2010Prop34
280
     0
102
RTVSPost2010PropOp34
 70
     1
102
RTVSPost2010Prop35
280
     0
102
RTVSPost2010PropOp35
 70
     1
102
RTVSPost2010Prop36
280
     0
102
RTVSPost2010PropOp36
 70
     1
102
RTVSPost2010Prop37
 90
       50
102
RTVSPost2010PropOp37
 70
     1
102
RTVSPost2010Prop38
140
0.0
102
RTVSPost2010PropOp38
 70
     1
102
RTVSPost2010Prop39
140
1.0
102
RTVSPost2010PropOp39
 70
     1
102
RTVSPost2010Prop40
 90
        0
102
RTVSPost2010PropOp40
 70
     1
102
RTVSPost2010Prop41ColorIndex
 90
       18
102
RTVSPost2010Prop41ColorRGB
 90
        0
102
RTVSPost2010PropOp41
 70
     1
102
RTVSPost2010Prop42
 90
       50
102
RTVSPost2010PropOp42
 70
     1
102
RTVSPost2010Prop43
 90
        3
102
RTVSPost2010PropOp43
 70
     1
102
RTVSPost2010Prop44ColorIndex
 90
        5
102
RTVSPost2010Prop44ColorRGB
 90
      255
102
RTVSPost2010PropOp44
 70
     1
102
RTVSPost2010Prop45
280
     0
102
RTVSPost2010PropOp45
 70
     1
102
RTVSPost2010Prop46
 90
       50
102
RTVSPost2010PropOp46
 70
     1
102
RTVSPost2010Prop47
 90
       50
102
RTVSPost2010PropOp47
 70
     1
102
RTVSPost2010Prop48
 90
       50
102
RTVSPost2010PropOp48
 70
     1
102
RTVSPost2010Prop49
280
     0
102
RTVSPost2010PropOp49
 70
     1
102
RTVSPost2010Prop50
 90
       50
102
RTVSPost2010PropOp50
 70
     1
102
RTVSPost2010Prop51ColorIndex
 90
      256
102
RTVSPost2010Prop51ColorRGB
 90
-16777216
102
RTVSPost2010PropOp51
 70
     0
102
RTVSPost2010Prop52
140
1.0
102
RTVSPost2010PropOp52
 70
     0
102
RTVSPost2010Prop53
 90
        2
102
RTVSPost2010PropOp53
 70
     1
102
RTVSPost2010Prop54
  1
strokes_ogs.tif
102
RTVSPost2010PropOp54
 70
     1
102
RTVSPost2010Prop55
280
     0
102
RTVSPost2010PropOp55
 70
     1
102
RTVSPost2010Prop56
140
1.0
102
RTVSPost2010PropOp56
 70
     1
102
RTVSPost2010Prop57
140
1.0
102
RTVSPost2010PropOp57
 70
     1
102
RTVSPropertyOp0
 70
     1
102
RTVSPropertyOp1
 70
     1
102
RTVSPropertyOp2
 70
     1
102
RTVSPropertyOp3
 70
     1
102
RTVSPropertyOp4
 70
     1
102
RTVSPropertyOp5
 70
     1
102
RTVSPropertyOp6
 70
     1
102
RTVSPropertyOp7
 70
     1
102
RTVSPropertyOp8
 70
     1
102
RTVSPropertyOp9
 70
     1
102
RTVSPropertyOp10
 70
     1
102
RTVSPropertyOp11
 70
     1
102
RTVSPropertyOp12
 70
     1
102
RTVSPropertyOp13
 70
     1
102
RTVSPropertyOp14
 70
     1
102
RTVSPropertyOp15
 70
     1
102
RTVSPropertyOp16
 70
     1
102
RTVSPropertyOp17
 70
     1
102
RTVSPropertyOp18
 70
     1
102
RTVSPropertyOp19
 70
     1
102
RTVSPropertyOp20
 70
     1
102
RTVSPropertyOp21
 70
     1
102
RTVSPropertyOp22
 70
     1
102
RTVSPropertyOp23
 70
     1
102
RTVSPropertyOp24
 70
     1
102
RTVSPropertyOp25
 70
     1
102
RTVSPropertyOp26
 70
     1
102
RTVSPropertyOp27
 70
     1
102
RTVSPropertyOp28
 70
     1
102
RTVSPropertyOp29
 70
     1
102
RTVSPropertyOp30
 70
     1
102
RTVSPropertyOp31
 70
     1
102
RTVSPropertyOp32
 70
     1
102
RTVSPropertyOp33
 70
     1
102
RTVSPropertyOp34
 70
     1
102
RTVSPropertyOp35
 70
     1
102
RTVSPropertyOp36
 70
     1
102
RTVSPropertyOp37
 70
     1
102
RTVSPropertyOp38
 70
     1
102
RTVSPropertyOp39
 70
     1
102
RTVSPropertyOp40
 70
     1
102
RTVSPropertyOp41
 70
     1
102
RTVSPropertyOp42
 70
     1
102
RTVSPropertyOp43
 70
     1
102
RTVSPropertyOp44
 70
     1
102
RTVSPropertyOp45
 70
     1
102
RTVSPropertyOp46
 70
     1
102
RTVSPropertyOp47
 70
     1
102
RTVSPropertyOp48
 70
     1
102
RTVSPropertyOp49
 70
     1
102
RTVSPropertyOp50
 70
     1
102
RTVSPropertyOp51
 70
     0
102
RTVSPropertyOp52
 70
     0
102
RTVSPropertyOp53
 70
     1
102
RTVSPropertyOp54
 70
     1
102
RTVSPropertyOp55
 70
     1
102
RTVSPropertyOp56
 70
     1
102
RTVSPropertyOp57
 70
     1
102
RTVSPropertyOp58
 70
     1
102
RTVSPropertyOp59
 70
     1
102
RTVSPropertyOp60
 70
     1
102
RTVSPropertyOp61
 70
     1
102
RTVSPropertyOp62
 70
     1
  0
XRECORD
  5
386
102
{ACAD_REACTORS
330
385
102
}
330
385
100
AcDbXrecord
280
     1
102
RTVSPost2010Prop28
280
     0
102
RTVSPost2010PropOp28
 70
     1
102
RTVSPost2010Prop29
280
     1
102
RTVSPost2010PropOp29
 70
     1
102
RTVSPost2010Prop30
280
     1
102
RTVSPost2010PropOp30
 70
     1
102
RTVSPost2010Prop31
280
     0
102
RTVSPost2010PropOp31
 70
     1
102
RTVSPost2010Prop32
280
     0
102
RTVSPost2010PropOp32
 70
     1
102
RTVSPost2010Prop33
280
     0
102
RTVSPost2010PropOp33
 70
     1
102
RTVSPost2010Prop34
280
     0
102
RTVSPost2010PropOp34
 70
     1
102
RTVSPost2010Prop35
280
     0
102
RTVSPost2010PropOp35
 70
     1
102
RTVSPost2010Prop36
280
     0
102
RTVSPost2010PropOp36
 70
     1
102
RTVSPost2010Prop37
 90
       50
102
RTVSPost2010PropOp37
 70
     1
102
RTVSPost2010Prop38
140
0.0
102
RTVSPost2010PropOp38
 70
     1
102
RTVSPost2010Prop39
140
1.0
102
RTVSPost2010PropOp39
 70
     1
102
RTVSPost2010Prop40
 90
        0
102
RTVSPost2010PropOp40
 70
     1
102
RTVSPost2010Prop41ColorIndex
 90
       18
102
RTVSPost2010Prop41ColorRGB
 90
        0
102
RTVSPost2010PropOp41
 70
     1
102
RTVSPost2010Prop42
 90
       50
102
RTVSPost2010PropOp42
 70
     1
102
RTVSPost2010Prop43
 90
        3
102
RTVSPost2010PropOp43
 70
     1
102
RTVSPost2010Prop44ColorIndex
 90
        5
102
RTVSPost2010Prop44ColorRGB
 90
      255
102
RTVSPost2010PropOp44
 70
     1
102
RTVSPost2010Prop45
280
     0
102
RTVSPost2010PropOp45
 70
     1
102
RTVSPost2010Prop46
 90
       50
102
RTVSPost2010PropOp46
 70
     1
102
RTVSPost2010Prop47
 90
       50
102
RTVSPost2010PropOp47
 70
     1
102
RTVSPost2010Prop48
 90
       50
102
RTVSPost2010PropOp48
 70
     1
102
RTVSPost2010Prop49
280
     0
102
RTVSPost2010PropOp49
 70
     1
102
RTVSPost2010Prop50
 90
       50
102
RTVSPost2010PropOp50
 70
     1
102
RTVSPost2010Prop51ColorIndex
 90
      256
102
RTVSPost2010Prop51ColorRGB
 90
-16777216
102
RTVSPost2010PropOp51
 70
     0
102
RTVSPost2010Prop52
140
1.0
102
RTVSPost2010PropOp52
 70
     0
102
RTVSPost2010Prop53
 90
        2
102
RTVSPost2010PropOp53
 70
     1
102
RTVSPost2010Prop54
  1
strokes_ogs.tif
102
RTVSPost2010PropOp54
 70
     1
102
RTVSPost2010Prop55
280
     0
102
RTVSPost2010PropOp55
 70
     1
102
RTVSPost2010Prop56
140
1.0
102
RTVSPost2010PropOp56
 70
     1
102
RTVSPost2010Prop57
140
1.0
102
RTVSPost2010PropOp57
 70
     1
102
RTVSPropertyOp0
 70
     1
102
RTVSPropertyOp1
 70
     1
102
RTVSPropertyOp2
 70
     1
102
RTVSPropertyOp3
 70
     1
102
RTVSPropertyOp4
 70
     1
102
RTVSPropertyOp5
 70
     1
102
RTVSPropertyOp6
 70
     1
102
RTVSPropertyOp7
 70
     1
102
RTVSPropertyOp8
 70
     1
102
RTVSPropertyOp9
 70
     1
102
RTVSPropertyOp10
 70
     1
102
RTVSPropertyOp11
 70
     1
102
RTVSPropertyOp12
 70
     1
102
RTVSPropertyOp13
 70
     1
102
RTVSPropertyOp14
 70
     1
102
RTVSPropertyOp15
 70
     1
102
RTVSPropertyOp16
 70
     1
102
RTVSPropertyOp17
 70
     1
102
RTVSPropertyOp18
 70
     1
102
RTVSPropertyOp19
 70
     1
102
RTVSPropertyOp20
 70
     1
102
RTVSPropertyOp21
 70
     1
102
RTVSPropertyOp22
 70
     1
102
RTVSPropertyOp23
 70
     1
102
RTVSPropertyOp24
 70
     1
102
RTVSPropertyOp25
 70
     1
102
RTVSPropertyOp26
 70
     1
102
RTVSPropertyOp27
 70
     1
102
RTVSPropertyOp28
 70
     1
102
RTVSPropertyOp29
 70
     1
102
RTVSPropertyOp30
 70
     1
102
RTVSPropertyOp31
 70
     1
102
RTVSPropertyOp32
 70
     1
102
RTVSPropertyOp33
 70
     1
102
RTVSPropertyOp34
 70
     1
102
RTVSPropertyOp35
 70
     1
102
RTVSPropertyOp36
 70
     1
102
RTVSPropertyOp37
 70
     1
102
RTVSPropertyOp38
 70
     1
102
RTVSPropertyOp39
 70
     1
102
RTVSPropertyOp40
 70
     1
102
RTVSPropertyOp41
 70
     1
102
RTVSPropertyOp42
 70
     1
102
RTVSPropertyOp43
 70
     1
102
RTVSPropertyOp44
 70
     1
102
RTVSPropertyOp45
 70
     1
102
RTVSPropertyOp46
 70
     1
102
RTVSPropertyOp47
 70
     1
102
RTVSPropertyOp48
 70
     1
102
RTVSPropertyOp49
 70
     1
102
RTVSPropertyOp50
 70
     1
102
RTVSPropertyOp51
 70
     0
102
RTVSPropertyOp52
 70
     0
102
RTVSPropertyOp53
 70
     1
102
RTVSPropertyOp54
 70
     1
102
RTVSPropertyOp55
 70
     1
102
RTVSPropertyOp56
 70
     1
102
RTVSPropertyOp57
 70
     1
102
RTVSPropertyOp58
 70
     1
102
RTVSPropertyOp59
 70
     1
102
RTVSPropertyOp60
 70
     1
102
RTVSPropertyOp61
 70
     1
102
RTVSPropertyOp62
 70
     1
  0
XRECORD
  5
396
102
{ACAD_REACTORS
330
395
102
}
330
395
100
AcDbXrecord
280
     1
102
RTVSPost2010Prop28
280
     0
102
RTVSPost2010PropOp28
 70
     0
102
RTVSPost2010Prop29
280
     1
102
RTVSPost2010PropOp29
 70
     0
102
RTVSPost2010Prop30
280
     1
102
RTVSPost2010PropOp30
 70
     0
102
RTVSPost2010Prop31
280
     0
102
RTVSPost2010PropOp31
 70
     0
102
RTVSPost2010Prop32
280
     0
102
RTVSPost2010PropOp32
 70
     0
102
RTVSPost2010Prop33
280
     0
102
RTVSPost2010PropOp33
 70
     0
102
RTVSPost2010Prop34
280
     0
102
RTVSPost2010PropOp34
 70
     0
102
RTVSPost2010Prop35
280
     0
102
RTVSPost2010PropOp35
 70
     0
102
RTVSPost2010Prop36
280
     0
102
RTVSPost2010PropOp36
 70
     0
102
RTVSPost2010Prop37
 90
       50
102
RTVSPost2010PropOp37
 70
     0
102
RTVSPost2010Prop38
140
0.0
102
RTVSPost2010PropOp38
 70
     0
102
RTVSPost2010Prop39
140
1.0
102
RTVSPost2010PropOp39
 70
     0
102
RTVSPost2010Prop40
 90
        0
102
RTVSPost2010PropOp40
 70
     0
102
RTVSPost2010Prop41ColorIndex
 90
       18
102
RTVSPost2010Prop41ColorRGB
 90
        0
102
RTVSPost2010PropOp41
 70
     0
102
RTVSPost2010Prop42
 90
       50
102
RTVSPost2010PropOp42
 70
     0
102
RTVSPost2010Prop43
 90
        3
102
RTVSPost2010PropOp43
 70
     0
102
RTVSPost2010Prop44ColorIndex
 90
        5
102
RTVSPost2010Prop44ColorRGB
 90
      255
102
RTVSPost2010PropOp44
 70
     0
102
RTVSPost2010Prop45
280
     0
102
RTVSPost2010PropOp45
 70
     0
102
RTVSPost2010Prop46
 90
       50
102
RTVSPost2010PropOp46
 70
     0
102
RTVSPost2010Prop47
 90
       50
102
RTVSPost2010PropOp47
 70
     0
102
RTVSPost2010Prop48
 90
       50
102
RTVSPost2010PropOp48
 70
     0
102
RTVSPost2010Prop49
280
     0
102
RTVSPost2010PropOp49
 70
     0
102
RTVSPost2010Prop50
 90
       50
102
RTVSPost2010PropOp50
 70
     0
102
RTVSPost2010Prop51ColorIndex
 90
      256
102
RTVSPost2010Prop51ColorRGB
 90
-16777216
102
RTVSPost2010PropOp51
 70
     0
102
RTVSPost2010Prop52
140
1.0
102
RTVSPost2010PropOp52
 70
     0
102
RTVSPost2010Prop53
 90
        2
102
RTVSPost2010PropOp53
 70
     0
102
RTVSPost2010Prop54
  1
strokes_ogs.tif
102
RTVSPost2010PropOp54
 70
     0
102
RTVSPost2010Prop55
280
     0
102
RTVSPost2010PropOp55
 70
     0
102
RTVSPost2010Prop56
140
1.0
102
RTVSPost2010PropOp56
 70
     0
102
RTVSPost2010Prop57
140
1.0
102
RTVSPost2010PropOp57
 70
     0
102
RTVSPropertyOp0
 70
     0
102
RTVSPropertyOp1
 70
     0
102
RTVSPropertyOp2
 70
     0
102
RTVSPropertyOp3
 70
     0
102
RTVSPropertyOp4
 70
     0
102
RTVSPropertyOp5
 70
     0
102
RTVSPropertyOp6
 70
     0
102
RTVSPropertyOp7
 70
     0
102
RTVSPropertyOp8
 70
     0
102
RTVSPropertyOp9
 70
     0
102
RTVSPropertyOp10
 70
     0
102
RTVSPropertyOp11
 70
     0
102
RTVSPropertyOp12
 70
     0
102
RTVSPropertyOp13
 70
     0
102
RTVSPropertyOp14
 70
     2
102
RTVSPropertyOp15
 70
     0
102
RTVSPropertyOp16
 70
     0
102
RTVSPropertyOp17
 70
     0
102
RTVSPropertyOp18
 70
     0
102
RTVSPropertyOp19
 70
     0
102
RTVSPropertyOp20
 70
     0
102
RTVSPropertyOp21
 70
     0
102
RTVSPropertyOp22
 70
     0
102
RTVSPropertyOp23
 70
     0
102
RTVSPropertyOp24
 70
     0
102
RTVSPropertyOp25
 70
     0
102
RTVSPropertyOp26
 70
     0
102
RTVSPropertyOp27
 70
     0
102
RTVSPropertyOp28
 70
     0
102
RTVSPropertyOp29
 70
     0
102
RTVSPropertyOp30
 70
     0
102
RTVSPropertyOp31
 70
     0
102
RTVSPropertyOp32
 70
     0
102
RTVSPropertyOp33
 70
     0
102
RTVSPropertyOp34
 70
     0
102
RTVSPropertyOp35
 70
     0
102
RTVSPropertyOp36
 70
     0
102
RTVSPropertyOp37
 70
     0
102
RTVSPropertyOp38
 70
     0
102
RTVSPropertyOp39
 70
     0
102
RTVSPropertyOp40
 70
     0
102
RTVSPropertyOp41
 70
     0
102
RTVSPropertyOp42
 70
     0
102
RTVSPropertyOp43
 70
     0
102
RTVSPropertyOp44
 70
     0
102
RTVSPropertyOp45
 70
     0
102
RTVSPropertyOp46
 70
     0
102
RTVSPropertyOp47
 70
     0
102
RTVSPropertyOp48
 70
     0
102
RTVSPropertyOp49
 70
     0
102
RTVSPropertyOp50
 70
     0
102
RTVSPropertyOp51
 70
     0
102
RTVSPropertyOp52
 70
     0
102
RTVSPropertyOp53
 70
     0
102
RTVSPropertyOp54
 70
     0
102
RTVSPropertyOp55
 70
     0
102
RTVSPropertyOp56
 70
     0
102
RTVSPropertyOp57
 70
     0
102
RTVSPropertyOp58
 70
     1
102
RTVSPropertyOp59
 70
     1
102
RTVSPropertyOp60
 70
     1
102
RTVSPropertyOp61
 70
     1
102
RTVSPropertyOp62
 70
     1
  0
XRECORD
  5
38E
102
{ACAD_REACTORS
330
38D
102
}
330
38D
100
AcDbXrecord
280
     1
102
RTVSPost2010Prop28
280
     0
102
RTVSPost2010PropOp28
 70
     1
102
RTVSPost2010Prop29
280
     1
102
RTVSPost2010PropOp29
 70
     1
102
RTVSPost2010Prop30
280
     1
102
RTVSPost2010PropOp30
 70
     1
102
RTVSPost2010Prop31
280
     0
102
RTVSPost2010PropOp31
 70
     1
102
RTVSPost2010Prop32
280
     0
102
RTVSPost2010PropOp32
 70
     1
102
RTVSPost2010Prop33
280
     0
102
RTVSPost2010PropOp33
 70
     1
102
RTVSPost2010Prop34
280
     0
102
RTVSPost2010PropOp34
 70
     1
102
RTVSPost2010Prop35
280
     0
102
RTVSPost2010PropOp35
 70
     1
102
RTVSPost2010Prop36
280
     0
102
RTVSPost2010PropOp36
 70
     1
102
RTVSPost2010Prop37
 90
       50
102
RTVSPost2010PropOp37
 70
     1
102
RTVSPost2010Prop38
140
0.0
102
RTVSPost2010PropOp38
 70
     1
102
RTVSPost2010Prop39
140
1.0
102
RTVSPost2010PropOp39
 70
     1
102
RTVSPost2010Prop40
 90
        0
102
RTVSPost2010PropOp40
 70
     1
102
RTVSPost2010Prop41ColorIndex
 90
       18
102
RTVSPost2010Prop41ColorRGB
 90
        0
102
RTVSPost2010PropOp41
 70
     1
102
RTVSPost2010Prop42
 90
       50
102
RTVSPost2010PropOp42
 70
     1
102
RTVSPost2010Prop43
 90
        3
102
RTVSPost2010PropOp43
 70
     1
102
RTVSPost2010Prop44ColorIndex
 90
        5
102
RTVSPost2010Prop44ColorRGB
 90
      255
102
RTVSPost2010PropOp44
 70
     1
102
RTVSPost2010Prop45
280
     0
102
RTVSPost2010PropOp45
 70
     1
102
RTVSPost2010Prop46
 90
       50
102
RTVSPost2010PropOp46
 70
     1
102
RTVSPost2010Prop47
 90
       50
102
RTVSPost2010PropOp47
 70
     1
102
RTVSPost2010Prop48
 90
       50
102
RTVSPost2010PropOp48
 70
     1
102
RTVSPost2010Prop49
280
     0
102
RTVSPost2010PropOp49
 70
     1
102
RTVSPost2010Prop50
 90
       50
102
RTVSPost2010PropOp50
 70
     1
102
RTVSPost2010Prop51ColorIndex
 90
      256
102
RTVSPost2010Prop51ColorRGB
 90
-16777216
102
RTVSPost2010PropOp51
 70
     0
102
RTVSPost2010Prop52
140
1.0
102
RTVSPost2010PropOp52
 70
     0
102
RTVSPost2010Prop53
 90
        2
102
RTVSPost2010PropOp53
 70
     1
102
RTVSPost2010Prop54
  1
strokes_ogs.tif
102
RTVSPost2010PropOp54
 70
     1
102
RTVSPost2010Prop55
280
     0
102
RTVSPost2010PropOp55
 70
     1
102
RTVSPost2010Prop56
140
1.0
102
RTVSPost2010PropOp56
 70
     1
102
RTVSPost2010Prop57
140
1.0
102
RTVSPost2010PropOp57
 70
     1
102
RTVSPropertyOp0
 70
     1
102
RTVSPropertyOp1
 70
     1
102
RTVSPropertyOp2
 70
     1
102
RTVSPropertyOp3
 70
     1
102
RTVSPropertyOp4
 70
     1
102
RTVSPropertyOp5
 70
     1
102
RTVSPropertyOp6
 70
     1
102
RTVSPropertyOp7
 70
     1
102
RTVSPropertyOp8
 70
     1
102
RTVSPropertyOp9
 70
     1
102
RTVSPropertyOp10
 70
     1
102
RTVSPropertyOp11
 70
     1
102
RTVSPropertyOp12
 70
     1
102
RTVSPropertyOp13
 70
     1
102
RTVSPropertyOp14
 70
     1
102
RTVSPropertyOp15
 70
     1
102
RTVSPropertyOp16
 70
     1
102
RTVSPropertyOp17
 70
     1
102
RTVSPropertyOp18
 70
     1
102
RTVSPropertyOp19
 70
     1
102
RTVSPropertyOp20
 70
     1
102
RTVSPropertyOp21
 70
     1
102
RTVSPropertyOp22
 70
     1
102
RTVSPropertyOp23
 70
     1
102
RTVSPropertyOp24
 70
     1
102
RTVSPropertyOp25
 70
     1
102
RTVSPropertyOp26
 70
     1
102
RTVSPropertyOp27
 70
     1
102
RTVSPropertyOp28
 70
     1
102
RTVSPropertyOp29
 70
     1
102
RTVSPropertyOp30
 70
     1
102
RTVSPropertyOp31
 70
     1
102
RTVSPropertyOp32
 70
     1
102
RTVSPropertyOp33
 70
     1
102
RTVSPropertyOp34
 70
     1
102
RTVSPropertyOp35
 70
     1
102
RTVSPropertyOp36
 70
     1
102
RTVSPropertyOp37
 70
     1
102
RTVSPropertyOp38
 70
     1
102
RTVSPropertyOp39
 70
     1
102
RTVSPropertyOp40
 70
     1
102
RTVSPropertyOp41
 70
     1
102
RTVSPropertyOp42
 70
     1
102
RTVSPropertyOp43
 70
     1
102
RTVSPropertyOp44
 70
     1
102
RTVSPropertyOp45
 70
     1
102
RTVSPropertyOp46
 70
     1
102
RTVSPropertyOp47
 70
     1
102
RTVSPropertyOp48
 70
     1
102
RTVSPropertyOp49
 70
     1
102
RTVSPropertyOp50
 70
     1
102
RTVSPropertyOp51
 70
     0
102
RTVSPropertyOp52
 70
     0
102
RTVSPropertyOp53
 70
     1
102
RTVSPropertyOp54
 70
     1
102
RTVSPropertyOp55
 70
     1
102
RTVSPropertyOp56
 70
     1
102
RTVSPropertyOp57
 70
     1
102
RTVSPropertyOp58
 70
     1
102
RTVSPropertyOp59
 70
     1
102
RTVSPropertyOp60
 70
     1
102
RTVSPropertyOp61
 70
     1
102
RTVSPropertyOp62
 70
     1
  0
XRECORD
  5
372
102
{ACAD_REACTORS
330
371
102
}
330
371
100
AcDbXrecord
280
     1
102
RTVSPost2010Prop28
280
     0
102
RTVSPost2010PropOp28
 70
     1
102
RTVSPost2010Prop29
280
     1
102
RTVSPost2010PropOp29
 70
     1
102
RTVSPost2010Prop30
280
     1
102
RTVSPost2010PropOp30
 70
     1
102
RTVSPost2010Prop31
280
     0
102
RTVSPost2010PropOp31
 70
     1
102
RTVSPost2010Prop32
280
     0
102
RTVSPost2010PropOp32
 70
     1
102
RTVSPost2010Prop33
280
     0
102
RTVSPost2010PropOp33
 70
     1
102
RTVSPost2010Prop34
280
     0
102
RTVSPost2010PropOp34
 70
     1
102
RTVSPost2010Prop35
280
     0
102
RTVSPost2010PropOp35
 70
     1
102
RTVSPost2010Prop36
280
     0
102
RTVSPost2010PropOp36
 70
     1
102
RTVSPost2010Prop37
 90
       50
102
RTVSPost2010PropOp37
 70
     1
102
RTVSPost2010Prop38
140
0.0
102
RTVSPost2010PropOp38
 70
     1
102
RTVSPost2010Prop39
140
1.0
102
RTVSPost2010PropOp39
 70
     1
102
RTVSPost2010Prop40
 90
        0
102
RTVSPost2010PropOp40
 70
     1
102
RTVSPost2010Prop41ColorIndex
 90
       18
102
RTVSPost2010Prop41ColorRGB
 90
        0
102
RTVSPost2010PropOp41
 70
     1
102
RTVSPost2010Prop42
 90
       50
102
RTVSPost2010PropOp42
 70
     1
102
RTVSPost2010Prop43
 90
        3
102
RTVSPost2010PropOp43
 70
     1
102
RTVSPost2010Prop44ColorIndex
 90
        5
102
RTVSPost2010Prop44ColorRGB
 90
      255
102
RTVSPost2010PropOp44
 70
     1
102
RTVSPost2010Prop45
280
     0
102
RTVSPost2010PropOp45
 70
     1
102
RTVSPost2010Prop46
 90
       50
102
RTVSPost2010PropOp46
 70
     1
102
RTVSPost2010Prop47
 90
       50
102
RTVSPost2010PropOp47
 70
     1
102
RTVSPost2010Prop48
 90
       50
102
RTVSPost2010PropOp48
 70
     1
102
RTVSPost2010Prop49
280
     0
102
RTVSPost2010PropOp49
 70
     1
102
RTVSPost2010Prop50
 90
       50
102
RTVSPost2010PropOp50
 70
     1
102
RTVSPost2010Prop51ColorIndex
 90
      256
102
RTVSPost2010Prop51ColorRGB
 90
-16777216
102
RTVSPost2010PropOp51
 70
     0
102
RTVSPost2010Prop52
140
1.0
102
RTVSPost2010PropOp52
 70
     0
102
RTVSPost2010Prop53
 90
        2
102
RTVSPost2010PropOp53
 70
     1
102
RTVSPost2010Prop54
  1
strokes_ogs.tif
102
RTVSPost2010PropOp54
 70
     1
102
RTVSPost2010Prop55
280
     0
102
RTVSPost2010PropOp55
 70
     1
102
RTVSPost2010Prop56
140
1.0
102
RTVSPost2010PropOp56
 70
     1
102
RTVSPost2010Prop57
140
1.0
102
RTVSPost2010PropOp57
 70
     1
102
RTVSPropertyOp0
 70
     1
102
RTVSPropertyOp1
 70
     1
102
RTVSPropertyOp2
 70
     1
102
RTVSPropertyOp3
 70
     1
102
RTVSPropertyOp4
 70
     1
102
RTVSPropertyOp5
 70
     1
102
RTVSPropertyOp6
 70
     1
102
RTVSPropertyOp7
 70
     1
102
RTVSPropertyOp8
 70
     1
102
RTVSPropertyOp9
 70
     1
102
RTVSPropertyOp10
 70
     1
102
RTVSPropertyOp11
 70
     1
102
RTVSPropertyOp12
 70
     1
102
RTVSPropertyOp13
 70
     1
102
RTVSPropertyOp14
 70
     1
102
RTVSPropertyOp15
 70
     1
102
RTVSPropertyOp16
 70
     1
102
RTVSPropertyOp17
 70
     1
102
RTVSPropertyOp18
 70
     1
102
RTVSPropertyOp19
 70
     1
102
RTVSPropertyOp20
 70
     1
102
RTVSPropertyOp21
 70
     1
102
RTVSPropertyOp22
 70
     1
102
RTVSPropertyOp23
 70
     1
102
RTVSPropertyOp24
 70
     1
102
RTVSPropertyOp25
 70
     1
102
RTVSPropertyOp26
 70
     1
102
RTVSPropertyOp27
 70
     1
102
RTVSPropertyOp28
 70
     1
102
RTVSPropertyOp29
 70
     1
102
RTVSPropertyOp30
 70
     1
102
RTVSPropertyOp31
 70
     1
102
RTVSPropertyOp32
 70
     1
102
RTVSPropertyOp33
 70
     1
102
RTVSPropertyOp34
 70
     1
102
RTVSPropertyOp35
 70
     1
102
RTVSPropertyOp36
 70
     1
102
RTVSPropertyOp37
 70
     1
102
RTVSPropertyOp38
 70
     1
102
RTVSPropertyOp39
 70
     1
102
RTVSPropertyOp40
 70
     1
102
RTVSPropertyOp41
 70
     1
102
RTVSPropertyOp42
 70
     1
102
RTVSPropertyOp43
 70
     1
102
RTVSPropertyOp44
 70
     1
102
RTVSPropertyOp45
 70
     1
102
RTVSPropertyOp46
 70
     1
102
RTVSPropertyOp47
 70
     1
102
RTVSPropertyOp48
 70
     1
102
RTVSPropertyOp49
 70
     1
102
RTVSPropertyOp50
 70
     1
102
RTVSPropertyOp51
 70
     0
102
RTVSPropertyOp52
 70
     0
102
RTVSPropertyOp53
 70
     1
102
RTVSPropertyOp54
 70
     1
102
RTVSPropertyOp55
 70
     1
102
RTVSPropertyOp56
 70
     1
102
RTVSPropertyOp57
 70
     1
102
RTVSPropertyOp58
 70
     1
102
RTVSPropertyOp59
 70
     1
102
RTVSPropertyOp60
 70
     1
102
RTVSPropertyOp61
 70
     1
102
RTVSPropertyOp62
 70
     1
  0
XRECORD
  5
374
102
{ACAD_REACTORS
330
373
102
}
330
373
100
AcDbXrecord
280
     1
102
RTVSPost2010Prop28
280
     0
102
RTVSPost2010PropOp28
 70
     1
102
RTVSPost2010Prop29
280
     1
102
RTVSPost2010PropOp29
 70
     1
102
RTVSPost2010Prop30
280
     1
102
RTVSPost2010PropOp30
 70
     1
102
RTVSPost2010Prop31
280
     0
102
RTVSPost2010PropOp31
 70
     1
102
RTVSPost2010Prop32
280
     0
102
RTVSPost2010PropOp32
 70
     1
102
RTVSPost2010Prop33
280
     0
102
RTVSPost2010PropOp33
 70
     1
102
RTVSPost2010Prop34
280
     0
102
RTVSPost2010PropOp34
 70
     1
102
RTVSPost2010Prop35
280
     0
102
RTVSPost2010PropOp35
 70
     1
102
RTVSPost2010Prop36
280
     0
102
RTVSPost2010PropOp36
 70
     1
102
RTVSPost2010Prop37
 90
       50
102
RTVSPost2010PropOp37
 70
     1
102
RTVSPost2010Prop38
140
0.0
102
RTVSPost2010PropOp38
 70
     1
102
RTVSPost2010Prop39
140
1.0
102
RTVSPost2010PropOp39
 70
     1
102
RTVSPost2010Prop40
 90
        0
102
RTVSPost2010PropOp40
 70
     1
102
RTVSPost2010Prop41ColorIndex
 90
       18
102
RTVSPost2010Prop41ColorRGB
 90
        0
102
RTVSPost2010PropOp41
 70
     1
102
RTVSPost2010Prop42
 90
       50
102
RTVSPost2010PropOp42
 70
     1
102
RTVSPost2010Prop43
 90
        3
102
RTVSPost2010PropOp43
 70
     1
102
RTVSPost2010Prop44ColorIndex
 90
        5
102
RTVSPost2010Prop44ColorRGB
 90
      255
102
RTVSPost2010PropOp44
 70
     1
102
RTVSPost2010Prop45
280
     0
102
RTVSPost2010PropOp45
 70
     1
102
RTVSPost2010Prop46
 90
       50
102
RTVSPost2010PropOp46
 70
     1
102
RTVSPost2010Prop47
 90
       50
102
RTVSPost2010PropOp47
 70
     1
102
RTVSPost2010Prop48
 90
       50
102
RTVSPost2010PropOp48
 70
     1
102
RTVSPost2010Prop49
280
     0
102
RTVSPost2010PropOp49
 70
     1
102
RTVSPost2010Prop50
 90
       50
102
RTVSPost2010PropOp50
 70
     1
102
RTVSPost2010Prop51ColorIndex
 90
      256
102
RTVSPost2010Prop51ColorRGB
 90
-16777216
102
RTVSPost2010PropOp51
 70
     0
102
RTVSPost2010Prop52
140
1.0
102
RTVSPost2010PropOp52
 70
     0
102
RTVSPost2010Prop53
 90
        2
102
RTVSPost2010PropOp53
 70
     1
102
RTVSPost2010Prop54
  1
strokes_ogs.tif
102
RTVSPost2010PropOp54
 70
     1
102
RTVSPost2010Prop55
280
     0
102
RTVSPost2010PropOp55
 70
     1
102
RTVSPost2010Prop56
140
1.0
102
RTVSPost2010PropOp56
 70
     1
102
RTVSPost2010Prop57
140
1.0
102
RTVSPost2010PropOp57
 70
     1
102
RTVSPropertyOp0
 70
     1
102
RTVSPropertyOp1
 70
     1
102
RTVSPropertyOp2
 70
     1
102
RTVSPropertyOp3
 70
     1
102
RTVSPropertyOp4
 70
     1
102
RTVSPropertyOp5
 70
     1
102
RTVSPropertyOp6
 70
     1
102
RTVSPropertyOp7
 70
     1
102
RTVSPropertyOp8
 70
     1
102
RTVSPropertyOp9
 70
     1
102
RTVSPropertyOp10
 70
     1
102
RTVSPropertyOp11
 70
     1
102
RTVSPropertyOp12
 70
     1
102
RTVSPropertyOp13
 70
     1
102
RTVSPropertyOp14
 70
     1
102
RTVSPropertyOp15
 70
     1
102
RTVSPropertyOp16
 70
     1
102
RTVSPropertyOp17
 70
     1
102
RTVSPropertyOp18
 70
     1
102
RTVSPropertyOp19
 70
     1
102
RTVSPropertyOp20
 70
     1
102
RTVSPropertyOp21
 70
     1
102
RTVSPropertyOp22
 70
     1
102
RTVSPropertyOp23
 70
     1
102
RTVSPropertyOp24
 70
     1
102
RTVSPropertyOp25
 70
     1
102
RTVSPropertyOp26
 70
     1
102
RTVSPropertyOp27
 70
     1
102
RTVSPropertyOp28
 70
     1
102
RTVSPropertyOp29
 70
     1
102
RTVSPropertyOp30
 70
     1
102
RTVSPropertyOp31
 70
     1
102
RTVSPropertyOp32
 70
     1
102
RTVSPropertyOp33
 70
     1
102
RTVSPropertyOp34
 70
     1
102
RTVSPropertyOp35
 70
     1
102
RTVSPropertyOp36
 70
     1
102
RTVSPropertyOp37
 70
     1
102
RTVSPropertyOp38
 70
     1
102
RTVSPropertyOp39
 70
     1
102
RTVSPropertyOp40
 70
     1
102
RTVSPropertyOp41
 70
     1
102
RTVSPropertyOp42
 70
     1
102
RTVSPropertyOp43
 70
     1
102
RTVSPropertyOp44
 70
     1
102
RTVSPropertyOp45
 70
     1
102
RTVSPropertyOp46
 70
     1
102
RTVSPropertyOp47
 70
     1
102
RTVSPropertyOp48
 70
     1
102
RTVSPropertyOp49
 70
     1
102
RTVSPropertyOp50
 70
     1
102
RTVSPropertyOp51
 70
     0
102
RTVSPropertyOp52
 70
     0
102
RTVSPropertyOp53
 70
     1
102
RTVSPropertyOp54
 70
     1
102
RTVSPropertyOp55
 70
     1
102
RTVSPropertyOp56
 70
     1
102
RTVSPropertyOp57
 70
     1
102
RTVSPropertyOp58
 70
     1
102
RTVSPropertyOp59
 70
     1
102
RTVSPropertyOp60
 70
     1
102
RTVSPropertyOp61
 70
     1
102
RTVSPropertyOp62
 70
     1
  0
XRECORD
  5
376
102
{ACAD_REACTORS
330
375
102
}
330
375
100
AcDbXrecord
280
     1
102
RTVSPost2010Prop28
280
     0
102
RTVSPost2010PropOp28
 70
     1
102
RTVSPost2010Prop29
280
     1
102
RTVSPost2010PropOp29
 70
     1
102
RTVSPost2010Prop30
280
     1
102
RTVSPost2010PropOp30
 70
     1
102
RTVSPost2010Prop31
280
     0
102
RTVSPost2010PropOp31
 70
     1
102
RTVSPost2010Prop32
280
     0
102
RTVSPost2010PropOp32
 70
     1
102
RTVSPost2010Prop33
280
     0
102
RTVSPost2010PropOp33
 70
     1
102
RTVSPost2010Prop34
280
     0
102
RTVSPost2010PropOp34
 70
     1
102
RTVSPost2010Prop35
280
     0
102
RTVSPost2010PropOp35
 70
     1
102
RTVSPost2010Prop36
280
     0
102
RTVSPost2010PropOp36
 70
     1
102
RTVSPost2010Prop37
 90
       50
102
RTVSPost2010PropOp37
 70
     1
102
RTVSPost2010Prop38
140
0.0
102
RTVSPost2010PropOp38
 70
     1
102
RTVSPost2010Prop39
140
1.0
102
RTVSPost2010PropOp39
 70
     1
102
RTVSPost2010Prop40
 90
        0
102
RTVSPost2010PropOp40
 70
     1
102
RTVSPost2010Prop41ColorIndex
 90
       18
102
RTVSPost2010Prop41ColorRGB
 90
        0
102
RTVSPost2010PropOp41
 70
     1
102
RTVSPost2010Prop42
 90
       50
102
RTVSPost2010PropOp42
 70
     1
102
RTVSPost2010Prop43
 90
        3
102
RTVSPost2010PropOp43
 70
     1
102
RTVSPost2010Prop44ColorIndex
 90
        5
102
RTVSPost2010Prop44ColorRGB
 90
      255
102
RTVSPost2010PropOp44
 70
     1
102
RTVSPost2010Prop45
280
     0
102
RTVSPost2010PropOp45
 70
     1
102
RTVSPost2010Prop46
 90
       50
102
RTVSPost2010PropOp46
 70
     1
102
RTVSPost2010Prop47
 90
       50
102
RTVSPost2010PropOp47
 70
     1
102
RTVSPost2010Prop48
 90
       50
102
RTVSPost2010PropOp48
 70
     1
102
RTVSPost2010Prop49
280
     0
102
RTVSPost2010PropOp49
 70
     1
102
RTVSPost2010Prop50
 90
       50
102
RTVSPost2010PropOp50
 70
     1
102
RTVSPost2010Prop51ColorIndex
 90
      256
102
RTVSPost2010Prop51ColorRGB
 90
-16777216
102
RTVSPost2010PropOp51
 70
     0
102
RTVSPost2010Prop52
140
1.0
102
RTVSPost2010PropOp52
 70
     0
102
RTVSPost2010Prop53
 90
        2
102
RTVSPost2010PropOp53
 70
     1
102
RTVSPost2010Prop54
  1
strokes_ogs.tif
102
RTVSPost2010PropOp54
 70
     1
102
RTVSPost2010Prop55
280
     0
102
RTVSPost2010PropOp55
 70
     1
102
RTVSPost2010Prop56
140
1.0
102
RTVSPost2010PropOp56
 70
     1
102
RTVSPost2010Prop57
140
1.0
102
RTVSPost2010PropOp57
 70
     1
102
RTVSPropertyOp0
 70
     1
102
RTVSPropertyOp1
 70
     1
102
RTVSPropertyOp2
 70
     1
102
RTVSPropertyOp3
 70
     1
102
RTVSPropertyOp4
 70
     1
102
RTVSPropertyOp5
 70
     1
102
RTVSPropertyOp6
 70
     1
102
RTVSPropertyOp7
 70
     1
102
RTVSPropertyOp8
 70
     1
102
RTVSPropertyOp9
 70
     1
102
RTVSPropertyOp10
 70
     1
102
RTVSPropertyOp11
 70
     1
102
RTVSPropertyOp12
 70
     1
102
RTVSPropertyOp13
 70
     1
102
RTVSPropertyOp14
 70
     1
102
RTVSPropertyOp15
 70
     1
102
RTVSPropertyOp16
 70
     1
102
RTVSPropertyOp17
 70
     1
102
RTVSPropertyOp18
 70
     1
102
RTVSPropertyOp19
 70
     1
102
RTVSPropertyOp20
 70
     1
102
RTVSPropertyOp21
 70
     1
102
RTVSPropertyOp22
 70
     1
102
RTVSPropertyOp23
 70
     1
102
RTVSPropertyOp24
 70
     1
102
RTVSPropertyOp25
 70
     1
102
RTVSPropertyOp26
 70
     1
102
RTVSPropertyOp27
 70
     1
102
RTVSPropertyOp28
 70
     1
102
RTVSPropertyOp29
 70
     1
102
RTVSPropertyOp30
 70
     1
102
RTVSPropertyOp31
 70
     1
102
RTVSPropertyOp32
 70
     1
102
RTVSPropertyOp33
 70
     1
102
RTVSPropertyOp34
 70
     1
102
RTVSPropertyOp35
 70
     1
102
RTVSPropertyOp36
 70
     1
102
RTVSPropertyOp37
 70
     1
102
RTVSPropertyOp38
 70
     1
102
RTVSPropertyOp39
 70
     1
102
RTVSPropertyOp40
 70
     1
102
RTVSPropertyOp41
 70
     1
102
RTVSPropertyOp42
 70
     1
102
RTVSPropertyOp43
 70
     1
102
RTVSPropertyOp44
 70
     1
102
RTVSPropertyOp45
 70
     1
102
RTVSPropertyOp46
 70
     1
102
RTVSPropertyOp47
 70
     1
102
RTVSPropertyOp48
 70
     1
102
RTVSPropertyOp49
 70
     1
102
RTVSPropertyOp50
 70
     1
102
RTVSPropertyOp51
 70
     0
102
RTVSPropertyOp52
 70
     0
102
RTVSPropertyOp53
 70
     1
102
RTVSPropertyOp54
 70
     1
102
RTVSPropertyOp55
 70
     1
102
RTVSPropertyOp56
 70
     1
102
RTVSPropertyOp57
 70
     1
102
RTVSPropertyOp58
 70
     1
102
RTVSPropertyOp59
 70
     1
102
RTVSPropertyOp60
 70
     1
102
RTVSPropertyOp61
 70
     1
102
RTVSPropertyOp62
 70
     1
  0
XRECORD
  5
378
102
{ACAD_REACTORS
330
377
102
}
330
377
100
AcDbXrecord
280
     1
102
RTVSPost2010Prop28
280
     0
102
RTVSPost2010PropOp28
 70
     1
102
RTVSPost2010Prop29
280
     1
102
RTVSPost2010PropOp29
 70
     1
102
RTVSPost2010Prop30
280
     1
102
RTVSPost2010PropOp30
 70
     1
102
RTVSPost2010Prop31
280
     0
102
RTVSPost2010PropOp31
 70
     1
102
RTVSPost2010Prop32
280
     0
102
RTVSPost2010PropOp32
 70
     1
102
RTVSPost2010Prop33
280
     0
102
RTVSPost2010PropOp33
 70
     1
102
RTVSPost2010Prop34
280
     0
102
RTVSPost2010PropOp34
 70
     1
102
RTVSPost2010Prop35
280
     0
102
RTVSPost2010PropOp35
 70
     1
102
RTVSPost2010Prop36
280
     0
102
RTVSPost2010PropOp36
 70
     1
102
RTVSPost2010Prop37
 90
       50
102
RTVSPost2010PropOp37
 70
     1
102
RTVSPost2010Prop38
140
0.0
102
RTVSPost2010PropOp38
 70
     1
102
RTVSPost2010Prop39
140
1.0
102
RTVSPost2010PropOp39
 70
     1
102
RTVSPost2010Prop40
 90
        0
102
RTVSPost2010PropOp40
 70
     1
102
RTVSPost2010Prop41ColorIndex
 90
       18
102
RTVSPost2010Prop41ColorRGB
 90
        0
102
RTVSPost2010PropOp41
 70
     1
102
RTVSPost2010Prop42
 90
       50
102
RTVSPost2010PropOp42
 70
     1
102
RTVSPost2010Prop43
 90
        3
102
RTVSPost2010PropOp43
 70
     1
102
RTVSPost2010Prop44ColorIndex
 90
        5
102
RTVSPost2010Prop44ColorRGB
 90
      255
102
RTVSPost2010PropOp44
 70
     1
102
RTVSPost2010Prop45
280
     0
102
RTVSPost2010PropOp45
 70
     1
102
RTVSPost2010Prop46
 90
       50
102
RTVSPost2010PropOp46
 70
     1
102
RTVSPost2010Prop47
 90
       50
102
RTVSPost2010PropOp47
 70
     1
102
RTVSPost2010Prop48
 90
       50
102
RTVSPost2010PropOp48
 70
     1
102
RTVSPost2010Prop49
280
     0
102
RTVSPost2010PropOp49
 70
     1
102
RTVSPost2010Prop50
 90
       50
102
RTVSPost2010PropOp50
 70
     1
102
RTVSPost2010Prop51ColorIndex
 90
      256
102
RTVSPost2010Prop51ColorRGB
 90
-16777216
102
RTVSPost2010PropOp51
 70
     0
102
RTVSPost2010Prop52
140
1.0
102
RTVSPost2010PropOp52
 70
     0
102
RTVSPost2010Prop53
 90
        2
102
RTVSPost2010PropOp53
 70
     1
102
RTVSPost2010Prop54
  1
strokes_ogs.tif
102
RTVSPost2010PropOp54
 70
     1
102
RTVSPost2010Prop55
280
     0
102
RTVSPost2010PropOp55
 70
     1
102
RTVSPost2010Prop56
140
1.0
102
RTVSPost2010PropOp56
 70
     1
102
RTVSPost2010Prop57
140
1.0
102
RTVSPost2010PropOp57
 70
     1
102
RTVSPropertyOp0
 70
     1
102
RTVSPropertyOp1
 70
     1
102
RTVSPropertyOp2
 70
     1
102
RTVSPropertyOp3
 70
     1
102
RTVSPropertyOp4
 70
     1
102
RTVSPropertyOp5
 70
     1
102
RTVSPropertyOp6
 70
     1
102
RTVSPropertyOp7
 70
     1
102
RTVSPropertyOp8
 70
     1
102
RTVSPropertyOp9
 70
     1
102
RTVSPropertyOp10
 70
     1
102
RTVSPropertyOp11
 70
     1
102
RTVSPropertyOp12
 70
     1
102
RTVSPropertyOp13
 70
     1
102
RTVSPropertyOp14
 70
     1
102
RTVSPropertyOp15
 70
     1
102
RTVSPropertyOp16
 70
     1
102
RTVSPropertyOp17
 70
     1
102
RTVSPropertyOp18
 70
     1
102
RTVSPropertyOp19
 70
     1
102
RTVSPropertyOp20
 70
     1
102
RTVSPropertyOp21
 70
     1
102
RTVSPropertyOp22
 70
     1
102
RTVSPropertyOp23
 70
     1
102
RTVSPropertyOp24
 70
     1
102
RTVSPropertyOp25
 70
     1
102
RTVSPropertyOp26
 70
     1
102
RTVSPropertyOp27
 70
     1
102
RTVSPropertyOp28
 70
     1
102
RTVSPropertyOp29
 70
     1
102
RTVSPropertyOp30
 70
     1
102
RTVSPropertyOp31
 70
     1
102
RTVSPropertyOp32
 70
     1
102
RTVSPropertyOp33
 70
     1
102
RTVSPropertyOp34
 70
     1
102
RTVSPropertyOp35
 70
     1
102
RTVSPropertyOp36
 70
     1
102
RTVSPropertyOp37
 70
     1
102
RTVSPropertyOp38
 70
     1
102
RTVSPropertyOp39
 70
     1
102
RTVSPropertyOp40
 70
     1
102
RTVSPropertyOp41
 70
     1
102
RTVSPropertyOp42
 70
     1
102
RTVSPropertyOp43
 70
     1
102
RTVSPropertyOp44
 70
     1
102
RTVSPropertyOp45
 70
     1
102
RTVSPropertyOp46
 70
     1
102
RTVSPropertyOp47
 70
     1
102
RTVSPropertyOp48
 70
     1
102
RTVSPropertyOp49
 70
     1
102
RTVSPropertyOp50
 70
     1
102
RTVSPropertyOp51
 70
     0
102
RTVSPropertyOp52
 70
     0
102
RTVSPropertyOp53
 70
     1
102
RTVSPropertyOp54
 70
     1
102
RTVSPropertyOp55
 70
     1
102
RTVSPropertyOp56
 70
     1
102
RTVSPropertyOp57
 70
     1
102
RTVSPropertyOp58
 70
     1
102
RTVSPropertyOp59
 70
     1
102
RTVSPropertyOp60
 70
     1
102
RTVSPropertyOp61
 70
     1
102
RTVSPropertyOp62
 70
     1
  0
XRECORD
  5
37E
102
{ACAD_REACTORS
330
37D
102
}
330
37D
100
AcDbXrecord
280
     1
102
RTVSPost2010Prop28
280
     0
102
RTVSPost2010PropOp28
 70
     1
102
RTVSPost2010Prop29
280
     1
102
RTVSPost2010PropOp29
 70
     1
102
RTVSPost2010Prop30
280
     1
102
RTVSPost2010PropOp30
 70
     1
102
RTVSPost2010Prop31
280
     0
102
RTVSPost2010PropOp31
 70
     1
102
RTVSPost2010Prop32
280
     0
102
RTVSPost2010PropOp32
 70
     1
102
RTVSPost2010Prop33
280
     0
102
RTVSPost2010PropOp33
 70
     1
102
RTVSPost2010Prop34
280
     0
102
RTVSPost2010PropOp34
 70
     1
102
RTVSPost2010Prop35
280
     0
102
RTVSPost2010PropOp35
 70
     1
102
RTVSPost2010Prop36
280
     0
102
RTVSPost2010PropOp36
 70
     1
102
RTVSPost2010Prop37
 90
       50
102
RTVSPost2010PropOp37
 70
     1
102
RTVSPost2010Prop38
140
0.0
102
RTVSPost2010PropOp38
 70
     1
102
RTVSPost2010Prop39
140
1.0
102
RTVSPost2010PropOp39
 70
     1
102
RTVSPost2010Prop40
 90
        0
102
RTVSPost2010PropOp40
 70
     1
102
RTVSPost2010Prop41ColorIndex
 90
       18
102
RTVSPost2010Prop41ColorRGB
 90
        0
102
RTVSPost2010PropOp41
 70
     1
102
RTVSPost2010Prop42
 90
       50
102
RTVSPost2010PropOp42
 70
     1
102
RTVSPost2010Prop43
 90
        3
102
RTVSPost2010PropOp43
 70
     1
102
RTVSPost2010Prop44ColorIndex
 90
        5
102
RTVSPost2010Prop44ColorRGB
 90
      255
102
RTVSPost2010PropOp44
 70
     1
102
RTVSPost2010Prop45
280
     0
102
RTVSPost2010PropOp45
 70
     1
102
RTVSPost2010Prop46
 90
       50
102
RTVSPost2010PropOp46
 70
     1
102
RTVSPost2010Prop47
 90
       50
102
RTVSPost2010PropOp47
 70
     1
102
RTVSPost2010Prop48
 90
       50
102
RTVSPost2010PropOp48
 70
     1
102
RTVSPost2010Prop49
280
     0
102
RTVSPost2010PropOp49
 70
     1
102
RTVSPost2010Prop50
 90
       50
102
RTVSPost2010PropOp50
 70
     1
102
RTVSPost2010Prop51ColorIndex
 90
      256
102
RTVSPost2010Prop51ColorRGB
 90
-16777216
102
RTVSPost2010PropOp51
 70
     0
102
RTVSPost2010Prop52
140
1.0
102
RTVSPost2010PropOp52
 70
     0
102
RTVSPost2010Prop53
 90
        2
102
RTVSPost2010PropOp53
 70
     1
102
RTVSPost2010Prop54
  1
strokes_ogs.tif
102
RTVSPost2010PropOp54
 70
     1
102
RTVSPost2010Prop55
280
     0
102
RTVSPost2010PropOp55
 70
     1
102
RTVSPost2010Prop56
140
1.0
102
RTVSPost2010PropOp56
 70
     1
102
RTVSPost2010Prop57
140
1.0
102
RTVSPost2010PropOp57
 70
     1
102
RTVSPropertyOp0
 70
     1
102
RTVSPropertyOp1
 70
     1
102
RTVSPropertyOp2
 70
     1
102
RTVSPropertyOp3
 70
     1
102
RTVSPropertyOp4
 70
     1
102
RTVSPropertyOp5
 70
     1
102
RTVSPropertyOp6
 70
     1
102
RTVSPropertyOp7
 70
     1
102
RTVSPropertyOp8
 70
     1
102
RTVSPropertyOp9
 70
     1
102
RTVSPropertyOp10
 70
     1
102
RTVSPropertyOp11
 70
     1
102
RTVSPropertyOp12
 70
     1
102
RTVSPropertyOp13
 70
     1
102
RTVSPropertyOp14
 70
     1
102
RTVSPropertyOp15
 70
     1
102
RTVSPropertyOp16
 70
     1
102
RTVSPropertyOp17
 70
     1
102
RTVSPropertyOp18
 70
     1
102
RTVSPropertyOp19
 70
     1
102
RTVSPropertyOp20
 70
     1
102
RTVSPropertyOp21
 70
     1
102
RTVSPropertyOp22
 70
     1
102
RTVSPropertyOp23
 70
     1
102
RTVSPropertyOp24
 70
     1
102
RTVSPropertyOp25
 70
     1
102
RTVSPropertyOp26
 70
     1
102
RTVSPropertyOp27
 70
     1
102
RTVSPropertyOp28
 70
     1
102
RTVSPropertyOp29
 70
     1
102
RTVSPropertyOp30
 70
     1
102
RTVSPropertyOp31
 70
     1
102
RTVSPropertyOp32
 70
     1
102
RTVSPropertyOp33
 70
     1
102
RTVSPropertyOp34
 70
     1
102
RTVSPropertyOp35
 70
     1
102
RTVSPropertyOp36
 70
     1
102
RTVSPropertyOp37
 70
     1
102
RTVSPropertyOp38
 70
     1
102
RTVSPropertyOp39
 70
     1
102
RTVSPropertyOp40
 70
     1
102
RTVSPropertyOp41
 70
     1
102
RTVSPropertyOp42
 70
     1
102
RTVSPropertyOp43
 70
     1
102
RTVSPropertyOp44
 70
     1
102
RTVSPropertyOp45
 70
     1
102
RTVSPropertyOp46
 70
     1
102
RTVSPropertyOp47
 70
     1
102
RTVSPropertyOp48
 70
     1
102
RTVSPropertyOp49
 70
     1
102
RTVSPropertyOp50
 70
     1
102
RTVSPropertyOp51
 70
     0
102
RTVSPropertyOp52
 70
     0
102
RTVSPropertyOp53
 70
     1
102
RTVSPropertyOp54
 70
     1
102
RTVSPropertyOp55
 70
     1
102
RTVSPropertyOp56
 70
     1
102
RTVSPropertyOp57
 70
     1
102
RTVSPropertyOp58
 70
     1
102
RTVSPropertyOp59
 70
     1
102
RTVSPropertyOp60
 70
     1
102
RTVSPropertyOp61
 70
     1
102
RTVSPropertyOp62
 70
     1
  0
XRECORD
  5
392
102
{ACAD_REACTORS
330
391
102
}
330
391
100
AcDbXrecord
280
     1
102
RTVSPost2010Prop28
280
     0
102
RTVSPost2010PropOp28
 70
     0
102
RTVSPost2010Prop29
280
     1
102
RTVSPost2010PropOp29
 70
     0
102
RTVSPost2010Prop30
280
     1
102
RTVSPost2010PropOp30
 70
     0
102
RTVSPost2010Prop31
280
     0
102
RTVSPost2010PropOp31
 70
     0
102
RTVSPost2010Prop32
280
     0
102
RTVSPost2010PropOp32
 70
     0
102
RTVSPost2010Prop33
280
     0
102
RTVSPost2010PropOp33
 70
     0
102
RTVSPost2010Prop34
280
     0
102
RTVSPost2010PropOp34
 70
     0
102
RTVSPost2010Prop35
280
     0
102
RTVSPost2010PropOp35
 70
     0
102
RTVSPost2010Prop36
280
     0
102
RTVSPost2010PropOp36
 70
     0
102
RTVSPost2010Prop37
 90
       50
102
RTVSPost2010PropOp37
 70
     0
102
RTVSPost2010Prop38
140
0.0
102
RTVSPost2010PropOp38
 70
     0
102
RTVSPost2010Prop39
140
1.0
102
RTVSPost2010PropOp39
 70
     0
102
RTVSPost2010Prop40
 90
        0
102
RTVSPost2010PropOp40
 70
     0
102
RTVSPost2010Prop41ColorIndex
 90
       18
102
RTVSPost2010Prop41ColorRGB
 90
        0
102
RTVSPost2010PropOp41
 70
     0
102
RTVSPost2010Prop42
 90
       50
102
RTVSPost2010PropOp42
 70
     0
102
RTVSPost2010Prop43
 90
        3
102
RTVSPost2010PropOp43
 70
     0
102
RTVSPost2010Prop44ColorIndex
 90
        5
102
RTVSPost2010Prop44ColorRGB
 90
      255
102
RTVSPost2010PropOp44
 70
     0
102
RTVSPost2010Prop45
280
     0
102
RTVSPost2010PropOp45
 70
     0
102
RTVSPost2010Prop46
 90
       50
102
RTVSPost2010PropOp46
 70
     0
102
RTVSPost2010Prop47
 90
       50
102
RTVSPost2010PropOp47
 70
     0
102
RTVSPost2010Prop48
 90
       50
102
RTVSPost2010PropOp48
 70
     0
102
RTVSPost2010Prop49
280
     0
102
RTVSPost2010PropOp49
 70
     0
102
RTVSPost2010Prop50
 90
       50
102
RTVSPost2010PropOp50
 70
     0
102
RTVSPost2010Prop51ColorIndex
 90
      256
102
RTVSPost2010Prop51ColorRGB
 90
-16777216
102
RTVSPost2010PropOp51
 70
     0
102
RTVSPost2010Prop52
140
1.0
102
RTVSPost2010PropOp52
 70
     0
102
RTVSPost2010Prop53
 90
        2
102
RTVSPost2010PropOp53
 70
     0
102
RTVSPost2010Prop54
  1
strokes_ogs.tif
102
RTVSPost2010PropOp54
 70
     0
102
RTVSPost2010Prop55
280
     0
102
RTVSPost2010PropOp55
 70
     0
102
RTVSPost2010Prop56
140
1.0
102
RTVSPost2010PropOp56
 70
     0
102
RTVSPost2010Prop57
140
1.0
102
RTVSPost2010PropOp57
 70
     0
102
RTVSPropertyOp0
 70
     0
102
RTVSPropertyOp1
 70
     0
102
RTVSPropertyOp2
 70
     0
102
RTVSPropertyOp3
 70
     0
102
RTVSPropertyOp4
 70
     0
102
RTVSPropertyOp5
 70
     0
102
RTVSPropertyOp6
 70
     0
102
RTVSPropertyOp7
 70
     0
102
RTVSPropertyOp8
 70
     0
102
RTVSPropertyOp9
 70
     0
102
RTVSPropertyOp10
 70
     0
102
RTVSPropertyOp11
 70
     0
102
RTVSPropertyOp12
 70
     0
102
RTVSPropertyOp13
 70
     0
102
RTVSPropertyOp14
 70
     2
102
RTVSPropertyOp15
 70
     0
102
RTVSPropertyOp16
 70
     0
102
RTVSPropertyOp17
 70
     0
102
RTVSPropertyOp18
 70
     0
102
RTVSPropertyOp19
 70
     0
102
RTVSPropertyOp20
 70
     0
102
RTVSPropertyOp21
 70
     0
102
RTVSPropertyOp22
 70
     0
102
RTVSPropertyOp23
 70
     0
102
RTVSPropertyOp24
 70
     0
102
RTVSPropertyOp25
 70
     0
102
RTVSPropertyOp26
 70
     0
102
RTVSPropertyOp27
 70
     0
102
RTVSPropertyOp28
 70
     0
102
RTVSPropertyOp29
 70
     0
102
RTVSPropertyOp30
 70
     0
102
RTVSPropertyOp31
 70
     0
102
RTVSPropertyOp32
 70
     0
102
RTVSPropertyOp33
 70
     0
102
RTVSPropertyOp34
 70
     0
102
RTVSPropertyOp35
 70
     0
102
RTVSPropertyOp36
 70
     0
102
RTVSPropertyOp37
 70
     0
102
RTVSPropertyOp38
 70
     0
102
RTVSPropertyOp39
 70
     0
102
RTVSPropertyOp40
 70
     0
102
RTVSPropertyOp41
 70
     0
102
RTVSPropertyOp42
 70
     0
102
RTVSPropertyOp43
 70
     0
102
RTVSPropertyOp44
 70
     0
102
RTVSPropertyOp45
 70
     0
102
RTVSPropertyOp46
 70
     0
102
RTVSPropertyOp47
 70
     0
102
RTVSPropertyOp48
 70
     0
102
RTVSPropertyOp49
 70
     0
102
RTVSPropertyOp50
 70
     0
102
RTVSPropertyOp51
 70
     0
102
RTVSPropertyOp52
 70
     0
102
RTVSPropertyOp53
 70
     0
102
RTVSPropertyOp54
 70
     0
102
RTVSPropertyOp55
 70
     0
102
RTVSPropertyOp56
 70
     0
102
RTVSPropertyOp57
 70
     0
102
RTVSPropertyOp58
 70
     1
102
RTVSPropertyOp59
 70
     1
102
RTVSPropertyOp60
 70
     1
102
RTVSPropertyOp61
 70
     1
102
RTVSPropertyOp62
 70
     1
  0
XRECORD
  5
38C
102
{ACAD_REACTORS
330
38B
102
}
330
38B
100
AcDbXrecord
280
     1
102
RTVSPost2010Prop28
280
     0
102
RTVSPost2010PropOp28
 70
     1
102
RTVSPost2010Prop29
280
     1
102
RTVSPost2010PropOp29
 70
     1
102
RTVSPost2010Prop30
280
     1
102
RTVSPost2010PropOp30
 70
     1
102
RTVSPost2010Prop31
280
     0
102
RTVSPost2010PropOp31
 70
     1
102
RTVSPost2010Prop32
280
     0
102
RTVSPost2010PropOp32
 70
     1
102
RTVSPost2010Prop33
280
     0
102
RTVSPost2010PropOp33
 70
     1
102
RTVSPost2010Prop34
280
     0
102
RTVSPost2010PropOp34
 70
     1
102
RTVSPost2010Prop35
280
     0
102
RTVSPost2010PropOp35
 70
     1
102
RTVSPost2010Prop36
280
     0
102
RTVSPost2010PropOp36
 70
     1
102
RTVSPost2010Prop37
 90
       50
102
RTVSPost2010PropOp37
 70
     1
102
RTVSPost2010Prop38
140
0.0
102
RTVSPost2010PropOp38
 70
     1
102
RTVSPost2010Prop39
140
1.0
102
RTVSPost2010PropOp39
 70
     1
102
RTVSPost2010Prop40
 90
        0
102
RTVSPost2010PropOp40
 70
     1
102
RTVSPost2010Prop41ColorIndex
 90
       18
102
RTVSPost2010Prop41ColorRGB
 90
        0
102
RTVSPost2010PropOp41
 70
     1
102
RTVSPost2010Prop42
 90
       50
102
RTVSPost2010PropOp42
 70
     1
102
RTVSPost2010Prop43
 90
        3
102
RTVSPost2010PropOp43
 70
     1
102
RTVSPost2010Prop44ColorIndex
 90
        5
102
RTVSPost2010Prop44ColorRGB
 90
      255
102
RTVSPost2010PropOp44
 70
     1
102
RTVSPost2010Prop45
280
     0
102
RTVSPost2010PropOp45
 70
     1
102
RTVSPost2010Prop46
 90
       50
102
RTVSPost2010PropOp46
 70
     1
102
RTVSPost2010Prop47
 90
       50
102
RTVSPost2010PropOp47
 70
     1
102
RTVSPost2010Prop48
 90
       50
102
RTVSPost2010PropOp48
 70
     1
102
RTVSPost2010Prop49
280
     0
102
RTVSPost2010PropOp49
 70
     1
102
RTVSPost2010Prop50
 90
       50
102
RTVSPost2010PropOp50
 70
     1
102
RTVSPost2010Prop51ColorIndex
 90
      256
102
RTVSPost2010Prop51ColorRGB
 90
-16777216
102
RTVSPost2010PropOp51
 70
     0
102
RTVSPost2010Prop52
140
1.0
102
RTVSPost2010PropOp52
 70
     0
102
RTVSPost2010Prop53
 90
        2
102
RTVSPost2010PropOp53
 70
     1
102
RTVSPost2010Prop54
  1
strokes_ogs.tif
102
RTVSPost2010PropOp54
 70
     1
102
RTVSPost2010Prop55
280
     0
102
RTVSPost2010PropOp55
 70
     1
102
RTVSPost2010Prop56
140
1.0
102
RTVSPost2010PropOp56
 70
     1
102
RTVSPost2010Prop57
140
1.0
102
RTVSPost2010PropOp57
 70
     1
102
RTVSPropertyOp0
 70
     1
102
RTVSPropertyOp1
 70
     1
102
RTVSPropertyOp2
 70
     1
102
RTVSPropertyOp3
 70
     1
102
RTVSPropertyOp4
 70
     1
102
RTVSPropertyOp5
 70
     1
102
RTVSPropertyOp6
 70
     1
102
RTVSPropertyOp7
 70
     1
102
RTVSPropertyOp8
 70
     1
102
RTVSPropertyOp9
 70
     1
102
RTVSPropertyOp10
 70
     1
102
RTVSPropertyOp11
 70
     1
102
RTVSPropertyOp12
 70
     1
102
RTVSPropertyOp13
 70
     1
102
RTVSPropertyOp14
 70
     1
102
RTVSPropertyOp15
 70
     1
102
RTVSPropertyOp16
 70
     1
102
RTVSPropertyOp17
 70
     1
102
RTVSPropertyOp18
 70
     1
102
RTVSPropertyOp19
 70
     1
102
RTVSPropertyOp20
 70
     1
102
RTVSPropertyOp21
 70
     1
102
RTVSPropertyOp22
 70
     1
102
RTVSPropertyOp23
 70
     1
102
RTVSPropertyOp24
 70
     1
102
RTVSPropertyOp25
 70
     1
102
RTVSPropertyOp26
 70
     1
102
RTVSPropertyOp27
 70
     1
102
RTVSPropertyOp28
 70
     1
102
RTVSPropertyOp29
 70
     1
102
RTVSPropertyOp30
 70
     1
102
RTVSPropertyOp31
 70
     1
102
RTVSPropertyOp32
 70
     1
102
RTVSPropertyOp33
 70
     1
102
RTVSPropertyOp34
 70
     1
102
RTVSPropertyOp35
 70
     1
102
RTVSPropertyOp36
 70
     1
102
RTVSPropertyOp37
 70
     1
102
RTVSPropertyOp38
 70
     1
102
RTVSPropertyOp39
 70
     1
102
RTVSPropertyOp40
 70
     1
102
RTVSPropertyOp41
 70
     1
102
RTVSPropertyOp42
 70
     1
102
RTVSPropertyOp43
 70
     1
102
RTVSPropertyOp44
 70
     1
102
RTVSPropertyOp45
 70
     1
102
RTVSPropertyOp46
 70
     1
102
RTVSPropertyOp47
 70
     1
102
RTVSPropertyOp48
 70
     1
102
RTVSPropertyOp49
 70
     1
102
RTVSPropertyOp50
 70
     1
102
RTVSPropertyOp51
 70
     0
102
RTVSPropertyOp52
 70
     0
102
RTVSPropertyOp53
 70
     1
102
RTVSPropertyOp54
 70
     1
102
RTVSPropertyOp55
 70
     1
102
RTVSPropertyOp56
 70
     1
102
RTVSPropertyOp57
 70
     1
102
RTVSPropertyOp58
 70
     1
102
RTVSPropertyOp59
 70
     1
102
RTVSPropertyOp60
 70
     1
102
RTVSPropertyOp61
 70
     1
102
RTVSPropertyOp62
 70
     1
  0
XRECORD
  5
394
102
{ACAD_REACTORS
330
393
102
}
330
393
100
AcDbXrecord
280
     1
102
RTVSPost2010Prop28
280
     0
102
RTVSPost2010PropOp28
 70
     0
102
RTVSPost2010Prop29
280
     1
102
RTVSPost2010PropOp29
 70
     0
102
RTVSPost2010Prop30
280
     1
102
RTVSPost2010PropOp30
 70
     0
102
RTVSPost2010Prop31
280
     0
102
RTVSPost2010PropOp31
 70
     0
102
RTVSPost2010Prop32
280
     0
102
RTVSPost2010PropOp32
 70
     0
102
RTVSPost2010Prop33
280
     0
102
RTVSPost2010PropOp33
 70
     0
102
RTVSPost2010Prop34
280
     0
102
RTVSPost2010PropOp34
 70
     0
102
RTVSPost2010Prop35
280
     0
102
RTVSPost2010PropOp35
 70
     0
102
RTVSPost2010Prop36
280
     0
102
RTVSPost2010PropOp36
 70
     0
102
RTVSPost2010Prop37
 90
       50
102
RTVSPost2010PropOp37
 70
     0
102
RTVSPost2010Prop38
140
0.0
102
RTVSPost2010PropOp38
 70
     0
102
RTVSPost2010Prop39
140
1.0
102
RTVSPost2010PropOp39
 70
     0
102
RTVSPost2010Prop40
 90
        0
102
RTVSPost2010PropOp40
 70
     0
102
RTVSPost2010Prop41ColorIndex
 90
       18
102
RTVSPost2010Prop41ColorRGB
 90
        0
102
RTVSPost2010PropOp41
 70
     0
102
RTVSPost2010Prop42
 90
       50
102
RTVSPost2010PropOp42
 70
     0
102
RTVSPost2010Prop43
 90
        3
102
RTVSPost2010PropOp43
 70
     0
102
RTVSPost2010Prop44ColorIndex
 90
        5
102
RTVSPost2010Prop44ColorRGB
 90
      255
102
RTVSPost2010PropOp44
 70
     0
102
RTVSPost2010Prop45
280
     0
102
RTVSPost2010PropOp45
 70
     0
102
RTVSPost2010Prop46
 90
       50
102
RTVSPost2010PropOp46
 70
     0
102
RTVSPost2010Prop47
 90
       50
102
RTVSPost2010PropOp47
 70
     0
102
RTVSPost2010Prop48
 90
       50
102
RTVSPost2010PropOp48
 70
     0
102
RTVSPost2010Prop49
280
     0
102
RTVSPost2010PropOp49
 70
     0
102
RTVSPost2010Prop50
 90
       50
102
RTVSPost2010PropOp50
 70
     0
102
RTVSPost2010Prop51ColorIndex
 90
      256
102
RTVSPost2010Prop51ColorRGB
 90
-16777216
102
RTVSPost2010PropOp51
 70
     0
102
RTVSPost2010Prop52
140
1.0
102
RTVSPost2010PropOp52
 70
     0
102
RTVSPost2010Prop53
 90
        2
102
RTVSPost2010PropOp53
 70
     0
102
RTVSPost2010Prop54
  1
strokes_ogs.tif
102
RTVSPost2010PropOp54
 70
     0
102
RTVSPost2010Prop55
280
     0
102
RTVSPost2010PropOp55
 70
     0
102
RTVSPost2010Prop56
140
1.0
102
RTVSPost2010PropOp56
 70
     0
102
RTVSPost2010Prop57
140
1.0
102
RTVSPost2010PropOp57
 70
     0
102
RTVSPropertyOp0
 70
     0
102
RTVSPropertyOp1
 70
     0
102
RTVSPropertyOp2
 70
     0
102
RTVSPropertyOp3
 70
     0
102
RTVSPropertyOp4
 70
     0
102
RTVSPropertyOp5
 70
     0
102
RTVSPropertyOp6
 70
     0
102
RTVSPropertyOp7
 70
     0
102
RTVSPropertyOp8
 70
     0
102
RTVSPropertyOp9
 70
     0
102
RTVSPropertyOp10
 70
     0
102
RTVSPropertyOp11
 70
     0
102
RTVSPropertyOp12
 70
     0
102
RTVSPropertyOp13
 70
     0
102
RTVSPropertyOp14
 70
     2
102
RTVSPropertyOp15
 70
     0
102
RTVSPropertyOp16
 70
     0
102
RTVSPropertyOp17
 70
     0
102
RTVSPropertyOp18
 70
     0
102
RTVSPropertyOp19
 70
     0
102
RTVSPropertyOp20
 70
     0
102
RTVSPropertyOp21
 70
     0
102
RTVSPropertyOp22
 70
     0
102
RTVSPropertyOp23
 70
     0
102
RTVSPropertyOp24
 70
     0
102
RTVSPropertyOp25
 70
     0
102
RTVSPropertyOp26
 70
     0
102
RTVSPropertyOp27
 70
     0
102
RTVSPropertyOp28
 70
     0
102
RTVSPropertyOp29
 70
     0
102
RTVSPropertyOp30
 70
     0
102
RTVSPropertyOp31
 70
     0
102
RTVSPropertyOp32
 70
     0
102
RTVSPropertyOp33
 70
     0
102
RTVSPropertyOp34
 70
     0
102
RTVSPropertyOp35
 70
     0
102
RTVSPropertyOp36
 70
     0
102
RTVSPropertyOp37
 70
     0
102
RTVSPropertyOp38
 70
     0
102
RTVSPropertyOp39
 70
     0
102
RTVSPropertyOp40
 70
     0
102
RTVSPropertyOp41
 70
     0
102
RTVSPropertyOp42
 70
     0
102
RTVSPropertyOp43
 70
     0
102
RTVSPropertyOp44
 70
     0
102
RTVSPropertyOp45
 70
     0
102
RTVSPropertyOp46
 70
     0
102
RTVSPropertyOp47
 70
     0
102
RTVSPropertyOp48
 70
     0
102
RTVSPropertyOp49
 70
     0
102
RTVSPropertyOp50
 70
     0
102
RTVSPropertyOp51
 70
     0
102
RTVSPropertyOp52
 70
     0
102
RTVSPropertyOp53
 70
     0
102
RTVSPropertyOp54
 70
     0
102
RTVSPropertyOp55
 70
     0
102
RTVSPropertyOp56
 70
     0
102
RTVSPropertyOp57
 70
     0
102
RTVSPropertyOp58
 70
     1
102
RTVSPropertyOp59
 70
     1
102
RTVSPropertyOp60
 70
     1
102
RTVSPropertyOp61
 70
     1
102
RTVSPropertyOp62
 70
     1
  0
XRECORD
  5
382
102
{ACAD_REACTORS
330
381
102
}
330
381
100
AcDbXrecord
280
     1
102
RTVSPost2010Prop28
280
     0
102
RTVSPost2010PropOp28
 70
     1
102
RTVSPost2010Prop29
280
     1
102
RTVSPost2010PropOp29
 70
     1
102
RTVSPost2010Prop30
280
     1
102
RTVSPost2010PropOp30
 70
     1
102
RTVSPost2010Prop31
280
     0
102
RTVSPost2010PropOp31
 70
     1
102
RTVSPost2010Prop32
280
     0
102
RTVSPost2010PropOp32
 70
     1
102
RTVSPost2010Prop33
280
     0
102
RTVSPost2010PropOp33
 70
     1
102
RTVSPost2010Prop34
280
     0
102
RTVSPost2010PropOp34
 70
     1
102
RTVSPost2010Prop35
280
     0
102
RTVSPost2010PropOp35
 70
     1
102
RTVSPost2010Prop36
280
     0
102
RTVSPost2010PropOp36
 70
     1
102
RTVSPost2010Prop37
 90
       50
102
RTVSPost2010PropOp37
 70
     1
102
RTVSPost2010Prop38
140
0.0
102
RTVSPost2010PropOp38
 70
     1
102
RTVSPost2010Prop39
140
1.0
102
RTVSPost2010PropOp39
 70
     1
102
RTVSPost2010Prop40
 90
        0
102
RTVSPost2010PropOp40
 70
     1
102
RTVSPost2010Prop41ColorIndex
 90
       18
102
RTVSPost2010Prop41ColorRGB
 90
        0
102
RTVSPost2010PropOp41
 70
     1
102
RTVSPost2010Prop42
 90
       50
102
RTVSPost2010PropOp42
 70
     1
102
RTVSPost2010Prop43
 90
        3
102
RTVSPost2010PropOp43
 70
     1
102
RTVSPost2010Prop44ColorIndex
 90
        5
102
RTVSPost2010Prop44ColorRGB
 90
      255
102
RTVSPost2010PropOp44
 70
     1
102
RTVSPost2010Prop45
280
     0
102
RTVSPost2010PropOp45
 70
     1
102
RTVSPost2010Prop46
 90
       50
102
RTVSPost2010PropOp46
 70
     1
102
RTVSPost2010Prop47
 90
       50
102
RTVSPost2010PropOp47
 70
     1
102
RTVSPost2010Prop48
 90
       50
102
RTVSPost2010PropOp48
 70
     1
102
RTVSPost2010Prop49
280
     0
102
RTVSPost2010PropOp49
 70
     1
102
RTVSPost2010Prop50
 90
       50
102
RTVSPost2010PropOp50
 70
     1
102
RTVSPost2010Prop51ColorIndex
 90
      256
102
RTVSPost2010Prop51ColorRGB
 90
-16777216
102
RTVSPost2010PropOp51
 70
     0
102
RTVSPost2010Prop52
140
1.0
102
RTVSPost2010PropOp52
 70
     0
102
RTVSPost2010Prop53
 90
        2
102
RTVSPost2010PropOp53
 70
     1
102
RTVSPost2010Prop54
  1
strokes_ogs.tif
102
RTVSPost2010PropOp54
 70
     1
102
RTVSPost2010Prop55
280
     0
102
RTVSPost2010PropOp55
 70
     1
102
RTVSPost2010Prop56
140
1.0
102
RTVSPost2010PropOp56
 70
     1
102
RTVSPost2010Prop57
140
1.0
102
RTVSPost2010PropOp57
 70
     1
102
RTVSPropertyOp0
 70
     1
102
RTVSPropertyOp1
 70
     1
102
RTVSPropertyOp2
 70
     1
102
RTVSPropertyOp3
 70
     1
102
RTVSPropertyOp4
 70
     1
102
RTVSPropertyOp5
 70
     1
102
RTVSPropertyOp6
 70
     1
102
RTVSPropertyOp7
 70
     1
102
RTVSPropertyOp8
 70
     1
102
RTVSPropertyOp9
 70
     1
102
RTVSPropertyOp10
 70
     1
102
RTVSPropertyOp11
 70
     1
102
RTVSPropertyOp12
 70
     1
102
RTVSPropertyOp13
 70
     1
102
RTVSPropertyOp14
 70
     1
102
RTVSPropertyOp15
 70
     1
102
RTVSPropertyOp16
 70
     1
102
RTVSPropertyOp17
 70
     1
102
RTVSPropertyOp18
 70
     1
102
RTVSPropertyOp19
 70
     1
102
RTVSPropertyOp20
 70
     1
102
RTVSPropertyOp21
 70
     1
102
RTVSPropertyOp22
 70
     1
102
RTVSPropertyOp23
 70
     1
102
RTVSPropertyOp24
 70
     1
102
RTVSPropertyOp25
 70
     1
102
RTVSPropertyOp26
 70
     1
102
RTVSPropertyOp27
 70
     1
102
RTVSPropertyOp28
 70
     1
102
RTVSPropertyOp29
 70
     1
102
RTVSPropertyOp30
 70
     1
102
RTVSPropertyOp31
 70
     1
102
RTVSPropertyOp32
 70
     1
102
RTVSPropertyOp33
 70
     1
102
RTVSPropertyOp34
 70
     1
102
RTVSPropertyOp35
 70
     1
102
RTVSPropertyOp36
 70
     1
102
RTVSPropertyOp37
 70
     1
102
RTVSPropertyOp38
 70
     1
102
RTVSPropertyOp39
 70
     1
102
RTVSPropertyOp40
 70
     1
102
RTVSPropertyOp41
 70
     1
102
RTVSPropertyOp42
 70
     1
102
RTVSPropertyOp43
 70
     1
102
RTVSPropertyOp44
 70
     1
102
RTVSPropertyOp45
 70
     1
102
RTVSPropertyOp46
 70
     1
102
RTVSPropertyOp47
 70
     1
102
RTVSPropertyOp48
 70
     1
102
RTVSPropertyOp49
 70
     1
102
RTVSPropertyOp50
 70
     1
102
RTVSPropertyOp51
 70
     0
102
RTVSPropertyOp52
 70
     0
102
RTVSPropertyOp53
 70
     1
102
RTVSPropertyOp54
 70
     1
102
RTVSPropertyOp55
 70
     1
102
RTVSPropertyOp56
 70
     1
102
RTVSPropertyOp57
 70
     1
102
RTVSPropertyOp58
 70
     1
102
RTVSPropertyOp59
 70
     1
102
RTVSPropertyOp60
 70
     1
102
RTVSPropertyOp61
 70
     1
102
RTVSPropertyOp62
 70
     1
  0
XRECORD
  5
3A0
102
{ACAD_REACTORS
330
39F
102
}
330
39F
100
AcDbXrecord
280
     1
102
RTVSPost2010Prop28
280
     0
102
RTVSPost2010PropOp28
 70
     1
102
RTVSPost2010Prop29
280
     1
102
RTVSPost2010PropOp29
 70
     1
102
RTVSPost2010Prop30
280
     1
102
RTVSPost2010PropOp30
 70
     1
102
RTVSPost2010Prop31
280
     0
102
RTVSPost2010PropOp31
 70
     1
102
RTVSPost2010Prop32
280
     0
102
RTVSPost2010PropOp32
 70
     1
102
RTVSPost2010Prop33
280
     0
102
RTVSPost2010PropOp33
 70
     1
102
RTVSPost2010Prop34
280
     0
102
RTVSPost2010PropOp34
 70
     1
102
RTVSPost2010Prop35
280
     0
102
RTVSPost2010PropOp35
 70
     1
102
RTVSPost2010Prop36
280
     0
102
RTVSPost2010PropOp36
 70
     1
102
RTVSPost2010Prop37
 90
       50
102
RTVSPost2010PropOp37
 70
     1
102
RTVSPost2010Prop38
140
0.0
102
RTVSPost2010PropOp38
 70
     1
102
RTVSPost2010Prop39
140
1.0
102
RTVSPost2010PropOp39
 70
     1
102
RTVSPost2010Prop40
 90
        0
102
RTVSPost2010PropOp40
 70
     1
102
RTVSPost2010Prop41ColorIndex
 90
       18
102
RTVSPost2010Prop41ColorRGB
 90
        0
102
RTVSPost2010PropOp41
 70
     1
102
RTVSPost2010Prop42
 90
       50
102
RTVSPost2010PropOp42
 70
     1
102
RTVSPost2010Prop43
 90
        3
102
RTVSPost2010PropOp43
 70
     1
102
RTVSPost2010Prop44ColorIndex
 90
        5
102
RTVSPost2010Prop44ColorRGB
 90
      255
102
RTVSPost2010PropOp44
 70
     1
102
RTVSPost2010Prop45
280
     0
102
RTVSPost2010PropOp45
 70
     1
102
RTVSPost2010Prop46
 90
       50
102
RTVSPost2010PropOp46
 70
     1
102
RTVSPost2010Prop47
 90
       50
102
RTVSPost2010PropOp47
 70
     1
102
RTVSPost2010Prop48
 90
       50
102
RTVSPost2010PropOp48
 70
     1
102
RTVSPost2010Prop49
280
     0
102
RTVSPost2010PropOp49
 70
     1
102
RTVSPost2010Prop50
 90
       50
102
RTVSPost2010PropOp50
 70
     1
102
RTVSPost2010Prop51ColorIndex
 90
      256
102
RTVSPost2010Prop51ColorRGB
 90
-16777216
102
RTVSPost2010PropOp51
 70
     0
102
RTVSPost2010Prop52
140
1.0
102
RTVSPost2010PropOp52
 70
     0
102
RTVSPost2010Prop53
 90
        2
102
RTVSPost2010PropOp53
 70
     1
102
RTVSPost2010Prop54
  1
strokes_ogs.tif
102
RTVSPost2010PropOp54
 70
     1
102
RTVSPost2010Prop55
280
     0
102
RTVSPost2010PropOp55
 70
     1
102
RTVSPost2010Prop56
140
1.0
102
RTVSPost2010PropOp56
 70
     1
102
RTVSPost2010Prop57
140
1.0
102
RTVSPost2010PropOp57
 70
     1
102
RTVSPropertyOp0
 70
     1
102
RTVSPropertyOp1
 70
     1
102
RTVSPropertyOp2
 70
     1
102
RTVSPropertyOp3
 70
     1
102
RTVSPropertyOp4
 70
     1
102
RTVSPropertyOp5
 70
     1
102
RTVSPropertyOp6
 70
     1
102
RTVSPropertyOp7
 70
     1
102
RTVSPropertyOp8
 70
     1
102
RTVSPropertyOp9
 70
     1
102
RTVSPropertyOp10
 70
     1
102
RTVSPropertyOp11
 70
     1
102
RTVSPropertyOp12
 70
     1
102
RTVSPropertyOp13
 70
     1
102
RTVSPropertyOp14
 70
     1
102
RTVSPropertyOp15
 70
     1
102
RTVSPropertyOp16
 70
     1
102
RTVSPropertyOp17
 70
     1
102
RTVSPropertyOp18
 70
     1
102
RTVSPropertyOp19
 70
     1
102
RTVSPropertyOp20
 70
     1
102
RTVSPropertyOp21
 70
     1
102
RTVSPropertyOp22
 70
     1
102
RTVSPropertyOp23
 70
     1
102
RTVSPropertyOp24
 70
     1
102
RTVSPropertyOp25
 70
     1
102
RTVSPropertyOp26
 70
     1
102
RTVSPropertyOp27
 70
     1
102
RTVSPropertyOp28
 70
     1
102
RTVSPropertyOp29
 70
     1
102
RTVSPropertyOp30
 70
     1
102
RTVSPropertyOp31
 70
     1
102
RTVSPropertyOp32
 70
     1
102
RTVSPropertyOp33
 70
     1
102
RTVSPropertyOp34
 70
     1
102
RTVSPropertyOp35
 70
     1
102
RTVSPropertyOp36
 70
     1
102
RTVSPropertyOp37
 70
     1
102
RTVSPropertyOp38
 70
     1
102
RTVSPropertyOp39
 70
     1
102
RTVSPropertyOp40
 70
     1
102
RTVSPropertyOp41
 70
     1
102
RTVSPropertyOp42
 70
     1
102
RTVSPropertyOp43
 70
     1
102
RTVSPropertyOp44
 70
     1
102
RTVSPropertyOp45
 70
     1
102
RTVSPropertyOp46
 70
     1
102
RTVSPropertyOp47
 70
     1
102
RTVSPropertyOp48
 70
     1
102
RTVSPropertyOp49
 70
     1
102
RTVSPropertyOp50
 70
     1
102
RTVSPropertyOp51
 70
     0
102
RTVSPropertyOp52
 70
     0
102
RTVSPropertyOp53
 70
     1
102
RTVSPropertyOp54
 70
     1
102
RTVSPropertyOp55
 70
     1
102
RTVSPropertyOp56
 70
     1
102
RTVSPropertyOp57
 70
     1
102
RTVSPropertyOp58
 70
     1
102
RTVSPropertyOp59
 70
     1
102
RTVSPropertyOp60
 70
     1
102
RTVSPropertyOp61
 70
     1
102
RTVSPropertyOp62
 70
     1
  0
XRECORD
  5
39E
102
{ACAD_REACTORS
330
39D
102
}
330
39D
100
AcDbXrecord
280
     1
102
RTVSPost2010Prop28
280
     0
102
RTVSPost2010PropOp28
 70
     1
102
RTVSPost2010Prop29
280
     1
102
RTVSPost2010PropOp29
 70
     1
102
RTVSPost2010Prop30
280
     1
102
RTVSPost2010PropOp30
 70
     1
102
RTVSPost2010Prop31
280
     0
102
RTVSPost2010PropOp31
 70
     1
102
RTVSPost2010Prop32
280
     0
102
RTVSPost2010PropOp32
 70
     1
102
RTVSPost2010Prop33
280
     0
102
RTVSPost2010PropOp33
 70
     1
102
RTVSPost2010Prop34
280
     0
102
RTVSPost2010PropOp34
 70
     1
102
RTVSPost2010Prop35
280
     0
102
RTVSPost2010PropOp35
 70
     1
102
RTVSPost2010Prop36
280
     0
102
RTVSPost2010PropOp36
 70
     1
102
RTVSPost2010Prop37
 90
       50
102
RTVSPost2010PropOp37
 70
     1
102
RTVSPost2010Prop38
140
0.0
102
RTVSPost2010PropOp38
 70
     1
102
RTVSPost2010Prop39
140
1.0
102
RTVSPost2010PropOp39
 70
     1
102
RTVSPost2010Prop40
 90
        0
102
RTVSPost2010PropOp40
 70
     1
102
RTVSPost2010Prop41ColorIndex
 90
       18
102
RTVSPost2010Prop41ColorRGB
 90
        0
102
RTVSPost2010PropOp41
 70
     1
102
RTVSPost2010Prop42
 90
       50
102
RTVSPost2010PropOp42
 70
     1
102
RTVSPost2010Prop43
 90
        3
102
RTVSPost2010PropOp43
 70
     1
102
RTVSPost2010Prop44ColorIndex
 90
        5
102
RTVSPost2010Prop44ColorRGB
 90
      255
102
RTVSPost2010PropOp44
 70
     1
102
RTVSPost2010Prop45
280
     0
102
RTVSPost2010PropOp45
 70
     1
102
RTVSPost2010Prop46
 90
       50
102
RTVSPost2010PropOp46
 70
     1
102
RTVSPost2010Prop47
 90
       50
102
RTVSPost2010PropOp47
 70
     1
102
RTVSPost2010Prop48
 90
       50
102
RTVSPost2010PropOp48
 70
     1
102
RTVSPost2010Prop49
280
     0
102
RTVSPost2010PropOp49
 70
     1
102
RTVSPost2010Prop50
 90
       50
102
RTVSPost2010PropOp50
 70
     1
102
RTVSPost2010Prop51ColorIndex
 90
      256
102
RTVSPost2010Prop51ColorRGB
 90
-16777216
102
RTVSPost2010PropOp51
 70
     0
102
RTVSPost2010Prop52
140
1.0
102
RTVSPost2010PropOp52
 70
     0
102
RTVSPost2010Prop53
 90
        2
102
RTVSPost2010PropOp53
 70
     1
102
RTVSPost2010Prop54
  1
strokes_ogs.tif
102
RTVSPost2010PropOp54
 70
     1
102
RTVSPost2010Prop55
280
     0
102
RTVSPost2010PropOp55
 70
     1
102
RTVSPost2010Prop56
140
1.0
102
RTVSPost2010PropOp56
 70
     1
102
RTVSPost2010Prop57
140
1.0
102
RTVSPost2010PropOp57
 70
     1
102
RTVSPropertyOp0
 70
     1
102
RTVSPropertyOp1
 70
     1
102
RTVSPropertyOp2
 70
     1
102
RTVSPropertyOp3
 70
     1
102
RTVSPropertyOp4
 70
     1
102
RTVSPropertyOp5
 70
     1
102
RTVSPropertyOp6
 70
     1
102
RTVSPropertyOp7
 70
     1
102
RTVSPropertyOp8
 70
     1
102
RTVSPropertyOp9
 70
     1
102
RTVSPropertyOp10
 70
     1
102
RTVSPropertyOp11
 70
     1
102
RTVSPropertyOp12
 70
     1
102
RTVSPropertyOp13
 70
     1
102
RTVSPropertyOp14
 70
     1
102
RTVSPropertyOp15
 70
     1
102
RTVSPropertyOp16
 70
     1
102
RTVSPropertyOp17
 70
     1
102
RTVSPropertyOp18
 70
     1
102
RTVSPropertyOp19
 70
     1
102
RTVSPropertyOp20
 70
     1
102
RTVSPropertyOp21
 70
     1
102
RTVSPropertyOp22
 70
     1
102
RTVSPropertyOp23
 70
     1
102
RTVSPropertyOp24
 70
     1
102
RTVSPropertyOp25
 70
     1
102
RTVSPropertyOp26
 70
     1
102
RTVSPropertyOp27
 70
     1
102
RTVSPropertyOp28
 70
     1
102
RTVSPropertyOp29
 70
     1
102
RTVSPropertyOp30
 70
     1
102
RTVSPropertyOp31
 70
     1
102
RTVSPropertyOp32
 70
     1
102
RTVSPropertyOp33
 70
     1
102
RTVSPropertyOp34
 70
     1
102
RTVSPropertyOp35
 70
     1
102
RTVSPropertyOp36
 70
     1
102
RTVSPropertyOp37
 70
     1
102
RTVSPropertyOp38
 70
     1
102
RTVSPropertyOp39
 70
     1
102
RTVSPropertyOp40
 70
     1
102
RTVSPropertyOp41
 70
     1
102
RTVSPropertyOp42
 70
     1
102
RTVSPropertyOp43
 70
     1
102
RTVSPropertyOp44
 70
     1
102
RTVSPropertyOp45
 70
     1
102
RTVSPropertyOp46
 70
     1
102
RTVSPropertyOp47
 70
     1
102
RTVSPropertyOp48
 70
     1
102
RTVSPropertyOp49
 70
     1
102
RTVSPropertyOp50
 70
     1
102
RTVSPropertyOp51
 70
     0
102
RTVSPropertyOp52
 70
     0
102
RTVSPropertyOp53
 70
     1
102
RTVSPropertyOp54
 70
     1
102
RTVSPropertyOp55
 70
     1
102
RTVSPropertyOp56
 70
     1
102
RTVSPropertyOp57
 70
     1
102
RTVSPropertyOp58
 70
     1
102
RTVSPropertyOp59
 70
     1
102
RTVSPropertyOp60
 70
     1
102
RTVSPropertyOp61
 70
     1
102
RTVSPropertyOp62
 70
     1
  0
XRECORD
  5
398
102
{ACAD_REACTORS
330
397
102
}
330
397
100
AcDbXrecord
280
     1
102
RTVSPost2010Prop28
280
     0
102
RTVSPost2010PropOp28
 70
     1
102
RTVSPost2010Prop29
280
     1
102
RTVSPost2010PropOp29
 70
     1
102
RTVSPost2010Prop30
280
     1
102
RTVSPost2010PropOp30
 70
     1
102
RTVSPost2010Prop31
280
     0
102
RTVSPost2010PropOp31
 70
     1
102
RTVSPost2010Prop32
280
     0
102
RTVSPost2010PropOp32
 70
     1
102
RTVSPost2010Prop33
280
     0
102
RTVSPost2010PropOp33
 70
     1
102
RTVSPost2010Prop34
280
     0
102
RTVSPost2010PropOp34
 70
     1
102
RTVSPost2010Prop35
280
     0
102
RTVSPost2010PropOp35
 70
     1
102
RTVSPost2010Prop36
280
     0
102
RTVSPost2010PropOp36
 70
     1
102
RTVSPost2010Prop37
 90
       50
102
RTVSPost2010PropOp37
 70
     1
102
RTVSPost2010Prop38
140
0.0
102
RTVSPost2010PropOp38
 70
     1
102
RTVSPost2010Prop39
140
1.0
102
RTVSPost2010PropOp39
 70
     1
102
RTVSPost2010Prop40
 90
        0
102
RTVSPost2010PropOp40
 70
     1
102
RTVSPost2010Prop41ColorIndex
 90
       18
102
RTVSPost2010Prop41ColorRGB
 90
        0
102
RTVSPost2010PropOp41
 70
     1
102
RTVSPost2010Prop42
 90
       50
102
RTVSPost2010PropOp42
 70
     1
102
RTVSPost2010Prop43
 90
        3
102
RTVSPost2010PropOp43
 70
     1
102
RTVSPost2010Prop44ColorIndex
 90
        5
102
RTVSPost2010Prop44ColorRGB
 90
      255
102
RTVSPost2010PropOp44
 70
     1
102
RTVSPost2010Prop45
280
     0
102
RTVSPost2010PropOp45
 70
     1
102
RTVSPost2010Prop46
 90
       50
102
RTVSPost2010PropOp46
 70
     1
102
RTVSPost2010Prop47
 90
       50
102
RTVSPost2010PropOp47
 70
     1
102
RTVSPost2010Prop48
 90
       50
102
RTVSPost2010PropOp48
 70
     1
102
RTVSPost2010Prop49
280
     0
102
RTVSPost2010PropOp49
 70
     1
102
RTVSPost2010Prop50
 90
       50
102
RTVSPost2010PropOp50
 70
     1
102
RTVSPost2010Prop51ColorIndex
 90
      256
102
RTVSPost2010Prop51ColorRGB
 90
-16777216
102
RTVSPost2010PropOp51
 70
     0
102
RTVSPost2010Prop52
140
1.0
102
RTVSPost2010PropOp52
 70
     0
102
RTVSPost2010Prop53
 90
        2
102
RTVSPost2010PropOp53
 70
     1
102
RTVSPost2010Prop54
  1
strokes_ogs.tif
102
RTVSPost2010PropOp54
 70
     1
102
RTVSPost2010Prop55
280
     0
102
RTVSPost2010PropOp55
 70
     1
102
RTVSPost2010Prop56
140
1.0
102
RTVSPost2010PropOp56
 70
     1
102
RTVSPost2010Prop57
140
1.0
102
RTVSPost2010PropOp57
 70
     1
102
RTVSPropertyOp0
 70
     1
102
RTVSPropertyOp1
 70
     1
102
RTVSPropertyOp2
 70
     1
102
RTVSPropertyOp3
 70
     1
102
RTVSPropertyOp4
 70
     1
102
RTVSPropertyOp5
 70
     1
102
RTVSPropertyOp6
 70
     1
102
RTVSPropertyOp7
 70
     1
102
RTVSPropertyOp8
 70
     1
102
RTVSPropertyOp9
 70
     1
102
RTVSPropertyOp10
 70
     1
102
RTVSPropertyOp11
 70
     1
102
RTVSPropertyOp12
 70
     1
102
RTVSPropertyOp13
 70
     1
102
RTVSPropertyOp14
 70
     1
102
RTVSPropertyOp15
 70
     1
102
RTVSPropertyOp16
 70
     1
102
RTVSPropertyOp17
 70
     1
102
RTVSPropertyOp18
 70
     1
102
RTVSPropertyOp19
 70
     1
102
RTVSPropertyOp20
 70
     1
102
RTVSPropertyOp21
 70
     1
102
RTVSPropertyOp22
 70
     1
102
RTVSPropertyOp23
 70
     1
102
RTVSPropertyOp24
 70
     1
102
RTVSPropertyOp25
 70
     1
102
RTVSPropertyOp26
 70
     1
102
RTVSPropertyOp27
 70
     1
102
RTVSPropertyOp28
 70
     1
102
RTVSPropertyOp29
 70
     1
102
RTVSPropertyOp30
 70
     1
102
RTVSPropertyOp31
 70
     1
102
RTVSPropertyOp32
 70
     1
102
RTVSPropertyOp33
 70
     1
102
RTVSPropertyOp34
 70
     1
102
RTVSPropertyOp35
 70
     1
102
RTVSPropertyOp36
 70
     1
102
RTVSPropertyOp37
 70
     1
102
RTVSPropertyOp38
 70
     1
102
RTVSPropertyOp39
 70
     1
102
RTVSPropertyOp40
 70
     1
102
RTVSPropertyOp41
 70
     1
102
RTVSPropertyOp42
 70
     1
102
RTVSPropertyOp43
 70
     1
102
RTVSPropertyOp44
 70
     1
102
RTVSPropertyOp45
 70
     1
102
RTVSPropertyOp46
 70
     1
102
RTVSPropertyOp47
 70
     1
102
RTVSPropertyOp48
 70
     1
102
RTVSPropertyOp49
 70
     1
102
RTVSPropertyOp50
 70
     1
102
RTVSPropertyOp51
 70
     0
102
RTVSPropertyOp52
 70
     0
102
RTVSPropertyOp53
 70
     1
102
RTVSPropertyOp54
 70
     1
102
RTVSPropertyOp55
 70
     1
102
RTVSPropertyOp56
 70
     1
102
RTVSPropertyOp57
 70
     1
102
RTVSPropertyOp58
 70
     1
102
RTVSPropertyOp59
 70
     1
102
RTVSPropertyOp60
 70
     1
102
RTVSPropertyOp61
 70
     1
102
RTVSPropertyOp62
 70
     1
  0
XRECORD
  5
39A
102
{ACAD_REACTORS
330
399
102
}
330
399
100
AcDbXrecord
280
     1
102
RTVSPost2010Prop28
280
     0
102
RTVSPost2010PropOp28
 70
     1
102
RTVSPost2010Prop29
280
     1
102
RTVSPost2010PropOp29
 70
     1
102
RTVSPost2010Prop30
280
     1
102
RTVSPost2010PropOp30
 70
     1
102
RTVSPost2010Prop31
280
     0
102
RTVSPost2010PropOp31
 70
     1
102
RTVSPost2010Prop32
280
     0
102
RTVSPost2010PropOp32
 70
     1
102
RTVSPost2010Prop33
280
     0
102
RTVSPost2010PropOp33
 70
     1
102
RTVSPost2010Prop34
280
     0
102
RTVSPost2010PropOp34
 70
     1
102
RTVSPost2010Prop35
280
     0
102
RTVSPost2010PropOp35
 70
     1
102
RTVSPost2010Prop36
280
     0
102
RTVSPost2010PropOp36
 70
     1
102
RTVSPost2010Prop37
 90
       50
102
RTVSPost2010PropOp37
 70
     1
102
RTVSPost2010Prop38
140
0.0
102
RTVSPost2010PropOp38
 70
     1
102
RTVSPost2010Prop39
140
1.0
102
RTVSPost2010PropOp39
 70
     1
102
RTVSPost2010Prop40
 90
        0
102
RTVSPost2010PropOp40
 70
     1
102
RTVSPost2010Prop41ColorIndex
 90
       18
102
RTVSPost2010Prop41ColorRGB
 90
        0
102
RTVSPost2010PropOp41
 70
     1
102
RTVSPost2010Prop42
 90
       50
102
RTVSPost2010PropOp42
 70
     1
102
RTVSPost2010Prop43
 90
        3
102
RTVSPost2010PropOp43
 70
     1
102
RTVSPost2010Prop44ColorIndex
 90
        5
102
RTVSPost2010Prop44ColorRGB
 90
      255
102
RTVSPost2010PropOp44
 70
     1
102
RTVSPost2010Prop45
280
     0
102
RTVSPost2010PropOp45
 70
     1
102
RTVSPost2010Prop46
 90
       50
102
RTVSPost2010PropOp46
 70
     1
102
RTVSPost2010Prop47
 90
       50
102
RTVSPost2010PropOp47
 70
     1
102
RTVSPost2010Prop48
 90
       50
102
RTVSPost2010PropOp48
 70
     1
102
RTVSPost2010Prop49
280
     0
102
RTVSPost2010PropOp49
 70
     1
102
RTVSPost2010Prop50
 90
       50
102
RTVSPost2010PropOp50
 70
     1
102
RTVSPost2010Prop51ColorIndex
 90
      256
102
RTVSPost2010Prop51ColorRGB
 90
-16777216
102
RTVSPost2010PropOp51
 70
     0
102
RTVSPost2010Prop52
140
1.0
102
RTVSPost2010PropOp52
 70
     0
102
RTVSPost2010Prop53
 90
        2
102
RTVSPost2010PropOp53
 70
     1
102
RTVSPost2010Prop54
  1
strokes_ogs.tif
102
RTVSPost2010PropOp54
 70
     1
102
RTVSPost2010Prop55
280
     0
102
RTVSPost2010PropOp55
 70
     1
102
RTVSPost2010Prop56
140
1.0
102
RTVSPost2010PropOp56
 70
     1
102
RTVSPost2010Prop57
140
1.0
102
RTVSPost2010PropOp57
 70
     1
102
RTVSPropertyOp0
 70
     1
102
RTVSPropertyOp1
 70
     1
102
RTVSPropertyOp2
 70
     1
102
RTVSPropertyOp3
 70
     1
102
RTVSPropertyOp4
 70
     1
102
RTVSPropertyOp5
 70
     1
102
RTVSPropertyOp6
 70
     1
102
RTVSPropertyOp7
 70
     1
102
RTVSPropertyOp8
 70
     1
102
RTVSPropertyOp9
 70
     1
102
RTVSPropertyOp10
 70
     1
102
RTVSPropertyOp11
 70
     1
102
RTVSPropertyOp12
 70
     1
102
RTVSPropertyOp13
 70
     1
102
RTVSPropertyOp14
 70
     1
102
RTVSPropertyOp15
 70
     1
102
RTVSPropertyOp16
 70
     1
102
RTVSPropertyOp17
 70
     1
102
RTVSPropertyOp18
 70
     1
102
RTVSPropertyOp19
 70
     1
102
RTVSPropertyOp20
 70
     1
102
RTVSPropertyOp21
 70
     1
102
RTVSPropertyOp22
 70
     1
102
RTVSPropertyOp23
 70
     1
102
RTVSPropertyOp24
 70
     1
102
RTVSPropertyOp25
 70
     1
102
RTVSPropertyOp26
 70
     1
102
RTVSPropertyOp27
 70
     1
102
RTVSPropertyOp28
 70
     1
102
RTVSPropertyOp29
 70
     1
102
RTVSPropertyOp30
 70
     1
102
RTVSPropertyOp31
 70
     1
102
RTVSPropertyOp32
 70
     1
102
RTVSPropertyOp33
 70
     1
102
RTVSPropertyOp34
 70
     1
102
RTVSPropertyOp35
 70
     1
102
RTVSPropertyOp36
 70
     1
102
RTVSPropertyOp37
 70
     1
102
RTVSPropertyOp38
 70
     1
102
RTVSPropertyOp39
 70
     1
102
RTVSPropertyOp40
 70
     1
102
RTVSPropertyOp41
 70
     1
102
RTVSPropertyOp42
 70
     1
102
RTVSPropertyOp43
 70
     1
102
RTVSPropertyOp44
 70
     1
102
RTVSPropertyOp45
 70
     1
102
RTVSPropertyOp46
 70
     1
102
RTVSPropertyOp47
 70
     1
102
RTVSPropertyOp48
 70
     1
102
RTVSPropertyOp49
 70
     1
102
RTVSPropertyOp50
 70
     1
102
RTVSPropertyOp51
 70
     0
102
RTVSPropertyOp52
 70
     0
102
RTVSPropertyOp53
 70
     1
102
RTVSPropertyOp54
 70
     1
102
RTVSPropertyOp55
 70
     1
102
RTVSPropertyOp56
 70
     1
102
RTVSPropertyOp57
 70
     1
102
RTVSPropertyOp58
 70
     1
102
RTVSPropertyOp59
 70
     1
102
RTVSPropertyOp60
 70
     1
102
RTVSPropertyOp61
 70
     1
102
RTVSPropertyOp62
 70
     1
  0
XRECORD
  5
38A
102
{ACAD_REACTORS
330
389
102
}
330
389
100
AcDbXrecord
280
     1
102
RTVSPost2010Prop28
280
     0
102
RTVSPost2010PropOp28
 70
     1
102
RTVSPost2010Prop29
280
     1
102
RTVSPost2010PropOp29
 70
     1
102
RTVSPost2010Prop30
280
     1
102
RTVSPost2010PropOp30
 70
     1
102
RTVSPost2010Prop31
280
     0
102
RTVSPost2010PropOp31
 70
     1
102
RTVSPost2010Prop32
280
     0
102
RTVSPost2010PropOp32
 70
     1
102
RTVSPost2010Prop33
280
     0
102
RTVSPost2010PropOp33
 70
     1
102
RTVSPost2010Prop34
280
     0
102
RTVSPost2010PropOp34
 70
     1
102
RTVSPost2010Prop35
280
     0
102
RTVSPost2010PropOp35
 70
     1
102
RTVSPost2010Prop36
280
     0
102
RTVSPost2010PropOp36
 70
     1
102
RTVSPost2010Prop37
 90
       50
102
RTVSPost2010PropOp37
 70
     1
102
RTVSPost2010Prop38
140
0.0
102
RTVSPost2010PropOp38
 70
     1
102
RTVSPost2010Prop39
140
1.0
102
RTVSPost2010PropOp39
 70
     1
102
RTVSPost2010Prop40
 90
        0
102
RTVSPost2010PropOp40
 70
     1
102
RTVSPost2010Prop41ColorIndex
 90
       18
102
RTVSPost2010Prop41ColorRGB
 90
        0
102
RTVSPost2010PropOp41
 70
     1
102
RTVSPost2010Prop42
 90
       50
102
RTVSPost2010PropOp42
 70
     1
102
RTVSPost2010Prop43
 90
        3
102
RTVSPost2010PropOp43
 70
     1
102
RTVSPost2010Prop44ColorIndex
 90
        5
102
RTVSPost2010Prop44ColorRGB
 90
      255
102
RTVSPost2010PropOp44
 70
     1
102
RTVSPost2010Prop45
280
     0
102
RTVSPost2010PropOp45
 70
     1
102
RTVSPost2010Prop46
 90
       50
102
RTVSPost2010PropOp46
 70
     1
102
RTVSPost2010Prop47
 90
       50
102
RTVSPost2010PropOp47
 70
     1
102
RTVSPost2010Prop48
 90
       50
102
RTVSPost2010PropOp48
 70
     1
102
RTVSPost2010Prop49
280
     0
102
RTVSPost2010PropOp49
 70
     1
102
RTVSPost2010Prop50
 90
       50
102
RTVSPost2010PropOp50
 70
     1
102
RTVSPost2010Prop51ColorIndex
 90
      256
102
RTVSPost2010Prop51ColorRGB
 90
-16777216
102
RTVSPost2010PropOp51
 70
     0
102
RTVSPost2010Prop52
140
1.0
102
RTVSPost2010PropOp52
 70
     0
102
RTVSPost2010Prop53
 90
        2
102
RTVSPost2010PropOp53
 70
     1
102
RTVSPost2010Prop54
  1
strokes_ogs.tif
102
RTVSPost2010PropOp54
 70
     1
102
RTVSPost2010Prop55
280
     0
102
RTVSPost2010PropOp55
 70
     1
102
RTVSPost2010Prop56
140
1.0
102
RTVSPost2010PropOp56
 70
     1
102
RTVSPost2010Prop57
140
1.0
102
RTVSPost2010PropOp57
 70
     1
102
RTVSPropertyOp0
 70
     1
102
RTVSPropertyOp1
 70
     1
102
RTVSPropertyOp2
 70
     1
102
RTVSPropertyOp3
 70
     1
102
RTVSPropertyOp4
 70
     1
102
RTVSPropertyOp5
 70
     1
102
RTVSPropertyOp6
 70
     1
102
RTVSPropertyOp7
 70
     1
102
RTVSPropertyOp8
 70
     1
102
RTVSPropertyOp9
 70
     1
102
RTVSPropertyOp10
 70
     1
102
RTVSPropertyOp11
 70
     1
102
RTVSPropertyOp12
 70
     1
102
RTVSPropertyOp13
 70
     1
102
RTVSPropertyOp14
 70
     1
102
RTVSPropertyOp15
 70
     1
102
RTVSPropertyOp16
 70
     1
102
RTVSPropertyOp17
 70
     1
102
RTVSPropertyOp18
 70
     1
102
RTVSPropertyOp19
 70
     1
102
RTVSPropertyOp20
 70
     1
102
RTVSPropertyOp21
 70
     1
102
RTVSPropertyOp22
 70
     1
102
RTVSPropertyOp23
 70
     1
102
RTVSPropertyOp24
 70
     1
102
RTVSPropertyOp25
 70
     1
102
RTVSPropertyOp26
 70
     1
102
RTVSPropertyOp27
 70
     1
102
RTVSPropertyOp28
 70
     1
102
RTVSPropertyOp29
 70
     1
102
RTVSPropertyOp30
 70
     1
102
RTVSPropertyOp31
 70
     1
102
RTVSPropertyOp32
 70
     1
102
RTVSPropertyOp33
 70
     1
102
RTVSPropertyOp34
 70
     1
102
RTVSPropertyOp35
 70
     1
102
RTVSPropertyOp36
 70
     1
102
RTVSPropertyOp37
 70
     1
102
RTVSPropertyOp38
 70
     1
102
RTVSPropertyOp39
 70
     1
102
RTVSPropertyOp40
 70
     1
102
RTVSPropertyOp41
 70
     1
102
RTVSPropertyOp42
 70
     1
102
RTVSPropertyOp43
 70
     1
102
RTVSPropertyOp44
 70
     1
102
RTVSPropertyOp45
 70
     1
102
RTVSPropertyOp46
 70
     1
102
RTVSPropertyOp47
 70
     1
102
RTVSPropertyOp48
 70
     1
102
RTVSPropertyOp49
 70
     1
102
RTVSPropertyOp50
 70
     1
102
RTVSPropertyOp51
 70
     0
102
RTVSPropertyOp52
 70
     0
102
RTVSPropertyOp53
 70
     1
102
RTVSPropertyOp54
 70
     1
102
RTVSPropertyOp55
 70
     1
102
RTVSPropertyOp56
 70
     1
102
RTVSPropertyOp57
 70
     1
102
RTVSPropertyOp58
 70
     1
102
RTVSPropertyOp59
 70
     1
102
RTVSPropertyOp60
 70
     1
102
RTVSPropertyOp61
 70
     1
102
RTVSPropertyOp62
 70
     1
  0
XRECORD
  5
37C
102
{ACAD_REACTORS
330
37B
102
}
330
37B
100
AcDbXrecord
280
     1
102
RTVSPost2010Prop28
280
     0
102
RTVSPost2010PropOp28
 70
     1
102
RTVSPost2010Prop29
280
     1
102
RTVSPost2010PropOp29
 70
     1
102
RTVSPost2010Prop30
280
     1
102
RTVSPost2010PropOp30
 70
     1
102
RTVSPost2010Prop31
280
     0
102
RTVSPost2010PropOp31
 70
     1
102
RTVSPost2010Prop32
280
     0
102
RTVSPost2010PropOp32
 70
     1
102
RTVSPost2010Prop33
280
     0
102
RTVSPost2010PropOp33
 70
     1
102
RTVSPost2010Prop34
280
     0
102
RTVSPost2010PropOp34
 70
     1
102
RTVSPost2010Prop35
280
     0
102
RTVSPost2010PropOp35
 70
     1
102
RTVSPost2010Prop36
280
     0
102
RTVSPost2010PropOp36
 70
     1
102
RTVSPost2010Prop37
 90
       50
102
RTVSPost2010PropOp37
 70
     1
102
RTVSPost2010Prop38
140
0.0
102
RTVSPost2010PropOp38
 70
     1
102
RTVSPost2010Prop39
140
1.0
102
RTVSPost2010PropOp39
 70
     1
102
RTVSPost2010Prop40
 90
        0
102
RTVSPost2010PropOp40
 70
     1
102
RTVSPost2010Prop41ColorIndex
 90
       18
102
RTVSPost2010Prop41ColorRGB
 90
        0
102
RTVSPost2010PropOp41
 70
     1
102
RTVSPost2010Prop42
 90
       50
102
RTVSPost2010PropOp42
 70
     1
102
RTVSPost2010Prop43
 90
        3
102
RTVSPost2010PropOp43
 70
     1
102
RTVSPost2010Prop44ColorIndex
 90
        5
102
RTVSPost2010Prop44ColorRGB
 90
      255
102
RTVSPost2010PropOp44
 70
     1
102
RTVSPost2010Prop45
280
     0
102
RTVSPost2010PropOp45
 70
     1
102
RTVSPost2010Prop46
 90
       50
102
RTVSPost2010PropOp46
 70
     1
102
RTVSPost2010Prop47
 90
       50
102
RTVSPost2010PropOp47
 70
     1
102
RTVSPost2010Prop48
 90
       50
102
RTVSPost2010PropOp48
 70
     1
102
RTVSPost2010Prop49
280
     0
102
RTVSPost2010PropOp49
 70
     1
102
RTVSPost2010Prop50
 90
       50
102
RTVSPost2010PropOp50
 70
     1
102
RTVSPost2010Prop51ColorIndex
 90
      256
102
RTVSPost2010Prop51ColorRGB
 90
-16777216
102
RTVSPost2010PropOp51
 70
     0
102
RTVSPost2010Prop52
140
1.0
102
RTVSPost2010PropOp52
 70
     0
102
RTVSPost2010Prop53
 90
        2
102
RTVSPost2010PropOp53
 70
     1
102
RTVSPost2010Prop54
  1
strokes_ogs.tif
102
RTVSPost2010PropOp54
 70
     1
102
RTVSPost2010Prop55
280
     0
102
RTVSPost2010PropOp55
 70
     1
102
RTVSPost2010Prop56
140
1.0
102
RTVSPost2010PropOp56
 70
     1
102
RTVSPost2010Prop57
140
1.0
102
RTVSPost2010PropOp57
 70
     1
102
RTVSPropertyOp0
 70
     1
102
RTVSPropertyOp1
 70
     1
102
RTVSPropertyOp2
 70
     1
102
RTVSPropertyOp3
 70
     1
102
RTVSPropertyOp4
 70
     1
102
RTVSPropertyOp5
 70
     1
102
RTVSPropertyOp6
 70
     1
102
RTVSPropertyOp7
 70
     1
102
RTVSPropertyOp8
 70
     1
102
RTVSPropertyOp9
 70
     1
102
RTVSPropertyOp10
 70
     1
102
RTVSPropertyOp11
 70
     1
102
RTVSPropertyOp12
 70
     1
102
RTVSPropertyOp13
 70
     1
102
RTVSPropertyOp14
 70
     1
102
RTVSPropertyOp15
 70
     1
102
RTVSPropertyOp16
 70
     1
102
RTVSPropertyOp17
 70
     1
102
RTVSPropertyOp18
 70
     1
102
RTVSPropertyOp19
 70
     1
102
RTVSPropertyOp20
 70
     1
102
RTVSPropertyOp21
 70
     1
102
RTVSPropertyOp22
 70
     1
102
RTVSPropertyOp23
 70
     1
102
RTVSPropertyOp24
 70
     1
102
RTVSPropertyOp25
 70
     1
102
RTVSPropertyOp26
 70
     1
102
RTVSPropertyOp27
 70
     1
102
RTVSPropertyOp28
 70
     1
102
RTVSPropertyOp29
 70
     1
102
RTVSPropertyOp30
 70
     1
102
RTVSPropertyOp31
 70
     1
102
RTVSPropertyOp32
 70
     1
102
RTVSPropertyOp33
 70
     1
102
RTVSPropertyOp34
 70
     1
102
RTVSPropertyOp35
 70
     1
102
RTVSPropertyOp36
 70
     1
102
RTVSPropertyOp37
 70
     1
102
RTVSPropertyOp38
 70
     1
102
RTVSPropertyOp39
 70
     1
102
RTVSPropertyOp40
 70
     1
102
RTVSPropertyOp41
 70
     1
102
RTVSPropertyOp42
 70
     1
102
RTVSPropertyOp43
 70
     1
102
RTVSPropertyOp44
 70
     1
102
RTVSPropertyOp45
 70
     1
102
RTVSPropertyOp46
 70
     1
102
RTVSPropertyOp47
 70
     1
102
RTVSPropertyOp48
 70
     1
102
RTVSPropertyOp49
 70
     1
102
RTVSPropertyOp50
 70
     1
102
RTVSPropertyOp51
 70
     0
102
RTVSPropertyOp52
 70
     0
102
RTVSPropertyOp53
 70
     1
102
RTVSPropertyOp54
 70
     1
102
RTVSPropertyOp55
 70
     1
102
RTVSPropertyOp56
 70
     1
102
RTVSPropertyOp57
 70
     1
102
RTVSPropertyOp58
 70
     1
102
RTVSPropertyOp59
 70
     1
102
RTVSPropertyOp60
 70
     1
102
RTVSPropertyOp61
 70
     1
102
RTVSPropertyOp62
 70
     1
  0
XRECORD
  5
39C
102
{ACAD_REACTORS
330
39B
102
}
330
39B
100
AcDbXrecord
280
     1
102
RTVSPost2010Prop28
280
     0
102
RTVSPost2010PropOp28
 70
     1
102
RTVSPost2010Prop29
280
     1
102
RTVSPost2010PropOp29
 70
     1
102
RTVSPost2010Prop30
280
     1
102
RTVSPost2010PropOp30
 70
     1
102
RTVSPost2010Prop31
280
     0
102
RTVSPost2010PropOp31
 70
     1
102
RTVSPost2010Prop32
280
     0
102
RTVSPost2010PropOp32
 70
     1
102
RTVSPost2010Prop33
280
     0
102
RTVSPost2010PropOp33
 70
     1
102
RTVSPost2010Prop34
280
     0
102
RTVSPost2010PropOp34
 70
     1
102
RTVSPost2010Prop35
280
     0
102
RTVSPost2010PropOp35
 70
     1
102
RTVSPost2010Prop36
280
     0
102
RTVSPost2010PropOp36
 70
     1
102
RTVSPost2010Prop37
 90
       50
102
RTVSPost2010PropOp37
 70
     1
102
RTVSPost2010Prop38
140
0.0
102
RTVSPost2010PropOp38
 70
     1
102
RTVSPost2010Prop39
140
1.0
102
RTVSPost2010PropOp39
 70
     1
102
RTVSPost2010Prop40
 90
        0
102
RTVSPost2010PropOp40
 70
     1
102
RTVSPost2010Prop41ColorIndex
 90
       18
102
RTVSPost2010Prop41ColorRGB
 90
        0
102
RTVSPost2010PropOp41
 70
     1
102
RTVSPost2010Prop42
 90
       50
102
RTVSPost2010PropOp42
 70
     1
102
RTVSPost2010Prop43
 90
        3
102
RTVSPost2010PropOp43
 70
     1
102
RTVSPost2010Prop44ColorIndex
 90
        5
102
RTVSPost2010Prop44ColorRGB
 90
      255
102
RTVSPost2010PropOp44
 70
     1
102
RTVSPost2010Prop45
280
     0
102
RTVSPost2010PropOp45
 70
     1
102
RTVSPost2010Prop46
 90
       50
102
RTVSPost2010PropOp46
 70
     1
102
RTVSPost2010Prop47
 90
       50
102
RTVSPost2010PropOp47
 70
     1
102
RTVSPost2010Prop48
 90
       50
102
RTVSPost2010PropOp48
 70
     1
102
RTVSPost2010Prop49
280
     0
102
RTVSPost2010PropOp49
 70
     1
102
RTVSPost2010Prop50
 90
       50
102
RTVSPost2010PropOp50
 70
     1
102
RTVSPost2010Prop51ColorIndex
 90
      256
102
RTVSPost2010Prop51ColorRGB
 90
-16777216
102
RTVSPost2010PropOp51
 70
     0
102
RTVSPost2010Prop52
140
1.0
102
RTVSPost2010PropOp52
 70
     0
102
RTVSPost2010Prop53
 90
        2
102
RTVSPost2010PropOp53
 70
     1
102
RTVSPost2010Prop54
  1
strokes_ogs.tif
102
RTVSPost2010PropOp54
 70
     1
102
RTVSPost2010Prop55
280
     0
102
RTVSPost2010PropOp55
 70
     1
102
RTVSPost2010Prop56
140
1.0
102
RTVSPost2010PropOp56
 70
     1
102
RTVSPost2010Prop57
140
1.0
102
RTVSPost2010PropOp57
 70
     1
102
RTVSPropertyOp0
 70
     1
102
RTVSPropertyOp1
 70
     1
102
RTVSPropertyOp2
 70
     1
102
RTVSPropertyOp3
 70
     1
102
RTVSPropertyOp4
 70
     1
102
RTVSPropertyOp5
 70
     1
102
RTVSPropertyOp6
 70
     1
102
RTVSPropertyOp7
 70
     1
102
RTVSPropertyOp8
 70
     1
102
RTVSPropertyOp9
 70
     1
102
RTVSPropertyOp10
 70
     1
102
RTVSPropertyOp11
 70
     1
102
RTVSPropertyOp12
 70
     1
102
RTVSPropertyOp13
 70
     1
102
RTVSPropertyOp14
 70
     1
102
RTVSPropertyOp15
 70
     1
102
RTVSPropertyOp16
 70
     1
102
RTVSPropertyOp17
 70
     1
102
RTVSPropertyOp18
 70
     1
102
RTVSPropertyOp19
 70
     1
102
RTVSPropertyOp20
 70
     1
102
RTVSPropertyOp21
 70
     1
102
RTVSPropertyOp22
 70
     1
102
RTVSPropertyOp23
 70
     1
102
RTVSPropertyOp24
 70
     1
102
RTVSPropertyOp25
 70
     1
102
RTVSPropertyOp26
 70
     1
102
RTVSPropertyOp27
 70
     1
102
RTVSPropertyOp28
 70
     1
102
RTVSPropertyOp29
 70
     1
102
RTVSPropertyOp30
 70
     1
102
RTVSPropertyOp31
 70
     1
102
RTVSPropertyOp32
 70
     1
102
RTVSPropertyOp33
 70
     1
102
RTVSPropertyOp34
 70
     1
102
RTVSPropertyOp35
 70
     1
102
RTVSPropertyOp36
 70
     1
102
RTVSPropertyOp37
 70
     1
102
RTVSPropertyOp38
 70
     1
102
RTVSPropertyOp39
 70
     1
102
RTVSPropertyOp40
 70
     1
102
RTVSPropertyOp41
 70
     1
102
RTVSPropertyOp42
 70
     1
102
RTVSPropertyOp43
 70
     1
102
RTVSPropertyOp44
 70
     1
102
RTVSPropertyOp45
 70
     1
102
RTVSPropertyOp46
 70
     1
102
RTVSPropertyOp47
 70
     1
102
RTVSPropertyOp48
 70
     1
102
RTVSPropertyOp49
 70
     1
102
RTVSPropertyOp50
 70
     1
102
RTVSPropertyOp51
 70
     0
102
RTVSPropertyOp52
 70
     0
102
RTVSPropertyOp53
 70
     1
102
RTVSPropertyOp54
 70
     1
102
RTVSPropertyOp55
 70
     1
102
RTVSPropertyOp56
 70
     1
102
RTVSPropertyOp57
 70
     1
102
RTVSPropertyOp58
 70
     1
102
RTVSPropertyOp59
 70
     1
102
RTVSPropertyOp60
 70
     1
102
RTVSPropertyOp61
 70
     1
102
RTVSPropertyOp62
 70
     1
  0
ENDSEC
  0
EOF
