  0
SECTION
  2
HEADER
  9
$ACADVER
  1
AC1018
  9
$ACADMAINTVER
 70
   104
  9
$DWGCODEPAGE
  3
ANSI_1250
  9
$LASTSAVEDBY
  1
wq7085
  9
$INSBASE
 10
0.0
 20
0.0
 30
0.0
  9
$EXTMIN
 10
186.4339033333333
 20
118.534924
 30
0.0
  9
$EXTMAX
 10
373.283285
 20
345.2288016666667
 30
0.0
  9
$LIMMIN
 10
-0.5
 20
-0.5
  9
$LIMMAX
 10
5.0
 20
5.0
  9
$ORTHOMODE
 70
     0
  9
$REGENMODE
 70
     1
  9
$FILLMODE
 70
     1
  9
$QTEXTMODE
 70
     0
  9
$MIRRTEXT
 70
     1
  9
$LTSCALE
 40
1.0
  9
$ATTMODE
 70
     1
  9
$TEXTSIZE
 40
0.2
  9
$TRACEWID
 40
0.05
  9
$TEXTSTYLE
  7
Standard
  9
$CLAYER
  8
0
  9
$CELTYPE
  6
ByLayer
  9
$CECOLOR
 62
   256
  9
$CELTSCALE
 40
1.0
  9
$DISPSILH
 70
     0
  9
$DIMSCALE
 40
1.0
  9
$DIMASZ
 40
0.18
  9
$DIMEXO
 40
0.0625
  9
$DIMDLI
 40
0.38
  9
$DIMRND
 40
0.0
  9
$DIMDLE
 40
0.0
  9
$DIMEXE
 40
0.18
  9
$DIMTP
 40
0.0
  9
$DIMTM
 40
0.0
  9
$DIMTXT
 40
0.18
  9
$DIMCEN
 40
0.09
  9
$DIMTSZ
 40
0.0
  9
$DIMTOL
 70
     0
  9
$DIMLIM
 70
     0
  9
$DIMTIH
 70
     1
  9
$DIMTOH
 70
     1
  9
$DIMSE1
 70
     0
  9
$DIMSE2
 70
     0
  9
$DIMTAD
 70
     0
  9
$DIMZIN
 70
     0
  9
$DIMBLK
  1

  9
$DIMASO
 70
     1
  9
$DIMSHO
 70
     1
  9
$DIMPOST
  1

  9
$DIMAPOST
  1

  9
$DIMALT
 70
     0
  9
$DIMALTD
 70
     2
  9
$DIMALTF
 40
25.4
  9
$DIMLFAC
 40
1.0
  9
$DIMTOFL
 70
     0
  9
$DIMTVP
 40
0.0
  9
$DIMTIX
 70
     0
  9
$DIMSOXD
 70
     0
  9
$DIMSAH
 70
     0
  9
$DIMBLK1
  1

  9
$DIMBLK2
  1

  9
$DIMSTYLE
  2
Standard
  9
$DIMCLRD
 70
     0
  9
$DIMCLRE
 70
     0
  9
$DIMCLRT
 70
     0
  9
$DIMTFAC
 40
1.0
  9
$DIMGAP
 40
0.09
  9
$DIMJUST
 70
     0
  9
$DIMSD1
 70
     0
  9
$DIMSD2
 70
     0
  9
$DIMTOLJ
 70
     1
  9
$DIMTZIN
 70
     0
  9
$DIMALTZ
 70
     0
  9
$DIMALTTZ
 70
     0
  9
$DIMUPT
 70
     0
  9
$DIMDEC
 70
     4
  9
$DIMTDEC
 70
     4
  9
$DIMALTU
 70
     2
  9
$DIMALTTD
 70
     2
  9
$DIMTXSTY
  7
Standard
  9
$DIMAUNIT
 70
     0
  9
$DIMADEC
 70
     0
  9
$DIMALTRND
 40
0.0
  9
$DIMAZIN
 70
     0
  9
$DIMDSEP
 70
    46
  9
$DIMATFIT
 70
     3
  9
$DIMFRAC
 70
     0
  9
$DIMLDRBLK
  1

  9
$DIMLUNIT
 70
     2
  9
$DIMLWD
 70
    -2
  9
$DIMLWE
 70
    -2
  9
$DIMTMOVE
 70
     0
  9
$LUNITS
 70
     2
  9
$LUPREC
 70
     4
  9
$SKETCHINC
 40
0.1
  9
$FILLETRAD
 40
0.5
  9
$AUNITS
 70
     0
  9
$AUPREC
 70
     0
  9
$MENU
  1
.
  9
$ELEVATION
 40
0.0
  9
$PELEVATION
 40
0.0
  9
$THICKNESS
 40
0.0
  9
$LIMCHECK
 70
     0
  9
$CHAMFERA
 40
0.0
  9
$CHAMFERB
 40
0.0
  9
$CHAMFERC
 40
0.0
  9
$CHAMFERD
 40
0.0
  9
$SKPOLY
 70
     0
  9
$TDCREATE
 40
2458954.539965278
  9
$TDUCREATE
 40
2458954.456634456
  9
$TDUPDATE
 40
2458954.541840278
  9
$TDUUPDATE
 40
2458954.458506945
  9
$TDINDWG
 40
0.0012152894
  9
$TDUSRTIMER
 40
0.0012152894
  9
$USRTIMER
 70
     1
  9
$ANGBASE
 50
0.0
  9
$ANGDIR
 70
     0
  9
$PDMODE
 70
     0
  9
$PDSIZE
 40
0.0
  9
$PLINEWID
 40
0.0
  9
$SPLFRAME
 70
     0
  9
$SPLINETYPE
 70
     6
  9
$SPLINESEGS
 70
     8
  9
$HANDSEED
  5
390
  9
$SURFTAB1
 70
     6
  9
$SURFTAB2
 70
     6
  9
$SURFTYPE
 70
     6
  9
$SURFU
 70
     6
  9
$SURFV
 70
     6
  9
$UCSBASE
  2

  9
$UCSNAME
  2

  9
$UCSORG
 10
274.404842
 20
288.907994
 30
0.0
  9
$UCSXDIR
 10
1.0
 20
0.0
 30
0.0
  9
$UCSYDIR
 10
0.0
 20
1.0
 30
0.0
  9
$UCSORTHOREF
  2

  9
$UCSORTHOVIEW
 70
     0
  9
$UCSORGTOP
 10
0.0
 20
0.0
 30
0.0
  9
$UCSORGBOTTOM
 10
0.0
 20
0.0
 30
0.0
  9
$UCSORGLEFT
 10
0.0
 20
0.0
 30
0.0
  9
$UCSORGRIGHT
 10
0.0
 20
0.0
 30
0.0
  9
$UCSORGFRONT
 10
0.0
 20
0.0
 30
0.0
  9
$UCSORGBACK
 10
0.0
 20
0.0
 30
0.0
  9
$PUCSBASE
  2

  9
$PUCSNAME
  2

  9
$PUCSORG
 10
0.0
 20
0.0
 30
0.0
  9
$PUCSXDIR
 10
1.0
 20
0.0
 30
0.0
  9
$PUCSYDIR
 10
0.0
 20
1.0
 30
0.0
  9
$PUCSORTHOREF
  2

  9
$PUCSORTHOVIEW
 70
     0
  9
$PUCSORGTOP
 10
0.0
 20
0.0
 30
0.0
  9
$PUCSORGBOTTOM
 10
0.0
 20
0.0
 30
0.0
  9
$PUCSORGLEFT
 10
0.0
 20
0.0
 30
0.0
  9
$PUCSORGRIGHT
 10
0.0
 20
0.0
 30
0.0
  9
$PUCSORGFRONT
 10
0.0
 20
0.0
 30
0.0
  9
$PUCSORGBACK
 10
0.0
 20
0.0
 30
0.0
  9
$USERI1
 70
     0
  9
$USERI2
 70
     0
  9
$USERI3
 70
     0
  9
$USERI4
 70
     0
  9
$USERI5
 70
     0
  9
$USERR1
 40
0.0
  9
$USERR2
 40
0.0
  9
$USERR3
 40
0.0
  9
$USERR4
 40
0.0
  9
$USERR5
 40
0.0
  9
$WORLDVIEW
 70
     1
  9
$SHADEDGE
 70
     3
  9
$SHADEDIF
 70
    70
  9
$TILEMODE
 70
     1
  9
$MAXACTVP
 70
    64
  9
$PINSBASE
 10
0.0
 20
0.0
 30
0.0
  9
$PLIMCHECK
 70
     0
  9
$PEXTMIN
 10
-0.5
 20
-0.5
 30
-0.5
  9
$PEXTMAX
 10
5.0
 20
5.0
 30
5.0
  9
$PLIMMIN
 10
-0.5
 20
-0.5
  9
$PLIMMAX
 10
5.0
 20
5.0
  9
$UNITMODE
 70
     0
  9
$VISRETAIN
 70
     1
  9
$PLINEGEN
 70
     0
  9
$PSLTSCALE
 70
     1
  9
$TREEDEPTH
 70
  3020
  9
$CMLSTYLE
  2
Standard
  9
$CMLJUST
 70
     0
  9
$CMLSCALE
 40
1.0
  9
$PROXYGRAPHICS
 70
     1
  9
$MEASUREMENT
 70
     1
  9
$CELWEIGHT
370
    13
  9
$ENDCAPS
280
     0
  9
$JOINSTYLE
280
     0
  9
$LWDISPLAY
290
     0
  9
$INSUNITS
 70
     4
  9
$HYPERLINKBASE
  1

  9
$STYLESHEET
  1

  9
$XEDIT
290
     1
  9
$CEPSNTYPE
380
     0
  9
$PSTYLEMODE
290
     1
  9
$FINGERPRINTGUID
  2
{3B4029E4-0E20-4C95-B451-E1CB4AF66AF8}
  9
$VERSIONGUID
  2
{DD4947D3-A1A7-9344-9D2F-694E5A813544}
  9
$EXTNAMES
290
     1
  9
$PSVPSCALE
 40
0.0
  9
$OLESTARTUP
290
     0
  9
$SORTENTS
280
   127
  9
$INDEXCTL
280
     0
  9
$HIDETEXT
280
     1
  9
$XCLIPFRAME
290
     0
  9
$HALOGAP
280
     0
  9
$OBSCOLOR
 70
   257
  9
$OBSLTYPE
280
     0
  9
$INTERSECTIONDISPLAY
280
     0
  9
$INTERSECTIONCOLOR
 70
   257
  9
$DIMASSOC
280
     2
  9
$PROJECTNAME
  1

  0
ENDSEC
  0
SECTION
  2
CLASSES
  0
CLASS
  1
ACDBDICTIONARYWDFLT
  2
AcDbDictionaryWithDefault
  3
ObjectDBX Classes
 90
        0
 91
        1
280
     0
281
     0
  0
CLASS
  1
VISUALSTYLE
  2
AcDbVisualStyle
  3
ObjectDBX Classes
 90
     4095
 91
       24
280
     0
281
     0
  0
CLASS
  1
MATERIAL
  2
AcDbMaterial
  3
ObjectDBX Classes
 90
     1153
 91
        3
280
     0
281
     0
  0
CLASS
  1
SCALE
  2
AcDbScale
  3
ObjectDBX Classes
 90
     1153
 91
       33
280
     0
281
     0
  0
CLASS
  1
TABLESTYLE
  2
AcDbTableStyle
  3
ObjectDBX Classes
 90
     4095
 91
        1
280
     0
281
     0
  0
CLASS
  1
MLEADERSTYLE
  2
AcDbMLeaderStyle
  3
ACDB_MLEADERSTYLE_CLASS
 90
     4095
 91
        1
280
     0
281
     0
  0
CLASS
  1
SUN
  2
AcDbSun
  3
SCENEOE
 90
     1153
 91
        0
280
     0
281
     0
  0
CLASS
  1
DIMASSOC
  2
AcDbDimAssoc
  3
"AcDbDimAssoc|Product Desc:     AcDim ARX App For Dimension|Company:          Autodesk, Inc.|WEB Address:      www.autodesk.com"
 90
        0
 91
        7
280
     0
281
     0
  0
CLASS
  1
DICTIONARYVAR
  2
AcDbDictionaryVar
  3
ObjectDBX Classes
 90
        0
 91
        8
280
     0
281
     0
  0
CLASS
  1
CELLSTYLEMAP
  2
AcDbCellStyleMap
  3
ObjectDBX Classes
 90
     1152
 91
        2
280
     0
281
     0
  0
CLASS
  1
ACDBSECTIONVIEWSTYLE
  2
AcDbSectionViewStyle
  3
ObjectDBX Classes
 90
     1025
 91
        1
280
     0
281
     0
  0
CLASS
  1
ACDBDETAILVIEWSTYLE
  2
AcDbDetailViewStyle
  3
ObjectDBX Classes
 90
     1025
 91
        1
280
     0
281
     0
  0
CLASS
  1
SORTENTSTABLE
  2
AcDbSortentsTable
  3
ObjectDBX Classes
 90
        0
 91
        1
280
     0
281
     0
  0
ENDSEC
  0
SECTION
  2
TABLES
  0
TABLE
  2
VPORT
  5
8
330
0
100
AcDbSymbolTable
 70
    16
  0
VPORT
  5
29
330
8
100
AcDbSymbolTableRecord
100
AcDbViewportTableRecord
  2
*Active
 70
     0
 10
0.0
 20
0.0
 11
1.0
 21
1.0
 12
319.8228706244721
 22
285.1857185115654
 13
0.0
 23
0.0
 14
0.5
 24
0.5
 15
0.5
 25
0.5
 16
0.0
 26
0.0
 36
1.0
 17
0.0
 27
0.0
 37
0.0
 40
203.2634621593517
 41
2.283154121863799
 42
50.0
 43
383.372515
 44
-383.372515
 50
0.0
 51
0.0
 71
     0
 72
   100
 73
     1
 74
     3
 75
     0
 76
     0
 77
     0
 78
     0
281
     0
 65
     1
110
274.404842
120
288.907994
130
0.0
111
1.0
121
0.0
131
0.0
112
0.0
122
1.0
132
0.0
 79
     0
146
0.0
1001
ACAD_NAV_VCDISPLAY
1070
     3
  0
VPORT
  5
294
330
8
100
AcDbSymbolTableRecord
100
AcDbViewportTableRecord
  2
L1
 70
     0
 10
0.0
 20
0.0
 11
1.0
 21
1.0
 12
279.354393
 22
231.791454
 13
0.0
 23
0.0
 14
0.5
 24
0.5
 15
0.5
 25
0.5
 16
0.0
 26
0.0
 36
1.0
 17
0.0
 27
0.0
 37
0.0
 40
207.433333
 41
0.085602
 42
50.0
 43
383.372515
 44
-383.372515
 50
0.0
 51
0.0
 71
     0
 72
   100
 73
     1
 74
     3
 75
     0
 76
     0
 77
     0
 78
     0
281
     0
 65
     1
110
0.0
120
0.0
130
0.0
111
1.0
121
0.0
131
0.0
112
0.0
122
1.0
132
0.0
 79
     0
146
0.0
  0
VPORT
  5
295
330
8
100
AcDbSymbolTableRecord
100
AcDbViewportTableRecord
  2
L2
 70
     0
 10
0.0
 20
0.0
 11
0.5
 21
1.0
 12
0.0
 22
0.0
 13
0.0
 23
0.0
 14
0.5
 24
0.5
 15
0.5
 25
0.5
 16
0.0
 26
-1.0
 36
0.0
 17
0.0
 27
0.0
 37
0.0
 40
1319.143726
 41
0.013461
 42
50.0
 43
679.601336
 44
-679.601336
 50
0.0
 51
0.0
 71
     0
 72
   100
 73
     1
 74
     3
 75
     0
 76
     0
 77
     0
 78
     0
281
     0
 65
     1
110
0.0
120
0.0
130
0.0
111
1.0
121
0.0
131
0.0
112
0.0
122
1.0
132
0.0
 79
     0
146
0.0
  0
VPORT
  5
296
330
8
100
AcDbSymbolTableRecord
100
AcDbViewportTableRecord
  2
L2
 70
     0
 10
0.5
 20
0.0
 11
1.0
 21
1.0
 12
0.0
 22
0.0
 13
0.0
 23
0.0
 14
0.5
 24
0.5
 15
0.5
 25
0.5
 16
1.0
 26
0.0
 36
0.0
 17
0.0
 27
0.0
 37
0.0
 40
1319.143726
 41
0.013461
 42
50.0
 43
667.6767099999999
 44
-667.6767099999999
 50
0.0
 51
0.0
 71
     0
 72
   100
 73
     1
 74
     3
 75
     0
 76
     0
 77
     0
 78
     0
281
     0
 65
     1
110
0.0
120
0.0
130
0.0
111
1.0
121
0.0
131
0.0
112
0.0
122
1.0
132
0.0
 79
     0
146
0.0
  0
VPORT
  5
297
330
8
100
AcDbSymbolTableRecord
100
AcDbViewportTableRecord
  2
L3
 70
     0
 10
0.0
 20
0.5
 11
1.0
 21
1.0
 12
279.354393
 22
231.791454
 13
0.0
 23
0.0
 14
0.5
 24
0.5
 15
0.5
 25
0.5
 16
0.0
 26
0.0
 36
1.0
 17
0.0
 27
0.0
 37
0.0
 40
207.433333
 41
0.085602
 42
50.0
 43
383.372515
 44
-383.372515
 50
0.0
 51
0.0
 71
     0
 72
   100
 73
     1
 74
     3
 75
     0
 76
     0
 77
     0
 78
     0
281
     0
 65
     1
110
0.0
120
0.0
130
0.0
111
1.0
121
0.0
131
0.0
112
0.0
122
1.0
132
0.0
 79
     0
146
0.0
  0
VPORT
  5
298
330
8
100
AcDbSymbolTableRecord
100
AcDbViewportTableRecord
  2
L3
 70
     0
 10
0.0
 20
0.0
 11
1.0
 21
0.5
 12
0.0
 22
0.0
 13
0.0
 23
0.0
 14
0.5
 24
0.5
 15
0.5
 25
0.5
 16
0.0
 26
-1.0
 36
0.0
 17
0.0
 27
0.0
 37
0.0
 40
1319.143726
 41
0.013461
 42
50.0
 43
679.601336
 44
-679.601336
 50
0.0
 51
0.0
 71
     0
 72
   100
 73
     1
 74
     3
 75
     0
 76
     0
 77
     0
 78
     0
281
     0
 65
     1
110
0.0
120
0.0
130
0.0
111
1.0
121
0.0
131
0.0
112
0.0
122
1.0
132
0.0
 79
     0
146
0.0
  0
VPORT
  5
299
330
8
100
AcDbSymbolTableRecord
100
AcDbViewportTableRecord
  2
L4
 70
     0
 10
0.0
 20
0.5
 11
0.5
 21
1.0
 12
279.354393
 22
231.791454
 13
0.0
 23
0.0
 14
0.5
 24
0.5
 15
0.5
 25
0.5
 16
0.0
 26
0.0
 36
1.0
 17
0.0
 27
0.0
 37
0.0
 40
207.433333
 41
0.085602
 42
50.0
 43
383.372515
 44
-383.372515
 50
0.0
 51
0.0
 71
     0
 72
   100
 73
     1
 74
     3
 75
     0
 76
     0
 77
     0
 78
     0
281
     0
 65
     1
110
0.0
120
0.0
130
0.0
111
1.0
121
0.0
131
0.0
112
0.0
122
1.0
132
0.0
 79
     0
146
0.0
  0
VPORT
  5
29A
330
8
100
AcDbSymbolTableRecord
100
AcDbViewportTableRecord
  2
L4
 70
     0
 10
0.0
 20
0.0
 11
0.5
 21
0.5
 12
0.0
 22
0.0
 13
0.0
 23
0.0
 14
0.5
 24
0.5
 15
0.5
 25
0.5
 16
0.0
 26
-1.0
 36
0.0
 17
0.0
 27
0.0
 37
0.0
 40
1319.143726
 41
0.013461
 42
50.0
 43
679.601336
 44
-679.601336
 50
0.0
 51
0.0
 71
     0
 72
   100
 73
     1
 74
     3
 75
     0
 76
     0
 77
     0
 78
     0
281
     0
 65
     1
110
0.0
120
0.0
130
0.0
111
1.0
121
0.0
131
0.0
112
0.0
122
1.0
132
0.0
 79
     0
146
0.0
  0
VPORT
  5
29B
330
8
100
AcDbSymbolTableRecord
100
AcDbViewportTableRecord
  2
L4
 70
     0
 10
0.5
 20
0.0
 11
1.0
 21
0.5
 12
0.0
 22
0.0
 13
0.0
 23
0.0
 14
0.5
 24
0.5
 15
0.5
 25
0.5
 16
1.0
 26
0.0
 36
0.0
 17
0.0
 27
0.0
 37
0.0
 40
1319.143726
 41
0.013461
 42
50.0
 43
667.6767099999999
 44
-667.6767099999999
 50
0.0
 51
0.0
 71
     0
 72
   100
 73
     1
 74
     3
 75
     0
 76
     0
 77
     0
 78
     0
281
     0
 65
     1
110
0.0
120
0.0
130
0.0
111
1.0
121
0.0
131
0.0
112
0.0
122
1.0
132
0.0
 79
     0
146
0.0
  0
VPORT
  5
29C
330
8
100
AcDbSymbolTableRecord
100
AcDbViewportTableRecord
  2
L4
 70
     0
 10
0.5
 20
0.5
 11
1.0
 21
1.0
 12
0.0
 22
0.0
 13
0.0
 23
0.0
 14
0.5
 24
0.5
 15
0.5
 25
0.5
 16
0.5773502691896259
 26
-0.5773502691896259
 36
0.5773502691896259
 17
0.0
 27
0.0
 37
0.0
 40
1295.484074
 41
0.013707
 42
50.0
 43
674.79345
 44
-674.79345
 50
0.0
 51
0.0
 71
     0
 72
   100
 73
     1
 74
     3
 75
     0
 76
     0
 77
     0
 78
     0
281
     0
 65
     1
110
0.0
120
0.0
130
0.0
111
1.0
121
0.0
131
0.0
112
0.0
122
1.0
132
0.0
 79
     0
146
0.0
  0
VPORT
  5
29D
330
8
100
AcDbSymbolTableRecord
100
AcDbViewportTableRecord
  2
L6
 70
     0
 10
0.0
 20
0.5
 11
0.333333
 21
1.0
 12
0.0
 22
0.0
 13
0.0
 23
0.0
 14
0.5
 24
0.5
 15
0.5
 25
0.5
 16
0.7188730927569434
 26
-0.5850486126764433
 36
0.3754192287502549
 17
0.0
 27
0.0
 37
0.0
 40
1367.187154
 41
0.012988
 42
50.0
 43
707.8776949999999
 44
-707.8776949999999
 50
0.0
 51
0.0
 71
     0
 72
   100
 73
     1
 74
     3
 75
     0
 76
     0
 77
     0
 78
     0
281
     0
 65
     1
110
0.0
120
0.0
130
0.0
111
1.0
121
0.0
131
0.0
112
0.0
122
1.0
132
0.0
 79
     0
146
0.0
  0
VPORT
  5
29E
330
8
100
AcDbSymbolTableRecord
100
AcDbViewportTableRecord
  2
L6
 70
     0
 10
0.0
 20
0.0
 11
0.333333
 21
0.5
 12
0.0
 22
0.0
 13
0.0
 23
0.0
 14
0.5
 24
0.5
 15
0.5
 25
0.5
 16
-1.0
 26
0.0
 36
0.0
 17
0.0
 27
0.0
 37
0.0
 40
1319.143726
 41
0.013461
 42
50.0
 43
667.6767099999999
 44
-667.6767099999999
 50
0.0
 51
0.0
 71
     0
 72
   100
 73
     1
 74
     3
 75
     0
 76
     0
 77
     0
 78
     0
281
     0
 65
     1
110
0.0
120
0.0
130
0.0
111
1.0
121
0.0
131
0.0
112
0.0
122
1.0
132
0.0
 79
     0
146
0.0
  0
VPORT
  5
29F
330
8
100
AcDbSymbolTableRecord
100
AcDbViewportTableRecord
  2
L6
 70
     0
 10
0.333333
 20
0.5
 11
0.666667
 21
1.0
 12
279.354393
 22
231.791454
 13
0.0
 23
0.0
 14
0.5
 24
0.5
 15
0.5
 25
0.5
 16
0.0
 26
0.0
 36
1.0
 17
0.0
 27
0.0
 37
0.0
 40
207.433333
 41
0.085602
 42
50.0
 43
383.372515
 44
-383.372515
 50
0.0
 51
0.0
 71
     0
 72
   100
 73
     1
 74
     3
 75
     0
 76
     0
 77
     0
 78
     0
281
     0
 65
     1
110
0.0
120
0.0
130
0.0
111
1.0
121
0.0
131
0.0
112
0.0
122
1.0
132
0.0
 79
     0
146
0.0
  0
VPORT
  5
2A0
330
8
100
AcDbSymbolTableRecord
100
AcDbViewportTableRecord
  2
L6
 70
     0
 10
0.333333
 20
0.0
 11
0.666667
 21
0.5
 12
0.0
 22
0.0
 13
0.0
 23
0.0
 14
0.5
 24
0.5
 15
0.5
 25
0.5
 16
0.0
 26
-1.0
 36
0.0
 17
0.0
 27
0.0
 37
0.0
 40
1319.143726
 41
0.013461
 42
50.0
 43
679.601336
 44
-679.601336
 50
0.0
 51
0.0
 71
     0
 72
   100
 73
     1
 74
     3
 75
     0
 76
     0
 77
     0
 78
     0
281
     0
 65
     1
110
0.0
120
0.0
130
0.0
111
1.0
121
0.0
131
0.0
112
0.0
122
1.0
132
0.0
 79
     0
146
0.0
  0
VPORT
  5
2A1
330
8
100
AcDbSymbolTableRecord
100
AcDbViewportTableRecord
  2
L6
 70
     0
 10
0.666667
 20
0.5
 11
1.0
 21
1.0
 12
0.0
 22
0.0
 13
0.0
 23
0.0
 14
0.5
 24
0.5
 15
0.5
 25
0.5
 16
0.5773502691896259
 26
-0.5773502691896259
 36
0.5773502691896259
 17
0.0
 27
0.0
 37
0.0
 40
1295.484074
 41
0.013707
 42
50.0
 43
674.79345
 44
-674.79345
 50
0.0
 51
0.0
 71
     0
 72
   100
 73
     1
 74
     3
 75
     0
 76
     0
 77
     0
 78
     0
281
     0
 65
     1
110
0.0
120
0.0
130
0.0
111
1.0
121
0.0
131
0.0
112
0.0
122
1.0
132
0.0
 79
     0
146
0.0
  0
VPORT
  5
2A2
330
8
100
AcDbSymbolTableRecord
100
AcDbViewportTableRecord
  2
L6
 70
     0
 10
0.666667
 20
0.0
 11
1.0
 21
0.5
 12
0.0
 22
0.0
 13
0.0
 23
0.0
 14
0.5
 24
0.5
 15
0.5
 25
0.5
 16
1.0
 26
0.0
 36
0.0
 17
0.0
 27
0.0
 37
0.0
 40
1319.143726
 41
0.013461
 42
50.0
 43
667.6767099999999
 44
-667.6767099999999
 50
0.0
 51
0.0
 71
     0
 72
   100
 73
     1
 74
     3
 75
     0
 76
     0
 77
     0
 78
     0
281
     0
 65
     1
110
0.0
120
0.0
130
0.0
111
1.0
121
0.0
131
0.0
112
0.0
122
1.0
132
0.0
 79
     0
146
0.0
  0
ENDTAB
  0
TABLE
  2
LTYPE
  5
5
330
0
100
AcDbSymbolTable
 70
     7
  0
LTYPE
  5
14
330
5
100
AcDbSymbolTableRecord
100
AcDbLinetypeTableRecord
  2
ByBlock
 70
     0
  3

 72
    65
 73
     0
 40
0.0
  0
LTYPE
  5
15
330
5
100
AcDbSymbolTableRecord
100
AcDbLinetypeTableRecord
  2
ByLayer
 70
     0
  3

 72
    65
 73
     0
 40
0.0
  0
LTYPE
  5
16
330
5
100
AcDbSymbolTableRecord
100
AcDbLinetypeTableRecord
  2
Continuous
 70
     0
  3
Solid line
 72
    65
 73
     0
 40
0.0
  0
LTYPE
  5
6E
330
5
100
AcDbSymbolTableRecord
100
AcDbLinetypeTableRecord
  2
CENTER
 70
     0
  3
____ _ ____ _ ____ _ ____
 72
    65
 73
     4
 40
47.4
 49
22.0
 74
     4
 75
     0
340
0
 46
0.0
 50
0.0
 44
0.0
 45
0.0
 49
-8.5
 74
     4
 75
     0
340
0
 46
0.0
 50
0.0
 44
0.0
 45
0.0
 49
8.5
 74
     4
 75
     0
340
0
 46
0.0
 50
0.0
 44
0.0
 45
0.0
 49
-8.5
 74
     4
 75
     0
340
0
 46
0.0
 50
0.0
 44
0.0
 45
0.0
  0
LTYPE
  5
6F
330
5
100
AcDbSymbolTableRecord
100
AcDbLinetypeTableRecord
  2
DASHDOT
 70
     0
  3
_._._._._._._._._._._._._._._._.
 72
    65
 73
     4
 40
70.0
 49
31.0
 74
     4
 75
     0
340
0
 46
0.0
 50
0.0
 44
0.0
 45
0.0
 49
-13.0
 74
     4
 75
     0
340
0
 46
0.0
 50
0.0
 44
0.0
 45
0.0
 49
13.0
 74
     4
 75
     0
340
0
 46
0.0
 50
0.0
 44
0.0
 45
0.0
 49
-13.0
 74
     4
 75
     0
340
0
 46
0.0
 50
0.0
 44
0.0
 45
0.0
  0
LTYPE
  5
70
330
5
100
AcDbSymbolTableRecord
100
AcDbLinetypeTableRecord
  2
DASHED
 70
     0
  3
__ __ __ __ __ __ __ __ __
 72
    65
 73
     2
 40
25.72
 49
12.86
 74
     4
 75
     0
340
0
 46
0.0
 50
0.0
 44
0.0
 45
0.0
 49
-12.86
 74
     4
 75
     0
340
0
 46
0.0
 50
0.0
 44
0.0
 45
0.0
  0
LTYPE
  5
71
330
5
100
AcDbSymbolTableRecord
100
AcDbLinetypeTableRecord
  2
DOT
 70
     0
  3
.........................
 72
    65
 73
     2
 40
10.0
 49
0.0
 74
     4
 75
     0
340
0
 46
0.0
 50
0.0
 44
0.0
 45
0.0
 49
-10.0
 74
     4
 75
     0
340
0
 46
0.0
 50
0.0
 44
0.0
 45
0.0
  0
LTYPE
  5
72
330
5
100
AcDbSymbolTableRecord
100
AcDbLinetypeTableRecord
  2
PHANTOM
 70
     0
  3
____ _ _ ____ _ _ _____ _ _ ____
 72
    65
 73
     6
 40
50.5
 49
18.0
 74
     4
 75
     0
340
0
 46
0.0
 50
0.0
 44
0.0
 45
0.0
 49
-6.5
 74
     4
 75
     0
340
0
 46
0.0
 50
0.0
 44
0.0
 45
0.0
 49
6.5
 74
     4
 75
     0
340
0
 46
0.0
 50
0.0
 44
0.0
 45
0.0
 49
-6.5
 74
     4
 75
     0
340
0
 46
0.0
 50
0.0
 44
0.0
 45
0.0
 49
6.5
 74
     4
 75
     0
340
0
 46
0.0
 50
0.0
 44
0.0
 45
0.0
 49
-6.5
 74
     4
 75
     0
340
0
 46
0.0
 50
0.0
 44
0.0
 45
0.0
  0
LTYPE
  5
332
330
5
100
AcDbSymbolTableRecord
100
AcDbLinetypeTableRecord
  2
CENTER2
 70
     0
  3
Center (.5x) ___ _ ___ _ ___ _ ___ _ ___ _ ___
 72
    65
 73
     4
 40
1.125
 49
0.75
 74
     0
 49
-0.125
 74
     0
 49
0.125
 74
     0
 49
-0.125
 74
     0
  0
ENDTAB
  0
TABLE
  2
LAYER
  5
2
330
0
100
AcDbSymbolTable
 70
    22
  0
LAYER
  5
10
102
{ACAD_XDICTIONARY
360
33D
102
}
330
2
100
AcDbSymbolTableRecord
100
AcDbLayerTableRecord
  2
0
 70
     0
 62
     7
  6
Continuous
370
    -3
390
F
  0
LAYER
  5
1EE
330
2
100
AcDbSymbolTableRecord
100
AcDbLayerTableRecord
  2
Defpoints
 70
     0
 62
     7
  6
Continuous
290
     0
370
    -3
390
F
  0
LAYER
  5
32F
102
{ACAD_XDICTIONARY
360
33F
102
}
330
2
100
AcDbSymbolTableRecord
100
AcDbLayerTableRecord
  2
1
 70
     0
 62
     4
  6
Continuous
370
    -3
390
F
  0
LAYER
  5
330
102
{ACAD_XDICTIONARY
360
341
102
}
330
2
100
AcDbSymbolTableRecord
100
AcDbLayerTableRecord
  2
2
 70
     0
 62
     7
  6
Continuous
370
    -3
390
F
  0
LAYER
  5
331
102
{ACAD_XDICTIONARY
360
343
102
}
330
2
100
AcDbSymbolTableRecord
100
AcDbLayerTableRecord
  2
4
 70
     0
 62
     2
  6
CENTER2
370
    -3
390
F
  0
LAYER
  5
333
102
{ACAD_XDICTIONARY
360
345
102
}
330
2
100
AcDbSymbolTableRecord
100
AcDbLayerTableRecord
  2
SK1
 70
     0
 62
     4
  6
Continuous
370
    -3
390
F
  0
LAYER
  5
334
102
{ACAD_XDICTIONARY
360
347
102
}
330
2
100
AcDbSymbolTableRecord
100
AcDbLayerTableRecord
  2
SK2
 70
     0
 62
     7
  6
Continuous
370
    -3
390
F
  0
LAYER
  5
336
102
{ACAD_XDICTIONARY
360
349
102
}
330
2
100
AcDbSymbolTableRecord
100
AcDbLayerTableRecord
  2
SK4
 70
     0
 62
     2
  6
CENTER2
370
    -3
390
F
  0
LAYER
  5
337
102
{ACAD_XDICTIONARY
360
34B
102
}
330
2
100
AcDbSymbolTableRecord
100
AcDbLayerTableRecord
  2
SK6
 70
     0
 62
     5
  6
Continuous
370
    -3
390
F
  0
LAYER
  5
338
102
{ACAD_XDICTIONARY
360
34D
102
}
330
2
100
AcDbSymbolTableRecord
100
AcDbLayerTableRecord
  2
CUT
 70
     0
 62
     1
  6
Continuous
370
    -3
390
F
  0
LAYER
  5
339
102
{ACAD_XDICTIONARY
360
34F
102
}
330
2
100
AcDbSymbolTableRecord
100
AcDbLayerTableRecord
  2
NOCUT
 70
     0
 62
     7
  6
Continuous
370
    -3
390
F
  0
LAYER
  5
33A
102
{ACAD_XDICTIONARY
360
351
102
}
330
2
100
AcDbSymbolTableRecord
100
AcDbLayerTableRecord
  2
80
 70
     0
 62
     6
  6
Continuous
370
    -3
390
F
  0
LAYER
  5
33B
102
{ACAD_XDICTIONARY
360
353
102
}
330
2
100
AcDbSymbolTableRecord
100
AcDbLayerTableRecord
  2
81
 70
     0
 62
     3
  6
Continuous
370
    -3
390
F
  0
ENDTAB
  0
TABLE
  2
STYLE
  5
3
330
0
100
AcDbSymbolTable
 70
     3
  0
STYLE
  5
11
330
3
100
AcDbSymbolTableRecord
100
AcDbTextStyleTableRecord
  2
Standard
 70
     0
 40
0.0
 41
1.0
 50
0.0
 71
     0
 42
0.2
  3
txt
  4

  0
STYLE
  5
1E2
330
3
100
AcDbSymbolTableRecord
100
AcDbTextStyleTableRecord
  2
cesky
 70
     0
 40
0.0
 41
1.0
 50
0.0
 71
     0
 42
0.2
  3
simplex.shx
  4

  0
STYLE
  5
1E3
330
3
100
AcDbSymbolTableRecord
100
AcDbTextStyleTableRecord
  2
DWGDirectTextStyle
 70
     0
 40
0.0
 41
1.0
 50
0.0
 71
     0
 42
0.2
  3
simplex
  4

  0
ENDTAB
  0
TABLE
  2
VIEW
  5
6
330
0
100
AcDbSymbolTable
 70
     0
  0
ENDTAB
  0
TABLE
  2
UCS
  5
7
330
0
100
AcDbSymbolTable
 70
     0
  0
ENDTAB
  0
TABLE
  2
APPID
  5
9
330
0
100
AcDbSymbolTable
 70
     7
  0
APPID
  5
12
330
9
100
AcDbSymbolTableRecord
100
AcDbRegAppTableRecord
  2
ACAD
 70
     0
  0
APPID
  5
1EA
330
9
100
AcDbSymbolTableRecord
100
AcDbRegAppTableRecord
  2
ACAD_DSTYLE_DIMBREAK
 70
     0
  0
APPID
  5
2A3
330
9
100
AcDbSymbolTableRecord
100
AcDbRegAppTableRecord
  2
ACAD_DSTYLE_DIM_LINETYPE
 70
     0
  0
APPID
  5
2A4
330
9
100
AcDbSymbolTableRecord
100
AcDbRegAppTableRecord
  2
ACAD_DSTYLE_DIM_EXT1_LINETYPE
 70
     0
  0
APPID
  5
2A5
330
9
100
AcDbSymbolTableRecord
100
AcDbRegAppTableRecord
  2
ACAD_DSTYLE_DIM_EXT2_LINETYPE
 70
     0
  0
APPID
  5
2E5
330
9
100
AcDbSymbolTableRecord
100
AcDbRegAppTableRecord
  2
ACAD_MLEADERVER
 70
     0
  0
APPID
  5
358
330
9
100
AcDbSymbolTableRecord
100
AcDbRegAppTableRecord
  2
ACAD_NAV_VCDISPLAY
 70
     0
  0
ENDTAB
  0
TABLE
  2
DIMSTYLE
  5
A
330
0
100
AcDbSymbolTable
 70
     1
100
AcDbDimStyleTable
 71
     0
  0
DIMSTYLE
105
27
330
A
100
AcDbSymbolTableRecord
100
AcDbDimStyleTableRecord
  2
Standard
 70
     0
340
11
1001
ACAD_DSTYLE_DIMBREAK
1070
   391
1040
6.349999999999999
  0
ENDTAB
  0
TABLE
  2
BLOCK_RECORD
  5
1
330
0
100
AcDbSymbolTable
 70
    16
  0
BLOCK_RECORD
  5
1F
102
{ACAD_XDICTIONARY
360
2F5
102
}
330
1
100
AcDbSymbolTableRecord
100
AcDbBlockTableRecord
  2
*Model_Space
340
22
  0
BLOCK_RECORD
  5
1B
330
1
100
AcDbSymbolTableRecord
100
AcDbBlockTableRecord
  2
*Paper_Space
340
1E
  0
BLOCK_RECORD
  5
23
330
1
100
AcDbSymbolTableRecord
100
AcDbBlockTableRecord
  2
*Paper_Space0
340
26
  0
BLOCK_RECORD
  5
1E5
330
1
100
AcDbSymbolTableRecord
100
AcDbBlockTableRecord
  2
ASSORTED_DRAFT1
340
0
  0
BLOCK_RECORD
  5
1EF
330
1
100
AcDbSymbolTableRecord
100
AcDbBlockTableRecord
  2
*D2
340
0
  0
BLOCK_RECORD
  5
1FB
330
1
100
AcDbSymbolTableRecord
100
AcDbBlockTableRecord
  2
_U0
340
0
  0
BLOCK_RECORD
  5
207
330
1
100
AcDbSymbolTableRecord
100
AcDbBlockTableRecord
  2
*D4
340
0
  0
BLOCK_RECORD
  5
212
330
1
100
AcDbSymbolTableRecord
100
AcDbBlockTableRecord
  2
_U1
340
0
  0
BLOCK_RECORD
  5
21D
330
1
100
AcDbSymbolTableRecord
100
AcDbBlockTableRecord
  2
*D6
340
0
  0
BLOCK_RECORD
  5
229
330
1
100
AcDbSymbolTableRecord
100
AcDbBlockTableRecord
  2
_U2
340
0
  0
BLOCK_RECORD
  5
236
330
1
100
AcDbSymbolTableRecord
100
AcDbBlockTableRecord
  2
*D8
340
0
  0
BLOCK_RECORD
  5
242
330
1
100
AcDbSymbolTableRecord
100
AcDbBlockTableRecord
  2
_U3
340
0
  0
BLOCK_RECORD
  5
24F
330
1
100
AcDbSymbolTableRecord
100
AcDbBlockTableRecord
  2
*D10
340
0
  0
BLOCK_RECORD
  5
25B
330
1
100
AcDbSymbolTableRecord
100
AcDbBlockTableRecord
  2
_U4
340
0
  0
BLOCK_RECORD
  5
267
330
1
100
AcDbSymbolTableRecord
100
AcDbBlockTableRecord
  2
*D12
340
0
  0
BLOCK_RECORD
  5
273
330
1
100
AcDbSymbolTableRecord
100
AcDbBlockTableRecord
  2
_U5
340
0
  0
BLOCK_RECORD
  5
27F
330
1
100
AcDbSymbolTableRecord
100
AcDbBlockTableRecord
  2
*D14
340
0
  0
BLOCK_RECORD
  5
28B
330
1
100
AcDbSymbolTableRecord
100
AcDbBlockTableRecord
  2
_U6
340
0
  0
ENDTAB
  0
ENDSEC
  0
SECTION
  2
BLOCKS
  0
BLOCK
  5
20
330
1F
100
AcDbEntity
  8
0
100
AcDbBlockBegin
  2
*Model_Space
 70
     0
 10
0.0
 20
0.0
 30
0.0
  3
*Model_Space
  1

  0
ENDBLK
  5
21
330
1F
100
AcDbEntity
  8
0
100
AcDbBlockEnd
  0
BLOCK
  5
1C
330
1B
100
AcDbEntity
 67
     1
  8
0
100
AcDbBlockBegin
  2
*Paper_Space
 70
     0
 10
0.0
 20
0.0
 30
0.0
  3
*Paper_Space
  1

  0
ENDBLK
  5
1D
330
1B
100
AcDbEntity
 67
     1
  8
0
100
AcDbBlockEnd
  0
BLOCK
  5
24
330
23
100
AcDbEntity
 67
     1
  8
0
100
AcDbBlockBegin
  2
*Paper_Space0
 70
     0
 10
0.0
 20
0.0
 30
0.0
  3
*Paper_Space0
  1

  0
ENDBLK
  5
25
330
23
100
AcDbEntity
 67
     1
  8
0
100
AcDbBlockEnd
  0
BLOCK
  5
1E8
330
1E5
100
AcDbEntity
  8
0
100
AcDbBlockBegin
  2
ASSORTED_DRAFT1
 70
     0
 10
0.0
 20
0.0
 30
0.0
  3
ASSORTED_DRAFT1
  1

  0
SOLID
  5
1E6
330
1E5
100
AcDbEntity
  8
0
 62
   254
370
    13
100
AcDbTrace
 10
270.185042
 20
164.888925
 30
0.0
 11
265.185046
 21
163.780451
 31
0.0
 12
265.1850379999999
 22
165.997398
 32
0.0
 13
270.185042
 23
164.888925
 33
0.0
  0
ENDBLK
  5
1E9
330
1E5
100
AcDbEntity
  8
0
100
AcDbBlockEnd
  0
BLOCK
  5
1F0
330
1EF
100
AcDbEntity
  8
0
100
AcDbBlockBegin
  2
*D2
 70
     1
 10
0.0
 20
0.0
 30
0.0
  3
*D2
  1

  0
LINE
  5
1F2
330
1EF
100
AcDbEntity
  8
0
 62
   254
370
    -2
100
AcDbLine
 10
357.404842
 20
303.407994
 30
0.0
 11
357.404842
 21
328.5109970000001
 31
0.0
  0
LINE
  5
1F3
330
1EF
100
AcDbEntity
  8
0
 62
   254
370
    -2
100
AcDbLine
 10
274.404842
 20
288.907994
 30
0.0
 11
274.404842
 21
328.5109970000001
 31
0.0
  0
LINE
  5
1F4
330
1EF
100
AcDbEntity
  8
0
 62
   254
370
    -2
100
AcDbLine
 10
353.904842
 20
327.510997
 30
0.0
 11
277.904842
 21
327.510997
 31
0.0
  0
SOLID
  5
1F5
330
1EF
100
AcDbEntity
  8
0
 62
   254
100
AcDbTrace
 10
353.904842
 20
326.927663
 30
0.0
 11
353.904842
 21
328.09433
 31
0.0
 12
357.404842
 22
327.510997
 32
0.0
 13
357.404842
 23
327.510997
 33
0.0
  0
SOLID
  5
1F6
330
1EF
100
AcDbEntity
  8
0
 62
   254
100
AcDbTrace
 10
277.904842
 20
328.09433
 30
0.0
 11
277.904842
 21
326.927663
 31
0.0
 12
274.404842
 22
327.510997
 32
0.0
 13
274.404842
 23
327.510997
 33
0.0
  0
MTEXT
  5
1F7
330
1EF
100
AcDbEntity
  8
0
 62
   254
370
    13
100
AcDbMText
 10
315.904842
 20
332.7609970000001
 30
0.0
 40
3.5
 41
0.0
 71
     5
 72
     1
  1
\A1;83
  7
cesky
 73
     1
 44
1.0
  0
POINT
  5
1F8
330
1EF
100
AcDbEntity
  8
Defpoints
 62
     0
100
AcDbPoint
 10
357.404842
 20
303.407994
 30
0.0
  0
POINT
  5
1F9
330
1EF
100
AcDbEntity
  8
Defpoints
 62
     0
100
AcDbPoint
 10
274.404842
 20
288.907994
 30
0.0
  0
POINT
  5
1FA
330
1EF
100
AcDbEntity
  8
Defpoints
 62
     0
100
AcDbPoint
 10
274.404842
 20
327.510997
 30
0.0
  0
ENDBLK
  5
1F1
330
1EF
100
AcDbEntity
  8
0
100
AcDbBlockEnd
  0
BLOCK
  5
202
330
1FB
100
AcDbEntity
  8
0
100
AcDbBlockBegin
  2
_U0
 70
     0
 10
0.0
 20
0.0
 30
0.0
  3
_U0
  1

  0
ENDBLK
  5
203
330
1FB
100
AcDbEntity
  8
0
100
AcDbBlockEnd
  0
BLOCK
  5
208
330
207
100
AcDbEntity
  8
0
100
AcDbBlockBegin
  2
*D4
 70
     1
 10
0.0
 20
0.0
 30
0.0
  3
*D4
  1

  0
LINE
  5
20A
330
207
100
AcDbEntity
  8
0
 62
   254
370
    -2
100
AcDbLine
 10
292.203832
 20
288.907994
 30
0.0
 11
373.283285
 21
288.907994
 31
0.0
  0
LINE
  5
20B
330
207
100
AcDbEntity
  8
0
 62
   254
370
    -2
100
AcDbLine
 10
330.83929
 20
303.407994
 30
0.0
 11
373.283285
 21
303.407994
 31
0.0
  0
LINE
  5
20C
330
207
100
AcDbEntity
  8
0
 62
   254
370
    -2
100
AcDbLine
 10
372.283285
 20
288.907994
 30
0.0
 11
372.283285
 21
303.407994
 31
0.0
  0
SOLID
  5
20D
330
207
100
AcDbEntity
  8
0
 62
   254
100
AcDbTrace
 10
372.866618
 20
299.907994
 30
0.0
 11
371.699951
 21
299.907994
 31
0.0
 12
372.283285
 22
303.407994
 32
0.0
 13
372.283285
 23
303.407994
 33
0.0
  0
MTEXT
  5
20E
330
207
100
AcDbEntity
  8
0
 62
   254
370
    13
100
AcDbMText
 10
367.033285
 20
279.157994
 30
0.0
 40
3.5
 41
0.0
 71
     5
 72
     1
  1
\A1;29
  7
cesky
 11
0.0
 21
1.0
 31
0.0
 73
     1
 44
1.0
  0
POINT
  5
20F
330
207
100
AcDbEntity
  8
Defpoints
 62
     0
100
AcDbPoint
 10
292.203832
 20
288.907994
 30
0.0
  0
POINT
  5
210
330
207
100
AcDbEntity
  8
Defpoints
 62
     0
100
AcDbPoint
 10
330.83929
 20
303.407994
 30
0.0
  0
POINT
  5
211
330
207
100
AcDbEntity
  8
Defpoints
 62
     0
100
AcDbPoint
 10
372.283285
 20
303.407994
 30
0.0
  0
ENDBLK
  5
209
330
207
100
AcDbEntity
  8
0
100
AcDbBlockEnd
  0
BLOCK
  5
218
330
212
100
AcDbEntity
  8
0
100
AcDbBlockBegin
  2
_U1
 70
     0
 10
0.0
 20
0.0
 30
0.0
  3
_U1
  1

  0
ENDBLK
  5
219
330
212
100
AcDbEntity
  8
0
100
AcDbBlockEnd
  0
BLOCK
  5
21E
330
21D
100
AcDbEntity
  8
0
100
AcDbBlockBegin
  2
*D6
 70
     1
 10
0.0
 20
0.0
 30
0.0
  3
*D6
  1

  0
LINE
  5
220
330
21D
100
AcDbEntity
  8
0
 62
    95
370
    -2
100
AcDbLine
 10
216.404842
 20
304.907994
 30
0.0
 11
203.037875
 21
304.907994
 31
0.0
  0
LINE
  5
221
330
21D
100
AcDbEntity
  8
0
 62
    95
370
    -2
100
AcDbLine
 10
216.404842
 20
272.907994
 30
0.0
 11
203.037875
 21
272.907994
 31
0.0
  0
LINE
  5
222
330
21D
100
AcDbEntity
  8
0
 62
    95
370
    -2
100
AcDbLine
 10
204.037875
 20
301.407994
 30
0.0
 11
204.037875
 21
276.407994
 31
0.0
  0
SOLID
  5
223
330
21D
100
AcDbEntity
  8
0
 62
    95
100
AcDbTrace
 10
204.621208
 20
301.407994
 30
0.0
 11
203.454542
 21
301.407994
 31
0.0
 12
204.037875
 22
304.907994
 32
0.0
 13
204.037875
 23
304.907994
 33
0.0
  0
SOLID
  5
224
330
21D
100
AcDbEntity
  8
0
 62
    95
100
AcDbTrace
 10
203.454542
 20
276.407994
 30
0.0
 11
204.621208
 21
276.407994
 31
0.0
 12
204.037875
 22
272.907994
 32
0.0
 13
204.037875
 23
272.907994
 33
0.0
  0
MTEXT
  5
225
330
21D
100
AcDbEntity
  8
0
 62
    95
370
    13
100
AcDbMText
 10
198.787875
 20
288.907994
 30
0.0
 40
3.5
 41
0.0
 71
     5
 72
     1
  1
\A1;32
  7
cesky
 11
0.0
 21
1.0
 31
0.0
 73
     1
 44
1.0
  0
POINT
  5
226
330
21D
100
AcDbEntity
  8
Defpoints
 62
     0
100
AcDbPoint
 10
216.404842
 20
304.907994
 30
0.0
  0
POINT
  5
227
330
21D
100
AcDbEntity
  8
Defpoints
 62
     0
100
AcDbPoint
 10
216.404842
 20
272.907994
 30
0.0
  0
POINT
  5
228
330
21D
100
AcDbEntity
  8
Defpoints
 62
     0
100
AcDbPoint
 10
204.037875
 20
272.907994
 30
0.0
  0
ENDBLK
  5
21F
330
21D
100
AcDbEntity
  8
0
100
AcDbBlockEnd
  0
BLOCK
  5
231
330
229
100
AcDbEntity
  8
0
100
AcDbBlockBegin
  2
_U2
 70
     0
 10
0.0
 20
0.0
 30
0.0
  3
_U2
  1

  0
ENDBLK
  5
232
330
229
100
AcDbEntity
  8
0
100
AcDbBlockEnd
  0
BLOCK
  5
237
330
236
100
AcDbEntity
  8
0
100
AcDbBlockBegin
  2
*D8
 70
     1
 10
0.0
 20
0.0
 30
0.0
  3
*D8
  1

  0
LINE
  5
239
330
236
100
AcDbEntity
  8
0
 62
    95
370
    -2
100
AcDbLine
 10
277.154842
 20
309.907994
 30
0.0
 11
190.287987
 21
309.907994
 31
0.0
  0
LINE
  5
23A
330
236
100
AcDbEntity
  8
0
 62
    95
370
    -2
100
AcDbLine
 10
277.154842
 20
267.907994
 30
0.0
 11
190.287987
 21
267.907994
 31
0.0
  0
LINE
  5
23B
330
236
100
AcDbEntity
  8
0
 62
    95
370
    -2
100
AcDbLine
 10
191.287987
 20
306.407994
 30
0.0
 11
191.287987
 21
271.407994
 31
0.0
  0
SOLID
  5
23C
330
236
100
AcDbEntity
  8
0
 62
    95
100
AcDbTrace
 10
191.87132
 20
306.407994
 30
0.0
 11
190.704653
 21
306.407994
 31
0.0
 12
191.287987
 22
309.907994
 32
0.0
 13
191.287987
 23
309.907994
 33
0.0
  0
SOLID
  5
23D
330
236
100
AcDbEntity
  8
0
 62
    95
100
AcDbTrace
 10
190.704653
 20
271.407994
 30
0.0
 11
191.87132
 21
271.407994
 31
0.0
 12
191.287987
 22
267.907994
 32
0.0
 13
191.287987
 23
267.907994
 33
0.0
  0
MTEXT
  5
23E
330
236
100
AcDbEntity
  8
0
 62
    95
370
    13
100
AcDbMText
 10
186.037987
 20
288.907994
 30
0.0
 40
3.5
 41
0.0
 71
     5
 72
     1
  1
\A1;42
  7
cesky
 11
0.0
 21
1.0
 31
0.0
 73
     1
 44
1.0
  0
POINT
  5
23F
330
236
100
AcDbEntity
  8
Defpoints
 62
     0
100
AcDbPoint
 10
277.154842
 20
309.907994
 30
0.0
  0
POINT
  5
240
330
236
100
AcDbEntity
  8
Defpoints
 62
     0
100
AcDbPoint
 10
277.154842
 20
267.907994
 30
0.0
  0
POINT
  5
241
330
236
100
AcDbEntity
  8
Defpoints
 62
     0
100
AcDbPoint
 10
191.287987
 20
267.907994
 30
0.0
  0
ENDBLK
  5
238
330
236
100
AcDbEntity
  8
0
100
AcDbBlockEnd
  0
BLOCK
  5
24A
330
242
100
AcDbEntity
  8
0
100
AcDbBlockBegin
  2
_U3
 70
     0
 10
0.0
 20
0.0
 30
0.0
  3
_U3
  1

  0
ENDBLK
  5
24B
330
242
100
AcDbEntity
  8
0
100
AcDbBlockEnd
  0
BLOCK
  5
250
330
24F
100
AcDbEntity
  8
0
100
AcDbBlockBegin
  2
*D10
 70
     1
 10
0.0
 20
0.0
 30
0.0
  3
*D10
  1

  0
LINE
  5
252
330
24F
100
AcDbEntity
  8
0
 62
   254
370
    -2
100
AcDbLine
 10
357.404842
 20
305.407994
 30
0.0
 11
357.404842
 21
341.687968
 31
0.0
  0
LINE
  5
253
330
24F
100
AcDbEntity
  8
0
 62
   254
370
    -2
100
AcDbLine
 10
214.404842
 20
302.907994
 30
0.0
 11
214.404842
 21
341.687968
 31
0.0
  0
LINE
  5
254
330
24F
100
AcDbEntity
  8
0
 62
   254
370
    -2
100
AcDbLine
 10
353.904842
 20
340.687968
 30
0.0
 11
217.904842
 21
340.687968
 31
0.0
  0
SOLID
  5
255
330
24F
100
AcDbEntity
  8
0
 62
   254
100
AcDbTrace
 10
353.904842
 20
340.104634
 30
0.0
 11
353.904842
 21
341.271301
 31
0.0
 12
357.404842
 22
340.687968
 32
0.0
 13
357.404842
 23
340.687968
 33
0.0
  0
SOLID
  5
256
330
24F
100
AcDbEntity
  8
0
 62
   254
100
AcDbTrace
 10
217.904842
 20
341.271301
 30
0.0
 11
217.904842
 21
340.104634
 31
0.0
 12
214.404842
 22
340.687968
 32
0.0
 13
214.404842
 23
340.687968
 33
0.0
  0
MTEXT
  5
257
330
24F
100
AcDbEntity
  8
0
 62
   254
370
    13
100
AcDbMText
 10
285.904842
 20
345.937968
 30
0.0
 40
3.5
 41
0.0
 71
     5
 72
     1
  1
\A1;143
  7
cesky
 73
     1
 44
1.0
  0
POINT
  5
258
330
24F
100
AcDbEntity
  8
Defpoints
 62
     0
100
AcDbPoint
 10
357.404842
 20
305.407994
 30
0.0
  0
POINT
  5
259
330
24F
100
AcDbEntity
  8
Defpoints
 62
     0
100
AcDbPoint
 10
214.404842
 20
302.907994
 30
0.0
  0
POINT
  5
25A
330
24F
100
AcDbEntity
  8
Defpoints
 62
     0
100
AcDbPoint
 10
214.404842
 20
340.687968
 30
0.0
  0
ENDBLK
  5
251
330
24F
100
AcDbEntity
  8
0
100
AcDbBlockEnd
  0
BLOCK
  5
262
330
25B
100
AcDbEntity
  8
0
100
AcDbBlockBegin
  2
_U4
 70
     0
 10
0.0
 20
0.0
 30
0.0
  3
_U4
  1

  0
ENDBLK
  5
263
330
25B
100
AcDbEntity
  8
0
100
AcDbBlockEnd
  0
BLOCK
  5
268
330
267
100
AcDbEntity
  8
0
100
AcDbBlockBegin
  2
*D12
 70
     1
 10
0.0
 20
0.0
 30
0.0
  3
*D12
  1

  0
LINE
  5
26A
330
267
100
AcDbEntity
  8
0
 62
   254
370
    -2
100
AcDbLine
 10
274.404842
 20
288.907994
 30
0.0
 11
274.404842
 21
328.5109970000001
 31
0.0
  0
LINE
  5
26B
330
267
100
AcDbEntity
  8
0
 62
   254
370
    -2
100
AcDbLine
 10
214.404842
 20
295.907994
 30
0.0
 11
214.404842
 21
328.5109970000001
 31
0.0
  0
LINE
  5
26C
330
267
100
AcDbEntity
  8
0
 62
   254
370
    -2
100
AcDbLine
 10
270.904842
 20
327.510997
 30
0.0
 11
217.904842
 21
327.510997
 31
0.0
  0
SOLID
  5
26D
330
267
100
AcDbEntity
  8
0
 62
   254
100
AcDbTrace
 10
270.904842
 20
326.927663
 30
0.0
 11
270.904842
 21
328.09433
 31
0.0
 12
274.404842
 22
327.510997
 32
0.0
 13
274.404842
 23
327.510997
 33
0.0
  0
SOLID
  5
26E
330
267
100
AcDbEntity
  8
0
 62
   254
100
AcDbTrace
 10
217.904842
 20
328.09433
 30
0.0
 11
217.904842
 21
326.927663
 31
0.0
 12
214.404842
 22
327.510997
 32
0.0
 13
214.404842
 23
327.510997
 33
0.0
  0
MTEXT
  5
26F
330
267
100
AcDbEntity
  8
0
 62
   254
370
    13
100
AcDbMText
 10
244.404842
 20
332.7609970000001
 30
0.0
 40
3.5
 41
0.0
 71
     5
 72
     1
  1
\A1;60
  7
cesky
 73
     1
 44
1.0
  0
POINT
  5
270
330
267
100
AcDbEntity
  8
Defpoints
 62
     0
100
AcDbPoint
 10
274.404842
 20
288.907994
 30
0.0
  0
POINT
  5
271
330
267
100
AcDbEntity
  8
Defpoints
 62
     0
100
AcDbPoint
 10
214.404842
 20
295.907994
 30
0.0
  0
POINT
  5
272
330
267
100
AcDbEntity
  8
Defpoints
 62
     0
100
AcDbPoint
 10
214.404842
 20
327.510997
 30
0.0
  0
ENDBLK
  5
269
330
267
100
AcDbEntity
  8
0
100
AcDbBlockEnd
  0
BLOCK
  5
27A
330
273
100
AcDbEntity
  8
0
100
AcDbBlockBegin
  2
_U5
 70
     0
 10
0.0
 20
0.0
 30
0.0
  3
_U5
  1

  0
ENDBLK
  5
27B
330
273
100
AcDbEntity
  8
0
100
AcDbBlockEnd
  0
BLOCK
  5
280
330
27F
100
AcDbEntity
  8
0
100
AcDbBlockBegin
  2
*D14
 70
     1
 10
0.0
 20
0.0
 30
0.0
  3
*D14
  1

  0
LINE
  5
282
330
27F
100
AcDbEntity
  8
0
 62
   254
370
    -2
100
AcDbLine
 10
357.404842
 20
303.407994
 30
0.0
 11
357.404842
 21
317.637587
 31
0.0
  0
LINE
  5
283
330
27F
100
AcDbEntity
  8
0
 62
   254
370
    -2
100
AcDbLine
 10
290.415721
 20
303.308119
 30
0.0
 11
290.415721
 21
317.637587
 31
0.0
  0
LINE
  5
284
330
27F
100
AcDbEntity
  8
0
 62
   254
370
    -2
100
AcDbLine
 10
353.904842
 20
316.637587
 30
0.0
 11
293.915721
 21
316.637587
 31
0.0
  0
SOLID
  5
285
330
27F
100
AcDbEntity
  8
0
 62
   254
100
AcDbTrace
 10
353.904842
 20
316.054254
 30
0.0
 11
353.904842
 21
317.220921
 31
0.0
 12
357.404842
 22
316.637587
 32
0.0
 13
357.404842
 23
316.637587
 33
0.0
  0
SOLID
  5
286
330
27F
100
AcDbEntity
  8
0
 62
   254
100
AcDbTrace
 10
293.915721
 20
317.220921
 30
0.0
 11
293.915721
 21
316.054254
 31
0.0
 12
290.415721
 22
316.637587
 32
0.0
 13
290.415721
 23
316.637587
 33
0.0
  0
MTEXT
  5
287
330
27F
100
AcDbEntity
  8
0
 62
   254
370
    13
100
AcDbMText
 10
323.910282
 20
321.887587
 30
0.0
 40
3.5
 41
0.0
 71
     5
 72
     1
  1
\A1;67
  7
cesky
 73
     1
 44
1.0
  0
POINT
  5
288
330
27F
100
AcDbEntity
  8
Defpoints
 62
     0
100
AcDbPoint
 10
357.404842
 20
303.407994
 30
0.0
  0
POINT
  5
289
330
27F
100
AcDbEntity
  8
Defpoints
 62
     0
100
AcDbPoint
 10
290.415721
 20
303.308119
 30
0.0
  0
POINT
  5
28A
330
27F
100
AcDbEntity
  8
Defpoints
 62
     0
100
AcDbPoint
 10
290.415721
 20
316.637587
 30
0.0
  0
ENDBLK
  5
281
330
27F
100
AcDbEntity
  8
0
100
AcDbBlockEnd
  0
BLOCK
  5
292
330
28B
100
AcDbEntity
  8
0
100
AcDbBlockBegin
  2
_U6
 70
     0
 10
0.0
 20
0.0
 30
0.0
  3
_U6
  1

  0
ENDBLK
  5
293
330
28B
100
AcDbEntity
  8
0
100
AcDbBlockEnd
  0
ENDSEC
  0
SECTION
  2
ENTITIES
  0
POINT
  5
73
102
{ACAD_REACTORS
330
33C
102
}
330
1F
100
AcDbEntity
  8
80
100
AcDbPoint
 10
274.404842
 20
288.907994
 30
0.0
  0
POINT
  5
76
330
1F
100
AcDbEntity
  8
4
 60
     1
100
AcDbPoint
 10
292.203832
 20
288.907994
 30
0.0
  0
POINT
  5
78
330
1F
100
AcDbEntity
  8
4
 60
     1
100
AcDbPoint
 10
356.045163
 20
288.907994
 30
0.0
  0
POINT
  5
79
330
1F
100
AcDbEntity
  8
SK4
 60
     1
100
AcDbPoint
 10
216.404842
 20
288.907994
 30
0.0
  0
POINT
  5
7A
330
1F
100
AcDbEntity
  8
SK4
 60
     1
100
AcDbPoint
 10
274.404842
 20
288.907994
 30
0.0
  0
POINT
  5
7B
330
1F
100
AcDbEntity
  8
SK6
 60
     1
100
AcDbPoint
 10
274.404842
 20
288.907994
 30
0.0
  0
POINT
  5
7C
330
1F
100
AcDbEntity
  8
SK6
 60
     1
100
AcDbPoint
 10
290.415721
 20
303.308119
 30
0.0
  0
LINE
  5
7D
330
1F
100
AcDbEntity
  8
1
100
AcDbLine
 10
352.563513
 20
297.258363
 30
0.0
 11
352.562136
 21
297.253206
 31
0.0
  0
LINE
  5
7F
330
1F
100
AcDbEntity
  8
1
100
AcDbLine
 10
351.451597
 20
297.241417
 30
0.0
 11
351.426305
 21
297.146721
 31
0.0
  0
LINE
  5
80
330
1F
100
AcDbEntity
  8
1
100
AcDbLine
 10
351.025155
 20
297.603428
 30
0.0
 11
351.050841
 21
297.699594
 31
0.0
  0
LINE
  5
81
330
1F
100
AcDbEntity
  8
1
100
AcDbLine
 10
352.590963
 20
297.3679259999999
 30
0.0
 11
352.565241
 21
297.271621
 31
0.0
  0
LINE
  5
82
330
1F
100
AcDbEntity
  8
1
100
AcDbLine
 10
351.346471
 20
299.057398
 30
0.0
 11
351.372193
 21
299.153703
 31
0.0
  0
LINE
  5
83
330
1F
100
AcDbEntity
  8
1
100
AcDbLine
 10
352.912241
 20
298.821757
 30
0.0
 11
352.886556
 21
298.725591
 31
0.0
  0
LINE
  5
84
330
1F
100
AcDbEntity
  8
1
100
AcDbLine
 10
347.3987140000001
 20
302.907994
 30
0.0
 11
342.886294
 21
302.907994
 31
0.0
  0
LINE
  5
86
330
1F
100
AcDbEntity
  8
1
100
AcDbLine
 10
293.342522
 20
302.907994
 30
0.0
 11
292.203832
 21
302.907994
 31
0.0
  0
LINE
  5
87
330
1F
100
AcDbEntity
  8
SK1
100
AcDbLine
 10
214.404842
 20
302.907994
 30
0.0
 11
214.404842
 21
274.907994
 31
0.0
  0
LINE
  5
88
330
1F
100
AcDbEntity
  8
SK1
100
AcDbLine
 10
214.404842
 20
274.907994
 30
0.0
 11
216.404842
 21
272.907994
 31
0.0
  0
LINE
  5
89
330
1F
100
AcDbEntity
  8
SK1
100
AcDbLine
 10
216.404842
 20
304.907994
 30
0.0
 11
214.404842
 21
302.907994
 31
0.0
  0
LINE
  5
8A
330
1F
100
AcDbEntity
  8
SK1
100
AcDbLine
 10
216.404842
 20
304.907994
 30
0.0
 11
216.404842
 21
272.907994
 31
0.0
  0
LINE
  5
8B
330
1F
100
AcDbEntity
  8
1
100
AcDbLine
 10
351.349575
 20
299.075812
 30
0.0
 11
351.375205
 21
299.17177
 31
0.0
  0
LINE
  5
8C
330
1F
100
AcDbEntity
  8
1
100
AcDbLine
 10
350.773071
 20
298.220504
 30
0.0
 11
350.748149
 21
298.127197
 31
0.0
  0
LINE
  5
8D
330
1F
100
AcDbEntity
  8
1
100
AcDbLine
 10
350.859474
 20
298.2057240000001
 30
0.0
 11
350.834017
 21
298.110412
 31
0.0
  0
LINE
  5
8E
330
1F
100
AcDbEntity
  8
1
100
AcDbLine
 10
353.039144
 20
297.621679
 30
0.0
 11
353.0640439999999
 21
297.714906
 31
0.0
  0
LINE
  5
8F
330
1F
100
AcDbEntity
  8
1
100
AcDbLine
 10
352.949268
 20
297.642444
 30
0.0
 11
352.974737
 21
297.737799
 31
0.0
  0
LINE
  5
90
330
1F
100
AcDbEntity
  8
1
100
AcDbLine
 10
352.006237
 20
297.025127
 30
0.0
 11
352.031576
 21
297.12
 31
0.0
  0
LINE
  5
91
330
1F
100
AcDbEntity
  8
1
100
AcDbLine
 10
344.868691
 20
292.89328
 30
0.0
 11
344.878728
 21
292.599917
 31
0.0
  0
LINE
  5
92
330
1F
100
AcDbEntity
  8
1
100
AcDbLine
 10
344.930071
 20
291.099266
 30
0.0
 11
344.962114
 21
290.1627299999999
 31
0.0
  0
LINE
  5
93
330
1F
100
AcDbEntity
  8
1
100
AcDbLine
 10
354.907376
 20
292.848705
 30
0.0
 11
348.518297
 21
292.570291
 31
0.0
  0
LINE
  5
94
330
1F
100
AcDbEntity
  8
1
100
AcDbLine
 10
286.4048419999999
 20
302.665291
 30
0.0
 11
286.4048419999999
 21
284.118994
 31
0.0
  0
LINE
  5
95
330
1F
100
AcDbEntity
  8
1
100
AcDbLine
 10
356.671836
 20
280.872342
 30
0.0
 11
355.968452
 21
280.48245
 31
0.0
  0
LINE
  5
97
330
1F
100
AcDbEntity
  8
1
100
AcDbLine
 10
356.3014
 20
281.255939
 30
0.0
 11
356.671836
 21
280.872342
 31
0.0
  0
LINE
  5
98
330
1F
100
AcDbEntity
  8
1
100
AcDbLine
 10
357.297436
 20
281.913516
 30
0.0
 11
356.671836
 21
280.872342
 31
0.0
  0
LINE
  5
99
330
1F
100
AcDbEntity
  8
1
100
AcDbLine
 10
356.369933
 20
289.419478
 30
0.0
 11
356.797416
 21
289.16262
 31
0.0
  0
LINE
  5
9A
330
1F
100
AcDbEntity
  8
1
100
AcDbLine
 10
356.784831
 20
282.060503
 30
0.0
 11
357.297436
 21
281.913516
 31
0.0
  0
LINE
  5
9B
330
1F
100
AcDbEntity
  8
1
100
AcDbLine
 10
357.404842
 20
288.066795
 30
0.0
 11
357.297436
 21
281.913516
 31
0.0
  0
LINE
  5
9C
330
1F
100
AcDbEntity
  8
1
100
AcDbLine
 10
356.413818
 20
288.792185
 30
0.0
 11
356.797416
 21
289.16262
 31
0.0
  0
LINE
  5
9D
330
1F
100
AcDbEntity
  8
1
100
AcDbLine
 10
356.887419
 20
287.937787
 30
0.0
 11
357.404842
 21
288.066795
 31
0.0
  0
LINE
  5
9E
330
1F
100
AcDbEntity
  8
1
100
AcDbLine
 10
356.797416
 20
289.16262
 30
0.0
 11
357.404842
 21
288.066795
 31
0.0
  0
LINE
  5
9F
330
1F
100
AcDbEntity
  8
1
100
AcDbLine
 10
356.784831
 20
282.060503
 30
0.0
 11
356.3014
 21
281.255939
 31
0.0
  0
LINE
  5
A0
330
1F
100
AcDbEntity
  8
1
100
AcDbLine
 10
355.947114
 20
281.91483
 30
0.0
 11
356.144899
 21
282.244001
 31
0.0
  0
LINE
  5
A1
330
1F
100
AcDbEntity
  8
1
100
AcDbLine
 10
356.241473
 20
287.776734
 30
0.0
 11
356.183864
 21
287.880664
 31
0.0
  0
LINE
  5
A2
330
1F
100
AcDbEntity
  8
1
100
AcDbLine
 10
356.413818
 20
288.792185
 30
0.0
 11
356.887419
 21
287.937787
 31
0.0
  0
LINE
  5
A3
330
1F
100
AcDbEntity
  8
1
100
AcDbLine
 10
356.3014
 20
281.255939
 30
0.0
 11
355.919194
 21
281.651726
 31
0.0
  0
LINE
  5
A4
330
1F
100
AcDbEntity
  8
1
100
AcDbLine
 10
356.3014
 20
281.255939
 30
0.0
 11
355.850665
 21
281.006093
 31
0.0
  0
LINE
  5
A5
330
1F
100
AcDbEntity
  8
1
100
AcDbLine
 10
356.413818
 20
288.792185
 30
0.0
 11
356.183867
 21
288.570123
 31
0.0
  0
LINE
  5
A6
330
1F
100
AcDbEntity
  8
1
100
AcDbLine
 10
356.183914
 20
288.930325
 30
0.0
 11
356.413818
 21
288.792185
 31
0.0
  0
LINE
  5
A7
330
1F
100
AcDbEntity
  8
1
100
AcDbLine
 10
356.887419
 20
287.937787
 30
0.0
 11
356.241473
 21
287.776734
 31
0.0
  0
LINE
  5
A8
330
1F
100
AcDbEntity
  8
1
100
AcDbLine
 10
356.144899
 20
282.244001
 30
0.0
 11
356.176952
 21
284.08035
 31
0.0
  0
LINE
  5
A9
330
1F
100
AcDbEntity
  8
1
100
AcDbLine
 10
356.183868
 20
284.476545
 30
0.0
 11
356.241473
 21
287.776734
 31
0.0
  0
LINE
  5
AA
330
1F
100
AcDbEntity
  8
1
100
AcDbLine
 10
356.784831
 20
282.060503
 30
0.0
 11
356.144899
 21
282.244001
 31
0.0
  0
LINE
  5
AB
330
1F
100
AcDbEntity
  8
1
100
AcDbLine
 10
356.887419
 20
287.937787
 30
0.0
 11
356.784831
 21
282.060503
 31
0.0
  0
LINE
  5
AC
330
1F
100
AcDbEntity
  8
1
100
AcDbLine
 10
347.543354
 20
294.1709649999999
 30
0.0
 11
347.186273
 21
302.125413
 31
0.0
  0
LINE
  5
AD
330
1F
100
AcDbEntity
  8
1
100
AcDbLine
 10
348.466608
 20
301.682559
 30
0.0
 11
355.45853
 21
301.987244
 31
0.0
  0
LINE
  5
AE
330
1F
100
AcDbEntity
  8
1
100
AcDbLine
 10
348.779874
 20
294.704139
 30
0.0
 11
348.466608
 21
301.682559
 31
0.0
  0
LINE
  5
AF
330
1F
100
AcDbEntity
  8
1
100
AcDbLine
 10
355.771796
 20
295.008823
 30
0.0
 11
348.779874
 21
294.704139
 31
0.0
  0
LINE
  5
B0
330
1F
100
AcDbEntity
  8
1
100
AcDbLine
 10
355.45853
 20
301.987244
 30
0.0
 11
355.771796
 21
295.008823
 31
0.0
  0
LINE
  5
B1
330
1F
100
AcDbEntity
  8
1
100
AcDbLine
 10
347.923766
 20
302.929652
 30
0.0
 11
355.893603
 21
303.276951
 31
0.0
  0
LINE
  5
B2
330
1F
100
AcDbEntity
  8
1
100
AcDbLine
 10
356.700281
 20
302.540002
 30
0.0
 11
357.057361
 21
294.585554
 31
0.0
  0
LINE
  5
B3
330
1F
100
AcDbEntity
  8
1
100
AcDbLine
 10
356.319869
 20
293.781315
 30
0.0
 11
348.350031
 21
293.4340160000001
 31
0.0
  0
LINE
  5
B4
330
1F
100
AcDbEntity
  8
1
100
AcDbLine
 10
354.794615
 20
284.145494
 30
0.0
 11
355.103493
 21
284.145494
 31
0.0
  0
LINE
  5
B5
330
1F
100
AcDbEntity
  8
1
100
AcDbLine
 10
347.433148
 20
302.714181
 30
0.0
 11
347.424783
 21
302.906788
 31
0.0
  0
LINE
  5
B6
330
1F
100
AcDbEntity
  8
1
100
AcDbLine
 10
350.207071
 20
293.308714
 30
0.0
 11
356.449271
 21
293.580728
 31
0.0
  0
LINE
  5
B7
330
1F
100
AcDbEntity
  8
1
100
AcDbLine
 10
356.450788
 20
293.4153950000001
 30
0.0
 11
356.449271
 21
293.580728
 31
0.0
  0
LINE
  5
B8
330
1F
100
AcDbEntity
  8
1
100
AcDbLine
 10
356.368078
 20
292.872092
 30
0.0
 11
348.525747
 21
292.53035
 31
0.0
  0
LINE
  5
B9
330
1F
100
AcDbEntity
  8
1
100
AcDbLine
 10
356.368078
 20
292.872092
 30
0.0
 11
354.684013
 21
290.066074
 31
0.0
  0
LINE
  5
BA
330
1F
100
AcDbEntity
  8
1
100
AcDbLine
 10
356.491232
 20
293.601913
 30
0.0
 11
350.212301
 21
293.328298
 31
0.0
  0
LINE
  5
BB
330
1F
100
AcDbEntity
  8
1
100
AcDbLine
 10
350.207071
 20
293.308714
 30
0.0
 11
350.212301
 21
293.328298
 31
0.0
  0
LINE
  5
BC
330
1F
100
AcDbEntity
  8
1
100
AcDbLine
 10
347.20623
 20
302.318289
 30
0.0
 11
347.184278
 21
302.8237279999999
 31
0.0
  0
LINE
  5
BD
330
1F
100
AcDbEntity
  8
1
100
AcDbLine
 10
347.255724
 20
296.011298
 30
0.0
 11
347.250493
 21
295.991713
 31
0.0
  0
LINE
  5
BE
330
1F
100
AcDbEntity
  8
1
100
AcDbLine
 10
347.255724
 20
296.011298
 30
0.0
 11
346.959833
 21
302.824157
 31
0.0
  0
LINE
  5
BF
330
1F
100
AcDbEntity
  8
1
100
AcDbLine
 10
346.955316
 20
302.788127
 30
0.0
 11
347.250493
 21
295.991713
 31
0.0
  0
LINE
  5
C0
330
1F
100
AcDbEntity
  8
1
100
AcDbLine
 10
356.491232
 20
293.601913
 30
0.0
 11
356.489178
 21
293.825831
 31
0.0
  0
LINE
  5
C1
330
1F
100
AcDbEntity
  8
1
100
AcDbLine
 10
356.491232
 20
293.601913
 30
0.0
 11
356.449271
 21
293.580728
 31
0.0
  0
LINE
  5
C2
330
1F
100
AcDbEntity
  8
1
100
AcDbLine
 10
356.195237
 20
279.909422
 30
0.0
 11
356.1531470000001
 21
279.910095
 31
0.0
  0
LINE
  5
C3
330
1F
100
AcDbEntity
  8
1
100
AcDbLine
 10
355.972879
 20
280.482375
 30
0.0
 11
355.865528
 21
280.4840930000001
 31
0.0
  0
LINE
  5
C4
330
1F
100
AcDbEntity
  8
1
100
AcDbLine
 10
355.421097
 20
284.145494
 30
0.0
 11
356.183868
 21
284.145494
 31
0.0
  0
LINE
  5
C5
330
1F
100
AcDbEntity
  8
1
100
AcDbLine
 10
356.254138
 20
289.410151
 30
0.0
 11
356.361672
 21
289.408274
 31
0.0
  0
LINE
  5
C6
330
1F
100
AcDbEntity
  8
1
100
AcDbLine
 10
356.6026799999999
 20
289.973477
 30
0.0
 11
356.644842
 21
289.972741
 31
0.0
  0
LINE
  5
C7
330
1F
100
AcDbEntity
  8
1
100
AcDbLine
 10
356.368078
 20
292.872092
 30
0.0
 11
356.385432
 21
292.880853
 31
0.0
  0
LINE
  5
C8
330
1F
100
AcDbEntity
  8
1
100
AcDbLine
 10
355.848362
 20
280.984432
 30
0.0
 11
356.183868
 21
284.145494
 31
0.0
  0
LINE
  5
C9
330
1F
100
AcDbEntity
  8
1
100
AcDbLine
 10
356.183868
 20
284.145494
 30
0.0
 11
356.183868
 21
288.911302
 31
0.0
  0
LINE
  5
CA
330
1F
100
AcDbEntity
  8
1
100
AcDbLine
 10
356.178429
 20
280.148296
 30
0.0
 11
355.972879
 21
280.482375
 31
0.0
  0
LINE
  5
CB
330
1F
100
AcDbEntity
  8
1
100
AcDbLine
 10
356.178429
 20
280.148296
 30
0.0
 11
356.1531470000001
 21
279.910095
 31
0.0
  0
LINE
  5
CC
330
1F
100
AcDbEntity
  8
1
100
AcDbLine
 10
356.361672
 20
289.408274
 30
0.0
 11
356.6026799999999
 21
289.734866
 31
0.0
  0
LINE
  5
CD
330
1F
100
AcDbEntity
  8
1
100
AcDbLine
 10
356.6026799999999
 20
289.973477
 30
0.0
 11
356.6026799999999
 21
289.734866
 31
0.0
  0
LINE
  5
CE
330
1F
100
AcDbEntity
  8
1
100
AcDbLine
 10
355.6644
 20
274.907994
 30
0.0
 11
356.195237
 21
279.909422
 31
0.0
  0
LINE
  5
CF
330
1F
100
AcDbEntity
  8
1
100
AcDbLine
 10
355.6644
 20
274.907994
 30
0.0
 11
342.982651
 21
274.907994
 31
0.0
  0
LINE
  5
D0
330
1F
100
AcDbEntity
  8
1
100
AcDbLine
 10
356.644842
 20
293.88138
 30
0.0
 11
356.644842
 21
289.972741
 31
0.0
  0
LINE
  5
D1
330
1F
100
AcDbEntity
  8
1
100
AcDbLine
 10
274.904842
 20
267.907994
 30
0.0
 11
274.904842
 21
288.907994
 31
0.0
  0
LINE
  5
D2
330
1F
100
AcDbEntity
  8
1
100
AcDbLine
 10
274.904842
 20
288.907994
 30
0.0
 11
274.904842
 21
309.907994
 31
0.0
  0
LINE
  5
D3
330
1F
100
AcDbEntity
  8
1
100
AcDbLine
 10
279.404842
 20
267.907994
 30
0.0
 11
279.404842
 21
269.491067
 31
0.0
  0
LINE
  5
D4
330
1F
100
AcDbEntity
  8
1
100
AcDbLine
 10
279.404842
 20
309.907994
 30
0.0
 11
279.404842
 21
277.351566
 31
0.0
  0
LINE
  5
D5
330
1F
100
AcDbEntity
  8
1
100
AcDbLine
 10
349.325144
 20
298.9720549999999
 30
0.0
 11
349.304699
 21
298.895508
 31
0.0
  0
LINE
  5
D6
330
1F
100
AcDbEntity
  8
1
100
AcDbLine
 10
354.61843
 20
297.476258
 30
0.0
 11
354.638875
 21
297.552805
 31
0.0
  0
LINE
  5
D7
330
1F
100
AcDbEntity
  8
1
100
AcDbLine
 10
279.404842
 20
267.907994
 30
0.0
 11
282.304337
 21
270.807488
 31
0.0
  0
LINE
  5
D8
330
1F
100
AcDbEntity
  8
1
100
AcDbLine
 10
282.304337
 20
307.008499
 30
0.0
 11
279.404842
 21
309.907994
 31
0.0
  0
LINE
  5
D9
330
1F
100
AcDbEntity
  8
SK1
100
AcDbLine
 10
274.404842
 20
304.907994
 30
0.0
 11
216.404842
 21
304.907994
 31
0.0
  0
LINE
  5
DA
330
1F
100
AcDbEntity
  8
1
100
AcDbLine
 10
274.904842
 20
267.907994
 30
0.0
 11
274.404842
 21
268.407994
 31
0.0
  0
LINE
  5
DB
330
1F
100
AcDbEntity
  8
1
100
AcDbLine
 10
274.404842
 20
309.407994
 30
0.0
 11
274.904842
 21
309.907994
 31
0.0
  0
LINE
  5
DC
330
1F
100
AcDbEntity
  8
1
100
AcDbLine
 10
279.404842
 20
309.907994
 30
0.0
 11
274.904842
 21
309.907994
 31
0.0
  0
LINE
  5
E1
330
1F
100
AcDbEntity
  8
80
100
AcDbLine
 10
275.404416
 20
288.907994
 30
0.0
 11
273.405268
 21
288.907994
 31
0.0
  0
LINE
  5
E2
330
1F
100
AcDbEntity
  8
1
100
AcDbLine
 10
274.404842
 20
309.407994
 30
0.0
 11
274.404842
 21
288.907994
 31
0.0
  0
LINE
  5
E3
330
1F
100
AcDbEntity
  8
1
100
AcDbLine
 10
274.404842
 20
288.907994
 30
0.0
 11
274.404842
 21
268.407994
 31
0.0
  0
LINE
  5
E4
330
1F
100
AcDbEntity
  8
80
100
AcDbLine
 10
274.404842
 20
287.90842
 30
0.0
 11
274.404842
 21
289.907567
 31
0.0
  0
LINE
  5
E5
330
1F
100
AcDbEntity
  8
81
100
AcDbLine
 10
357.404842
 20
305.407994
 30
0.0
 11
357.404842
 21
301.407994
 31
0.0
  0
LINE
  5
E6
330
1F
100
AcDbEntity
  8
81
100
AcDbLine
 10
355.404842
 20
303.407994
 30
0.0
 11
359.404842
 21
303.407994
 31
0.0
  0
LINE
  5
E7
330
1F
100
AcDbEntity
  8
SK1
100
AcDbLine
 10
216.404842
 20
272.907994
 30
0.0
 11
274.404842
 21
272.907994
 31
0.0
  0
LINE
  5
E8
330
1F
100
AcDbEntity
  8
1
100
AcDbLine
 10
274.904842
 20
267.907994
 30
0.0
 11
279.404842
 21
267.907994
 31
0.0
  0
LINE
  5
118
330
1F
100
AcDbEntity
  8
NOCUT
100
AcDbLine
 10
356.644842
 20
288.907994
 30
0.0
 11
214.404842
 21
288.907994
 31
0.0
  0
LINE
  5
119
330
1F
100
AcDbEntity
  8
NOCUT
100
AcDbLine
 10
279.404842
 20
309.907994
 30
0.0
 11
282.304337
 21
307.008499
 31
0.0
  0
LINE
  5
11A
330
1F
100
AcDbEntity
  8
NOCUT
100
AcDbLine
 10
356.257901
 20
302.907994
 30
0.0
 11
356.644842
 21
294.114096
 31
0.0
  0
LINE
  5
11B
330
1F
100
AcDbEntity
  8
NOCUT
100
AcDbLine
 10
356.644842
 20
294.114096
 30
0.0
 11
356.644842
 21
288.907994
 31
0.0
  0
LINE
  5
11C
330
1F
100
AcDbEntity
  8
NOCUT
100
AcDbLine
 10
214.404842
 20
302.907994
 30
0.0
 11
216.404842
 21
304.907994
 31
0.0
  0
LINE
  5
11D
330
1F
100
AcDbEntity
  8
NOCUT
100
AcDbLine
 10
292.203832
 20
302.907994
 30
0.0
 11
356.257901
 21
302.907994
 31
0.0
  0
LINE
  5
11E
330
1F
100
AcDbEntity
  8
NOCUT
100
AcDbLine
 10
274.404842
 20
304.907994
 30
0.0
 11
274.404842
 21
309.407994
 31
0.0
  0
LINE
  5
11F
330
1F
100
AcDbEntity
  8
NOCUT
100
AcDbLine
 10
274.404842
 20
309.407994
 30
0.0
 11
274.904842
 21
309.907994
 31
0.0
  0
LINE
  5
120
330
1F
100
AcDbEntity
  8
NOCUT
100
AcDbLine
 10
274.404842
 20
304.907994
 30
0.0
 11
216.404842
 21
304.907994
 31
0.0
  0
LINE
  5
121
330
1F
100
AcDbEntity
  8
NOCUT
100
AcDbLine
 10
279.404842
 20
309.907994
 30
0.0
 11
274.904842
 21
309.907994
 31
0.0
  0
LINE
  5
122
330
1F
100
AcDbEntity
  8
NOCUT
100
AcDbLine
 10
214.404842
 20
302.907994
 30
0.0
 11
214.404842
 21
288.907994
 31
0.0
  0
ARC
  5
12B
330
1F
100
AcDbEntity
  8
1
100
AcDbCircle
 10
292.203832
 20
260.907994
 30
0.0
 40
14.0
100
AcDbArc
 50
110.772075
 51
135.0
  0
ARC
  5
12C
330
1F
100
AcDbEntity
  8
1
100
AcDbCircle
 10
292.203832
 20
316.907994
 30
0.0
 40
14.0
100
AcDbArc
 50
225.0
 51
270.0
  0
ARC
  5
12D
330
1F
100
AcDbEntity
  8
1
100
AcDbCircle
 10
352.402831
 20
285.273558
 30
0.0
 40
1.5
100
AcDbArc
 50
75.0
 51
345.0
  0
CIRCLE
  5
12E
330
1F
100
AcDbEntity
  8
1
100
AcDbCircle
 10
352.422479
 20
285.253212
 30
0.0
 40
1.099999999999998
  0
ARC
  5
13D
330
1F
100
AcDbEntity
  8
NOCUT
100
AcDbCircle
 10
292.203832
 20
316.907994
 30
0.0
 40
14.0
100
AcDbArc
 50
225.0
 51
270.0
  0
ELLIPSE
  5
13E
330
1F
100
AcDbEntity
  8
1
100
AcDbEllipse
 10
347.961555
 20
305.131758
 30
0.0
 11
-12.1732727756235
 21
3.251373545174991
 31
0.0
210
0.0
220
0.0
230
1.0
 40
0.9977149999999999
 41
1.535753753814943
 42
1.875432126565221
  0
ELLIPSE
  5
13F
330
1F
100
AcDbEntity
  8
1
100
AcDbEllipse
 10
351.982009
 20
298.26243
 30
0.0
 11
-2.656865089917828
 21
0.7096251785104146
 31
0.0
210
0.0
220
0.0
230
1.0
 40
0.9977149999999998
 41
3.141668256132603
 42
6.283162710081793
  0
ELLIPSE
  5
140
330
1F
100
AcDbEntity
  8
1
100
AcDbEllipse
 10
351.512336
 20
297.09596
 30
0.0
 11
-0.0965221760105445
 21
0.0257802199447827
 31
0.0
210
0.0
220
0.0
230
1.0
 40
0.9977149999999999
 41
5.215854252079927
 42
6.064789404490697
  0
ELLIPSE
  5
141
330
1F
100
AcDbEntity
  8
1
100
AcDbEllipse
 10
351.335023
 20
297.188026
 30
0.0
 11
-0.0965221760105447
 21
0.0257802199447827
 31
0.0
210
0.0
220
0.0
230
1.0
 40
0.9977149999999999
 41
1.550662822891696
 42
2.923196750900935
  0
ELLIPSE
  5
142
330
1F
100
AcDbEntity
  8
1
100
AcDbEllipse
 10
351.461286
 20
297.625179
 30
0.0
 11
-0.5371411886095508
 21
0.1434656630849622
 31
0.0
210
0.0
220
0.0
230
1.0
 40
0.9977149999999999
 41
0.6305392497219921
 42
1.550662822891838
  0
ELLIPSE
  5
143
330
1F
100
AcDbEntity
  8
1
100
AcDbEllipse
 10
351.036168
 20
297.461048
 30
0.0
 11
-0.0965221760105445
 21
0.0257802199447827
 31
0.0
210
0.0
220
0.0
230
1.0
 40
0.9977149999999999
 41
5.541190628892479
 42
6.913724556901518
  0
ELLIPSE
  5
144
330
1F
100
AcDbEntity
  8
1
100
AcDbEllipse
 10
350.928633
 20
297.629208
 30
0.0
 11
-0.0965221760105445
 21
0.0257802199447827
 31
0.0
210
0.0
220
0.0
230
0.9999999999999996
 40
0.9977149999999999
 41
2.399597975302564
 42
3.248533127713513
  0
ELLIPSE
  5
145
330
1F
100
AcDbEntity
  8
1
100
AcDbEllipse
 10
350.477999
 20
297.699298
 30
0.0
 11
-0.5371411886095507
 21
0.1434656630849622
 31
0.0
210
0.0
220
0.0
230
1.0
 40
0.9977149999999999
 41
3.248533127713486
 42
4.168656700883321
  0
ELLIPSE
  5
146
330
1F
100
AcDbEntity
  8
1
100
AcDbEllipse
 10
350.806429
 20
298.014629
 30
0.0
 11
-0.0965221760105445
 21
0.0257802199447827
 31
0.0
210
0.0
220
0.0
230
1.0
 40
0.9977149999999999
 41
4.168656700883178
 42
5.017591853294156
  0
ELLIPSE
  5
147
330
1F
100
AcDbEntity
  8
1
100
AcDbEllipse
 10
350.797487
 20
298.2138240000001
 30
0.0
 11
-0.0965221760105447
 21
0.0257802199447827
 31
0.0
210
0.0
220
0.0
230
1.0
 40
0.9977149999999999
 41
0.5034652716952178
 42
1.875999199704183
  0
ELLIPSE
  5
148
330
1F
100
AcDbEntity
  8
1
100
AcDbEllipse
 10
351.240081
 20
298.322838
 30
0.0
 11
-0.5371411886095508
 21
0.1434656630849622
 31
0.0
210
0.0
220
0.0
230
1.0
 40
0.9977149999999999
 41
5.866527005704963
 42
6.786650578874817
  0
ELLIPSE
  5
149
330
1F
100
AcDbEntity
  8
1
100
AcDbEllipse
 10
350.8846779999999
 20
298.608369
 30
0.0
 11
-0.0965221760105445
 21
0.0257802199447827
 31
0.0
210
0.0
220
0.0
230
1.0
 40
0.9977149999999999
 41
4.493993077695543
 42
5.866527005704781
  0
ELLIPSE
  5
14A
330
1F
100
AcDbEntity
  8
1
100
AcDbEllipse
 10
350.976724
 20
298.785226
 30
0.0
 11
-0.0965221760105445
 21
0.0257802199447827
 31
0.0
210
0.0
220
0.0
230
0.9999999999999996
 40
0.9977149999999999
 41
1.352400424105889
 42
2.201335576516779
  0
ELLIPSE
  5
14B
330
1F
100
AcDbEntity
  8
1
100
AcDbEllipse
 10
350.811783
 20
299.20969
 30
0.0
 11
-0.5371411886095507
 21
0.1434656630849622
 31
0.0
210
0.0
220
0.0
230
1.0
 40
0.9977149999999999
 41
2.201335576516855
 42
3.121459149686721
  0
ELLIPSE
  5
14C
330
1F
100
AcDbEntity
  8
1
100
AcDbEllipse
 10
351.249948
 20
299.083178
 30
0.0
 11
-0.0965221760105445
 21
0.0257802199447827
 31
0.0
210
0.0
220
0.0
230
1.0
 40
0.9977149999999999
 41
3.121459149686665
 42
3.970394302097483
  0
ELLIPSE
  5
14D
330
1F
100
AcDbEntity
  8
1
100
AcDbEllipse
 10
351.418319
 20
299.190308
 30
0.0
 11
-0.0965221760105447
 21
0.0257802199447827
 31
0.0
210
0.0
220
0.0
230
1.0
 40
0.9977149999999999
 41
5.739453027678128
 42
7.111986955687253
  0
ELLIPSE
  5
14E
330
1F
100
AcDbEntity
  8
1
100
AcDbEllipse
 10
351.734651
 20
298.862168
 30
0.0
 11
-0.5371411886095508
 21
0.1434656630849622
 31
0.0
210
0.0
220
0.0
230
1.0
 40
0.9977149999999999
 41
4.819329454508397
 42
5.739453027678231
  0
ELLIPSE
  5
14F
330
1F
100
AcDbEntity
  8
1
100
AcDbEllipse
 10
351.804366
 20
299.31183
 30
0.0
 11
-0.0965221760105445
 21
0.0257802199447827
 31
0.0
210
0.0
220
0.0
230
1.0
 40
0.9977149999999999
 41
3.446795526499133
 42
4.819329454508459
  0
ELLIPSE
  5
150
330
1F
100
AcDbEntity
  8
1
100
AcDbEllipse
 10
352.003947
 20
299.320528
 30
0.0
 11
-0.0965221760105445
 21
0.0257802199447827
 31
0.0
210
0.0
220
0.0
230
0.9999999999999996
 40
0.9977149999999999
 41
0.3052028729094931
 42
1.154138025320254
  0
ELLIPSE
  5
151
330
1F
100
AcDbEntity
  8
1
100
AcDbEllipse
 10
352.28964
 20
299.674901
 30
0.0
 11
-0.5371411886095507
 21
0.1434656630849622
 31
0.0
210
0.0
220
0.0
230
1.0
 40
0.9977149999999999
 41
1.154138025320225
 42
2.074261598490093
  0
ELLIPSE
  5
152
330
1F
100
AcDbEntity
  8
1
100
AcDbEllipse
 10
352.399375
 20
299.233059
 30
0.0
 11
-0.0965221760105445
 21
0.0257802199447827
 31
0.0
210
0.0
220
0.0
230
1.0
 40
0.9977149999999999
 41
2.074261598490151
 42
2.923196750900904
  0
ELLIPSE
  5
153
330
1F
100
AcDbEntity
  8
1
100
AcDbEllipse
 10
352.576688
 20
299.1409930000001
 30
0.0
 11
-0.0965221760105447
 21
0.0257802199447827
 31
0.0
210
0.0
220
0.0
230
1.0
 40
0.9977149999999999
 41
4.692255476481629
 42
6.064789404490727
  0
ELLIPSE
  5
154
330
1F
100
AcDbEntity
  8
1
100
AcDbEllipse
 10
352.450425
 20
298.703839
 30
0.0
 11
-0.5371411886095508
 21
0.1434656630849622
 31
0.0
210
0.0
220
0.0
230
1.0
 40
0.9977149999999999
 41
3.772131903311784
 42
4.692255476481657
  0
ELLIPSE
  5
155
330
1F
100
AcDbEntity
  8
1
100
AcDbEllipse
 10
352.875544
 20
298.86797
 30
0.0
 11
-0.0965221760105445
 21
0.0257802199447827
 31
0.0
210
0.0
220
0.0
230
1.0
 40
0.9977149999999999
 41
2.399597975302835
 42
3.772131903311728
  0
ELLIPSE
  5
156
330
1F
100
AcDbEntity
  8
1
100
AcDbEllipse
 10
352.983078
 20
298.699811
 30
0.0
 11
-0.0965221760105445
 21
0.0257802199447827
 31
0.0
210
0.0
220
0.0
230
0.9999999999999996
 40
0.9977149999999999
 41
5.541190628892356
 42
6.390125781303307
  0
ELLIPSE
  5
157
330
1F
100
AcDbEntity
  8
1
100
AcDbEllipse
 10
353.433713
 20
298.62972
 30
0.0
 11
-0.5371411886095507
 21
0.1434656630849622
 31
0.0
210
0.0
220
0.0
230
1.0
 40
0.9977149999999999
 41
0.1069404741236843
 42
1.027064047293527
  0
ELLIPSE
  5
158
330
1F
100
AcDbEntity
  8
1
100
AcDbEllipse
 10
353.105283
 20
298.31439
 30
0.0
 11
-0.0965221760105445
 21
0.0257802199447827
 31
0.0
210
0.0
220
0.0
230
1.0
 40
0.9977149999999999
 41
1.027064047293365
 42
1.87599919970434
  0
ELLIPSE
  5
159
330
1F
100
AcDbEntity
  8
1
100
AcDbEllipse
 10
353.114225
 20
298.115195
 30
0.0
 11
-0.0965221760105447
 21
0.0257802199447827
 31
0.0
210
0.0
220
0.0
230
1.0
 40
0.9977149999999999
 41
3.645057925285111
 42
5.017591853294113
  0
ELLIPSE
  5
15A
330
1F
100
AcDbEntity
  8
1
100
AcDbEllipse
 10
352.67163
 20
298.00618
 30
0.0
 11
-0.5371411886095508
 21
0.1434656630849622
 31
0.0
210
0.0
220
0.0
230
1.0
 40
0.9977149999999999
 41
2.724934352115169
 42
3.645057925285024
  0
ELLIPSE
  5
15B
330
1F
100
AcDbEntity
  8
1
100
AcDbEllipse
 10
353.027033
 20
297.720649
 30
0.0
 11
-0.0965221760105445
 21
0.0257802199447827
 31
0.0
210
0.0
220
0.0
230
1.0
 40
0.9977149999999999
 41
1.352400424106167
 42
2.724934352115167
  0
ELLIPSE
  5
15C
330
1F
100
AcDbEntity
  8
1
100
AcDbEllipse
 10
352.934987
 20
297.543792
 30
0.0
 11
-0.0965221760105445
 21
0.0257802199447827
 31
0.0
210
0.0
220
0.0
230
0.9999999999999996
 40
0.9977149999999999
 41
4.493993077695698
 42
5.342928230106665
  0
ELLIPSE
  5
15D
330
1F
100
AcDbEntity
  8
1
100
AcDbEllipse
 10
353.099929
 20
297.119328
 30
0.0
 11
-0.5371411886095507
 21
0.1434656630849622
 31
0.0
210
0.0
220
0.0
230
1.0
 40
0.9977149999999999
 41
5.342928230106665
 42
6.263051803276499
  0
ELLIPSE
  5
15E
330
1F
100
AcDbEntity
  8
1
100
AcDbEllipse
 10
352.661763
 20
297.24584
 30
0.0
 11
-0.0965221760105445
 21
0.0257802199447827
 31
0.0
210
0.0
220
0.0
230
1.0
 40
0.9977149999999999
 41
6.26305180327639
 42
7.111986955687429
  0
ELLIPSE
  5
15F
330
1F
100
AcDbEntity
  8
1
100
AcDbEllipse
 10
352.493392
 20
297.138711
 30
0.0
 11
-0.0965221760105447
 21
0.0257802199447827
 31
0.0
210
0.0
220
0.0
230
1.0
 40
0.9977149999999999
 41
2.597860374088396
 42
3.970394302097563
  0
ELLIPSE
  5
160
330
1F
100
AcDbEntity
  8
1
100
AcDbEllipse
 10
352.177061
 20
297.46685
 30
0.0
 11
-0.5371411886095508
 21
0.1434656630849622
 31
0.0
210
0.0
220
0.0
230
1.0
 40
0.9977149999999999
 41
1.677736800918555
 42
2.597860374088405
  0
ELLIPSE
  5
161
330
1F
100
AcDbEntity
  8
1
100
AcDbEllipse
 10
352.107345
 20
297.017188
 30
0.0
 11
-0.0965221760105445
 21
0.0257802199447827
 31
0.0
210
0.0
220
0.0
230
1.0
 40
0.9977149999999999
 41
0.3052028729095184
 42
1.677736800918363
  0
ELLIPSE
  5
162
330
1F
100
AcDbEntity
  8
1
100
AcDbEllipse
 10
351.907765
 20
297.008491
 30
0.0
 11
-0.0965221760105445
 21
0.0257802199447827
 31
0.0
210
0.0
220
0.0
230
0.9999999999999996
 40
0.9977149999999999
 41
3.446795526499345
 42
4.295730678909945
  0
ELLIPSE
  5
163
330
1F
100
AcDbEntity
  8
1
100
AcDbEllipse
 10
351.622072
 20
296.654118
 30
0.0
 11
-0.5371411886095507
 21
0.1434656630849622
 31
0.0
210
0.0
220
0.0
230
1.0
 40
0.9977149999999999
 41
4.295730678910043
 42
5.21585425207991
  0
ELLIPSE
  5
164
330
1F
100
AcDbEntity
  8
1
100
AcDbEllipse
 10
351.955856
 20
298.164509
 30
0.0
 11
1.739038967946215
 21
-0.4644819350249999
 31
0.0
210
0.0
220
0.0
230
1.0
 40
0.9977149999999999
 41
0.0
 42
6.283185307179585
  0
ELLIPSE
  5
165
330
1F
100
AcDbEntity
  8
1
100
AcDbEllipse
 10
351.961565
 20
298.185883
 30
0.0
 11
2.656865089917826
 21
-0.7096251785104163
 31
0.0
210
0.0
220
0.0
230
1.0
 40
0.9977149999999998
 41
0.0
 42
6.283185307179585
  0
ELLIPSE
  5
166
330
1F
100
AcDbEntity
  8
1
100
AcDbEllipse
 10
352.122079
 20
298.356463
 30
0.0
 11
3.047894963411017
 21
-0.8140658009693808
 31
0.0
210
0.0
220
0.0
230
1.0
 40
0.9977149999999999
 41
0.0
 42
6.283185307179585
  0
ELLIPSE
  5
167
330
1F
100
AcDbEntity
  8
1
100
AcDbEllipse
 10
352.141869
 20
298.430556
 30
0.0
 11
2.990426653188631
 21
-0.7987165233357491
 31
0.0
210
0.0
220
0.0
230
1.0
 40
0.9977149999999999
 41
2.264574956292575
 42
6.283185307179585
  0
ELLIPSE
  5
168
330
1F
100
AcDbEntity
  8
1
100
AcDbEllipse
 10
352.141869
 20
298.430556
 30
0.0
 11
2.990426653188631
 21
-0.7987165233357491
 31
0.0
210
0.0
220
0.0
230
1.0
 40
0.9977149999999999
 41
0.0
 42
0.8769727393660321
  0
ELLIPSE
  5
169
330
1F
100
AcDbEntity
  8
1
100
AcDbEllipse
 10
348.262454
 20
294.100563
 30
0.0
 11
0.953974623564706
 21
1.042276062240909
 31
0.0
210
0.0
220
0.0
230
0.9999999999999998
 40
0.022111
 41
0.9735594950155785
 42
1.528370528310206
  0
ELLIPSE
  5
16A
330
1F
100
AcDbEntity
  8
1
100
AcDbEllipse
 10
347.902038
 20
302.129301
 30
0.0
 11
1.042958970750415
 21
-0.9545996761649703
 31
0.0
210
0.0
220
0.0
230
0.9999999999999998
 40
0.042396
 41
1.038063823936079
 42
1.592874856774943
  0
ELLIPSE
  5
16B
330
1F
100
AcDbEntity
  8
1
100
AcDbEllipse
 10
355.946309
 20
302.479843
 30
0.0
 11
0.9539746244314349
 21
1.042276063197498
 31
0.0
210
0.0
220
0.0
230
0.9999999999999998
 40
0.022111
 41
1.528370528129712
 42
2.083181560943998
  0
ELLIPSE
  5
16C
330
1F
100
AcDbEntity
  8
1
100
AcDbEllipse
 10
356.306725
 20
294.451105
 30
0.0
 11
1.042958970452588
 21
-0.9545996759011556
 31
0.0
210
0.0
220
0.0
230
1.0
 40
0.042396
 41
1.59287485689108
 42
2.147685889879476
  0
ELLIPSE
  5
16D
330
1F
100
AcDbEntity
  8
1
100
AcDbEllipse
 10
352.119202
 20
298.345691
 30
0.0
 11
-3.139931469902891
 21
0.8386479382395821
 31
0.0
210
0.0
220
0.0
230
0.9999999999999996
 40
0.9977149999999999
 41
0.0
 42
6.283185307179585
  0
ELLIPSE
  5
16E
330
1F
100
AcDbEntity
  8
1
100
AcDbEllipse
 10
348.010736
 20
288.907993
 30
0.0
 11
0.5899605814326688
 21
-13.99999497953156
 31
0.0
210
0.0
220
0.0
230
1.0
 40
0.020196
 41
3.016096007629004
 42
3.127620386064422
  0
ELLIPSE
  5
16F
330
1F
100
AcDbEntity
  8
1
100
AcDbEllipse
 10
348.799931
 20
294.728325
 30
0.0
 11
1.932265519940236
 21
-0.5160910389166662
 31
0.0
210
0.0
220
0.0
230
1.0
 40
0.9977149999999999
 41
5.619781166511155
 42
5.753376575869035
  0
ELLIPSE
  5
170
330
1F
100
AcDbEntity
  8
1
100
AcDbEllipse
 10
347.87846
 20
288.907994
 30
0.0
 11
0.4895584125384296
 21
-13.99982856391747
 31
0.0
210
0.0
220
0.0
230
0.9999999999999998
 40
0.141526
 41
3.123522474657933
 42
3.24641600502395
  0
ELLIPSE
  5
171
330
1F
100
AcDbEntity
  8
1
100
AcDbEllipse
 10
351.342643
 20
288.907994
 30
0.0
 11
24.0154472746647
 21
-13.81189850634783
 31
0.0
210
0.0
220
0.0
230
1.0
 40
0.09524
 41
3.899479820904339
 42
4.359749929548832
  0
ELLIPSE
  5
172
330
1F
100
AcDbEntity
  8
1
100
AcDbEllipse
 10
264.83273
 20
288.907993
 30
0.0
 11
297.8779679445668
 21
13.65297124859091
 31
0.0
210
0.0
220
0.0
230
0.9999999999999998
 40
0.0104
 41
4.997041328654266
 42
5.018322387616455
  0
ELLIPSE
  5
173
330
1F
100
AcDbEntity
  8
1
100
AcDbEllipse
 10
348.805162
 20
294.747909
 30
0.0
 11
-1.932265519940236
 21
0.5160910389166651
 31
0.0
210
0.0
220
0.0
230
1.0
 40
0.9977149999999999
 41
2.611783922279253
 42
2.742150232711871
  0
ELLIPSE
  5
174
330
1F
100
AcDbEntity
  8
1
100
AcDbEllipse
 10
348.872639
 20
295.000545
 30
0.0
 11
-1.932265519940236
 21
0.5160910389166651
 31
0.0
210
0.0
220
0.0
230
1.0
 40
0.9977149999999999
 41
0.0705650880375499
 42
1.875999251379568
  0
ELLIPSE
  5
175
330
1F
100
AcDbEntity
  8
1
100
AcDbEllipse
 10
348.872639
 20
295.000545
 30
0.0
 11
-1.932265519940236
 21
0.5160910389166651
 31
0.0
210
0.0
220
0.0
230
1.0
 40
0.9977149999999999
 41
1.875999251379566
 42
2.563713393647957
  0
ELLIPSE
  5
176
330
1F
100
AcDbEntity
  8
1
100
AcDbEllipse
 10
348.805162
 20
294.747909
 30
0.0
 11
-1.932265519940236
 21
0.5160910389166651
 31
0.0
210
0.0
220
0.0
230
1.0
 40
0.9977149999999999
 41
5.716445802771668
 42
5.859275107656508
  0
ELLIPSE
  5
177
330
1F
100
AcDbEntity
  8
1
100
AcDbEllipse
 10
348.799931
 20
294.728325
 30
0.0
 11
1.932265519940236
 21
-0.5160910389166662
 31
0.0
210
0.0
220
0.0
230
1.0
 40
0.9977149999999999
 41
2.717682454066727
 42
4.392451569950103
  0
ELLIPSE
  5
178
330
1F
100
AcDbEntity
  8
1
100
AcDbEllipse
 10
347.576973
 20
288.907987
 30
0.0
 11
0.5899608823590158
 21
-14.00000172175417
 31
0.0
210
0.0
220
0.0
230
0.9999999999999998
 40
0.020196
 41
3.250234044131916
 42
3.271692966516113
  0
ELLIPSE
  5
179
330
1F
100
AcDbEntity
  8
1
100
AcDbEllipse
 10
356.380853
 20
293.380088
 30
0.0
 11
0.0003729802233003
 21
0.5004811191583359
 31
0.0
210
0.0
220
0.0
230
0.9999999999999998
 40
0.140033
 41
3.212303616812441
 42
4.783099943601916
  0
ELLIPSE
  5
17A
330
1F
100
AcDbEntity
  8
1
100
AcDbEllipse
 10
318.800018
 20
288.907994
 30
0.0
 11
90.9531342799586
 21
-10.35084912109899
 31
0.0
210
0.0
220
0.0
230
0.9999999999999998
 40
0.103642
 41
4.427451900135163
 42
4.492393694847325
  0
ELLIPSE
  5
17B
330
1F
100
AcDbEntity
  8
1
100
AcDbEllipse
 10
357.15032
 20
288.907994
 30
0.0
 11
1.515342771884855
 21
13.99841667295814
 31
0.0
210
0.0
220
0.0
230
1.0
 40
0.138944
 41
1.932942856567965
 42
3.156632395651078
  0
ELLIPSE
  5
17C
330
1F
100
AcDbEntity
  8
1
100
AcDbEllipse
 10
356.644842
 20
288.907994
 30
0.0
 11
0.0
 21
13.9999999998693
 31
0.0
210
0.0
220
0.0
230
1.0
 40
0.140541
 41
1.487981676661588
 42
1.917903114509955
  0
ELLIPSE
  5
17D
330
1F
100
AcDbEntity
  8
1
100
AcDbEllipse
 10
297.904842
 20
279.005983
 30
0.0
 11
-1.797586027890362
 21
-7.795427151371071
 31
0.0
210
0.0
220
0.0
230
1.0
 40
0.205081
 41
4.353830583229081
 42
5.261828643674025
  0
ELLIPSE
  5
17E
330
1F
100
AcDbEntity
  8
1
100
AcDbEllipse
 10
355.9185129999999
 20
280.983309
 30
0.0
 11
0.0538770024359003
 21
0.4991611425114821
 31
0.0
210
0.0
220
0.0
230
0.9999999999999998
 40
0.139171
 41
1.583568179252955
 42
3.154364506042246
  0
ELLIPSE
  5
17F
330
1F
100
AcDbEntity
  8
1
100
AcDbEllipse
 10
356.254138
 20
288.910075
 30
0.0
 11
0.0001758288819764
 21
-0.500077667664015
 31
0.0
210
0.0
220
0.0
230
1.0
 40
0.140519
 41
3.139090475969331
 42
4.709886802767973
  0
SPLINE
  5
185
330
1F
100
AcDbEntity
  8
1
100
AcDbSpline
210
0.0
220
0.0
230
1.0
 70
     8
 71
     3
 72
    14
 73
    10
 74
     0
 42
0.000000001
 43
0.0000000001
 40
0.0
 40
0.0
 40
0.0
 40
0.0
 40
0.25
 40
0.25
 40
0.5
 40
0.5
 40
0.75
 40
0.75
 40
1.0
 40
1.0
 40
1.0
 40
1.0
 10
282.3043368819074
 20
280.4095040475467
 30
0.0
 10
282.0497932473
 20
280.1877220892417
 30
0.0
 10
281.7981659731976
 20
279.9589880163946
 30
0.0
 10
281.301222597875
 20
279.4858120908864
 30
0.0
 10
281.0559049790459
 20
279.2413764123977
 30
0.0
 10
280.5720284823825
 20
278.734775591808
 30
0.0
 10
280.3334670961135
 20
278.4726212538305
 30
0.0
 10
279.86358043548
 20
277.928090653027
 30
0.0
 10
279.6322508514692
 20
277.6457344740427
 30
0.0
 10
279.4048419452957
 20
277.3515656630152
 30
0.0
  0
SPLINE
  5
186
330
1F
100
AcDbEntity
  8
1
100
AcDbSpline
210
0.0
220
0.0
230
1.0
 70
     8
 71
     3
 72
    12
 73
     8
 74
     0
 42
0.000000001
 43
0.0000000001
 40
0.0
 40
0.0
 40
0.0
 40
0.0
 40
0.2304272993300797
 40
0.2304272993300797
 40
0.4869515328867034
 40
0.4869515328867034
 40
1.0
 40
1.0
 40
1.0
 40
1.0
 10
347.5015743179849
 20
302.77461705083
 30
0.0
 10
347.4958139707638
 20
302.7764978822416
 30
0.0
 10
347.4906296846269
 20
302.7783945240681
 30
0.0
 10
347.480910428462
 20
302.7824323296895
 30
0.0
 10
347.476502493494
 20
302.7845863913218
 30
0.0
 10
347.4657029693482
 20
302.7909990480519
 30
0.0
 10
347.4616520117231
 20
302.7952200813315
 30
0.0
 10
347.4608053510257
 20
302.799378597568
 30
0.0
  0
SPLINE
  5
187
330
1F
100
AcDbEntity
  8
1
100
AcDbSpline
210
0.0
220
0.0
230
1.0
 70
     8
 71
     3
 72
    46
 73
    42
 74
     0
 42
0.000000001
 43
0.0000000001
 40
0.0
 40
0.0
 40
0.0
 40
0.0
 40
0.0624999999999991
 40
0.0624999999999991
 40
0.1249999999999983
 40
0.1249999999999983
 40
0.1874999999999974
 40
0.1874999999999974
 40
0.2187499999999976
 40
0.2187499999999976
 40
0.2499999999999979
 40
0.3124999999999968
 40
0.3124999999999968
 40
0.3437499999999973
 40
0.3437499999999973
 40
0.3749999999999978
 40
0.437499999999999
 40
0.437499999999999
 40
0.4687499999999986
 40
0.4687499999999986
 40
0.4999999999999982
 40
0.4999999999999982
 40
0.5624999999999973
 40
0.5624999999999973
 40
0.5937499999999967
 40
0.5937499999999967
 40
0.6249999999999961
 40
0.6249999999999961
 40
0.6874999999999974
 40
0.6874999999999974
 40
0.7499999999999986
 40
0.7499999999999986
 40
0.8124999999999998
 40
0.8124999999999998
 40
0.875000000000001
 40
0.875000000000001
 40
0.9375000000000024
 40
0.9375000000000024
 40
0.9687500000000012
 40
0.9687500000000012
 40
1.0
 40
1.0
 40
1.0
 40
1.0
 10
355.1034934150205
 20
284.1454935137142
 30
0.0
 10
355.1056473174446
 20
284.1129464211594
 30
0.0
 10
355.1081724115198
 20
284.0821707657012
 30
0.0
 10
355.1139616359249
 20
284.0241463558697
 30
0.0
 10
355.1172313404663
 20
283.9968787866006
 30
0.0
 10
355.1244509407152
 20
283.9463645934756
 30
0.0
 10
355.1284062292258
 20
283.9230506589135
 30
0.0
 10
355.1348574815414
 20
283.8909949892248
 30
0.0
 10
355.1370970063669
 20
283.880786496498
 30
0.0
 10
355.1417319388378
 20
283.8614250923198
 30
0.0
 10
355.1489210173767
 20
283.8339483263278
 30
0.0
 10
355.1568142744756
 20
283.8111288184145
 30
0.0
 10
355.1651793269889
 20
283.7914296454958
 30
0.0
 10
355.1680464437799
 20
283.7853865284651
 30
0.0
 10
355.1739068338858
 20
283.77440563712
 30
0.0
 10
355.1828980681855
 20
283.7595656358139
 30
0.0
 10
355.1924854670352
 20
283.7495726252127
 30
0.0
 10
355.2024711518243
 20
283.7428177948199
 30
0.0
 10
355.2058661883065
 20
283.7411066447916
 30
0.0
 10
355.2127905143418
 20
283.7387758611397
 30
0.0
 10
355.2163240902678
 20
283.7381571480128
 30
0.0
 10
355.2270740905034
 20
283.7379589669533
 30
0.0
 10
355.2344514812779
 20
283.7400249366351
 30
0.0
 10
355.2458332511264
 20
283.7464168309326
 30
0.0
 10
355.2496798637349
 20
283.7490970719373
 30
0.0
 10
355.2574793183606
 20
283.7555656474568
 30
0.0
 10
355.2614325488942
 20
283.7593559518859
 30
0.0
 10
355.2733955338161
 20
283.7723396625942
 30
0.0
 10
355.2815268512637
 20
283.783156374634
 30
0.0
 10
355.2981021685936
 20
283.8091212235501
 30
0.0
 10
355.3065661626464
 20
283.8243142046173
 30
0.0
 10
355.3236710423004
 20
283.8588345925854
 30
0.0
 10
355.3323197579064
 20
283.8781646123562
 30
0.0
 10
355.3498107887866
 20
283.9209868367117
 30
0.0
 10
355.3586687246863
 20
283.9445308345519
 30
0.0
 10
355.3764161839881
 20
283.9953938088319
 30
0.0
 10
355.3853226418821
 20
284.0227478796137
 30
0.0
 10
355.3987318407489
 20
284.0666875137679
 30
0.0
 10
355.4032153041672
 20
284.0818388396931
 30
0.0
 10
355.4121688653153
 20
284.1130193156553
 30
0.0
 10
355.4166372937573
 20
284.1290412529172
 30
0.0
 10
355.4210973966843
 20
284.1454935137011
 30
0.0
  0
SPLINE
  5
188
330
1F
100
AcDbEntity
  8
1
100
AcDbSpline
210
0.0
220
0.0
230
1.0
 70
     8
 71
     3
 72
   133
 73
   129
 74
     0
 42
0.000000001
 43
0.0000000001
 40
0.0
 40
0.0
 40
0.0
 40
0.0
 40
0.0156250000000013
 40
0.0156250000000013
 40
0.0234375000000016
 40
0.0234375000000016
 40
0.0312500000000019
 40
0.0468750000000025
 40
0.0468750000000025
 40
0.0546875000000027
 40
0.0546875000000027
 40
0.0625000000000028
 40
0.0781250000000033
 40
0.0781250000000033
 40
0.0937500000000039
 40
0.0937500000000039
 40
0.1093750000000044
 40
0.1093750000000044
 40
0.125000000000005
 40
0.125000000000005
 40
0.1406250000000056
 40
0.1406250000000056
 40
0.1484375000000058
 40
0.1484375000000058
 40
0.1562500000000061
 40
0.1562500000000061
 40
0.1875000000000068
 40
0.1875000000000068
 40
0.2031250000000073
 40
0.2031250000000073
 40
0.2109375000000075
 40
0.2109375000000075
 40
0.2187500000000076
 40
0.2187500000000076
 40
0.2500000000000086
 40
0.2500000000000086
 40
0.2812500000000096
 40
0.2812500000000096
 40
0.2968750000000099
 40
0.2968750000000099
 40
0.3125000000000102
 40
0.3125000000000102
 40
0.3281250000000105
 40
0.3281250000000105
 40
0.3437500000000109
 40
0.3437500000000109
 40
0.3593750000000112
 40
0.3593750000000112
 40
0.3750000000000115
 40
0.3750000000000115
 40
0.3906250000000119
 40
0.3906250000000119
 40
0.4062500000000124
 40
0.4062500000000124
 40
0.4218750000000127
 40
0.4218750000000127
 40
0.437500000000013
 40
0.437500000000013
 40
0.4531250000000135
 40
0.4531250000000135
 40
0.4687500000000139
 40
0.4687500000000139
 40
0.5000000000000153
 40
0.5000000000000153
 40
0.5156250000000157
 40
0.5156250000000157
 40
0.5234375000000156
 40
0.5234375000000156
 40
0.5312500000000155
 40
0.5468750000000158
 40
0.5468750000000158
 40
0.5625000000000162
 40
0.5625000000000162
 40
0.5781250000000166
 40
0.5781250000000166
 40
0.5859375000000165
 40
0.5859375000000165
 40
0.5937500000000164
 40
0.5937500000000164
 40
0.6093750000000155
 40
0.6093750000000155
 40
0.6250000000000146
 40
0.6250000000000146
 40
0.656250000000013
 40
0.656250000000013
 40
0.6875000000000115
 40
0.6875000000000115
 40
0.7031250000000106
 40
0.7031250000000106
 40
0.7187500000000096
 40
0.7187500000000096
 40
0.7265625000000091
 40
0.7265625000000091
 40
0.7343750000000087
 40
0.7500000000000081
 40
0.7500000000000081
 40
0.7578125000000079
 40
0.7578125000000079
 40
0.7656250000000073
 40
0.7812500000000068
 40
0.7812500000000068
 40
0.7968750000000062
 40
0.7968750000000062
 40
0.8125000000000055
 40
0.8125000000000055
 40
0.8281250000000049
 40
0.8281250000000049
 40
0.8437500000000042
 40
0.8437500000000042
 40
0.8593750000000037
 40
0.8593750000000037
 40
0.875000000000003
 40
0.875000000000003
 40
0.8906250000000026
 40
0.8906250000000026
 40
0.9062500000000021
 40
0.9062500000000021
 40
0.9140625000000024
 40
0.9140625000000024
 40
0.9218750000000024
 40
0.9218750000000024
 40
0.9375000000000021
 40
0.9375000000000021
 40
0.9687500000000012
 40
0.9687500000000012
 40
0.9843750000000007
 40
0.9843750000000007
 40
1.0
 40
1.0
 40
1.0
 40
1.0
 10
355.4210973966843
 20
284.1454935137011
 30
0.0
 10
355.4258028732814
 20
284.1745081262645
 30
0.0
 10
355.4303471292893
 20
284.2048381249053
 30
0.0
 10
355.4369194917921
 20
284.2523240751191
 30
0.0
 10
355.4390706343511
 20
284.26849469223
 30
0.0
 10
355.4432727800839
 20
284.3013631194155
 30
0.0
 10
355.4494324701561
 20
284.3515039063646
 30
0.0
 10
355.4551640618758
 20
284.4041446074652
 30
0.0
 10
355.4606087738156
 20
284.458460565707
 30
0.0
 10
355.4623776346004
 20
284.4768659438195
 30
0.0
 10
355.4658066926763
 20
284.5141074411493
 30
0.0
 10
355.4707888991679
 20
284.5706276477395
 30
0.0
 10
355.4752906643817
 20
284.6291066485434
 30
0.0
 10
355.4808653582381
 20
284.7088222497306
 30
0.0
 10
355.4834400069273
 20
284.7495930838664
 30
0.0
 10
355.4881165676984
 20
284.8321788851589
 30
0.0
 10
355.4902247865999
 20
284.8740754394476
 30
0.0
 10
355.4939820806256
 20
284.9590732860306
 30
0.0
 10
355.4956328052401
 20
285.0022495944223
 30
0.0
 10
355.4984479643796
 20
285.0891151977286
 30
0.0
 10
355.4996161524681
 20
285.1328701106324
 30
0.0
 10
355.501011299791
 20
285.1989830198117
 30
0.0
 10
355.5014167603158
 20
285.2211008351351
 30
0.0
 10
355.50210803541
 20
285.2654974544194
 30
0.0
 10
355.502393178777
 20
285.2877457384151
 30
0.0
 10
355.5035138770794
 20
285.3986972193694
 30
0.0
 10
355.5034479445525
 20
285.4870332910459
 30
0.0
 10
355.5019585023171
 20
285.61892322335
 30
0.0
 10
355.5012292117789
 20
285.6627837066915
 30
0.0
 10
355.4997835336228
 20
285.7284190741479
 30
0.0
 10
355.4992429547348
 20
285.7502716094602
 30
0.0
 10
355.4980432316763
 20
285.7939243121723
 30
0.0
 10
355.4973830572274
 20
285.8157548329994
 30
0.0
 10
355.4937942811483
 20
285.9243942967895
 30
0.0
 10
355.4900236600251
 20
286.0092620739933
 30
0.0
 10
355.4807022292975
 20
286.1749532340253
 30
0.0
 10
355.4752019802498
 20
286.2548577394696
 30
0.0
 10
355.4657218959555
 20
286.3701632687192
 30
0.0
 10
355.4623604789528
 20
286.407773485915
 30
0.0
 10
355.4552775985275
 20
286.4809268472405
 30
0.0
 10
355.4515508666067
 20
286.5165355385658
 30
0.0
 10
355.4437268639759
 20
286.5858171756814
 30
0.0
 10
355.4396274151002
 20
286.6194952957696
 30
0.0
 10
355.4311218649524
 20
286.6843930274547
 30
0.0
 10
355.4267083796335
 20
286.7156819128347
 30
0.0
 10
355.4175603674717
 20
286.7759424579798
 30
0.0
 10
355.4128178301036
 20
286.8049540107439
 30
0.0
 10
355.4030782489552
 20
286.8602387507583
 30
0.0
 10
355.3980754822135
 20
286.8865565057193
 30
0.0
 10
355.3878045317924
 20
286.9365481187979
 30
0.0
 10
355.3825257527053
 20
286.9602635237097
 30
0.0
 10
355.3717609786209
 20
287.0047626753816
 30
0.0
 10
355.3662761308872
 20
287.0255512645574
 30
0.0
 10
355.3551020911092
 20
287.0642146980713
 30
0.0
 10
355.3494043848957
 20
287.0821131206041
 30
0.0
 10
355.3378414590962
 20
287.1148444052968
 30
0.0
 10
355.3319905578077
 20
287.129642454009
 30
0.0
 10
355.3201504035974
 20
287.1561152194684
 30
0.0
 10
355.3141600929993
 20
287.1677917402906
 30
0.0
 10
355.3020435429238
 20
287.1879726525506
 30
0.0
 10
355.295969985642
 20
287.196389975817
 30
0.0
 10
355.2777045386461
 20
287.2167398660578
 30
0.0
 10
355.2654681196805
 20
287.2237972750122
 30
0.0
 10
355.2470239749913
 20
287.2245829583432
 30
0.0
 10
355.2408609461801
 20
287.2232047465939
 30
0.0
 10
355.2315933049404
 20
287.218608607836
 30
0.0
 10
355.2284959749014
 20
287.2166511586782
 30
0.0
 10
355.222314496624
 20
287.2118918537069
 30
0.0
 10
355.213074609626
 20
287.2034990417029
 30
0.0
 10
355.2039312052078
 20
287.1913643937442
 30
0.0
 10
355.1918262602153
 20
287.1718394495616
 30
0.0
 10
355.1858044584488
 20
287.160373539014
 30
0.0
 10
355.1739329132451
 20
287.1342151325962
 30
0.0
 10
355.1680792495722
 20
287.1195249041878
 30
0.0
 10
355.15942220537
 20
287.0950673747269
 30
0.0
 10
355.1565571215731
 20
287.086510727875
 30
0.0
 10
355.1508684708371
 20
287.0685828491417
 30
0.0
 10
355.1480423450603
 20
287.0592020271209
 30
0.0
 10
355.1396596468332
 20
287.0299405422913
 30
0.0
 10
355.134190857659
 20
287.0089216420899
 30
0.0
 10
355.1234923695993
 20
286.9638646670642
 30
0.0
 10
355.1182569488058
 20
286.9397977581105
 30
0.0
 10
355.1029527071361
 20
286.8631810731713
 30
0.0
 10
355.0933656130512
 20
286.8066725998215
 30
0.0
 10
355.07543330675
 20
286.6827024321182
 30
0.0
 10
355.0672037328468
 20
286.6160378379112
 30
0.0
 10
355.0559703587133
 20
286.5090495629327
 30
0.0
 10
355.0524269770386
 20
286.4723532107232
 30
0.0
 10
355.0457663287021
 20
286.3971906027301
 30
0.0
 10
355.0426445101187
 20
286.3586814002564
 30
0.0
 10
355.038276318335
 20
286.2995178375872
 30
0.0
 10
355.0368722427066
 20
286.2795533964834
 30
0.0
 10
355.0341812755219
 20
286.2393298554508
 30
0.0
 10
355.030315991596
 20
286.1784912094814
 30
0.0
 10
355.0269604025873
 20
286.1161537511315
 30
0.0
 10
355.023945236338
 20
286.0528152432734
 30
0.0
 10
355.022996102493
 20
286.0315126728708
 30
0.0
 10
355.0212185372418
 20
285.9887269978637
 30
0.0
 10
355.0187318581411
 20
285.9242554249982
 30
0.0
 10
355.016779294651
 20
285.8589126483899
 30
0.0
 10
355.0146498978078
 20
285.7710157634621
 30
0.0
 10
355.0138228664741
 20
285.7266453015849
 30
0.0
 10
355.0126560949257
 20
285.6378792333533
 30
0.0
 10
355.0123136734098
 20
285.5933932349025
 30
0.0
 10
355.0121086452854
 20
285.5042162124789
 30
0.0
 10
355.0122473862833
 20
285.4594561966496
 30
0.0
 10
355.0130020497649
 20
285.370431418538
 30
0.0
 10
355.0136170777164
 20
285.3260949077991
 30
0.0
 10
355.0153193369517
 20
285.2377712832554
 30
0.0
 10
355.0164096086996
 20
285.1936999320006
 30
0.0
 10
355.0190472357372
 20
285.1065139593757
 30
0.0
 10
355.0205942940527
 20
285.0633618674769
 30
0.0
 10
355.0241410751258
 20
284.9779320835643
 30
0.0
 10
355.0261454649488
 20
284.9355722110792
 30
0.0
 10
355.0305845873385
 20
284.8522085656558
 30
0.0
 10
355.0330176064553
 20
284.811212878681
 30
0.0
 10
355.0369843027638
 20
284.7507388467968
 30
0.0
 10
355.038359453799
 20
284.7307509379397
 30
0.0
 10
355.0412157767099
 20
284.6911159119246
 30
0.0
 10
355.0426990921873
 20
284.6714429716407
 30
0.0
 10
355.0472848476767
 20
284.6132370715332
 30
0.0
 10
355.0505265706033
 20
284.5754544095393
 30
0.0
 10
355.0607902747716
 20
284.4650865538561
 30
0.0
 10
355.0683478748737
 20
284.3954653510733
 30
0.0
 10
355.0807523205997
 20
284.2969438641067
 30
0.0
 10
355.0850658762494
 20
284.2650924765317
 30
0.0
 10
355.0940588588156
 20
284.2034143483618
 30
0.0
 10
355.0987072622914
 20
284.173804652428
 30
0.0
 10
355.1034934150191
 20
284.1454935137142
 30
0.0
  0
SPLINE
  5
189
330
1F
100
AcDbEntity
  8
1
100
AcDbSpline
210
0.0
220
0.0
230
1.0
 70
     8
 71
     3
 72
    29
 73
    25
 74
     0
 42
0.000000001
 43
0.0000000001
 40
0.0
 40
0.0
 40
0.0
 40
0.0
 40
0.1250000000000008
 40
0.1250000000000008
 40
0.2500000000000016
 40
0.2500000000000016
 40
0.3750000000000024
 40
0.3750000000000024
 40
0.4375000000000033
 40
0.4375000000000033
 40
0.4687500000000032
 40
0.4687500000000032
 40
0.5000000000000032
 40
0.5000000000000032
 40
0.6250000000000026
 40
0.6250000000000026
 40
0.7500000000000019
 40
0.7500000000000019
 40
0.8750000000000014
 40
0.8750000000000014
 40
0.906250000000001
 40
0.906250000000001
 40
0.9375000000000005
 40
1.0
 40
1.0
 40
1.0
 40
1.0
 10
279.4048419452957
 20
277.3515656630152
 30
0.0
 10
279.2075272848188
 20
277.2228266004662
 30
0.0
 10
279.018773273579
 20
277.0884775872154
 30
0.0
 10
278.6578759849116
 20
276.8095818653117
 30
0.0
 10
278.485733748259
 20
276.6650333674895
 30
0.0
 10
278.1580058627226
 20
276.3664598193613
 30
0.0
 10
278.0024191708895
 20
276.2124342226577
 30
0.0
 10
277.7817535975478
 20
275.9746339854266
 30
0.0
 10
277.7103211026659
 20
275.8942382762708
 30
0.0
 10
277.6064291497833
 20
275.7719762332085
 30
0.0
 10
277.5723963217514
 20
275.7310061428255
 30
0.0
 10
277.5057749511291
 20
275.6489554722413
 30
0.0
 10
277.4731474962675
 20
275.6078293539672
 30
0.0
 10
277.3133967524849
 20
275.4017270569233
 30
0.0
 10
277.1964099641144
 20
275.23534274476
 30
0.0
 10
276.9836831098095
 20
274.9002753399567
 30
0.0
 10
276.8879430904675
 20
274.7315911392095
 30
0.0
 10
276.7179110806753
 20
274.3924702619914
 30
0.0
 10
276.6436164252237
 20
274.2220331138869
 30
0.0
 10
276.5646634544896
 20
274.008149770671
 30
0.0
 10
276.5495660909742
 20
273.9653141438292
 30
0.0
 10
276.5208898738448
 20
273.8798907028868
 30
0.0
 10
276.4801085539456
 20
273.7520098071111
 30
0.0
 10
276.446011845185
 20
273.6249190923169
 30
0.0
 10
276.4262584463095
 20
273.5405656167015
 30
0.0
  0
SPLINE
  5
18A
330
1F
100
AcDbEntity
  8
1
100
AcDbSpline
210
0.0
220
0.0
230
1.0
 70
     8
 71
     3
 72
    26
 73
    22
 74
     0
 42
0.000000001
 43
0.0000000001
 40
0.0
 40
0.0
 40
0.0
 40
0.0
 40
0.1250000000000006
 40
0.1250000000000006
 40
0.2500000000000017
 40
0.2500000000000017
 40
0.3750000000000027
 40
0.3750000000000027
 40
0.5000000000000039
 40
0.5000000000000039
 40
0.5312500000000036
 40
0.5312500000000036
 40
0.5625000000000034
 40
0.5625000000000034
 40
0.6250000000000028
 40
0.6250000000000028
 40
0.7500000000000018
 40
0.7500000000000018
 40
0.8750000000000008
 40
0.8750000000000008
 40
1.0
 40
1.0
 40
1.0
 40
1.0
 10
282.3043368819074
 20
280.4095040475467
 30
0.0
 10
282.5144089285133
 20
280.5925382450164
 30
0.0
 10
282.7309639424656
 20
280.7669625469391
 30
0.0
 10
283.1772384125555
 20
281.0985676097488
 30
0.0
 10
283.4069570832211
 20
281.2557495784771
 30
0.0
 10
283.8799870394905
 20
281.552487899779
 30
0.0
 10
284.1232968923027
 20
281.6920466924998
 30
0.0
 10
284.6242003120731
 20
281.9527441909666
 30
0.0
 10
284.8817915901878
 20
282.0738870152697
 30
0.0
 10
285.2133385751382
 20
282.2129884878383
 30
0.0
 10
285.2801267496005
 20
282.2401909922186
 30
0.0
 10
285.4146802134
 20
282.2933338234852
 30
0.0
 10
285.4824483392897
 20
282.3192726793359
 30
0.0
 10
285.6862954147933
 20
282.3948132717027
 30
0.0
 10
285.8232257441217
 20
282.4422646154836
 30
0.0
 10
286.2371216745498
 20
282.5758187354743
 30
0.0
 10
286.5171895670354
 20
282.6531380152795
 30
0.0
 10
287.0857127507812
 20
282.7835647628821
 30
0.0
 10
287.3741687057681
 20
282.8366730683935
 30
0.0
 10
287.9596591395658
 20
282.9173648268959
 30
0.0
 10
288.2566945274195
 20
282.9449491809327
 30
0.0
 10
288.5581418506601
 20
282.9588326897483
 30
0.0
  0
SPLINE
  5
18B
330
1F
100
AcDbEntity
  8
1
100
AcDbSpline
210
0.0
220
0.0
230
1.0
 70
     8
 71
     3
 72
    22
 73
    18
 74
     0
 42
0.000000001
 43
0.0000000001
 40
0.0
 40
0.0
 40
0.0
 40
0.0
 40
0.125
 40
0.125
 40
0.25
 40
0.25
 40
0.375
 40
0.375
 40
0.5
 40
0.5
 40
0.625
 40
0.625
 40
0.75
 40
0.75
 40
0.875
 40
0.875
 40
1.0
 40
1.0
 40
1.0
 40
1.0
 10
351.4489390817959
 20
297.2365649805687
 30
0.0
 10
351.4463152837668
 20
297.2314586612006
 30
0.0
 10
351.4432782706097
 20
297.2265896759514
 30
0.0
 10
351.4365080041643
 20
297.217480517549
 30
0.0
 10
351.4327628288677
 20
297.2132151641489
 30
0.0
 10
351.4245320338335
 20
297.2052804064085
 30
0.0
 10
351.4200405682384
 20
297.2016204359839
 30
0.0
 10
351.4106048629631
 20
297.1951695281296
 30
0.0
 10
351.4056260793669
 20
297.1923415883845
 30
0.0
 10
351.3951248521784
 20
297.1875167873498
 30
0.0
 10
351.3896196067906
 20
297.1855394600183
 30
0.0
 10
351.3784447274625
 20
297.1825902632438
 30
0.0
 10
351.3727293988726
 20
297.1815950778208
 30
0.0
 10
351.3610293747818
 20
297.1806199019767
 30
0.0
 10
351.355133611065
 20
297.1806547718234
 30
0.0
 10
351.3434983426662
 20
297.1817619669127
 30
0.0
 10
351.3377205104835
 20
297.1828302375108
 30
0.0
 10
351.3319853838085
 20
297.1844466135609
 30
0.0
  0
SPLINE
  5
18C
330
1F
100
AcDbEntity
  8
1
100
AcDbSpline
210
0.0
220
0.0
230
1.0
 70
     8
 71
     3
 72
    20
 73
    16
 74
     0
 42
0.000000001
 43
0.0000000001
 40
0.0
 40
0.0
 40
0.0
 40
0.0
 40
0.125
 40
0.125
 40
0.25
 40
0.25
 40
0.375
 40
0.375
 40
0.5
 40
0.5
 40
0.625
 40
0.625
 40
0.75
 40
0.75
 40
1.0
 40
1.0
 40
1.0
 40
1.0
 10
352.1166950232399
 20
297.0108691474138
 30
0.0
 10
352.1108099381968
 20
297.0118227648236
 30
0.0
 10
352.1051110645851
 20
297.0132936114441
 30
0.0
 10
352.0940661488624
 20
297.0172135307322
 30
0.0
 10
352.0886702036882
 20
297.019694375084
 30
0.0
 10
352.0785220025227
 20
297.025502121376
 30
0.0
 10
352.0737783551889
 20
297.0288091857537
 30
0.0
 10
352.0649198653511
 20
297.0361884147139
 30
0.0
 10
352.0607722441302
 20
297.0403017999286
 30
0.0
 10
352.0532972123418
 20
297.049116750121
 30
0.0
 10
352.0499895283052
 20
297.0537787974777
 30
0.0
 10
352.0441896426348
 20
297.0635841036944
 30
0.0
 10
352.0416878546391
 20
297.068753497168
 30
0.0
 10
352.0355101783398
 20
297.0848348916034
 30
0.0
 10
352.0332461868002
 20
297.0959365905728
 30
0.0
 10
352.0328143891719
 20
297.1074119903329
 30
0.0
  0
SPLINE
  5
18D
330
1F
100
AcDbEntity
  8
1
100
AcDbSpline
210
0.0
220
0.0
230
1.0
 70
     8
 71
     3
 72
    14
 73
    10
 74
     0
 42
0.000000001
 43
0.0000000001
 40
0.0
 40
0.0
 40
0.0
 40
0.0
 40
0.25
 40
0.25
 40
0.5
 40
0.5
 40
0.75
 40
0.75
 40
1.0
 40
1.0
 40
1.0
 40
1.0
 10
351.4489390817964
 20
297.2365649805696
 30
0.0
 10
351.4522214785926
 20
297.2429530356518
 30
0.0
 10
351.4561615228986
 20
297.2489913032804
 30
0.0
 10
351.4651644664056
 20
297.2600968010959
 30
0.0
 10
351.4701857014217
 20
297.2651308450368
 30
0.0
 10
351.4812809391137
 20
297.2741516255819
 30
0.0
 10
351.4873950426989
 20
297.2781394879203
 30
0.0
 10
351.5001877653736
 20
297.2846536310722
 30
0.0
 10
351.5069232633944
 20
297.2872378706061
 30
0.0
 10
351.5140293725382
 20
297.2890912511776
 30
0.0
  0
SPLINE
  5
18E
330
1F
100
AcDbEntity
  8
1
100
AcDbSpline
210
0.0
220
0.0
230
1.0
 70
     8
 71
     3
 72
    14
 73
    10
 74
     0
 42
0.000000001
 43
0.0000000001
 40
0.0
 40
0.0
 40
0.0
 40
0.0
 40
0.25
 40
0.25
 40
0.5
 40
0.5
 40
0.75
 40
0.75
 40
1.0
 40
1.0
 40
1.0
 40
1.0
 10
351.996080429191
 20
297.1824617454818
 30
0.0
 10
352.0017381483177
 20
297.1777821893564
 30
0.0
 10
352.0068481308514
 20
297.1724884121067
 30
0.0
 10
352.0156901777511
 20
297.1611357537701
 30
0.0
 10
352.0194482506178
 20
297.155073729925
 30
0.0
 10
352.0256823168399
 20
297.1421998647753
 30
0.0
 10
352.0281350273888
 20
297.1353847077078
 30
0.0
 10
352.0315455072774
 20
297.1216164877172
 30
0.0
 10
352.0325443464789
 20
297.1145886111655
 30
0.0
 10
352.0328143891719
 20
297.1074119903329
 30
0.0
  0
SPLINE
  5
18F
330
1F
100
AcDbEntity
  8
1
100
AcDbSpline
210
0.0
220
0.0
230
1.0
 70
     8
 71
     3
 72
    21
 73
    17
 74
     0
 42
0.000000001
 43
0.0000000001
 40
0.0
 40
0.0
 40
0.0
 40
0.0
 40
0.2499999999999132
 40
0.2499999999999132
 40
0.312499999999908
 40
0.312499999999908
 40
0.3749999999999026
 40
0.3749999999999026
 40
0.4999999999998921
 40
0.6249999999998816
 40
0.6249999999998816
 40
0.6874999999999028
 40
0.6874999999999028
 40
0.7499999999999238
 40
0.7499999999999238
 40
1.0
 40
1.0
 40
1.0
 40
1.0
 10
351.3319853838085
 20
297.1844466135609
 30
0.0
 10
351.2907324409762
 20
297.1960732562783
 30
0.0
 10
351.2513932984401
 20
297.2123003802391
 30
0.0
 10
351.2046150782623
 20
297.2383283372257
 30
0.0
 10
351.1953622486227
 20
297.2438382057111
 30
0.0
 10
351.1773079730041
 20
297.2553182875453
 30
0.0
 10
351.1684836028846
 20
297.261299744564
 30
0.0
 10
351.1426077416239
 20
297.2799551387505
 30
0.0
 10
351.1096954123027
 20
297.306720465062
 30
0.0
 10
351.0799392444501
 20
297.3372428871481
 30
0.0
 10
351.0588452131932
 20
297.3615907819096
 30
0.0
 10
351.0520338315277
 20
297.3699357039517
 30
0.0
 10
351.0389964445212
 20
297.3868919540937
 30
0.0
 10
351.0327479805842
 20
297.3955286456927
 30
0.0
 10
351.0028325416657
 20
297.4394906549999
 30
0.0
 10
350.9830939649337
 20
297.4771210251835
 30
0.0
 10
350.9676625853447
 20
297.5172777833281
 30
0.0
  0
SPLINE
  5
190
330
1F
100
AcDbEntity
  8
1
100
AcDbSpline
210
0.0
220
0.0
230
1.0
 70
     8
 71
     3
 72
    21
 73
    17
 74
     0
 42
0.000000001
 43
0.0000000001
 40
0.0
 40
0.0
 40
0.0
 40
0.0
 40
0.2499999999997251
 40
0.2499999999997251
 40
0.3124999999996763
 40
0.3124999999996763
 40
0.3749999999996275
 40
0.3749999999996275
 40
0.4999999999996096
 40
0.6249999999995919
 40
0.6249999999995919
 40
0.6874999999996226
 40
0.6874999999996226
 40
0.7499999999996529
 40
0.7499999999996529
 40
1.0
 40
1.0
 40
1.0
 40
1.0
 10
351.5140293725382
 20
297.2890912511776
 30
0.0
 10
351.5552605532109
 20
297.2998449657144
 30
0.0
 10
351.597189420656
 20
297.3057546802721
 30
0.0
 10
351.6505622758733
 20
297.3069329411266
 30
0.0
 10
351.6612854868854
 20
297.3068541014082
 30
0.0
 10
351.6828337274819
 20
297.3060464352757
 30
0.0
 10
351.6936846525265
 20
297.3053128383935
 30
0.0
 10
351.7259086813707
 20
297.3021548510029
 30
0.0
 10
351.7682881991651
 20
297.2953997916542
 30
0.0
 10
351.8095214368635
 20
297.2836675420203
 30
0.0
 10
351.8400092848203
 20
297.2729700819144
 30
0.0
 10
351.8501347175708
 20
297.2690715410108
 30
0.0
 10
351.8700473359765
 20
297.2607066190093
 30
0.0
 10
351.8798167408966
 20
297.2562508382546
 30
0.0
 10
351.9277636700794
 20
297.2326498862713
 30
0.0
 10
351.9632770231666
 20
297.2095937709782
 30
0.0
 10
351.996080429191
 20
297.1824617454819
 30
0.0
  0
SPLINE
  5
191
330
1F
100
AcDbEntity
  8
1
100
AcDbSpline
210
0.0
220
0.0
230
1.0
 70
     8
 71
     3
 72
     8
 73
     4
 74
     0
 42
0.000000001
 43
0.0000000001
 40
0.0
 40
0.0
 40
0.0
 40
0.0
 40
1.0
 40
1.0
 40
1.0
 40
1.0
 10
350.9676625853447
 20
297.5172777833281
 30
0.0
 10
350.9661475652115
 20
297.5212202887096
 30
0.0
 10
350.9648983733787
 20
297.5252150632515
 30
0.0
 10
350.9639048644394
 20
297.5292600466735
 30
0.0
  0
SPLINE
  5
192
330
1F
100
AcDbEntity
  8
1
100
AcDbSpline
210
0.0
220
0.0
230
1.0
 70
     8
 71
     3
 72
    21
 73
    17
 74
     0
 42
0.000000001
 43
0.0000000001
 40
0.0
 40
0.0
 40
0.0
 40
0.0
 40
0.2500000000000867
 40
0.2500000000000867
 40
0.312500000000091
 40
0.312500000000091
 40
0.3750000000000953
 40
0.3750000000000953
 40
0.5000000000000295
 40
0.6249999999999637
 40
0.6249999999999637
 40
0.6874999999999697
 40
0.6874999999999697
 40
0.7499999999999753
 40
0.7499999999999753
 40
1.0
 40
1.0
 40
1.0
 40
1.0
 10
352.5873091467409
 20
297.1590125957298
 30
0.0
 10
352.5563699045647
 20
297.1291111187786
 30
0.0
 10
352.5224613612405
 20
297.103186823533
 30
0.0
 10
352.47636673453
 20
297.0757512198047
 30
0.0
 10
352.4669390602808
 20
297.0705064538612
 30
0.0
 10
352.4479181471909
 20
297.060639990372
 30
0.0
 10
352.4383036569093
 20
297.0560041075898
 30
0.0
 10
352.4091537391547
 20
297.0429722390051
 30
0.0
 10
352.3694718873116
 20
297.0279263791714
 30
0.0
 10
352.3281706879986
 20
297.0175078707009
 30
0.0
 10
352.2965671785303
 20
297.0114875861407
 30
0.0
 10
352.285947902921
 20
297.0097867636219
 30
0.0
 10
352.2647783749634
 20
297.0070266972773
 30
0.0
 10
352.2541949259517
 20
297.0059607548122
 30
0.0
 10
352.2012843464
 20
297.0021733069188
 30
0.0
 10
352.1589766856898
 20
297.0040178395514
 30
0.0
 10
352.1166950232399
 20
297.0108691474138
 30
0.0
  0
SPLINE
  5
193
330
1F
100
AcDbEntity
  8
1
100
AcDbSpline
210
0.0
220
0.0
230
1.0
 70
     8
 71
     3
 72
     8
 73
     4
 74
     0
 42
0.000000001
 43
0.0000000001
 40
0.0
 40
0.0
 40
0.0
 40
0.0
 40
1.0
 40
1.0
 40
1.0
 40
1.0
 10
351.0530813955219
 20
297.710195434169
 30
0.0
 10
351.0525194536413
 20
297.7066101026876
 30
0.0
 10
351.0517657283503
 20
297.7030622403291
 30
0.0
 10
351.0508351248674
 20
297.6995805516946
 30
0.0
  0
SPLINE
  5
194
330
1F
100
AcDbEntity
  8
1
100
AcDbSpline
210
0.0
220
0.0
230
1.0
 70
     8
 71
     3
 72
    21
 73
    17
 74
     0
 42
0.000000001
 43
0.0000000001
 40
0.0
 40
0.0
 40
0.0
 40
0.0
 40
0.2500000000000216
 40
0.2500000000000216
 40
0.3125000000000207
 40
0.3125000000000207
 40
0.3750000000000198
 40
0.3750000000000198
 40
0.5000000000000269
 40
0.6250000000000339
 40
0.6250000000000339
 40
0.6875000000000301
 40
0.6875000000000301
 40
0.7500000000000262
 40
0.7500000000000262
 40
1.0
 40
1.0
 40
1.0
 40
1.0
 10
350.9041068548796
 20
298.1800464248527
 30
0.0
 10
350.9336247763581
 20
298.1502443371407
 30
0.0
 10
350.9593828878378
 20
298.1173281616227
 30
0.0
 10
350.9868185937643
 20
298.0721101740054
 30
0.0
 10
350.9920644700192
 20
298.0628603741992
 30
0.0
 10
351.0020586771418
 20
298.0439330484162
 30
0.0
 10
351.0068158943588
 20
298.0342306360201
 30
0.0
 10
351.0201183048371
 20
298.0049037777991
 30
0.0
 10
351.0354209284675
 20
297.964970773278
 30
0.0
 10
351.0459647239512
 20
297.9234112133088
 30
0.0
 10
351.052056835321
 20
297.8916219585672
 30
0.0
 10
351.0537887950994
 20
297.8808831676159
 30
0.0
 10
351.0566064717024
 20
297.8593981188213
 30
0.0
 10
351.0576922552053
 20
297.8486730385703
 30
0.0
 10
351.0615594482892
 20
297.7951297010883
 30
0.0
 10
351.05972057258
 20
297.7525550648497
 30
0.0
 10
351.0530813955219
 20
297.710195434169
 30
0.0
  0
SPLINE
  5
195
330
1F
100
AcDbEntity
  8
1
100
AcDbSpline
210
0.0
220
0.0
230
1.0
 70
     8
 71
     3
 72
    14
 73
    10
 74
     0
 42
0.000000001
 43
0.0000000001
 40
0.0
 40
0.0
 40
0.0
 40
0.0
 40
0.25
 40
0.25
 40
0.5
 40
0.5
 40
0.75
 40
0.75
 40
1.0
 40
1.0
 40
1.0
 40
1.0
 10
350.8272173004427
 20
298.2087987028902
 30
0.0
 10
350.8342819202494
 20
298.2092716013257
 30
0.0
 10
350.8413732873151
 20
298.2090014579001
 30
0.0
 10
350.8552806828404
 20
298.2070002679353
 30
0.0
 10
350.8620488022369
 20
298.2052878043733
 30
0.0
 10
350.8752123265688
 20
298.2004219306634
 30
0.0
 10
350.8816277941857
 20
298.1972350353428
 30
0.0
 10
350.893492431292
 20
298.1896251213532
 30
0.0
 10
350.8990191990874
 20
298.1851830590251
 30
0.0
 10
350.9041068548796
 20
298.1800464248527
 30
0.0
  0
SPLINE
  5
196
330
1F
100
AcDbEntity
  8
1
100
AcDbSpline
210
0.0
220
0.0
230
1.0
 70
     8
 71
     3
 72
    22
 73
    18
 74
     0
 42
0.000000001
 43
0.0000000001
 40
0.0
 40
0.0
 40
0.0
 40
0.0
 40
0.125
 40
0.125
 40
0.25
 40
0.25
 40
0.375
 40
0.375
 40
0.5
 40
0.5
 40
0.625
 40
0.625
 40
0.75
 40
0.75
 40
0.875
 40
0.875
 40
1.0
 40
1.0
 40
1.0
 40
1.0
 10
350.8272173004427
 20
298.2087987028902
 30
0.0
 10
350.8215699581878
 20
298.2084206755667
 30
0.0
 10
350.8159208767791
 20
298.2085185669144
 30
0.0
 10
350.8048159102414
 20
298.2096339283669
 30
0.0
 10
350.799332578394
 20
298.2106486464303
 30
0.0
 10
350.7885092495235
 20
298.2136183485977
 30
0.0
 10
350.7831740966561
 20
298.2155832934198
 30
0.0
 10
350.7730220777767
 20
298.220347285409
 30
0.0
 10
350.7681566135511
 20
298.2231568819034
 30
0.0
 10
350.7588670566024
 20
298.2296680717476
 30
0.0
 10
350.7544677923136
 20
298.233365223883
 30
0.0
 10
350.7464467372649
 20
298.2414160463002
 30
0.0
 10
350.7427824737939
 20
298.2457968890881
 30
0.0
 10
350.7361881687056
 20
298.2553095823536
 30
0.0
 10
350.7333143288037
 20
298.2603734324116
 30
0.0
 10
350.7285300432603
 20
298.2708986903414
 30
0.0
 10
350.726597132671
 20
298.2763909914662
 30
0.0
 10
350.7251535057389
 20
298.2821274738276
 30
0.0
  0
SPLINE
  5
197
330
1F
100
AcDbEntity
  8
1
100
AcDbSpline
210
0.0
220
0.0
230
1.0
 70
     8
 71
     3
 72
    21
 73
    17
 74
     0
 42
0.000000001
 43
0.0000000001
 40
0.0
 40
0.0
 40
0.0
 40
0.0
 40
0.2500000000001323
 40
0.2500000000001323
 40
0.3125000000001611
 40
0.3125000000001611
 40
0.3750000000001897
 40
0.3750000000001897
 40
0.5000000000002002
 40
0.6250000000002106
 40
0.6250000000002106
 40
0.6875000000001857
 40
0.6875000000001857
 40
0.7500000000001606
 40
0.7500000000001606
 40
1.0
 40
1.0
 40
1.0
 40
1.0
 10
352.5915101664949
 20
297.3698955901314
 30
0.0
 10
352.6033948910278
 20
297.4110915366539
 30
0.0
 10
352.6197024336569
 20
297.4504290556357
 30
0.0
 10
352.6457577751847
 20
297.4972688076567
 30
0.0
 10
352.6512560838767
 20
297.506518574494
 30
0.0
 10
352.6628463996705
 20
297.5247748032152
 30
0.0
 10
352.6689555549442
 20
297.5338013481162
 30
0.0
 10
352.6879142194796
 20
297.5601079045621
 30
0.0
 10
352.715015729777
 20
297.5933774231015
 30
0.0
 10
352.7456805849018
 20
297.6231133966423
 30
0.0
 10
352.7700394552489
 20
297.6440681260639
 30
0.0
 10
352.7784174614371
 20
297.6508510388431
 30
0.0
 10
352.795476080259
 20
297.6638344640917
 30
0.0
 10
352.8041386948572
 20
297.6700248548264
 30
0.0
 10
352.8481000585319
 20
297.6995231580004
 30
0.0
 10
352.885315314795
 20
297.718529396349
 30
0.0
 10
352.9245866825053
 20
297.7331170751192
 30
0.0
  0
SPLINE
  5
198
330
1F
100
AcDbEntity
  8
1
100
AcDbSpline
210
0.0
220
0.0
230
1.0
 70
     8
 71
     3
 72
    14
 73
    10
 74
     0
 42
0.000000001
 43
0.0000000001
 40
0.0
 40
0.0
 40
0.0
 40
0.0
 40
0.2499999999999997
 40
0.2499999999999997
 40
0.4999999999999999
 40
0.4999999999999999
 40
0.75
 40
0.75
 40
1.0
 40
1.0
 40
1.0
 40
1.0
 10
352.9245866825053
 20
297.7331170751192
 30
0.0
 10
352.9313598865556
 20
297.7356330385473
 30
0.0
 10
352.9383777258992
 20
297.7373638376717
 30
0.0
 10
352.9523704689233
 20
297.7392462904095
 30
0.0
 10
352.959362075919
 20
297.7394190202473
 30
0.0
 10
352.9733402877442
 20
297.7382758857898
 30
0.0
 10
352.9803163553661
 20
297.7369384925308
 30
0.0
 10
352.9936414380927
 20
297.7329020160797
 30
0.0
 10
353.0000739889057
 20
297.7302003742762
 30
0.0
 10
353.0062696128529
 20
297.7267931813776
 30
0.0
  0
SPLINE
  5
199
330
1F
100
AcDbEntity
  8
1
100
AcDbSpline
210
0.0
220
0.0
230
1.0
 70
     8
 71
     3
 72
    20
 73
    16
 74
     0
 42
0.000000001
 43
0.0000000001
 40
0.0
 40
0.0
 40
0.0
 40
0.0
 40
0.1250000000000345
 40
0.1250000000000345
 40
0.2500000000000692
 40
0.2500000000000692
 40
0.3750000000001037
 40
0.3750000000001037
 40
0.5000000000001382
 40
0.5000000000001382
 40
0.6250000000001728
 40
0.6250000000001728
 40
0.7500000000002074
 40
0.7500000000002074
 40
1.0
 40
1.0
 40
1.0
 40
1.0
 10
353.1295097065665
 20
297.7502848200824
 30
0.0
 10
353.1257821105478
 20
297.7456856755687
 30
0.0
 10
353.1217091263872
 20
297.7415094079147
 30
0.0
 10
353.1129104920271
 20
297.7339573661396
 30
0.0
 10
353.1081330665057
 20
297.7305546060446
 30
0.0
 10
353.0981846342148
 20
297.7247351410863
 30
0.0
 10
353.0930332485092
 20
297.7223148792277
 30
0.0
 10
353.0823954395402
 20
297.7184051541234
 30
0.0
 10
353.0768574085541
 20
297.7169082493133
 30
0.0
 10
353.0656951800198
 20
297.7149217871375
 30
0.0
 10
353.0601122778519
 20
297.7144287521963
 30
0.0
 10
353.0489449714499
 20
297.7143912135083
 30
0.0
 10
353.0433327890475
 20
297.7148518609019
 30
0.0
 10
353.02667882037
 20
297.7176708007487
 30
0.0
 10
353.0161762361519
 20
297.7213451785871
 30
0.0
 10
353.0062696128529
 20
297.7267931813776
 30
0.0
  0
SPLINE
  5
19A
330
1F
100
AcDbEntity
  8
1
100
AcDbSpline
210
0.0
220
0.0
230
1.0
 70
     8
 71
     3
 72
    14
 73
    10
 74
     0
 42
0.000000001
 43
0.0000000001
 40
0.0
 40
0.0
 40
0.0
 40
0.0
 40
0.6053509729438872
 40
0.6053509729438872
 40
0.7566887161798644
 40
0.7566887161798644
 40
0.9080264594158416
 40
0.9080264594158416
 40
1.0
 40
1.0
 40
1.0
 40
1.0
 10
350.7251535057389
 20
298.2821274738276
 30
0.0
 10
350.7147691759085
 20
298.3233912682226
 30
0.0
 10
350.7092859985068
 20
298.3653462320963
 30
0.0
 10
350.7085582108284
 20
298.4186441384372
 30
0.0
 10
350.7087252556333
 20
298.4293695665615
 30
0.0
 10
350.7096785397018
 20
298.4506662807808
 30
0.0
 10
350.7104631247834
 20
298.4612629817694
 30
0.0
 10
350.7122106290028
 20
298.4782181023321
 30
0.0
 10
350.7129826003232
 20
298.4846085698155
 30
0.0
 10
350.7138657445653
 20
298.4909803742852
 30
0.0
  0
SPLINE
  5
19B
330
1F
100
AcDbEntity
  8
1
100
AcDbSpline
210
0.0
220
0.0
230
1.0
 70
     8
 71
     3
 72
    12
 73
     8
 74
     0
 42
0.000000001
 43
0.0000000001
 40
0.0
 40
0.0
 40
0.0
 40
0.0
 40
0.0713656558160678
 40
0.0713656558160678
 40
0.2570925246528596
 40
0.2570925246528596
 40
1.0
 40
1.0
 40
1.0
 40
1.0
 10
353.2147070781751
 20
297.8974216153144
 30
0.0
 10
353.2132258400448
 20
297.8935929274014
 30
0.0
 10
353.2117040088471
 20
297.8897862719226
 30
0.0
 10
353.2060848767906
 20
297.8761747859138
 30
0.0
 10
353.2017576993586
 20
297.866501230523
 30
0.0
 10
353.1788068809015
 20
297.8189171358368
 30
0.0
 10
353.1562898983759
 20
297.7833264832926
 30
0.0
 10
353.1295097065665
 20
297.7502848200824
 30
0.0
  0
SPLINE
  5
19C
330
1F
100
AcDbEntity
  8
1
100
AcDbSpline
210
0.0
220
0.0
230
1.0
 70
     8
 71
     3
 72
    14
 73
    10
 74
     0
 42
0.000000001
 43
0.0000000001
 40
0.0
 40
0.0
 40
0.0
 40
0.0
 40
0.25
 40
0.25
 40
0.5
 40
0.5
 40
0.75
 40
0.75
 40
1.0
 40
1.0
 40
1.0
 40
1.0
 10
351.3593933629203
 20
299.2313154101214
 30
0.0
 10
351.3632205581576
 20
299.2255672819248
 30
0.0
 10
351.3664161842294
 20
299.2194255677122
 30
0.0
 10
351.3714081028096
 20
299.2066445380166
 30
0.0
 10
351.3731971043693
 20
299.2000555140022
 30
0.0
 10
351.3753461528916
 20
299.1864727837427
 30
0.0
 10
351.3756869302737
 20
299.1794449218262
 30
0.0
 10
351.3748306005599
 20
299.1655888127632
 30
0.0
 10
351.3736545362319
 20
299.1586854266054
 30
0.0
 10
351.3716651311776
 20
299.1518059374813
 30
0.0
  0
SPLINE
  5
19D
330
1F
100
AcDbEntity
  8
1
100
AcDbSpline
210
0.0
220
0.0
230
1.0
 70
     8
 71
     3
 72
    12
 73
     8
 74
     0
 42
0.000000001
 43
0.0000000001
 40
0.0
 40
0.0
 40
0.0
 40
0.0
 40
0.4717321844521594
 40
0.4717321844521594
 40
0.9434643689043186
 40
0.9434643689043186
 40
1.0
 40
1.0
 40
1.0
 40
1.0
 10
351.3593933629197
 20
299.2313154101227
 30
0.0
 10
351.3563340735735
 20
299.2359102076865
 30
0.0
 10
351.3536868144598
 20
299.2407438729709
 30
0.0
 10
351.3492826373945
 20
299.2507076561353
 30
0.0
 10
351.3475101653025
 20
299.2558595264927
 30
0.0
 10
351.3460206373333
 20
299.2618240778806
 30
0.0
 10
351.3458677403427
 20
299.2624649147609
 30
0.0
 10
351.3457214146027
 20
299.2631079381715
 30
0.0
  0
SPLINE
  5
19E
330
1F
100
AcDbEntity
  8
1
100
AcDbSpline
210
0.0
220
0.0
230
1.0
 70
     8
 71
     3
 72
    14
 73
    10
 74
     0
 42
0.000000001
 43
0.0000000001
 40
0.0
 40
0.0
 40
0.0
 40
0.0
 40
0.1451158453613637
 40
0.1451158453613637
 40
0.4300772302409091
 40
0.4300772302409091
 40
0.7150386151204545
 40
0.7150386151204545
 40
1.0
 40
1.0
 40
1.0
 40
1.0
 10
352.9122478606473
 20
298.8217753554806
 30
0.0
 10
352.9131798494336
 20
298.8252621310963
 30
0.0
 10
352.9143006158636
 20
298.8286713431821
 30
0.0
 10
352.9181336034962
 20
298.8384550066936
 30
0.0
 10
352.9213285929032
 20
298.8445459047614
 30
0.0
 10
352.9289908825446
 20
298.8559730784498
 30
0.0
 10
352.9334715861939
 20
298.8612894575911
 30
0.0
 10
352.9432998014611
 20
298.8706975488033
 30
0.0
 10
352.9486894397136
 20
298.874859703936
 30
0.0
 10
352.954570367955
 20
298.8784628788454
 30
0.0
  0
SPLINE
  5
19F
330
1F
100
AcDbEntity
  8
1
100
AcDbSpline
210
0.0
220
0.0
230
1.0
 70
     8
 71
     3
 72
     8
 73
     4
 74
     0
 42
0.000000001
 43
0.0000000001
 40
0.0
 40
0.0
 40
0.0
 40
0.0
 40
1.0
 40
1.0
 40
1.0
 40
1.0
 10
352.9715955073452
 20
298.8917355035971
 30
0.0
 10
352.9664633064653
 20
298.8866943455559
 30
0.0
 10
352.9607866192618
 20
298.8822715022158
 30
0.0
 10
352.954570367955
 20
298.8784628788454
 30
0.0
  0
SPLINE
  5
1A0
330
1F
100
AcDbEntity
  8
1
100
AcDbSpline
210
0.0
220
0.0
230
1.0
 70
     8
 71
     3
 72
    36
 73
    32
 74
     0
 42
0.000000001
 43
0.0000000001
 40
0.0
 40
0.0
 40
0.0
 40
0.0
 40
0.1250000000000047
 40
0.1250000000000047
 40
0.1875000000000061
 40
0.1875000000000061
 40
0.2187500000000009
 40
0.2187500000000009
 40
0.2499999999999958
 40
0.2499999999999958
 40
0.3749999999999734
 40
0.3749999999999734
 40
0.4062499999999737
 40
0.4062499999999737
 40
0.4374999999999741
 40
0.4374999999999741
 40
0.4999999999999764
 40
0.4999999999999764
 40
0.624999999999957
 40
0.624999999999957
 40
0.6562499999999522
 40
0.6562499999999522
 40
0.6874999999999475
 40
0.7499999999999378
 40
0.812499999999928
 40
0.812499999999928
 40
0.8437499999999401
 40
0.8437499999999401
 40
0.8749999999999522
 40
0.8749999999999522
 40
1.0
 40
1.0
 40
1.0
 40
1.0
 10
347.5433537997369
 20
294.1709653677264
 30
0.0
 10
347.545634478999
 20
294.1201601925072
 30
0.0
 10
347.5530535316087
 20
294.0704621658728
 30
0.0
 10
347.5714109117788
 20
293.997472692205
 30
0.0
 10
347.5787448749721
 20
293.9734046245102
 30
0.0
 10
347.5915941599583
 20
293.9377007788154
 30
0.0
 10
347.5961994215673
 20
293.9258346010608
 30
0.0
 10
347.6059657621428
 20
293.9024089351372
 30
0.0
 10
347.6111202218356
 20
293.890859855662
 30
0.0
 10
347.638218283545
 20
293.8339147046286
 30
0.0
 10
347.6640998473789
 20
293.7908956333005
 30
0.0
 10
347.7016271384139
 20
293.7402456881778
 30
0.0
 10
347.709393797672
 20
293.7302733631905
 30
0.0
 10
347.7254574451992
 20
293.7106488260661
 30
0.0
 10
347.7337698037387
 20
293.7009817275121
 30
0.0
 10
347.7592484635713
 20
293.6727602887538
 30
0.0
 10
347.7770257833646
 20
293.6548906644386
 30
0.0
 10
347.832666879099
 20
293.6040376213308
 30
0.0
 10
347.872816766642
 20
293.5737825535759
 30
0.0
 10
347.9269556531095
 20
293.5406796535222
 30
0.0
 10
347.9379967736879
 20
293.5342915156516
 30
0.0
 10
347.9602409392399
 20
293.5221321988937
 30
0.0
 10
347.993934355591
 20
293.5047653942307
 30
0.0
 10
348.0516980781843
 20
293.4801074319199
 30
0.0
 10
348.0996135271031
 20
293.4649248714896
 30
0.0
 10
348.1362048593626
 20
293.4552833838327
 30
0.0
 10
348.1485112987911
 20
293.4523610049879
 30
0.0
 10
348.1733480836461
 20
293.4471131399844
 30
0.0
 10
348.185894681243
 20
293.4447865356411
 30
0.0
 10
348.2486058772312
 20
293.4347747969544
 30
0.0
 10
348.2991335135567
 20
293.431798083924
 30
0.0
 10
348.3500313746495
 20
293.4340160414278
 30
0.0
  0
SPLINE
  5
1A1
330
1F
100
AcDbEntity
  8
1
100
AcDbSpline
210
0.0
220
0.0
230
1.0
 70
     8
 71
     3
 72
    36
 73
    32
 74
     0
 42
0.000000001
 43
0.0000000001
 40
0.0
 40
0.0
 40
0.0
 40
0.0
 40
0.1250000000000229
 40
0.1250000000000229
 40
0.1875000000000344
 40
0.1875000000000344
 40
0.2187500000000439
 40
0.2187500000000439
 40
0.2500000000000533
 40
0.2500000000000533
 40
0.3750000000000394
 40
0.3750000000000394
 40
0.4062500000000402
 40
0.4062500000000402
 40
0.4375000000000411
 40
0.4375000000000411
 40
0.5000000000000393
 40
0.5000000000000393
 40
0.6250000000000106
 40
0.6250000000000106
 40
0.6562500000000052
 40
0.6562500000000052
 40
0.6874999999999996
 40
0.7500000000000195
 40
0.8125000000000394
 40
0.8125000000000394
 40
0.8437500000000326
 40
0.8437500000000326
 40
0.8750000000000259
 40
0.8750000000000259
 40
1.0
 40
1.0
 40
1.0
 40
1.0
 10
356.7002807888952
 20
302.54000174282
 30
0.0
 10
356.6980001096332
 20
302.5908069180392
 30
0.0
 10
356.6905810570233
 20
302.6405049446736
 30
0.0
 10
356.6722236768534
 20
302.7134944183414
 30
0.0
 10
356.6648897136599
 20
302.7375624860362
 30
0.0
 10
356.6520404286738
 20
302.773266331731
 30
0.0
 10
356.6474351670648
 20
302.7851325094855
 30
0.0
 10
356.6376688264894
 20
302.8085581754093
 30
0.0
 10
356.6325143667967
 20
302.8201072548843
 30
0.0
 10
356.6054163050872
 20
302.8770524059178
 30
0.0
 10
356.5795347412533
 20
302.9200714772459
 30
0.0
 10
356.5420074502183
 20
302.9707214223686
 30
0.0
 10
356.5342407909601
 20
302.9806937473559
 30
0.0
 10
356.5181771434329
 20
303.0003182844803
 30
0.0
 10
356.5098647848935
 20
303.0099853830344
 30
0.0
 10
356.4843861250608
 20
303.0382068217926
 30
0.0
 10
356.4666088052675
 20
303.0560764461079
 30
0.0
 10
356.4109677095331
 20
303.1069294892156
 30
0.0
 10
356.3708178219902
 20
303.1371845569706
 30
0.0
 10
356.3166789355226
 20
303.1702874570242
 30
0.0
 10
356.3056378149441
 20
303.1766755948948
 30
0.0
 10
356.2833936493921
 20
303.1888349116527
 30
0.0
 10
356.2497002330411
 20
303.2062017163156
 30
0.0
 10
356.1919365104478
 20
303.2308596786265
 30
0.0
 10
356.144021061529
 20
303.2460422390568
 30
0.0
 10
356.1074297292697
 20
303.2556837267138
 30
0.0
 10
356.095123289841
 20
303.2586061055586
 30
0.0
 10
356.0702865049862
 20
303.263853970562
 30
0.0
 10
356.0577399073892
 20
303.2661805749054
 30
0.0
 10
355.9950287114009
 20
303.276192313592
 30
0.0
 10
355.9445010750754
 20
303.2791690266224
 30
0.0
 10
355.8936032139827
 20
303.2769510691187
 30
0.0
  0
SPLINE
  5
1A2
330
1F
100
AcDbEntity
  8
1
100
AcDbSpline
210
0.0
220
0.0
230
1.0
 70
     8
 71
     3
 72
    36
 73
    32
 74
     0
 42
0.000000001
 43
0.0000000001
 40
0.0
 40
0.0
 40
0.0
 40
0.0
 40
0.1249999999999895
 40
0.1249999999999895
 40
0.1874999999999843
 40
0.1874999999999843
 40
0.218749999999981
 40
0.218749999999981
 40
0.2499999999999776
 40
0.2499999999999776
 40
0.3749999999999952
 40
0.3749999999999952
 40
0.4062499999999921
 40
0.4062499999999921
 40
0.4374999999999889
 40
0.4374999999999889
 40
0.4999999999999856
 40
0.4999999999999856
 40
0.6249999999999585
 40
0.6249999999999585
 40
0.6562499999999562
 40
0.6562499999999562
 40
0.6874999999999539
 40
0.7499999999999643
 40
0.8124999999999747
 40
0.8124999999999747
 40
0.8437499999999779
 40
0.8437499999999779
 40
0.8749999999999808
 40
0.8749999999999808
 40
1.0
 40
1.0
 40
1.0
 40
1.0
 10
347.9237657281858
 20
302.929652371768
 30
0.0
 10
347.8728622597089
 20
302.9274341699133
 30
0.0
 10
347.8230740005408
 20
302.9200865091524
 30
0.0
 10
347.7499605181154
 20
302.901848757831
 30
0.0
 10
347.7258530199194
 20
302.8945567785113
 30
0.0
 10
347.6900929280207
 20
302.8817736759771
 30
0.0
 10
347.6782084387832
 20
302.8771910732489
 30
0.0
 10
347.6547473930485
 20
302.8674708014544
 30
0.0
 10
347.6431812583648
 20
302.8623397266767
 30
0.0
 10
347.586153932987
 20
302.8353603025189
 30
0.0
 10
347.5430789556075
 20
302.8095790794381
 30
0.0
 10
347.4923712359128
 20
302.7721839012333
 30
0.0
 10
347.4823879671058
 20
302.7644440020308
 30
0.0
 10
347.4627427830766
 20
302.7484345598362
 30
0.0
 10
347.4530659694092
 20
302.7401496940005
 30
0.0
 10
347.4248175519017
 20
302.714753695303
 30
0.0
 10
347.4069327208116
 20
302.697031973033
 30
0.0
 10
347.3560421645765
 20
302.6415590996109
 30
0.0
 10
347.3257728168278
 20
302.6015232523425
 30
0.0
 10
347.2926659402841
 20
302.5475293628753
 30
0.0
 10
347.286277712116
 20
302.5365173990862
 30
0.0
 10
347.2741196247241
 20
302.5143311639887
 30
0.0
 10
347.2567567694159
 20
302.4807242963384
 30
0.0
 10
347.2321157369282
 20
302.4231031161691
 30
0.0
 10
347.2169576885209
 20
302.3752998934967
 30
0.0
 10
347.2073387981284
 20
302.3387920365254
 30
0.0
 10
347.2044246552284
 20
302.3265133062433
 30
0.0
 10
347.1991947029356
 20
302.3017317022158
 30
0.0
 10
347.1968777916786
 20
302.2892126097657
 30
0.0
 10
347.1869177133048
 20
302.2266370467399
 30
0.0
 10
347.1839927322239
 20
302.1762128857838
 30
0.0
 10
347.1862731602527
 20
302.1254133071211
 30
0.0
  0
SPLINE
  5
1A3
330
1F
100
AcDbEntity
  8
1
100
AcDbSpline
210
0.0
220
0.0
230
1.0
 70
     8
 71
     3
 72
    36
 73
    32
 74
     0
 42
0.000000001
 43
0.0000000001
 40
0.0
 40
0.0
 40
0.0
 40
0.0
 40
0.1249999999999385
 40
0.1249999999999385
 40
0.1874999999999244
 40
0.1874999999999244
 40
0.218749999999917
 40
0.218749999999917
 40
0.2499999999999097
 40
0.2499999999999097
 40
0.3749999999999121
 40
0.3749999999999121
 40
0.4062499999999057
 40
0.4062499999999057
 40
0.4374999999998995
 40
0.4374999999998995
 40
0.4999999999998855
 40
0.4999999999998855
 40
0.6249999999998807
 40
0.6249999999998807
 40
0.6562499999998835
 40
0.6562499999998835
 40
0.6874999999998864
 40
0.7499999999999087
 40
0.8124999999999312
 40
0.8124999999999312
 40
0.8437499999999426
 40
0.8437499999999426
 40
0.8749999999999538
 40
0.8749999999999538
 40
1.0
 40
1.0
 40
1.0
 40
1.0
 10
356.3198688604463
 20
293.7813147387784
 30
0.0
 10
356.3707723289232
 20
293.7835329406331
 30
0.0
 10
356.4205605880911
 20
293.790880601394
 30
0.0
 10
356.4936740705166
 20
293.8091183527154
 30
0.0
 10
356.5177815687127
 20
293.8164103320352
 30
0.0
 10
356.5535416606114
 20
293.8291934345693
 30
0.0
 10
356.5654261498488
 20
293.8337760372975
 30
0.0
 10
356.5888871955837
 20
293.8434963090919
 30
0.0
 10
356.6004533302673
 20
293.8486273838697
 30
0.0
 10
356.6574806556451
 20
293.8756068080274
 30
0.0
 10
356.7005556330246
 20
293.9013880311082
 30
0.0
 10
356.7512633527193
 20
293.9387832093131
 30
0.0
 10
356.7612466215263
 20
293.9465231085157
 30
0.0
 10
356.7808918055555
 20
293.9625325507102
 30
0.0
 10
356.790568619223
 20
293.970817416546
 30
0.0
 10
356.8188170367305
 20
293.9962134152434
 30
0.0
 10
356.8367018678206
 20
294.0139351375134
 30
0.0
 10
356.8875924240556
 20
294.0694080109355
 30
0.0
 10
356.9178617718043
 20
294.1094438582039
 30
0.0
 10
356.950968648348
 20
294.1634377476711
 30
0.0
 10
356.9573568765161
 20
294.1744497114602
 30
0.0
 10
356.9695149639082
 20
294.1966359465578
 30
0.0
 10
356.9868778192161
 20
294.2302428142081
 30
0.0
 10
357.011518851704
 20
294.2878639943773
 30
0.0
 10
357.0266769001112
 20
294.3356672170497
 30
0.0
 10
357.0362957905037
 20
294.372175074021
 30
0.0
 10
357.0392099334039
 20
294.3844538043031
 30
0.0
 10
357.0444398856965
 20
294.4092354083306
 30
0.0
 10
357.0467567969535
 20
294.4217545007806
 30
0.0
 10
357.0567168753274
 20
294.4843300638065
 30
0.0
 10
357.0596418564082
 20
294.5347542247627
 30
0.0
 10
357.0573614283794
 20
294.5855538034253
 30
0.0
  0
SPLINE
  5
1A4
330
1F
100
AcDbEntity
  8
1
100
AcDbSpline
210
0.0
220
0.0
230
1.0
 70
     8
 71
     3
 72
    12
 73
     8
 74
     0
 42
0.000000001
 43
0.0000000001
 40
0.0
 40
0.0
 40
0.0
 40
0.0
 40
0.3642157994030858
 40
0.3642157994030858
 40
0.7284315988061716
 40
0.7284315988061716
 40
1.0
 40
1.0
 40
1.0
 40
1.0
 10
295.8494806099973
 20
302.8974286806733
 30
0.0
 10
295.5435710572164
 20
302.8997262032045
 30
0.0
 10
295.2383209798849
 20
302.901760757694
 30
0.0
 10
294.6288883520828
 20
302.9050579923477
 30
0.0
 10
294.3247050510699
 20
302.9063211929476
 30
0.0
 10
293.7945039020831
 20
302.9076787161032
 30
0.0
 10
293.5682852167306
 20
302.9079891931136
 30
0.0
 10
293.3423058446813
 20
302.9079934483592
 30
0.0
  0
SPLINE
  5
1A5
330
1F
100
AcDbEntity
  8
1
100
AcDbSpline
210
0.0
220
0.0
230
1.0
 70
     8
 71
     3
 72
    28
 73
    24
 74
     0
 42
0.000000001
 43
0.0000000001
 40
0.0
 40
0.0
 40
0.0
 40
0.0
 40
0.0624999999999999
 40
0.0624999999999999
 40
0.1249999999999998
 40
0.1249999999999998
 40
0.1874999999999998
 40
0.1874999999999998
 40
0.2499999999999997
 40
0.2499999999999997
 40
0.3749999999999996
 40
0.3749999999999996
 40
0.4999999999999994
 40
0.4999999999999994
 40
0.5312499999999995
 40
0.5312499999999995
 40
0.5624999999999993
 40
0.5624999999999993
 40
0.6249999999999992
 40
0.6249999999999992
 40
0.7499999999999991
 40
0.7499999999999991
 40
1.0
 40
1.0
 40
1.0
 40
1.0
 10
341.7902869026391
 20
292.2187341233225
 30
0.0
 10
341.6063965735917
 20
292.3160419284297
 30
0.0
 10
341.4224030146604
 20
292.414712057729
 30
0.0
 10
341.0542531442881
 20
292.6142001602856
 30
0.0
 10
340.8700966448679
 20
292.7150206142994
 30
0.0
 10
340.501651235675
 20
292.9184089410024
 30
0.0
 10
340.3173622174237
 20
293.0209782452828
 30
0.0
 10
339.9486736267239
 20
293.2275758369609
 30
0.0
 10
339.7642739877864
 20
293.3316050018132
 30
0.0
 10
339.2109330471358
 20
293.6455667841583
 30
0.0
 10
338.8418512815616
 20
293.8573531024346
 30
0.0
 10
338.1033905735301
 20
294.2848475806346
 30
0.0
 10
337.7340110029376
 20
294.5005640300549
 30
0.0
 10
337.2721215959149
 20
294.7723863539922
 30
0.0
 10
337.1797353827257
 20
294.8268607732954
 30
0.0
 10
336.994946515156
 20
294.9360265862097
 30
0.0
 10
336.9025321929861
 20
294.9907249957042
 30
0.0
 10
336.6257150092327
 20
295.1548758985666
 30
0.0
 10
336.4415891340249
 20
295.2644712099091
 30
0.0
 10
335.8904562379897
 20
295.5937366448047
 30
0.0
 10
335.5247013526545
 20
295.813889122164
 30
0.0
 10
334.4324601070398
 20
296.476281697155
 30
0.0
 10
333.7109643188439
 20
296.9204442875647
 30
0.0
 10
332.9962403378701
 20
297.3672155469332
 30
0.0
  0
SPLINE
  5
1A6
330
1F
100
AcDbEntity
  8
1
100
AcDbSpline
210
0.0
220
0.0
230
1.0
 70
     8
 71
     3
 72
    28
 73
    24
 74
     0
 42
0.000000001
 43
0.0000000001
 40
0.0
 40
0.0
 40
0.0
 40
0.0
 40
0.1249999999999973
 40
0.1249999999999973
 40
0.2499999999999945
 40
0.2499999999999945
 40
0.3124999999999928
 40
0.3124999999999928
 40
0.3749999999999911
 40
0.3749999999999911
 40
0.4999999999999882
 40
0.4999999999999882
 40
0.6249999999999854
 40
0.6249999999999854
 40
0.6562499999999975
 40
0.6562499999999975
 40
0.6875000000000096
 40
0.6875000000000096
 40
0.7500000000000076
 40
0.7500000000000076
 40
0.8750000000000039
 40
0.8750000000000039
 40
1.0
 40
1.0
 40
1.0
 40
1.0
 10
350.005280594467
 20
293.134521916772
 30
0.0
 10
349.9518497499719
 20
293.0942998135559
 30
0.0
 10
349.8970201251375
 20
293.056991441162
 30
0.0
 10
349.7844936693762
 20
292.9879059664929
 30
0.0
 10
349.7267984895099
 20
292.9561307702309
 30
0.0
 10
349.6379875810443
 20
292.9125992953855
 30
0.0
 10
349.6079635052905
 20
292.8987615157457
 30
0.0
 10
349.5473121061026
 20
292.8725669665881
 30
0.0
 10
349.5167862602739
 20
292.8602513208335
 30
0.0
 10
349.4245601528994
 20
292.8256126860763
 30
0.0
 10
349.3622148897718
 20
292.8055878874186
 30
0.0
 10
349.2354689165808
 20
292.771724924103
 30
0.0
 10
349.1710670211842
 20
292.7578862221799
 30
0.0
 10
349.0890081136113
 20
292.7446948411979
 30
0.0
 10
349.072487590746
 20
292.7422588892795
 30
0.0
 10
349.0394647250603
 20
292.7378319830162
 30
0.0
 10
349.0229645144556
 20
292.7358402719769
 30
0.0
 10
348.97349917934
 20
292.7305249953239
 30
0.0
 10
348.9405695718922
 20
292.7278611641203
 30
0.0
 10
348.8419281728189
 20
292.722470698496
 30
0.0
 10
348.7763669725941
 20
292.7223422722644
 30
0.0
 10
348.6455923733254
 20
292.7288683969441
 30
0.0
 10
348.5803771279574
 20
292.7355199004945
 30
0.0
 10
348.5152709759434
 20
292.745552869495
 30
0.0
  0
SPLINE
  5
1A7
330
1F
100
AcDbEntity
  8
1
100
AcDbSpline
210
0.0
220
0.0
230
1.0
 70
     8
 71
     3
 72
    18
 73
    14
 74
     0
 42
0.000000001
 43
0.0000000001
 40
0.0
 40
0.0
 40
0.0
 40
0.0
 40
0.2500000000000062
 40
0.2500000000000062
 40
0.5000000000000124
 40
0.5000000000000124
 40
0.5625000000000138
 40
0.5625000000000138
 40
0.6250000000000153
 40
0.6250000000000153
 40
0.7500000000000103
 40
0.7500000000000103
 40
1.0
 40
1.0
 40
1.0
 40
1.0
 10
348.5145524169003
 20
292.5298596080228
 30
0.0
 10
348.0968626689676
 20
292.5115028588421
 30
0.0
 10
347.6807960793991
 20
292.5136489610171
 30
0.0
 10
346.8518390285112
 20
292.5580033349301
 30
0.0
 10
346.4389486727313
 20
292.6002134403683
 30
0.0
 10
345.924837512664
 20
292.6781637085562
 30
0.0
 10
345.8221156053643
 20
292.695015987659
 30
0.0
 10
345.6168738123455
 20
292.7312601795573
 30
0.0
 10
345.5142678560051
 20
292.7506705341484
 30
0.0
 10
345.2076535722441
 20
292.8125533467338
 30
0.0
 10
345.0047217096251
 20
292.8586878338566
 30
0.0
 10
344.4003233706799
 20
293.0115766262832
 30
0.0
 10
344.0032430292099
 20
293.1327830337983
 30
0.0
 10
343.612053582738
 20
293.2732736161129
 30
0.0
  0
SPLINE
  5
1A8
330
1F
100
AcDbEntity
  8
1
100
AcDbSpline
210
0.0
220
0.0
230
1.0
 70
     8
 71
     3
 72
     8
 73
     4
 74
     0
 42
0.000000001
 43
0.0000000001
 40
0.0
 40
0.0
 40
0.0
 40
0.0
 40
1.0
 40
1.0
 40
1.0
 40
1.0
 10
348.5145524169003
 20
292.5298596080228
 30
0.0
 10
348.5182828836656
 20
292.5300235556491
 30
0.0
 10
348.5220144220599
 20
292.5301868573515
 30
0.0
 10
348.5257470339313
 20
292.5303495120158
 30
0.0
  0
SPLINE
  5
1A9
330
1F
100
AcDbEntity
  8
1
100
AcDbSpline
210
0.0
220
0.0
230
1.0
 70
     8
 71
     3
 72
    28
 73
    24
 74
     0
 42
0.000000001
 43
0.0000000001
 40
0.0
 40
0.0
 40
0.0
 40
0.0
 40
0.1250000000000051
 40
0.1250000000000051
 40
0.2500000000000102
 40
0.2500000000000102
 40
0.2812500000000088
 40
0.2812500000000088
 40
0.3125000000000075
 40
0.3750000000000047
 40
0.3750000000000047
 40
0.4999999999999993
 40
0.4999999999999993
 40
0.5312499999999993
 40
0.5312499999999993
 40
0.5624999999999995
 40
0.5624999999999995
 40
0.6249999999999996
 40
0.6249999999999996
 40
0.7499999999999997
 40
0.8749999999999998
 40
0.8749999999999998
 40
1.0
 40
1.0
 40
1.0
 40
1.0
 10
341.8137898836259
 20
291.5317950014524
 30
0.0
 10
342.0663795447113
 20
291.3744999938335
 30
0.0
 10
342.324434978042
 20
291.2270979192268
 30
0.0
 10
342.8513316004723
 20
290.9521180817354
 30
0.0
 10
343.1201723794686
 20
290.824539189377
 30
0.0
 10
343.4629708795698
 20
290.6776346858576
 30
0.0
 10
343.5319063195414
 20
290.6488678288968
 30
0.0
 10
343.6702101092324
 20
290.5926975217671
 30
0.0
 10
343.878336103885
 20
290.5104754825924
 30
0.0
 10
344.0884613978875
 20
290.4343296243131
 30
0.0
 10
344.5113574544279
 20
290.2901051416959
 30
0.0
 10
344.7968115422699
 20
290.2047007365199
 30
0.0
 10
345.158023893767
 20
290.1114253301498
 30
0.0
 10
345.2304864073733
 20
290.0934451200792
 30
0.0
 10
345.3758525285273
 20
290.0588391882655
 30
0.0
 10
345.4487254935141
 20
290.0422219127476
 30
0.0
 10
345.6673935141895
 20
289.9945346376758
 30
0.0
 10
345.813430616132
 20
289.9655816607826
 30
0.0
 10
346.252306042108
 20
289.8871270162505
 30
0.0
 10
346.8395085135647
 20
289.8049071251282
 30
0.0
 10
347.4307223612428
 20
289.7668934737032
 30
0.0
 10
348.0239511322388
 20
289.7511043291498
 30
0.0
 10
348.3215728729808
 20
289.7543208649187
 30
0.0
 10
348.6202267604514
 20
289.7689202105127
 30
0.0
  0
SPLINE
  5
1AA
330
1F
100
AcDbEntity
  8
1
100
AcDbSpline
210
0.0
220
0.0
230
1.0
 70
     8
 71
     3
 72
    87
 73
    83
 74
     0
 42
0.000000001
 43
0.0000000001
 40
0.0
 40
0.0
 40
0.0
 40
0.0
 40
0.0625000000000034
 40
0.0625000000000034
 40
0.1250000000000069
 40
0.1250000000000069
 40
0.1875000000000104
 40
0.1875000000000104
 40
0.2500000000000138
 40
0.2500000000000138
 40
0.2812500000000157
 40
0.2812500000000157
 40
0.2968750000000167
 40
0.2968750000000167
 40
0.3125000000000175
 40
0.3125000000000175
 40
0.3437500000000194
 40
0.3437500000000194
 40
0.3750000000000212
 40
0.3750000000000212
 40
0.406250000000023
 40
0.406250000000023
 40
0.437500000000025
 40
0.437500000000025
 40
0.4531250000000259
 40
0.4531250000000259
 40
0.4609375000000263
 40
0.4609375000000263
 40
0.4687500000000269
 40
0.4687500000000269
 40
0.5000000000000288
 40
0.5000000000000288
 40
0.5156250000000297
 40
0.5156250000000297
 40
0.5195312500000301
 40
0.5195312500000301
 40
0.5234375000000303
 40
0.5234375000000303
 40
0.5312500000000307
 40
0.5312500000000307
 40
0.562500000000032
 40
0.562500000000032
 40
0.5664062500000317
 40
0.5664062500000317
 40
0.5703125000000313
 40
0.5781250000000293
 40
0.5937500000000253
 40
0.5937500000000253
 40
0.6015625000000232
 40
0.6054687500000233
 40
0.6054687500000233
 40
0.6093750000000235
 40
0.6093750000000235
 40
0.6250000000000218
 40
0.6250000000000218
 40
0.6406250000000201
 40
0.6406250000000201
 40
0.6562500000000183
 40
0.6562500000000183
 40
0.6640625000000188
 40
0.6640625000000188
 40
0.6718750000000192
 40
0.6718750000000192
 40
0.6875000000000174
 40
0.6875000000000174
 40
0.7187500000000135
 40
0.7187500000000135
 40
0.7500000000000099
 40
0.7500000000000099
 40
0.7812500000000062
 40
0.7812500000000062
 40
0.7968750000000057
 40
0.7968750000000057
 40
0.8125000000000051
 40
0.8125000000000051
 40
0.8437500000000042
 40
0.8437500000000042
 40
0.8750000000000035
 40
0.8750000000000035
 40
0.9375000000000017
 40
0.9375000000000017
 40
1.0
 40
1.0
 40
1.0
 40
1.0
 10
343.612053582738
 20
293.2732736161129
 30
0.0
 10
343.8180962567583
 20
293.1549867811106
 30
0.0
 10
344.0219043823177
 20
293.0427692178945
 30
0.0
 10
344.4235135802165
 20
292.8292547936707
 30
0.0
 10
344.6213189693901
 20
292.7279608030391
 30
0.0
 10
345.0089898936371
 20
292.5349968853837
 30
0.0
 10
345.1988646644803
 20
292.4433303594734
 30
0.0
 10
345.5681523211574
 20
292.2681489747699
 30
0.0
 10
345.7475863450103
 20
292.1846395050595
 30
0.0
 10
346.006242186743
 20
292.0641593605418
 30
0.0
 10
346.0907020883766
 20
292.02479386845
 30
0.0
 10
346.2142904344368
 20
291.9667360015838
 30
0.0
 10
346.2549685101212
 20
291.9475481539267
 30
0.0
 10
346.3351946768549
 20
291.9094643533908
 30
0.0
 10
346.3747409517321
 20
291.890568758854
 30
0.0
 10
346.4909319619555
 20
291.834546358799
 30
0.0
 10
346.565340127124
 20
291.7979890075309
 30
0.0
 10
346.7071119113837
 20
291.7261176728434
 30
0.0
 10
346.7744811539196
 20
291.6908040141538
 30
0.0
 10
346.9008973638024
 20
291.6210532947886
 30
0.0
 10
346.9599549674301
 20
291.5866167220323
 30
0.0
 10
347.0678942553461
 20
291.518212717736
 30
0.0
 10
347.1167982142597
 20
291.4842460119219
 30
0.0
 10
347.1803546828354
 20
291.4332982668666
 30
0.0
 10
347.1998970651113
 20
291.4163155433394
 30
0.0
 10
347.2263394739257
 20
291.3907917715927
 30
0.0
 10
347.2346739401001
 20
291.3822755224245
 30
0.0
 10
347.2502989868472
 20
291.3652175583747
 30
0.0
 10
347.2575955705109
 20
291.3566682703537
 30
0.0
 10
347.2911577880575
 20
291.3139164809446
 30
0.0
 10
347.3083594325951
 20
291.2802280155288
 30
0.0
 10
347.3152284411797
 20
291.2304815574816
 30
0.0
 10
347.314341215026
 20
291.2140330733409
 30
0.0
 10
347.3085632789838
 20
291.1936743518468
 30
0.0
 10
347.3071734301989
 20
291.1896128271543
 30
0.0
 10
347.3039042161397
 20
291.1815116458476
 30
0.0
 10
347.3020216310491
 20
291.1774665413112
 30
0.0
 10
347.2956373234857
 20
291.1654226647154
 30
0.0
 10
347.2903994070334
 20
291.1575079609678
 30
0.0
 10
347.25909066205
 20
291.1185513007634
 30
0.0
 10
347.2177312210362
 20
291.089306645624
 30
0.0
 10
347.1491991004041
 20
291.0596395881233
 30
0.0
 10
347.1412659716127
 20
291.0563850920562
 30
0.0
 10
347.1249006922335
 20
291.0500211060847
 30
0.0
 10
347.0995689958222
 20
291.0406759659906
 30
0.0
 10
347.0350448327457
 20
291.0202946112912
 30
0.0
 10
346.9706914398027
 20
291.0053334040235
 30
0.0
 10
346.9006464345587
 20
290.9921491416196
 30
0.0
 10
346.8642014276243
 20
290.9860014748343
 30
0.0
 10
346.8256904487968
 20
290.9805416200983
 30
0.0
 10
346.7995651982387
 20
290.9770569665048
 30
0.0
 10
346.7862694382889
 20
290.9753917697208
 30
0.0
 10
346.7191325254684
 20
290.9675088852744
 30
0.0
 10
346.6629851427954
 20
290.9625706873695
 30
0.0
 10
346.5466620433341
 20
290.9552673704092
 30
0.0
 10
346.4864846939037
 20
290.9529028066911
 30
0.0
 10
346.3627860299824
 20
290.950622435027
 30
0.0
 10
346.2992636488901
 20
290.9507069562724
 30
0.0
 10
346.2018963482514
 20
290.9525952354505
 30
0.0
 10
346.1690396160321
 20
290.9535205052459
 30
0.0
 10
346.1029631109835
 20
290.9559370156421
 30
0.0
 10
346.0697787102189
 20
290.9574258060163
 30
0.0
 10
345.9698462570253
 20
290.9626964955233
 30
0.0
 10
345.9027210036902
 20
290.9672814396045
 30
0.0
 10
345.7002190976397
 20
290.9840069328269
 30
0.0
 10
345.5637350163357
 20
290.9991065734488
 30
0.0
 10
345.2892138123559
 20
291.0363061111175
 30
0.0
 10
345.1511670042311
 20
291.0584118311667
 30
0.0
 10
344.8744053499678
 20
291.1090540188588
 30
0.0
 10
344.7356856445459
 20
291.137593259694
 30
0.0
 10
344.5275525867823
 20
291.1849385810062
 30
0.0
 10
344.4581641195138
 20
291.201477678821
 30
0.0
 10
344.3194227638118
 20
291.2360350109306
 30
0.0
 10
344.2500536170958
 20
291.2540589108849
 30
0.0
 10
344.0426994031055
 20
291.3101292001653
 30
0.0
 10
343.9052557680754
 20
291.3502222213906
 30
0.0
 10
343.632108846842
 20
291.4355695673926
 30
0.0
 10
343.496404779504
 20
291.4808247088613
 30
0.0
 10
343.0920555812522
 20
291.6240691068537
 30
0.0
 10
342.8261825020652
 20
291.7295110335845
 30
0.0
 10
342.302291824493
 20
291.9596421118393
 30
0.0
 10
342.0442669814693
 20
292.0843374742975
 30
0.0
 10
341.790286902639
 20
292.2187341233216
 30
0.0
  0
SPLINE
  5
1AB
330
1F
100
AcDbEntity
  8
1
100
AcDbSpline
210
0.0
220
0.0
230
1.0
 70
     8
 71
     3
 72
    41
 73
    37
 74
     0
 42
0.000000001
 43
0.0000000001
 40
0.0
 40
0.0
 40
0.0
 40
0.0
 40
0.1249999999999883
 40
0.1249999999999883
 40
0.2499999999999766
 40
0.2499999999999766
 40
0.3749999999999649
 40
0.3749999999999649
 40
0.4062499999999618
 40
0.4062499999999618
 40
0.4374999999999586
 40
0.4374999999999586
 40
0.4999999999999708
 40
0.4999999999999708
 40
0.562499999999983
 40
0.562499999999983
 40
0.5937499999999875
 40
0.5937499999999875
 40
0.6249999999999919
 40
0.6249999999999919
 40
0.6875000000000053
 40
0.6875000000000053
 40
0.7187500000000107
 40
0.7187500000000107
 40
0.7500000000000162
 40
0.7812500000000218
 40
0.7812500000000218
 40
0.8125000000000271
 40
0.8125000000000271
 40
0.8750000000000401
 40
0.8750000000000401
 40
0.90625000000003
 40
0.90625000000003
 40
0.9375000000000198
 40
0.9375000000000198
 40
1.0
 40
1.0
 40
1.0
 40
1.0
 10
343.0706826883589
 20
293.5140689770721
 30
0.0
 10
343.0384866489632
 20
293.5292544677121
 30
0.0
 10
343.0076110194161
 20
293.5457275267245
 30
0.0
 10
342.9489392601109
 20
293.5816720215556
 30
0.0
 10
342.9211328805884
 20
293.6011335394038
 30
0.0
 10
342.8694245189592
 20
293.6438545847718
 30
0.0
 10
342.8454877635245
 20
293.6670804760359
 30
0.0
 10
342.8191257991031
 20
293.6995716296921
 30
0.0
 10
342.8140338699773
 20
293.7062529358288
 30
0.0
 10
342.8043752264094
 20
293.7198551601417
 30
0.0
 10
342.7997935859488
 20
293.7267933693734
 30
0.0
 10
342.7868666642739
 20
293.7480605553403
 30
0.0
 10
342.7793287489326
 20
293.7628362546023
 30
0.0
 10
342.7670068647242
 20
293.7939094618654
 30
0.0
 10
342.7623438826525
 20
293.8099197049173
 30
0.0
 10
342.7580952361989
 20
293.834702825177
 30
0.0
 10
342.7571373005946
 20
293.8430966905761
 30
0.0
 10
342.7562564120483
 20
293.8601839379768
 30
0.0
 10
342.7563377933659
 20
293.8689282518553
 30
0.0
 10
342.7583405689454
 20
293.8953015405506
 30
0.0
 10
342.7619689688333
 20
293.9128620919987
 30
0.0
 10
342.7712299099063
 20
293.9391634838822
 30
0.0
 10
342.7749881232643
 20
293.9479735355469
 30
0.0
 10
342.7836099018677
 20
293.9650965676115
 30
0.0
 10
342.793356778618
 20
293.9818214995783
 30
0.0
 10
342.8052543002359
 20
293.9977846351158
 30
0.0
 10
342.8181925492635
 20
294.0133787799983
 30
0.0
 10
342.8251571311823
 20
294.0209512677292
 30
0.0
 10
342.8469678224728
 20
294.0426115772906
 30
0.0
 10
342.8628792978798
 20
294.0558442952064
 30
0.0
 10
342.8883981765912
 20
294.074238276845
 30
0.0
 10
342.8972120009231
 20
294.0801423279154
 30
0.0
 10
342.9151179781758
 20
294.0913643663663
 30
0.0
 10
342.92422638635
 20
294.0966969359321
 30
0.0
 10
342.9519591369536
 20
294.1119645342814
 30
0.0
 10
342.9709882268194
 20
294.1211744291715
 30
0.0
 10
342.990449679034
 20
294.1296097853766
 30
0.0
  0
SPLINE
  5
1AC
330
1F
100
AcDbEntity
  8
1
100
AcDbSpline
210
0.0
220
0.0
230
1.0
 70
     8
 71
     3
 72
    17
 73
    13
 74
     0
 42
0.000000001
 43
0.0000000001
 40
0.0
 40
0.0
 40
0.0
 40
0.0
 40
0.2500000000000011
 40
0.5000000000000023
 40
0.5000000000000023
 40
0.7500000000000034
 40
0.7500000000000034
 40
0.8125000000000024
 40
0.8125000000000024
 40
0.8750000000000015
 40
0.8750000000000015
 40
1.0
 40
1.0
 40
1.0
 40
1.0
 10
295.6027326105451
 20
275.2495283333475
 30
0.0
 10
295.7861929996371
 20
275.2658236625294
 30
0.0
 10
296.157409575939
 20
275.295637466758
 30
0.0
 10
296.5372638783584
 20
275.3183981030449
 30
0.0
 10
296.9215390255804
 20
275.3369957607169
 30
0.0
 10
297.1158865671052
 20
275.3442132745045
 30
0.0
 10
297.3617021805008
 20
275.3503006611276
 30
0.0
 10
297.4110095984557
 20
275.3513716626302
 30
0.0
 10
297.50991698081
 20
275.3532133954745
 30
0.0
 10
297.5594990262041
 20
275.353983240042
 30
0.0
 10
297.7078385533108
 20
275.3558254149309
 30
0.0
 10
297.8064691191454
 20
275.3564357718906
 30
0.0
 10
297.9048419452959
 20
275.3564357718906
 30
0.0
  0
SPLINE
  5
1AD
330
1F
100
AcDbEntity
  8
1
100
AcDbSpline
210
0.0
220
0.0
230
1.0
 70
     8
 71
     3
 72
    28
 73
    24
 74
     0
 42
0.000000001
 43
0.0000000001
 40
0.0
 40
0.0
 40
0.0
 40
0.0
 40
0.0969748629766553
 40
0.0969748629766553
 40
0.1973109893125822
 40
0.1973109893125822
 40
0.2976471156485092
 40
0.2976471156485092
 40
0.3979832419844361
 40
0.3979832419844361
 40
0.498319368320363
 40
0.498319368320363
 40
0.5484874314883271
 40
0.5484874314883271
 40
0.5986554946562909
 40
0.5986554946562909
 40
0.6989916209922181
 40
0.6989916209922181
 40
0.7993277473281454
 40
0.7993277473281454
 40
0.8996638736640727
 40
0.8996638736640727
 40
1.0
 40
1.0
 40
1.0
 40
1.0
 10
315.5170692776831
 20
277.7912979759674
 30
0.0
 10
314.9580637715656
 20
277.6621388147382
 30
0.0
 10
314.3992856176461
 20
277.5363973041507
 30
0.0
 10
313.2616288281446
 20
277.2894084798073
 30
0.0
 10
312.6826290567678
 20
277.1684559471625
 30
0.0
 10
311.5234493598551
 20
276.9375744291154
 30
0.0
 10
310.9431919179473
 20
276.8276290167303
 30
0.0
 10
309.7802661736685
 20
276.6195961949149
 30
0.0
 10
309.1975960829567
 20
276.5215069472707
 30
0.0
 10
308.0289566717958
 20
276.3374168262574
 30
0.0
 10
307.442986732139
 20
276.2514120270202
 30
0.0
 10
306.561063029083
 20
276.1312323546302
 30
0.0
 10
306.2665955005214
 20
276.0926398325839
 30
0.0
 10
305.6766140485192
 20
276.0183101251744
 30
0.0
 10
305.3810631323195
 20
275.982568900706
 30
0.0
 10
304.4933725419905
 20
275.8795443114778
 30
0.0
 10
303.9000245605137
 20
275.8164430043741
 30
0.0
 10
302.7100160596988
 20
275.700351709786
 30
0.0
 10
302.1133565696391
 20
275.647357608765
 30
0.0
 10
300.9166590595619
 20
275.5502975714545
 30
0.0
 10
300.3166220946494
 20
275.5062286940441
 30
0.0
 10
299.1132080577161
 20
275.4258214220703
 30
0.0
 10
298.5098319296906
 20
275.3894811726094
 30
0.0
 10
297.9048419452957
 20
275.3564357718907
 30
0.0
  0
SPLINE
  5
1AE
330
1F
100
AcDbEntity
  8
1
100
AcDbSpline
210
0.0
220
0.0
230
1.0
 70
     8
 71
     3
 72
    12
 73
     8
 74
     0
 42
0.000000001
 43
0.0000000001
 40
0.0
 40
0.0
 40
0.0
 40
0.0
 40
0.2499999999999992
 40
0.2499999999999992
 40
0.4999999999999984
 40
0.4999999999999984
 40
1.0
 40
1.0
 40
1.0
 40
1.0
 10
292.2038318185191
 20
275.0920699830554
 30
0.0
 10
292.4846283968213
 20
275.1048253436607
 30
0.0
 10
292.7659665921817
 20
275.1178757480407
 30
0.0
 10
293.3297957653287
 20
275.14429414976
 30
0.0
 10
293.6122869592024
 20
275.1576625554998
 30
0.0
 10
294.4616910784798
 20
275.1977504390271
 30
0.0
 10
295.0305154777122
 20
275.2244812657271
 30
0.0
 10
295.6027326105452
 20
275.2495283333475
 30
0.0
  0
SPLINE
  5
1AF
330
1F
100
AcDbEntity
  8
1
100
AcDbSpline
210
0.0
220
0.0
230
1.0
 70
     8
 71
     3
 72
    18
 73
    14
 74
     0
 42
0.000000001
 43
0.0000000001
 40
0.0
 40
0.0
 40
0.0
 40
0.0
 40
0.250000000000009
 40
0.250000000000009
 40
0.500000000000018
 40
0.500000000000018
 40
0.750000000000027
 40
0.750000000000027
 40
0.8125000000000198
 40
0.8125000000000198
 40
0.8750000000000127
 40
0.8750000000000127
 40
1.0
 40
1.0
 40
1.0
 40
1.0
 10
348.5152709759453
 20
292.7455528694948
 30
0.0
 10
348.4427144494639
 20
292.7567339539
 30
0.0
 10
348.3716413390686
 20
292.7718588488382
 30
0.0
 10
348.2318765057875
 20
292.8095481956172
 30
0.0
 10
348.1631877198638
 20
292.8321148600953
 30
0.0
 10
348.0277968046466
 20
292.8846941537225
 30
0.0
 10
347.9610984143766
 20
292.9147045298594
 30
0.0
 10
347.8787743723776
 20
292.9571493455552
 30
0.0
 10
347.8623602676442
 20
292.965888353834
 30
0.0
 10
347.8298562928824
 20
292.9837461793491
 30
0.0
 10
347.8137386317376
 20
292.9928790001268
 30
0.0
 10
347.7657850748143
 20
293.0208816403835
 30
0.0
 10
347.734348360617
 20
293.0403553546403
 30
0.0
 10
347.7034376812632
 20
293.0606182629589
 30
0.0
  0
SPLINE
  5
1B0
330
1F
100
AcDbEntity
  8
1
100
AcDbSpline
210
0.0
220
0.0
230
1.0
 70
    12
 71
     2
 72
     6
 73
     3
 74
     0
 42
0.000000001
 43
0.0000000001
 40
0.0
 40
0.0
 40
0.0
 40
1.0
 40
1.0
 40
1.0
 10
346.9598325735084
 20
302.8241570991288
 30
0.0
 41
0.5000000747953133
 10
347.0720561690904
 20
302.8239430401815
 30
0.0
 41
0.4999999252046868
 10
347.1842783721668
 20
302.8237284363296
 30
0.0
 41
0.5000000747953133
  0
SPLINE
  5
1B1
330
1F
100
AcDbEntity
  8
1
100
AcDbSpline
210
0.0
220
0.0
230
1.0
 70
     8
 71
     3
 72
    17
 73
    13
 74
     0
 42
0.000000001
 43
0.0000000001
 40
0.0
 40
0.0
 40
0.0
 40
0.0
 40
0.2499999999999988
 40
0.2499999999999988
 40
0.4999999999999977
 40
0.7499999999999965
 40
0.7499999999999965
 40
0.8124999999999962
 40
0.8124999999999962
 40
0.8749999999999959
 40
0.8749999999999959
 40
1.0
 40
1.0
 40
1.0
 40
1.0
 10
297.9048419452951
 20
302.8766227786378
 30
0.0
 10
297.7286663181227
 20
302.8766227786378
 30
0.0
 10
297.5536995102398
 20
302.8771949687265
 30
0.0
 10
297.2061090237871
 20
302.8793602148805
 30
0.0
 10
296.860861975809
 20
302.8825457014439
 30
0.0
 10
296.5202454801182
 20
302.8872312944845
 30
0.0
 10
296.3088168395881
 20
302.8903655941954
 30
0.0
 10
296.2666040516828
 20
302.8910023613263
 30
0.0
 10
296.1823250289486
 20
302.8922875585132
 30
0.0
 10
296.1402838240333
 20
302.8929356093868
 30
0.0
 10
296.0147692454566
 20
302.8948779728836
 30
0.0
 10
295.9317839166191
 20
302.8961725556716
 30
0.0
 10
295.8494806099967
 20
302.8974286806745
 30
0.0
  0
SPLINE
  5
1B2
330
1F
100
AcDbEntity
  8
1
100
AcDbSpline
210
0.0
220
0.0
230
1.0
 70
     8
 71
     3
 72
     8
 73
     4
 74
     0
 42
0.000000001
 43
0.0000000001
 40
0.0
 40
0.0
 40
0.0
 40
0.0
 40
1.0
 40
1.0
 40
1.0
 40
1.0
 10
346.2500282335229
 20
298.3513096030764
 30
0.0
 10
346.262263482117
 20
299.830742077486
 30
0.0
 10
346.2718024102742
 20
301.3101981200664
 30
0.0
 10
346.279914382476
 20
302.7896633379897
 30
0.0
  0
SPLINE
  5
1B3
330
1F
100
AcDbEntity
  8
1
100
AcDbSpline
210
0.0
220
0.0
230
1.0
 70
    12
 71
     2
 72
     6
 73
     3
 74
     0
 42
0.000000001
 43
0.0000000001
 40
0.0
 40
0.0
 40
0.0
 40
1.0
 40
1.0
 40
1.0
 10
346.2799143824069
 20
302.7896633379712
 30
0.0
 41
0.4999996147530312
 10
346.6176245240727
 20
302.7888976631451
 30
0.0
 41
0.5000003852469688
 10
346.9553160789756
 20
302.7881270551929
 30
0.0
 41
0.4999996147530312
  0
SPLINE
  5
1B4
330
1F
100
AcDbEntity
  8
1
100
AcDbSpline
210
0.0
220
0.0
230
1.0
 70
    28
 71
     4
 72
    13
 73
     8
 74
     0
 42
0.000000001
 43
0.0000000001
 40
0.0
 40
0.0
 40
0.0
 40
0.0
 40
0.0
 40
0.1837876915297262
 40
0.1837876915297262
 40
0.1837876915297262
 40
1.0
 40
1.0
 40
1.0
 40
1.0
 40
1.0
 10
297.9048419452957
 20
281.9699037718879
 30
0.0
 41
1.000395935790997
 10
297.9048419452957
 20
281.681792040917
 30
0.0
 41
1.000876695089052
 10
297.9048419452959
 20
281.3904048444743
 30
0.0
 41
1.00129404738705
 10
297.9048419452957
 20
281.0976487995517
 30
0.0
 41
1.00156323924462
 10
297.9048419452957
 20
279.5085443268807
 30
0.0
 41
1.00156323924462
 10
297.9048419452957
 20
278.0533666519071
 30
0.0
 41
0.9962539626276353
 10
297.9048419452957
 20
276.6183736027812
 30
0.0
 41
0.9962366885065312
 10
297.9048419452959
 20
275.3564357718906
 30
0.0
 41
0.9980006518700779
  0
SPLINE
  5
1B5
330
1F
100
AcDbEntity
  8
1
100
AcDbSpline
210
0.0
220
0.0
230
1.0
 70
     9
 71
     3
 72
   125
 73
   121
 74
     0
 42
0.000000001
 43
0.0000000001
 40
0.0
 40
0.0
 40
0.0
 40
0.0
 40
0.0312500000000294
 40
0.0312500000000294
 40
0.0468750000000467
 40
0.0468750000000467
 40
0.0546875000000529
 40
0.0546875000000529
 40
0.062500000000059
 40
0.062500000000059
 40
0.0937500000000839
 40
0.0937500000000839
 40
0.101562500000088
 40
0.101562500000088
 40
0.1093750000000921
 40
0.1093750000000921
 40
0.1250000000000967
 40
0.1250000000000967
 40
0.1562500000001024
 40
0.1562500000001024
 40
0.1875000000001081
 40
0.1875000000001081
 40
0.2031250000001108
 40
0.2031250000001108
 40
0.2109375000001121
 40
0.2109375000001121
 40
0.2187500000001134
 40
0.2187500000001134
 40
0.2500000000001167
 40
0.2500000000001167
 40
0.2578125000001174
 40
0.2578125000001174
 40
0.2656250000001181
 40
0.2656250000001181
 40
0.2812500000001189
 40
0.2812500000001189
 40
0.3125000000001213
 40
0.3125000000001213
 40
0.3203125000001236
 40
0.3203125000001236
 40
0.3281250000001257
 40
0.3437500000001326
 40
0.3437500000001326
 40
0.3750000000001466
 40
0.3750000000001466
 40
0.3828125000001474
 40
0.3828125000001474
 40
0.3906250000001482
 40
0.4062500000001498
 40
0.4218750000001511
 40
0.4218750000001511
 40
0.4296875000001518
 40
0.4296875000001518
 40
0.4375000000001525
 40
0.4375000000001525
 40
0.4687500000001651
 40
0.4687500000001651
 40
0.4843750000001714
 40
0.4843750000001714
 40
0.492187500000172
 40
0.492187500000172
 40
0.5000000000001723
 40
0.5000000000001723
 40
0.5312500000001746
 40
0.5312500000001746
 40
0.5390625000001738
 40
0.5390625000001738
 40
0.5468750000001731
 40
0.5468750000001731
 40
0.5625000000001716
 40
0.5781250000001702
 40
0.5781250000001702
 40
0.5937500000001689
 40
0.5937500000001689
 40
0.625000000000166
 40
0.625000000000166
 40
0.6328125000001644
 40
0.6328125000001644
 40
0.6406250000001627
 40
0.6406250000001627
 40
0.6562500000001563
 40
0.6562500000001563
 40
0.6875000000001434
 40
0.6875000000001434
 40
0.6953125000001398
 40
0.6953125000001398
 40
0.7031250000001364
 40
0.7187500000001295
 40
0.7343750000001227
 40
0.7343750000001227
 40
0.7421875000001194
 40
0.7421875000001194
 40
0.7500000000001159
 40
0.7500000000001159
 40
0.781250000000103
 40
0.781250000000103
 40
0.7968750000000967
 40
0.7968750000000967
 40
0.8125000000000902
 40
0.8125000000000902
 40
0.8437500000000774
 40
0.8437500000000774
 40
0.8593750000000708
 40
0.8593750000000708
 40
0.8671875000000678
 40
0.8671875000000678
 40
0.8750000000000646
 40
0.8750000000000646
 40
0.9062500000000516
 40
0.9062500000000516
 40
0.9218750000000431
 40
0.9218750000000431
 40
0.9375000000000344
 40
0.9531250000000259
 40
0.9531250000000259
 40
0.9609375000000241
 40
0.9609375000000241
 40
0.9687500000000223
 40
0.9687500000000223
 40
1.0
 40
1.0
 40
1.0
 40
1.0
 10
352.4246469271757
 20
286.5233679557893
 30
0.0
 10
352.5087618250938
 20
286.5218997247847
 30
0.0
 10
352.591270440029
 20
286.5120518086833
 30
0.0
 10
352.7127238891708
 20
286.4852453810545
 30
0.0
 10
352.7528204512332
 20
286.4742886777354
 30
0.0
 10
352.8123690330819
 20
286.4547506841313
 30
0.0
 10
352.8321753772421
 20
286.447697107216
 30
0.0
 10
352.8712441950765
 20
286.4326646985675
 30
0.0
 10
352.8905086564637
 20
286.4246894688638
 30
0.0
 10
352.9855082970296
 20
286.3825665382009
 30
0.0
 10
353.0573139955035
 20
286.3417431741182
 30
0.0
 10
353.1418604503621
 20
286.2819061112153
 30
0.0
 10
353.1585068151307
 20
286.2694942922142
 30
0.0
 10
353.1912647146082
 20
286.2437679378589
 30
0.0
 10
353.2073724665529
 20
286.2304514013241
 30
0.0
 10
353.2543515329625
 20
286.1896020208993
 30
0.0
 10
353.2840710755743
 20
286.1610279253997
 30
0.0
 10
353.3685743880152
 20
286.0714198090676
 30
0.0
 10
353.418746145631
 20
286.0065359963566
 30
0.0
 10
353.5064544515856
 20
285.8663105473835
 30
0.0
 10
353.5425785589616
 20
285.7932210732152
 30
0.0
 10
353.5857621252134
 20
285.6795363783503
 30
0.0
 10
353.5983129326643
 20
285.6409551462247
 30
0.0
 10
353.614338404795
 20
285.5820464887553
 30
0.0
 10
353.6192219583609
 20
285.5621934581151
 30
0.0
 10
353.6279928873554
 20
285.5223465076594
 30
0.0
 10
353.6318708763393
 20
285.5024068817364
 30
0.0
 10
353.648782611299
 20
285.4026316834205
 30
0.0
 10
353.6544497823862
 20
285.3225686006756
 30
0.0
 10
353.6519375388437
 20
285.222206024171
 30
0.0
 10
353.6509510791816
 20
285.2021190953126
 30
0.0
 10
353.6479989735838
 20
285.161915995533
 30
0.0
 10
353.6460270523741
 20
285.1417519845457
 30
0.0
 10
353.6386624139442
 20
285.0815819311162
 30
0.0
 10
353.6318519594449
 20
285.0420306145563
 30
0.0
 10
353.6059081435977
 20
284.9250003160431
 30
0.0
 10
353.5813138403963
 20
284.8491312365113
 30
0.0
 10
353.5412789213166
 20
284.7569918033179
 30
0.0
 10
353.5327937922918
 20
284.7386809454705
 30
0.0
 10
353.5149048541232
 20
284.7024159547652
 30
0.0
 10
353.4868456323175
 20
284.6488666129962
 30
0.0
 10
353.4551870120534
 20
284.5978003835372
 30
0.0
 10
353.387126514815
 20
284.4989180420808
 30
0.0
 10
353.3354788274751
 20
284.4372967303493
 30
0.0
 10
353.2625470734836
 20
284.3659210000831
 30
0.0
 10
353.2475684086743
 20
284.3519649874867
 30
0.0
 10
353.217093814757
 20
284.3249309651648
 30
0.0
 10
353.1704928050907
 20
284.28559126012
 30
0.0
 10
353.0884318729901
 20
284.2259914074043
 30
0.0
 10
353.0180712903474
 20
284.1846751353744
 30
0.0
 10
352.9634697893683
 20
284.1561478038657
 30
0.0
 10
352.9449635399728
 20
284.1470494476677
 30
0.0
 10
352.9073213127988
 20
284.1296966926629
 30
0.0
 10
352.8881606802561
 20
284.1214360897862
 30
0.0
 10
352.7919372341261
 20
284.0827689823926
 30
0.0
 10
352.7127461086696
 20
284.0597592167227
 30
0.0
 10
352.5906428458537
 20
284.0370549107703
 30
0.0
 10
352.5493851400907
 20
284.0314694126023
 30
0.0
 10
352.4866263617007
 20
284.0261934624738
 30
0.0
 10
352.465618262055
 20
284.0249611145696
 30
0.0
 10
352.4238225624118
 20
284.0235597036368
 30
0.0
 10
352.4029772414962
 20
284.0233853599689
 30
0.0
 10
352.2990090533822
 20
284.0251029670642
 30
0.0
 10
352.2166540374345
 20
284.0346860588868
 30
0.0
 10
352.1147425711725
 20
284.0570303986763
 30
0.0
 10
352.0943526388814
 20
284.0620398894255
 30
0.0
 10
352.0540555536207
 20
284.0730203316408
 30
0.0
 10
352.0341391087303
 20
284.0789893300988
 30
0.0
 10
351.9750685963267
 20
284.098298781403
 30
0.0
 10
351.8981142459063
 20
284.1277765884205
 30
0.0
 10
351.8246723683216
 20
284.1645383732179
 30
0.0
 10
351.7529885269562
 20
284.204962349932
 30
0.0
 10
351.7179033490866
 20
284.227112067083
 30
0.0
 10
351.6173906289995
 20
284.2977059957005
 30
0.0
 10
351.5560076140611
 20
284.350551259511
 30
0.0
 10
351.486024412193
 20
284.4236321924727
 30
0.0
 10
351.4723682696372
 20
284.4386029201981
 30
0.0
 10
351.4457426048635
 20
284.4692616117752
 30
0.0
 10
351.4327469864303
 20
284.4849854043774
 30
0.0
 10
351.3951505386458
 20
284.5327995713595
 30
0.0
 10
351.3718427366833
 20
284.5656257309706
 30
0.0
 10
351.3069950651796
 20
284.6668725561298
 30
0.0
 10
351.2704830884929
 20
284.7380361033558
 30
0.0
 10
351.2333582001297
 20
284.8317003955079
 30
0.0
 10
351.2263539246237
 20
284.8507035778083
 30
0.0
 10
351.2133439336548
 20
284.8888155213594
 30
0.0
 10
351.1952789874241
 20
284.9462623117688
 30
0.0
 10
351.1722687520337
 20
285.0433802351314
 30
0.0
 10
351.1613403540821
 20
285.1225333613921
 30
0.0
 10
351.1559943745794
 20
285.1824565460325
 30
0.0
 10
351.1546882588627
 20
285.202524138254
 30
0.0
 10
351.1530457709608
 20
285.2428493882861
 30
0.0
 10
351.1527105237379
 20
285.2631614389624
 30
0.0
 10
351.153509424556
 20
285.3644436004734
 30
0.0
 10
351.161946189268
 20
285.4444014425734
 30
0.0
 10
351.1860771595075
 20
285.5627467733493
 30
0.0
 10
351.1960465346363
 20
285.6019278948847
 30
0.0
 10
351.219962036196
 20
285.6797311412115
 30
0.0
 10
351.2339903980093
 20
285.7185050894099
 30
0.0
 10
351.2812802075183
 20
285.8314926168628
 30
0.0
 10
351.3198493224854
 20
285.9031114377708
 30
0.0
 10
351.3882878475007
 20
286.004908576744
 30
0.0
 10
351.4128765363877
 20
286.0378961187375
 30
0.0
 10
351.4525415487921
 20
286.0858882519697
 30
0.0
 10
351.4661538278406
 20
286.1015449919881
 30
0.0
 10
351.4940270800158
 20
286.132046242599
 30
0.0
 10
351.5083068541765
 20
286.1469135994493
 30
0.0
 10
351.5814006414295
 20
286.2193539119212
 30
0.0
 10
351.6452504955682
 20
286.2712921898647
 30
0.0
 10
351.7492762837122
 20
286.3399030790693
 30
0.0
 10
351.7855080366325
 20
286.3612822456479
 30
0.0
 10
351.8592122674855
 20
286.3999284355152
 30
0.0
 10
351.9344526963554
 20
286.4346998013904
 30
0.0
 10
352.0127094873696
 20
286.4618477556915
 30
0.0
 10
352.0725461355468
 20
286.4793126018561
 30
0.0
 10
352.0926827108945
 20
286.4846506562511
 30
0.0
 10
352.1333444906542
 20
286.4943423565328
 30
0.0
 10
352.1539173593188
 20
286.4987043450894
 30
0.0
 10
352.2571459667474
 20
286.5178778135159
 30
0.0
 10
352.3405320292576
 20
286.5248361867939
 30
0.0
 10
352.4246469271757
 20
286.5233679557893
 30
0.0
  0
SPLINE
  5
1B6
330
1F
100
AcDbEntity
  8
1
100
AcDbSpline
210
0.0
220
0.0
230
1.0
 70
     8
 71
     3
 72
     8
 73
     4
 74
     0
 42
0.000000001
 43
0.0000000001
 40
0.0
 40
0.0
 40
0.0
 40
0.0
 40
1.0
 40
1.0
 40
1.0
 40
1.0
 10
343.612053582738
 20
293.2732736161129
 30
0.0
 10
343.4311289694687
 20
293.3489807174171
 30
0.0
 10
343.2506166494499
 20
293.429201846419
 30
0.0
 10
343.0706826883597
 20
293.5140689770731
 30
0.0
  0
SPLINE
  5
1B7
330
1F
100
AcDbEntity
  8
1
100
AcDbSpline
210
0.0
220
0.0
230
1.0
 70
     8
 71
     3
 72
    36
 73
    32
 74
     0
 42
0.000000001
 43
0.0000000001
 40
0.0
 40
0.0
 40
0.0
 40
0.0
 40
0.1249999999999959
 40
0.1249999999999959
 40
0.2499999999999917
 40
0.2499999999999917
 40
0.3749999999999876
 40
0.3749999999999876
 40
0.4062499999999893
 40
0.4062499999999893
 40
0.4374999999999911
 40
0.4374999999999911
 40
0.499999999999994
 40
0.499999999999994
 40
0.6250000000000001
 40
0.6250000000000001
 40
0.6875000000000034
 40
0.6875000000000034
 40
0.7031250000000034
 40
0.7031250000000034
 40
0.7187500000000035
 40
0.7187500000000035
 40
0.7500000000000034
 40
0.7500000000000034
 40
0.8125000000000024
 40
0.8125000000000024
 40
0.8750000000000015
 40
0.8750000000000015
 40
0.9375000000000007
 40
0.9375000000000007
 40
1.0
 40
1.0
 40
1.0
 40
1.0
 10
342.990449679034
 20
294.1296097853766
 30
0.0
 10
343.2074213757248
 20
294.2236538231922
 30
0.0
 10
343.4181847892686
 20
294.3268447625166
 30
0.0
 10
343.8259971900446
 20
294.5534326310915
 30
0.0
 10
344.0230536304415
 20
294.6768185793087
 30
0.0
 10
344.4019093332989
 20
294.9460694607678
 30
0.0
 10
344.5837229959147
 20
295.091913177709
 30
0.0
 10
344.8001383642618
 20
295.2902060640344
 30
0.0
 10
344.842876761886
 20
295.3306671333931
 30
0.0
 10
344.9272209612743
 20
295.4132579690005
 30
0.0
 10
344.9688644699232
 20
295.4554272992848
 30
0.0
 10
345.0917812371161
 20
295.5842920801905
 30
0.0
 10
345.170309405413
 20
295.672563006185
 30
0.0
 10
345.3954797378552
 20
295.9445731324395
 30
0.0
 10
345.5317733419223
 20
296.1354643355442
 30
0.0
 10
345.7138868816894
 20
296.4372314812666
 30
0.0
 10
345.7708560411921
 20
296.5404020735983
 30
0.0
 10
345.8370821733907
 20
296.6728107211404
 30
0.0
 10
345.85007762037
 20
296.6994650759607
 30
0.0
 10
345.8755588304737
 20
296.7531260336777
 30
0.0
 10
345.8880357588514
 20
296.7801158876326
 30
0.0
 10
345.9245271169714
 20
296.8612563245305
 30
0.0
 10
345.9476572107202
 20
296.9156915624651
 30
0.0
 10
346.0134315418711
 20
297.080028824601
 30
0.0
 10
346.0524675208169
 20
297.1909602028844
 30
0.0
 10
346.1206138276999
 20
297.4156545219645
 30
0.0
 10
346.1497259721129
 20
297.5294169445622
 30
0.0
 10
346.1974611405111
 20
297.7599340972822
 30
0.0
 10
346.2160871686724
 20
297.8766879703818
 30
0.0
 10
346.241949118415
 20
298.1134450549654
 30
0.0
 10
346.2490431986155
 20
298.2322033680229
 30
0.0
 10
346.2500282347246
 20
298.351309602925
 30
0.0
  0
SPLINE
  5
1B8
330
1F
100
AcDbEntity
  8
1
100
AcDbSpline
210
0.0
220
0.0
230
1.0
 70
     8
 71
     3
 72
    17
 73
    13
 74
     0
 42
0.000000001
 43
0.0000000001
 40
0.0
 40
0.0
 40
0.0
 40
0.0
 40
0.2500000000000008
 40
0.2500000000000008
 40
0.3125000000000017
 40
0.3125000000000017
 40
0.3750000000000026
 40
0.3750000000000026
 40
0.5000000000000032
 40
0.5000000000000032
 40
0.7500000000000016
 40
1.0
 40
1.0
 40
1.0
 40
1.0
 10
288.5581418506601
 20
282.9588326897483
 30
0.0
 10
288.8541184965956
 20
282.9724642401263
 30
0.0
 10
289.1532532112749
 20
282.9787704015546
 30
0.0
 10
289.5311648485952
 20
282.9773904597342
 30
0.0
 10
289.6069470115968
 20
282.9766509371162
 30
0.0
 10
289.7589128575958
 20
282.9742405346561
 30
0.0
 10
289.8350804600415
 20
282.9725690509154
 30
0.0
 10
290.0635000911304
 20
282.9661757047308
 30
0.0
 10
290.2158942776452
 20
282.9600724355581
 30
0.0
 10
290.6734152770058
 20
282.9363176632331
 30
0.0
 10
291.2843450973031
 20
282.8901357483423
 30
0.0
 10
291.8970436302737
 20
282.8154980259871
 30
0.0
 10
292.2038318185191
 20
282.7711176034371
 30
0.0
  0
SPLINE
  5
1B9
330
1F
100
AcDbEntity
  8
1
100
AcDbSpline
210
0.0
220
0.0
230
1.0
 70
     8
 71
     3
 72
    14
 73
    10
 74
     0
 42
0.000000001
 43
0.0000000001
 40
0.0
 40
0.0
 40
0.0
 40
0.0
 40
0.25
 40
0.25
 40
0.5
 40
0.5
 40
0.75
 40
0.75
 40
1.0
 40
1.0
 40
1.0
 40
1.0
 10
279.4048419452957
 20
269.4910673911464
 30
0.0
 10
279.6352390790206
 20
269.5991102302634
 30
0.0
 10
279.8696481194346
 20
269.7214473311689
 30
0.0
 10
280.34458901899
 20
269.9888802754162
 30
0.0
 10
280.5851245869229
 20
270.1339966897575
 30
0.0
 10
281.0705944044361
 20
270.4426865938548
 30
0.0
 10
281.3155277647901
 20
270.6062671381855
 30
0.0
 10
281.8081899930245
 20
270.9486464044496
 30
0.0
 10
282.0559145510068
 20
271.1274452390201
 30
0.0
 10
282.3043368819074
 20
271.3127226282836
 30
0.0
  0
SPLINE
  5
1BA
330
1F
100
AcDbEntity
  8
1
100
AcDbSpline
210
0.0
220
0.0
230
1.0
 70
     8
 71
     3
 72
    37
 73
    33
 74
     0
 42
0.000000001
 43
0.0000000001
 40
0.0
 40
0.0
 40
0.0
 40
0.0
 40
0.125000000000002
 40
0.125000000000002
 40
0.250000000000004
 40
0.250000000000004
 40
0.2812500000000047
 40
0.2968750000000051
 40
0.2968750000000051
 40
0.3125000000000054
 40
0.3125000000000054
 40
0.3750000000000042
 40
0.3750000000000042
 40
0.5000000000000019
 40
0.5000000000000019
 40
0.5625000000000005
 40
0.5625000000000005
 40
0.5937500000000002
 40
0.5937500000000002
 40
0.6093750000000001
 40
0.6093750000000001
 40
0.625
 40
0.625
 40
0.7500000000000001
 40
0.7500000000000001
 40
0.8750000000000003
 40
0.8750000000000003
 40
0.9062500000000001
 40
0.9062500000000001
 40
0.9375000000000001
 40
0.9375000000000001
 40
1.0
 40
1.0
 40
1.0
 40
1.0
 10
276.4262584463095
 20
273.5405656167015
 30
0.0
 10
276.3766556013161
 20
273.3007371698682
 30
0.0
 10
276.3517590703075
 20
273.0681139744638
 30
0.0
 10
276.3486963874153
 20
272.6170428633316
 30
0.0
 10
276.3705426479125
 20
272.3985956320861
 30
0.0
 10
276.4270489997466
 20
272.1343405771158
 30
0.0
 10
276.4461999700152
 20
272.0557248536203
 30
0.0
 10
276.4686767445272
 20
271.9781001960083
 30
0.0
 10
276.4844045515955
 20
271.9265707066283
 30
0.0
 10
276.4926359530394
 20
271.9009323793689
 30
0.0
 10
276.5354843623637
 20
271.7737789354743
 30
0.0
 10
276.5752817223457
 20
271.6749990081972
 30
0.0
 10
276.7106325898708
 20
271.3870011963499
 30
0.0
 10
276.8220780060743
 20
271.2061057863361
 30
0.0
 10
277.0200379581379
 20
270.94991114371
 30
0.0
 10
277.0911740010277
 20
270.867043019408
 30
0.0
 10
277.2056237428386
 20
270.7463885995086
 30
0.0
 10
277.245065609203
 20
270.7067786672428
 30
0.0
 10
277.3061781740435
 20
270.6482597284946
 30
0.0
 10
277.3268827292007
 20
270.6288955757516
 30
0.0
 10
277.3688042075049
 20
270.5905887150892
 30
0.0
 10
277.3900368004871
 20
270.571630587028
 30
0.0
 10
277.5835532509835
 20
270.4027294490431
 30
0.0
 10
277.7727224546022
 20
270.2647931922939
 30
0.0
 10
278.1837832524797
 20
270.0099508836371
 30
0.0
 10
278.4056820665909
 20
269.8930566610148
 30
0.0
 10
278.703571903517
 20
269.7585613810379
 30
0.0
 10
278.7641795916385
 20
269.7322452396805
 30
0.0
 10
278.887471627386
 20
269.6807471513531
 30
0.0
 10
278.9501387305151
 20
269.6555746271417
 30
0.0
 10
279.1405671258453
 20
269.5819776706469
 30
0.0
 10
279.2709757009256
 20
269.5353771788311
 30
0.0
 10
279.4048419452957
 20
269.4910673911463
 30
0.0
  0
SPLINE
  5
1BB
330
1F
100
AcDbEntity
  8
1
100
AcDbSpline
210
0.0
220
0.0
230
1.0
 70
     8
 71
     3
 72
    54
 73
    50
 74
     0
 42
0.000000001
 43
0.0000000001
 40
0.0
 40
0.0
 40
0.0
 40
0.0
 40
0.0625000000000001
 40
0.0625000000000001
 40
0.1250000000000001
 40
0.1250000000000001
 40
0.1875000000000002
 40
0.1875000000000002
 40
0.2187499999999999
 40
0.2187499999999999
 40
0.2499999999999996
 40
0.2499999999999996
 40
0.2812499999999993
 40
0.2812499999999993
 40
0.3124999999999989
 40
0.3124999999999989
 40
0.3437499999999987
 40
0.3437499999999987
 40
0.3593749999999986
 40
0.3593749999999986
 40
0.3749999999999984
 40
0.3749999999999984
 40
0.4374999999999984
 40
0.4374999999999984
 40
0.4687499999999983
 40
0.4687499999999983
 40
0.4999999999999983
 40
0.4999999999999983
 40
0.5312499999999982
 40
0.5312499999999982
 40
0.5624999999999979
 40
0.5624999999999979
 40
0.6249999999999984
 40
0.6249999999999984
 40
0.6874999999999986
 40
0.6874999999999986
 40
0.7187499999999988
 40
0.7187499999999988
 40
0.749999999999999
 40
0.749999999999999
 40
0.8124999999999991
 40
0.8124999999999991
 40
0.8437499999999992
 40
0.8437499999999992
 40
0.8749999999999994
 40
0.8749999999999994
 40
0.9374999999999996
 40
0.9374999999999996
 40
1.0
 40
1.0
 40
1.0
 40
1.0
 10
297.9048419452957
 20
281.9674479591665
 30
0.0
 10
298.8718517319624
 20
281.7790868965543
 30
0.0
 10
299.8345125552169
 20
281.5816986569328
 30
0.0
 10
301.7505722478054
 20
281.1699591472956
 30
0.0
 10
302.7039613272662
 20
280.9555875660618
 30
0.0
 10
304.6013867665271
 20
280.5127400919789
 30
0.0
 10
305.5454127252098
 20
280.2842517480711
 30
0.0
 10
306.9549699248183
 20
279.934838904817
 30
0.0
 10
307.4237493683682
 20
279.8172742101355
 30
0.0
 10
308.359351036369
 20
279.5808402635294
 30
0.0
 10
308.8261732131294
 20
279.4619717766764
 30
0.0
 10
309.7581197352439
 20
279.2239519012196
 30
0.0
 10
310.2232442291256
 20
279.1048018028688
 30
0.0
 10
311.1521245194361
 20
278.8673477587193
 30
0.0
 10
311.6158806864777
 20
278.7490455735847
 30
0.0
 10
312.5424154873289
 20
278.5144777309987
 30
0.0
 10
313.0051947038762
 20
278.3982141467419
 30
0.0
 10
313.6989594898983
 20
278.226241269967
 30
0.0
 10
313.9301473941515
 20
278.1693205511738
 30
0.0
 10
314.3924467292438
 20
278.056430081728
 30
0.0
 10
314.6235922415848
 20
278.00045229428
 30
0.0
 10
315.7787233333595
 20
277.7234177799725
 30
0.0
 10
316.7010306822985
 20
277.5109986286441
 30
0.0
 10
318.0848673997608
 20
277.211470239496
 30
0.0
 10
318.5462286425798
 20
277.1148228036048
 30
0.0
 10
319.4697833262717
 20
276.9287481006088
 30
0.0
 10
319.9319764078034
 20
276.8393175930738
 30
0.0
 10
320.8577116822897
 20
276.6680760710748
 30
0.0
 10
321.3212529738678
 20
276.5862615160852
 30
0.0
 10
322.2500690333703
 20
276.4303287082811
 30
0.0
 10
322.7153421161468
 20
276.3562066849771
 30
0.0
 10
324.1141961013165
 20
276.1451815942467
 30
0.0
 10
325.0509932538788
 20
276.0197230933026
 30
0.0
 10
326.9298795726483
 20
275.7922669198054
 30
0.0
 10
327.8719676750188
 20
275.690306760001
 30
0.0
 10
329.2875062476788
 20
275.5522018286072
 30
0.0
 10
329.7597604090811
 20
275.5086589919553
 30
0.0
 10
330.7048805753283
 20
275.4262743776095
 30
0.0
 10
331.1778220926194
 20
275.3874278292528
 30
0.0
 10
332.5962789770537
 20
275.277727626381
 30
0.0
 10
333.5416733192067
 20
275.2136465263165
 30
0.0
 10
334.9585262804572
 20
275.1306088300736
 30
0.0
 10
335.430600644365
 20
275.1051185246385
 30
0.0
 10
336.374251470546
 20
275.0585748873303
 30
0.0
 10
336.845854481832
 20
275.0375425358017
 30
0.0
 10
338.2605002984656
 20
274.9814893823812
 30
0.0
 10
339.2034015842959
 20
274.9535721061011
 30
0.0
 10
341.0911528784892
 20
274.916836585294
 30
0.0
 10
342.0360055562126
 20
274.9079935137006
 30
0.0
 10
342.9826514736766
 20
274.9079935137005
 30
0.0
  0
SPLINE
  5
1BC
330
1F
100
AcDbEntity
  8
1
100
AcDbSpline
210
0.0
220
0.0
230
1.0
 70
     8
 71
     3
 72
    50
 73
    46
 74
     0
 42
0.000000001
 43
0.0000000001
 40
0.0
 40
0.0
 40
0.0
 40
0.0
 40
0.0625000000000002
 40
0.0625000000000002
 40
0.1250000000000003
 40
0.1250000000000003
 40
0.1875000000000005
 40
0.1875000000000005
 40
0.2187500000000007
 40
0.2187500000000007
 40
0.2500000000000009
 40
0.2500000000000009
 40
0.3125000000000008
 40
0.3125000000000008
 40
0.3750000000000007
 40
0.3750000000000007
 40
0.4375000000000007
 40
0.4375000000000007
 40
0.5000000000000005
 40
0.5000000000000005
 40
0.5312500000000005
 40
0.5312500000000005
 40
0.5625000000000004
 40
0.5625000000000004
 40
0.5937500000000004
 40
0.5937500000000004
 40
0.6250000000000004
 40
0.6250000000000004
 40
0.6562500000000004
 40
0.6562500000000004
 40
0.6875000000000002
 40
0.6875000000000002
 40
0.7187500000000002
 40
0.7187500000000002
 40
0.7500000000000002
 40
0.7500000000000002
 40
0.8125000000000001
 40
0.8125000000000001
 40
0.8750000000000001
 40
0.8750000000000001
 40
0.9375
 40
0.9375
 40
0.96875
 40
0.96875
 40
1.0
 40
1.0
 40
1.0
 40
1.0
 10
297.9048419452959
 20
302.8766227786378
 30
0.0
 10
298.6618526860922
 20
302.8657830404234
 30
0.0
 10
299.416208746803
 20
302.8515007223346
 30
0.0
 10
300.9194528487544
 20
302.8138348884639
 30
0.0
 10
301.6683379750883
 20
302.7904464513794
 30
0.0
 10
303.1606852708101
 20
302.7321199295018
 30
0.0
 10
303.9041443951874
 20
302.6971727504772
 30
0.0
 10
305.0155245865971
 20
302.634236749079
 30
0.0
 10
305.385352546896
 20
302.6115062475522
 30
0.0
 10
306.1238230967632
 20
302.5622596470859
 30
0.0
 10
306.4925667762842
 20
302.5357348187337
 30
0.0
 10
307.5962345356832
 20
302.4501832591468
 30
0.0
 10
308.3286177048694
 20
302.3851496495101
 30
0.0
 10
309.7879077271922
 20
302.2378864195297
 30
0.0
 10
310.5148174060527
 20
302.1556454816087
 30
0.0
 10
311.9650185896708
 20
301.9739256561923
 30
0.0
 10
312.6883172414882
 20
301.8744434694971
 30
0.0
 10
314.1335510548677
 20
301.6596218769314
 30
0.0
 10
314.8554963809169
 20
301.544290371113
 30
0.0
 10
315.939180194145
 20
301.3614575572894
 30
0.0
 10
316.3005357595375
 20
301.2988838270999
 30
0.0
 10
317.023784194988
 20
301.1709150418291
 30
0.0
 10
317.3856880142157
 20
301.1055355076898
 30
0.0
 10
318.1102462276375
 20
300.9723684998991
 30
0.0
 10
318.4728539048646
 20
300.9045222877454
 30
0.0
 10
319.1984037378386
 20
300.7659255521988
 30
0.0
 10
319.5613460605333
 20
300.6951740002276
 30
0.0
 10
320.2873493267207
 20
300.550455918934
 30
0.0
 10
320.650410669867
 20
300.4764888667206
 30
0.0
 10
321.3765344770085
 20
300.3251236874565
 30
0.0
 10
321.7395975324667
 20
300.2477255454757
 30
0.0
 10
322.4656905976616
 20
300.0893847426464
 30
0.0
 10
322.8287218924752
 20
300.0084424694591
 30
0.0
 10
323.5547782274483
 20
299.8429957683995
 30
0.0
 10
323.9175858196276
 20
299.7585128842625
 30
0.0
 10
325.0056503818856
 20
299.5002547015671
 30
0.0
 10
325.730620149511
 20
299.3217788402665
 30
0.0
 10
327.1811391156861
 20
298.9547894307599
 30
0.0
 10
327.9066765832947
 20
298.7662684760193
 30
0.0
 10
329.3589339981716
 20
298.3806534570121
 30
0.0
 10
330.0856470712939
 20
298.1835546923339
 30
0.0
 10
331.1766970330482
 20
297.8819021970742
 30
0.0
 10
331.5405836544588
 20
297.7803319009049
 30
0.0
 10
332.2683873020679
 20
297.5752479838858
 30
0.0
 10
332.6323114168765
 20
297.4717328516232
 30
0.0
 10
332.9962403378496
 20
297.367215546939
 30
0.0
  0
SPLINE
  5
1BD
330
1F
100
AcDbEntity
  8
1
100
AcDbSpline
210
0.0
220
0.0
230
1.0
 70
     8
 71
     3
 72
    48
 73
    44
 74
     0
 42
0.000000001
 43
0.0000000001
 40
0.0
 40
0.0
 40
0.0
 40
0.0
 40
0.0551830707832444
 40
0.0551830707832444
 40
0.1103661415664887
 40
0.1103661415664887
 40
0.1655492123497331
 40
0.1655492123497331
 40
0.2207322831329775
 40
0.2207322831329775
 40
0.2345280508287896
 40
0.2345280508287896
 40
0.2483238185246018
 40
0.2483238185246018
 40
0.2759153539162259
 40
0.2759153539162259
 40
0.3310984246994744
 40
0.3310984246994744
 40
0.3862814954827228
 40
0.3862814954827228
 40
0.4414645662659713
 40
0.4414645662659713
 40
0.4966476370492196
 40
0.4966476370492196
 40
0.551830707832468
 40
0.551830707832468
 40
0.6621968493989649
 40
0.6621968493989649
 40
0.7173799201822132
 40
0.7173799201822132
 40
0.772562990965461
 40
0.772562990965461
 40
0.8277460617487092
 40
0.8277460617487092
 40
0.8553375971403335
 40
0.8553375971403335
 40
0.8829291325319578
 40
0.8829291325319578
 40
0.9381122033152065
 40
0.9381122033152065
 40
0.9932952740984552
 40
0.9932952740984552
 40
1.0
 40
1.0
 40
1.0
 40
1.0
 10
346.2799143824758
 20
302.789663337971
 30
0.0
 10
345.8305944548233
 20
302.8263836088216
 30
0.0
 10
345.3747870019017
 20
302.8528848077227
 30
0.0
 10
344.449485731119
 20
302.8899273466722
 30
0.0
 10
343.9799897302937
 20
302.9004788281111
 30
0.0
 10
343.027367618285
 20
302.9097786266039
 30
0.0
 10
342.544239614542
 20
302.9085359601535
 30
0.0
 10
341.5652455861789
 20
302.8977715074455
 30
0.0
 10
341.0693791197436
 20
302.8882568038085
 30
0.0
 10
340.4426894777588
 20
302.8728430433898
 30
0.0
 10
340.3170108533624
 20
302.8695818644822
 30
0.0
 10
340.0650082883574
 20
302.8627338403955
 30
0.0
 10
339.9386440166326
 20
302.8591457526884
 30
0.0
 10
339.5591114462192
 20
302.8479476204012
 30
0.0
 10
339.3054061642282
 20
302.8399039038067
 30
0.0
 10
338.5425579293277
 20
302.8142925922749
 30
0.0
 10
338.0316711353198
 20
302.7952814325169
 30
0.0
 10
337.0072590281408
 20
302.7538446006669
 30
0.0
 10
336.4937374890665
 20
302.7314170098732
 30
0.0
 10
335.4663875424105
 20
302.6824562938776
 30
0.0
 10
334.9526380017662
 20
302.655845033808
 30
0.0
 10
333.9253677340427
 20
302.5981536111915
 30
0.0
 10
333.4118428019676
 20
302.5670752078084
 30
0.0
 10
332.3853306162908
 20
302.5001379119042
 30
0.0
 10
331.8723438942992
 20
302.4642778108117
 30
0.0
 10
330.3345843490359
 20
302.3489197352948
 30
0.0
 10
329.3110303004765
 20
302.2616727943799
 30
0.0
 10
327.7792270207395
 20
302.1123292569731
 30
0.0
 10
327.2692078136929
 20
302.0594635134568
 30
0.0
 10
326.2505059688959
 20
301.9469296089008
 30
0.0
 10
325.7418210643355
 20
301.8872658345916
 30
0.0
 10
324.7260231502798
 20
301.7603040493663
 30
0.0
 10
324.2189076468488
 20
301.6930127515498
 30
0.0
 10
323.459693879107
 20
301.585449573784
 30
0.0
 10
323.2068737617981
 20
301.5484769673954
 30
0.0
 10
322.7016935781092
 20
301.4722533675207
 30
0.0
 10
322.4492930361884
 20
301.4329972645477
 30
0.0
 10
321.6930088241273
 20
301.3118260660183
 30
0.0
 10
321.1901596932717
 20
301.2265157561017
 30
0.0
 10
320.1867443158353
 20
301.0469047194618
 30
0.0
 10
319.6861808303782
 20
300.9525966926838
 30
0.0
 10
319.1257479114734
 20
300.8420819755286
 30
0.0
 10
319.0650449102245
 20
300.8300465751627
 30
0.0
 10
319.0043536516192
 20
300.8179496664255
 30
0.0
  0
SPLINE
  5
1BE
330
1F
100
AcDbEntity
  8
1
100
AcDbSpline
210
0.0
220
0.0
230
1.0
 70
     8
 71
     3
 72
    34
 73
    30
 74
     0
 42
0.000000001
 43
0.0000000001
 40
0.0
 40
0.0
 40
0.0
 40
0.0
 40
0.0625000000000001
 40
0.0625000000000001
 40
0.1250000000000002
 40
0.1250000000000002
 40
0.1875000000000003
 40
0.1875000000000003
 40
0.25
 40
0.25
 40
0.3125000000000001
 40
0.3125000000000001
 40
0.3750000000000002
 40
0.3750000000000002
 40
0.4375000000000003
 40
0.4375000000000003
 40
0.5000000000000004
 40
0.5000000000000004
 40
0.6250000000000005
 40
0.6250000000000005
 40
0.7500000000000005
 40
0.7500000000000005
 40
0.8125000000000003
 40
0.8125000000000003
 40
0.8437500000000003
 40
0.8437500000000003
 40
0.8750000000000003
 40
0.8750000000000003
 40
1.0
 40
1.0
 40
1.0
 40
1.0
 10
292.2038318185191
 20
275.0920699830554
 30
0.0
 10
291.9466884016935
 20
275.0803890821388
 30
0.0
 10
291.6933794837047
 20
275.0611036185791
 30
0.0
 10
291.1935949753998
 20
275.0093226462734
 30
0.0
 10
290.9471210318015
 20
274.9768248168147
 30
0.0
 10
290.4603437143464
 20
274.9002691039874
 30
0.0
 10
290.2200413617358
 20
274.856209654653
 30
0.0
 10
289.7450733799156
 20
274.7578952233826
 30
0.0
 10
289.5104083785712
 20
274.7036390936646
 30
0.0
 10
289.0462862402493
 20
274.58604989678
 30
0.0
 10
288.8168008419541
 20
274.5227073917526
 30
0.0
 10
288.3628147474042
 20
274.3878828202289
 30
0.0
 10
288.1399200692269
 20
274.3168831554742
 30
0.0
 10
287.7015520590391
 20
274.1686307482988
 30
0.0
 10
287.4860802378795
 20
274.0913760054902
 30
0.0
 10
287.0619813236316
 20
273.931310043009
 30
0.0
 10
286.8533553248038
 20
273.84849730119
 30
0.0
 10
286.2371138225608
 20
273.5925178210926
 30
0.0
 10
285.8390842326748
 20
273.4118544121733
 30
0.0
 10
285.0667017446603
 20
273.0333388957981
 30
0.0
 10
284.6923652205876
 20
272.8354635564872
 30
0.0
 10
284.1482829931924
 20
272.526968745458
 30
0.0
 10
283.9698356792094
 20
272.4221832499641
 30
0.0
 10
283.7065667809185
 20
272.2621816183071
 30
0.0
 10
283.6195446406852
 20
272.2083769166873
 30
0.0
 10
283.4469794737533
 20
272.0998410823976
 30
0.0
 10
283.3614800298271
 20
272.0451363759602
 30
0.0
 10
282.938581578345
 20
271.7699137389446
 30
0.0
 10
282.6143124990733
 20
271.5439074532375
 30
0.0
 10
282.3043368819074
 20
271.3127226282836
 30
0.0
  0
LINE
  5
1DF
330
1F
100
AcDbEntity
  8
4
100
AcDbLine
 10
269.203832
 20
288.907994
 30
0.0
 11
360.845163
 21
288.907994
 31
0.0
  0
LINE
  5
1E0
330
1F
100
AcDbEntity
  8
SK4
100
AcDbLine
 10
210.904842
 20
288.907994
 30
0.0
 11
277.404842
 21
288.907994
 31
0.0
  0
MTEXT
  5
1E1
330
1F
100
AcDbEntity
  8
SK6
100
AcDbMText
 10
258.520787
 20
241.27662
 30
0.0
 40
3.5
 41
0.0
 71
     7
 72
     5
  1
\W0.7022;802D-29-58-S32
  7
cesky
 73
     2
 44
0.8433729999999998
  0
MTEXT
  5
2F7
330
1F
100
AcDbEntity
  8
2
100
AcDbMText
 10
314.090342
 20
327.385163
 30
0.0
 40
3.5
 41
0.0
 71
     7
 72
     5
  1
\W0.7045;83
  7
cesky
 73
     2
 44
0.8433729999999998
  0
LINE
  5
2F8
330
1F
100
AcDbEntity
  8
2
100
AcDbLine
 10
357.404842
 20
303.407994
 30
0.0
 11
357.404842
 21
328.5109970000001
 31
0.0
  0
LINE
  5
2F9
330
1F
100
AcDbEntity
  8
2
100
AcDbLine
 10
274.404842
 20
289.907567
 30
0.0
 11
274.404842
 21
328.5109970000001
 31
0.0
  0
LINE
  5
2FA
330
1F
100
AcDbEntity
  8
2
100
AcDbLine
 10
357.404842
 20
327.510997
 30
0.0
 11
274.404842
 21
327.510997
 31
0.0
  0
SOLID
  5
2FB
330
1F
100
AcDbEntity
  8
2
100
AcDbTrace
 10
357.404842
 20
327.510997
 30
0.0
 11
353.904844
 21
326.893852
 31
0.0
 12
353.90484
 22
328.128141
 32
0.0
 13
353.90484
 23
328.128141
 33
0.0
  0
SOLID
  5
2FC
330
1F
100
AcDbEntity
  8
2
100
AcDbTrace
 10
274.404842
 20
327.510997
 30
0.0
 11
277.90484
 21
328.128141
 31
0.0
 12
277.904844
 22
326.893852
 32
0.0
 13
277.904844
 23
326.893852
 33
0.0
  0
MTEXT
  5
2FD
330
1F
100
AcDbEntity
  8
2
100
AcDbMText
 10
372.095868
 20
287.374652
 30
0.0
 40
3.5
 41
0.0
 71
     7
 72
     5
  1
\W0.7259;29
  7
cesky
 11
0.0000000000000001
 21
1.0
 31
0.0
 73
     2
 44
0.8433729999999998
  0
MTEXT
  5
2FE
330
1F
100
AcDbEntity
  8
2
100
AcDbMText
 10
372.095868
 20
280.637152
 30
0.0
 40
3.5
 41
0.0
 71
     7
 72
     5
  1
\W3.0115;\H2.63;%%c\H3.50;
  7
cesky
 11
0.0000000000000001
 21
1.0
 31
0.0
 73
     2
 44
0.8433729999999998
  0
LINE
  5
2FF
330
1F
100
AcDbEntity
  8
2
100
AcDbLine
 10
359.404842
 20
303.407994
 30
0.0
 11
373.283285
 21
303.407994
 31
0.0
  0
LINE
  5
300
330
1F
100
AcDbEntity
  8
2
100
AcDbLine
 10
372.283285
 20
303.407994
 30
0.0
 11
372.283285
 21
280.479652
 31
0.0
  0
SOLID
  5
301
330
1F
100
AcDbEntity
  8
2
100
AcDbTrace
 10
372.283285
 20
303.407994
 30
0.0
 11
372.900429
 21
299.9079959999999
 31
0.0
 12
371.66614
 22
299.907991
 32
0.0
 13
371.66614
 23
299.907991
 33
0.0
  0
MTEXT
  5
302
330
1F
100
AcDbEntity
  8
2
100
AcDbMText
 10
282.827842
 20
340.562135
 30
0.0
 40
3.5
 41
0.0
 71
     7
 72
     5
  1
\W0.7809;143
  7
cesky
 73
     2
 44
0.8433729999999998
  0
LINE
  5
303
330
1F
100
AcDbEntity
  8
2
100
AcDbLine
 10
357.404842
 20
305.407994
 30
0.0
 11
357.404842
 21
341.687968
 31
0.0
  0
LINE
  5
304
330
1F
100
AcDbEntity
  8
2
100
AcDbLine
 10
214.404842
 20
302.907994
 30
0.0
 11
214.404842
 21
341.687968
 31
0.0
  0
LINE
  5
305
330
1F
100
AcDbEntity
  8
2
100
AcDbLine
 10
357.404842
 20
340.687968
 30
0.0
 11
214.404842
 21
340.687968
 31
0.0
  0
SOLID
  5
306
330
1F
100
AcDbEntity
  8
2
100
AcDbTrace
 10
357.404842
 20
340.687968
 30
0.0
 11
353.904844
 21
340.070823
 31
0.0
 12
353.90484
 22
341.305112
 32
0.0
 13
353.90484
 23
341.305112
 33
0.0
  0
SOLID
  5
307
330
1F
100
AcDbEntity
  8
2
100
AcDbTrace
 10
214.404842
 20
340.687968
 30
0.0
 11
217.90484
 21
341.305112
 31
0.0
 12
217.904844
 22
340.070823
 32
0.0
 13
217.904844
 23
340.070823
 33
0.0
  0
MTEXT
  5
308
330
1F
100
AcDbEntity
  8
2
100
AcDbMText
 10
242.590342
 20
327.385163
 30
0.0
 40
3.5
 41
0.0
 71
     7
 72
     5
  1
\W0.7045;60
  7
cesky
 73
     2
 44
0.8433729999999998
  0
LINE
  5
309
330
1F
100
AcDbEntity
  8
2
100
AcDbLine
 10
274.404842
 20
288.907994
 30
0.0
 11
274.404842
 21
328.5109970000001
 31
0.0
  0
LINE
  5
30A
330
1F
100
AcDbEntity
  8
2
100
AcDbLine
 10
214.404842
 20
302.907994
 30
0.0
 11
214.404842
 21
328.5109970000001
 31
0.0
  0
LINE
  5
30B
330
1F
100
AcDbEntity
  8
2
100
AcDbLine
 10
274.404842
 20
327.510997
 30
0.0
 11
214.404842
 21
327.510997
 31
0.0
  0
SOLID
  5
30C
330
1F
100
AcDbEntity
  8
2
100
AcDbTrace
 10
274.404842
 20
327.510997
 30
0.0
 11
270.904844
 21
326.893852
 31
0.0
 12
270.90484
 22
328.128141
 32
0.0
 13
270.90484
 23
328.128141
 33
0.0
  0
SOLID
  5
30D
330
1F
100
AcDbEntity
  8
2
100
AcDbTrace
 10
214.404842
 20
327.510997
 30
0.0
 11
217.90484
 21
328.128141
 31
0.0
 12
217.904844
 22
326.893852
 32
0.0
 13
217.904844
 23
326.893852
 33
0.0
  0
MTEXT
  5
30E
330
1F
100
AcDbEntity
  8
2
100
AcDbMText
 10
322.095782
 20
316.511754
 30
0.0
 40
3.5
 41
0.0
 71
     7
 72
     5
  1
\W0.7045;67
  7
cesky
 73
     2
 44
0.8433729999999998
  0
LINE
  5
30F
330
1F
100
AcDbEntity
  8
2
100
AcDbLine
 10
357.404842
 20
305.407994
 30
0.0
 11
357.404842
 21
317.637587
 31
0.0
  0
LINE
  5
310
330
1F
100
AcDbEntity
  8
2
100
AcDbLine
 10
290.415721
 20
303.308119
 30
0.0
 11
290.415721
 21
317.637587
 31
0.0
  0
LINE
  5
311
330
1F
100
AcDbEntity
  8
2
100
AcDbLine
 10
357.404842
 20
316.637587
 30
0.0
 11
290.415721
 21
316.637587
 31
0.0
  0
SOLID
  5
312
330
1F
100
AcDbEntity
  8
2
100
AcDbTrace
 10
357.404842
 20
316.637587
 30
0.0
 11
353.904844
 21
316.020443
 31
0.0
 12
353.90484
 22
317.254732
 32
0.0
 13
353.90484
 23
317.254732
 33
0.0
  0
SOLID
  5
313
330
1F
100
AcDbEntity
  8
2
100
AcDbTrace
 10
290.415721
 20
316.637587
 30
0.0
 11
293.9157189999999
 21
317.254732
 31
0.0
 12
293.915723
 22
316.020443
 32
0.0
 13
293.915723
 23
316.020443
 33
0.0
  0
MTEXT
  5
314
330
1F
100
AcDbEntity
  8
SK2
100
AcDbMText
 10
203.850458
 20
290.434244
 30
0.0
 40
3.5
 41
0.0
 71
     7
 72
     5
  1
\W0.7045;32
  7
cesky
 11
0.0000000000000001
 21
1.0
 31
0.0
 73
     2
 44
0.8433729999999998
  0
MTEXT
  5
315
330
1F
100
AcDbEntity
  8
SK2
100
AcDbMText
 10
203.850458
 20
283.696744
 30
0.0
 40
3.5
 41
0.0
 71
     7
 72
     5
  1
\W3.0115;\H2.63;%%c\H3.50;
  7
cesky
 11
0.0000000000000001
 21
1.0
 31
0.0
 73
     2
 44
0.8433729999999998
  0
LINE
  5
316
330
1F
100
AcDbEntity
  8
SK2
100
AcDbLine
 10
216.404842
 20
304.907994
 30
0.0
 11
203.037875
 21
304.907994
 31
0.0
  0
LINE
  5
317
330
1F
100
AcDbEntity
  8
SK2
100
AcDbLine
 10
216.404842
 20
272.907994
 30
0.0
 11
203.037875
 21
272.907994
 31
0.0
  0
LINE
  5
318
330
1F
100
AcDbEntity
  8
SK2
100
AcDbLine
 10
204.037875
 20
304.907994
 30
0.0
 11
204.037875
 21
272.907994
 31
0.0
  0
SOLID
  5
319
330
1F
100
AcDbEntity
  8
SK2
100
AcDbTrace
 10
204.037875
 20
304.907994
 30
0.0
 11
204.65502
 21
301.407996
 31
0.0
 12
203.420731
 22
301.407991
 32
0.0
 13
203.420731
 23
301.407991
 33
0.0
  0
SOLID
  5
31A
330
1F
100
AcDbEntity
  8
SK2
100
AcDbTrace
 10
204.037875
 20
272.907994
 30
0.0
 11
203.420731
 21
276.407991
 31
0.0
 12
204.65502
 22
276.407996
 32
0.0
 13
204.65502
 23
276.407996
 33
0.0
  0
MTEXT
  5
31B
330
1F
100
AcDbEntity
  8
SK2
100
AcDbMText
 10
191.10057
 20
290.434244
 30
0.0
 40
3.5
 41
0.0
 71
     7
 72
     5
  1
\W0.7045;42
  7
cesky
 11
0.0000000000000001
 21
1.0
 31
0.0
 73
     2
 44
0.8433729999999998
  0
MTEXT
  5
31C
330
1F
100
AcDbEntity
  8
SK2
100
AcDbMText
 10
191.10057
 20
283.696744
 30
0.0
 40
3.5
 41
0.0
 71
     7
 72
     5
  1
\W3.0115;\H2.63;%%c\H3.50;
  7
cesky
 11
0.0000000000000001
 21
1.0
 31
0.0
 73
     2
 44
0.8433729999999998
  0
LINE
  5
31D
330
1F
100
AcDbEntity
  8
SK2
100
AcDbLine
 10
274.904842
 20
309.907994
 30
0.0
 11
190.287987
 21
309.907994
 31
0.0
  0
LINE
  5
31E
330
1F
100
AcDbEntity
  8
SK2
100
AcDbLine
 10
274.904842
 20
267.907994
 30
0.0
 11
190.287987
 21
267.907994
 31
0.0
  0
LINE
  5
31F
330
1F
100
AcDbEntity
  8
SK2
100
AcDbLine
 10
191.287987
 20
309.907994
 30
0.0
 11
191.287987
 21
267.907994
 31
0.0
  0
SOLID
  5
320
330
1F
100
AcDbEntity
  8
SK2
100
AcDbTrace
 10
191.287987
 20
309.907994
 30
0.0
 11
191.905131
 21
306.407996
 31
0.0
 12
190.670842
 22
306.407991
 32
0.0
 13
190.670842
 23
306.407991
 33
0.0
  0
SOLID
  5
321
330
1F
100
AcDbEntity
  8
SK2
100
AcDbTrace
 10
191.287987
 20
267.907994
 30
0.0
 11
190.670842
 21
271.4079910000001
 31
0.0
 12
191.905131
 22
271.407996
 32
0.0
 13
191.905131
 23
271.407996
 33
0.0
  0
LINE
  5
322
330
1F
100
AcDbEntity
  8
CUT
100
AcDbLine
 10
356.9811632148159
 20
296.4295023054688
 30
0.0
 11
356.7002807888952
 21
302.6692898708586
 31
0.0
  0
LINE
  5
323
330
1F
100
AcDbEntity
  8
CUT
100
AcDbLine
 10
355.8936032139827
 20
303.4041365154391
 30
0.0
 11
347.9237657281858
 21
303.0389373251474
 31
0.0
  0
LINE
  5
326
330
1F
100
AcDbEntity
  8
CUT
100
AcDbLine
 10
357.2974360653503
 20
295.9031859130247
 30
0.0
 11
356.9811632148159
 21
296.4295023054688
 31
0.0
  0
LINE
  5
327
330
1F
100
AcDbEntity
  8
CUT
100
AcDbLine
 10
357.4048419452958
 20
289.7551154040705
 30
0.0
 11
357.2974360653503
 21
295.9031859130247
 31
0.0
  0
LINE
  5
328
330
1F
100
AcDbEntity
  8
CUT
100
AcDbLine
 10
347.186273
 20
288.907994
 30
0.0
 11
357.404842
 21
288.907994
 31
0.0
  0
LINE
  5
329
330
1F
100
AcDbEntity
  8
CUT
100
AcDbLine
 10
347.186273
 20
302.232832
 30
0.0
 11
347.186273
 21
288.907994
 31
0.0
  0
LINE
  5
32A
330
1F
100
AcDbEntity
  8
CUT
100
AcDbLine
 10
357.404842
 20
288.907994
 30
0.0
 11
357.404842
 21
289.755115
 31
0.0
  0
ARC
  5
32B
330
1F
100
AcDbEntity
  8
CUT
100
AcDbCircle
 10
355.9211832280886
 20
302.624570823403
 30
0.0
 40
0.7803799090572374
100
AcDbArc
 50
3.285088475934291
 51
89.2567919583646
  0
ARC
  5
32C
330
1F
100
AcDbEntity
  8
CUT
100
AcDbCircle
 10
355.9268533873242
 20
302.6792889436815
 30
0.0
 40
0.7256097961785125
100
AcDbArc
 50
89.64844222308038
 51
92.6264280974977
  0
ARC
  5
32D
330
1F
100
AcDbEntity
  8
CUT
100
AcDbCircle
 10
347.9681187007697
 20
302.2573738376232
 30
0.0
 40
0.7828209700869678
100
AcDbArc
 50
93.24799643071001
 51
177.6528810407122
  0
ARC
  5
32E
330
1F
100
AcDbEntity
  8
CUT
100
AcDbCircle
 10
347.9092863992084
 20
302.2652042580555
 30
0.0
 40
0.7237375963306124
100
AcDbArc
 50
178.0815291476878
 51
182.5636559155046
  0
ENDSEC
  0
SECTION
  2
OBJECTS
  0
DICTIONARY
  5
C
330
0
100
AcDbDictionary
281
     1
  3
ACAD_CIP_PREVIOUS_PRODUCT_INFO
350
2F4
  3
ACAD_COLOR
350
2EF
  3
ACAD_DETAILVIEWSTYLE
350
2EB
  3
ACAD_GROUP
350
D
  3
ACAD_LAYOUT
350
1A
  3
ACAD_MATERIAL
350
43
  3
ACAD_MLEADERSTYLE
350
6B
  3
ACAD_MLINESTYLE
350
17
  3
ACAD_PLOTSETTINGS
350
19
  3
ACAD_PLOTSTYLENAME
350
E
  3
ACAD_SCALELIST
350
47
  3
ACAD_SECTIONVIEWSTYLE
350
2EC
  3
ACAD_TABLESTYLE
350
69
  3
ACAD_VISUALSTYLE
350
2A
  3
ACDB_RECOMPOSE_DATA
350
35A
  3
AcDbVariableDictionary
350
2A8
  0
DICTIONARY
  5
33D
330
10
100
AcDbDictionary
280
     1
281
     1
  3
ADSK_XREC_LAYER_RECONCILED
360
33E
  0
DICTIONARY
  5
33F
330
32F
100
AcDbDictionary
280
     1
281
     1
  3
ADSK_XREC_LAYER_RECONCILED
360
340
  0
DICTIONARY
  5
341
330
330
100
AcDbDictionary
280
     1
281
     1
  3
ADSK_XREC_LAYER_RECONCILED
360
342
  0
DICTIONARY
  5
343
330
331
100
AcDbDictionary
280
     1
281
     1
  3
ADSK_XREC_LAYER_RECONCILED
360
344
  0
DICTIONARY
  5
345
330
333
100
AcDbDictionary
280
     1
281
     1
  3
ADSK_XREC_LAYER_RECONCILED
360
346
  0
DICTIONARY
  5
347
330
334
100
AcDbDictionary
280
     1
281
     1
  3
ADSK_XREC_LAYER_RECONCILED
360
348
  0
DICTIONARY
  5
349
330
336
100
AcDbDictionary
280
     1
281
     1
  3
ADSK_XREC_LAYER_RECONCILED
360
34A
  0
DICTIONARY
  5
34B
330
337
100
AcDbDictionary
280
     1
281
     1
  3
ADSK_XREC_LAYER_RECONCILED
360
34C
  0
DICTIONARY
  5
34D
330
338
100
AcDbDictionary
280
     1
281
     1
  3
ADSK_XREC_LAYER_RECONCILED
360
34E
  0
DICTIONARY
  5
34F
330
339
100
AcDbDictionary
280
     1
281
     1
  3
ADSK_XREC_LAYER_RECONCILED
360
350
  0
DICTIONARY
  5
351
330
33A
100
AcDbDictionary
280
     1
281
     1
  3
ADSK_XREC_LAYER_RECONCILED
360
352
  0
DICTIONARY
  5
353
330
33B
100
AcDbDictionary
280
     1
281
     1
  3
ADSK_XREC_LAYER_RECONCILED
360
354
  0
DICTIONARY
  5
2F5
330
1F
100
AcDbDictionary
280
     1
281
     1
  3
ACAD_SORTENTS
360
2F6
  0
XRECORD
  5
2F4
102
{ACAD_REACTORS
330
C
102
}
330
C
100
AcDbXrecord
280
     1
300
ACD
300
2019
300
87084ACD_2019_0F
  0
DICTIONARY
  5
2EF
102
{ACAD_REACTORS
330
C
102
}
330
C
100
AcDbDictionary
281
     1
  0
DICTIONARY
  5
2EB
102
{ACAD_REACTORS
330
C
102
}
330
C
100
AcDbDictionary
281
     1
  3
Metric50
350
2F1
  0
DICTIONARY
  5
D
102
{ACAD_REACTORS
330
C
102
}
330
C
100
AcDbDictionary
281
     1
  3
NULOVY_BOD
350
33C
  0
DICTIONARY
  5
1A
102
{ACAD_REACTORS
330
C
102
}
330
C
100
AcDbDictionary
281
     1
  3
Layout1
350
1E
  3
Layout2
350
26
  3
Model
350
22
  0
DICTIONARY
  5
43
102
{ACAD_REACTORS
330
C
102
}
330
C
100
AcDbDictionary
281
     1
  3
ByBlock
350
45
  3
ByLayer
350
44
  3
Global
350
46
  0
DICTIONARY
  5
6B
102
{ACAD_REACTORS
330
C
102
}
330
C
100
AcDbDictionary
281
     1
  3
Standard
350
6C
  0
DICTIONARY
  5
17
102
{ACAD_REACTORS
330
C
102
}
330
C
100
AcDbDictionary
281
     1
  3
Standard
350
18
  0
DICTIONARY
  5
19
102
{ACAD_REACTORS
330
C
102
}
330
C
100
AcDbDictionary
281
     1
  0
ACDBDICTIONARYWDFLT
  5
E
102
{ACAD_REACTORS
330
C
102
}
330
C
100
AcDbDictionary
281
     1
  3
Normal
350
F
100
AcDbDictionaryWithDefault
340
F
  0
DICTIONARY
  5
47
102
{ACAD_REACTORS
330
C
102
}
330
C
100
AcDbDictionary
281
     1
  3
A0
350
48
  3
A1
350
49
  3
A2
350
4A
  3
A3
350
4B
  3
A4
350
4C
  3
A5
350
4D
  3
A6
350
4E
  3
A7
350
4F
  3
A8
350
50
  3
A9
350
51
  3
B0
350
52
  3
B1
350
53
  3
B2
350
54
  3
B3
350
55
  3
B4
350
56
  3
B5
350
57
  3
B6
350
58
  3
B7
350
59
  3
B8
350
5A
  3
B9
350
5B
  3
C0
350
5C
  3
C1
350
5D
  3
C2
350
5E
  3
C3
350
5F
  3
C4
350
60
  3
C5
350
61
  3
C6
350
62
  3
C7
350
63
  3
C8
350
64
  3
C9
350
65
  3
D0
350
66
  3
D1
350
67
  3
D2
350
68
  0
DICTIONARY
  5
2EC
102
{ACAD_REACTORS
330
C
102
}
330
C
100
AcDbDictionary
281
     1
  3
Metric50
350
2F0
  0
DICTIONARY
  5
69
102
{ACAD_REACTORS
330
C
102
}
330
C
100
AcDbDictionary
281
     1
  3
Standard
350
6A
  0
DICTIONARY
  5
2A
102
{ACAD_REACTORS
330
C
102
}
330
C
100
AcDbDictionary
281
     1
  3
2dWireframe
350
2F
  3
Basic
350
32
  3
Brighten
350
36
  3
ColorChange
350
3A
  3
Conceptual
350
34
  3
Dim
350
35
  3
EdgeColorOff
350
3D
  3
Facepattern
350
39
  3
Flat
350
2B
  3
FlatWithEdges
350
2C
  3
Gouraud
350
2D
  3
GouraudWithEdges
350
2E
  3
Hidden
350
31
  3
JitterOff
350
3B
  3
Linepattern
350
38
  3
OverhangOff
350
3C
  3
Realistic
350
33
  3
Shaded
350
42
  3
Shaded with edges
350
41
  3
Shades of Gray
350
3E
  3
Sketchy
350
3F
  3
Thicken
350
37
  3
Wireframe
350
30
  3
X-Ray
350
40
  0
XRECORD
  5
35A
102
{ACAD_REACTORS
330
C
102
}
330
C
100
AcDbXrecord
280
     1
 90
        1
330
6A
  0
DICTIONARY
  5
2A8
102
{ACAD_REACTORS
330
C
102
}
330
C
100
AcDbDictionary
281
     1
  3
CANNOSCALE
350
2A9
  3
CMLEADERSTYLE
350
2EA
  3
CTABLESTYLE
350
2E9
  3
CVIEWDETAILSTYLE
350
355
  3
CVIEWSECTIONSTYLE
350
356
  3
MSLTSCALE
350
2AA
  3
XCLIPFRAME
350
357
  0
XRECORD
  5
33E
102
{ACAD_REACTORS
330
33D
102
}
330
33D
100
AcDbXrecord
280
     1
290
     1
  0
XRECORD
  5
340
102
{ACAD_REACTORS
330
33F
102
}
330
33F
100
AcDbXrecord
280
     1
290
     1
  0
XRECORD
  5
342
102
{ACAD_REACTORS
330
341
102
}
330
341
100
AcDbXrecord
280
     1
290
     1
  0
XRECORD
  5
344
102
{ACAD_REACTORS
330
343
102
}
330
343
100
AcDbXrecord
280
     1
290
     1
  0
XRECORD
  5
346
102
{ACAD_REACTORS
330
345
102
}
330
345
100
AcDbXrecord
280
     1
290
     1
  0
XRECORD
  5
348
102
{ACAD_REACTORS
330
347
102
}
330
347
100
AcDbXrecord
280
     1
290
     1
  0
XRECORD
  5
34A
102
{ACAD_REACTORS
330
349
102
}
330
349
100
AcDbXrecord
280
     1
290
     1
  0
XRECORD
  5
34C
102
{ACAD_REACTORS
330
34B
102
}
330
34B
100
AcDbXrecord
280
     1
290
     1
  0
XRECORD
  5
34E
102
{ACAD_REACTORS
330
34D
102
}
330
34D
100
AcDbXrecord
280
     1
290
     1
  0
XRECORD
  5
350
102
{ACAD_REACTORS
330
34F
102
}
330
34F
100
AcDbXrecord
280
     1
290
     1
  0
XRECORD
  5
352
102
{ACAD_REACTORS
330
351
102
}
330
351
100
AcDbXrecord
280
     1
290
     1
  0
XRECORD
  5
354
102
{ACAD_REACTORS
330
353
102
}
330
353
100
AcDbXrecord
280
     1
290
     1
  0
SORTENTSTABLE
  5
2F6
102
{ACAD_REACTORS
330
2F5
102
}
330
2F5
100
AcDbSortentsTable
330
1F
331
2F7
  5
21A
331
2F8
  5
233
331
2F9
  5
2F7
331
2FA
  5
2F8
331
2FB
  5
2F9
331
2FC
  5
2FA
331
2FD
  5
2FB
331
2FE
  5
2FC
331
2FF
  5
2FD
331
300
  5
2FE
331
301
  5
2FF
331
302
  5
310
331
303
  5
311
331
304
  5
312
331
305
  5
313
331
306
  5
314
331
307
  5
315
331
308
  5
316
331
309
  5
317
331
30A
  5
318
331
30B
  5
319
331
30C
  5
31A
331
30D
  5
31B
331
30E
  5
31C
331
30F
  5
31D
331
310
  5
31E
331
311
  5
31F
331
312
  5
320
331
313
  5
321
331
314
  5
302
331
315
  5
303
331
316
  5
304
331
317
  5
305
331
318
  5
306
331
319
  5
307
331
31A
  5
308
331
31B
  5
309
331
31C
  5
30A
331
31D
  5
30B
331
31E
  5
30C
331
31F
  5
30D
331
320
  5
30E
331
321
  5
30F
331
326
  5
32A
331
327
  5
32B
331
328
  5
32C
331
329
  5
32D
331
32A
  5
32E
331
32B
  5
326
331
32C
  5
327
331
32D
  5
328
331
32E
  5
329
  0
ACDBDETAILVIEWSTYLE
  5
2F1
102
{ACAD_XDICTIONARY
360
38E
102
}
102
{ACAD_REACTORS
330
2EB
102
}
330
2EB
100
AcDbModelDocViewStyle
 70
     0
  3
Metric50
290
     0
100
AcDbDetailViewStyle
 70
     0
 71
     0
 90
        3
 71
     1
340
11
 62
   256
 40
5.0
340
0
 62
   256
 40
5.0
300

 40
0.0
280
     1
 71
     2
340
16
 90
       25
 62
   256
 71
     3
340
11
 62
   256
 40
5.0
 90
        0
 40
15.0
 90
        1
300
%<\AcVar ViewDetailId>% (%<\AcVar ViewScale \f "%sn">%)
 71
     4
340
16
 90
       25
 62
   256
340
16
 90
       25
 62
   256
280
     0
  0
GROUP
  5
33C
102
{ACAD_REACTORS
330
D
102
}
330
D
100
AcDbGroup
300

 70
     0
 71
     1
340
73
  0
LAYOUT
  5
1E
102
{ACAD_REACTORS
330
1A
102
}
330
1A
100
AcDbPlotSettings
  1

  2
none_device
  4

  6

 40
0.0
 41
0.0
 42
0.0
 43
0.0
 44
0.0
 45
0.0
 46
0.0
 47
0.0
 48
0.0
 49
0.0
140
0.0
141
0.0
142
1.0
143
1.0
 70
   688
 72
     0
 73
     0
 74
     5
  7

 75
    16
147
1.0
 76
     0
 77
     2
 78
   300
148
0.0
149
0.0
100
AcDbLayout
  1
Layout1
 70
     1
 71
     1
 10
-0.5
 20
-0.5
 11
5.0
 21
5.0
 12
0.0
 22
0.0
 32
0.0
 14
-0.5
 24
-0.5
 34
-0.5
 15
5.0
 25
5.0
 35
5.0
146
0.0
 13
0.0
 23
0.0
 33
0.0
 16
1.0
 26
0.0
 36
0.0
 17
0.0
 27
1.0
 37
0.0
 76
     0
330
1B
  0
LAYOUT
  5
26
102
{ACAD_REACTORS
330
1A
102
}
330
1A
100
AcDbPlotSettings
  1

  2
none_device
  4

  6

 40
0.0
 41
0.0
 42
0.0
 43
0.0
 44
0.0
 45
0.0
 46
0.0
 47
0.0
 48
0.0
 49
0.0
140
0.0
141
0.0
142
1.0
143
1.0
 70
   688
 72
     0
 73
     0
 74
     5
  7

 75
    16
147
1.0
 76
     0
 77
     2
 78
   300
148
0.0
149
0.0
100
AcDbLayout
  1
Layout2
 70
     1
 71
     2
 10
0.0
 20
0.0
 11
0.0
 21
0.0
 12
0.0
 22
0.0
 32
0.0
 14
0.0
 24
0.0
 34
0.0
 15
0.0
 25
0.0
 35
0.0
146
0.0
 13
0.0
 23
0.0
 33
0.0
 16
1.0
 26
0.0
 36
0.0
 17
0.0
 27
1.0
 37
0.0
 76
     0
330
23
  0
LAYOUT
  5
22
102
{ACAD_REACTORS
330
1A
102
}
330
1A
100
AcDbPlotSettings
  1

  2
none_device
  4
Letter_(8.50_x_11.00_Inches)
  6

 40
6.349999999999999
 41
6.349999999999999
 42
6.350005
 43
6.350005
 44
215.9
 45
279.4
 46
0.0
 47
0.0
 48
0.0
 49
0.0
140
0.0
141
0.0
142
1.0
143
1.0
 70
  1712
 72
     0
 73
     0
 74
     0
  7

 75
     0
147
1.0
 76
     0
 77
     2
 78
   300
148
0.0
149
0.0
100
AcDbLayout
  1
Model
 70
     1
 71
     0
 10
-0.5
 20
-0.5
 11
5.0
 21
5.0
 12
0.0
 22
0.0
 32
0.0
 14
-0.5
 24
-0.5
 34
-0.5
 15
5.0
 25
5.0
 35
5.0
146
0.0
 13
0.0
 23
0.0
 33
0.0
 16
1.0
 26
0.0
 36
0.0
 17
0.0
 27
1.0
 37
0.0
 76
     0
330
1F
331
29
  0
MATERIAL
  5
45
102
{ACAD_XDICTIONARY
360
2DE
102
}
102
{ACAD_REACTORS
330
43
102
}
330
43
100
AcDbMaterial
  1
ByBlock
  0
MATERIAL
  5
44
102
{ACAD_XDICTIONARY
360
2DC
102
}
102
{ACAD_REACTORS
330
43
102
}
330
43
100
AcDbMaterial
  1
ByLayer
  0
MATERIAL
  5
46
102
{ACAD_XDICTIONARY
360
2E0
102
}
102
{ACAD_REACTORS
330
43
102
}
330
43
100
AcDbMaterial
  1
Global
  0
MLEADERSTYLE
  5
6C
102
{ACAD_REACTORS
330
6B
102
}
330
6B
100
AcDbMLeaderStyle
170
     2
171
     1
172
     0
 90
        2
 40
0.0
 41
0.0
173
     1
 91
-1056964608
340
14
 92
       -2
290
     1
 42
0.09
291
     1
 43
0.36
  3
Standard
 44
0.18
300

342
11
174
     1
178
     6
175
     1
176
     0
 93
-1056964608
 45
0.18
292
     0
297
     0
 46
0.18
 94
-1056964608
 47
1.0
 49
1.0
140
1.0
293
     1
141
0.0
294
     1
177
     0
142
1.0
295
     0
296
     0
143
0.125
1001
ACAD_MLEADERVER
1070
     2
  0
MLINESTYLE
  5
18
102
{ACAD_REACTORS
330
17
102
}
330
17
100
AcDbMlineStyle
  2
STANDARD
 70
     0
  3

 62
   256
 51
90.0
 52
90.0
 71
     2
 49
0.5
 62
   256
  6
BYLAYER
 49
-0.5
 62
   256
  6
BYLAYER
  0
ACDBPLACEHOLDER
  5
F
102
{ACAD_REACTORS
330
E
102
}
330
E
  0
SCALE
  5
48
102
{ACAD_REACTORS
330
47
102
}
330
47
100
AcDbScale
 70
     0
300
1:1
140
1.0
141
1.0
290
     1
  0
SCALE
  5
49
102
{ACAD_REACTORS
330
47
102
}
330
47
100
AcDbScale
 70
     0
300
1:2
140
1.0
141
2.0
290
     0
  0
SCALE
  5
4A
102
{ACAD_REACTORS
330
47
102
}
330
47
100
AcDbScale
 70
     0
300
1:4
140
1.0
141
4.0
290
     0
  0
SCALE
  5
4B
102
{ACAD_REACTORS
330
47
102
}
330
47
100
AcDbScale
 70
     0
300
1:5
140
1.0
141
5.0
290
     0
  0
SCALE
  5
4C
102
{ACAD_REACTORS
330
47
102
}
330
47
100
AcDbScale
 70
     0
300
1:8
140
1.0
141
8.0
290
     0
  0
SCALE
  5
4D
102
{ACAD_REACTORS
330
47
102
}
330
47
100
AcDbScale
 70
     0
300
1:10
140
1.0
141
10.0
290
     0
  0
SCALE
  5
4E
102
{ACAD_REACTORS
330
47
102
}
330
47
100
AcDbScale
 70
     0
300
1:16
140
1.0
141
16.0
290
     0
  0
SCALE
  5
4F
102
{ACAD_REACTORS
330
47
102
}
330
47
100
AcDbScale
 70
     0
300
1:20
140
1.0
141
20.0
290
     0
  0
SCALE
  5
50
102
{ACAD_REACTORS
330
47
102
}
330
47
100
AcDbScale
 70
     0
300
1:30
140
1.0
141
30.0
290
     0
  0
SCALE
  5
51
102
{ACAD_REACTORS
330
47
102
}
330
47
100
AcDbScale
 70
     0
300
1:40
140
1.0
141
40.0
290
     0
  0
SCALE
  5
52
102
{ACAD_REACTORS
330
47
102
}
330
47
100
AcDbScale
 70
     0
300
1:50
140
1.0
141
50.0
290
     0
  0
SCALE
  5
53
102
{ACAD_REACTORS
330
47
102
}
330
47
100
AcDbScale
 70
     0
300
1:100
140
1.0
141
100.0
290
     0
  0
SCALE
  5
54
102
{ACAD_REACTORS
330
47
102
}
330
47
100
AcDbScale
 70
     0
300
2:1
140
2.0
141
1.0
290
     0
  0
SCALE
  5
55
102
{ACAD_REACTORS
330
47
102
}
330
47
100
AcDbScale
 70
     0
300
4:1
140
4.0
141
1.0
290
     0
  0
SCALE
  5
56
102
{ACAD_REACTORS
330
47
102
}
330
47
100
AcDbScale
 70
     0
300
8:1
140
8.0
141
1.0
290
     0
  0
SCALE
  5
57
102
{ACAD_REACTORS
330
47
102
}
330
47
100
AcDbScale
 70
     0
300
10:1
140
10.0
141
1.0
290
     0
  0
SCALE
  5
58
102
{ACAD_REACTORS
330
47
102
}
330
47
100
AcDbScale
 70
     0
300
100:1
140
100.0
141
1.0
290
     0
  0
SCALE
  5
59
102
{ACAD_REACTORS
330
47
102
}
330
47
100
AcDbScale
 70
     0
300
1/128" = 1'-0"
140
0.007812
141
12.0
290
     0
  0
SCALE
  5
5A
102
{ACAD_REACTORS
330
47
102
}
330
47
100
AcDbScale
 70
     0
300
1/64" = 1'-0"
140
0.015625
141
12.0
290
     0
  0
SCALE
  5
5B
102
{ACAD_REACTORS
330
47
102
}
330
47
100
AcDbScale
 70
     0
300
1/32" = 1'-0"
140
0.03125
141
12.0
290
     0
  0
SCALE
  5
5C
102
{ACAD_REACTORS
330
47
102
}
330
47
100
AcDbScale
 70
     0
300
1/16" = 1'-0"
140
0.0625
141
12.0
290
     0
  0
SCALE
  5
5D
102
{ACAD_REACTORS
330
47
102
}
330
47
100
AcDbScale
 70
     0
300
3/32" = 1'-0"
140
0.09375
141
12.0
290
     0
  0
SCALE
  5
5E
102
{ACAD_REACTORS
330
47
102
}
330
47
100
AcDbScale
 70
     0
300
1/8" = 1'-0"
140
0.125
141
12.0
290
     0
  0
SCALE
  5
5F
102
{ACAD_REACTORS
330
47
102
}
330
47
100
AcDbScale
 70
     0
300
3/16" = 1'-0"
140
0.1875
141
12.0
290
     0
  0
SCALE
  5
60
102
{ACAD_REACTORS
330
47
102
}
330
47
100
AcDbScale
 70
     0
300
1/4" = 1'-0"
140
0.25
141
12.0
290
     0
  0
SCALE
  5
61
102
{ACAD_REACTORS
330
47
102
}
330
47
100
AcDbScale
 70
     0
300
3/8" = 1'-0"
140
0.375
141
12.0
290
     0
  0
SCALE
  5
62
102
{ACAD_REACTORS
330
47
102
}
330
47
100
AcDbScale
 70
     0
300
1/2" = 1'-0"
140
0.5
141
12.0
290
     0
  0
SCALE
  5
63
102
{ACAD_REACTORS
330
47
102
}
330
47
100
AcDbScale
 70
     0
300
3/4" = 1'-0"
140
0.75
141
12.0
290
     0
  0
SCALE
  5
64
102
{ACAD_REACTORS
330
47
102
}
330
47
100
AcDbScale
 70
     0
300
1" = 1'-0"
140
1.0
141
12.0
290
     0
  0
SCALE
  5
65
102
{ACAD_REACTORS
330
47
102
}
330
47
100
AcDbScale
 70
     0
300
1-1/2" = 1'-0"
140
1.5
141
12.0
290
     0
  0
SCALE
  5
66
102
{ACAD_REACTORS
330
47
102
}
330
47
100
AcDbScale
 70
     0
300
3" = 1'-0"
140
3.0
141
12.0
290
     0
  0
SCALE
  5
67
102
{ACAD_REACTORS
330
47
102
}
330
47
100
AcDbScale
 70
     0
300
6" = 1'-0"
140
6.0
141
12.0
290
     0
  0
SCALE
  5
68
102
{ACAD_REACTORS
330
47
102
}
330
47
100
AcDbScale
 70
     0
300
1'-0" = 1'-0"
140
12.0
141
12.0
290
     0
  0
ACDBSECTIONVIEWSTYLE
  5
2F0
102
{ACAD_XDICTIONARY
360
38C
102
}
102
{ACAD_REACTORS
330
2EC
102
}
330
2EC
100
AcDbModelDocViewStyle
 70
     0
  3
Metric50
290
     0
100
AcDbSectionViewStyle
 70
     0
 71
     0
 90
      102
 71
     1
340
11
 62
   256
 40
5.0
340
0
340
0
 62
   256
 40
5.0
300
I, O, Q, S, X, Z
 40
10.0
 90
        0
 40
2.5
 90
        0
 71
     2
340
16
 90
       25
 62
   256
340
16
 90
       50
 62
   256
 40
5.0
 40
2.5
 40
5.0
 71
     3
340
11
 62
   256
 40
5.0
 90
        0
 40
15.0
 90
        1
300
%<\AcVar ViewSectionStartId>%-%<\AcVar ViewSectionEndId>% (%<\AcVar ViewScale \f "%sn">%)
 71
     4
 62
   256
 62
   257
300
ANSI31
 40
1.0
 90
        0
290
     0
290
     0
 90
        6
 40
0.0
 40
1.570796326794896
 40
0.2617993877991494
 40
1.308996938995747
 40
-0.2617993877991494
 40
1.832595714594046
  0
TABLESTYLE
  5
6A
102
{ACAD_XDICTIONARY
360
2E2
102
}
102
{ACAD_REACTORS
330
69
102
}
330
69
100
AcDbTableStyle
  3
Standard
 70
     0
 71
     0
 40
0.06
 41
0.06
280
     0
281
     0
  7
Standard
140
0.18
170
     2
 62
     0
 63
     7
283
     0
274
    -2
284
     1
 64
     0
275
    -2
285
     1
 65
     0
276
    -2
286
     1
 66
     0
277
    -2
287
     1
 67
     0
278
    -2
288
     1
 68
     0
279
    -2
289
     1
 69
     0
  7
Standard
140
0.25
170
     5
 62
     0
 63
     7
283
     0
274
    -2
284
     1
 64
     0
275
    -2
285
     1
 65
     0
276
    -2
286
     1
 66
     0
277
    -2
287
     1
 67
     0
278
    -2
288
     1
 68
     0
279
    -2
289
     1
 69
     0
  7
Standard
140
0.18
170
     5
 62
     0
 63
     7
283
     0
274
    -2
284
     1
 64
     0
275
    -2
285
     1
 65
     0
276
    -2
286
     1
 66
     0
277
    -2
287
     1
 67
     0
278
    -2
288
     1
 68
     0
279
    -2
289
     1
 69
     0
  0
VISUALSTYLE
  5
2F
102
{ACAD_XDICTIONARY
360
363
102
}
102
{ACAD_REACTORS
330
2A
102
}
330
2A
100
AcDbVisualStyle
  2

 70
     4
 71
     0
 72
     2
 73
     0
 90
        0
 40
-0.6
 41
-30.0
 62
     5
 63
     7
421
 16777215
 74
     1
 91
        4
 64
     7
 65
   257
 75
     1
175
     1
 42
1.0
 92
        0
 66
   257
 43
1.0
 76
     1
 77
     6
 78
     2
 67
     7
 79
     5
170
     0
171
     0
290
     0
174
     0
 93
        1
 44
0.0
173
     0
291
     0
 45
0.0
1001
ACAD
1000
AcDbSavedByObjectVersion
1070
     0
  0
VISUALSTYLE
  5
32
102
{ACAD_XDICTIONARY
360
369
102
}
102
{ACAD_REACTORS
330
2A
102
}
330
2A
100
AcDbVisualStyle
  2

 70
     7
 71
     1
 72
     0
 73
     1
 90
        0
 40
-0.6
 41
-30.0
 62
     5
 63
     7
421
 16777215
 74
     0
 91
        4
 64
     7
 65
   257
 75
     1
175
     1
 42
1.0
 92
        8
 66
     7
 43
1.0
 76
     1
 77
     6
 78
     2
 67
     7
 79
     5
170
     0
171
     0
290
     0
174
     0
 93
        1
 44
0.0
173
     0
291
     1
 45
0.0
1001
ACAD
1000
AcDbSavedByObjectVersion
1070
     0
  0
VISUALSTYLE
  5
36
102
{ACAD_XDICTIONARY
360
371
102
}
102
{ACAD_REACTORS
330
2A
102
}
330
2A
100
AcDbVisualStyle
  2

 70
    12
 71
     2
 72
     2
 73
     0
 90
        0
 40
-0.6
 41
-30.0
 62
     5
 63
     7
421
 16777215
 74
     1
 91
        4
 64
     7
 65
   257
 75
     1
175
     1
 42
1.0
 92
        8
 66
     7
 43
1.0
 76
     1
 77
     6
 78
     2
 67
     7
 79
     5
170
     0
171
     0
290
     0
174
     0
 93
        1
 44
50.0
173
     0
291
     1
 45
0.0
1001
ACAD
1000
AcDbSavedByObjectVersion
1070
     0
  0
VISUALSTYLE
  5
3A
102
{ACAD_XDICTIONARY
360
379
102
}
102
{ACAD_REACTORS
330
2A
102
}
330
2A
100
AcDbVisualStyle
  2

 70
    16
 71
     2
 72
     2
 73
     3
 90
        0
 40
-0.6
 41
-30.0
 62
     5
 63
     8
421
  8421504
 74
     1
 91
        4
 64
     7
 65
   257
 75
     1
175
     1
 42
1.0
 92
        8
 66
     8
424
  8421504
 43
1.0
 76
     1
 77
     6
 78
     2
 67
     7
 79
     5
170
     0
171
     0
290
     0
174
     0
 93
        1
 44
0.0
173
     0
291
     1
 45
0.0
1001
ACAD
1000
AcDbSavedByObjectVersion
1070
     0
  0
VISUALSTYLE
  5
34
102
{ACAD_XDICTIONARY
360
36D
102
}
102
{ACAD_REACTORS
330
2A
102
}
330
2A
100
AcDbVisualStyle
  2

 70
     9
 71
     3
 72
     2
 73
     0
 90
        0
 40
-0.6
 41
-30.0
 62
     5
 63
     7
421
 16777215
 74
     2
 91
        2
 64
     7
 65
   257
 75
     1
175
     1
 42
179.0
 92
        8
 66
     7
 43
1.0
 76
     1
 77
     6
 78
     2
 67
     7
 79
     3
170
     0
171
     0
290
     0
174
     0
 93
        1
 44
0.0
173
     0
291
     0
 45
0.0
1001
ACAD
1000
AcDbSavedByObjectVersion
1070
     0
  0
VISUALSTYLE
  5
35
102
{ACAD_XDICTIONARY
360
36F
102
}
102
{ACAD_REACTORS
330
2A
102
}
330
2A
100
AcDbVisualStyle
  2

 70
    11
 71
     2
 72
     2
 73
     0
 90
        0
 40
-0.6
 41
-30.0
 62
     5
 63
     7
421
 16777215
 74
     1
 91
        4
 64
     7
 65
   257
 75
     1
175
     1
 42
1.0
 92
        8
 66
     7
 43
1.0
 76
     1
 77
     6
 78
     2
 67
     7
 79
     5
170
     0
171
     0
290
     0
174
     0
 93
        1
 44
-50.0
173
     0
291
     1
 45
0.0
1001
ACAD
1000
AcDbSavedByObjectVersion
1070
     0
  0
VISUALSTYLE
  5
3D
102
{ACAD_XDICTIONARY
360
37F
102
}
102
{ACAD_REACTORS
330
2A
102
}
330
2A
100
AcDbVisualStyle
  2

 70
    22
 71
     2
 72
     2
 73
     0
 90
        0
 40
-0.6
 41
-30.0
 62
     5
 63
     7
421
 16777215
 74
     1
 91
        4
 64
     7
 65
   257
 75
     1
175
     1
 42
1.0
 92
        8
 66
     7
 43
1.0
 76
     1
 77
     6
 78
     2
 67
     7
 79
     5
170
     0
171
     0
290
     0
174
     0
 93
        1
 44
0.0
173
     0
291
     1
 45
0.0
1001
ACAD
1000
AcDbSavedByObjectVersion
1070
     0
  0
VISUALSTYLE
  5
39
102
{ACAD_XDICTIONARY
360
377
102
}
102
{ACAD_REACTORS
330
2A
102
}
330
2A
100
AcDbVisualStyle
  2

 70
    15
 71
     2
 72
     2
 73
     0
 90
        0
 40
-0.6
 41
-30.0
 62
     5
 63
     7
421
 16777215
 74
     1
 91
        4
 64
     7
 65
   257
 75
     1
175
     1
 42
1.0
 92
        8
 66
     7
 43
1.0
 76
     1
 77
     6
 78
     2
 67
     7
 79
     5
170
     0
171
     0
290
     0
174
     0
 93
        1
 44
0.0
173
     0
291
     1
 45
0.0
1001
ACAD
1000
AcDbSavedByObjectVersion
1070
     0
  0
VISUALSTYLE
  5
2B
102
{ACAD_XDICTIONARY
360
35B
102
}
102
{ACAD_REACTORS
330
2A
102
}
330
2A
100
AcDbVisualStyle
  2

 70
     0
 71
     2
 72
     1
 73
     1
 90
        2
 40
-0.6
 41
30.0
 62
     5
 63
     7
421
 16777215
 74
     0
 91
        0
 64
     7
 65
   257
 75
     1
175
     1
 42
1.0
 92
        8
 66
     7
 43
1.0
 76
     1
 77
     6
 78
     2
 67
     7
 79
     5
170
     0
171
     0
290
     0
174
     0
 93
       13
 44
0.0
173
     0
291
     1
 45
0.0
1001
ACAD
1000
AcDbSavedByObjectVersion
1070
     0
  0
VISUALSTYLE
  5
2C
102
{ACAD_XDICTIONARY
360
35D
102
}
102
{ACAD_REACTORS
330
2A
102
}
330
2A
100
AcDbVisualStyle
  2

 70
     1
 71
     2
 72
     1
 73
     1
 90
        2
 40
-0.6
 41
30.0
 62
     5
 63
     7
421
 16777215
 74
     1
 91
        0
 64
     7
 65
   257
 75
     1
175
     1
 42
1.0
 92
        0
 66
   257
 43
1.0
 76
     1
 77
     6
 78
     2
 67
     7
 79
     5
170
     0
171
     0
290
     0
174
     0
 93
       13
 44
0.0
173
     0
291
     1
 45
0.0
1001
ACAD
1000
AcDbSavedByObjectVersion
1070
     0
  0
VISUALSTYLE
  5
2D
102
{ACAD_XDICTIONARY
360
35F
102
}
102
{ACAD_REACTORS
330
2A
102
}
330
2A
100
AcDbVisualStyle
  2

 70
     2
 71
     2
 72
     2
 73
     1
 90
        2
 40
-0.6
 41
30.0
 62
     5
 63
     7
421
 16777215
 74
     0
 91
        0
 64
     7
 65
   257
 75
     1
175
     1
 42
1.0
 92
        0
 66
     7
 43
1.0
 76
     1
 77
     6
 78
     2
 67
     7
 79
     5
170
     0
171
     0
290
     0
174
     0
 93
       13
 44
0.0
173
     0
291
     1
 45
0.0
1001
ACAD
1000
AcDbSavedByObjectVersion
1070
     0
  0
VISUALSTYLE
  5
2E
102
{ACAD_XDICTIONARY
360
361
102
}
102
{ACAD_REACTORS
330
2A
102
}
330
2A
100
AcDbVisualStyle
  2

 70
     3
 71
     2
 72
     2
 73
     1
 90
        2
 40
-0.6
 41
30.0
 62
     5
 63
     7
421
 16777215
 74
     1
 91
        0
 64
     7
 65
   257
 75
     1
175
     1
 42
1.0
 92
        0
 66
   257
 43
1.0
 76
     1
 77
     6
 78
     2
 67
     7
 79
     5
170
     0
171
     0
290
     0
174
     0
 93
       13
 44
0.0
173
     0
291
     1
 45
0.0
1001
ACAD
1000
AcDbSavedByObjectVersion
1070
     0
  0
VISUALSTYLE
  5
31
102
{ACAD_XDICTIONARY
360
367
102
}
102
{ACAD_REACTORS
330
2A
102
}
330
2A
100
AcDbVisualStyle
  2

 70
     6
 71
     1
 72
     2
 73
     2
 90
        0
 40
-0.6
 41
-30.0
 62
     5
 63
     7
421
 16777215
 74
     2
 91
        2
 64
     7
 65
   257
 75
     2
175
     1
 42
40.0
 92
        0
 66
   257
 43
1.0
 76
     1
 77
     6
 78
     2
 67
     7
 79
     3
170
     0
171
     0
290
     0
174
     0
 93
        1
 44
0.0
173
     0
291
     0
 45
0.0
1001
ACAD
1000
AcDbSavedByObjectVersion
1070
     0
  0
VISUALSTYLE
  5
3B
102
{ACAD_XDICTIONARY
360
37B
102
}
102
{ACAD_REACTORS
330
2A
102
}
330
2A
100
AcDbVisualStyle
  2

 70
    20
 71
     2
 72
     2
 73
     0
 90
        0
 40
-0.6
 41
-30.0
 62
     5
 63
     7
421
 16777215
 74
     1
 91
        4
 64
     7
 65
   257
 75
     1
175
     1
 42
1.0
 92
       10
 66
     7
 43
1.0
 76
     1
 77
     6
 78
     2
 67
     7
 79
     5
170
     0
171
     0
290
     0
174
     0
 93
        1
 44
0.0
173
     0
291
     1
 45
0.0
1001
ACAD
1000
AcDbSavedByObjectVersion
1070
     0
  0
VISUALSTYLE
  5
38
102
{ACAD_XDICTIONARY
360
375
102
}
102
{ACAD_REACTORS
330
2A
102
}
330
2A
100
AcDbVisualStyle
  2

 70
    14
 71
     2
 72
     2
 73
     0
 90
        0
 40
-0.6
 41
-30.0
 62
     5
 63
     7
421
 16777215
 74
     1
 91
        4
 64
     7
 65
   257
 75
     7
175
     7
 42
1.0
 92
        8
 66
     7
 43
1.0
 76
     1
 77
     6
 78
     2
 67
     7
 79
     5
170
     0
171
     0
290
     0
174
     0
 93
        1
 44
0.0
173
     0
291
     1
 45
0.0
1001
ACAD
1000
AcDbSavedByObjectVersion
1070
     0
  0
VISUALSTYLE
  5
3C
102
{ACAD_XDICTIONARY
360
37D
102
}
102
{ACAD_REACTORS
330
2A
102
}
330
2A
100
AcDbVisualStyle
  2

 70
    21
 71
     2
 72
     2
 73
     0
 90
        0
 40
-0.6
 41
-30.0
 62
     5
 63
     7
421
 16777215
 74
     1
 91
        4
 64
     7
 65
   257
 75
     1
175
     1
 42
1.0
 92
        9
 66
     7
 43
1.0
 76
     1
 77
     6
 78
     2
 67
     7
 79
     5
170
     0
171
     0
290
     0
174
     0
 93
        1
 44
0.0
173
     0
291
     1
 45
0.0
1001
ACAD
1000
AcDbSavedByObjectVersion
1070
     0
  0
VISUALSTYLE
  5
33
102
{ACAD_XDICTIONARY
360
36B
102
}
102
{ACAD_REACTORS
330
2A
102
}
330
2A
100
AcDbVisualStyle
  2

 70
     8
 71
     2
 72
     3
 73
     0
 90
        2
 40
-0.6
 41
30.0
 62
     5
 63
     7
421
 16777215
 74
     0
 91
        0
 64
     7
 65
   257
 75
     1
175
     1
 42
1.0
 92
        8
 66
   257
 43
1.0
 76
     1
 77
     6
 78
     2
 67
     7
 79
     3
170
     0
171
     0
290
     0
174
     0
 93
       13
 44
0.0
173
     0
291
     0
 45
0.0
1001
ACAD
1000
AcDbSavedByObjectVersion
1070
     0
  0
VISUALSTYLE
  5
42
102
{ACAD_XDICTIONARY
360
389
102
}
102
{ACAD_REACTORS
330
2A
102
}
330
2A
100
AcDbVisualStyle
  2

 70
    27
 71
     2
 72
     2
 73
     1
 90
        2
 40
-0.6
 41
30.0
 62
     5
 63
     7
421
 16777215
 74
     0
 91
        4
 64
     7
 65
   257
 75
     1
175
     1
 42
1.0
 92
        8
 66
   257
 43
1.0
 76
     1
 77
     6
 78
     2
 67
     8
425
  7895160
 79
     3
170
     0
171
     0
290
     0
174
     0
 93
        5
 44
0.0
173
     0
291
     0
 45
0.0
1001
ACAD
1000
AcDbSavedByObjectVersion
1070
     0
  0
VISUALSTYLE
  5
41
102
{ACAD_XDICTIONARY
360
387
102
}
102
{ACAD_REACTORS
330
2A
102
}
330
2A
100
AcDbVisualStyle
  2

 70
    26
 71
     2
 72
     2
 73
     1
 90
        2
 40
-0.6
 41
30.0
 62
     5
 63
     7
421
 16777215
 74
     1
 91
       10
 64
     7
 65
   257
 75
     2
175
     1
 42
1.0
 92
        8
 66
   257
 43
1.0
 76
     1
 77
     6
 78
     2
 67
     7
 79
     3
170
     0
171
     0
290
     0
174
     0
 93
        5
 44
0.0
173
     0
291
     0
 45
0.0
1001
ACAD
1000
AcDbSavedByObjectVersion
1070
     0
  0
VISUALSTYLE
  5
3E
102
{ACAD_XDICTIONARY
360
381
102
}
102
{ACAD_REACTORS
330
2A
102
}
330
2A
100
AcDbVisualStyle
  2

 70
    23
 71
     2
 72
     2
 73
     3
 90
        0
 40
-0.6
 41
-30.0
 62
     5
 63
     7
421
 16777215
 74
     2
 91
        2
 64
     7
 65
     7
 75
     1
175
     1
 42
40.0
 92
        8
 66
     7
 43
1.0
 76
     1
 77
     6
 78
     2
 67
     7
 79
     3
170
     0
171
     0
290
     0
174
     0
 93
        1
 44
0.0
173
     0
291
     0
 45
0.0
1001
ACAD
1000
AcDbSavedByObjectVersion
1070
     0
  0
VISUALSTYLE
  5
3F
102
{ACAD_XDICTIONARY
360
383
102
}
102
{ACAD_REACTORS
330
2A
102
}
330
2A
100
AcDbVisualStyle
  2

 70
    24
 71
     1
 72
     2
 73
     2
 90
        0
 40
-0.6
 41
-30.0
 62
     5
 63
     7
421
 16777215
 74
     2
 91
        2
 64
     7
 65
     7
 75
     1
175
     1
 42
40.0
 92
       11
 66
     7
 43
1.0
 76
     1
 77
     6
 78
     2
 67
     7
 79
     6
170
     0
171
     0
290
     0
174
     0
 93
        1
 44
0.0
173
     0
291
     0
 45
0.0
1001
ACAD
1000
AcDbSavedByObjectVersion
1070
     0
  0
VISUALSTYLE
  5
37
102
{ACAD_XDICTIONARY
360
373
102
}
102
{ACAD_REACTORS
330
2A
102
}
330
2A
100
AcDbVisualStyle
  2

 70
    13
 71
     2
 72
     2
 73
     0
 90
        0
 40
-0.6
 41
-30.0
 62
     5
 63
     7
421
 16777215
 74
     1
 91
        4
 64
     7
 65
   257
 75
     1
175
     1
 42
1.0
 92
       12
 66
     7
 43
1.0
 76
     1
 77
     6
 78
     2
 67
     7
 79
     5
170
     0
171
     0
290
     0
174
     0
 93
        1
 44
0.0
173
     0
291
     1
 45
0.0
1001
ACAD
1000
AcDbSavedByObjectVersion
1070
     0
  0
VISUALSTYLE
  5
30
102
{ACAD_XDICTIONARY
360
365
102
}
102
{ACAD_REACTORS
330
2A
102
}
330
2A
100
AcDbVisualStyle
  2

 70
     5
 71
     0
 72
     2
 73
     0
 90
        0
 40
-0.6
 41
-30.0
 62
     5
 63
     7
421
 16777215
 74
     1
 91
        4
 64
     7
 65
   257
 75
     1
175
     1
 42
1.0
 92
        0
 66
   257
 43
1.0
 76
     1
 77
     6
 78
     2
 67
     7
 79
     3
170
     0
171
     0
290
     0
174
     0
 93
        1
 44
0.0
173
     0
291
     0
 45
0.0
1001
ACAD
1000
AcDbSavedByObjectVersion
1070
     0
  0
VISUALSTYLE
  5
40
102
{ACAD_XDICTIONARY
360
385
102
}
102
{ACAD_REACTORS
330
2A
102
}
330
2A
100
AcDbVisualStyle
  2

 70
    25
 71
     2
 72
     2
 73
     1
 90
        1
 40
0.5
 41
-30.0
 62
     5
 63
     7
421
 16777215
 74
     1
 91
        0
 64
     7
 65
   257
 75
     1
175
     1
 42
1.0
 92
        8
 66
     7
 43
1.0
 76
     1
 77
     6
 78
     2
 67
     7
 79
     3
170
     0
171
     0
290
     0
174
     0
 93
       13
 44
0.0
173
     0
291
     0
 45
0.0
1001
ACAD
1000
AcDbSavedByObjectVersion
1070
     0
  0
DICTIONARYVAR
  5
2A9
102
{ACAD_REACTORS
330
2A8
102
}
330
2A8
100
DictionaryVariables
280
     0
  1
1:1
  0
DICTIONARYVAR
  5
2EA
102
{ACAD_REACTORS
330
2A8
102
}
330
2A8
100
DictionaryVariables
280
     0
  1
STANDARD
  0
DICTIONARYVAR
  5
2E9
102
{ACAD_REACTORS
330
2A8
102
}
330
2A8
100
DictionaryVariables
280
     0
  1
STANDARD
  0
DICTIONARYVAR
  5
355
102
{ACAD_REACTORS
330
2A8
102
}
330
2A8
100
DictionaryVariables
280
     0
  1
Metric50
  0
DICTIONARYVAR
  5
356
102
{ACAD_REACTORS
330
2A8
102
}
330
2A8
100
DictionaryVariables
280
     0
  1
Metric50
  0
DICTIONARYVAR
  5
2AA
102
{ACAD_REACTORS
330
2A8
102
}
330
2A8
100
DictionaryVariables
280
     0
  1
1
  0
DICTIONARYVAR
  5
357
102
{ACAD_REACTORS
330
2A8
102
}
330
2A8
100
DictionaryVariables
280
     0
  1
2
  0
DICTIONARY
  5
38E
330
2F1
100
AcDbDictionary
280
     1
281
     1
  3
ACAD_XREC_ROUNDTRIP
360
38F
  0
DICTIONARY
  5
2DE
330
45
100
AcDbDictionary
280
     1
281
     1
  3
ACAD_XREC_ROUNDTRIP
360
2DF
  0
DICTIONARY
  5
2DC
330
44
100
AcDbDictionary
280
     1
281
     1
  3
ACAD_XREC_ROUNDTRIP
360
2DD
  0
DICTIONARY
  5
2E0
330
46
100
AcDbDictionary
280
     1
281
     1
  3
ACAD_XREC_ROUNDTRIP
360
2E1
  0
DICTIONARY
  5
38C
330
2F0
100
AcDbDictionary
280
     1
281
     1
  3
ACAD_XREC_ROUNDTRIP
360
38D
  0
DICTIONARY
  5
2E2
330
6A
100
AcDbDictionary
280
     1
281
     1
  3
ACAD_ROUNDTRIP_2008_TABLESTYLE_CELLSTYLEMAP
360
359
  3
ACAD_XREC_ROUNDTRIP
360
38B
  0
DICTIONARY
  5
363
330
2F
100
AcDbDictionary
280
     1
281
     1
  3
ACAD_XREC_ROUNDTRIP
360
364
  0
DICTIONARY
  5
369
330
32
100
AcDbDictionary
280
     1
281
     1
  3
ACAD_XREC_ROUNDTRIP
360
36A
  0
DICTIONARY
  5
371
330
36
100
AcDbDictionary
280
     1
281
     1
  3
ACAD_XREC_ROUNDTRIP
360
372
  0
DICTIONARY
  5
379
330
3A
100
AcDbDictionary
280
     1
281
     1
  3
ACAD_XREC_ROUNDTRIP
360
37A
  0
DICTIONARY
  5
36D
330
34
100
AcDbDictionary
280
     1
281
     1
  3
ACAD_XREC_ROUNDTRIP
360
36E
  0
DICTIONARY
  5
36F
330
35
100
AcDbDictionary
280
     1
281
     1
  3
ACAD_XREC_ROUNDTRIP
360
370
  0
DICTIONARY
  5
37F
330
3D
100
AcDbDictionary
280
     1
281
     1
  3
ACAD_XREC_ROUNDTRIP
360
380
  0
DICTIONARY
  5
377
330
39
100
AcDbDictionary
280
     1
281
     1
  3
ACAD_XREC_ROUNDTRIP
360
378
  0
DICTIONARY
  5
35B
330
2B
100
AcDbDictionary
280
     1
281
     1
  3
ACAD_XREC_ROUNDTRIP
360
35C
  0
DICTIONARY
  5
35D
330
2C
100
AcDbDictionary
280
     1
281
     1
  3
ACAD_XREC_ROUNDTRIP
360
35E
  0
DICTIONARY
  5
35F
330
2D
100
AcDbDictionary
280
     1
281
     1
  3
ACAD_XREC_ROUNDTRIP
360
360
  0
DICTIONARY
  5
361
330
2E
100
AcDbDictionary
280
     1
281
     1
  3
ACAD_XREC_ROUNDTRIP
360
362
  0
DICTIONARY
  5
367
330
31
100
AcDbDictionary
280
     1
281
     1
  3
ACAD_XREC_ROUNDTRIP
360
368
  0
DICTIONARY
  5
37B
330
3B
100
AcDbDictionary
280
     1
281
     1
  3
ACAD_XREC_ROUNDTRIP
360
37C
  0
DICTIONARY
  5
375
330
38
100
AcDbDictionary
280
     1
281
     1
  3
ACAD_XREC_ROUNDTRIP
360
376
  0
DICTIONARY
  5
37D
330
3C
100
AcDbDictionary
280
     1
281
     1
  3
ACAD_XREC_ROUNDTRIP
360
37E
  0
DICTIONARY
  5
36B
330
33
100
AcDbDictionary
280
     1
281
     1
  3
ACAD_XREC_ROUNDTRIP
360
36C
  0
DICTIONARY
  5
389
330
42
100
AcDbDictionary
280
     1
281
     1
  3
ACAD_XREC_ROUNDTRIP
360
38A
  0
DICTIONARY
  5
387
330
41
100
AcDbDictionary
280
     1
281
     1
  3
ACAD_XREC_ROUNDTRIP
360
388
  0
DICTIONARY
  5
381
330
3E
100
AcDbDictionary
280
     1
281
     1
  3
ACAD_XREC_ROUNDTRIP
360
382
  0
DICTIONARY
  5
383
330
3F
100
AcDbDictionary
280
     1
281
     1
  3
ACAD_XREC_ROUNDTRIP
360
384
  0
DICTIONARY
  5
373
330
37
100
AcDbDictionary
280
     1
281
     1
  3
ACAD_XREC_ROUNDTRIP
360
374
  0
DICTIONARY
  5
365
330
30
100
AcDbDictionary
280
     1
281
     1
  3
ACAD_XREC_ROUNDTRIP
360
366
  0
DICTIONARY
  5
385
330
40
100
AcDbDictionary
280
     1
281
     1
  3
ACAD_XREC_ROUNDTRIP
360
386
  0
XRECORD
  5
38F
102
{ACAD_REACTORS
330
38E
102
}
330
38E
100
AcDbXrecord
280
     1
102
DISPLAYNAME
  1
Metric50
102
FLAGS
 90
        0
  0
XRECORD
  5
2DF
102
{ACAD_REACTORS
330
2DE
102
}
330
2DE
100
AcDbXrecord
280
     1
102
MATERIAL
148
0.0
149
0.0
149
0.0
 93
        0
 94
      127
282
     0
 72
     1
 77
     1
171
     1
175
     1
179
     1
273
     0
  0
XRECORD
  5
2DD
102
{ACAD_REACTORS
330
2DC
102
}
330
2DC
100
AcDbXrecord
280
     1
102
MATERIAL
148
0.0
149
0.0
149
0.0
 93
        0
 94
      127
282
     0
 72
     1
 77
     1
171
     1
175
     1
179
     1
273
     0
  0
XRECORD
  5
2E1
102
{ACAD_REACTORS
330
2E0
102
}
330
2E0
100
AcDbXrecord
280
     1
102
MATERIAL
148
0.0
149
0.0
149
0.0
 93
        0
 94
      127
282
     0
 72
     1
 77
     1
171
     1
175
     1
179
     1
273
     0
  0
XRECORD
  5
38D
102
{ACAD_REACTORS
330
38C
102
}
330
38C
100
AcDbXrecord
280
     1
102
DISPLAYNAME
  1
Metric50
102
FLAGS
 90
        0
  0
CELLSTYLEMAP
  5
359
102
{ACAD_REACTORS
330
2E2
102
}
330
2E2
100
AcDbCellStyleMap
 90
        3
300
CELLSTYLE
  1
TABLEFORMAT_BEGIN
 90
        5
170
     1
 91
        0
 92
    32768
 62
   257
 93
        1
300
CONTENTFORMAT
  1
CONTENTFORMAT_BEGIN
 90
        0
 91
        0
 92
        4
 93
        0
300

 40
0.0
140
1.0
 94
        5
 62
     0
340
11
144
0.25
309
CONTENTFORMAT_END
171
     1
301
MARGIN
  1
CELLMARGIN_BEGIN
 40
0.06
 40
0.06
 40
0.06
 40
0.06
 40
0.18
 40
0.18
309
CELLMARGIN_END
 94
        6
 95
        1
302
GRIDFORMAT
  1
GRIDFORMAT_BEGIN
 90
        0
 91
        1
 62
     0
 92
       -2
340
14
 93
        0
 40
0.045
309
GRIDFORMAT_END
 95
        2
302
GRIDFORMAT
  1
GRIDFORMAT_BEGIN
 90
        0
 91
        1
 62
     0
 92
       -2
340
14
 93
        0
 40
0.045
309
GRIDFORMAT_END
 95
        4
302
GRIDFORMAT
  1
GRIDFORMAT_BEGIN
 90
        0
 91
        1
 62
     0
 92
       -2
340
14
 93
        0
 40
0.045
309
GRIDFORMAT_END
 95
        8
302
GRIDFORMAT
  1
GRIDFORMAT_BEGIN
 90
        0
 91
        1
 62
     0
 92
       -2
340
14
 93
        0
 40
0.045
309
GRIDFORMAT_END
 95
       16
302
GRIDFORMAT
  1
GRIDFORMAT_BEGIN
 90
        0
 91
        1
 62
     0
 92
       -2
340
14
 93
        0
 40
0.045
309
GRIDFORMAT_END
 95
       32
302
GRIDFORMAT
  1
GRIDFORMAT_BEGIN
 90
        0
 91
        1
 62
     0
 92
       -2
340
14
 93
        0
 40
0.045
309
GRIDFORMAT_END
309
TABLEFORMAT_END
  1
CELLSTYLE_BEGIN
 90
        1
 91
        1
300
_TITLE
309
CELLSTYLE_END
300
CELLSTYLE
  1
TABLEFORMAT_BEGIN
 90
        5
170
     1
 91
        0
 92
        0
 62
   257
 93
        1
300
CONTENTFORMAT
  1
CONTENTFORMAT_BEGIN
 90
        0
 91
        0
 92
        4
 93
        0
300

 40
0.0
140
1.0
 94
        5
 62
     0
340
11
144
0.18
309
CONTENTFORMAT_END
171
     1
301
MARGIN
  1
CELLMARGIN_BEGIN
 40
0.06
 40
0.06
 40
0.06
 40
0.06
 40
0.18
 40
0.18
309
CELLMARGIN_END
 94
        6
 95
        1
302
GRIDFORMAT
  1
GRIDFORMAT_BEGIN
 90
        0
 91
        1
 62
     0
 92
       -2
340
14
 93
        0
 40
0.045
309
GRIDFORMAT_END
 95
        2
302
GRIDFORMAT
  1
GRIDFORMAT_BEGIN
 90
        0
 91
        1
 62
     0
 92
       -2
340
14
 93
        0
 40
0.045
309
GRIDFORMAT_END
 95
        4
302
GRIDFORMAT
  1
GRIDFORMAT_BEGIN
 90
        0
 91
        1
 62
     0
 92
       -2
340
14
 93
        0
 40
0.045
309
GRIDFORMAT_END
 95
        8
302
GRIDFORMAT
  1
GRIDFORMAT_BEGIN
 90
        0
 91
        1
 62
     0
 92
       -2
340
14
 93
        0
 40
0.045
309
GRIDFORMAT_END
 95
       16
302
GRIDFORMAT
  1
GRIDFORMAT_BEGIN
 90
        0
 91
        1
 62
     0
 92
       -2
340
14
 93
        0
 40
0.045
309
GRIDFORMAT_END
 95
       32
302
GRIDFORMAT
  1
GRIDFORMAT_BEGIN
 90
        0
 91
        1
 62
     0
 92
       -2
340
14
 93
        0
 40
0.045
309
GRIDFORMAT_END
309
TABLEFORMAT_END
  1
CELLSTYLE_BEGIN
 90
        2
 91
        1
300
_HEADER
309
CELLSTYLE_END
300
CELLSTYLE
  1
TABLEFORMAT_BEGIN
 90
        5
170
     1
 91
        0
 92
        0
 62
   257
 93
        1
300
CONTENTFORMAT
  1
CONTENTFORMAT_BEGIN
 90
        0
 91
        0
 92
        4
 93
        0
300

 40
0.0
140
1.0
 94
        2
 62
     0
340
11
144
0.18
309
CONTENTFORMAT_END
171
     1
301
MARGIN
  1
CELLMARGIN_BEGIN
 40
0.06
 40
0.06
 40
0.06
 40
0.06
 40
0.18
 40
0.18
309
CELLMARGIN_END
 94
        6
 95
        1
302
GRIDFORMAT
  1
GRIDFORMAT_BEGIN
 90
        0
 91
        1
 62
     0
 92
       -2
340
14
 93
        0
 40
0.045
309
GRIDFORMAT_END
 95
        2
302
GRIDFORMAT
  1
GRIDFORMAT_BEGIN
 90
        0
 91
        1
 62
     0
 92
       -2
340
14
 93
        0
 40
0.045
309
GRIDFORMAT_END
 95
        4
302
GRIDFORMAT
  1
GRIDFORMAT_BEGIN
 90
        0
 91
        1
 62
     0
 92
       -2
340
14
 93
        0
 40
0.045
309
GRIDFORMAT_END
 95
        8
302
GRIDFORMAT
  1
GRIDFORMAT_BEGIN
 90
        0
 91
        1
 62
     0
 92
       -2
340
14
 93
        0
 40
0.045
309
GRIDFORMAT_END
 95
       16
302
GRIDFORMAT
  1
GRIDFORMAT_BEGIN
 90
        0
 91
        1
 62
     0
 92
       -2
340
14
 93
        0
 40
0.045
309
GRIDFORMAT_END
 95
       32
302
GRIDFORMAT
  1
GRIDFORMAT_BEGIN
 90
        0
 91
        1
 62
     0
 92
       -2
340
14
 93
        0
 40
0.045
309
GRIDFORMAT_END
309
TABLEFORMAT_END
  1
CELLSTYLE_BEGIN
 90
        3
 91
        2
300
_DATA
309
CELLSTYLE_END
  0
XRECORD
  5
38B
102
{ACAD_REACTORS
330
2E2
102
}
330
2E2
100
AcDbXrecord
280
     1
102
ACAD_ROUNDTRIP_PRE2007_TABLESTYLE
 90
        4
 91
        0
  1

 92
        4
 93
        0
  2

 94
        4
 95
        0
  3

  0
XRECORD
  5
364
102
{ACAD_REACTORS
330
363
102
}
330
363
100
AcDbXrecord
280
     1
102
RTVSPost2010Prop28
280
     1
102
RTVSPost2010PropOp28
 70
     1
102
RTVSPost2010Prop29
280
     1
102
RTVSPost2010PropOp29
 70
     1
102
RTVSPost2010Prop30
280
     0
102
RTVSPost2010PropOp30
 70
     1
102
RTVSPost2010Prop31
280
     0
102
RTVSPost2010PropOp31
 70
     1
102
RTVSPost2010Prop32
280
     0
102
RTVSPost2010PropOp32
 70
     1
102
RTVSPost2010Prop33
280
     0
102
RTVSPost2010PropOp33
 70
     1
102
RTVSPost2010Prop34
280
     0
102
RTVSPost2010PropOp34
 70
     1
102
RTVSPost2010Prop35
280
     0
102
RTVSPost2010PropOp35
 70
     1
102
RTVSPost2010Prop36
280
     0
102
RTVSPost2010PropOp36
 70
     1
102
RTVSPost2010Prop37
 90
       50
102
RTVSPost2010PropOp37
 70
     1
102
RTVSPost2010Prop38
140
0.0
102
RTVSPost2010PropOp38
 70
     1
102
RTVSPost2010Prop39
140
1.0
102
RTVSPost2010PropOp39
 70
     1
102
RTVSPost2010Prop40
 90
        0
102
RTVSPost2010PropOp40
 70
     1
102
RTVSPost2010Prop41ColorIndex
 90
       18
102
RTVSPost2010Prop41ColorRGB
 90
        0
102
RTVSPost2010PropOp41
 70
     1
102
RTVSPost2010Prop42
 90
       50
102
RTVSPost2010PropOp42
 70
     1
102
RTVSPost2010Prop43
 90
        3
102
RTVSPost2010PropOp43
 70
     1
102
RTVSPost2010Prop44ColorIndex
 90
        5
102
RTVSPost2010Prop44ColorRGB
 90
      255
102
RTVSPost2010PropOp44
 70
     1
102
RTVSPost2010Prop45
280
     0
102
RTVSPost2010PropOp45
 70
     1
102
RTVSPost2010Prop46
 90
       50
102
RTVSPost2010PropOp46
 70
     1
102
RTVSPost2010Prop47
 90
       50
102
RTVSPost2010PropOp47
 70
     1
102
RTVSPost2010Prop48
 90
       50
102
RTVSPost2010PropOp48
 70
     1
102
RTVSPost2010Prop49
280
     0
102
RTVSPost2010PropOp49
 70
     1
102
RTVSPost2010Prop50
 90
       50
102
RTVSPost2010PropOp50
 70
     1
102
RTVSPost2010Prop51ColorIndex
 90
      256
102
RTVSPost2010Prop51ColorRGB
 90
-16777216
102
RTVSPost2010PropOp51
 70
     0
102
RTVSPost2010Prop52
140
1.0
102
RTVSPost2010PropOp52
 70
     0
102
RTVSPost2010Prop53
 90
        2
102
RTVSPost2010PropOp53
 70
     1
102
RTVSPost2010Prop54
  1
strokes_ogs.tif
102
RTVSPost2010PropOp54
 70
     1
102
RTVSPost2010Prop55
280
     0
102
RTVSPost2010PropOp55
 70
     1
102
RTVSPost2010Prop56
140
1.0
102
RTVSPost2010PropOp56
 70
     1
102
RTVSPost2010Prop57
140
1.0
102
RTVSPost2010PropOp57
 70
     1
102
RTVSPropertyOp0
 70
     1
102
RTVSPropertyOp1
 70
     1
102
RTVSPropertyOp2
 70
     1
102
RTVSPropertyOp3
 70
     1
102
RTVSPropertyOp4
 70
     1
102
RTVSPropertyOp5
 70
     1
102
RTVSPropertyOp6
 70
     1
102
RTVSPropertyOp7
 70
     1
102
RTVSPropertyOp8
 70
     1
102
RTVSPropertyOp9
 70
     1
102
RTVSPropertyOp10
 70
     1
102
RTVSPropertyOp11
 70
     1
102
RTVSPropertyOp12
 70
     1
102
RTVSPropertyOp13
 70
     1
102
RTVSPropertyOp14
 70
     1
102
RTVSPropertyOp15
 70
     1
102
RTVSPropertyOp16
 70
     1
102
RTVSPropertyOp17
 70
     1
102
RTVSPropertyOp18
 70
     1
102
RTVSPropertyOp19
 70
     1
102
RTVSPropertyOp20
 70
     1
102
RTVSPropertyOp21
 70
     1
102
RTVSPropertyOp22
 70
     1
102
RTVSPropertyOp23
 70
     1
102
RTVSPropertyOp24
 70
     1
102
RTVSPropertyOp25
 70
     1
102
RTVSPropertyOp26
 70
     1
102
RTVSPropertyOp27
 70
     1
102
RTVSPropertyOp28
 70
     1
102
RTVSPropertyOp29
 70
     1
102
RTVSPropertyOp30
 70
     1
102
RTVSPropertyOp31
 70
     1
102
RTVSPropertyOp32
 70
     1
102
RTVSPropertyOp33
 70
     1
102
RTVSPropertyOp34
 70
     1
102
RTVSPropertyOp35
 70
     1
102
RTVSPropertyOp36
 70
     1
102
RTVSPropertyOp37
 70
     1
102
RTVSPropertyOp38
 70
     1
102
RTVSPropertyOp39
 70
     1
102
RTVSPropertyOp40
 70
     1
102
RTVSPropertyOp41
 70
     1
102
RTVSPropertyOp42
 70
     1
102
RTVSPropertyOp43
 70
     1
102
RTVSPropertyOp44
 70
     1
102
RTVSPropertyOp45
 70
     1
102
RTVSPropertyOp46
 70
     1
102
RTVSPropertyOp47
 70
     1
102
RTVSPropertyOp48
 70
     1
102
RTVSPropertyOp49
 70
     1
102
RTVSPropertyOp50
 70
     1
102
RTVSPropertyOp51
 70
     0
102
RTVSPropertyOp52
 70
     0
102
RTVSPropertyOp53
 70
     1
102
RTVSPropertyOp54
 70
     1
102
RTVSPropertyOp55
 70
     1
102
RTVSPropertyOp56
 70
     1
102
RTVSPropertyOp57
 70
     1
102
RTVSPropertyOp58
 70
     1
102
RTVSPropertyOp59
 70
     1
102
RTVSPropertyOp60
 70
     1
102
RTVSPropertyOp61
 70
     1
102
RTVSPropertyOp62
 70
     1
  0
XRECORD
  5
36A
102
{ACAD_REACTORS
330
369
102
}
330
369
100
AcDbXrecord
280
     1
102
RTVSPost2010Prop28
280
     0
102
RTVSPost2010PropOp28
 70
     1
102
RTVSPost2010Prop29
280
     1
102
RTVSPost2010PropOp29
 70
     1
102
RTVSPost2010Prop30
280
     1
102
RTVSPost2010PropOp30
 70
     1
102
RTVSPost2010Prop31
280
     0
102
RTVSPost2010PropOp31
 70
     1
102
RTVSPost2010Prop32
280
     0
102
RTVSPost2010PropOp32
 70
     1
102
RTVSPost2010Prop33
280
     0
102
RTVSPost2010PropOp33
 70
     1
102
RTVSPost2010Prop34
280
     0
102
RTVSPost2010PropOp34
 70
     1
102
RTVSPost2010Prop35
280
     0
102
RTVSPost2010PropOp35
 70
     1
102
RTVSPost2010Prop36
280
     0
102
RTVSPost2010PropOp36
 70
     1
102
RTVSPost2010Prop37
 90
       50
102
RTVSPost2010PropOp37
 70
     1
102
RTVSPost2010Prop38
140
0.0
102
RTVSPost2010PropOp38
 70
     1
102
RTVSPost2010Prop39
140
1.0
102
RTVSPost2010PropOp39
 70
     1
102
RTVSPost2010Prop40
 90
        0
102
RTVSPost2010PropOp40
 70
     1
102
RTVSPost2010Prop41ColorIndex
 90
       18
102
RTVSPost2010Prop41ColorRGB
 90
        0
102
RTVSPost2010PropOp41
 70
     1
102
RTVSPost2010Prop42
 90
       50
102
RTVSPost2010PropOp42
 70
     1
102
RTVSPost2010Prop43
 90
        3
102
RTVSPost2010PropOp43
 70
     1
102
RTVSPost2010Prop44ColorIndex
 90
        5
102
RTVSPost2010Prop44ColorRGB
 90
      255
102
RTVSPost2010PropOp44
 70
     1
102
RTVSPost2010Prop45
280
     0
102
RTVSPost2010PropOp45
 70
     1
102
RTVSPost2010Prop46
 90
       50
102
RTVSPost2010PropOp46
 70
     1
102
RTVSPost2010Prop47
 90
       50
102
RTVSPost2010PropOp47
 70
     1
102
RTVSPost2010Prop48
 90
       50
102
RTVSPost2010PropOp48
 70
     1
102
RTVSPost2010Prop49
280
     0
102
RTVSPost2010PropOp49
 70
     1
102
RTVSPost2010Prop50
 90
       50
102
RTVSPost2010PropOp50
 70
     1
102
RTVSPost2010Prop51ColorIndex
 90
      256
102
RTVSPost2010Prop51ColorRGB
 90
-16777216
102
RTVSPost2010PropOp51
 70
     0
102
RTVSPost2010Prop52
140
1.0
102
RTVSPost2010PropOp52
 70
     0
102
RTVSPost2010Prop53
 90
        2
102
RTVSPost2010PropOp53
 70
     1
102
RTVSPost2010Prop54
  1
strokes_ogs.tif
102
RTVSPost2010PropOp54
 70
     1
102
RTVSPost2010Prop55
280
     0
102
RTVSPost2010PropOp55
 70
     1
102
RTVSPost2010Prop56
140
1.0
102
RTVSPost2010PropOp56
 70
     1
102
RTVSPost2010Prop57
140
1.0
102
RTVSPost2010PropOp57
 70
     1
102
RTVSPropertyOp0
 70
     1
102
RTVSPropertyOp1
 70
     1
102
RTVSPropertyOp2
 70
     1
102
RTVSPropertyOp3
 70
     1
102
RTVSPropertyOp4
 70
     1
102
RTVSPropertyOp5
 70
     1
102
RTVSPropertyOp6
 70
     1
102
RTVSPropertyOp7
 70
     1
102
RTVSPropertyOp8
 70
     1
102
RTVSPropertyOp9
 70
     1
102
RTVSPropertyOp10
 70
     1
102
RTVSPropertyOp11
 70
     1
102
RTVSPropertyOp12
 70
     1
102
RTVSPropertyOp13
 70
     1
102
RTVSPropertyOp14
 70
     1
102
RTVSPropertyOp15
 70
     1
102
RTVSPropertyOp16
 70
     1
102
RTVSPropertyOp17
 70
     1
102
RTVSPropertyOp18
 70
     1
102
RTVSPropertyOp19
 70
     1
102
RTVSPropertyOp20
 70
     1
102
RTVSPropertyOp21
 70
     1
102
RTVSPropertyOp22
 70
     1
102
RTVSPropertyOp23
 70
     1
102
RTVSPropertyOp24
 70
     1
102
RTVSPropertyOp25
 70
     1
102
RTVSPropertyOp26
 70
     1
102
RTVSPropertyOp27
 70
     1
102
RTVSPropertyOp28
 70
     1
102
RTVSPropertyOp29
 70
     1
102
RTVSPropertyOp30
 70
     1
102
RTVSPropertyOp31
 70
     1
102
RTVSPropertyOp32
 70
     1
102
RTVSPropertyOp33
 70
     1
102
RTVSPropertyOp34
 70
     1
102
RTVSPropertyOp35
 70
     1
102
RTVSPropertyOp36
 70
     1
102
RTVSPropertyOp37
 70
     1
102
RTVSPropertyOp38
 70
     1
102
RTVSPropertyOp39
 70
     1
102
RTVSPropertyOp40
 70
     1
102
RTVSPropertyOp41
 70
     1
102
RTVSPropertyOp42
 70
     1
102
RTVSPropertyOp43
 70
     1
102
RTVSPropertyOp44
 70
     1
102
RTVSPropertyOp45
 70
     1
102
RTVSPropertyOp46
 70
     1
102
RTVSPropertyOp47
 70
     1
102
RTVSPropertyOp48
 70
     1
102
RTVSPropertyOp49
 70
     1
102
RTVSPropertyOp50
 70
     1
102
RTVSPropertyOp51
 70
     0
102
RTVSPropertyOp52
 70
     0
102
RTVSPropertyOp53
 70
     1
102
RTVSPropertyOp54
 70
     1
102
RTVSPropertyOp55
 70
     1
102
RTVSPropertyOp56
 70
     1
102
RTVSPropertyOp57
 70
     1
102
RTVSPropertyOp58
 70
     1
102
RTVSPropertyOp59
 70
     1
102
RTVSPropertyOp60
 70
     1
102
RTVSPropertyOp61
 70
     1
102
RTVSPropertyOp62
 70
     1
  0
XRECORD
  5
372
102
{ACAD_REACTORS
330
371
102
}
330
371
100
AcDbXrecord
280
     1
102
RTVSPost2010Prop28
280
     0
102
RTVSPost2010PropOp28
 70
     1
102
RTVSPost2010Prop29
280
     1
102
RTVSPost2010PropOp29
 70
     1
102
RTVSPost2010Prop30
280
     1
102
RTVSPost2010PropOp30
 70
     1
102
RTVSPost2010Prop31
280
     0
102
RTVSPost2010PropOp31
 70
     1
102
RTVSPost2010Prop32
280
     0
102
RTVSPost2010PropOp32
 70
     1
102
RTVSPost2010Prop33
280
     0
102
RTVSPost2010PropOp33
 70
     1
102
RTVSPost2010Prop34
280
     0
102
RTVSPost2010PropOp34
 70
     1
102
RTVSPost2010Prop35
280
     0
102
RTVSPost2010PropOp35
 70
     1
102
RTVSPost2010Prop36
280
     0
102
RTVSPost2010PropOp36
 70
     1
102
RTVSPost2010Prop37
 90
       50
102
RTVSPost2010PropOp37
 70
     1
102
RTVSPost2010Prop38
140
0.0
102
RTVSPost2010PropOp38
 70
     1
102
RTVSPost2010Prop39
140
1.0
102
RTVSPost2010PropOp39
 70
     1
102
RTVSPost2010Prop40
 90
        0
102
RTVSPost2010PropOp40
 70
     1
102
RTVSPost2010Prop41ColorIndex
 90
       18
102
RTVSPost2010Prop41ColorRGB
 90
        0
102
RTVSPost2010PropOp41
 70
     1
102
RTVSPost2010Prop42
 90
       50
102
RTVSPost2010PropOp42
 70
     1
102
RTVSPost2010Prop43
 90
        3
102
RTVSPost2010PropOp43
 70
     1
102
RTVSPost2010Prop44ColorIndex
 90
        5
102
RTVSPost2010Prop44ColorRGB
 90
      255
102
RTVSPost2010PropOp44
 70
     1
102
RTVSPost2010Prop45
280
     0
102
RTVSPost2010PropOp45
 70
     1
102
RTVSPost2010Prop46
 90
       50
102
RTVSPost2010PropOp46
 70
     1
102
RTVSPost2010Prop47
 90
       50
102
RTVSPost2010PropOp47
 70
     1
102
RTVSPost2010Prop48
 90
       50
102
RTVSPost2010PropOp48
 70
     1
102
RTVSPost2010Prop49
280
     0
102
RTVSPost2010PropOp49
 70
     1
102
RTVSPost2010Prop50
 90
       50
102
RTVSPost2010PropOp50
 70
     1
102
RTVSPost2010Prop51ColorIndex
 90
      256
102
RTVSPost2010Prop51ColorRGB
 90
-16777216
102
RTVSPost2010PropOp51
 70
     0
102
RTVSPost2010Prop52
140
1.0
102
RTVSPost2010PropOp52
 70
     0
102
RTVSPost2010Prop53
 90
        2
102
RTVSPost2010PropOp53
 70
     1
102
RTVSPost2010Prop54
  1
strokes_ogs.tif
102
RTVSPost2010PropOp54
 70
     1
102
RTVSPost2010Prop55
280
     0
102
RTVSPost2010PropOp55
 70
     1
102
RTVSPost2010Prop56
140
1.0
102
RTVSPost2010PropOp56
 70
     1
102
RTVSPost2010Prop57
140
1.0
102
RTVSPost2010PropOp57
 70
     1
102
RTVSPropertyOp0
 70
     1
102
RTVSPropertyOp1
 70
     1
102
RTVSPropertyOp2
 70
     1
102
RTVSPropertyOp3
 70
     1
102
RTVSPropertyOp4
 70
     1
102
RTVSPropertyOp5
 70
     1
102
RTVSPropertyOp6
 70
     1
102
RTVSPropertyOp7
 70
     1
102
RTVSPropertyOp8
 70
     1
102
RTVSPropertyOp9
 70
     1
102
RTVSPropertyOp10
 70
     1
102
RTVSPropertyOp11
 70
     1
102
RTVSPropertyOp12
 70
     1
102
RTVSPropertyOp13
 70
     1
102
RTVSPropertyOp14
 70
     1
102
RTVSPropertyOp15
 70
     1
102
RTVSPropertyOp16
 70
     1
102
RTVSPropertyOp17
 70
     1
102
RTVSPropertyOp18
 70
     1
102
RTVSPropertyOp19
 70
     1
102
RTVSPropertyOp20
 70
     1
102
RTVSPropertyOp21
 70
     1
102
RTVSPropertyOp22
 70
     1
102
RTVSPropertyOp23
 70
     1
102
RTVSPropertyOp24
 70
     1
102
RTVSPropertyOp25
 70
     1
102
RTVSPropertyOp26
 70
     1
102
RTVSPropertyOp27
 70
     1
102
RTVSPropertyOp28
 70
     1
102
RTVSPropertyOp29
 70
     1
102
RTVSPropertyOp30
 70
     1
102
RTVSPropertyOp31
 70
     1
102
RTVSPropertyOp32
 70
     1
102
RTVSPropertyOp33
 70
     1
102
RTVSPropertyOp34
 70
     1
102
RTVSPropertyOp35
 70
     1
102
RTVSPropertyOp36
 70
     1
102
RTVSPropertyOp37
 70
     1
102
RTVSPropertyOp38
 70
     1
102
RTVSPropertyOp39
 70
     1
102
RTVSPropertyOp40
 70
     1
102
RTVSPropertyOp41
 70
     1
102
RTVSPropertyOp42
 70
     1
102
RTVSPropertyOp43
 70
     1
102
RTVSPropertyOp44
 70
     1
102
RTVSPropertyOp45
 70
     1
102
RTVSPropertyOp46
 70
     1
102
RTVSPropertyOp47
 70
     1
102
RTVSPropertyOp48
 70
     1
102
RTVSPropertyOp49
 70
     1
102
RTVSPropertyOp50
 70
     1
102
RTVSPropertyOp51
 70
     0
102
RTVSPropertyOp52
 70
     0
102
RTVSPropertyOp53
 70
     1
102
RTVSPropertyOp54
 70
     1
102
RTVSPropertyOp55
 70
     1
102
RTVSPropertyOp56
 70
     1
102
RTVSPropertyOp57
 70
     1
102
RTVSPropertyOp58
 70
     1
102
RTVSPropertyOp59
 70
     1
102
RTVSPropertyOp60
 70
     1
102
RTVSPropertyOp61
 70
     1
102
RTVSPropertyOp62
 70
     1
  0
XRECORD
  5
37A
102
{ACAD_REACTORS
330
379
102
}
330
379
100
AcDbXrecord
280
     1
102
RTVSPost2010Prop28
280
     0
102
RTVSPost2010PropOp28
 70
     1
102
RTVSPost2010Prop29
280
     1
102
RTVSPost2010PropOp29
 70
     1
102
RTVSPost2010Prop30
280
     1
102
RTVSPost2010PropOp30
 70
     1
102
RTVSPost2010Prop31
280
     0
102
RTVSPost2010PropOp31
 70
     1
102
RTVSPost2010Prop32
280
     0
102
RTVSPost2010PropOp32
 70
     1
102
RTVSPost2010Prop33
280
     0
102
RTVSPost2010PropOp33
 70
     1
102
RTVSPost2010Prop34
280
     0
102
RTVSPost2010PropOp34
 70
     1
102
RTVSPost2010Prop35
280
     0
102
RTVSPost2010PropOp35
 70
     1
102
RTVSPost2010Prop36
280
     0
102
RTVSPost2010PropOp36
 70
     1
102
RTVSPost2010Prop37
 90
       50
102
RTVSPost2010PropOp37
 70
     1
102
RTVSPost2010Prop38
140
0.0
102
RTVSPost2010PropOp38
 70
     1
102
RTVSPost2010Prop39
140
1.0
102
RTVSPost2010PropOp39
 70
     1
102
RTVSPost2010Prop40
 90
        0
102
RTVSPost2010PropOp40
 70
     1
102
RTVSPost2010Prop41ColorIndex
 90
       18
102
RTVSPost2010Prop41ColorRGB
 90
        0
102
RTVSPost2010PropOp41
 70
     1
102
RTVSPost2010Prop42
 90
       50
102
RTVSPost2010PropOp42
 70
     1
102
RTVSPost2010Prop43
 90
        3
102
RTVSPost2010PropOp43
 70
     1
102
RTVSPost2010Prop44ColorIndex
 90
        5
102
RTVSPost2010Prop44ColorRGB
 90
      255
102
RTVSPost2010PropOp44
 70
     1
102
RTVSPost2010Prop45
280
     0
102
RTVSPost2010PropOp45
 70
     1
102
RTVSPost2010Prop46
 90
       50
102
RTVSPost2010PropOp46
 70
     1
102
RTVSPost2010Prop47
 90
       50
102
RTVSPost2010PropOp47
 70
     1
102
RTVSPost2010Prop48
 90
       50
102
RTVSPost2010PropOp48
 70
     1
102
RTVSPost2010Prop49
280
     0
102
RTVSPost2010PropOp49
 70
     1
102
RTVSPost2010Prop50
 90
       50
102
RTVSPost2010PropOp50
 70
     1
102
RTVSPost2010Prop51ColorIndex
 90
      256
102
RTVSPost2010Prop51ColorRGB
 90
-16777216
102
RTVSPost2010PropOp51
 70
     0
102
RTVSPost2010Prop52
140
1.0
102
RTVSPost2010PropOp52
 70
     0
102
RTVSPost2010Prop53
 90
        2
102
RTVSPost2010PropOp53
 70
     1
102
RTVSPost2010Prop54
  1
strokes_ogs.tif
102
RTVSPost2010PropOp54
 70
     1
102
RTVSPost2010Prop55
280
     0
102
RTVSPost2010PropOp55
 70
     1
102
RTVSPost2010Prop56
140
1.0
102
RTVSPost2010PropOp56
 70
     1
102
RTVSPost2010Prop57
140
1.0
102
RTVSPost2010PropOp57
 70
     1
102
RTVSPropertyOp0
 70
     1
102
RTVSPropertyOp1
 70
     1
102
RTVSPropertyOp2
 70
     1
102
RTVSPropertyOp3
 70
     1
102
RTVSPropertyOp4
 70
     1
102
RTVSPropertyOp5
 70
     1
102
RTVSPropertyOp6
 70
     1
102
RTVSPropertyOp7
 70
     1
102
RTVSPropertyOp8
 70
     1
102
RTVSPropertyOp9
 70
     1
102
RTVSPropertyOp10
 70
     1
102
RTVSPropertyOp11
 70
     1
102
RTVSPropertyOp12
 70
     1
102
RTVSPropertyOp13
 70
     1
102
RTVSPropertyOp14
 70
     1
102
RTVSPropertyOp15
 70
     1
102
RTVSPropertyOp16
 70
     1
102
RTVSPropertyOp17
 70
     1
102
RTVSPropertyOp18
 70
     1
102
RTVSPropertyOp19
 70
     1
102
RTVSPropertyOp20
 70
     1
102
RTVSPropertyOp21
 70
     1
102
RTVSPropertyOp22
 70
     1
102
RTVSPropertyOp23
 70
     1
102
RTVSPropertyOp24
 70
     1
102
RTVSPropertyOp25
 70
     1
102
RTVSPropertyOp26
 70
     1
102
RTVSPropertyOp27
 70
     1
102
RTVSPropertyOp28
 70
     1
102
RTVSPropertyOp29
 70
     1
102
RTVSPropertyOp30
 70
     1
102
RTVSPropertyOp31
 70
     1
102
RTVSPropertyOp32
 70
     1
102
RTVSPropertyOp33
 70
     1
102
RTVSPropertyOp34
 70
     1
102
RTVSPropertyOp35
 70
     1
102
RTVSPropertyOp36
 70
     1
102
RTVSPropertyOp37
 70
     1
102
RTVSPropertyOp38
 70
     1
102
RTVSPropertyOp39
 70
     1
102
RTVSPropertyOp40
 70
     1
102
RTVSPropertyOp41
 70
     1
102
RTVSPropertyOp42
 70
     1
102
RTVSPropertyOp43
 70
     1
102
RTVSPropertyOp44
 70
     1
102
RTVSPropertyOp45
 70
     1
102
RTVSPropertyOp46
 70
     1
102
RTVSPropertyOp47
 70
     1
102
RTVSPropertyOp48
 70
     1
102
RTVSPropertyOp49
 70
     1
102
RTVSPropertyOp50
 70
     1
102
RTVSPropertyOp51
 70
     0
102
RTVSPropertyOp52
 70
     0
102
RTVSPropertyOp53
 70
     1
102
RTVSPropertyOp54
 70
     1
102
RTVSPropertyOp55
 70
     1
102
RTVSPropertyOp56
 70
     1
102
RTVSPropertyOp57
 70
     1
102
RTVSPropertyOp58
 70
     1
102
RTVSPropertyOp59
 70
     1
102
RTVSPropertyOp60
 70
     1
102
RTVSPropertyOp61
 70
     1
102
RTVSPropertyOp62
 70
     1
  0
XRECORD
  5
36E
102
{ACAD_REACTORS
330
36D
102
}
330
36D
100
AcDbXrecord
280
     1
102
RTVSPost2010Prop28
280
     0
102
RTVSPost2010PropOp28
 70
     1
102
RTVSPost2010Prop29
280
     1
102
RTVSPost2010PropOp29
 70
     1
102
RTVSPost2010Prop30
280
     1
102
RTVSPost2010PropOp30
 70
     1
102
RTVSPost2010Prop31
280
     0
102
RTVSPost2010PropOp31
 70
     1
102
RTVSPost2010Prop32
280
     0
102
RTVSPost2010PropOp32
 70
     1
102
RTVSPost2010Prop33
280
     0
102
RTVSPost2010PropOp33
 70
     1
102
RTVSPost2010Prop34
280
     0
102
RTVSPost2010PropOp34
 70
     1
102
RTVSPost2010Prop35
280
     0
102
RTVSPost2010PropOp35
 70
     1
102
RTVSPost2010Prop36
280
     0
102
RTVSPost2010PropOp36
 70
     1
102
RTVSPost2010Prop37
 90
       50
102
RTVSPost2010PropOp37
 70
     1
102
RTVSPost2010Prop38
140
0.0
102
RTVSPost2010PropOp38
 70
     1
102
RTVSPost2010Prop39
140
1.0
102
RTVSPost2010PropOp39
 70
     1
102
RTVSPost2010Prop40
 90
        0
102
RTVSPost2010PropOp40
 70
     1
102
RTVSPost2010Prop41ColorIndex
 90
       18
102
RTVSPost2010Prop41ColorRGB
 90
        0
102
RTVSPost2010PropOp41
 70
     1
102
RTVSPost2010Prop42
 90
       50
102
RTVSPost2010PropOp42
 70
     1
102
RTVSPost2010Prop43
 90
        3
102
RTVSPost2010PropOp43
 70
     1
102
RTVSPost2010Prop44ColorIndex
 90
        5
102
RTVSPost2010Prop44ColorRGB
 90
      255
102
RTVSPost2010PropOp44
 70
     1
102
RTVSPost2010Prop45
280
     0
102
RTVSPost2010PropOp45
 70
     1
102
RTVSPost2010Prop46
 90
       50
102
RTVSPost2010PropOp46
 70
     1
102
RTVSPost2010Prop47
 90
       50
102
RTVSPost2010PropOp47
 70
     1
102
RTVSPost2010Prop48
 90
       50
102
RTVSPost2010PropOp48
 70
     1
102
RTVSPost2010Prop49
280
     0
102
RTVSPost2010PropOp49
 70
     1
102
RTVSPost2010Prop50
 90
       50
102
RTVSPost2010PropOp50
 70
     1
102
RTVSPost2010Prop51ColorIndex
 90
      256
102
RTVSPost2010Prop51ColorRGB
 90
-16777216
102
RTVSPost2010PropOp51
 70
     0
102
RTVSPost2010Prop52
140
1.0
102
RTVSPost2010PropOp52
 70
     0
102
RTVSPost2010Prop53
 90
        2
102
RTVSPost2010PropOp53
 70
     1
102
RTVSPost2010Prop54
  1
strokes_ogs.tif
102
RTVSPost2010PropOp54
 70
     1
102
RTVSPost2010Prop55
280
     0
102
RTVSPost2010PropOp55
 70
     1
102
RTVSPost2010Prop56
140
1.0
102
RTVSPost2010PropOp56
 70
     1
102
RTVSPost2010Prop57
140
1.0
102
RTVSPost2010PropOp57
 70
     1
102
RTVSPropertyOp0
 70
     1
102
RTVSPropertyOp1
 70
     1
102
RTVSPropertyOp2
 70
     1
102
RTVSPropertyOp3
 70
     1
102
RTVSPropertyOp4
 70
     1
102
RTVSPropertyOp5
 70
     1
102
RTVSPropertyOp6
 70
     1
102
RTVSPropertyOp7
 70
     1
102
RTVSPropertyOp8
 70
     1
102
RTVSPropertyOp9
 70
     1
102
RTVSPropertyOp10
 70
     1
102
RTVSPropertyOp11
 70
     1
102
RTVSPropertyOp12
 70
     1
102
RTVSPropertyOp13
 70
     1
102
RTVSPropertyOp14
 70
     1
102
RTVSPropertyOp15
 70
     1
102
RTVSPropertyOp16
 70
     1
102
RTVSPropertyOp17
 70
     1
102
RTVSPropertyOp18
 70
     1
102
RTVSPropertyOp19
 70
     1
102
RTVSPropertyOp20
 70
     1
102
RTVSPropertyOp21
 70
     1
102
RTVSPropertyOp22
 70
     1
102
RTVSPropertyOp23
 70
     1
102
RTVSPropertyOp24
 70
     1
102
RTVSPropertyOp25
 70
     1
102
RTVSPropertyOp26
 70
     1
102
RTVSPropertyOp27
 70
     1
102
RTVSPropertyOp28
 70
     1
102
RTVSPropertyOp29
 70
     1
102
RTVSPropertyOp30
 70
     1
102
RTVSPropertyOp31
 70
     1
102
RTVSPropertyOp32
 70
     1
102
RTVSPropertyOp33
 70
     1
102
RTVSPropertyOp34
 70
     1
102
RTVSPropertyOp35
 70
     1
102
RTVSPropertyOp36
 70
     1
102
RTVSPropertyOp37
 70
     1
102
RTVSPropertyOp38
 70
     1
102
RTVSPropertyOp39
 70
     1
102
RTVSPropertyOp40
 70
     1
102
RTVSPropertyOp41
 70
     1
102
RTVSPropertyOp42
 70
     1
102
RTVSPropertyOp43
 70
     1
102
RTVSPropertyOp44
 70
     1
102
RTVSPropertyOp45
 70
     1
102
RTVSPropertyOp46
 70
     1
102
RTVSPropertyOp47
 70
     1
102
RTVSPropertyOp48
 70
     1
102
RTVSPropertyOp49
 70
     1
102
RTVSPropertyOp50
 70
     1
102
RTVSPropertyOp51
 70
     0
102
RTVSPropertyOp52
 70
     0
102
RTVSPropertyOp53
 70
     1
102
RTVSPropertyOp54
 70
     1
102
RTVSPropertyOp55
 70
     1
102
RTVSPropertyOp56
 70
     1
102
RTVSPropertyOp57
 70
     1
102
RTVSPropertyOp58
 70
     1
102
RTVSPropertyOp59
 70
     1
102
RTVSPropertyOp60
 70
     1
102
RTVSPropertyOp61
 70
     1
102
RTVSPropertyOp62
 70
     1
  0
XRECORD
  5
370
102
{ACAD_REACTORS
330
36F
102
}
330
36F
100
AcDbXrecord
280
     1
102
RTVSPost2010Prop28
280
     0
102
RTVSPost2010PropOp28
 70
     1
102
RTVSPost2010Prop29
280
     1
102
RTVSPost2010PropOp29
 70
     1
102
RTVSPost2010Prop30
280
     1
102
RTVSPost2010PropOp30
 70
     1
102
RTVSPost2010Prop31
280
     0
102
RTVSPost2010PropOp31
 70
     1
102
RTVSPost2010Prop32
280
     0
102
RTVSPost2010PropOp32
 70
     1
102
RTVSPost2010Prop33
280
     0
102
RTVSPost2010PropOp33
 70
     1
102
RTVSPost2010Prop34
280
     0
102
RTVSPost2010PropOp34
 70
     1
102
RTVSPost2010Prop35
280
     0
102
RTVSPost2010PropOp35
 70
     1
102
RTVSPost2010Prop36
280
     0
102
RTVSPost2010PropOp36
 70
     1
102
RTVSPost2010Prop37
 90
       50
102
RTVSPost2010PropOp37
 70
     1
102
RTVSPost2010Prop38
140
0.0
102
RTVSPost2010PropOp38
 70
     1
102
RTVSPost2010Prop39
140
1.0
102
RTVSPost2010PropOp39
 70
     1
102
RTVSPost2010Prop40
 90
        0
102
RTVSPost2010PropOp40
 70
     1
102
RTVSPost2010Prop41ColorIndex
 90
       18
102
RTVSPost2010Prop41ColorRGB
 90
        0
102
RTVSPost2010PropOp41
 70
     1
102
RTVSPost2010Prop42
 90
       50
102
RTVSPost2010PropOp42
 70
     1
102
RTVSPost2010Prop43
 90
        3
102
RTVSPost2010PropOp43
 70
     1
102
RTVSPost2010Prop44ColorIndex
 90
        5
102
RTVSPost2010Prop44ColorRGB
 90
      255
102
RTVSPost2010PropOp44
 70
     1
102
RTVSPost2010Prop45
280
     0
102
RTVSPost2010PropOp45
 70
     1
102
RTVSPost2010Prop46
 90
       50
102
RTVSPost2010PropOp46
 70
     1
102
RTVSPost2010Prop47
 90
       50
102
RTVSPost2010PropOp47
 70
     1
102
RTVSPost2010Prop48
 90
       50
102
RTVSPost2010PropOp48
 70
     1
102
RTVSPost2010Prop49
280
     0
102
RTVSPost2010PropOp49
 70
     1
102
RTVSPost2010Prop50
 90
       50
102
RTVSPost2010PropOp50
 70
     1
102
RTVSPost2010Prop51ColorIndex
 90
      256
102
RTVSPost2010Prop51ColorRGB
 90
-16777216
102
RTVSPost2010PropOp51
 70
     0
102
RTVSPost2010Prop52
140
1.0
102
RTVSPost2010PropOp52
 70
     0
102
RTVSPost2010Prop53
 90
        2
102
RTVSPost2010PropOp53
 70
     1
102
RTVSPost2010Prop54
  1
strokes_ogs.tif
102
RTVSPost2010PropOp54
 70
     1
102
RTVSPost2010Prop55
280
     0
102
RTVSPost2010PropOp55
 70
     1
102
RTVSPost2010Prop56
140
1.0
102
RTVSPost2010PropOp56
 70
     1
102
RTVSPost2010Prop57
140
1.0
102
RTVSPost2010PropOp57
 70
     1
102
RTVSPropertyOp0
 70
     1
102
RTVSPropertyOp1
 70
     1
102
RTVSPropertyOp2
 70
     1
102
RTVSPropertyOp3
 70
     1
102
RTVSPropertyOp4
 70
     1
102
RTVSPropertyOp5
 70
     1
102
RTVSPropertyOp6
 70
     1
102
RTVSPropertyOp7
 70
     1
102
RTVSPropertyOp8
 70
     1
102
RTVSPropertyOp9
 70
     1
102
RTVSPropertyOp10
 70
     1
102
RTVSPropertyOp11
 70
     1
102
RTVSPropertyOp12
 70
     1
102
RTVSPropertyOp13
 70
     1
102
RTVSPropertyOp14
 70
     1
102
RTVSPropertyOp15
 70
     1
102
RTVSPropertyOp16
 70
     1
102
RTVSPropertyOp17
 70
     1
102
RTVSPropertyOp18
 70
     1
102
RTVSPropertyOp19
 70
     1
102
RTVSPropertyOp20
 70
     1
102
RTVSPropertyOp21
 70
     1
102
RTVSPropertyOp22
 70
     1
102
RTVSPropertyOp23
 70
     1
102
RTVSPropertyOp24
 70
     1
102
RTVSPropertyOp25
 70
     1
102
RTVSPropertyOp26
 70
     1
102
RTVSPropertyOp27
 70
     1
102
RTVSPropertyOp28
 70
     1
102
RTVSPropertyOp29
 70
     1
102
RTVSPropertyOp30
 70
     1
102
RTVSPropertyOp31
 70
     1
102
RTVSPropertyOp32
 70
     1
102
RTVSPropertyOp33
 70
     1
102
RTVSPropertyOp34
 70
     1
102
RTVSPropertyOp35
 70
     1
102
RTVSPropertyOp36
 70
     1
102
RTVSPropertyOp37
 70
     1
102
RTVSPropertyOp38
 70
     1
102
RTVSPropertyOp39
 70
     1
102
RTVSPropertyOp40
 70
     1
102
RTVSPropertyOp41
 70
     1
102
RTVSPropertyOp42
 70
     1
102
RTVSPropertyOp43
 70
     1
102
RTVSPropertyOp44
 70
     1
102
RTVSPropertyOp45
 70
     1
102
RTVSPropertyOp46
 70
     1
102
RTVSPropertyOp47
 70
     1
102
RTVSPropertyOp48
 70
     1
102
RTVSPropertyOp49
 70
     1
102
RTVSPropertyOp50
 70
     1
102
RTVSPropertyOp51
 70
     0
102
RTVSPropertyOp52
 70
     0
102
RTVSPropertyOp53
 70
     1
102
RTVSPropertyOp54
 70
     1
102
RTVSPropertyOp55
 70
     1
102
RTVSPropertyOp56
 70
     1
102
RTVSPropertyOp57
 70
     1
102
RTVSPropertyOp58
 70
     1
102
RTVSPropertyOp59
 70
     1
102
RTVSPropertyOp60
 70
     1
102
RTVSPropertyOp61
 70
     1
102
RTVSPropertyOp62
 70
     1
  0
XRECORD
  5
380
102
{ACAD_REACTORS
330
37F
102
}
330
37F
100
AcDbXrecord
280
     1
102
RTVSPost2010Prop28
280
     0
102
RTVSPost2010PropOp28
 70
     0
102
RTVSPost2010Prop29
280
     1
102
RTVSPost2010PropOp29
 70
     0
102
RTVSPost2010Prop30
280
     1
102
RTVSPost2010PropOp30
 70
     0
102
RTVSPost2010Prop31
280
     0
102
RTVSPost2010PropOp31
 70
     0
102
RTVSPost2010Prop32
280
     0
102
RTVSPost2010PropOp32
 70
     0
102
RTVSPost2010Prop33
280
     0
102
RTVSPost2010PropOp33
 70
     0
102
RTVSPost2010Prop34
280
     0
102
RTVSPost2010PropOp34
 70
     0
102
RTVSPost2010Prop35
280
     0
102
RTVSPost2010PropOp35
 70
     0
102
RTVSPost2010Prop36
280
     0
102
RTVSPost2010PropOp36
 70
     0
102
RTVSPost2010Prop37
 90
       50
102
RTVSPost2010PropOp37
 70
     0
102
RTVSPost2010Prop38
140
0.0
102
RTVSPost2010PropOp38
 70
     0
102
RTVSPost2010Prop39
140
1.0
102
RTVSPost2010PropOp39
 70
     0
102
RTVSPost2010Prop40
 90
        0
102
RTVSPost2010PropOp40
 70
     0
102
RTVSPost2010Prop41ColorIndex
 90
       18
102
RTVSPost2010Prop41ColorRGB
 90
        0
102
RTVSPost2010PropOp41
 70
     0
102
RTVSPost2010Prop42
 90
       50
102
RTVSPost2010PropOp42
 70
     0
102
RTVSPost2010Prop43
 90
        3
102
RTVSPost2010PropOp43
 70
     0
102
RTVSPost2010Prop44ColorIndex
 90
        5
102
RTVSPost2010Prop44ColorRGB
 90
      255
102
RTVSPost2010PropOp44
 70
     0
102
RTVSPost2010Prop45
280
     0
102
RTVSPost2010PropOp45
 70
     0
102
RTVSPost2010Prop46
 90
       50
102
RTVSPost2010PropOp46
 70
     0
102
RTVSPost2010Prop47
 90
       50
102
RTVSPost2010PropOp47
 70
     0
102
RTVSPost2010Prop48
 90
       50
102
RTVSPost2010PropOp48
 70
     0
102
RTVSPost2010Prop49
280
     0
102
RTVSPost2010PropOp49
 70
     0
102
RTVSPost2010Prop50
 90
       50
102
RTVSPost2010PropOp50
 70
     0
102
RTVSPost2010Prop51ColorIndex
 90
      256
102
RTVSPost2010Prop51ColorRGB
 90
-16777216
102
RTVSPost2010PropOp51
 70
     0
102
RTVSPost2010Prop52
140
1.0
102
RTVSPost2010PropOp52
 70
     0
102
RTVSPost2010Prop53
 90
        2
102
RTVSPost2010PropOp53
 70
     0
102
RTVSPost2010Prop54
  1
strokes_ogs.tif
102
RTVSPost2010PropOp54
 70
     0
102
RTVSPost2010Prop55
280
     0
102
RTVSPost2010PropOp55
 70
     0
102
RTVSPost2010Prop56
140
1.0
102
RTVSPost2010PropOp56
 70
     0
102
RTVSPost2010Prop57
140
1.0
102
RTVSPost2010PropOp57
 70
     0
102
RTVSPropertyOp0
 70
     0
102
RTVSPropertyOp1
 70
     0
102
RTVSPropertyOp2
 70
     0
102
RTVSPropertyOp3
 70
     0
102
RTVSPropertyOp4
 70
     0
102
RTVSPropertyOp5
 70
     0
102
RTVSPropertyOp6
 70
     0
102
RTVSPropertyOp7
 70
     0
102
RTVSPropertyOp8
 70
     0
102
RTVSPropertyOp9
 70
     0
102
RTVSPropertyOp10
 70
     0
102
RTVSPropertyOp11
 70
     0
102
RTVSPropertyOp12
 70
     0
102
RTVSPropertyOp13
 70
     0
102
RTVSPropertyOp14
 70
     2
102
RTVSPropertyOp15
 70
     0
102
RTVSPropertyOp16
 70
     0
102
RTVSPropertyOp17
 70
     0
102
RTVSPropertyOp18
 70
     0
102
RTVSPropertyOp19
 70
     0
102
RTVSPropertyOp20
 70
     0
102
RTVSPropertyOp21
 70
     0
102
RTVSPropertyOp22
 70
     0
102
RTVSPropertyOp23
 70
     0
102
RTVSPropertyOp24
 70
     0
102
RTVSPropertyOp25
 70
     0
102
RTVSPropertyOp26
 70
     0
102
RTVSPropertyOp27
 70
     0
102
RTVSPropertyOp28
 70
     0
102
RTVSPropertyOp29
 70
     0
102
RTVSPropertyOp30
 70
     0
102
RTVSPropertyOp31
 70
     0
102
RTVSPropertyOp32
 70
     0
102
RTVSPropertyOp33
 70
     0
102
RTVSPropertyOp34
 70
     0
102
RTVSPropertyOp35
 70
     0
102
RTVSPropertyOp36
 70
     0
102
RTVSPropertyOp37
 70
     0
102
RTVSPropertyOp38
 70
     0
102
RTVSPropertyOp39
 70
     0
102
RTVSPropertyOp40
 70
     0
102
RTVSPropertyOp41
 70
     0
102
RTVSPropertyOp42
 70
     0
102
RTVSPropertyOp43
 70
     0
102
RTVSPropertyOp44
 70
     0
102
RTVSPropertyOp45
 70
     0
102
RTVSPropertyOp46
 70
     0
102
RTVSPropertyOp47
 70
     0
102
RTVSPropertyOp48
 70
     0
102
RTVSPropertyOp49
 70
     0
102
RTVSPropertyOp50
 70
     0
102
RTVSPropertyOp51
 70
     0
102
RTVSPropertyOp52
 70
     0
102
RTVSPropertyOp53
 70
     0
102
RTVSPropertyOp54
 70
     0
102
RTVSPropertyOp55
 70
     0
102
RTVSPropertyOp56
 70
     0
102
RTVSPropertyOp57
 70
     0
102
RTVSPropertyOp58
 70
     1
102
RTVSPropertyOp59
 70
     1
102
RTVSPropertyOp60
 70
     1
102
RTVSPropertyOp61
 70
     1
102
RTVSPropertyOp62
 70
     1
  0
XRECORD
  5
378
102
{ACAD_REACTORS
330
377
102
}
330
377
100
AcDbXrecord
280
     1
102
RTVSPost2010Prop28
280
     0
102
RTVSPost2010PropOp28
 70
     1
102
RTVSPost2010Prop29
280
     1
102
RTVSPost2010PropOp29
 70
     1
102
RTVSPost2010Prop30
280
     1
102
RTVSPost2010PropOp30
 70
     1
102
RTVSPost2010Prop31
280
     0
102
RTVSPost2010PropOp31
 70
     1
102
RTVSPost2010Prop32
280
     0
102
RTVSPost2010PropOp32
 70
     1
102
RTVSPost2010Prop33
280
     0
102
RTVSPost2010PropOp33
 70
     1
102
RTVSPost2010Prop34
280
     0
102
RTVSPost2010PropOp34
 70
     1
102
RTVSPost2010Prop35
280
     0
102
RTVSPost2010PropOp35
 70
     1
102
RTVSPost2010Prop36
280
     0
102
RTVSPost2010PropOp36
 70
     1
102
RTVSPost2010Prop37
 90
       50
102
RTVSPost2010PropOp37
 70
     1
102
RTVSPost2010Prop38
140
0.0
102
RTVSPost2010PropOp38
 70
     1
102
RTVSPost2010Prop39
140
1.0
102
RTVSPost2010PropOp39
 70
     1
102
RTVSPost2010Prop40
 90
        0
102
RTVSPost2010PropOp40
 70
     1
102
RTVSPost2010Prop41ColorIndex
 90
       18
102
RTVSPost2010Prop41ColorRGB
 90
        0
102
RTVSPost2010PropOp41
 70
     1
102
RTVSPost2010Prop42
 90
       50
102
RTVSPost2010PropOp42
 70
     1
102
RTVSPost2010Prop43
 90
        3
102
RTVSPost2010PropOp43
 70
     1
102
RTVSPost2010Prop44ColorIndex
 90
        5
102
RTVSPost2010Prop44ColorRGB
 90
      255
102
RTVSPost2010PropOp44
 70
     1
102
RTVSPost2010Prop45
280
     0
102
RTVSPost2010PropOp45
 70
     1
102
RTVSPost2010Prop46
 90
       50
102
RTVSPost2010PropOp46
 70
     1
102
RTVSPost2010Prop47
 90
       50
102
RTVSPost2010PropOp47
 70
     1
102
RTVSPost2010Prop48
 90
       50
102
RTVSPost2010PropOp48
 70
     1
102
RTVSPost2010Prop49
280
     0
102
RTVSPost2010PropOp49
 70
     1
102
RTVSPost2010Prop50
 90
       50
102
RTVSPost2010PropOp50
 70
     1
102
RTVSPost2010Prop51ColorIndex
 90
      256
102
RTVSPost2010Prop51ColorRGB
 90
-16777216
102
RTVSPost2010PropOp51
 70
     0
102
RTVSPost2010Prop52
140
1.0
102
RTVSPost2010PropOp52
 70
     0
102
RTVSPost2010Prop53
 90
        2
102
RTVSPost2010PropOp53
 70
     1
102
RTVSPost2010Prop54
  1
strokes_ogs.tif
102
RTVSPost2010PropOp54
 70
     1
102
RTVSPost2010Prop55
280
     0
102
RTVSPost2010PropOp55
 70
     1
102
RTVSPost2010Prop56
140
1.0
102
RTVSPost2010PropOp56
 70
     1
102
RTVSPost2010Prop57
140
1.0
102
RTVSPost2010PropOp57
 70
     1
102
RTVSPropertyOp0
 70
     1
102
RTVSPropertyOp1
 70
     1
102
RTVSPropertyOp2
 70
     1
102
RTVSPropertyOp3
 70
     1
102
RTVSPropertyOp4
 70
     1
102
RTVSPropertyOp5
 70
     1
102
RTVSPropertyOp6
 70
     1
102
RTVSPropertyOp7
 70
     1
102
RTVSPropertyOp8
 70
     1
102
RTVSPropertyOp9
 70
     1
102
RTVSPropertyOp10
 70
     1
102
RTVSPropertyOp11
 70
     1
102
RTVSPropertyOp12
 70
     1
102
RTVSPropertyOp13
 70
     1
102
RTVSPropertyOp14
 70
     1
102
RTVSPropertyOp15
 70
     1
102
RTVSPropertyOp16
 70
     1
102
RTVSPropertyOp17
 70
     1
102
RTVSPropertyOp18
 70
     1
102
RTVSPropertyOp19
 70
     1
102
RTVSPropertyOp20
 70
     1
102
RTVSPropertyOp21
 70
     1
102
RTVSPropertyOp22
 70
     1
102
RTVSPropertyOp23
 70
     1
102
RTVSPropertyOp24
 70
     1
102
RTVSPropertyOp25
 70
     1
102
RTVSPropertyOp26
 70
     1
102
RTVSPropertyOp27
 70
     1
102
RTVSPropertyOp28
 70
     1
102
RTVSPropertyOp29
 70
     1
102
RTVSPropertyOp30
 70
     1
102
RTVSPropertyOp31
 70
     1
102
RTVSPropertyOp32
 70
     1
102
RTVSPropertyOp33
 70
     1
102
RTVSPropertyOp34
 70
     1
102
RTVSPropertyOp35
 70
     1
102
RTVSPropertyOp36
 70
     1
102
RTVSPropertyOp37
 70
     1
102
RTVSPropertyOp38
 70
     1
102
RTVSPropertyOp39
 70
     1
102
RTVSPropertyOp40
 70
     1
102
RTVSPropertyOp41
 70
     1
102
RTVSPropertyOp42
 70
     1
102
RTVSPropertyOp43
 70
     1
102
RTVSPropertyOp44
 70
     1
102
RTVSPropertyOp45
 70
     1
102
RTVSPropertyOp46
 70
     1
102
RTVSPropertyOp47
 70
     1
102
RTVSPropertyOp48
 70
     1
102
RTVSPropertyOp49
 70
     1
102
RTVSPropertyOp50
 70
     1
102
RTVSPropertyOp51
 70
     0
102
RTVSPropertyOp52
 70
     0
102
RTVSPropertyOp53
 70
     1
102
RTVSPropertyOp54
 70
     1
102
RTVSPropertyOp55
 70
     1
102
RTVSPropertyOp56
 70
     1
102
RTVSPropertyOp57
 70
     1
102
RTVSPropertyOp58
 70
     1
102
RTVSPropertyOp59
 70
     1
102
RTVSPropertyOp60
 70
     1
102
RTVSPropertyOp61
 70
     1
102
RTVSPropertyOp62
 70
     1
  0
XRECORD
  5
35C
102
{ACAD_REACTORS
330
35B
102
}
330
35B
100
AcDbXrecord
280
     1
102
RTVSPost2010Prop28
280
     0
102
RTVSPost2010PropOp28
 70
     1
102
RTVSPost2010Prop29
280
     1
102
RTVSPost2010PropOp29
 70
     1
102
RTVSPost2010Prop30
280
     1
102
RTVSPost2010PropOp30
 70
     1
102
RTVSPost2010Prop31
280
     0
102
RTVSPost2010PropOp31
 70
     1
102
RTVSPost2010Prop32
280
     0
102
RTVSPost2010PropOp32
 70
     1
102
RTVSPost2010Prop33
280
     0
102
RTVSPost2010PropOp33
 70
     1
102
RTVSPost2010Prop34
280
     0
102
RTVSPost2010PropOp34
 70
     1
102
RTVSPost2010Prop35
280
     0
102
RTVSPost2010PropOp35
 70
     1
102
RTVSPost2010Prop36
280
     0
102
RTVSPost2010PropOp36
 70
     1
102
RTVSPost2010Prop37
 90
       50
102
RTVSPost2010PropOp37
 70
     1
102
RTVSPost2010Prop38
140
0.0
102
RTVSPost2010PropOp38
 70
     1
102
RTVSPost2010Prop39
140
1.0
102
RTVSPost2010PropOp39
 70
     1
102
RTVSPost2010Prop40
 90
        0
102
RTVSPost2010PropOp40
 70
     1
102
RTVSPost2010Prop41ColorIndex
 90
       18
102
RTVSPost2010Prop41ColorRGB
 90
        0
102
RTVSPost2010PropOp41
 70
     1
102
RTVSPost2010Prop42
 90
       50
102
RTVSPost2010PropOp42
 70
     1
102
RTVSPost2010Prop43
 90
        3
102
RTVSPost2010PropOp43
 70
     1
102
RTVSPost2010Prop44ColorIndex
 90
        5
102
RTVSPost2010Prop44ColorRGB
 90
      255
102
RTVSPost2010PropOp44
 70
     1
102
RTVSPost2010Prop45
280
     0
102
RTVSPost2010PropOp45
 70
     1
102
RTVSPost2010Prop46
 90
       50
102
RTVSPost2010PropOp46
 70
     1
102
RTVSPost2010Prop47
 90
       50
102
RTVSPost2010PropOp47
 70
     1
102
RTVSPost2010Prop48
 90
       50
102
RTVSPost2010PropOp48
 70
     1
102
RTVSPost2010Prop49
280
     0
102
RTVSPost2010PropOp49
 70
     1
102
RTVSPost2010Prop50
 90
       50
102
RTVSPost2010PropOp50
 70
     1
102
RTVSPost2010Prop51ColorIndex
 90
      256
102
RTVSPost2010Prop51ColorRGB
 90
-16777216
102
RTVSPost2010PropOp51
 70
     0
102
RTVSPost2010Prop52
140
1.0
102
RTVSPost2010PropOp52
 70
     0
102
RTVSPost2010Prop53
 90
        2
102
RTVSPost2010PropOp53
 70
     1
102
RTVSPost2010Prop54
  1
strokes_ogs.tif
102
RTVSPost2010PropOp54
 70
     1
102
RTVSPost2010Prop55
280
     0
102
RTVSPost2010PropOp55
 70
     1
102
RTVSPost2010Prop56
140
1.0
102
RTVSPost2010PropOp56
 70
     1
102
RTVSPost2010Prop57
140
1.0
102
RTVSPost2010PropOp57
 70
     1
102
RTVSPropertyOp0
 70
     1
102
RTVSPropertyOp1
 70
     1
102
RTVSPropertyOp2
 70
     1
102
RTVSPropertyOp3
 70
     1
102
RTVSPropertyOp4
 70
     1
102
RTVSPropertyOp5
 70
     1
102
RTVSPropertyOp6
 70
     1
102
RTVSPropertyOp7
 70
     1
102
RTVSPropertyOp8
 70
     1
102
RTVSPropertyOp9
 70
     1
102
RTVSPropertyOp10
 70
     1
102
RTVSPropertyOp11
 70
     1
102
RTVSPropertyOp12
 70
     1
102
RTVSPropertyOp13
 70
     1
102
RTVSPropertyOp14
 70
     1
102
RTVSPropertyOp15
 70
     1
102
RTVSPropertyOp16
 70
     1
102
RTVSPropertyOp17
 70
     1
102
RTVSPropertyOp18
 70
     1
102
RTVSPropertyOp19
 70
     1
102
RTVSPropertyOp20
 70
     1
102
RTVSPropertyOp21
 70
     1
102
RTVSPropertyOp22
 70
     1
102
RTVSPropertyOp23
 70
     1
102
RTVSPropertyOp24
 70
     1
102
RTVSPropertyOp25
 70
     1
102
RTVSPropertyOp26
 70
     1
102
RTVSPropertyOp27
 70
     1
102
RTVSPropertyOp28
 70
     1
102
RTVSPropertyOp29
 70
     1
102
RTVSPropertyOp30
 70
     1
102
RTVSPropertyOp31
 70
     1
102
RTVSPropertyOp32
 70
     1
102
RTVSPropertyOp33
 70
     1
102
RTVSPropertyOp34
 70
     1
102
RTVSPropertyOp35
 70
     1
102
RTVSPropertyOp36
 70
     1
102
RTVSPropertyOp37
 70
     1
102
RTVSPropertyOp38
 70
     1
102
RTVSPropertyOp39
 70
     1
102
RTVSPropertyOp40
 70
     1
102
RTVSPropertyOp41
 70
     1
102
RTVSPropertyOp42
 70
     1
102
RTVSPropertyOp43
 70
     1
102
RTVSPropertyOp44
 70
     1
102
RTVSPropertyOp45
 70
     1
102
RTVSPropertyOp46
 70
     1
102
RTVSPropertyOp47
 70
     1
102
RTVSPropertyOp48
 70
     1
102
RTVSPropertyOp49
 70
     1
102
RTVSPropertyOp50
 70
     1
102
RTVSPropertyOp51
 70
     0
102
RTVSPropertyOp52
 70
     0
102
RTVSPropertyOp53
 70
     1
102
RTVSPropertyOp54
 70
     1
102
RTVSPropertyOp55
 70
     1
102
RTVSPropertyOp56
 70
     1
102
RTVSPropertyOp57
 70
     1
102
RTVSPropertyOp58
 70
     1
102
RTVSPropertyOp59
 70
     1
102
RTVSPropertyOp60
 70
     1
102
RTVSPropertyOp61
 70
     1
102
RTVSPropertyOp62
 70
     1
  0
XRECORD
  5
35E
102
{ACAD_REACTORS
330
35D
102
}
330
35D
100
AcDbXrecord
280
     1
102
RTVSPost2010Prop28
280
     0
102
RTVSPost2010PropOp28
 70
     1
102
RTVSPost2010Prop29
280
     1
102
RTVSPost2010PropOp29
 70
     1
102
RTVSPost2010Prop30
280
     1
102
RTVSPost2010PropOp30
 70
     1
102
RTVSPost2010Prop31
280
     0
102
RTVSPost2010PropOp31
 70
     1
102
RTVSPost2010Prop32
280
     0
102
RTVSPost2010PropOp32
 70
     1
102
RTVSPost2010Prop33
280
     0
102
RTVSPost2010PropOp33
 70
     1
102
RTVSPost2010Prop34
280
     0
102
RTVSPost2010PropOp34
 70
     1
102
RTVSPost2010Prop35
280
     0
102
RTVSPost2010PropOp35
 70
     1
102
RTVSPost2010Prop36
280
     0
102
RTVSPost2010PropOp36
 70
     1
102
RTVSPost2010Prop37
 90
       50
102
RTVSPost2010PropOp37
 70
     1
102
RTVSPost2010Prop38
140
0.0
102
RTVSPost2010PropOp38
 70
     1
102
RTVSPost2010Prop39
140
1.0
102
RTVSPost2010PropOp39
 70
     1
102
RTVSPost2010Prop40
 90
        0
102
RTVSPost2010PropOp40
 70
     1
102
RTVSPost2010Prop41ColorIndex
 90
       18
102
RTVSPost2010Prop41ColorRGB
 90
        0
102
RTVSPost2010PropOp41
 70
     1
102
RTVSPost2010Prop42
 90
       50
102
RTVSPost2010PropOp42
 70
     1
102
RTVSPost2010Prop43
 90
        3
102
RTVSPost2010PropOp43
 70
     1
102
RTVSPost2010Prop44ColorIndex
 90
        5
102
RTVSPost2010Prop44ColorRGB
 90
      255
102
RTVSPost2010PropOp44
 70
     1
102
RTVSPost2010Prop45
280
     0
102
RTVSPost2010PropOp45
 70
     1
102
RTVSPost2010Prop46
 90
       50
102
RTVSPost2010PropOp46
 70
     1
102
RTVSPost2010Prop47
 90
       50
102
RTVSPost2010PropOp47
 70
     1
102
RTVSPost2010Prop48
 90
       50
102
RTVSPost2010PropOp48
 70
     1
102
RTVSPost2010Prop49
280
     0
102
RTVSPost2010PropOp49
 70
     1
102
RTVSPost2010Prop50
 90
       50
102
RTVSPost2010PropOp50
 70
     1
102
RTVSPost2010Prop51ColorIndex
 90
      256
102
RTVSPost2010Prop51ColorRGB
 90
-16777216
102
RTVSPost2010PropOp51
 70
     0
102
RTVSPost2010Prop52
140
1.0
102
RTVSPost2010PropOp52
 70
     0
102
RTVSPost2010Prop53
 90
        2
102
RTVSPost2010PropOp53
 70
     1
102
RTVSPost2010Prop54
  1
strokes_ogs.tif
102
RTVSPost2010PropOp54
 70
     1
102
RTVSPost2010Prop55
280
     0
102
RTVSPost2010PropOp55
 70
     1
102
RTVSPost2010Prop56
140
1.0
102
RTVSPost2010PropOp56
 70
     1
102
RTVSPost2010Prop57
140
1.0
102
RTVSPost2010PropOp57
 70
     1
102
RTVSPropertyOp0
 70
     1
102
RTVSPropertyOp1
 70
     1
102
RTVSPropertyOp2
 70
     1
102
RTVSPropertyOp3
 70
     1
102
RTVSPropertyOp4
 70
     1
102
RTVSPropertyOp5
 70
     1
102
RTVSPropertyOp6
 70
     1
102
RTVSPropertyOp7
 70
     1
102
RTVSPropertyOp8
 70
     1
102
RTVSPropertyOp9
 70
     1
102
RTVSPropertyOp10
 70
     1
102
RTVSPropertyOp11
 70
     1
102
RTVSPropertyOp12
 70
     1
102
RTVSPropertyOp13
 70
     1
102
RTVSPropertyOp14
 70
     1
102
RTVSPropertyOp15
 70
     1
102
RTVSPropertyOp16
 70
     1
102
RTVSPropertyOp17
 70
     1
102
RTVSPropertyOp18
 70
     1
102
RTVSPropertyOp19
 70
     1
102
RTVSPropertyOp20
 70
     1
102
RTVSPropertyOp21
 70
     1
102
RTVSPropertyOp22
 70
     1
102
RTVSPropertyOp23
 70
     1
102
RTVSPropertyOp24
 70
     1
102
RTVSPropertyOp25
 70
     1
102
RTVSPropertyOp26
 70
     1
102
RTVSPropertyOp27
 70
     1
102
RTVSPropertyOp28
 70
     1
102
RTVSPropertyOp29
 70
     1
102
RTVSPropertyOp30
 70
     1
102
RTVSPropertyOp31
 70
     1
102
RTVSPropertyOp32
 70
     1
102
RTVSPropertyOp33
 70
     1
102
RTVSPropertyOp34
 70
     1
102
RTVSPropertyOp35
 70
     1
102
RTVSPropertyOp36
 70
     1
102
RTVSPropertyOp37
 70
     1
102
RTVSPropertyOp38
 70
     1
102
RTVSPropertyOp39
 70
     1
102
RTVSPropertyOp40
 70
     1
102
RTVSPropertyOp41
 70
     1
102
RTVSPropertyOp42
 70
     1
102
RTVSPropertyOp43
 70
     1
102
RTVSPropertyOp44
 70
     1
102
RTVSPropertyOp45
 70
     1
102
RTVSPropertyOp46
 70
     1
102
RTVSPropertyOp47
 70
     1
102
RTVSPropertyOp48
 70
     1
102
RTVSPropertyOp49
 70
     1
102
RTVSPropertyOp50
 70
     1
102
RTVSPropertyOp51
 70
     0
102
RTVSPropertyOp52
 70
     0
102
RTVSPropertyOp53
 70
     1
102
RTVSPropertyOp54
 70
     1
102
RTVSPropertyOp55
 70
     1
102
RTVSPropertyOp56
 70
     1
102
RTVSPropertyOp57
 70
     1
102
RTVSPropertyOp58
 70
     1
102
RTVSPropertyOp59
 70
     1
102
RTVSPropertyOp60
 70
     1
102
RTVSPropertyOp61
 70
     1
102
RTVSPropertyOp62
 70
     1
  0
XRECORD
  5
360
102
{ACAD_REACTORS
330
35F
102
}
330
35F
100
AcDbXrecord
280
     1
102
RTVSPost2010Prop28
280
     0
102
RTVSPost2010PropOp28
 70
     1
102
RTVSPost2010Prop29
280
     1
102
RTVSPost2010PropOp29
 70
     1
102
RTVSPost2010Prop30
280
     1
102
RTVSPost2010PropOp30
 70
     1
102
RTVSPost2010Prop31
280
     0
102
RTVSPost2010PropOp31
 70
     1
102
RTVSPost2010Prop32
280
     0
102
RTVSPost2010PropOp32
 70
     1
102
RTVSPost2010Prop33
280
     0
102
RTVSPost2010PropOp33
 70
     1
102
RTVSPost2010Prop34
280
     0
102
RTVSPost2010PropOp34
 70
     1
102
RTVSPost2010Prop35
280
     0
102
RTVSPost2010PropOp35
 70
     1
102
RTVSPost2010Prop36
280
     0
102
RTVSPost2010PropOp36
 70
     1
102
RTVSPost2010Prop37
 90
       50
102
RTVSPost2010PropOp37
 70
     1
102
RTVSPost2010Prop38
140
0.0
102
RTVSPost2010PropOp38
 70
     1
102
RTVSPost2010Prop39
140
1.0
102
RTVSPost2010PropOp39
 70
     1
102
RTVSPost2010Prop40
 90
        0
102
RTVSPost2010PropOp40
 70
     1
102
RTVSPost2010Prop41ColorIndex
 90
       18
102
RTVSPost2010Prop41ColorRGB
 90
        0
102
RTVSPost2010PropOp41
 70
     1
102
RTVSPost2010Prop42
 90
       50
102
RTVSPost2010PropOp42
 70
     1
102
RTVSPost2010Prop43
 90
        3
102
RTVSPost2010PropOp43
 70
     1
102
RTVSPost2010Prop44ColorIndex
 90
        5
102
RTVSPost2010Prop44ColorRGB
 90
      255
102
RTVSPost2010PropOp44
 70
     1
102
RTVSPost2010Prop45
280
     0
102
RTVSPost2010PropOp45
 70
     1
102
RTVSPost2010Prop46
 90
       50
102
RTVSPost2010PropOp46
 70
     1
102
RTVSPost2010Prop47
 90
       50
102
RTVSPost2010PropOp47
 70
     1
102
RTVSPost2010Prop48
 90
       50
102
RTVSPost2010PropOp48
 70
     1
102
RTVSPost2010Prop49
280
     0
102
RTVSPost2010PropOp49
 70
     1
102
RTVSPost2010Prop50
 90
       50
102
RTVSPost2010PropOp50
 70
     1
102
RTVSPost2010Prop51ColorIndex
 90
      256
102
RTVSPost2010Prop51ColorRGB
 90
-16777216
102
RTVSPost2010PropOp51
 70
     0
102
RTVSPost2010Prop52
140
1.0
102
RTVSPost2010PropOp52
 70
     0
102
RTVSPost2010Prop53
 90
        2
102
RTVSPost2010PropOp53
 70
     1
102
RTVSPost2010Prop54
  1
strokes_ogs.tif
102
RTVSPost2010PropOp54
 70
     1
102
RTVSPost2010Prop55
280
     0
102
RTVSPost2010PropOp55
 70
     1
102
RTVSPost2010Prop56
140
1.0
102
RTVSPost2010PropOp56
 70
     1
102
RTVSPost2010Prop57
140
1.0
102
RTVSPost2010PropOp57
 70
     1
102
RTVSPropertyOp0
 70
     1
102
RTVSPropertyOp1
 70
     1
102
RTVSPropertyOp2
 70
     1
102
RTVSPropertyOp3
 70
     1
102
RTVSPropertyOp4
 70
     1
102
RTVSPropertyOp5
 70
     1
102
RTVSPropertyOp6
 70
     1
102
RTVSPropertyOp7
 70
     1
102
RTVSPropertyOp8
 70
     1
102
RTVSPropertyOp9
 70
     1
102
RTVSPropertyOp10
 70
     1
102
RTVSPropertyOp11
 70
     1
102
RTVSPropertyOp12
 70
     1
102
RTVSPropertyOp13
 70
     1
102
RTVSPropertyOp14
 70
     1
102
RTVSPropertyOp15
 70
     1
102
RTVSPropertyOp16
 70
     1
102
RTVSPropertyOp17
 70
     1
102
RTVSPropertyOp18
 70
     1
102
RTVSPropertyOp19
 70
     1
102
RTVSPropertyOp20
 70
     1
102
RTVSPropertyOp21
 70
     1
102
RTVSPropertyOp22
 70
     1
102
RTVSPropertyOp23
 70
     1
102
RTVSPropertyOp24
 70
     1
102
RTVSPropertyOp25
 70
     1
102
RTVSPropertyOp26
 70
     1
102
RTVSPropertyOp27
 70
     1
102
RTVSPropertyOp28
 70
     1
102
RTVSPropertyOp29
 70
     1
102
RTVSPropertyOp30
 70
     1
102
RTVSPropertyOp31
 70
     1
102
RTVSPropertyOp32
 70
     1
102
RTVSPropertyOp33
 70
     1
102
RTVSPropertyOp34
 70
     1
102
RTVSPropertyOp35
 70
     1
102
RTVSPropertyOp36
 70
     1
102
RTVSPropertyOp37
 70
     1
102
RTVSPropertyOp38
 70
     1
102
RTVSPropertyOp39
 70
     1
102
RTVSPropertyOp40
 70
     1
102
RTVSPropertyOp41
 70
     1
102
RTVSPropertyOp42
 70
     1
102
RTVSPropertyOp43
 70
     1
102
RTVSPropertyOp44
 70
     1
102
RTVSPropertyOp45
 70
     1
102
RTVSPropertyOp46
 70
     1
102
RTVSPropertyOp47
 70
     1
102
RTVSPropertyOp48
 70
     1
102
RTVSPropertyOp49
 70
     1
102
RTVSPropertyOp50
 70
     1
102
RTVSPropertyOp51
 70
     0
102
RTVSPropertyOp52
 70
     0
102
RTVSPropertyOp53
 70
     1
102
RTVSPropertyOp54
 70
     1
102
RTVSPropertyOp55
 70
     1
102
RTVSPropertyOp56
 70
     1
102
RTVSPropertyOp57
 70
     1
102
RTVSPropertyOp58
 70
     1
102
RTVSPropertyOp59
 70
     1
102
RTVSPropertyOp60
 70
     1
102
RTVSPropertyOp61
 70
     1
102
RTVSPropertyOp62
 70
     1
  0
XRECORD
  5
362
102
{ACAD_REACTORS
330
361
102
}
330
361
100
AcDbXrecord
280
     1
102
RTVSPost2010Prop28
280
     0
102
RTVSPost2010PropOp28
 70
     1
102
RTVSPost2010Prop29
280
     1
102
RTVSPost2010PropOp29
 70
     1
102
RTVSPost2010Prop30
280
     1
102
RTVSPost2010PropOp30
 70
     1
102
RTVSPost2010Prop31
280
     0
102
RTVSPost2010PropOp31
 70
     1
102
RTVSPost2010Prop32
280
     0
102
RTVSPost2010PropOp32
 70
     1
102
RTVSPost2010Prop33
280
     0
102
RTVSPost2010PropOp33
 70
     1
102
RTVSPost2010Prop34
280
     0
102
RTVSPost2010PropOp34
 70
     1
102
RTVSPost2010Prop35
280
     0
102
RTVSPost2010PropOp35
 70
     1
102
RTVSPost2010Prop36
280
     0
102
RTVSPost2010PropOp36
 70
     1
102
RTVSPost2010Prop37
 90
       50
102
RTVSPost2010PropOp37
 70
     1
102
RTVSPost2010Prop38
140
0.0
102
RTVSPost2010PropOp38
 70
     1
102
RTVSPost2010Prop39
140
1.0
102
RTVSPost2010PropOp39
 70
     1
102
RTVSPost2010Prop40
 90
        0
102
RTVSPost2010PropOp40
 70
     1
102
RTVSPost2010Prop41ColorIndex
 90
       18
102
RTVSPost2010Prop41ColorRGB
 90
        0
102
RTVSPost2010PropOp41
 70
     1
102
RTVSPost2010Prop42
 90
       50
102
RTVSPost2010PropOp42
 70
     1
102
RTVSPost2010Prop43
 90
        3
102
RTVSPost2010PropOp43
 70
     1
102
RTVSPost2010Prop44ColorIndex
 90
        5
102
RTVSPost2010Prop44ColorRGB
 90
      255
102
RTVSPost2010PropOp44
 70
     1
102
RTVSPost2010Prop45
280
     0
102
RTVSPost2010PropOp45
 70
     1
102
RTVSPost2010Prop46
 90
       50
102
RTVSPost2010PropOp46
 70
     1
102
RTVSPost2010Prop47
 90
       50
102
RTVSPost2010PropOp47
 70
     1
102
RTVSPost2010Prop48
 90
       50
102
RTVSPost2010PropOp48
 70
     1
102
RTVSPost2010Prop49
280
     0
102
RTVSPost2010PropOp49
 70
     1
102
RTVSPost2010Prop50
 90
       50
102
RTVSPost2010PropOp50
 70
     1
102
RTVSPost2010Prop51ColorIndex
 90
      256
102
RTVSPost2010Prop51ColorRGB
 90
-16777216
102
RTVSPost2010PropOp51
 70
     0
102
RTVSPost2010Prop52
140
1.0
102
RTVSPost2010PropOp52
 70
     0
102
RTVSPost2010Prop53
 90
        2
102
RTVSPost2010PropOp53
 70
     1
102
RTVSPost2010Prop54
  1
strokes_ogs.tif
102
RTVSPost2010PropOp54
 70
     1
102
RTVSPost2010Prop55
280
     0
102
RTVSPost2010PropOp55
 70
     1
102
RTVSPost2010Prop56
140
1.0
102
RTVSPost2010PropOp56
 70
     1
102
RTVSPost2010Prop57
140
1.0
102
RTVSPost2010PropOp57
 70
     1
102
RTVSPropertyOp0
 70
     1
102
RTVSPropertyOp1
 70
     1
102
RTVSPropertyOp2
 70
     1
102
RTVSPropertyOp3
 70
     1
102
RTVSPropertyOp4
 70
     1
102
RTVSPropertyOp5
 70
     1
102
RTVSPropertyOp6
 70
     1
102
RTVSPropertyOp7
 70
     1
102
RTVSPropertyOp8
 70
     1
102
RTVSPropertyOp9
 70
     1
102
RTVSPropertyOp10
 70
     1
102
RTVSPropertyOp11
 70
     1
102
RTVSPropertyOp12
 70
     1
102
RTVSPropertyOp13
 70
     1
102
RTVSPropertyOp14
 70
     1
102
RTVSPropertyOp15
 70
     1
102
RTVSPropertyOp16
 70
     1
102
RTVSPropertyOp17
 70
     1
102
RTVSPropertyOp18
 70
     1
102
RTVSPropertyOp19
 70
     1
102
RTVSPropertyOp20
 70
     1
102
RTVSPropertyOp21
 70
     1
102
RTVSPropertyOp22
 70
     1
102
RTVSPropertyOp23
 70
     1
102
RTVSPropertyOp24
 70
     1
102
RTVSPropertyOp25
 70
     1
102
RTVSPropertyOp26
 70
     1
102
RTVSPropertyOp27
 70
     1
102
RTVSPropertyOp28
 70
     1
102
RTVSPropertyOp29
 70
     1
102
RTVSPropertyOp30
 70
     1
102
RTVSPropertyOp31
 70
     1
102
RTVSPropertyOp32
 70
     1
102
RTVSPropertyOp33
 70
     1
102
RTVSPropertyOp34
 70
     1
102
RTVSPropertyOp35
 70
     1
102
RTVSPropertyOp36
 70
     1
102
RTVSPropertyOp37
 70
     1
102
RTVSPropertyOp38
 70
     1
102
RTVSPropertyOp39
 70
     1
102
RTVSPropertyOp40
 70
     1
102
RTVSPropertyOp41
 70
     1
102
RTVSPropertyOp42
 70
     1
102
RTVSPropertyOp43
 70
     1
102
RTVSPropertyOp44
 70
     1
102
RTVSPropertyOp45
 70
     1
102
RTVSPropertyOp46
 70
     1
102
RTVSPropertyOp47
 70
     1
102
RTVSPropertyOp48
 70
     1
102
RTVSPropertyOp49
 70
     1
102
RTVSPropertyOp50
 70
     1
102
RTVSPropertyOp51
 70
     0
102
RTVSPropertyOp52
 70
     0
102
RTVSPropertyOp53
 70
     1
102
RTVSPropertyOp54
 70
     1
102
RTVSPropertyOp55
 70
     1
102
RTVSPropertyOp56
 70
     1
102
RTVSPropertyOp57
 70
     1
102
RTVSPropertyOp58
 70
     1
102
RTVSPropertyOp59
 70
     1
102
RTVSPropertyOp60
 70
     1
102
RTVSPropertyOp61
 70
     1
102
RTVSPropertyOp62
 70
     1
  0
XRECORD
  5
368
102
{ACAD_REACTORS
330
367
102
}
330
367
100
AcDbXrecord
280
     1
102
RTVSPost2010Prop28
280
     0
102
RTVSPost2010PropOp28
 70
     1
102
RTVSPost2010Prop29
280
     1
102
RTVSPost2010PropOp29
 70
     1
102
RTVSPost2010Prop30
280
     1
102
RTVSPost2010PropOp30
 70
     1
102
RTVSPost2010Prop31
280
     0
102
RTVSPost2010PropOp31
 70
     1
102
RTVSPost2010Prop32
280
     0
102
RTVSPost2010PropOp32
 70
     1
102
RTVSPost2010Prop33
280
     0
102
RTVSPost2010PropOp33
 70
     1
102
RTVSPost2010Prop34
280
     0
102
RTVSPost2010PropOp34
 70
     1
102
RTVSPost2010Prop35
280
     0
102
RTVSPost2010PropOp35
 70
     1
102
RTVSPost2010Prop36
280
     0
102
RTVSPost2010PropOp36
 70
     1
102
RTVSPost2010Prop37
 90
       50
102
RTVSPost2010PropOp37
 70
     1
102
RTVSPost2010Prop38
140
0.0
102
RTVSPost2010PropOp38
 70
     1
102
RTVSPost2010Prop39
140
1.0
102
RTVSPost2010PropOp39
 70
     1
102
RTVSPost2010Prop40
 90
        0
102
RTVSPost2010PropOp40
 70
     1
102
RTVSPost2010Prop41ColorIndex
 90
       18
102
RTVSPost2010Prop41ColorRGB
 90
        0
102
RTVSPost2010PropOp41
 70
     1
102
RTVSPost2010Prop42
 90
       50
102
RTVSPost2010PropOp42
 70
     1
102
RTVSPost2010Prop43
 90
        3
102
RTVSPost2010PropOp43
 70
     1
102
RTVSPost2010Prop44ColorIndex
 90
        5
102
RTVSPost2010Prop44ColorRGB
 90
      255
102
RTVSPost2010PropOp44
 70
     1
102
RTVSPost2010Prop45
280
     0
102
RTVSPost2010PropOp45
 70
     1
102
RTVSPost2010Prop46
 90
       50
102
RTVSPost2010PropOp46
 70
     1
102
RTVSPost2010Prop47
 90
       50
102
RTVSPost2010PropOp47
 70
     1
102
RTVSPost2010Prop48
 90
       50
102
RTVSPost2010PropOp48
 70
     1
102
RTVSPost2010Prop49
280
     0
102
RTVSPost2010PropOp49
 70
     1
102
RTVSPost2010Prop50
 90
       50
102
RTVSPost2010PropOp50
 70
     1
102
RTVSPost2010Prop51ColorIndex
 90
      256
102
RTVSPost2010Prop51ColorRGB
 90
-16777216
102
RTVSPost2010PropOp51
 70
     0
102
RTVSPost2010Prop52
140
1.0
102
RTVSPost2010PropOp52
 70
     0
102
RTVSPost2010Prop53
 90
        2
102
RTVSPost2010PropOp53
 70
     1
102
RTVSPost2010Prop54
  1
strokes_ogs.tif
102
RTVSPost2010PropOp54
 70
     1
102
RTVSPost2010Prop55
280
     0
102
RTVSPost2010PropOp55
 70
     1
102
RTVSPost2010Prop56
140
1.0
102
RTVSPost2010PropOp56
 70
     1
102
RTVSPost2010Prop57
140
1.0
102
RTVSPost2010PropOp57
 70
     1
102
RTVSPropertyOp0
 70
     1
102
RTVSPropertyOp1
 70
     1
102
RTVSPropertyOp2
 70
     1
102
RTVSPropertyOp3
 70
     1
102
RTVSPropertyOp4
 70
     1
102
RTVSPropertyOp5
 70
     1
102
RTVSPropertyOp6
 70
     1
102
RTVSPropertyOp7
 70
     1
102
RTVSPropertyOp8
 70
     1
102
RTVSPropertyOp9
 70
     1
102
RTVSPropertyOp10
 70
     1
102
RTVSPropertyOp11
 70
     1
102
RTVSPropertyOp12
 70
     1
102
RTVSPropertyOp13
 70
     1
102
RTVSPropertyOp14
 70
     1
102
RTVSPropertyOp15
 70
     1
102
RTVSPropertyOp16
 70
     1
102
RTVSPropertyOp17
 70
     1
102
RTVSPropertyOp18
 70
     1
102
RTVSPropertyOp19
 70
     1
102
RTVSPropertyOp20
 70
     1
102
RTVSPropertyOp21
 70
     1
102
RTVSPropertyOp22
 70
     1
102
RTVSPropertyOp23
 70
     1
102
RTVSPropertyOp24
 70
     1
102
RTVSPropertyOp25
 70
     1
102
RTVSPropertyOp26
 70
     1
102
RTVSPropertyOp27
 70
     1
102
RTVSPropertyOp28
 70
     1
102
RTVSPropertyOp29
 70
     1
102
RTVSPropertyOp30
 70
     1
102
RTVSPropertyOp31
 70
     1
102
RTVSPropertyOp32
 70
     1
102
RTVSPropertyOp33
 70
     1
102
RTVSPropertyOp34
 70
     1
102
RTVSPropertyOp35
 70
     1
102
RTVSPropertyOp36
 70
     1
102
RTVSPropertyOp37
 70
     1
102
RTVSPropertyOp38
 70
     1
102
RTVSPropertyOp39
 70
     1
102
RTVSPropertyOp40
 70
     1
102
RTVSPropertyOp41
 70
     1
102
RTVSPropertyOp42
 70
     1
102
RTVSPropertyOp43
 70
     1
102
RTVSPropertyOp44
 70
     1
102
RTVSPropertyOp45
 70
     1
102
RTVSPropertyOp46
 70
     1
102
RTVSPropertyOp47
 70
     1
102
RTVSPropertyOp48
 70
     1
102
RTVSPropertyOp49
 70
     1
102
RTVSPropertyOp50
 70
     1
102
RTVSPropertyOp51
 70
     0
102
RTVSPropertyOp52
 70
     0
102
RTVSPropertyOp53
 70
     1
102
RTVSPropertyOp54
 70
     1
102
RTVSPropertyOp55
 70
     1
102
RTVSPropertyOp56
 70
     1
102
RTVSPropertyOp57
 70
     1
102
RTVSPropertyOp58
 70
     1
102
RTVSPropertyOp59
 70
     1
102
RTVSPropertyOp60
 70
     1
102
RTVSPropertyOp61
 70
     1
102
RTVSPropertyOp62
 70
     1
  0
XRECORD
  5
37C
102
{ACAD_REACTORS
330
37B
102
}
330
37B
100
AcDbXrecord
280
     1
102
RTVSPost2010Prop28
280
     0
102
RTVSPost2010PropOp28
 70
     0
102
RTVSPost2010Prop29
280
     1
102
RTVSPost2010PropOp29
 70
     0
102
RTVSPost2010Prop30
280
     1
102
RTVSPost2010PropOp30
 70
     0
102
RTVSPost2010Prop31
280
     0
102
RTVSPost2010PropOp31
 70
     0
102
RTVSPost2010Prop32
280
     0
102
RTVSPost2010PropOp32
 70
     0
102
RTVSPost2010Prop33
280
     0
102
RTVSPost2010PropOp33
 70
     0
102
RTVSPost2010Prop34
280
     0
102
RTVSPost2010PropOp34
 70
     0
102
RTVSPost2010Prop35
280
     0
102
RTVSPost2010PropOp35
 70
     0
102
RTVSPost2010Prop36
280
     0
102
RTVSPost2010PropOp36
 70
     0
102
RTVSPost2010Prop37
 90
       50
102
RTVSPost2010PropOp37
 70
     0
102
RTVSPost2010Prop38
140
0.0
102
RTVSPost2010PropOp38
 70
     0
102
RTVSPost2010Prop39
140
1.0
102
RTVSPost2010PropOp39
 70
     0
102
RTVSPost2010Prop40
 90
        0
102
RTVSPost2010PropOp40
 70
     0
102
RTVSPost2010Prop41ColorIndex
 90
       18
102
RTVSPost2010Prop41ColorRGB
 90
        0
102
RTVSPost2010PropOp41
 70
     0
102
RTVSPost2010Prop42
 90
       50
102
RTVSPost2010PropOp42
 70
     0
102
RTVSPost2010Prop43
 90
        3
102
RTVSPost2010PropOp43
 70
     0
102
RTVSPost2010Prop44ColorIndex
 90
        5
102
RTVSPost2010Prop44ColorRGB
 90
      255
102
RTVSPost2010PropOp44
 70
     0
102
RTVSPost2010Prop45
280
     0
102
RTVSPost2010PropOp45
 70
     0
102
RTVSPost2010Prop46
 90
       50
102
RTVSPost2010PropOp46
 70
     0
102
RTVSPost2010Prop47
 90
       50
102
RTVSPost2010PropOp47
 70
     0
102
RTVSPost2010Prop48
 90
       50
102
RTVSPost2010PropOp48
 70
     0
102
RTVSPost2010Prop49
280
     0
102
RTVSPost2010PropOp49
 70
     0
102
RTVSPost2010Prop50
 90
       50
102
RTVSPost2010PropOp50
 70
     0
102
RTVSPost2010Prop51ColorIndex
 90
      256
102
RTVSPost2010Prop51ColorRGB
 90
-16777216
102
RTVSPost2010PropOp51
 70
     0
102
RTVSPost2010Prop52
140
1.0
102
RTVSPost2010PropOp52
 70
     0
102
RTVSPost2010Prop53
 90
        2
102
RTVSPost2010PropOp53
 70
     0
102
RTVSPost2010Prop54
  1
strokes_ogs.tif
102
RTVSPost2010PropOp54
 70
     0
102
RTVSPost2010Prop55
280
     0
102
RTVSPost2010PropOp55
 70
     0
102
RTVSPost2010Prop56
140
1.0
102
RTVSPost2010PropOp56
 70
     0
102
RTVSPost2010Prop57
140
1.0
102
RTVSPost2010PropOp57
 70
     0
102
RTVSPropertyOp0
 70
     0
102
RTVSPropertyOp1
 70
     0
102
RTVSPropertyOp2
 70
     0
102
RTVSPropertyOp3
 70
     0
102
RTVSPropertyOp4
 70
     0
102
RTVSPropertyOp5
 70
     0
102
RTVSPropertyOp6
 70
     0
102
RTVSPropertyOp7
 70
     0
102
RTVSPropertyOp8
 70
     0
102
RTVSPropertyOp9
 70
     0
102
RTVSPropertyOp10
 70
     0
102
RTVSPropertyOp11
 70
     0
102
RTVSPropertyOp12
 70
     0
102
RTVSPropertyOp13
 70
     0
102
RTVSPropertyOp14
 70
     2
102
RTVSPropertyOp15
 70
     0
102
RTVSPropertyOp16
 70
     0
102
RTVSPropertyOp17
 70
     0
102
RTVSPropertyOp18
 70
     0
102
RTVSPropertyOp19
 70
     0
102
RTVSPropertyOp20
 70
     0
102
RTVSPropertyOp21
 70
     0
102
RTVSPropertyOp22
 70
     0
102
RTVSPropertyOp23
 70
     0
102
RTVSPropertyOp24
 70
     0
102
RTVSPropertyOp25
 70
     0
102
RTVSPropertyOp26
 70
     0
102
RTVSPropertyOp27
 70
     0
102
RTVSPropertyOp28
 70
     0
102
RTVSPropertyOp29
 70
     0
102
RTVSPropertyOp30
 70
     0
102
RTVSPropertyOp31
 70
     0
102
RTVSPropertyOp32
 70
     0
102
RTVSPropertyOp33
 70
     0
102
RTVSPropertyOp34
 70
     0
102
RTVSPropertyOp35
 70
     0
102
RTVSPropertyOp36
 70
     0
102
RTVSPropertyOp37
 70
     0
102
RTVSPropertyOp38
 70
     0
102
RTVSPropertyOp39
 70
     0
102
RTVSPropertyOp40
 70
     0
102
RTVSPropertyOp41
 70
     0
102
RTVSPropertyOp42
 70
     0
102
RTVSPropertyOp43
 70
     0
102
RTVSPropertyOp44
 70
     0
102
RTVSPropertyOp45
 70
     0
102
RTVSPropertyOp46
 70
     0
102
RTVSPropertyOp47
 70
     0
102
RTVSPropertyOp48
 70
     0
102
RTVSPropertyOp49
 70
     0
102
RTVSPropertyOp50
 70
     0
102
RTVSPropertyOp51
 70
     0
102
RTVSPropertyOp52
 70
     0
102
RTVSPropertyOp53
 70
     0
102
RTVSPropertyOp54
 70
     0
102
RTVSPropertyOp55
 70
     0
102
RTVSPropertyOp56
 70
     0
102
RTVSPropertyOp57
 70
     0
102
RTVSPropertyOp58
 70
     1
102
RTVSPropertyOp59
 70
     1
102
RTVSPropertyOp60
 70
     1
102
RTVSPropertyOp61
 70
     1
102
RTVSPropertyOp62
 70
     1
  0
XRECORD
  5
376
102
{ACAD_REACTORS
330
375
102
}
330
375
100
AcDbXrecord
280
     1
102
RTVSPost2010Prop28
280
     0
102
RTVSPost2010PropOp28
 70
     1
102
RTVSPost2010Prop29
280
     1
102
RTVSPost2010PropOp29
 70
     1
102
RTVSPost2010Prop30
280
     1
102
RTVSPost2010PropOp30
 70
     1
102
RTVSPost2010Prop31
280
     0
102
RTVSPost2010PropOp31
 70
     1
102
RTVSPost2010Prop32
280
     0
102
RTVSPost2010PropOp32
 70
     1
102
RTVSPost2010Prop33
280
     0
102
RTVSPost2010PropOp33
 70
     1
102
RTVSPost2010Prop34
280
     0
102
RTVSPost2010PropOp34
 70
     1
102
RTVSPost2010Prop35
280
     0
102
RTVSPost2010PropOp35
 70
     1
102
RTVSPost2010Prop36
280
     0
102
RTVSPost2010PropOp36
 70
     1
102
RTVSPost2010Prop37
 90
       50
102
RTVSPost2010PropOp37
 70
     1
102
RTVSPost2010Prop38
140
0.0
102
RTVSPost2010PropOp38
 70
     1
102
RTVSPost2010Prop39
140
1.0
102
RTVSPost2010PropOp39
 70
     1
102
RTVSPost2010Prop40
 90
        0
102
RTVSPost2010PropOp40
 70
     1
102
RTVSPost2010Prop41ColorIndex
 90
       18
102
RTVSPost2010Prop41ColorRGB
 90
        0
102
RTVSPost2010PropOp41
 70
     1
102
RTVSPost2010Prop42
 90
       50
102
RTVSPost2010PropOp42
 70
     1
102
RTVSPost2010Prop43
 90
        3
102
RTVSPost2010PropOp43
 70
     1
102
RTVSPost2010Prop44ColorIndex
 90
        5
102
RTVSPost2010Prop44ColorRGB
 90
      255
102
RTVSPost2010PropOp44
 70
     1
102
RTVSPost2010Prop45
280
     0
102
RTVSPost2010PropOp45
 70
     1
102
RTVSPost2010Prop46
 90
       50
102
RTVSPost2010PropOp46
 70
     1
102
RTVSPost2010Prop47
 90
       50
102
RTVSPost2010PropOp47
 70
     1
102
RTVSPost2010Prop48
 90
       50
102
RTVSPost2010PropOp48
 70
     1
102
RTVSPost2010Prop49
280
     0
102
RTVSPost2010PropOp49
 70
     1
102
RTVSPost2010Prop50
 90
       50
102
RTVSPost2010PropOp50
 70
     1
102
RTVSPost2010Prop51ColorIndex
 90
      256
102
RTVSPost2010Prop51ColorRGB
 90
-16777216
102
RTVSPost2010PropOp51
 70
     0
102
RTVSPost2010Prop52
140
1.0
102
RTVSPost2010PropOp52
 70
     0
102
RTVSPost2010Prop53
 90
        2
102
RTVSPost2010PropOp53
 70
     1
102
RTVSPost2010Prop54
  1
strokes_ogs.tif
102
RTVSPost2010PropOp54
 70
     1
102
RTVSPost2010Prop55
280
     0
102
RTVSPost2010PropOp55
 70
     1
102
RTVSPost2010Prop56
140
1.0
102
RTVSPost2010PropOp56
 70
     1
102
RTVSPost2010Prop57
140
1.0
102
RTVSPost2010PropOp57
 70
     1
102
RTVSPropertyOp0
 70
     1
102
RTVSPropertyOp1
 70
     1
102
RTVSPropertyOp2
 70
     1
102
RTVSPropertyOp3
 70
     1
102
RTVSPropertyOp4
 70
     1
102
RTVSPropertyOp5
 70
     1
102
RTVSPropertyOp6
 70
     1
102
RTVSPropertyOp7
 70
     1
102
RTVSPropertyOp8
 70
     1
102
RTVSPropertyOp9
 70
     1
102
RTVSPropertyOp10
 70
     1
102
RTVSPropertyOp11
 70
     1
102
RTVSPropertyOp12
 70
     1
102
RTVSPropertyOp13
 70
     1
102
RTVSPropertyOp14
 70
     1
102
RTVSPropertyOp15
 70
     1
102
RTVSPropertyOp16
 70
     1
102
RTVSPropertyOp17
 70
     1
102
RTVSPropertyOp18
 70
     1
102
RTVSPropertyOp19
 70
     1
102
RTVSPropertyOp20
 70
     1
102
RTVSPropertyOp21
 70
     1
102
RTVSPropertyOp22
 70
     1
102
RTVSPropertyOp23
 70
     1
102
RTVSPropertyOp24
 70
     1
102
RTVSPropertyOp25
 70
     1
102
RTVSPropertyOp26
 70
     1
102
RTVSPropertyOp27
 70
     1
102
RTVSPropertyOp28
 70
     1
102
RTVSPropertyOp29
 70
     1
102
RTVSPropertyOp30
 70
     1
102
RTVSPropertyOp31
 70
     1
102
RTVSPropertyOp32
 70
     1
102
RTVSPropertyOp33
 70
     1
102
RTVSPropertyOp34
 70
     1
102
RTVSPropertyOp35
 70
     1
102
RTVSPropertyOp36
 70
     1
102
RTVSPropertyOp37
 70
     1
102
RTVSPropertyOp38
 70
     1
102
RTVSPropertyOp39
 70
     1
102
RTVSPropertyOp40
 70
     1
102
RTVSPropertyOp41
 70
     1
102
RTVSPropertyOp42
 70
     1
102
RTVSPropertyOp43
 70
     1
102
RTVSPropertyOp44
 70
     1
102
RTVSPropertyOp45
 70
     1
102
RTVSPropertyOp46
 70
     1
102
RTVSPropertyOp47
 70
     1
102
RTVSPropertyOp48
 70
     1
102
RTVSPropertyOp49
 70
     1
102
RTVSPropertyOp50
 70
     1
102
RTVSPropertyOp51
 70
     0
102
RTVSPropertyOp52
 70
     0
102
RTVSPropertyOp53
 70
     1
102
RTVSPropertyOp54
 70
     1
102
RTVSPropertyOp55
 70
     1
102
RTVSPropertyOp56
 70
     1
102
RTVSPropertyOp57
 70
     1
102
RTVSPropertyOp58
 70
     1
102
RTVSPropertyOp59
 70
     1
102
RTVSPropertyOp60
 70
     1
102
RTVSPropertyOp61
 70
     1
102
RTVSPropertyOp62
 70
     1
  0
XRECORD
  5
37E
102
{ACAD_REACTORS
330
37D
102
}
330
37D
100
AcDbXrecord
280
     1
102
RTVSPost2010Prop28
280
     0
102
RTVSPost2010PropOp28
 70
     0
102
RTVSPost2010Prop29
280
     1
102
RTVSPost2010PropOp29
 70
     0
102
RTVSPost2010Prop30
280
     1
102
RTVSPost2010PropOp30
 70
     0
102
RTVSPost2010Prop31
280
     0
102
RTVSPost2010PropOp31
 70
     0
102
RTVSPost2010Prop32
280
     0
102
RTVSPost2010PropOp32
 70
     0
102
RTVSPost2010Prop33
280
     0
102
RTVSPost2010PropOp33
 70
     0
102
RTVSPost2010Prop34
280
     0
102
RTVSPost2010PropOp34
 70
     0
102
RTVSPost2010Prop35
280
     0
102
RTVSPost2010PropOp35
 70
     0
102
RTVSPost2010Prop36
280
     0
102
RTVSPost2010PropOp36
 70
     0
102
RTVSPost2010Prop37
 90
       50
102
RTVSPost2010PropOp37
 70
     0
102
RTVSPost2010Prop38
140
0.0
102
RTVSPost2010PropOp38
 70
     0
102
RTVSPost2010Prop39
140
1.0
102
RTVSPost2010PropOp39
 70
     0
102
RTVSPost2010Prop40
 90
        0
102
RTVSPost2010PropOp40
 70
     0
102
RTVSPost2010Prop41ColorIndex
 90
       18
102
RTVSPost2010Prop41ColorRGB
 90
        0
102
RTVSPost2010PropOp41
 70
     0
102
RTVSPost2010Prop42
 90
       50
102
RTVSPost2010PropOp42
 70
     0
102
RTVSPost2010Prop43
 90
        3
102
RTVSPost2010PropOp43
 70
     0
102
RTVSPost2010Prop44ColorIndex
 90
        5
102
RTVSPost2010Prop44ColorRGB
 90
      255
102
RTVSPost2010PropOp44
 70
     0
102
RTVSPost2010Prop45
280
     0
102
RTVSPost2010PropOp45
 70
     0
102
RTVSPost2010Prop46
 90
       50
102
RTVSPost2010PropOp46
 70
     0
102
RTVSPost2010Prop47
 90
       50
102
RTVSPost2010PropOp47
 70
     0
102
RTVSPost2010Prop48
 90
       50
102
RTVSPost2010PropOp48
 70
     0
102
RTVSPost2010Prop49
280
     0
102
RTVSPost2010PropOp49
 70
     0
102
RTVSPost2010Prop50
 90
       50
102
RTVSPost2010PropOp50
 70
     0
102
RTVSPost2010Prop51ColorIndex
 90
      256
102
RTVSPost2010Prop51ColorRGB
 90
-16777216
102
RTVSPost2010PropOp51
 70
     0
102
RTVSPost2010Prop52
140
1.0
102
RTVSPost2010PropOp52
 70
     0
102
RTVSPost2010Prop53
 90
        2
102
RTVSPost2010PropOp53
 70
     0
102
RTVSPost2010Prop54
  1
strokes_ogs.tif
102
RTVSPost2010PropOp54
 70
     0
102
RTVSPost2010Prop55
280
     0
102
RTVSPost2010PropOp55
 70
     0
102
RTVSPost2010Prop56
140
1.0
102
RTVSPost2010PropOp56
 70
     0
102
RTVSPost2010Prop57
140
1.0
102
RTVSPost2010PropOp57
 70
     0
102
RTVSPropertyOp0
 70
     0
102
RTVSPropertyOp1
 70
     0
102
RTVSPropertyOp2
 70
     0
102
RTVSPropertyOp3
 70
     0
102
RTVSPropertyOp4
 70
     0
102
RTVSPropertyOp5
 70
     0
102
RTVSPropertyOp6
 70
     0
102
RTVSPropertyOp7
 70
     0
102
RTVSPropertyOp8
 70
     0
102
RTVSPropertyOp9
 70
     0
102
RTVSPropertyOp10
 70
     0
102
RTVSPropertyOp11
 70
     0
102
RTVSPropertyOp12
 70
     0
102
RTVSPropertyOp13
 70
     0
102
RTVSPropertyOp14
 70
     2
102
RTVSPropertyOp15
 70
     0
102
RTVSPropertyOp16
 70
     0
102
RTVSPropertyOp17
 70
     0
102
RTVSPropertyOp18
 70
     0
102
RTVSPropertyOp19
 70
     0
102
RTVSPropertyOp20
 70
     0
102
RTVSPropertyOp21
 70
     0
102
RTVSPropertyOp22
 70
     0
102
RTVSPropertyOp23
 70
     0
102
RTVSPropertyOp24
 70
     0
102
RTVSPropertyOp25
 70
     0
102
RTVSPropertyOp26
 70
     0
102
RTVSPropertyOp27
 70
     0
102
RTVSPropertyOp28
 70
     0
102
RTVSPropertyOp29
 70
     0
102
RTVSPropertyOp30
 70
     0
102
RTVSPropertyOp31
 70
     0
102
RTVSPropertyOp32
 70
     0
102
RTVSPropertyOp33
 70
     0
102
RTVSPropertyOp34
 70
     0
102
RTVSPropertyOp35
 70
     0
102
RTVSPropertyOp36
 70
     0
102
RTVSPropertyOp37
 70
     0
102
RTVSPropertyOp38
 70
     0
102
RTVSPropertyOp39
 70
     0
102
RTVSPropertyOp40
 70
     0
102
RTVSPropertyOp41
 70
     0
102
RTVSPropertyOp42
 70
     0
102
RTVSPropertyOp43
 70
     0
102
RTVSPropertyOp44
 70
     0
102
RTVSPropertyOp45
 70
     0
102
RTVSPropertyOp46
 70
     0
102
RTVSPropertyOp47
 70
     0
102
RTVSPropertyOp48
 70
     0
102
RTVSPropertyOp49
 70
     0
102
RTVSPropertyOp50
 70
     0
102
RTVSPropertyOp51
 70
     0
102
RTVSPropertyOp52
 70
     0
102
RTVSPropertyOp53
 70
     0
102
RTVSPropertyOp54
 70
     0
102
RTVSPropertyOp55
 70
     0
102
RTVSPropertyOp56
 70
     0
102
RTVSPropertyOp57
 70
     0
102
RTVSPropertyOp58
 70
     1
102
RTVSPropertyOp59
 70
     1
102
RTVSPropertyOp60
 70
     1
102
RTVSPropertyOp61
 70
     1
102
RTVSPropertyOp62
 70
     1
  0
XRECORD
  5
36C
102
{ACAD_REACTORS
330
36B
102
}
330
36B
100
AcDbXrecord
280
     1
102
RTVSPost2010Prop28
280
     0
102
RTVSPost2010PropOp28
 70
     1
102
RTVSPost2010Prop29
280
     1
102
RTVSPost2010PropOp29
 70
     1
102
RTVSPost2010Prop30
280
     1
102
RTVSPost2010PropOp30
 70
     1
102
RTVSPost2010Prop31
280
     0
102
RTVSPost2010PropOp31
 70
     1
102
RTVSPost2010Prop32
280
     0
102
RTVSPost2010PropOp32
 70
     1
102
RTVSPost2010Prop33
280
     0
102
RTVSPost2010PropOp33
 70
     1
102
RTVSPost2010Prop34
280
     0
102
RTVSPost2010PropOp34
 70
     1
102
RTVSPost2010Prop35
280
     0
102
RTVSPost2010PropOp35
 70
     1
102
RTVSPost2010Prop36
280
     0
102
RTVSPost2010PropOp36
 70
     1
102
RTVSPost2010Prop37
 90
       50
102
RTVSPost2010PropOp37
 70
     1
102
RTVSPost2010Prop38
140
0.0
102
RTVSPost2010PropOp38
 70
     1
102
RTVSPost2010Prop39
140
1.0
102
RTVSPost2010PropOp39
 70
     1
102
RTVSPost2010Prop40
 90
        0
102
RTVSPost2010PropOp40
 70
     1
102
RTVSPost2010Prop41ColorIndex
 90
       18
102
RTVSPost2010Prop41ColorRGB
 90
        0
102
RTVSPost2010PropOp41
 70
     1
102
RTVSPost2010Prop42
 90
       50
102
RTVSPost2010PropOp42
 70
     1
102
RTVSPost2010Prop43
 90
        3
102
RTVSPost2010PropOp43
 70
     1
102
RTVSPost2010Prop44ColorIndex
 90
        5
102
RTVSPost2010Prop44ColorRGB
 90
      255
102
RTVSPost2010PropOp44
 70
     1
102
RTVSPost2010Prop45
280
     0
102
RTVSPost2010PropOp45
 70
     1
102
RTVSPost2010Prop46
 90
       50
102
RTVSPost2010PropOp46
 70
     1
102
RTVSPost2010Prop47
 90
       50
102
RTVSPost2010PropOp47
 70
     1
102
RTVSPost2010Prop48
 90
       50
102
RTVSPost2010PropOp48
 70
     1
102
RTVSPost2010Prop49
280
     0
102
RTVSPost2010PropOp49
 70
     1
102
RTVSPost2010Prop50
 90
       50
102
RTVSPost2010PropOp50
 70
     1
102
RTVSPost2010Prop51ColorIndex
 90
      256
102
RTVSPost2010Prop51ColorRGB
 90
-16777216
102
RTVSPost2010PropOp51
 70
     0
102
RTVSPost2010Prop52
140
1.0
102
RTVSPost2010PropOp52
 70
     0
102
RTVSPost2010Prop53
 90
        2
102
RTVSPost2010PropOp53
 70
     1
102
RTVSPost2010Prop54
  1
strokes_ogs.tif
102
RTVSPost2010PropOp54
 70
     1
102
RTVSPost2010Prop55
280
     0
102
RTVSPost2010PropOp55
 70
     1
102
RTVSPost2010Prop56
140
1.0
102
RTVSPost2010PropOp56
 70
     1
102
RTVSPost2010Prop57
140
1.0
102
RTVSPost2010PropOp57
 70
     1
102
RTVSPropertyOp0
 70
     1
102
RTVSPropertyOp1
 70
     1
102
RTVSPropertyOp2
 70
     1
102
RTVSPropertyOp3
 70
     1
102
RTVSPropertyOp4
 70
     1
102
RTVSPropertyOp5
 70
     1
102
RTVSPropertyOp6
 70
     1
102
RTVSPropertyOp7
 70
     1
102
RTVSPropertyOp8
 70
     1
102
RTVSPropertyOp9
 70
     1
102
RTVSPropertyOp10
 70
     1
102
RTVSPropertyOp11
 70
     1
102
RTVSPropertyOp12
 70
     1
102
RTVSPropertyOp13
 70
     1
102
RTVSPropertyOp14
 70
     1
102
RTVSPropertyOp15
 70
     1
102
RTVSPropertyOp16
 70
     1
102
RTVSPropertyOp17
 70
     1
102
RTVSPropertyOp18
 70
     1
102
RTVSPropertyOp19
 70
     1
102
RTVSPropertyOp20
 70
     1
102
RTVSPropertyOp21
 70
     1
102
RTVSPropertyOp22
 70
     1
102
RTVSPropertyOp23
 70
     1
102
RTVSPropertyOp24
 70
     1
102
RTVSPropertyOp25
 70
     1
102
RTVSPropertyOp26
 70
     1
102
RTVSPropertyOp27
 70
     1
102
RTVSPropertyOp28
 70
     1
102
RTVSPropertyOp29
 70
     1
102
RTVSPropertyOp30
 70
     1
102
RTVSPropertyOp31
 70
     1
102
RTVSPropertyOp32
 70
     1
102
RTVSPropertyOp33
 70
     1
102
RTVSPropertyOp34
 70
     1
102
RTVSPropertyOp35
 70
     1
102
RTVSPropertyOp36
 70
     1
102
RTVSPropertyOp37
 70
     1
102
RTVSPropertyOp38
 70
     1
102
RTVSPropertyOp39
 70
     1
102
RTVSPropertyOp40
 70
     1
102
RTVSPropertyOp41
 70
     1
102
RTVSPropertyOp42
 70
     1
102
RTVSPropertyOp43
 70
     1
102
RTVSPropertyOp44
 70
     1
102
RTVSPropertyOp45
 70
     1
102
RTVSPropertyOp46
 70
     1
102
RTVSPropertyOp47
 70
     1
102
RTVSPropertyOp48
 70
     1
102
RTVSPropertyOp49
 70
     1
102
RTVSPropertyOp50
 70
     1
102
RTVSPropertyOp51
 70
     0
102
RTVSPropertyOp52
 70
     0
102
RTVSPropertyOp53
 70
     1
102
RTVSPropertyOp54
 70
     1
102
RTVSPropertyOp55
 70
     1
102
RTVSPropertyOp56
 70
     1
102
RTVSPropertyOp57
 70
     1
102
RTVSPropertyOp58
 70
     1
102
RTVSPropertyOp59
 70
     1
102
RTVSPropertyOp60
 70
     1
102
RTVSPropertyOp61
 70
     1
102
RTVSPropertyOp62
 70
     1
  0
XRECORD
  5
38A
102
{ACAD_REACTORS
330
389
102
}
330
389
100
AcDbXrecord
280
     1
102
RTVSPost2010Prop28
280
     0
102
RTVSPost2010PropOp28
 70
     1
102
RTVSPost2010Prop29
280
     1
102
RTVSPost2010PropOp29
 70
     1
102
RTVSPost2010Prop30
280
     1
102
RTVSPost2010PropOp30
 70
     1
102
RTVSPost2010Prop31
280
     0
102
RTVSPost2010PropOp31
 70
     1
102
RTVSPost2010Prop32
280
     0
102
RTVSPost2010PropOp32
 70
     1
102
RTVSPost2010Prop33
280
     0
102
RTVSPost2010PropOp33
 70
     1
102
RTVSPost2010Prop34
280
     0
102
RTVSPost2010PropOp34
 70
     1
102
RTVSPost2010Prop35
280
     0
102
RTVSPost2010PropOp35
 70
     1
102
RTVSPost2010Prop36
280
     0
102
RTVSPost2010PropOp36
 70
     1
102
RTVSPost2010Prop37
 90
       50
102
RTVSPost2010PropOp37
 70
     1
102
RTVSPost2010Prop38
140
0.0
102
RTVSPost2010PropOp38
 70
     1
102
RTVSPost2010Prop39
140
1.0
102
RTVSPost2010PropOp39
 70
     1
102
RTVSPost2010Prop40
 90
        0
102
RTVSPost2010PropOp40
 70
     1
102
RTVSPost2010Prop41ColorIndex
 90
       18
102
RTVSPost2010Prop41ColorRGB
 90
        0
102
RTVSPost2010PropOp41
 70
     1
102
RTVSPost2010Prop42
 90
       50
102
RTVSPost2010PropOp42
 70
     1
102
RTVSPost2010Prop43
 90
        3
102
RTVSPost2010PropOp43
 70
     1
102
RTVSPost2010Prop44ColorIndex
 90
        5
102
RTVSPost2010Prop44ColorRGB
 90
      255
102
RTVSPost2010PropOp44
 70
     1
102
RTVSPost2010Prop45
280
     0
102
RTVSPost2010PropOp45
 70
     1
102
RTVSPost2010Prop46
 90
       50
102
RTVSPost2010PropOp46
 70
     1
102
RTVSPost2010Prop47
 90
       50
102
RTVSPost2010PropOp47
 70
     1
102
RTVSPost2010Prop48
 90
       50
102
RTVSPost2010PropOp48
 70
     1
102
RTVSPost2010Prop49
280
     0
102
RTVSPost2010PropOp49
 70
     1
102
RTVSPost2010Prop50
 90
       50
102
RTVSPost2010PropOp50
 70
     1
102
RTVSPost2010Prop51ColorIndex
 90
      256
102
RTVSPost2010Prop51ColorRGB
 90
-16777216
102
RTVSPost2010PropOp51
 70
     0
102
RTVSPost2010Prop52
140
1.0
102
RTVSPost2010PropOp52
 70
     0
102
RTVSPost2010Prop53
 90
        2
102
RTVSPost2010PropOp53
 70
     1
102
RTVSPost2010Prop54
  1
strokes_ogs.tif
102
RTVSPost2010PropOp54
 70
     1
102
RTVSPost2010Prop55
280
     0
102
RTVSPost2010PropOp55
 70
     1
102
RTVSPost2010Prop56
140
1.0
102
RTVSPost2010PropOp56
 70
     1
102
RTVSPost2010Prop57
140
1.0
102
RTVSPost2010PropOp57
 70
     1
102
RTVSPropertyOp0
 70
     1
102
RTVSPropertyOp1
 70
     1
102
RTVSPropertyOp2
 70
     1
102
RTVSPropertyOp3
 70
     1
102
RTVSPropertyOp4
 70
     1
102
RTVSPropertyOp5
 70
     1
102
RTVSPropertyOp6
 70
     1
102
RTVSPropertyOp7
 70
     1
102
RTVSPropertyOp8
 70
     1
102
RTVSPropertyOp9
 70
     1
102
RTVSPropertyOp10
 70
     1
102
RTVSPropertyOp11
 70
     1
102
RTVSPropertyOp12
 70
     1
102
RTVSPropertyOp13
 70
     1
102
RTVSPropertyOp14
 70
     1
102
RTVSPropertyOp15
 70
     1
102
RTVSPropertyOp16
 70
     1
102
RTVSPropertyOp17
 70
     1
102
RTVSPropertyOp18
 70
     1
102
RTVSPropertyOp19
 70
     1
102
RTVSPropertyOp20
 70
     1
102
RTVSPropertyOp21
 70
     1
102
RTVSPropertyOp22
 70
     1
102
RTVSPropertyOp23
 70
     1
102
RTVSPropertyOp24
 70
     1
102
RTVSPropertyOp25
 70
     1
102
RTVSPropertyOp26
 70
     1
102
RTVSPropertyOp27
 70
     1
102
RTVSPropertyOp28
 70
     1
102
RTVSPropertyOp29
 70
     1
102
RTVSPropertyOp30
 70
     1
102
RTVSPropertyOp31
 70
     1
102
RTVSPropertyOp32
 70
     1
102
RTVSPropertyOp33
 70
     1
102
RTVSPropertyOp34
 70
     1
102
RTVSPropertyOp35
 70
     1
102
RTVSPropertyOp36
 70
     1
102
RTVSPropertyOp37
 70
     1
102
RTVSPropertyOp38
 70
     1
102
RTVSPropertyOp39
 70
     1
102
RTVSPropertyOp40
 70
     1
102
RTVSPropertyOp41
 70
     1
102
RTVSPropertyOp42
 70
     1
102
RTVSPropertyOp43
 70
     1
102
RTVSPropertyOp44
 70
     1
102
RTVSPropertyOp45
 70
     1
102
RTVSPropertyOp46
 70
     1
102
RTVSPropertyOp47
 70
     1
102
RTVSPropertyOp48
 70
     1
102
RTVSPropertyOp49
 70
     1
102
RTVSPropertyOp50
 70
     1
102
RTVSPropertyOp51
 70
     0
102
RTVSPropertyOp52
 70
     0
102
RTVSPropertyOp53
 70
     1
102
RTVSPropertyOp54
 70
     1
102
RTVSPropertyOp55
 70
     1
102
RTVSPropertyOp56
 70
     1
102
RTVSPropertyOp57
 70
     1
102
RTVSPropertyOp58
 70
     1
102
RTVSPropertyOp59
 70
     1
102
RTVSPropertyOp60
 70
     1
102
RTVSPropertyOp61
 70
     1
102
RTVSPropertyOp62
 70
     1
  0
XRECORD
  5
388
102
{ACAD_REACTORS
330
387
102
}
330
387
100
AcDbXrecord
280
     1
102
RTVSPost2010Prop28
280
     0
102
RTVSPost2010PropOp28
 70
     1
102
RTVSPost2010Prop29
280
     1
102
RTVSPost2010PropOp29
 70
     1
102
RTVSPost2010Prop30
280
     1
102
RTVSPost2010PropOp30
 70
     1
102
RTVSPost2010Prop31
280
     0
102
RTVSPost2010PropOp31
 70
     1
102
RTVSPost2010Prop32
280
     0
102
RTVSPost2010PropOp32
 70
     1
102
RTVSPost2010Prop33
280
     0
102
RTVSPost2010PropOp33
 70
     1
102
RTVSPost2010Prop34
280
     0
102
RTVSPost2010PropOp34
 70
     1
102
RTVSPost2010Prop35
280
     0
102
RTVSPost2010PropOp35
 70
     1
102
RTVSPost2010Prop36
280
     0
102
RTVSPost2010PropOp36
 70
     1
102
RTVSPost2010Prop37
 90
       50
102
RTVSPost2010PropOp37
 70
     1
102
RTVSPost2010Prop38
140
0.0
102
RTVSPost2010PropOp38
 70
     1
102
RTVSPost2010Prop39
140
1.0
102
RTVSPost2010PropOp39
 70
     1
102
RTVSPost2010Prop40
 90
        0
102
RTVSPost2010PropOp40
 70
     1
102
RTVSPost2010Prop41ColorIndex
 90
       18
102
RTVSPost2010Prop41ColorRGB
 90
        0
102
RTVSPost2010PropOp41
 70
     1
102
RTVSPost2010Prop42
 90
       50
102
RTVSPost2010PropOp42
 70
     1
102
RTVSPost2010Prop43
 90
        3
102
RTVSPost2010PropOp43
 70
     1
102
RTVSPost2010Prop44ColorIndex
 90
        5
102
RTVSPost2010Prop44ColorRGB
 90
      255
102
RTVSPost2010PropOp44
 70
     1
102
RTVSPost2010Prop45
280
     0
102
RTVSPost2010PropOp45
 70
     1
102
RTVSPost2010Prop46
 90
       50
102
RTVSPost2010PropOp46
 70
     1
102
RTVSPost2010Prop47
 90
       50
102
RTVSPost2010PropOp47
 70
     1
102
RTVSPost2010Prop48
 90
       50
102
RTVSPost2010PropOp48
 70
     1
102
RTVSPost2010Prop49
280
     0
102
RTVSPost2010PropOp49
 70
     1
102
RTVSPost2010Prop50
 90
       50
102
RTVSPost2010PropOp50
 70
     1
102
RTVSPost2010Prop51ColorIndex
 90
      256
102
RTVSPost2010Prop51ColorRGB
 90
-16777216
102
RTVSPost2010PropOp51
 70
     0
102
RTVSPost2010Prop52
140
1.0
102
RTVSPost2010PropOp52
 70
     0
102
RTVSPost2010Prop53
 90
        2
102
RTVSPost2010PropOp53
 70
     1
102
RTVSPost2010Prop54
  1
strokes_ogs.tif
102
RTVSPost2010PropOp54
 70
     1
102
RTVSPost2010Prop55
280
     0
102
RTVSPost2010PropOp55
 70
     1
102
RTVSPost2010Prop56
140
1.0
102
RTVSPost2010PropOp56
 70
     1
102
RTVSPost2010Prop57
140
1.0
102
RTVSPost2010PropOp57
 70
     1
102
RTVSPropertyOp0
 70
     1
102
RTVSPropertyOp1
 70
     1
102
RTVSPropertyOp2
 70
     1
102
RTVSPropertyOp3
 70
     1
102
RTVSPropertyOp4
 70
     1
102
RTVSPropertyOp5
 70
     1
102
RTVSPropertyOp6
 70
     1
102
RTVSPropertyOp7
 70
     1
102
RTVSPropertyOp8
 70
     1
102
RTVSPropertyOp9
 70
     1
102
RTVSPropertyOp10
 70
     1
102
RTVSPropertyOp11
 70
     1
102
RTVSPropertyOp12
 70
     1
102
RTVSPropertyOp13
 70
     1
102
RTVSPropertyOp14
 70
     1
102
RTVSPropertyOp15
 70
     1
102
RTVSPropertyOp16
 70
     1
102
RTVSPropertyOp17
 70
     1
102
RTVSPropertyOp18
 70
     1
102
RTVSPropertyOp19
 70
     1
102
RTVSPropertyOp20
 70
     1
102
RTVSPropertyOp21
 70
     1
102
RTVSPropertyOp22
 70
     1
102
RTVSPropertyOp23
 70
     1
102
RTVSPropertyOp24
 70
     1
102
RTVSPropertyOp25
 70
     1
102
RTVSPropertyOp26
 70
     1
102
RTVSPropertyOp27
 70
     1
102
RTVSPropertyOp28
 70
     1
102
RTVSPropertyOp29
 70
     1
102
RTVSPropertyOp30
 70
     1
102
RTVSPropertyOp31
 70
     1
102
RTVSPropertyOp32
 70
     1
102
RTVSPropertyOp33
 70
     1
102
RTVSPropertyOp34
 70
     1
102
RTVSPropertyOp35
 70
     1
102
RTVSPropertyOp36
 70
     1
102
RTVSPropertyOp37
 70
     1
102
RTVSPropertyOp38
 70
     1
102
RTVSPropertyOp39
 70
     1
102
RTVSPropertyOp40
 70
     1
102
RTVSPropertyOp41
 70
     1
102
RTVSPropertyOp42
 70
     1
102
RTVSPropertyOp43
 70
     1
102
RTVSPropertyOp44
 70
     1
102
RTVSPropertyOp45
 70
     1
102
RTVSPropertyOp46
 70
     1
102
RTVSPropertyOp47
 70
     1
102
RTVSPropertyOp48
 70
     1
102
RTVSPropertyOp49
 70
     1
102
RTVSPropertyOp50
 70
     1
102
RTVSPropertyOp51
 70
     0
102
RTVSPropertyOp52
 70
     0
102
RTVSPropertyOp53
 70
     1
102
RTVSPropertyOp54
 70
     1
102
RTVSPropertyOp55
 70
     1
102
RTVSPropertyOp56
 70
     1
102
RTVSPropertyOp57
 70
     1
102
RTVSPropertyOp58
 70
     1
102
RTVSPropertyOp59
 70
     1
102
RTVSPropertyOp60
 70
     1
102
RTVSPropertyOp61
 70
     1
102
RTVSPropertyOp62
 70
     1
  0
XRECORD
  5
382
102
{ACAD_REACTORS
330
381
102
}
330
381
100
AcDbXrecord
280
     1
102
RTVSPost2010Prop28
280
     0
102
RTVSPost2010PropOp28
 70
     1
102
RTVSPost2010Prop29
280
     1
102
RTVSPost2010PropOp29
 70
     1
102
RTVSPost2010Prop30
280
     1
102
RTVSPost2010PropOp30
 70
     1
102
RTVSPost2010Prop31
280
     0
102
RTVSPost2010PropOp31
 70
     1
102
RTVSPost2010Prop32
280
     0
102
RTVSPost2010PropOp32
 70
     1
102
RTVSPost2010Prop33
280
     0
102
RTVSPost2010PropOp33
 70
     1
102
RTVSPost2010Prop34
280
     0
102
RTVSPost2010PropOp34
 70
     1
102
RTVSPost2010Prop35
280
     0
102
RTVSPost2010PropOp35
 70
     1
102
RTVSPost2010Prop36
280
     0
102
RTVSPost2010PropOp36
 70
     1
102
RTVSPost2010Prop37
 90
       50
102
RTVSPost2010PropOp37
 70
     1
102
RTVSPost2010Prop38
140
0.0
102
RTVSPost2010PropOp38
 70
     1
102
RTVSPost2010Prop39
140
1.0
102
RTVSPost2010PropOp39
 70
     1
102
RTVSPost2010Prop40
 90
        0
102
RTVSPost2010PropOp40
 70
     1
102
RTVSPost2010Prop41ColorIndex
 90
       18
102
RTVSPost2010Prop41ColorRGB
 90
        0
102
RTVSPost2010PropOp41
 70
     1
102
RTVSPost2010Prop42
 90
       50
102
RTVSPost2010PropOp42
 70
     1
102
RTVSPost2010Prop43
 90
        3
102
RTVSPost2010PropOp43
 70
     1
102
RTVSPost2010Prop44ColorIndex
 90
        5
102
RTVSPost2010Prop44ColorRGB
 90
      255
102
RTVSPost2010PropOp44
 70
     1
102
RTVSPost2010Prop45
280
     0
102
RTVSPost2010PropOp45
 70
     1
102
RTVSPost2010Prop46
 90
       50
102
RTVSPost2010PropOp46
 70
     1
102
RTVSPost2010Prop47
 90
       50
102
RTVSPost2010PropOp47
 70
     1
102
RTVSPost2010Prop48
 90
       50
102
RTVSPost2010PropOp48
 70
     1
102
RTVSPost2010Prop49
280
     0
102
RTVSPost2010PropOp49
 70
     1
102
RTVSPost2010Prop50
 90
       50
102
RTVSPost2010PropOp50
 70
     1
102
RTVSPost2010Prop51ColorIndex
 90
      256
102
RTVSPost2010Prop51ColorRGB
 90
-16777216
102
RTVSPost2010PropOp51
 70
     0
102
RTVSPost2010Prop52
140
1.0
102
RTVSPost2010PropOp52
 70
     0
102
RTVSPost2010Prop53
 90
        2
102
RTVSPost2010PropOp53
 70
     1
102
RTVSPost2010Prop54
  1
strokes_ogs.tif
102
RTVSPost2010PropOp54
 70
     1
102
RTVSPost2010Prop55
280
     0
102
RTVSPost2010PropOp55
 70
     1
102
RTVSPost2010Prop56
140
1.0
102
RTVSPost2010PropOp56
 70
     1
102
RTVSPost2010Prop57
140
1.0
102
RTVSPost2010PropOp57
 70
     1
102
RTVSPropertyOp0
 70
     1
102
RTVSPropertyOp1
 70
     1
102
RTVSPropertyOp2
 70
     1
102
RTVSPropertyOp3
 70
     1
102
RTVSPropertyOp4
 70
     1
102
RTVSPropertyOp5
 70
     1
102
RTVSPropertyOp6
 70
     1
102
RTVSPropertyOp7
 70
     1
102
RTVSPropertyOp8
 70
     1
102
RTVSPropertyOp9
 70
     1
102
RTVSPropertyOp10
 70
     1
102
RTVSPropertyOp11
 70
     1
102
RTVSPropertyOp12
 70
     1
102
RTVSPropertyOp13
 70
     1
102
RTVSPropertyOp14
 70
     1
102
RTVSPropertyOp15
 70
     1
102
RTVSPropertyOp16
 70
     1
102
RTVSPropertyOp17
 70
     1
102
RTVSPropertyOp18
 70
     1
102
RTVSPropertyOp19
 70
     1
102
RTVSPropertyOp20
 70
     1
102
RTVSPropertyOp21
 70
     1
102
RTVSPropertyOp22
 70
     1
102
RTVSPropertyOp23
 70
     1
102
RTVSPropertyOp24
 70
     1
102
RTVSPropertyOp25
 70
     1
102
RTVSPropertyOp26
 70
     1
102
RTVSPropertyOp27
 70
     1
102
RTVSPropertyOp28
 70
     1
102
RTVSPropertyOp29
 70
     1
102
RTVSPropertyOp30
 70
     1
102
RTVSPropertyOp31
 70
     1
102
RTVSPropertyOp32
 70
     1
102
RTVSPropertyOp33
 70
     1
102
RTVSPropertyOp34
 70
     1
102
RTVSPropertyOp35
 70
     1
102
RTVSPropertyOp36
 70
     1
102
RTVSPropertyOp37
 70
     1
102
RTVSPropertyOp38
 70
     1
102
RTVSPropertyOp39
 70
     1
102
RTVSPropertyOp40
 70
     1
102
RTVSPropertyOp41
 70
     1
102
RTVSPropertyOp42
 70
     1
102
RTVSPropertyOp43
 70
     1
102
RTVSPropertyOp44
 70
     1
102
RTVSPropertyOp45
 70
     1
102
RTVSPropertyOp46
 70
     1
102
RTVSPropertyOp47
 70
     1
102
RTVSPropertyOp48
 70
     1
102
RTVSPropertyOp49
 70
     1
102
RTVSPropertyOp50
 70
     1
102
RTVSPropertyOp51
 70
     0
102
RTVSPropertyOp52
 70
     0
102
RTVSPropertyOp53
 70
     1
102
RTVSPropertyOp54
 70
     1
102
RTVSPropertyOp55
 70
     1
102
RTVSPropertyOp56
 70
     1
102
RTVSPropertyOp57
 70
     1
102
RTVSPropertyOp58
 70
     1
102
RTVSPropertyOp59
 70
     1
102
RTVSPropertyOp60
 70
     1
102
RTVSPropertyOp61
 70
     1
102
RTVSPropertyOp62
 70
     1
  0
XRECORD
  5
384
102
{ACAD_REACTORS
330
383
102
}
330
383
100
AcDbXrecord
280
     1
102
RTVSPost2010Prop28
280
     0
102
RTVSPost2010PropOp28
 70
     1
102
RTVSPost2010Prop29
280
     1
102
RTVSPost2010PropOp29
 70
     1
102
RTVSPost2010Prop30
280
     1
102
RTVSPost2010PropOp30
 70
     1
102
RTVSPost2010Prop31
280
     0
102
RTVSPost2010PropOp31
 70
     1
102
RTVSPost2010Prop32
280
     0
102
RTVSPost2010PropOp32
 70
     1
102
RTVSPost2010Prop33
280
     0
102
RTVSPost2010PropOp33
 70
     1
102
RTVSPost2010Prop34
280
     0
102
RTVSPost2010PropOp34
 70
     1
102
RTVSPost2010Prop35
280
     0
102
RTVSPost2010PropOp35
 70
     1
102
RTVSPost2010Prop36
280
     0
102
RTVSPost2010PropOp36
 70
     1
102
RTVSPost2010Prop37
 90
       50
102
RTVSPost2010PropOp37
 70
     1
102
RTVSPost2010Prop38
140
0.0
102
RTVSPost2010PropOp38
 70
     1
102
RTVSPost2010Prop39
140
1.0
102
RTVSPost2010PropOp39
 70
     1
102
RTVSPost2010Prop40
 90
        0
102
RTVSPost2010PropOp40
 70
     1
102
RTVSPost2010Prop41ColorIndex
 90
       18
102
RTVSPost2010Prop41ColorRGB
 90
        0
102
RTVSPost2010PropOp41
 70
     1
102
RTVSPost2010Prop42
 90
       50
102
RTVSPost2010PropOp42
 70
     1
102
RTVSPost2010Prop43
 90
        3
102
RTVSPost2010PropOp43
 70
     1
102
RTVSPost2010Prop44ColorIndex
 90
        5
102
RTVSPost2010Prop44ColorRGB
 90
      255
102
RTVSPost2010PropOp44
 70
     1
102
RTVSPost2010Prop45
280
     0
102
RTVSPost2010PropOp45
 70
     1
102
RTVSPost2010Prop46
 90
       50
102
RTVSPost2010PropOp46
 70
     1
102
RTVSPost2010Prop47
 90
       50
102
RTVSPost2010PropOp47
 70
     1
102
RTVSPost2010Prop48
 90
       50
102
RTVSPost2010PropOp48
 70
     1
102
RTVSPost2010Prop49
280
     0
102
RTVSPost2010PropOp49
 70
     1
102
RTVSPost2010Prop50
 90
       50
102
RTVSPost2010PropOp50
 70
     1
102
RTVSPost2010Prop51ColorIndex
 90
      256
102
RTVSPost2010Prop51ColorRGB
 90
-16777216
102
RTVSPost2010PropOp51
 70
     0
102
RTVSPost2010Prop52
140
1.0
102
RTVSPost2010PropOp52
 70
     0
102
RTVSPost2010Prop53
 90
        2
102
RTVSPost2010PropOp53
 70
     1
102
RTVSPost2010Prop54
  1
strokes_ogs.tif
102
RTVSPost2010PropOp54
 70
     1
102
RTVSPost2010Prop55
280
     0
102
RTVSPost2010PropOp55
 70
     1
102
RTVSPost2010Prop56
140
1.0
102
RTVSPost2010PropOp56
 70
     1
102
RTVSPost2010Prop57
140
1.0
102
RTVSPost2010PropOp57
 70
     1
102
RTVSPropertyOp0
 70
     1
102
RTVSPropertyOp1
 70
     1
102
RTVSPropertyOp2
 70
     1
102
RTVSPropertyOp3
 70
     1
102
RTVSPropertyOp4
 70
     1
102
RTVSPropertyOp5
 70
     1
102
RTVSPropertyOp6
 70
     1
102
RTVSPropertyOp7
 70
     1
102
RTVSPropertyOp8
 70
     1
102
RTVSPropertyOp9
 70
     1
102
RTVSPropertyOp10
 70
     1
102
RTVSPropertyOp11
 70
     1
102
RTVSPropertyOp12
 70
     1
102
RTVSPropertyOp13
 70
     1
102
RTVSPropertyOp14
 70
     1
102
RTVSPropertyOp15
 70
     1
102
RTVSPropertyOp16
 70
     1
102
RTVSPropertyOp17
 70
     1
102
RTVSPropertyOp18
 70
     1
102
RTVSPropertyOp19
 70
     1
102
RTVSPropertyOp20
 70
     1
102
RTVSPropertyOp21
 70
     1
102
RTVSPropertyOp22
 70
     1
102
RTVSPropertyOp23
 70
     1
102
RTVSPropertyOp24
 70
     1
102
RTVSPropertyOp25
 70
     1
102
RTVSPropertyOp26
 70
     1
102
RTVSPropertyOp27
 70
     1
102
RTVSPropertyOp28
 70
     1
102
RTVSPropertyOp29
 70
     1
102
RTVSPropertyOp30
 70
     1
102
RTVSPropertyOp31
 70
     1
102
RTVSPropertyOp32
 70
     1
102
RTVSPropertyOp33
 70
     1
102
RTVSPropertyOp34
 70
     1
102
RTVSPropertyOp35
 70
     1
102
RTVSPropertyOp36
 70
     1
102
RTVSPropertyOp37
 70
     1
102
RTVSPropertyOp38
 70
     1
102
RTVSPropertyOp39
 70
     1
102
RTVSPropertyOp40
 70
     1
102
RTVSPropertyOp41
 70
     1
102
RTVSPropertyOp42
 70
     1
102
RTVSPropertyOp43
 70
     1
102
RTVSPropertyOp44
 70
     1
102
RTVSPropertyOp45
 70
     1
102
RTVSPropertyOp46
 70
     1
102
RTVSPropertyOp47
 70
     1
102
RTVSPropertyOp48
 70
     1
102
RTVSPropertyOp49
 70
     1
102
RTVSPropertyOp50
 70
     1
102
RTVSPropertyOp51
 70
     0
102
RTVSPropertyOp52
 70
     0
102
RTVSPropertyOp53
 70
     1
102
RTVSPropertyOp54
 70
     1
102
RTVSPropertyOp55
 70
     1
102
RTVSPropertyOp56
 70
     1
102
RTVSPropertyOp57
 70
     1
102
RTVSPropertyOp58
 70
     1
102
RTVSPropertyOp59
 70
     1
102
RTVSPropertyOp60
 70
     1
102
RTVSPropertyOp61
 70
     1
102
RTVSPropertyOp62
 70
     1
  0
XRECORD
  5
374
102
{ACAD_REACTORS
330
373
102
}
330
373
100
AcDbXrecord
280
     1
102
RTVSPost2010Prop28
280
     0
102
RTVSPost2010PropOp28
 70
     1
102
RTVSPost2010Prop29
280
     1
102
RTVSPost2010PropOp29
 70
     1
102
RTVSPost2010Prop30
280
     1
102
RTVSPost2010PropOp30
 70
     1
102
RTVSPost2010Prop31
280
     0
102
RTVSPost2010PropOp31
 70
     1
102
RTVSPost2010Prop32
280
     0
102
RTVSPost2010PropOp32
 70
     1
102
RTVSPost2010Prop33
280
     0
102
RTVSPost2010PropOp33
 70
     1
102
RTVSPost2010Prop34
280
     0
102
RTVSPost2010PropOp34
 70
     1
102
RTVSPost2010Prop35
280
     0
102
RTVSPost2010PropOp35
 70
     1
102
RTVSPost2010Prop36
280
     0
102
RTVSPost2010PropOp36
 70
     1
102
RTVSPost2010Prop37
 90
       50
102
RTVSPost2010PropOp37
 70
     1
102
RTVSPost2010Prop38
140
0.0
102
RTVSPost2010PropOp38
 70
     1
102
RTVSPost2010Prop39
140
1.0
102
RTVSPost2010PropOp39
 70
     1
102
RTVSPost2010Prop40
 90
        0
102
RTVSPost2010PropOp40
 70
     1
102
RTVSPost2010Prop41ColorIndex
 90
       18
102
RTVSPost2010Prop41ColorRGB
 90
        0
102
RTVSPost2010PropOp41
 70
     1
102
RTVSPost2010Prop42
 90
       50
102
RTVSPost2010PropOp42
 70
     1
102
RTVSPost2010Prop43
 90
        3
102
RTVSPost2010PropOp43
 70
     1
102
RTVSPost2010Prop44ColorIndex
 90
        5
102
RTVSPost2010Prop44ColorRGB
 90
      255
102
RTVSPost2010PropOp44
 70
     1
102
RTVSPost2010Prop45
280
     0
102
RTVSPost2010PropOp45
 70
     1
102
RTVSPost2010Prop46
 90
       50
102
RTVSPost2010PropOp46
 70
     1
102
RTVSPost2010Prop47
 90
       50
102
RTVSPost2010PropOp47
 70
     1
102
RTVSPost2010Prop48
 90
       50
102
RTVSPost2010PropOp48
 70
     1
102
RTVSPost2010Prop49
280
     0
102
RTVSPost2010PropOp49
 70
     1
102
RTVSPost2010Prop50
 90
       50
102
RTVSPost2010PropOp50
 70
     1
102
RTVSPost2010Prop51ColorIndex
 90
      256
102
RTVSPost2010Prop51ColorRGB
 90
-16777216
102
RTVSPost2010PropOp51
 70
     0
102
RTVSPost2010Prop52
140
1.0
102
RTVSPost2010PropOp52
 70
     0
102
RTVSPost2010Prop53
 90
        2
102
RTVSPost2010PropOp53
 70
     1
102
RTVSPost2010Prop54
  1
strokes_ogs.tif
102
RTVSPost2010PropOp54
 70
     1
102
RTVSPost2010Prop55
280
     0
102
RTVSPost2010PropOp55
 70
     1
102
RTVSPost2010Prop56
140
1.0
102
RTVSPost2010PropOp56
 70
     1
102
RTVSPost2010Prop57
140
1.0
102
RTVSPost2010PropOp57
 70
     1
102
RTVSPropertyOp0
 70
     1
102
RTVSPropertyOp1
 70
     1
102
RTVSPropertyOp2
 70
     1
102
RTVSPropertyOp3
 70
     1
102
RTVSPropertyOp4
 70
     1
102
RTVSPropertyOp5
 70
     1
102
RTVSPropertyOp6
 70
     1
102
RTVSPropertyOp7
 70
     1
102
RTVSPropertyOp8
 70
     1
102
RTVSPropertyOp9
 70
     1
102
RTVSPropertyOp10
 70
     1
102
RTVSPropertyOp11
 70
     1
102
RTVSPropertyOp12
 70
     1
102
RTVSPropertyOp13
 70
     1
102
RTVSPropertyOp14
 70
     1
102
RTVSPropertyOp15
 70
     1
102
RTVSPropertyOp16
 70
     1
102
RTVSPropertyOp17
 70
     1
102
RTVSPropertyOp18
 70
     1
102
RTVSPropertyOp19
 70
     1
102
RTVSPropertyOp20
 70
     1
102
RTVSPropertyOp21
 70
     1
102
RTVSPropertyOp22
 70
     1
102
RTVSPropertyOp23
 70
     1
102
RTVSPropertyOp24
 70
     1
102
RTVSPropertyOp25
 70
     1
102
RTVSPropertyOp26
 70
     1
102
RTVSPropertyOp27
 70
     1
102
RTVSPropertyOp28
 70
     1
102
RTVSPropertyOp29
 70
     1
102
RTVSPropertyOp30
 70
     1
102
RTVSPropertyOp31
 70
     1
102
RTVSPropertyOp32
 70
     1
102
RTVSPropertyOp33
 70
     1
102
RTVSPropertyOp34
 70
     1
102
RTVSPropertyOp35
 70
     1
102
RTVSPropertyOp36
 70
     1
102
RTVSPropertyOp37
 70
     1
102
RTVSPropertyOp38
 70
     1
102
RTVSPropertyOp39
 70
     1
102
RTVSPropertyOp40
 70
     1
102
RTVSPropertyOp41
 70
     1
102
RTVSPropertyOp42
 70
     1
102
RTVSPropertyOp43
 70
     1
102
RTVSPropertyOp44
 70
     1
102
RTVSPropertyOp45
 70
     1
102
RTVSPropertyOp46
 70
     1
102
RTVSPropertyOp47
 70
     1
102
RTVSPropertyOp48
 70
     1
102
RTVSPropertyOp49
 70
     1
102
RTVSPropertyOp50
 70
     1
102
RTVSPropertyOp51
 70
     0
102
RTVSPropertyOp52
 70
     0
102
RTVSPropertyOp53
 70
     1
102
RTVSPropertyOp54
 70
     1
102
RTVSPropertyOp55
 70
     1
102
RTVSPropertyOp56
 70
     1
102
RTVSPropertyOp57
 70
     1
102
RTVSPropertyOp58
 70
     1
102
RTVSPropertyOp59
 70
     1
102
RTVSPropertyOp60
 70
     1
102
RTVSPropertyOp61
 70
     1
102
RTVSPropertyOp62
 70
     1
  0
XRECORD
  5
366
102
{ACAD_REACTORS
330
365
102
}
330
365
100
AcDbXrecord
280
     1
102
RTVSPost2010Prop28
280
     0
102
RTVSPost2010PropOp28
 70
     1
102
RTVSPost2010Prop29
280
     1
102
RTVSPost2010PropOp29
 70
     1
102
RTVSPost2010Prop30
280
     1
102
RTVSPost2010PropOp30
 70
     1
102
RTVSPost2010Prop31
280
     0
102
RTVSPost2010PropOp31
 70
     1
102
RTVSPost2010Prop32
280
     0
102
RTVSPost2010PropOp32
 70
     1
102
RTVSPost2010Prop33
280
     0
102
RTVSPost2010PropOp33
 70
     1
102
RTVSPost2010Prop34
280
     0
102
RTVSPost2010PropOp34
 70
     1
102
RTVSPost2010Prop35
280
     0
102
RTVSPost2010PropOp35
 70
     1
102
RTVSPost2010Prop36
280
     0
102
RTVSPost2010PropOp36
 70
     1
102
RTVSPost2010Prop37
 90
       50
102
RTVSPost2010PropOp37
 70
     1
102
RTVSPost2010Prop38
140
0.0
102
RTVSPost2010PropOp38
 70
     1
102
RTVSPost2010Prop39
140
1.0
102
RTVSPost2010PropOp39
 70
     1
102
RTVSPost2010Prop40
 90
        0
102
RTVSPost2010PropOp40
 70
     1
102
RTVSPost2010Prop41ColorIndex
 90
       18
102
RTVSPost2010Prop41ColorRGB
 90
        0
102
RTVSPost2010PropOp41
 70
     1
102
RTVSPost2010Prop42
 90
       50
102
RTVSPost2010PropOp42
 70
     1
102
RTVSPost2010Prop43
 90
        3
102
RTVSPost2010PropOp43
 70
     1
102
RTVSPost2010Prop44ColorIndex
 90
        5
102
RTVSPost2010Prop44ColorRGB
 90
      255
102
RTVSPost2010PropOp44
 70
     1
102
RTVSPost2010Prop45
280
     0
102
RTVSPost2010PropOp45
 70
     1
102
RTVSPost2010Prop46
 90
       50
102
RTVSPost2010PropOp46
 70
     1
102
RTVSPost2010Prop47
 90
       50
102
RTVSPost2010PropOp47
 70
     1
102
RTVSPost2010Prop48
 90
       50
102
RTVSPost2010PropOp48
 70
     1
102
RTVSPost2010Prop49
280
     0
102
RTVSPost2010PropOp49
 70
     1
102
RTVSPost2010Prop50
 90
       50
102
RTVSPost2010PropOp50
 70
     1
102
RTVSPost2010Prop51ColorIndex
 90
      256
102
RTVSPost2010Prop51ColorRGB
 90
-16777216
102
RTVSPost2010PropOp51
 70
     0
102
RTVSPost2010Prop52
140
1.0
102
RTVSPost2010PropOp52
 70
     0
102
RTVSPost2010Prop53
 90
        2
102
RTVSPost2010PropOp53
 70
     1
102
RTVSPost2010Prop54
  1
strokes_ogs.tif
102
RTVSPost2010PropOp54
 70
     1
102
RTVSPost2010Prop55
280
     0
102
RTVSPost2010PropOp55
 70
     1
102
RTVSPost2010Prop56
140
1.0
102
RTVSPost2010PropOp56
 70
     1
102
RTVSPost2010Prop57
140
1.0
102
RTVSPost2010PropOp57
 70
     1
102
RTVSPropertyOp0
 70
     1
102
RTVSPropertyOp1
 70
     1
102
RTVSPropertyOp2
 70
     1
102
RTVSPropertyOp3
 70
     1
102
RTVSPropertyOp4
 70
     1
102
RTVSPropertyOp5
 70
     1
102
RTVSPropertyOp6
 70
     1
102
RTVSPropertyOp7
 70
     1
102
RTVSPropertyOp8
 70
     1
102
RTVSPropertyOp9
 70
     1
102
RTVSPropertyOp10
 70
     1
102
RTVSPropertyOp11
 70
     1
102
RTVSPropertyOp12
 70
     1
102
RTVSPropertyOp13
 70
     1
102
RTVSPropertyOp14
 70
     1
102
RTVSPropertyOp15
 70
     1
102
RTVSPropertyOp16
 70
     1
102
RTVSPropertyOp17
 70
     1
102
RTVSPropertyOp18
 70
     1
102
RTVSPropertyOp19
 70
     1
102
RTVSPropertyOp20
 70
     1
102
RTVSPropertyOp21
 70
     1
102
RTVSPropertyOp22
 70
     1
102
RTVSPropertyOp23
 70
     1
102
RTVSPropertyOp24
 70
     1
102
RTVSPropertyOp25
 70
     1
102
RTVSPropertyOp26
 70
     1
102
RTVSPropertyOp27
 70
     1
102
RTVSPropertyOp28
 70
     1
102
RTVSPropertyOp29
 70
     1
102
RTVSPropertyOp30
 70
     1
102
RTVSPropertyOp31
 70
     1
102
RTVSPropertyOp32
 70
     1
102
RTVSPropertyOp33
 70
     1
102
RTVSPropertyOp34
 70
     1
102
RTVSPropertyOp35
 70
     1
102
RTVSPropertyOp36
 70
     1
102
RTVSPropertyOp37
 70
     1
102
RTVSPropertyOp38
 70
     1
102
RTVSPropertyOp39
 70
     1
102
RTVSPropertyOp40
 70
     1
102
RTVSPropertyOp41
 70
     1
102
RTVSPropertyOp42
 70
     1
102
RTVSPropertyOp43
 70
     1
102
RTVSPropertyOp44
 70
     1
102
RTVSPropertyOp45
 70
     1
102
RTVSPropertyOp46
 70
     1
102
RTVSPropertyOp47
 70
     1
102
RTVSPropertyOp48
 70
     1
102
RTVSPropertyOp49
 70
     1
102
RTVSPropertyOp50
 70
     1
102
RTVSPropertyOp51
 70
     0
102
RTVSPropertyOp52
 70
     0
102
RTVSPropertyOp53
 70
     1
102
RTVSPropertyOp54
 70
     1
102
RTVSPropertyOp55
 70
     1
102
RTVSPropertyOp56
 70
     1
102
RTVSPropertyOp57
 70
     1
102
RTVSPropertyOp58
 70
     1
102
RTVSPropertyOp59
 70
     1
102
RTVSPropertyOp60
 70
     1
102
RTVSPropertyOp61
 70
     1
102
RTVSPropertyOp62
 70
     1
  0
XRECORD
  5
386
102
{ACAD_REACTORS
330
385
102
}
330
385
100
AcDbXrecord
280
     1
102
RTVSPost2010Prop28
280
     0
102
RTVSPost2010PropOp28
 70
     1
102
RTVSPost2010Prop29
280
     1
102
RTVSPost2010PropOp29
 70
     1
102
RTVSPost2010Prop30
280
     1
102
RTVSPost2010PropOp30
 70
     1
102
RTVSPost2010Prop31
280
     0
102
RTVSPost2010PropOp31
 70
     1
102
RTVSPost2010Prop32
280
     0
102
RTVSPost2010PropOp32
 70
     1
102
RTVSPost2010Prop33
280
     0
102
RTVSPost2010PropOp33
 70
     1
102
RTVSPost2010Prop34
280
     0
102
RTVSPost2010PropOp34
 70
     1
102
RTVSPost2010Prop35
280
     0
102
RTVSPost2010PropOp35
 70
     1
102
RTVSPost2010Prop36
280
     0
102
RTVSPost2010PropOp36
 70
     1
102
RTVSPost2010Prop37
 90
       50
102
RTVSPost2010PropOp37
 70
     1
102
RTVSPost2010Prop38
140
0.0
102
RTVSPost2010PropOp38
 70
     1
102
RTVSPost2010Prop39
140
1.0
102
RTVSPost2010PropOp39
 70
     1
102
RTVSPost2010Prop40
 90
        0
102
RTVSPost2010PropOp40
 70
     1
102
RTVSPost2010Prop41ColorIndex
 90
       18
102
RTVSPost2010Prop41ColorRGB
 90
        0
102
RTVSPost2010PropOp41
 70
     1
102
RTVSPost2010Prop42
 90
       50
102
RTVSPost2010PropOp42
 70
     1
102
RTVSPost2010Prop43
 90
        3
102
RTVSPost2010PropOp43
 70
     1
102
RTVSPost2010Prop44ColorIndex
 90
        5
102
RTVSPost2010Prop44ColorRGB
 90
      255
102
RTVSPost2010PropOp44
 70
     1
102
RTVSPost2010Prop45
280
     0
102
RTVSPost2010PropOp45
 70
     1
102
RTVSPost2010Prop46
 90
       50
102
RTVSPost2010PropOp46
 70
     1
102
RTVSPost2010Prop47
 90
       50
102
RTVSPost2010PropOp47
 70
     1
102
RTVSPost2010Prop48
 90
       50
102
RTVSPost2010PropOp48
 70
     1
102
RTVSPost2010Prop49
280
     0
102
RTVSPost2010PropOp49
 70
     1
102
RTVSPost2010Prop50
 90
       50
102
RTVSPost2010PropOp50
 70
     1
102
RTVSPost2010Prop51ColorIndex
 90
      256
102
RTVSPost2010Prop51ColorRGB
 90
-16777216
102
RTVSPost2010PropOp51
 70
     0
102
RTVSPost2010Prop52
140
1.0
102
RTVSPost2010PropOp52
 70
     0
102
RTVSPost2010Prop53
 90
        2
102
RTVSPost2010PropOp53
 70
     1
102
RTVSPost2010Prop54
  1
strokes_ogs.tif
102
RTVSPost2010PropOp54
 70
     1
102
RTVSPost2010Prop55
280
     0
102
RTVSPost2010PropOp55
 70
     1
102
RTVSPost2010Prop56
140
1.0
102
RTVSPost2010PropOp56
 70
     1
102
RTVSPost2010Prop57
140
1.0
102
RTVSPost2010PropOp57
 70
     1
102
RTVSPropertyOp0
 70
     1
102
RTVSPropertyOp1
 70
     1
102
RTVSPropertyOp2
 70
     1
102
RTVSPropertyOp3
 70
     1
102
RTVSPropertyOp4
 70
     1
102
RTVSPropertyOp5
 70
     1
102
RTVSPropertyOp6
 70
     1
102
RTVSPropertyOp7
 70
     1
102
RTVSPropertyOp8
 70
     1
102
RTVSPropertyOp9
 70
     1
102
RTVSPropertyOp10
 70
     1
102
RTVSPropertyOp11
 70
     1
102
RTVSPropertyOp12
 70
     1
102
RTVSPropertyOp13
 70
     1
102
RTVSPropertyOp14
 70
     1
102
RTVSPropertyOp15
 70
     1
102
RTVSPropertyOp16
 70
     1
102
RTVSPropertyOp17
 70
     1
102
RTVSPropertyOp18
 70
     1
102
RTVSPropertyOp19
 70
     1
102
RTVSPropertyOp20
 70
     1
102
RTVSPropertyOp21
 70
     1
102
RTVSPropertyOp22
 70
     1
102
RTVSPropertyOp23
 70
     1
102
RTVSPropertyOp24
 70
     1
102
RTVSPropertyOp25
 70
     1
102
RTVSPropertyOp26
 70
     1
102
RTVSPropertyOp27
 70
     1
102
RTVSPropertyOp28
 70
     1
102
RTVSPropertyOp29
 70
     1
102
RTVSPropertyOp30
 70
     1
102
RTVSPropertyOp31
 70
     1
102
RTVSPropertyOp32
 70
     1
102
RTVSPropertyOp33
 70
     1
102
RTVSPropertyOp34
 70
     1
102
RTVSPropertyOp35
 70
     1
102
RTVSPropertyOp36
 70
     1
102
RTVSPropertyOp37
 70
     1
102
RTVSPropertyOp38
 70
     1
102
RTVSPropertyOp39
 70
     1
102
RTVSPropertyOp40
 70
     1
102
RTVSPropertyOp41
 70
     1
102
RTVSPropertyOp42
 70
     1
102
RTVSPropertyOp43
 70
     1
102
RTVSPropertyOp44
 70
     1
102
RTVSPropertyOp45
 70
     1
102
RTVSPropertyOp46
 70
     1
102
RTVSPropertyOp47
 70
     1
102
RTVSPropertyOp48
 70
     1
102
RTVSPropertyOp49
 70
     1
102
RTVSPropertyOp50
 70
     1
102
RTVSPropertyOp51
 70
     0
102
RTVSPropertyOp52
 70
     0
102
RTVSPropertyOp53
 70
     1
102
RTVSPropertyOp54
 70
     1
102
RTVSPropertyOp55
 70
     1
102
RTVSPropertyOp56
 70
     1
102
RTVSPropertyOp57
 70
     1
102
RTVSPropertyOp58
 70
     1
102
RTVSPropertyOp59
 70
     1
102
RTVSPropertyOp60
 70
     1
102
RTVSPropertyOp61
 70
     1
102
RTVSPropertyOp62
 70
     1
  0
ENDSEC
  0
EOF
