  0
SECTION
  2
HEADER
  9
$ACADVER
  1
AC1018
  9
$ACADMAINTVER
 70
   104
  9
$DWGCODEPAGE
  3
ANSI_1250
  9
$LASTSAVEDBY
  1
wq7085
  9
$INSBASE
 10
0.0
 20
0.0
 30
0.0
  9
$EXTMIN
 10
186.4339033333333
 20
118.534924
 30
0.0
  9
$EXTMAX
 10
373.283285
 20
345.2288016666667
 30
0.0
  9
$LIMMIN
 10
-0.5
 20
-0.5
  9
$LIMMAX
 10
5.0
 20
5.0
  9
$ORTHOMODE
 70
     0
  9
$REGENMODE
 70
     1
  9
$FILLMODE
 70
     1
  9
$QTEXTMODE
 70
     0
  9
$MIRRTEXT
 70
     1
  9
$LTSCALE
 40
1.0
  9
$ATTMODE
 70
     1
  9
$TEXTSIZE
 40
0.2
  9
$TRACEWID
 40
0.05
  9
$TEXTSTYLE
  7
Standard
  9
$CLAYER
  8
0
  9
$CELTYPE
  6
ByLayer
  9
$CECOLOR
 62
   256
  9
$CELTSCALE
 40
1.0
  9
$DISPSILH
 70
     0
  9
$DIMSCALE
 40
1.0
  9
$DIMASZ
 40
0.18
  9
$DIMEXO
 40
0.0625
  9
$DIMDLI
 40
0.38
  9
$DIMRND
 40
0.0
  9
$DIMDLE
 40
0.0
  9
$DIMEXE
 40
0.18
  9
$DIMTP
 40
0.0
  9
$DIMTM
 40
0.0
  9
$DIMTXT
 40
0.18
  9
$DIMCEN
 40
0.09
  9
$DIMTSZ
 40
0.0
  9
$DIMTOL
 70
     0
  9
$DIMLIM
 70
     0
  9
$DIMTIH
 70
     1
  9
$DIMTOH
 70
     1
  9
$DIMSE1
 70
     0
  9
$DIMSE2
 70
     0
  9
$DIMTAD
 70
     0
  9
$DIMZIN
 70
     0
  9
$DIMBLK
  1

  9
$DIMASO
 70
     1
  9
$DIMSHO
 70
     1
  9
$DIMPOST
  1

  9
$DIMAPOST
  1

  9
$DIMALT
 70
     0
  9
$DIMALTD
 70
     2
  9
$DIMALTF
 40
25.4
  9
$DIMLFAC
 40
1.0
  9
$DIMTOFL
 70
     0
  9
$DIMTVP
 40
0.0
  9
$DIMTIX
 70
     0
  9
$DIMSOXD
 70
     0
  9
$DIMSAH
 70
     0
  9
$DIMBLK1
  1

  9
$DIMBLK2
  1

  9
$DIMSTYLE
  2
Standard
  9
$DIMCLRD
 70
     0
  9
$DIMCLRE
 70
     0
  9
$DIMCLRT
 70
     0
  9
$DIMTFAC
 40
1.0
  9
$DIMGAP
 40
0.09
  9
$DIMJUST
 70
     0
  9
$DIMSD1
 70
     0
  9
$DIMSD2
 70
     0
  9
$DIMTOLJ
 70
     1
  9
$DIMTZIN
 70
     0
  9
$DIMALTZ
 70
     0
  9
$DIMALTTZ
 70
     0
  9
$DIMUPT
 70
     0
  9
$DIMDEC
 70
     4
  9
$DIMTDEC
 70
     4
  9
$DIMALTU
 70
     2
  9
$DIMALTTD
 70
     2
  9
$DIMTXSTY
  7
Standard
  9
$DIMAUNIT
 70
     0
  9
$DIMADEC
 70
     0
  9
$DIMALTRND
 40
0.0
  9
$DIMAZIN
 70
     0
  9
$DIMDSEP
 70
    46
  9
$DIMATFIT
 70
     3
  9
$DIMFRAC
 70
     0
  9
$DIMLDRBLK
  1

  9
$DIMLUNIT
 70
     2
  9
$DIMLWD
 70
    -2
  9
$DIMLWE
 70
    -2
  9
$DIMTMOVE
 70
     0
  9
$LUNITS
 70
     2
  9
$LUPREC
 70
     4
  9
$SKETCHINC
 40
0.1
  9
$FILLETRAD
 40
0.5
  9
$AUNITS
 70
     0
  9
$AUPREC
 70
     0
  9
$MENU
  1
.
  9
$ELEVATION
 40
0.0
  9
$PELEVATION
 40
0.0
  9
$THICKNESS
 40
0.0
  9
$LIMCHECK
 70
     0
  9
$CHAMFERA
 40
0.0
  9
$CHAMFERB
 40
0.0
  9
$CHAMFERC
 40
0.0
  9
$CHAMFERD
 40
0.0
  9
$SKPOLY
 70
     0
  9
$TDCREATE
 40
2458954.442511574
  9
$TDUCREATE
 40
2458954.359184248
  9
$TDUPDATE
 40
2458954.444305556
  9
$TDUUPDATE
 40
2458954.360972223
  9
$TDINDWG
 40
0.0009143634
  9
$TDUSRTIMER
 40
0.0009143634
  9
$USRTIMER
 70
     1
  9
$ANGBASE
 50
0.0
  9
$ANGDIR
 70
     0
  9
$PDMODE
 70
     0
  9
$PDSIZE
 40
0.0
  9
$PLINEWID
 40
0.0
  9
$SPLFRAME
 70
     0
  9
$SPLINETYPE
 70
     6
  9
$SPLINESEGS
 70
     8
  9
$HANDSEED
  5
391
  9
$SURFTAB1
 70
     6
  9
$SURFTAB2
 70
     6
  9
$SURFTYPE
 70
     6
  9
$SURFU
 70
     6
  9
$SURFV
 70
     6
  9
$UCSBASE
  2

  9
$UCSNAME
  2

  9
$UCSORG
 10
274.404842
 20
288.907994
 30
0.0
  9
$UCSXDIR
 10
1.0
 20
0.0
 30
0.0
  9
$UCSYDIR
 10
0.0
 20
1.0
 30
0.0
  9
$UCSORTHOREF
  2

  9
$UCSORTHOVIEW
 70
     0
  9
$UCSORGTOP
 10
0.0
 20
0.0
 30
0.0
  9
$UCSORGBOTTOM
 10
0.0
 20
0.0
 30
0.0
  9
$UCSORGLEFT
 10
0.0
 20
0.0
 30
0.0
  9
$UCSORGRIGHT
 10
0.0
 20
0.0
 30
0.0
  9
$UCSORGFRONT
 10
0.0
 20
0.0
 30
0.0
  9
$UCSORGBACK
 10
0.0
 20
0.0
 30
0.0
  9
$PUCSBASE
  2

  9
$PUCSNAME
  2

  9
$PUCSORG
 10
0.0
 20
0.0
 30
0.0
  9
$PUCSXDIR
 10
1.0
 20
0.0
 30
0.0
  9
$PUCSYDIR
 10
0.0
 20
1.0
 30
0.0
  9
$PUCSORTHOREF
  2

  9
$PUCSORTHOVIEW
 70
     0
  9
$PUCSORGTOP
 10
0.0
 20
0.0
 30
0.0
  9
$PUCSORGBOTTOM
 10
0.0
 20
0.0
 30
0.0
  9
$PUCSORGLEFT
 10
0.0
 20
0.0
 30
0.0
  9
$PUCSORGRIGHT
 10
0.0
 20
0.0
 30
0.0
  9
$PUCSORGFRONT
 10
0.0
 20
0.0
 30
0.0
  9
$PUCSORGBACK
 10
0.0
 20
0.0
 30
0.0
  9
$USERI1
 70
     0
  9
$USERI2
 70
     0
  9
$USERI3
 70
     0
  9
$USERI4
 70
     0
  9
$USERI5
 70
     0
  9
$USERR1
 40
0.0
  9
$USERR2
 40
0.0
  9
$USERR3
 40
0.0
  9
$USERR4
 40
0.0
  9
$USERR5
 40
0.0
  9
$WORLDVIEW
 70
     1
  9
$SHADEDGE
 70
     3
  9
$SHADEDIF
 70
    70
  9
$TILEMODE
 70
     1
  9
$MAXACTVP
 70
    64
  9
$PINSBASE
 10
0.0
 20
0.0
 30
0.0
  9
$PLIMCHECK
 70
     0
  9
$PEXTMIN
 10
-0.5
 20
-0.5
 30
-0.5
  9
$PEXTMAX
 10
5.0
 20
5.0
 30
5.0
  9
$PLIMMIN
 10
-0.5
 20
-0.5
  9
$PLIMMAX
 10
5.0
 20
5.0
  9
$UNITMODE
 70
     0
  9
$VISRETAIN
 70
     1
  9
$PLINEGEN
 70
     0
  9
$PSLTSCALE
 70
     1
  9
$TREEDEPTH
 70
  3020
  9
$CMLSTYLE
  2
Standard
  9
$CMLJUST
 70
     0
  9
$CMLSCALE
 40
1.0
  9
$PROXYGRAPHICS
 70
     1
  9
$MEASUREMENT
 70
     1
  9
$CELWEIGHT
370
    13
  9
$ENDCAPS
280
     0
  9
$JOINSTYLE
280
     0
  9
$LWDISPLAY
290
     0
  9
$INSUNITS
 70
     4
  9
$HYPERLINKBASE
  1

  9
$STYLESHEET
  1

  9
$XEDIT
290
     1
  9
$CEPSNTYPE
380
     0
  9
$PSTYLEMODE
290
     1
  9
$FINGERPRINTGUID
  2
{1F584EDB-0DDB-4777-91B2-5EDD04CFC113}
  9
$VERSIONGUID
  2
{38E5DAA8-CC11-1D48-B3D7-103D27DABD63}
  9
$EXTNAMES
290
     1
  9
$PSVPSCALE
 40
0.0
  9
$OLESTARTUP
290
     0
  9
$SORTENTS
280
   127
  9
$INDEXCTL
280
     0
  9
$HIDETEXT
280
     1
  9
$XCLIPFRAME
290
     0
  9
$HALOGAP
280
     0
  9
$OBSCOLOR
 70
   257
  9
$OBSLTYPE
280
     0
  9
$INTERSECTIONDISPLAY
280
     0
  9
$INTERSECTIONCOLOR
 70
   257
  9
$DIMASSOC
280
     2
  9
$PROJECTNAME
  1

  0
ENDSEC
  0
SECTION
  2
CLASSES
  0
CLASS
  1
ACDBDICTIONARYWDFLT
  2
AcDbDictionaryWithDefault
  3
ObjectDBX Classes
 90
        0
 91
        1
280
     0
281
     0
  0
CLASS
  1
VISUALSTYLE
  2
AcDbVisualStyle
  3
ObjectDBX Classes
 90
     4095
 91
       24
280
     0
281
     0
  0
CLASS
  1
MATERIAL
  2
AcDbMaterial
  3
ObjectDBX Classes
 90
     1153
 91
        3
280
     0
281
     0
  0
CLASS
  1
SCALE
  2
AcDbScale
  3
ObjectDBX Classes
 90
     1153
 91
       33
280
     0
281
     0
  0
CLASS
  1
TABLESTYLE
  2
AcDbTableStyle
  3
ObjectDBX Classes
 90
     4095
 91
        1
280
     0
281
     0
  0
CLASS
  1
MLEADERSTYLE
  2
AcDbMLeaderStyle
  3
ACDB_MLEADERSTYLE_CLASS
 90
     4095
 91
        1
280
     0
281
     0
  0
CLASS
  1
SUN
  2
AcDbSun
  3
SCENEOE
 90
     1153
 91
        0
280
     0
281
     0
  0
CLASS
  1
DIMASSOC
  2
AcDbDimAssoc
  3
"AcDbDimAssoc|Product Desc:     AcDim ARX App For Dimension|Company:          Autodesk, Inc.|WEB Address:      www.autodesk.com"
 90
        0
 91
        7
280
     0
281
     0
  0
CLASS
  1
DICTIONARYVAR
  2
AcDbDictionaryVar
  3
ObjectDBX Classes
 90
        0
 91
        8
280
     0
281
     0
  0
CLASS
  1
CELLSTYLEMAP
  2
AcDbCellStyleMap
  3
ObjectDBX Classes
 90
     1152
 91
        2
280
     0
281
     0
  0
CLASS
  1
ACDBSECTIONVIEWSTYLE
  2
AcDbSectionViewStyle
  3
ObjectDBX Classes
 90
     1025
 91
        1
280
     0
281
     0
  0
CLASS
  1
ACDBDETAILVIEWSTYLE
  2
AcDbDetailViewStyle
  3
ObjectDBX Classes
 90
     1025
 91
        1
280
     0
281
     0
  0
CLASS
  1
SORTENTSTABLE
  2
AcDbSortentsTable
  3
ObjectDBX Classes
 90
        0
 91
        1
280
     0
281
     0
  0
ENDSEC
  0
SECTION
  2
TABLES
  0
TABLE
  2
VPORT
  5
8
330
0
100
AcDbSymbolTable
 70
    16
  0
VPORT
  5
29
330
8
100
AcDbSymbolTableRecord
100
AcDbViewportTableRecord
  2
*Active
 70
     0
 10
0.0
 20
0.0
 11
1.0
 21
1.0
 12
307.8367900064214
 22
294.5230569515621
 13
0.0
 23
0.0
 14
0.5
 24
0.5
 15
0.5
 25
0.5
 16
0.0
 26
0.0
 36
1.0
 17
0.0
 27
0.0
 37
0.0
 40
129.2554908891809
 41
2.283154121863799
 42
50.0
 43
381.817707
 44
-381.817707
 50
0.0
 51
0.0
 71
     0
 72
   100
 73
     1
 74
     3
 75
     0
 76
     0
 77
     0
 78
     0
281
     0
 65
     1
110
274.404842
120
288.907994
130
0.0
111
1.0
121
0.0
131
0.0
112
0.0
122
1.0
132
0.0
 79
     0
146
0.0
1001
ACAD_NAV_VCDISPLAY
1070
     3
  0
VPORT
  5
295
330
8
100
AcDbSymbolTableRecord
100
AcDbViewportTableRecord
  2
L1
 70
     0
 10
0.0
 20
0.0
 11
1.0
 21
1.0
 12
279.354393
 22
231.746338
 13
0.0
 23
0.0
 14
0.5
 24
0.5
 15
0.5
 25
0.5
 16
0.0
 26
0.0
 36
1.0
 17
0.0
 27
0.0
 37
0.0
 40
207.433333
 41
0.085602
 42
50.0
 43
381.817707
 44
-381.817707
 50
0.0
 51
0.0
 71
     0
 72
   100
 73
     1
 74
     3
 75
     0
 76
     0
 77
     0
 78
     0
281
     0
 65
     1
110
0.0
120
0.0
130
0.0
111
1.0
121
0.0
131
0.0
112
0.0
122
1.0
132
0.0
 79
     0
146
0.0
  0
VPORT
  5
296
330
8
100
AcDbSymbolTableRecord
100
AcDbViewportTableRecord
  2
L2
 70
     0
 10
0.0
 20
0.0
 11
0.5
 21
1.0
 12
0.0
 22
0.0
 13
0.0
 23
0.0
 14
0.5
 24
0.5
 15
0.5
 25
0.5
 16
0.0
 26
-1.0
 36
0.0
 17
0.0
 27
0.0
 37
0.0
 40
1319.143726
 41
0.013461
 42
50.0
 43
679.601336
 44
-679.601336
 50
0.0
 51
0.0
 71
     0
 72
   100
 73
     1
 74
     3
 75
     0
 76
     0
 77
     0
 78
     0
281
     0
 65
     1
110
0.0
120
0.0
130
0.0
111
1.0
121
0.0
131
0.0
112
0.0
122
1.0
132
0.0
 79
     0
146
0.0
  0
VPORT
  5
297
330
8
100
AcDbSymbolTableRecord
100
AcDbViewportTableRecord
  2
L2
 70
     0
 10
0.5
 20
0.0
 11
1.0
 21
1.0
 12
0.0
 22
0.0
 13
0.0
 23
0.0
 14
0.5
 24
0.5
 15
0.5
 25
0.5
 16
1.0
 26
0.0
 36
0.0
 17
0.0
 27
0.0
 37
0.0
 40
1319.143726
 41
0.013461
 42
50.0
 43
667.6767099999999
 44
-667.6767099999999
 50
0.0
 51
0.0
 71
     0
 72
   100
 73
     1
 74
     3
 75
     0
 76
     0
 77
     0
 78
     0
281
     0
 65
     1
110
0.0
120
0.0
130
0.0
111
1.0
121
0.0
131
0.0
112
0.0
122
1.0
132
0.0
 79
     0
146
0.0
  0
VPORT
  5
298
330
8
100
AcDbSymbolTableRecord
100
AcDbViewportTableRecord
  2
L3
 70
     0
 10
0.0
 20
0.5
 11
1.0
 21
1.0
 12
279.354393
 22
231.746338
 13
0.0
 23
0.0
 14
0.5
 24
0.5
 15
0.5
 25
0.5
 16
0.0
 26
0.0
 36
1.0
 17
0.0
 27
0.0
 37
0.0
 40
207.433333
 41
0.085602
 42
50.0
 43
381.817707
 44
-381.817707
 50
0.0
 51
0.0
 71
     0
 72
   100
 73
     1
 74
     3
 75
     0
 76
     0
 77
     0
 78
     0
281
     0
 65
     1
110
0.0
120
0.0
130
0.0
111
1.0
121
0.0
131
0.0
112
0.0
122
1.0
132
0.0
 79
     0
146
0.0
  0
VPORT
  5
299
330
8
100
AcDbSymbolTableRecord
100
AcDbViewportTableRecord
  2
L3
 70
     0
 10
0.0
 20
0.0
 11
1.0
 21
0.5
 12
0.0
 22
0.0
 13
0.0
 23
0.0
 14
0.5
 24
0.5
 15
0.5
 25
0.5
 16
0.0
 26
-1.0
 36
0.0
 17
0.0
 27
0.0
 37
0.0
 40
1319.143726
 41
0.013461
 42
50.0
 43
679.601336
 44
-679.601336
 50
0.0
 51
0.0
 71
     0
 72
   100
 73
     1
 74
     3
 75
     0
 76
     0
 77
     0
 78
     0
281
     0
 65
     1
110
0.0
120
0.0
130
0.0
111
1.0
121
0.0
131
0.0
112
0.0
122
1.0
132
0.0
 79
     0
146
0.0
  0
VPORT
  5
29A
330
8
100
AcDbSymbolTableRecord
100
AcDbViewportTableRecord
  2
L4
 70
     0
 10
0.0
 20
0.5
 11
0.5
 21
1.0
 12
279.354393
 22
231.746338
 13
0.0
 23
0.0
 14
0.5
 24
0.5
 15
0.5
 25
0.5
 16
0.0
 26
0.0
 36
1.0
 17
0.0
 27
0.0
 37
0.0
 40
207.433333
 41
0.085602
 42
50.0
 43
381.817707
 44
-381.817707
 50
0.0
 51
0.0
 71
     0
 72
   100
 73
     1
 74
     3
 75
     0
 76
     0
 77
     0
 78
     0
281
     0
 65
     1
110
0.0
120
0.0
130
0.0
111
1.0
121
0.0
131
0.0
112
0.0
122
1.0
132
0.0
 79
     0
146
0.0
  0
VPORT
  5
29B
330
8
100
AcDbSymbolTableRecord
100
AcDbViewportTableRecord
  2
L4
 70
     0
 10
0.0
 20
0.0
 11
0.5
 21
0.5
 12
0.0
 22
0.0
 13
0.0
 23
0.0
 14
0.5
 24
0.5
 15
0.5
 25
0.5
 16
0.0
 26
-1.0
 36
0.0
 17
0.0
 27
0.0
 37
0.0
 40
1319.143726
 41
0.013461
 42
50.0
 43
679.601336
 44
-679.601336
 50
0.0
 51
0.0
 71
     0
 72
   100
 73
     1
 74
     3
 75
     0
 76
     0
 77
     0
 78
     0
281
     0
 65
     1
110
0.0
120
0.0
130
0.0
111
1.0
121
0.0
131
0.0
112
0.0
122
1.0
132
0.0
 79
     0
146
0.0
  0
VPORT
  5
29C
330
8
100
AcDbSymbolTableRecord
100
AcDbViewportTableRecord
  2
L4
 70
     0
 10
0.5
 20
0.0
 11
1.0
 21
0.5
 12
0.0
 22
0.0
 13
0.0
 23
0.0
 14
0.5
 24
0.5
 15
0.5
 25
0.5
 16
1.0
 26
0.0
 36
0.0
 17
0.0
 27
0.0
 37
0.0
 40
1319.143726
 41
0.013461
 42
50.0
 43
667.6767099999999
 44
-667.6767099999999
 50
0.0
 51
0.0
 71
     0
 72
   100
 73
     1
 74
     3
 75
     0
 76
     0
 77
     0
 78
     0
281
     0
 65
     1
110
0.0
120
0.0
130
0.0
111
1.0
121
0.0
131
0.0
112
0.0
122
1.0
132
0.0
 79
     0
146
0.0
  0
VPORT
  5
29D
330
8
100
AcDbSymbolTableRecord
100
AcDbViewportTableRecord
  2
L4
 70
     0
 10
0.5
 20
0.5
 11
1.0
 21
1.0
 12
0.0
 22
0.0
 13
0.0
 23
0.0
 14
0.5
 24
0.5
 15
0.5
 25
0.5
 16
0.5773502691896259
 26
-0.5773502691896259
 36
0.5773502691896259
 17
0.0
 27
0.0
 37
0.0
 40
1295.484074
 41
0.013707
 42
50.0
 43
674.79345
 44
-674.79345
 50
0.0
 51
0.0
 71
     0
 72
   100
 73
     1
 74
     3
 75
     0
 76
     0
 77
     0
 78
     0
281
     0
 65
     1
110
0.0
120
0.0
130
0.0
111
1.0
121
0.0
131
0.0
112
0.0
122
1.0
132
0.0
 79
     0
146
0.0
  0
VPORT
  5
29E
330
8
100
AcDbSymbolTableRecord
100
AcDbViewportTableRecord
  2
L6
 70
     0
 10
0.0
 20
0.5
 11
0.333333
 21
1.0
 12
0.0
 22
0.0
 13
0.0
 23
0.0
 14
0.5
 24
0.5
 15
0.5
 25
0.5
 16
0.7188730927569434
 26
-0.5850486126764433
 36
0.3754192287502549
 17
0.0
 27
0.0
 37
0.0
 40
1367.187154
 41
0.012988
 42
50.0
 43
707.8776949999999
 44
-707.8776949999999
 50
0.0
 51
0.0
 71
     0
 72
   100
 73
     1
 74
     3
 75
     0
 76
     0
 77
     0
 78
     0
281
     0
 65
     1
110
0.0
120
0.0
130
0.0
111
1.0
121
0.0
131
0.0
112
0.0
122
1.0
132
0.0
 79
     0
146
0.0
  0
VPORT
  5
29F
330
8
100
AcDbSymbolTableRecord
100
AcDbViewportTableRecord
  2
L6
 70
     0
 10
0.0
 20
0.0
 11
0.333333
 21
0.5
 12
0.0
 22
0.0
 13
0.0
 23
0.0
 14
0.5
 24
0.5
 15
0.5
 25
0.5
 16
-1.0
 26
0.0
 36
0.0
 17
0.0
 27
0.0
 37
0.0
 40
1319.143726
 41
0.013461
 42
50.0
 43
667.6767099999999
 44
-667.6767099999999
 50
0.0
 51
0.0
 71
     0
 72
   100
 73
     1
 74
     3
 75
     0
 76
     0
 77
     0
 78
     0
281
     0
 65
     1
110
0.0
120
0.0
130
0.0
111
1.0
121
0.0
131
0.0
112
0.0
122
1.0
132
0.0
 79
     0
146
0.0
  0
VPORT
  5
2A0
330
8
100
AcDbSymbolTableRecord
100
AcDbViewportTableRecord
  2
L6
 70
     0
 10
0.333333
 20
0.5
 11
0.666667
 21
1.0
 12
279.354393
 22
231.746338
 13
0.0
 23
0.0
 14
0.5
 24
0.5
 15
0.5
 25
0.5
 16
0.0
 26
0.0
 36
1.0
 17
0.0
 27
0.0
 37
0.0
 40
207.433333
 41
0.085602
 42
50.0
 43
381.817707
 44
-381.817707
 50
0.0
 51
0.0
 71
     0
 72
   100
 73
     1
 74
     3
 75
     0
 76
     0
 77
     0
 78
     0
281
     0
 65
     1
110
0.0
120
0.0
130
0.0
111
1.0
121
0.0
131
0.0
112
0.0
122
1.0
132
0.0
 79
     0
146
0.0
  0
VPORT
  5
2A1
330
8
100
AcDbSymbolTableRecord
100
AcDbViewportTableRecord
  2
L6
 70
     0
 10
0.333333
 20
0.0
 11
0.666667
 21
0.5
 12
0.0
 22
0.0
 13
0.0
 23
0.0
 14
0.5
 24
0.5
 15
0.5
 25
0.5
 16
0.0
 26
-1.0
 36
0.0
 17
0.0
 27
0.0
 37
0.0
 40
1319.143726
 41
0.013461
 42
50.0
 43
679.601336
 44
-679.601336
 50
0.0
 51
0.0
 71
     0
 72
   100
 73
     1
 74
     3
 75
     0
 76
     0
 77
     0
 78
     0
281
     0
 65
     1
110
0.0
120
0.0
130
0.0
111
1.0
121
0.0
131
0.0
112
0.0
122
1.0
132
0.0
 79
     0
146
0.0
  0
VPORT
  5
2A2
330
8
100
AcDbSymbolTableRecord
100
AcDbViewportTableRecord
  2
L6
 70
     0
 10
0.666667
 20
0.5
 11
1.0
 21
1.0
 12
0.0
 22
0.0
 13
0.0
 23
0.0
 14
0.5
 24
0.5
 15
0.5
 25
0.5
 16
0.5773502691896259
 26
-0.5773502691896259
 36
0.5773502691896259
 17
0.0
 27
0.0
 37
0.0
 40
1295.484074
 41
0.013707
 42
50.0
 43
674.79345
 44
-674.79345
 50
0.0
 51
0.0
 71
     0
 72
   100
 73
     1
 74
     3
 75
     0
 76
     0
 77
     0
 78
     0
281
     0
 65
     1
110
0.0
120
0.0
130
0.0
111
1.0
121
0.0
131
0.0
112
0.0
122
1.0
132
0.0
 79
     0
146
0.0
  0
VPORT
  5
2A3
330
8
100
AcDbSymbolTableRecord
100
AcDbViewportTableRecord
  2
L6
 70
     0
 10
0.666667
 20
0.0
 11
1.0
 21
0.5
 12
0.0
 22
0.0
 13
0.0
 23
0.0
 14
0.5
 24
0.5
 15
0.5
 25
0.5
 16
1.0
 26
0.0
 36
0.0
 17
0.0
 27
0.0
 37
0.0
 40
1319.143726
 41
0.013461
 42
50.0
 43
667.6767099999999
 44
-667.6767099999999
 50
0.0
 51
0.0
 71
     0
 72
   100
 73
     1
 74
     3
 75
     0
 76
     0
 77
     0
 78
     0
281
     0
 65
     1
110
0.0
120
0.0
130
0.0
111
1.0
121
0.0
131
0.0
112
0.0
122
1.0
132
0.0
 79
     0
146
0.0
  0
ENDTAB
  0
TABLE
  2
LTYPE
  5
5
330
0
100
AcDbSymbolTable
 70
     7
  0
LTYPE
  5
14
330
5
100
AcDbSymbolTableRecord
100
AcDbLinetypeTableRecord
  2
ByBlock
 70
     0
  3

 72
    65
 73
     0
 40
0.0
  0
LTYPE
  5
15
330
5
100
AcDbSymbolTableRecord
100
AcDbLinetypeTableRecord
  2
ByLayer
 70
     0
  3

 72
    65
 73
     0
 40
0.0
  0
LTYPE
  5
16
330
5
100
AcDbSymbolTableRecord
100
AcDbLinetypeTableRecord
  2
Continuous
 70
     0
  3
Solid line
 72
    65
 73
     0
 40
0.0
  0
LTYPE
  5
6E
330
5
100
AcDbSymbolTableRecord
100
AcDbLinetypeTableRecord
  2
CENTER
 70
     0
  3
____ _ ____ _ ____ _ ____
 72
    65
 73
     4
 40
47.4
 49
22.0
 74
     4
 75
     0
340
0
 46
0.0
 50
0.0
 44
0.0
 45
0.0
 49
-8.5
 74
     4
 75
     0
340
0
 46
0.0
 50
0.0
 44
0.0
 45
0.0
 49
8.5
 74
     4
 75
     0
340
0
 46
0.0
 50
0.0
 44
0.0
 45
0.0
 49
-8.5
 74
     4
 75
     0
340
0
 46
0.0
 50
0.0
 44
0.0
 45
0.0
  0
LTYPE
  5
6F
330
5
100
AcDbSymbolTableRecord
100
AcDbLinetypeTableRecord
  2
DASHDOT
 70
     0
  3
_._._._._._._._._._._._._._._._.
 72
    65
 73
     4
 40
70.0
 49
31.0
 74
     4
 75
     0
340
0
 46
0.0
 50
0.0
 44
0.0
 45
0.0
 49
-13.0
 74
     4
 75
     0
340
0
 46
0.0
 50
0.0
 44
0.0
 45
0.0
 49
13.0
 74
     4
 75
     0
340
0
 46
0.0
 50
0.0
 44
0.0
 45
0.0
 49
-13.0
 74
     4
 75
     0
340
0
 46
0.0
 50
0.0
 44
0.0
 45
0.0
  0
LTYPE
  5
70
330
5
100
AcDbSymbolTableRecord
100
AcDbLinetypeTableRecord
  2
DASHED
 70
     0
  3
__ __ __ __ __ __ __ __ __
 72
    65
 73
     2
 40
25.72
 49
12.86
 74
     4
 75
     0
340
0
 46
0.0
 50
0.0
 44
0.0
 45
0.0
 49
-12.86
 74
     4
 75
     0
340
0
 46
0.0
 50
0.0
 44
0.0
 45
0.0
  0
LTYPE
  5
71
330
5
100
AcDbSymbolTableRecord
100
AcDbLinetypeTableRecord
  2
DOT
 70
     0
  3
.........................
 72
    65
 73
     2
 40
10.0
 49
0.0
 74
     4
 75
     0
340
0
 46
0.0
 50
0.0
 44
0.0
 45
0.0
 49
-10.0
 74
     4
 75
     0
340
0
 46
0.0
 50
0.0
 44
0.0
 45
0.0
  0
LTYPE
  5
72
330
5
100
AcDbSymbolTableRecord
100
AcDbLinetypeTableRecord
  2
PHANTOM
 70
     0
  3
____ _ _ ____ _ _ _____ _ _ ____
 72
    65
 73
     6
 40
50.5
 49
18.0
 74
     4
 75
     0
340
0
 46
0.0
 50
0.0
 44
0.0
 45
0.0
 49
-6.5
 74
     4
 75
     0
340
0
 46
0.0
 50
0.0
 44
0.0
 45
0.0
 49
6.5
 74
     4
 75
     0
340
0
 46
0.0
 50
0.0
 44
0.0
 45
0.0
 49
-6.5
 74
     4
 75
     0
340
0
 46
0.0
 50
0.0
 44
0.0
 45
0.0
 49
6.5
 74
     4
 75
     0
340
0
 46
0.0
 50
0.0
 44
0.0
 45
0.0
 49
-6.5
 74
     4
 75
     0
340
0
 46
0.0
 50
0.0
 44
0.0
 45
0.0
  0
LTYPE
  5
333
330
5
100
AcDbSymbolTableRecord
100
AcDbLinetypeTableRecord
  2
CENTER2
 70
     0
  3
Center (.5x) ___ _ ___ _ ___ _ ___ _ ___ _ ___
 72
    65
 73
     4
 40
1.125
 49
0.75
 74
     0
 49
-0.125
 74
     0
 49
0.125
 74
     0
 49
-0.125
 74
     0
  0
ENDTAB
  0
TABLE
  2
LAYER
  5
2
330
0
100
AcDbSymbolTable
 70
    22
  0
LAYER
  5
10
102
{ACAD_XDICTIONARY
360
33E
102
}
330
2
100
AcDbSymbolTableRecord
100
AcDbLayerTableRecord
  2
0
 70
     0
 62
     7
  6
Continuous
370
    -3
390
F
  0
LAYER
  5
1EF
330
2
100
AcDbSymbolTableRecord
100
AcDbLayerTableRecord
  2
Defpoints
 70
     0
 62
     7
  6
Continuous
290
     0
370
    -3
390
F
  0
LAYER
  5
330
102
{ACAD_XDICTIONARY
360
340
102
}
330
2
100
AcDbSymbolTableRecord
100
AcDbLayerTableRecord
  2
1
 70
     0
 62
     4
  6
Continuous
370
    -3
390
F
  0
LAYER
  5
331
102
{ACAD_XDICTIONARY
360
342
102
}
330
2
100
AcDbSymbolTableRecord
100
AcDbLayerTableRecord
  2
2
 70
     0
 62
     7
  6
Continuous
370
    -3
390
F
  0
LAYER
  5
332
102
{ACAD_XDICTIONARY
360
344
102
}
330
2
100
AcDbSymbolTableRecord
100
AcDbLayerTableRecord
  2
4
 70
     0
 62
     2
  6
CENTER2
370
    -3
390
F
  0
LAYER
  5
334
102
{ACAD_XDICTIONARY
360
346
102
}
330
2
100
AcDbSymbolTableRecord
100
AcDbLayerTableRecord
  2
SK1
 70
     0
 62
     4
  6
Continuous
370
    -3
390
F
  0
LAYER
  5
335
102
{ACAD_XDICTIONARY
360
348
102
}
330
2
100
AcDbSymbolTableRecord
100
AcDbLayerTableRecord
  2
SK2
 70
     0
 62
     7
  6
Continuous
370
    -3
390
F
  0
LAYER
  5
337
102
{ACAD_XDICTIONARY
360
34A
102
}
330
2
100
AcDbSymbolTableRecord
100
AcDbLayerTableRecord
  2
SK4
 70
     0
 62
     2
  6
CENTER2
370
    -3
390
F
  0
LAYER
  5
338
102
{ACAD_XDICTIONARY
360
34C
102
}
330
2
100
AcDbSymbolTableRecord
100
AcDbLayerTableRecord
  2
SK6
 70
     0
 62
     5
  6
Continuous
370
    -3
390
F
  0
LAYER
  5
339
102
{ACAD_XDICTIONARY
360
34E
102
}
330
2
100
AcDbSymbolTableRecord
100
AcDbLayerTableRecord
  2
CUT
 70
     0
 62
     1
  6
Continuous
370
    -3
390
F
  0
LAYER
  5
33A
102
{ACAD_XDICTIONARY
360
350
102
}
330
2
100
AcDbSymbolTableRecord
100
AcDbLayerTableRecord
  2
NOCUT
 70
     0
 62
     7
  6
Continuous
370
    -3
390
F
  0
LAYER
  5
33B
102
{ACAD_XDICTIONARY
360
352
102
}
330
2
100
AcDbSymbolTableRecord
100
AcDbLayerTableRecord
  2
80
 70
     0
 62
     6
  6
Continuous
370
    -3
390
F
  0
LAYER
  5
33C
102
{ACAD_XDICTIONARY
360
354
102
}
330
2
100
AcDbSymbolTableRecord
100
AcDbLayerTableRecord
  2
81
 70
     0
 62
     3
  6
Continuous
370
    -3
390
F
  0
ENDTAB
  0
TABLE
  2
STYLE
  5
3
330
0
100
AcDbSymbolTable
 70
     3
  0
STYLE
  5
11
330
3
100
AcDbSymbolTableRecord
100
AcDbTextStyleTableRecord
  2
Standard
 70
     0
 40
0.0
 41
1.0
 50
0.0
 71
     0
 42
0.2
  3
txt
  4

  0
STYLE
  5
1E8
330
3
100
AcDbSymbolTableRecord
100
AcDbTextStyleTableRecord
  2
cesky
 70
     0
 40
0.0
 41
1.0
 50
0.0
 71
     0
 42
0.2
  3
simplex.shx
  4

  0
STYLE
  5
1E9
330
3
100
AcDbSymbolTableRecord
100
AcDbTextStyleTableRecord
  2
DWGDirectTextStyle
 70
     0
 40
0.0
 41
1.0
 50
0.0
 71
     0
 42
0.2
  3
simplex
  4

  0
ENDTAB
  0
TABLE
  2
VIEW
  5
6
330
0
100
AcDbSymbolTable
 70
     0
  0
ENDTAB
  0
TABLE
  2
UCS
  5
7
330
0
100
AcDbSymbolTable
 70
     0
  0
ENDTAB
  0
TABLE
  2
APPID
  5
9
330
0
100
AcDbSymbolTable
 70
     7
  0
APPID
  5
12
330
9
100
AcDbSymbolTableRecord
100
AcDbRegAppTableRecord
  2
ACAD
 70
     0
  0
APPID
  5
1EB
330
9
100
AcDbSymbolTableRecord
100
AcDbRegAppTableRecord
  2
ACAD_DSTYLE_DIMBREAK
 70
     0
  0
APPID
  5
2A4
330
9
100
AcDbSymbolTableRecord
100
AcDbRegAppTableRecord
  2
ACAD_DSTYLE_DIM_LINETYPE
 70
     0
  0
APPID
  5
2A5
330
9
100
AcDbSymbolTableRecord
100
AcDbRegAppTableRecord
  2
ACAD_DSTYLE_DIM_EXT1_LINETYPE
 70
     0
  0
APPID
  5
2A6
330
9
100
AcDbSymbolTableRecord
100
AcDbRegAppTableRecord
  2
ACAD_DSTYLE_DIM_EXT2_LINETYPE
 70
     0
  0
APPID
  5
2E6
330
9
100
AcDbSymbolTableRecord
100
AcDbRegAppTableRecord
  2
ACAD_MLEADERVER
 70
     0
  0
APPID
  5
359
330
9
100
AcDbSymbolTableRecord
100
AcDbRegAppTableRecord
  2
ACAD_NAV_VCDISPLAY
 70
     0
  0
ENDTAB
  0
TABLE
  2
DIMSTYLE
  5
A
330
0
100
AcDbSymbolTable
 70
     1
100
AcDbDimStyleTable
 71
     0
  0
DIMSTYLE
105
27
330
A
100
AcDbSymbolTableRecord
100
AcDbDimStyleTableRecord
  2
Standard
 70
     0
340
11
1001
ACAD_DSTYLE_DIMBREAK
1070
   391
1040
6.349999999999999
  0
ENDTAB
  0
TABLE
  2
BLOCK_RECORD
  5
1
330
0
100
AcDbSymbolTable
 70
    16
  0
BLOCK_RECORD
  5
1F
102
{ACAD_XDICTIONARY
360
2F6
102
}
330
1
100
AcDbSymbolTableRecord
100
AcDbBlockTableRecord
  2
*Model_Space
340
22
  0
BLOCK_RECORD
  5
1B
330
1
100
AcDbSymbolTableRecord
100
AcDbBlockTableRecord
  2
*Paper_Space
340
1E
  0
BLOCK_RECORD
  5
23
330
1
100
AcDbSymbolTableRecord
100
AcDbBlockTableRecord
  2
*Paper_Space0
340
26
  0
BLOCK_RECORD
  5
1E2
330
1
100
AcDbSymbolTableRecord
100
AcDbBlockTableRecord
  2
ASSORTED_DRAFT1
340
0
  0
BLOCK_RECORD
  5
1F0
330
1
100
AcDbSymbolTableRecord
100
AcDbBlockTableRecord
  2
*D2
340
0
  0
BLOCK_RECORD
  5
1FC
330
1
100
AcDbSymbolTableRecord
100
AcDbBlockTableRecord
  2
_U0
340
0
  0
BLOCK_RECORD
  5
208
330
1
100
AcDbSymbolTableRecord
100
AcDbBlockTableRecord
  2
*D4
340
0
  0
BLOCK_RECORD
  5
214
330
1
100
AcDbSymbolTableRecord
100
AcDbBlockTableRecord
  2
_U1
340
0
  0
BLOCK_RECORD
  5
220
330
1
100
AcDbSymbolTableRecord
100
AcDbBlockTableRecord
  2
*D6
340
0
  0
BLOCK_RECORD
  5
22C
330
1
100
AcDbSymbolTableRecord
100
AcDbBlockTableRecord
  2
_U2
340
0
  0
BLOCK_RECORD
  5
238
330
1
100
AcDbSymbolTableRecord
100
AcDbBlockTableRecord
  2
*D8
340
0
  0
BLOCK_RECORD
  5
243
330
1
100
AcDbSymbolTableRecord
100
AcDbBlockTableRecord
  2
_U3
340
0
  0
BLOCK_RECORD
  5
24E
330
1
100
AcDbSymbolTableRecord
100
AcDbBlockTableRecord
  2
*D10
340
0
  0
BLOCK_RECORD
  5
25A
330
1
100
AcDbSymbolTableRecord
100
AcDbBlockTableRecord
  2
_U4
340
0
  0
BLOCK_RECORD
  5
267
330
1
100
AcDbSymbolTableRecord
100
AcDbBlockTableRecord
  2
*D12
340
0
  0
BLOCK_RECORD
  5
273
330
1
100
AcDbSymbolTableRecord
100
AcDbBlockTableRecord
  2
_U5
340
0
  0
BLOCK_RECORD
  5
280
330
1
100
AcDbSymbolTableRecord
100
AcDbBlockTableRecord
  2
*D14
340
0
  0
BLOCK_RECORD
  5
28C
330
1
100
AcDbSymbolTableRecord
100
AcDbBlockTableRecord
  2
_U6
340
0
  0
ENDTAB
  0
ENDSEC
  0
SECTION
  2
BLOCKS
  0
BLOCK
  5
20
330
1F
100
AcDbEntity
  8
0
100
AcDbBlockBegin
  2
*Model_Space
 70
     0
 10
0.0
 20
0.0
 30
0.0
  3
*Model_Space
  1

  0
ENDBLK
  5
21
330
1F
100
AcDbEntity
  8
0
100
AcDbBlockEnd
  0
BLOCK
  5
1C
330
1B
100
AcDbEntity
 67
     1
  8
0
100
AcDbBlockBegin
  2
*Paper_Space
 70
     0
 10
0.0
 20
0.0
 30
0.0
  3
*Paper_Space
  1

  0
ENDBLK
  5
1D
330
1B
100
AcDbEntity
 67
     1
  8
0
100
AcDbBlockEnd
  0
BLOCK
  5
24
330
23
100
AcDbEntity
 67
     1
  8
0
100
AcDbBlockBegin
  2
*Paper_Space0
 70
     0
 10
0.0
 20
0.0
 30
0.0
  3
*Paper_Space0
  1

  0
ENDBLK
  5
25
330
23
100
AcDbEntity
 67
     1
  8
0
100
AcDbBlockEnd
  0
BLOCK
  5
1E5
330
1E2
100
AcDbEntity
  8
0
100
AcDbBlockBegin
  2
ASSORTED_DRAFT1
 70
     0
 10
0.0
 20
0.0
 30
0.0
  3
ASSORTED_DRAFT1
  1

  0
SOLID
  5
1E3
330
1E2
100
AcDbEntity
  8
0
 62
   254
370
    13
100
AcDbTrace
 10
270.185042
 20
165.325979
 30
0.0
 11
265.185046
 21
164.217506
 31
0.0
 12
265.1850379999999
 22
166.434452
 32
0.0
 13
270.185042
 23
165.325979
 33
0.0
  0
ENDBLK
  5
1E6
330
1E2
100
AcDbEntity
  8
0
100
AcDbBlockEnd
  0
BLOCK
  5
1F1
330
1F0
100
AcDbEntity
  8
0
100
AcDbBlockBegin
  2
*D2
 70
     1
 10
0.0
 20
0.0
 30
0.0
  3
*D2
  1

  0
LINE
  5
1F3
330
1F0
100
AcDbEntity
  8
0
 62
   254
370
    -2
100
AcDbLine
 10
355.404842
 20
304.907994
 30
0.0
 11
355.404842
 21
341.687968
 31
0.0
  0
LINE
  5
1F4
330
1F0
100
AcDbEntity
  8
0
 62
   254
370
    -2
100
AcDbLine
 10
214.404842
 20
302.907994
 30
0.0
 11
214.404842
 21
341.687968
 31
0.0
  0
LINE
  5
1F5
330
1F0
100
AcDbEntity
  8
0
 62
   254
370
    -2
100
AcDbLine
 10
351.904842
 20
340.687968
 30
0.0
 11
217.904842
 21
340.687968
 31
0.0
  0
SOLID
  5
1F6
330
1F0
100
AcDbEntity
  8
0
 62
   254
100
AcDbTrace
 10
351.904842
 20
340.104634
 30
0.0
 11
351.904842
 21
341.271301
 31
0.0
 12
355.404842
 22
340.687968
 32
0.0
 13
355.404842
 23
340.687968
 33
0.0
  0
SOLID
  5
1F7
330
1F0
100
AcDbEntity
  8
0
 62
   254
100
AcDbTrace
 10
217.904842
 20
341.271301
 30
0.0
 11
217.904842
 21
340.104634
 31
0.0
 12
214.404842
 22
340.687968
 32
0.0
 13
214.404842
 23
340.687968
 33
0.0
  0
MTEXT
  5
1F8
330
1F0
100
AcDbEntity
  8
0
 62
   254
370
    13
100
AcDbMText
 10
284.904842
 20
345.937968
 30
0.0
 40
3.5
 41
0.0
 71
     5
 72
     1
  1
\A1;141
  7
cesky
 73
     1
 44
1.0
  0
POINT
  5
1F9
330
1F0
100
AcDbEntity
  8
Defpoints
 62
     0
100
AcDbPoint
 10
355.404842
 20
304.907994
 30
0.0
  0
POINT
  5
1FA
330
1F0
100
AcDbEntity
  8
Defpoints
 62
     0
100
AcDbPoint
 10
214.404842
 20
302.907994
 30
0.0
  0
POINT
  5
1FB
330
1F0
100
AcDbEntity
  8
Defpoints
 62
     0
100
AcDbPoint
 10
214.404842
 20
340.687968
 30
0.0
  0
ENDBLK
  5
1F2
330
1F0
100
AcDbEntity
  8
0
100
AcDbBlockEnd
  0
BLOCK
  5
203
330
1FC
100
AcDbEntity
  8
0
100
AcDbBlockBegin
  2
_U0
 70
     0
 10
0.0
 20
0.0
 30
0.0
  3
_U0
  1

  0
ENDBLK
  5
204
330
1FC
100
AcDbEntity
  8
0
100
AcDbBlockEnd
  0
BLOCK
  5
209
330
208
100
AcDbEntity
  8
0
100
AcDbBlockBegin
  2
*D4
 70
     1
 10
0.0
 20
0.0
 30
0.0
  3
*D4
  1

  0
LINE
  5
20B
330
208
100
AcDbEntity
  8
0
 62
   254
370
    -2
100
AcDbLine
 10
274.404842
 20
288.907994
 30
0.0
 11
274.404842
 21
328.5109970000001
 31
0.0
  0
LINE
  5
20C
330
208
100
AcDbEntity
  8
0
 62
   254
370
    -2
100
AcDbLine
 10
214.404842
 20
295.907994
 30
0.0
 11
214.404842
 21
328.5109970000001
 31
0.0
  0
LINE
  5
20D
330
208
100
AcDbEntity
  8
0
 62
   254
370
    -2
100
AcDbLine
 10
270.904842
 20
327.510997
 30
0.0
 11
217.904842
 21
327.510997
 31
0.0
  0
SOLID
  5
20E
330
208
100
AcDbEntity
  8
0
 62
   254
100
AcDbTrace
 10
270.904842
 20
326.927663
 30
0.0
 11
270.904842
 21
328.09433
 31
0.0
 12
274.404842
 22
327.510997
 32
0.0
 13
274.404842
 23
327.510997
 33
0.0
  0
SOLID
  5
20F
330
208
100
AcDbEntity
  8
0
 62
   254
100
AcDbTrace
 10
217.904842
 20
328.09433
 30
0.0
 11
217.904842
 21
326.927663
 31
0.0
 12
214.404842
 22
327.510997
 32
0.0
 13
214.404842
 23
327.510997
 33
0.0
  0
MTEXT
  5
210
330
208
100
AcDbEntity
  8
0
 62
   254
370
    13
100
AcDbMText
 10
244.404842
 20
332.7609970000001
 30
0.0
 40
3.5
 41
0.0
 71
     5
 72
     1
  1
\A1;60
  7
cesky
 73
     1
 44
1.0
  0
POINT
  5
211
330
208
100
AcDbEntity
  8
Defpoints
 62
     0
100
AcDbPoint
 10
274.404842
 20
288.907994
 30
0.0
  0
POINT
  5
212
330
208
100
AcDbEntity
  8
Defpoints
 62
     0
100
AcDbPoint
 10
214.404842
 20
295.907994
 30
0.0
  0
POINT
  5
213
330
208
100
AcDbEntity
  8
Defpoints
 62
     0
100
AcDbPoint
 10
214.404842
 20
327.510997
 30
0.0
  0
ENDBLK
  5
20A
330
208
100
AcDbEntity
  8
0
100
AcDbBlockEnd
  0
BLOCK
  5
21B
330
214
100
AcDbEntity
  8
0
100
AcDbBlockBegin
  2
_U1
 70
     0
 10
0.0
 20
0.0
 30
0.0
  3
_U1
  1

  0
ENDBLK
  5
21C
330
214
100
AcDbEntity
  8
0
100
AcDbBlockEnd
  0
BLOCK
  5
221
330
220
100
AcDbEntity
  8
0
100
AcDbBlockBegin
  2
*D6
 70
     1
 10
0.0
 20
0.0
 30
0.0
  3
*D6
  1

  0
LINE
  5
223
330
220
100
AcDbEntity
  8
0
 62
   254
370
    -2
100
AcDbLine
 10
355.404842
 20
302.907994
 30
0.0
 11
355.404842
 21
317.637587
 31
0.0
  0
LINE
  5
224
330
220
100
AcDbEntity
  8
0
 62
   254
370
    -2
100
AcDbLine
 10
290.915721
 20
302.808119
 30
0.0
 11
290.915721
 21
317.637587
 31
0.0
  0
LINE
  5
225
330
220
100
AcDbEntity
  8
0
 62
   254
370
    -2
100
AcDbLine
 10
351.904842
 20
316.637587
 30
0.0
 11
294.415721
 21
316.637587
 31
0.0
  0
SOLID
  5
226
330
220
100
AcDbEntity
  8
0
 62
   254
100
AcDbTrace
 10
351.904842
 20
316.054254
 30
0.0
 11
351.904842
 21
317.220921
 31
0.0
 12
355.404842
 22
316.637587
 32
0.0
 13
355.404842
 23
316.637587
 33
0.0
  0
SOLID
  5
227
330
220
100
AcDbEntity
  8
0
 62
   254
100
AcDbTrace
 10
294.415721
 20
317.220921
 30
0.0
 11
294.415721
 21
316.054254
 31
0.0
 12
290.915721
 22
316.637587
 32
0.0
 13
290.915721
 23
316.637587
 33
0.0
  0
MTEXT
  5
228
330
220
100
AcDbEntity
  8
0
 62
   254
370
    13
100
AcDbMText
 10
323.160282
 20
321.887587
 30
0.0
 40
3.5
 41
0.0
 71
     5
 72
     1
  1
\A1;64.5
  7
cesky
 73
     1
 44
1.0
  0
POINT
  5
229
330
220
100
AcDbEntity
  8
Defpoints
 62
     0
100
AcDbPoint
 10
355.404842
 20
302.907994
 30
0.0
  0
POINT
  5
22A
330
220
100
AcDbEntity
  8
Defpoints
 62
     0
100
AcDbPoint
 10
290.915721
 20
302.808119
 30
0.0
  0
POINT
  5
22B
330
220
100
AcDbEntity
  8
Defpoints
 62
     0
100
AcDbPoint
 10
290.915721
 20
316.637587
 30
0.0
  0
ENDBLK
  5
222
330
220
100
AcDbEntity
  8
0
100
AcDbBlockEnd
  0
BLOCK
  5
233
330
22C
100
AcDbEntity
  8
0
100
AcDbBlockBegin
  2
_U2
 70
     0
 10
0.0
 20
0.0
 30
0.0
  3
_U2
  1

  0
ENDBLK
  5
234
330
22C
100
AcDbEntity
  8
0
100
AcDbBlockEnd
  0
BLOCK
  5
239
330
238
100
AcDbEntity
  8
0
100
AcDbBlockBegin
  2
*D8
 70
     1
 10
0.0
 20
0.0
 30
0.0
  3
*D8
  1

  0
LINE
  5
23B
330
238
100
AcDbEntity
  8
0
 62
   254
370
    -2
100
AcDbLine
 10
292.703832
 20
288.907994
 30
0.0
 11
373.283285
 21
288.907994
 31
0.0
  0
LINE
  5
23C
330
238
100
AcDbEntity
  8
0
 62
   254
370
    -2
100
AcDbLine
 10
330.83929
 20
302.907994
 30
0.0
 11
373.283285
 21
302.907994
 31
0.0
  0
LINE
  5
23D
330
238
100
AcDbEntity
  8
0
 62
   254
370
    -2
100
AcDbLine
 10
372.283285
 20
288.907994
 30
0.0
 11
372.283285
 21
302.907994
 31
0.0
  0
SOLID
  5
23E
330
238
100
AcDbEntity
  8
0
 62
   254
100
AcDbTrace
 10
372.866618
 20
299.407994
 30
0.0
 11
371.699951
 21
299.407994
 31
0.0
 12
372.283285
 22
302.907994
 32
0.0
 13
372.283285
 23
302.907994
 33
0.0
  0
MTEXT
  5
23F
330
238
100
AcDbEntity
  8
0
 62
   254
370
    13
100
AcDbMText
 10
367.033285
 20
279.07466
 30
0.0
 40
3.5
 41
0.0
 71
     5
 72
     1
  1
\A1;28
  7
cesky
 11
0.0
 21
1.0
 31
0.0
 73
     1
 44
1.0
  0
POINT
  5
240
330
238
100
AcDbEntity
  8
Defpoints
 62
     0
100
AcDbPoint
 10
292.703832
 20
288.907994
 30
0.0
  0
POINT
  5
241
330
238
100
AcDbEntity
  8
Defpoints
 62
     0
100
AcDbPoint
 10
330.83929
 20
302.907994
 30
0.0
  0
POINT
  5
242
330
238
100
AcDbEntity
  8
Defpoints
 62
     0
100
AcDbPoint
 10
372.283285
 20
302.907994
 30
0.0
  0
ENDBLK
  5
23A
330
238
100
AcDbEntity
  8
0
100
AcDbBlockEnd
  0
BLOCK
  5
249
330
243
100
AcDbEntity
  8
0
100
AcDbBlockBegin
  2
_U3
 70
     0
 10
0.0
 20
0.0
 30
0.0
  3
_U3
  1

  0
ENDBLK
  5
24A
330
243
100
AcDbEntity
  8
0
100
AcDbBlockEnd
  0
BLOCK
  5
24F
330
24E
100
AcDbEntity
  8
0
100
AcDbBlockBegin
  2
*D10
 70
     1
 10
0.0
 20
0.0
 30
0.0
  3
*D10
  1

  0
LINE
  5
251
330
24E
100
AcDbEntity
  8
0
 62
    95
370
    -2
100
AcDbLine
 10
216.404842
 20
304.907994
 30
0.0
 11
203.037875
 21
304.907994
 31
0.0
  0
LINE
  5
252
330
24E
100
AcDbEntity
  8
0
 62
    95
370
    -2
100
AcDbLine
 10
216.404842
 20
272.907994
 30
0.0
 11
203.037875
 21
272.907994
 31
0.0
  0
LINE
  5
253
330
24E
100
AcDbEntity
  8
0
 62
    95
370
    -2
100
AcDbLine
 10
204.037875
 20
301.407994
 30
0.0
 11
204.037875
 21
276.407994
 31
0.0
  0
SOLID
  5
254
330
24E
100
AcDbEntity
  8
0
 62
    95
100
AcDbTrace
 10
204.621208
 20
301.407994
 30
0.0
 11
203.454542
 21
301.407994
 31
0.0
 12
204.037875
 22
304.907994
 32
0.0
 13
204.037875
 23
304.907994
 33
0.0
  0
SOLID
  5
255
330
24E
100
AcDbEntity
  8
0
 62
    95
100
AcDbTrace
 10
203.454542
 20
276.407994
 30
0.0
 11
204.621208
 21
276.407994
 31
0.0
 12
204.037875
 22
272.907994
 32
0.0
 13
204.037875
 23
272.907994
 33
0.0
  0
MTEXT
  5
256
330
24E
100
AcDbEntity
  8
0
 62
    95
370
    13
100
AcDbMText
 10
198.787875
 20
288.907994
 30
0.0
 40
3.5
 41
0.0
 71
     5
 72
     1
  1
\A1;32
  7
cesky
 11
0.0
 21
1.0
 31
0.0
 73
     1
 44
1.0
  0
POINT
  5
257
330
24E
100
AcDbEntity
  8
Defpoints
 62
     0
100
AcDbPoint
 10
216.404842
 20
304.907994
 30
0.0
  0
POINT
  5
258
330
24E
100
AcDbEntity
  8
Defpoints
 62
     0
100
AcDbPoint
 10
216.404842
 20
272.907994
 30
0.0
  0
POINT
  5
259
330
24E
100
AcDbEntity
  8
Defpoints
 62
     0
100
AcDbPoint
 10
204.037875
 20
272.907994
 30
0.0
  0
ENDBLK
  5
250
330
24E
100
AcDbEntity
  8
0
100
AcDbBlockEnd
  0
BLOCK
  5
262
330
25A
100
AcDbEntity
  8
0
100
AcDbBlockBegin
  2
_U4
 70
     0
 10
0.0
 20
0.0
 30
0.0
  3
_U4
  1

  0
ENDBLK
  5
263
330
25A
100
AcDbEntity
  8
0
100
AcDbBlockEnd
  0
BLOCK
  5
268
330
267
100
AcDbEntity
  8
0
100
AcDbBlockBegin
  2
*D12
 70
     1
 10
0.0
 20
0.0
 30
0.0
  3
*D12
  1

  0
LINE
  5
26A
330
267
100
AcDbEntity
  8
0
 62
    95
370
    -2
100
AcDbLine
 10
277.154842
 20
309.907994
 30
0.0
 11
190.287987
 21
309.907994
 31
0.0
  0
LINE
  5
26B
330
267
100
AcDbEntity
  8
0
 62
    95
370
    -2
100
AcDbLine
 10
277.154842
 20
267.907994
 30
0.0
 11
190.287987
 21
267.907994
 31
0.0
  0
LINE
  5
26C
330
267
100
AcDbEntity
  8
0
 62
    95
370
    -2
100
AcDbLine
 10
191.287987
 20
306.407994
 30
0.0
 11
191.287987
 21
271.407994
 31
0.0
  0
SOLID
  5
26D
330
267
100
AcDbEntity
  8
0
 62
    95
100
AcDbTrace
 10
191.87132
 20
306.407994
 30
0.0
 11
190.704653
 21
306.407994
 31
0.0
 12
191.287987
 22
309.907994
 32
0.0
 13
191.287987
 23
309.907994
 33
0.0
  0
SOLID
  5
26E
330
267
100
AcDbEntity
  8
0
 62
    95
100
AcDbTrace
 10
190.704653
 20
271.407994
 30
0.0
 11
191.87132
 21
271.407994
 31
0.0
 12
191.287987
 22
267.907994
 32
0.0
 13
191.287987
 23
267.907994
 33
0.0
  0
MTEXT
  5
26F
330
267
100
AcDbEntity
  8
0
 62
    95
370
    13
100
AcDbMText
 10
186.037987
 20
288.907994
 30
0.0
 40
3.5
 41
0.0
 71
     5
 72
     1
  1
\A1;42
  7
cesky
 11
0.0
 21
1.0
 31
0.0
 73
     1
 44
1.0
  0
POINT
  5
270
330
267
100
AcDbEntity
  8
Defpoints
 62
     0
100
AcDbPoint
 10
277.154842
 20
309.907994
 30
0.0
  0
POINT
  5
271
330
267
100
AcDbEntity
  8
Defpoints
 62
     0
100
AcDbPoint
 10
277.154842
 20
267.907994
 30
0.0
  0
POINT
  5
272
330
267
100
AcDbEntity
  8
Defpoints
 62
     0
100
AcDbPoint
 10
191.287987
 20
267.907994
 30
0.0
  0
ENDBLK
  5
269
330
267
100
AcDbEntity
  8
0
100
AcDbBlockEnd
  0
BLOCK
  5
27B
330
273
100
AcDbEntity
  8
0
100
AcDbBlockBegin
  2
_U5
 70
     0
 10
0.0
 20
0.0
 30
0.0
  3
_U5
  1

  0
ENDBLK
  5
27C
330
273
100
AcDbEntity
  8
0
100
AcDbBlockEnd
  0
BLOCK
  5
281
330
280
100
AcDbEntity
  8
0
100
AcDbBlockBegin
  2
*D14
 70
     1
 10
0.0
 20
0.0
 30
0.0
  3
*D14
  1

  0
LINE
  5
283
330
280
100
AcDbEntity
  8
0
 62
   254
370
    -2
100
AcDbLine
 10
355.404842
 20
302.907994
 30
0.0
 11
355.404842
 21
328.5109970000001
 31
0.0
  0
LINE
  5
284
330
280
100
AcDbEntity
  8
0
 62
   254
370
    -2
100
AcDbLine
 10
274.404842
 20
288.907994
 30
0.0
 11
274.404842
 21
328.5109970000001
 31
0.0
  0
LINE
  5
285
330
280
100
AcDbEntity
  8
0
 62
   254
370
    -2
100
AcDbLine
 10
351.904842
 20
327.510997
 30
0.0
 11
277.904842
 21
327.510997
 31
0.0
  0
SOLID
  5
286
330
280
100
AcDbEntity
  8
0
 62
   254
100
AcDbTrace
 10
351.904842
 20
326.927663
 30
0.0
 11
351.904842
 21
328.09433
 31
0.0
 12
355.404842
 22
327.510997
 32
0.0
 13
355.404842
 23
327.510997
 33
0.0
  0
SOLID
  5
287
330
280
100
AcDbEntity
  8
0
 62
   254
100
AcDbTrace
 10
277.904842
 20
328.09433
 30
0.0
 11
277.904842
 21
326.927663
 31
0.0
 12
274.404842
 22
327.510997
 32
0.0
 13
274.404842
 23
327.510997
 33
0.0
  0
MTEXT
  5
288
330
280
100
AcDbEntity
  8
0
 62
   254
370
    13
100
AcDbMText
 10
314.904842
 20
332.7609970000001
 30
0.0
 40
3.5
 41
0.0
 71
     5
 72
     1
  1
\A1;81
  7
cesky
 73
     1
 44
1.0
  0
POINT
  5
289
330
280
100
AcDbEntity
  8
Defpoints
 62
     0
100
AcDbPoint
 10
355.404842
 20
302.907994
 30
0.0
  0
POINT
  5
28A
330
280
100
AcDbEntity
  8
Defpoints
 62
     0
100
AcDbPoint
 10
274.404842
 20
288.907994
 30
0.0
  0
POINT
  5
28B
330
280
100
AcDbEntity
  8
Defpoints
 62
     0
100
AcDbPoint
 10
274.404842
 20
327.510997
 30
0.0
  0
ENDBLK
  5
282
330
280
100
AcDbEntity
  8
0
100
AcDbBlockEnd
  0
BLOCK
  5
293
330
28C
100
AcDbEntity
  8
0
100
AcDbBlockBegin
  2
_U6
 70
     0
 10
0.0
 20
0.0
 30
0.0
  3
_U6
  1

  0
ENDBLK
  5
294
330
28C
100
AcDbEntity
  8
0
100
AcDbBlockEnd
  0
ENDSEC
  0
SECTION
  2
ENTITIES
  0
POINT
  5
73
102
{ACAD_REACTORS
330
33D
102
}
330
1F
100
AcDbEntity
  8
80
100
AcDbPoint
 10
274.404842
 20
288.907994
 30
0.0
  0
POINT
  5
76
330
1F
100
AcDbEntity
  8
SK4
 60
     1
100
AcDbPoint
 10
216.404842
 20
288.907994
 30
0.0
  0
POINT
  5
78
330
1F
100
AcDbEntity
  8
SK4
 60
     1
100
AcDbPoint
 10
274.404842
 20
288.907994
 30
0.0
  0
POINT
  5
79
330
1F
100
AcDbEntity
  8
4
 60
     1
100
AcDbPoint
 10
292.703832
 20
288.907994
 30
0.0
  0
POINT
  5
7A
330
1F
100
AcDbEntity
  8
4
 60
     1
100
AcDbPoint
 10
354.32252
 20
288.907994
 30
0.0
  0
POINT
  5
7B
330
1F
100
AcDbEntity
  8
SK6
 60
     1
100
AcDbPoint
 10
274.404842
 20
288.907994
 30
0.0
  0
POINT
  5
7C
330
1F
100
AcDbEntity
  8
SK6
 60
     1
100
AcDbPoint
 10
290.915721
 20
302.808119
 30
0.0
  0
LINE
  5
7D
330
1F
100
AcDbEntity
  8
1
100
AcDbLine
 10
274.404842
 20
309.407994
 30
0.0
 11
274.404842
 21
288.907994
 31
0.0
  0
LINE
  5
7F
330
1F
100
AcDbEntity
  8
1
100
AcDbLine
 10
274.404842
 20
288.907994
 30
0.0
 11
274.404842
 21
268.407994
 31
0.0
  0
LINE
  5
80
330
1F
100
AcDbEntity
  8
1
100
AcDbLine
 10
354.500952
 20
293.111404
 30
0.0
 11
348.212237
 21
292.837219
 31
0.0
  0
LINE
  5
81
330
1F
100
AcDbEntity
  8
1
100
AcDbLine
 10
348.207006
 20
292.820248
 30
0.0
 11
348.212237
 21
292.837219
 31
0.0
  0
LINE
  5
82
330
1F
100
AcDbEntity
  8
1
100
AcDbLine
 10
345.207476
 20
301.83349
 30
0.0
 11
345.185702
 21
302.336869
 31
0.0
  0
LINE
  5
83
330
1F
100
AcDbEntity
  8
1
100
AcDbLine
 10
345.256069
 20
295.521648
 30
0.0
 11
345.250838
 21
295.504676
 31
0.0
  0
LINE
  5
84
330
1F
100
AcDbEntity
  8
1
100
AcDbLine
 10
345.256069
 20
295.521648
 30
0.0
 11
344.961258
 21
302.33727
 31
0.0
  0
LINE
  5
85
330
1F
100
AcDbEntity
  8
1
100
AcDbLine
 10
344.956765
 20
302.303232
 30
0.0
 11
345.250838
 21
295.504676
 31
0.0
  0
LINE
  5
86
330
1F
100
AcDbEntity
  8
1
100
AcDbLine
 10
354.500952
 20
293.111404
 30
0.0
 11
354.499172
 21
293.335452
 31
0.0
  0
LINE
  5
87
330
1F
100
AcDbEntity
  8
1
100
AcDbLine
 10
354.500952
 20
293.111404
 30
0.0
 11
354.458967
 21
293.09283
 31
0.0
  0
LINE
  5
88
330
1F
100
AcDbEntity
  8
1
100
AcDbLine
 10
354.197357
 20
279.929388
 30
0.0
 11
354.1552660000001
 21
279.930062
 31
0.0
  0
LINE
  5
89
330
1F
100
AcDbEntity
  8
1
100
AcDbLine
 10
353.974998
 20
280.502341
 30
0.0
 11
353.867647
 21
280.504059
 31
0.0
  0
LINE
  5
8A
330
1F
100
AcDbEntity
  8
1
100
AcDbLine
 10
353.482089
 20
284.145494
 30
0.0
 11
354.183868
 21
284.145494
 31
0.0
  0
LINE
  5
8B
330
1F
100
AcDbEntity
  8
1
100
AcDbLine
 10
354.254138
 20
289.430151
 30
0.0
 11
354.361672
 21
289.428274
 31
0.0
  0
LINE
  5
8C
330
1F
100
AcDbEntity
  8
1
100
AcDbLine
 10
354.60268
 20
289.993477
 30
0.0
 11
354.644842
 21
289.992741
 31
0.0
  0
LINE
  5
8D
330
1F
100
AcDbEntity
  8
1
100
AcDbLine
 10
354.381531
 20
292.391348
 30
0.0
 11
354.394274
 21
292.396985
 31
0.0
  0
LINE
  5
8E
330
1F
100
AcDbEntity
  8
1
100
AcDbLine
 10
352.869524
 20
284.145494
 30
0.0
 11
353.154678
 21
284.145494
 31
0.0
  0
LINE
  5
8F
330
1F
100
AcDbEntity
  8
1
100
AcDbLine
 10
345.433811
 20
302.229008
 30
0.0
 11
345.426248
 21
302.403856
 31
0.0
  0
LINE
  5
90
330
1F
100
AcDbEntity
  8
1
100
AcDbLine
 10
348.207006
 20
292.820248
 30
0.0
 11
354.458967
 21
293.09283
 31
0.0
  0
LINE
  5
91
330
1F
100
AcDbEntity
  8
1
100
AcDbLine
 10
354.46028
 20
292.927466
 30
0.0
 11
354.458967
 21
293.09283
 31
0.0
  0
LINE
  5
92
330
1F
100
AcDbEntity
  8
1
100
AcDbLine
 10
354.381531
 20
292.391348
 30
0.0
 11
346.525525
 21
292.04883
 31
0.0
  0
LINE
  5
93
330
1F
100
AcDbEntity
  8
1
100
AcDbLine
 10
354.381531
 20
292.391348
 30
0.0
 11
352.750597
 21
289.673971
 31
0.0
  0
LINE
  5
94
330
1F
100
AcDbEntity
  8
1
100
AcDbLine
 10
353.850481
 20
281.004398
 30
0.0
 11
354.183868
 21
284.145494
 31
0.0
  0
LINE
  5
95
330
1F
100
AcDbEntity
  8
1
100
AcDbLine
 10
354.183868
 20
284.145494
 30
0.0
 11
354.183868
 21
288.931302
 31
0.0
  0
LINE
  5
96
330
1F
100
AcDbEntity
  8
1
100
AcDbLine
 10
354.180548
 20
280.168262
 30
0.0
 11
353.974998
 21
280.502341
 31
0.0
  0
LINE
  5
97
330
1F
100
AcDbEntity
  8
1
100
AcDbLine
 10
354.180548
 20
280.168262
 30
0.0
 11
354.1552660000001
 21
279.930062
 31
0.0
  0
LINE
  5
98
330
1F
100
AcDbEntity
  8
1
100
AcDbLine
 10
354.361672
 20
289.428274
 30
0.0
 11
354.60268
 21
289.754866
 31
0.0
  0
LINE
  5
99
330
1F
100
AcDbEntity
  8
1
100
AcDbLine
 10
354.60268
 20
289.993477
 30
0.0
 11
354.60268
 21
289.754866
 31
0.0
  0
LINE
  5
9A
330
1F
100
AcDbEntity
  8
1
100
AcDbLine
 10
353.717469
 20
275.407994
 30
0.0
 11
354.197357
 21
279.929388
 31
0.0
  0
LINE
  5
9B
330
1F
100
AcDbEntity
  8
1
100
AcDbLine
 10
353.717469
 20
275.407994
 30
0.0
 11
341.108822
 21
275.407994
 31
0.0
  0
LINE
  5
9C
330
1F
100
AcDbEntity
  8
1
100
AcDbLine
 10
354.644842
 20
293.392384
 30
0.0
 11
354.644842
 21
289.992741
 31
0.0
  0
LINE
  5
9D
330
1F
100
AcDbEntity
  8
1
100
AcDbLine
 10
274.904842
 20
267.907994
 30
0.0
 11
274.904842
 21
288.907994
 31
0.0
  0
LINE
  5
9E
330
1F
100
AcDbEntity
  8
1
100
AcDbLine
 10
274.904842
 20
288.907994
 30
0.0
 11
274.904842
 21
309.907994
 31
0.0
  0
LINE
  5
9F
330
1F
100
AcDbEntity
  8
1
100
AcDbLine
 10
279.404842
 20
267.907994
 30
0.0
 11
279.404842
 21
270.17461
 31
0.0
  0
LINE
  5
A0
330
1F
100
AcDbEntity
  8
1
100
AcDbLine
 10
279.404842
 20
309.907994
 30
0.0
 11
279.404842
 21
277.664436
 31
0.0
  0
LINE
  5
A1
330
1F
100
AcDbEntity
  8
1
100
AcDbLine
 10
279.404842
 20
267.907994
 30
0.0
 11
282.8043370000001
 21
271.307488
 31
0.0
  0
LINE
  5
A2
330
1F
100
AcDbEntity
  8
1
100
AcDbLine
 10
282.8043370000001
 20
306.508499
 30
0.0
 11
279.404842
 21
309.907994
 31
0.0
  0
LINE
  5
A3
330
1F
100
AcDbEntity
  8
SK1
100
AcDbLine
 10
274.404842
 20
304.907994
 30
0.0
 11
216.404842
 21
304.907994
 31
0.0
  0
LINE
  5
A4
330
1F
100
AcDbEntity
  8
1
100
AcDbLine
 10
274.904842
 20
267.907994
 30
0.0
 11
274.404842
 21
268.407994
 31
0.0
  0
LINE
  5
A5
330
1F
100
AcDbEntity
  8
1
100
AcDbLine
 10
274.404842
 20
309.407994
 30
0.0
 11
274.904842
 21
309.907994
 31
0.0
  0
LINE
  5
A6
330
1F
100
AcDbEntity
  8
1
100
AcDbLine
 10
279.404842
 20
309.907994
 30
0.0
 11
274.904842
 21
309.907994
 31
0.0
  0
LINE
  5
A7
330
1F
100
AcDbEntity
  8
1
100
AcDbLine
 10
349.350643
 20
298.5968450000001
 30
0.0
 11
349.376243
 21
298.679905
 31
0.0
  0
LINE
  5
A9
330
1F
100
AcDbEntity
  8
1
100
AcDbLine
 10
348.7751740000001
 20
297.722408
 30
0.0
 11
348.750244
 21
297.641519
 31
0.0
  0
LINE
  5
AA
330
1F
100
AcDbEntity
  8
1
100
AcDbLine
 10
348.859692
 20
297.708232
 30
0.0
 11
348.834239
 21
297.625646
 31
0.0
  0
LINE
  5
AB
330
1F
100
AcDbEntity
  8
1
100
AcDbLine
 10
351.041526
 20
297.136756
 30
0.0
 11
351.066417
 21
297.217516
 31
0.0
  0
LINE
  5
AC
330
1F
100
AcDbEntity
  8
1
100
AcDbLine
 10
350.949397
 20
297.157368
 30
0.0
 11
350.974869
 21
297.2400120000001
 31
0.0
  0
LINE
  5
AD
330
1F
100
AcDbEntity
  8
1
100
AcDbLine
 10
350.006385
 20
296.541627
 30
0.0
 11
350.031738
 21
296.623885
 31
0.0
  0
LINE
  5
AE
330
1F
100
AcDbEntity
  8
1
100
AcDbLine
 10
345.378853
 20
302.407994
 30
0.0
 11
340.758311
 21
302.407994
 31
0.0
  0
LINE
  5
AF
330
1F
100
AcDbEntity
  8
SK1
100
AcDbLine
 10
216.404842
 20
304.907994
 30
0.0
 11
216.404842
 21
272.907994
 31
0.0
  0
LINE
  5
B0
330
1F
100
AcDbEntity
  8
SK1
100
AcDbLine
 10
214.404842
 20
302.907994
 30
0.0
 11
214.404842
 21
274.907994
 31
0.0
  0
LINE
  5
B1
330
1F
100
AcDbEntity
  8
SK1
100
AcDbLine
 10
214.404842
 20
274.907994
 30
0.0
 11
216.404842
 21
272.907994
 31
0.0
  0
LINE
  5
B2
330
1F
100
AcDbEntity
  8
SK1
100
AcDbLine
 10
216.404842
 20
304.907994
 30
0.0
 11
214.404842
 21
302.907994
 31
0.0
  0
LINE
  5
B3
330
1F
100
AcDbEntity
  8
1
100
AcDbLine
 10
349.346749
 20
298.571074
 30
0.0
 11
349.372481
 21
298.654563
 31
0.0
  0
LINE
  5
B4
330
1F
100
AcDbEntity
  8
1
100
AcDbLine
 10
350.914034
 20
298.327937
 30
0.0
 11
350.888366
 21
298.244656
 31
0.0
  0
LINE
  5
B5
330
1F
100
AcDbEntity
  8
1
100
AcDbLine
 10
347.354677
 20
298.574473
 30
0.0
 11
347.334232
 21
298.508138
 31
0.0
  0
LINE
  5
B6
330
1F
100
AcDbEntity
  8
1
100
AcDbLine
 10
352.590256
 20
296.888195
 30
0.0
 11
352.610701
 21
296.95453
 31
0.0
  0
LINE
  5
B7
330
1F
100
AcDbEntity
  8
1
100
AcDbLine
 10
349.024705
 20
297.114632
 30
0.0
 11
349.050373
 21
297.197913
 31
0.0
  0
LINE
  5
B8
330
1F
100
AcDbEntity
  8
1
100
AcDbLine
 10
350.566322
 20
296.788214
 30
0.0
 11
350.592054
 21
296.871703
 31
0.0
  0
LINE
  5
BD
330
1F
100
AcDbEntity
  8
80
100
AcDbLine
 10
275.404416
 20
288.907994
 30
0.0
 11
273.405268
 21
288.907994
 31
0.0
  0
LINE
  5
BE
330
1F
100
AcDbEntity
  8
1
100
AcDbLine
 10
346.467825
 20
301.198991
 30
0.0
 11
353.459794
 21
301.503838
 31
0.0
  0
LINE
  5
C0
330
1F
100
AcDbEntity
  8
1
100
AcDbLine
 10
346.780023
 20
294.216853
 30
0.0
 11
346.467825
 21
301.198991
 31
0.0
  0
LINE
  5
C1
330
1F
100
AcDbEntity
  8
1
100
AcDbLine
 10
353.771993
 20
294.5217
 30
0.0
 11
346.780023
 21
294.216853
 31
0.0
  0
LINE
  5
C2
330
1F
100
AcDbEntity
  8
1
100
AcDbLine
 10
353.459794
 20
301.503838
 30
0.0
 11
353.771993
 21
294.5217
 31
0.0
  0
LINE
  5
C3
330
1F
100
AcDbEntity
  8
1
100
AcDbLine
 10
345.9251720000001
 20
302.445437
 30
0.0
 11
353.895064
 21
302.792921
 31
0.0
  0
LINE
  5
C4
330
1F
100
AcDbEntity
  8
1
100
AcDbLine
 10
354.701629
 20
302.055579
 30
0.0
 11
355.057492
 21
294.096893
 31
0.0
  0
LINE
  5
C5
330
1F
100
AcDbEntity
  8
1
100
AcDbLine
 10
354.319876
 20
293.292226
 30
0.0
 11
346.349985
 21
292.944742
 31
0.0
  0
LINE
  5
C6
330
1F
100
AcDbEntity
  8
1
100
AcDbLine
 10
342.868372
 20
292.413768
 30
0.0
 11
342.883451
 21
291.973062
 31
0.0
  0
LINE
  5
C7
330
1F
100
AcDbEntity
  8
1
100
AcDbLine
 10
342.919934
 20
290.906733
 30
0.0
 11
342.958916
 21
289.76738
 31
0.0
  0
LINE
  5
C8
330
1F
100
AcDbEntity
  8
1
100
AcDbLine
 10
352.915091
 20
292.3604
 30
0.0
 11
346.518276
 21
292.081501
 31
0.0
  0
LINE
  5
C9
330
1F
100
AcDbEntity
  8
1
100
AcDbLine
 10
286.904842
 20
302.165417
 30
0.0
 11
286.904842
 21
284.254222
 31
0.0
  0
LINE
  5
CA
330
1F
100
AcDbEntity
  8
1
100
AcDbLine
 10
354.671836
 20
280.892342
 30
0.0
 11
353.968452
 21
280.50245
 31
0.0
  0
LINE
  5
CB
330
1F
100
AcDbEntity
  8
1
100
AcDbLine
 10
354.3014
 20
281.275939
 30
0.0
 11
354.671836
 21
280.892342
 31
0.0
  0
LINE
  5
CC
330
1F
100
AcDbEntity
  8
1
100
AcDbLine
 10
355.297436
 20
281.933516
 30
0.0
 11
354.671836
 21
280.892342
 31
0.0
  0
LINE
  5
CD
330
1F
100
AcDbEntity
  8
1
100
AcDbLine
 10
354.369933
 20
289.4394779999999
 30
0.0
 11
354.797416
 21
289.18262
 31
0.0
  0
LINE
  5
CE
330
1F
100
AcDbEntity
  8
1
100
AcDbLine
 10
354.784831
 20
282.080503
 30
0.0
 11
355.297436
 21
281.933516
 31
0.0
  0
LINE
  5
CF
330
1F
100
AcDbEntity
  8
1
100
AcDbLine
 10
355.404842
 20
288.086795
 30
0.0
 11
355.297436
 21
281.933516
 31
0.0
  0
LINE
  5
D0
330
1F
100
AcDbEntity
  8
1
100
AcDbLine
 10
354.413818
 20
288.812185
 30
0.0
 11
354.797416
 21
289.18262
 31
0.0
  0
LINE
  5
D1
330
1F
100
AcDbEntity
  8
1
100
AcDbLine
 10
354.887419
 20
287.957787
 30
0.0
 11
355.404842
 21
288.086795
 31
0.0
  0
LINE
  5
D2
330
1F
100
AcDbEntity
  8
1
100
AcDbLine
 10
354.797416
 20
289.18262
 30
0.0
 11
355.404842
 21
288.086795
 31
0.0
  0
LINE
  5
D3
330
1F
100
AcDbEntity
  8
1
100
AcDbLine
 10
354.784831
 20
282.080503
 30
0.0
 11
354.3014
 21
281.275939
 31
0.0
  0
LINE
  5
D4
330
1F
100
AcDbEntity
  8
1
100
AcDbLine
 10
353.94969
 20
281.939119
 30
0.0
 11
354.144899
 21
282.264001
 31
0.0
  0
LINE
  5
D5
330
1F
100
AcDbEntity
  8
1
100
AcDbLine
 10
354.241473
 20
287.796734
 30
0.0
 11
354.183864
 21
287.900664
 31
0.0
  0
LINE
  5
D6
330
1F
100
AcDbEntity
  8
1
100
AcDbLine
 10
354.413818
 20
288.812185
 30
0.0
 11
354.887419
 21
287.957787
 31
0.0
  0
LINE
  5
D7
330
1F
100
AcDbEntity
  8
1
100
AcDbLine
 10
354.3014
 20
281.275939
 30
0.0
 11
353.921101
 21
281.66975
 31
0.0
  0
LINE
  5
D8
330
1F
100
AcDbEntity
  8
1
100
AcDbLine
 10
354.3014
 20
281.275939
 30
0.0
 11
353.852921
 21
281.027343
 31
0.0
  0
LINE
  5
D9
330
1F
100
AcDbEntity
  8
1
100
AcDbLine
 10
354.413818
 20
288.812185
 30
0.0
 11
354.183867
 21
288.590123
 31
0.0
  0
LINE
  5
DA
330
1F
100
AcDbEntity
  8
1
100
AcDbLine
 10
354.183914
 20
288.950325
 30
0.0
 11
354.413818
 21
288.812185
 31
0.0
  0
LINE
  5
DB
330
1F
100
AcDbEntity
  8
1
100
AcDbLine
 10
354.887419
 20
287.957787
 30
0.0
 11
354.241473
 21
287.796734
 31
0.0
  0
LINE
  5
DC
330
1F
100
AcDbEntity
  8
1
100
AcDbLine
 10
354.144899
 20
282.264001
 30
0.0
 11
354.176535
 21
284.076403
 31
0.0
  0
LINE
  5
DD
330
1F
100
AcDbEntity
  8
1
100
AcDbLine
 10
354.183868
 20
284.496545
 30
0.0
 11
354.241473
 21
287.796734
 31
0.0
  0
LINE
  5
DE
330
1F
100
AcDbEntity
  8
1
100
AcDbLine
 10
354.784831
 20
282.080503
 30
0.0
 11
354.144899
 21
282.264001
 31
0.0
  0
LINE
  5
DF
330
1F
100
AcDbEntity
  8
1
100
AcDbLine
 10
354.887419
 20
287.957787
 30
0.0
 11
354.784831
 21
282.080503
 31
0.0
  0
LINE
  5
E0
330
1F
100
AcDbEntity
  8
1
100
AcDbLine
 10
345.54342
 20
293.682084
 30
0.0
 11
345.187556
 21
301.640769
 31
0.0
  0
LINE
  5
E1
330
1F
100
AcDbEntity
  8
SK1
100
AcDbLine
 10
216.404842
 20
272.907994
 30
0.0
 11
274.404842
 21
272.907994
 31
0.0
  0
LINE
  5
E2
330
1F
100
AcDbEntity
  8
1
100
AcDbLine
 10
274.904842
 20
267.907994
 30
0.0
 11
279.404842
 21
267.907994
 31
0.0
  0
LINE
  5
E3
330
1F
100
AcDbEntity
  8
80
100
AcDbLine
 10
274.404842
 20
287.90842
 30
0.0
 11
274.404842
 21
289.907567
 31
0.0
  0
LINE
  5
E4
330
1F
100
AcDbEntity
  8
81
100
AcDbLine
 10
355.404842
 20
304.907994
 30
0.0
 11
355.404842
 21
300.907994
 31
0.0
  0
LINE
  5
E5
330
1F
100
AcDbEntity
  8
81
100
AcDbLine
 10
353.404842
 20
302.907994
 30
0.0
 11
357.404842
 21
302.907994
 31
0.0
  0
LINE
  5
116
330
1F
100
AcDbEntity
  8
NOCUT
100
AcDbLine
 10
279.404842
 20
309.907994
 30
0.0
 11
282.8043370000001
 21
306.508499
 31
0.0
  0
LINE
  5
117
330
1F
100
AcDbEntity
  8
NOCUT
100
AcDbLine
 10
292.703832
 20
302.407994
 30
0.0
 11
354.257498
 21
302.407994
 31
0.0
  0
LINE
  5
118
330
1F
100
AcDbEntity
  8
NOCUT
100
AcDbLine
 10
354.257498
 20
302.407994
 30
0.0
 11
354.644842
 21
293.60946
 31
0.0
  0
LINE
  5
119
330
1F
100
AcDbEntity
  8
NOCUT
100
AcDbLine
 10
354.644842
 20
293.60946
 30
0.0
 11
354.644842
 21
288.907994
 31
0.0
  0
LINE
  5
11A
330
1F
100
AcDbEntity
  8
NOCUT
100
AcDbLine
 10
214.404842
 20
302.907994
 30
0.0
 11
216.404842
 21
304.907994
 31
0.0
  0
LINE
  5
11B
330
1F
100
AcDbEntity
  8
NOCUT
100
AcDbLine
 10
274.404842
 20
304.907994
 30
0.0
 11
274.404842
 21
309.407994
 31
0.0
  0
LINE
  5
11C
330
1F
100
AcDbEntity
  8
NOCUT
100
AcDbLine
 10
274.404842
 20
309.407994
 30
0.0
 11
274.904842
 21
309.907994
 31
0.0
  0
LINE
  5
11D
330
1F
100
AcDbEntity
  8
NOCUT
100
AcDbLine
 10
354.644842
 20
288.907994
 30
0.0
 11
214.404842
 21
288.907994
 31
0.0
  0
LINE
  5
11E
330
1F
100
AcDbEntity
  8
NOCUT
100
AcDbLine
 10
279.404842
 20
309.907994
 30
0.0
 11
274.904842
 21
309.907994
 31
0.0
  0
LINE
  5
11F
330
1F
100
AcDbEntity
  8
NOCUT
100
AcDbLine
 10
214.404842
 20
302.907994
 30
0.0
 11
214.404842
 21
288.907994
 31
0.0
  0
LINE
  5
120
330
1F
100
AcDbEntity
  8
NOCUT
100
AcDbLine
 10
274.404842
 20
304.907994
 30
0.0
 11
216.404842
 21
304.907994
 31
0.0
  0
ARC
  5
129
330
1F
100
AcDbEntity
  8
1
100
AcDbCircle
 10
292.703832
 20
261.407994
 30
0.0
 40
14.0
100
AcDbArc
 50
100.926552
 51
135.0
  0
ARC
  5
12A
330
1F
100
AcDbEntity
  8
1
100
AcDbCircle
 10
292.703832
 20
316.407994
 30
0.0
 40
14.0
100
AcDbArc
 50
225.0
 51
268.109211
  0
ARC
  5
12B
330
1F
100
AcDbEntity
  8
1
100
AcDbCircle
 10
350.402831
 20
285.293558
 30
0.0
 40
1.5
100
AcDbArc
 50
75.0
 51
345.0
  0
CIRCLE
  5
12C
330
1F
100
AcDbEntity
  8
1
100
AcDbCircle
 10
350.422479
 20
285.273212
 30
0.0
 40
1.099999999999998
  0
ARC
  5
13B
330
1F
100
AcDbEntity
  8
NOCUT
100
AcDbCircle
 10
292.703832
 20
316.407994
 30
0.0
 40
14.0
100
AcDbArc
 50
225.0
 51
270.0
  0
ELLIPSE
  5
13C
330
1F
100
AcDbEntity
  8
1
100
AcDbEllipse
 10
346.805314
 20
294.257586
 30
0.0
 11
-1.911281369164168
 21
0.5890700534621859
 31
0.0
210
0.0
220
0.0
230
1.0
 40
0.9982459999999999
 41
2.649677620372683
 42
2.781190600162628
  0
ELLIPSE
  5
13D
330
1F
100
AcDbEntity
  8
1
100
AcDbEllipse
 10
346.872791
 20
294.47652
 30
0.0
 11
-1.911281369164168
 21
0.5890700534621859
 31
0.0
210
0.0
220
0.0
230
1.0
 40
0.9982459999999999
 41
0.0618257924284792
 42
1.913892621525573
  0
ELLIPSE
  5
13E
330
1F
100
AcDbEntity
  8
1
100
AcDbEllipse
 10
346.872791
 20
294.47652
 30
0.0
 11
-1.911281369164168
 21
0.5890700534621859
 31
0.0
210
0.0
220
0.0
230
1.0
 40
0.9982459999999999
 41
1.913893121624749
 42
2.629194719155934
  0
ELLIPSE
  5
13F
330
1F
100
AcDbEntity
  8
1
100
AcDbEllipse
 10
346.805314
 20
294.257586
 30
0.0
 11
-1.911281369164168
 21
0.5890700534621859
 31
0.0
210
0.0
220
0.0
230
1.0
 40
0.9982459999999999
 41
5.754285902275976
 42
5.89716880574995
  0
ELLIPSE
  5
140
330
1F
100
AcDbEntity
  8
1
100
AcDbEllipse
 10
346.800084
 20
294.240615
 30
0.0
 11
1.911281369164172
 21
-0.5890700534621704
 31
0.0
210
0.0
220
0.0
230
1.0
 40
0.9982459999999999
 41
2.755576152160154
 42
4.430273445429922
  0
ELLIPSE
  5
141
330
1F
100
AcDbEntity
  8
1
100
AcDbEllipse
 10
345.554634
 20
288.908032
 30
0.0
 11
0.5691795506963361
 21
-13.49995652832504
 31
0.0
210
0.0
220
0.0
230
0.9999999999999998
 40
0.01982
 41
3.243161771817419
 42
3.265418107027461
  0
ELLIPSE
  5
142
330
1F
100
AcDbEntity
  8
1
100
AcDbEllipse
 10
354.3903049999999
 20
292.896509
 30
0.0
 11
0.0003744272827194
 21
0.5004816776364081
 31
0.0
210
0.0
220
0.0
230
1.0
 40
0.140039
 41
3.203590848633828
 42
4.774387175427879
  0
ELLIPSE
  5
143
330
1F
100
AcDbEntity
  8
1
100
AcDbEllipse
 10
315.510629
 20
288.907994
 30
0.0
 11
87.70485512130385
 21
-10.13788961874894
 31
0.0
210
0.0
220
0.0
230
0.9999999999999998
 40
0.101645
 41
4.461092347690366
 42
4.522039603408771
  0
ELLIPSE
  5
144
330
1F
100
AcDbEntity
  8
1
100
AcDbEllipse
 10
355.15032
 20
288.907994
 30
0.0
 11
1.461223387175393
 21
13.49847322035633
 31
0.0
210
0.0
220
0.0
230
1.0
 40
0.138944
 41
1.946374157578296
 42
3.156632395651066
  0
ELLIPSE
  5
145
330
1F
100
AcDbEntity
  8
1
100
AcDbEllipse
 10
354.644842
 20
288.907994
 30
0.0
 11
0.0
 21
13.50000000036821
 31
0.0
210
0.0
220
0.0
230
0.9999999999999998
 40
0.140541
 41
1.514026731697643
 42
1.931334415506639
  0
ELLIPSE
  5
146
330
1F
100
AcDbEntity
  8
1
100
AcDbEllipse
 10
297.904842
 20
280.0856580000001
 30
0.0
 11
-1.59693653001584
 21
-6.815408551150913
 31
0.0
210
0.0
220
0.0
230
1.0
 40
0.201211
 41
4.445222775306922
 42
5.499173570346174
  0
ELLIPSE
  5
147
330
1F
100
AcDbEntity
  8
1
100
AcDbEllipse
 10
345.988396
 20
288.907994
 30
0.0
 11
0.5691812675188515
 21
-13.49999520690189
 31
0.0
210
0.0
220
0.0
230
1.0
 40
0.01982
 41
3.000260312690838
 42
3.115999311120388
  0
ELLIPSE
  5
148
330
1F
100
AcDbEntity
  8
1
100
AcDbEllipse
 10
346.800084
 20
294.240615
 30
0.0
 11
1.911281369164172
 21
-0.5890700534621704
 31
0.0
210
0.0
220
0.0
230
1.0
 40
0.9982459999999999
 41
5.657731117003472
 42
5.791270273962474
  0
ELLIPSE
  5
149
330
1F
100
AcDbEntity
  8
1
100
AcDbEllipse
 10
345.856074
 20
288.907994
 30
0.0
 11
0.4869359631367051
 21
-13.49982491342298
 31
0.0
210
0.0
220
0.0
230
1.0
 40
0.141202
 41
3.111741861329827
 42
3.239194406773734
  0
ELLIPSE
  5
14A
330
1F
100
AcDbEntity
  8
1
100
AcDbEllipse
 10
348.498654
 20
288.907994
 30
0.0
 11
23.1496179025488
 21
-13.31868308032497
 31
0.0
210
0.0
220
0.0
230
1.0
 40
0.095256
 41
3.883128532639626
 42
4.383055273989007
  0
ELLIPSE
  5
14B
330
1F
100
AcDbEntity
  8
1
100
AcDbEllipse
 10
273.161279
 20
288.907994
 30
0.0
 11
287.6314560299107
 21
13.16535758370864
 31
0.0
210
0.0
220
0.0
230
0.9999999999999998
 40
0.010385
 41
4.970155692450514
 42
4.992278041520846
  0
ELLIPSE
  5
14C
330
1F
100
AcDbEntity
  8
1
100
AcDbEllipse
 10
353.9206319999999
 20
281.003275
 30
0.0
 11
0.0538770024358999
 21
0.4991611425114824
 31
0.0
210
0.0
220
0.0
230
1.0
 40
0.139171
 41
1.583568179252955
 42
3.154364506042258
  0
ELLIPSE
  5
14D
330
1F
100
AcDbEntity
  8
1
100
AcDbEllipse
 10
354.254138
 20
288.930075
 30
0.0
 11
0.0001758288824359
 21
-0.5000776676677097
 31
0.0
210
0.0
220
0.0
230
0.9999999999999996
 40
0.140519
 41
3.139090475970184
 42
4.709886802760473
  0
ELLIPSE
  5
14E
330
1F
100
AcDbEntity
  8
1
100
AcDbEllipse
 10
350.400219
 20
298.748763
 30
0.0
 11
-0.0954739578056768
 21
0.029425729950704
 31
0.0
210
0.0
220
0.0
230
1.0
 40
0.9982459999999999
 41
2.112155296583468
 42
2.961090448994348
  0
ELLIPSE
  5
14F
330
1F
100
AcDbEntity
  8
1
100
AcDbEllipse
 10
350.577518
 20
298.656648
 30
0.0
 11
-0.0954739578056769
 21
0.029425729950704
 31
0.0
210
0.0
220
0.0
230
1.0
 40
0.9982459999999999
 41
4.730149174575292
 42
6.102683102584272
  0
ELLIPSE
  5
150
330
1F
100
AcDbEntity
  8
1
100
AcDbEllipse
 10
350.451187
 20
298.219261
 30
0.0
 11
-0.5313079055677003
 21
0.1637527479664163
 31
0.0
210
0.0
220
0.0
230
0.9999999999999998
 40
0.9982459999999999
 41
3.810025601405209
 42
4.730149174575039
  0
ELLIPSE
  5
151
330
1F
100
AcDbEntity
  8
1
100
AcDbEllipse
 10
350.876331
 20
298.38348
 30
0.0
 11
-0.0954739578056768
 21
0.0294257299507039
 31
0.0
210
0.0
220
0.0
230
0.9999999999999998
 40
0.9982459999999999
 41
2.437491673396009
 42
3.810025601405048
  0
ELLIPSE
  5
152
330
1F
100
AcDbEntity
  8
1
100
AcDbEllipse
 10
350.98384
 20
298.21523
 30
0.0
 11
-0.0954739578056768
 21
0.0294257299507039
 31
0.0
210
0.0
220
0.0
230
1.0
 40
0.9982459999999999
 41
5.579084326986012
 42
6.428019479396722
  0
ELLIPSE
  5
153
330
1F
100
AcDbEntity
  8
1
100
AcDbEllipse
 10
351.434464
 20
298.145102
 30
0.0
 11
-0.5313079055677
 21
0.1637527479664163
 31
0.0
210
0.0
220
0.0
230
1.0
 40
0.9982459999999999
 41
0.1448341722171359
 42
1.064957745386959
  0
ELLIPSE
  5
154
330
1F
100
AcDbEntity
  8
1
100
AcDbEllipse
 10
351.105985
 20
297.829604
 30
0.0
 11
-0.0954739578056768
 21
0.029425729950704
 31
0.0
210
0.0
220
0.0
230
1.0
 40
0.9982459999999999
 41
1.06495774538701
 42
1.913892897797918
  0
ELLIPSE
  5
155
330
1F
100
AcDbEntity
  8
1
100
AcDbEllipse
 10
351.1148970000001
 20
297.630303
 30
0.0
 11
-0.0954739578056769
 21
0.029425729950704
 31
0.0
210
0.0
220
0.0
230
1.0
 40
0.9982459999999999
 41
3.682951623378506
 42
5.055485551387686
  0
ELLIPSE
  5
156
330
1F
100
AcDbEntity
  8
1
100
AcDbEllipse
 10
350.672286
 20
297.52123
 30
0.0
 11
-0.5313079055677003
 21
0.1637527479664163
 31
0.0
210
0.0
220
0.0
230
0.9999999999999998
 40
0.9982459999999999
 41
2.762828050208638
 42
3.682951623378453
  0
ELLIPSE
  5
157
330
1F
100
AcDbEntity
  8
1
100
AcDbEllipse
 10
351.027645
 20
297.235547
 30
0.0
 11
-0.0954739578056768
 21
0.0294257299507039
 31
0.0
210
0.0
220
0.0
230
0.9999999999999998
 40
0.9982459999999999
 41
1.390294122199448
 42
2.762828050208546
  0
ELLIPSE
  5
158
330
1F
100
AcDbEntity
  8
1
100
AcDbEllipse
 10
350.935572
 20
297.058596
 30
0.0
 11
-0.0954739578056768
 21
0.0294257299507039
 31
0.0
210
0.0
220
0.0
230
1.0
 40
0.9982459999999999
 41
4.531886775789255
 42
5.380821928200153
  0
ELLIPSE
  5
159
330
1F
100
AcDbEntity
  8
1
100
AcDbEllipse
 10
351.100449
 20
296.633906
 30
0.0
 11
-0.5313079055677
 21
0.1637527479664163
 31
0.0
210
0.0
220
0.0
230
1.0
 40
0.9982459999999999
 41
5.380821928200102
 42
6.300945501369986
  0
ELLIPSE
  5
15A
330
1F
100
AcDbEntity
  8
1
100
AcDbEllipse
 10
350.662302
 20
296.760485
 30
0.0
 11
-0.0954739578056768
 21
0.029425729950704
 31
0.0
210
0.0
220
0.0
230
1.0
 40
0.9982459999999999
 41
0.0177601941904003
 42
0.8666953466012698
  0
ELLIPSE
  5
15B
330
1F
100
AcDbEntity
  8
1
100
AcDbEllipse
 10
350.493915
 20
296.653299
 30
0.0
 11
-0.0954739578056769
 21
0.029425729950704
 31
0.0
210
0.0
220
0.0
230
1.0
 40
0.9982459999999999
 41
2.635754072181711
 42
4.008288000190976
  0
ELLIPSE
  5
15C
330
1F
100
AcDbEntity
  8
1
100
AcDbEllipse
 10
350.177634
 20
296.981613
 30
0.0
 11
-0.5313079055677003
 21
0.1637527479664163
 31
0.0
210
0.0
220
0.0
230
0.9999999999999998
 40
0.9982459999999999
 41
1.715630499012049
 42
2.635754072181871
  0
ELLIPSE
  5
15D
330
1F
100
AcDbEntity
  8
1
100
AcDbEllipse
 10
350.10785
 20
296.531711
 30
0.0
 11
-0.0954739578056768
 21
0.0294257299507039
 31
0.0
210
0.0
220
0.0
230
0.9999999999999998
 40
0.9982459999999999
 41
0.3430965710028506
 42
1.715630499011863
  0
ELLIPSE
  5
15E
330
1F
100
AcDbEntity
  8
1
100
AcDbEllipse
 10
349.908267
 20
296.52301
 30
0.0
 11
-0.0954739578056768
 21
0.0294257299507039
 31
0.0
210
0.0
220
0.0
230
1.0
 40
0.9982459999999999
 41
3.484689224592753
 42
4.333624377003673
  0
ELLIPSE
  5
15F
330
1F
100
AcDbEntity
  8
1
100
AcDbEllipse
 10
349.62252
 20
296.168447
 30
0.0
 11
-0.5313079055677
 21
0.1637527479664163
 31
0.0
210
0.0
220
0.0
230
1.0
 40
0.9982459999999999
 41
4.333624377003509
 42
5.253747950173375
  0
ELLIPSE
  5
160
330
1F
100
AcDbEntity
  8
1
100
AcDbEllipse
 10
349.9565350000001
 20
297.679644
 30
0.0
 11
1.720153232247756
 21
-0.5301630481159538
 31
0.0
210
0.0
220
0.0
230
1.0
 40
0.9982459999999999
 41
0.0
 42
6.283185307179585
  0
ELLIPSE
  5
161
330
1F
100
AcDbEntity
  8
1
100
AcDbEllipse
 10
349.962244
 20
297.698166
 30
0.0
 11
2.628011882600738
 21
-0.8099713235104845
 31
0.0
210
0.0
220
0.0
230
1.0
 40
0.9982459999999999
 41
0.0
 42
6.283185307179585
  0
ELLIPSE
  5
162
330
1F
100
AcDbEntity
  8
1
100
AcDbEllipse
 10
349.512852
 20
296.610525
 30
0.0
 11
-0.0954739578056768
 21
0.029425729950704
 31
0.0
210
0.0
220
0.0
230
1.0
 40
0.9982459999999999
 41
5.253747950173541
 42
6.102683102584236
  0
ELLIPSE
  5
163
330
1F
100
AcDbEntity
  8
1
100
AcDbEllipse
 10
349.335553
 20
296.70264
 30
0.0
 11
-0.0954739578056769
 21
0.029425729950704
 31
0.0
210
0.0
220
0.0
230
1.0
 40
0.9982459999999999
 41
1.588556520985211
 42
2.961090448994393
  0
ELLIPSE
  5
164
330
1F
100
AcDbEntity
  8
1
100
AcDbEllipse
 10
349.461884
 20
297.140026
 30
0.0
 11
-0.5313079055677003
 21
0.1637527479664163
 31
0.0
210
0.0
220
0.0
230
0.9999999999999998
 40
0.9982459999999999
 41
0.6684329478154111
 42
1.588556520985273
  0
ELLIPSE
  5
165
330
1F
100
AcDbEntity
  8
1
100
AcDbEllipse
 10
349.03674
 20
296.975808
 30
0.0
 11
-0.0954739578056768
 21
0.0294257299507039
 31
0.0
210
0.0
220
0.0
230
0.9999999999999998
 40
0.9982459999999999
 41
5.579084326985883
 42
6.951618254994953
  0
ELLIPSE
  5
166
330
1F
100
AcDbEntity
  8
1
100
AcDbEllipse
 10
348.929231
 20
297.144057
 30
0.0
 11
-0.0954739578056768
 21
0.0294257299507039
 31
0.0
210
0.0
220
0.0
230
1.0
 40
0.9982459999999999
 41
2.43749167339622
 42
3.286426825806893
  0
ELLIPSE
  5
167
330
1F
100
AcDbEntity
  8
1
100
AcDbEllipse
 10
348.478607
 20
297.214185
 30
0.0
 11
-0.5313079055677
 21
0.1637527479664163
 31
0.0
210
0.0
220
0.0
230
1.0
 40
0.9982459999999999
 41
3.286426825806926
 42
4.206550398976791
  0
ELLIPSE
  5
168
330
1F
100
AcDbEntity
  8
1
100
AcDbEllipse
 10
348.807085
 20
297.529683
 30
0.0
 11
-0.0954739578056768
 21
0.029425729950704
 31
0.0
210
0.0
220
0.0
230
1.0
 40
0.9982459999999999
 41
4.206550398976679
 42
5.055485551387576
  0
ELLIPSE
  5
169
330
1F
100
AcDbEntity
  8
1
100
AcDbEllipse
 10
348.798174
 20
297.728985
 30
0.0
 11
-0.0954739578056769
 21
0.029425729950704
 31
0.0
210
0.0
220
0.0
230
1.0
 40
0.9982459999999999
 41
0.5413589697886404
 42
1.913892897797784
  0
ELLIPSE
  5
16A
330
1F
100
AcDbEntity
  8
1
100
AcDbEllipse
 10
349.240785
 20
297.838057
 30
0.0
 11
-0.5313079055677003
 21
0.1637527479664163
 31
0.0
210
0.0
220
0.0
230
0.9999999999999998
 40
0.9982459999999999
 41
5.904420703798403
 42
6.824544276968258
  0
ELLIPSE
  5
16B
330
1F
100
AcDbEntity
  8
1
100
AcDbEllipse
 10
348.885426
 20
298.12374
 30
0.0
 11
-0.0954739578056768
 21
0.0294257299507039
 31
0.0
210
0.0
220
0.0
230
0.9999999999999998
 40
0.9982459999999999
 41
4.531886775789101
 42
5.90442070379836
  0
ELLIPSE
  5
16C
330
1F
100
AcDbEntity
  8
1
100
AcDbEllipse
 10
348.977499
 20
298.300691
 30
0.0
 11
-0.0954739578056768
 21
0.0294257299507039
 31
0.0
210
0.0
220
0.0
230
1.0
 40
0.9982459999999999
 41
1.390294122199602
 42
2.239229274610384
  0
ELLIPSE
  5
16D
330
1F
100
AcDbEntity
  8
1
100
AcDbEllipse
 10
348.812622
 20
298.725381
 30
0.0
 11
-0.5313079055677
 21
0.1637527479664163
 31
0.0
210
0.0
220
0.0
230
1.0
 40
0.9982459999999999
 41
2.239229274610298
 42
3.159352847780166
  0
ELLIPSE
  5
16E
330
1F
100
AcDbEntity
  8
1
100
AcDbEllipse
 10
349.250769
 20
298.598802
 30
0.0
 11
-0.0954739578056768
 21
0.029425729950704
 31
0.0
210
0.0
220
0.0
230
1.0
 40
0.9982459999999999
 41
3.159352847780187
 42
4.008288000190868
  0
ELLIPSE
  5
16F
330
1F
100
AcDbEntity
  8
1
100
AcDbEllipse
 10
349.419156
 20
298.705989
 30
0.0
 11
-0.0954739578056769
 21
0.029425729950704
 31
0.0
210
0.0
220
0.0
230
1.0
 40
0.9982459999999999
 41
5.777346725771606
 42
7.149880653780747
  0
ELLIPSE
  5
170
330
1F
100
AcDbEntity
  8
1
100
AcDbEllipse
 10
349.735437
 20
298.377675
 30
0.0
 11
-0.5313079055677003
 21
0.1637527479664163
 31
0.0
210
0.0
220
0.0
230
0.9999999999999998
 40
0.9982459999999999
 41
4.857223152601841
 42
5.777346725771676
  0
ELLIPSE
  5
171
330
1F
100
AcDbEntity
  8
1
100
AcDbEllipse
 10
349.805221
 20
298.827576
 30
0.0
 11
-0.0954739578056768
 21
0.0294257299507039
 31
0.0
210
0.0
220
0.0
230
0.9999999999999998
 40
0.9982459999999999
 41
3.484689224592691
 42
4.857223152601795
  0
ELLIPSE
  5
172
330
1F
100
AcDbEntity
  8
1
100
AcDbEllipse
 10
350.004804
 20
298.836278
 30
0.0
 11
-0.0954739578056768
 21
0.0294257299507039
 31
0.0
210
0.0
220
0.0
230
1.0
 40
0.9982459999999999
 41
0.3430965710028842
 42
1.19203172341376
  0
ELLIPSE
  5
173
330
1F
100
AcDbEntity
  8
1
100
AcDbEllipse
 10
350.29055
 20
299.19084
 30
0.0
 11
-0.5313079055677
 21
0.1637527479664163
 31
0.0
210
0.0
220
0.0
230
1.0
 40
0.9982459999999999
 41
1.192031723413742
 42
2.112155296583553
  0
ELLIPSE
  5
174
330
1F
100
AcDbEntity
  8
1
100
AcDbEllipse
 10
349.982689
 20
297.764502
 30
0.0
 11
-2.628011882600731
 21
0.8099713235105056
 31
0.0
210
0.0
220
0.0
230
0.9999999999999998
 40
0.9982459999999999
 41
3.141666558290521
 42
6.283160900740866
  0
ELLIPSE
  5
175
330
1F
100
AcDbEntity
  8
1
100
AcDbEllipse
 10
350.119909
 20
297.860346
 30
0.0
 11
-3.105832224891778
 21
0.9572388368760538
 31
0.0
210
0.0
220
0.0
230
0.9999999999999996
 40
0.9982459999999999
 41
0.0
 42
6.283185307179585
  0
ELLIPSE
  5
176
330
1F
100
AcDbEntity
  8
1
100
AcDbEllipse
 10
345.963487
 20
304.649662
 30
0.0
 11
-12.04107262573426
 21
3.71114133681177
 31
0.0
210
0.0
220
0.0
230
1.0
 40
0.9982459999999997
 41
1.551850074455788
 42
1.913323403734226
  0
ELLIPSE
  5
177
330
1F
100
AcDbEntity
  8
1
100
AcDbEllipse
 10
350.122786
 20
297.86968
 30
0.0
 11
3.014795222820601
 21
-0.9291806071761492
 31
0.0
210
0.0
220
0.0
230
0.9999999999999998
 40
0.9982459999999999
 41
0.0
 42
6.283185307179585
  0
ELLIPSE
  5
178
330
1F
100
AcDbEntity
  8
1
100
AcDbEllipse
 10
350.142575
 20
297.933889
 30
0.0
 11
2.957951010929479
 21
-0.9116608304033752
 31
0.0
210
0.0
220
0.0
230
1.0
 40
0.9982459999999999
 41
2.06292218304039
 42
6.283185307179585
  0
ELLIPSE
  5
179
330
1F
100
AcDbEntity
  8
1
100
AcDbEllipse
 10
350.142575
 20
297.933889
 30
0.0
 11
2.957951010929479
 21
-0.9116608304033752
 31
0.0
210
0.0
220
0.0
230
1.0
 40
0.9982459999999999
 41
0.0
 42
1.07872011765702
  0
ELLIPSE
  5
17A
330
1F
100
AcDbEntity
  8
1
100
AcDbEllipse
 10
346.262519
 20
293.620387
 30
0.0
 11
0.9542290190390517
 21
1.042393246598493
 31
0.0
210
0.0
220
0.0
230
1.0
 40
0.017942
 41
0.97811806780983
 42
1.532929100790446
  0
ELLIPSE
  5
17B
330
1F
100
AcDbEntity
  8
1
100
AcDbEllipse
 10
345.903332
 20
301.653402
 30
0.0
 11
1.042972538978768
 21
-0.9547593156609432
 31
0.0
210
0.0
220
0.0
230
1.0
 40
0.037843
 41
1.03390573110237
 42
1.588716764303783
  0
ELLIPSE
  5
17C
330
1F
100
AcDbEntity
  8
1
100
AcDbEllipse
 10
353.947658
 20
302.004131
 30
0.0
 11
0.9542290194182061
 21
1.04239324700227
 31
0.0
210
0.0
220
0.0
230
0.9999999999999996
 40
0.017942
 41
1.532929101103524
 42
2.087740133874169
  0
ELLIPSE
  5
17D
330
1F
100
AcDbEntity
  8
1
100
AcDbEllipse
 10
354.306845
 20
293.971116
 30
0.0
 11
1.04297253978467
 21
-0.9547593163976976
 31
0.0
210
0.0
220
0.0
230
1.0
 40
0.037843
 41
1.588716764277846
 42
2.143527797076056
  0
SPLINE
  5
183
330
1F
100
AcDbEntity
  8
1
100
AcDbSpline
210
0.0
220
0.0
230
1.0
 70
     8
 71
     3
 72
    28
 73
    24
 74
     0
 42
0.000000001
 43
0.0000000001
 40
0.0
 40
0.0
 40
0.0
 40
0.0
 40
0.124999999999997
 40
0.124999999999997
 40
0.249999999999994
 40
0.249999999999994
 40
0.2812499999999959
 40
0.2812499999999959
 40
0.3124999999999978
 40
0.3750000000000017
 40
0.3750000000000017
 40
0.5000000000000094
 40
0.5000000000000094
 40
0.5312500000000112
 40
0.5312500000000112
 40
0.5625000000000132
 40
0.5625000000000132
 40
0.6250000000000112
 40
0.6250000000000112
 40
0.7500000000000075
 40
0.8750000000000037
 40
0.8750000000000037
 40
1.0
 40
1.0
 40
1.0
 40
1.0
 10
339.8112676801368
 20
291.1287838940934
 30
0.0
 10
340.0642846050349
 20
290.9720421890356
 30
0.0
 10
340.3226858000145
 20
290.8252501843667
 30
0.0
 10
340.8501024876867
 20
290.5515415352576
 30
0.0
 10
341.1191176269639
 20
290.4246238973897
 30
0.0
 10
341.4620204890146
 20
290.278542997524
 30
0.0
 10
341.5309708454087
 20
290.24994080838
 30
0.0
 10
341.6693248719969
 20
290.1940856794729
 30
0.0
 10
341.8775114819875
 20
290.1123339036172
 30
0.0
 10
342.0876531726508
 20
290.0366474062669
 30
0.0
 10
342.5105227860037
 20
289.8933185172793
 30
0.0
 10
342.7958803903577
 20
289.8084802970988
 30
0.0
 10
343.1568709182756
 20
289.7158468086427
 30
0.0
 10
343.2292839962921
 20
289.6979916949429
 30
0.0
 10
343.3745409962872
 20
289.6636287070484
 30
0.0
 10
343.4473989371205
 20
289.6471189474568
 30
0.0
 10
343.6660117728373
 20
289.5997439751382
 30
0.0
 10
343.8120043197189
 20
289.5709834506815
 30
0.0
 10
344.2507231530058
 20
289.4930559833562
 30
0.0
 10
344.8376557981922
 20
289.4114051731774
 30
0.0
 10
345.4284790905622
 20
289.3736619165845
 30
0.0
 10
346.0212558526766
 20
289.3579769241468
 30
0.0
 10
346.3186208711987
 20
289.3611624773774
 30
0.0
 10
346.6169858072764
 20
289.3756378411291
 30
0.0
  0
SPLINE
  5
184
330
1F
100
AcDbEntity
  8
1
100
AcDbSpline
210
0.0
220
0.0
230
1.0
 70
     8
 71
     3
 72
    79
 73
    75
 74
     0
 42
0.000000001
 43
0.0000000001
 40
0.0
 40
0.0
 40
0.0
 40
0.0
 40
0.0624999999999943
 40
0.0624999999999943
 40
0.1249999999999886
 40
0.1249999999999886
 40
0.1562499999999858
 40
0.1562499999999858
 40
0.1874999999999829
 40
0.1874999999999829
 40
0.2499999999999793
 40
0.2499999999999793
 40
0.2812499999999774
 40
0.2812499999999774
 40
0.3124999999999755
 40
0.3124999999999755
 40
0.3437499999999736
 40
0.3437499999999736
 40
0.3515624999999729
 40
0.3515624999999729
 40
0.3593749999999722
 40
0.3749999999999707
 40
0.3749999999999707
 40
0.4062499999999691
 40
0.4062499999999691
 40
0.4374999999999674
 40
0.4374999999999674
 40
0.4531249999999666
 40
0.4531249999999666
 40
0.4687499999999656
 40
0.4687499999999656
 40
0.4999999999999642
 40
0.4999999999999642
 40
0.5156249999999634
 40
0.5156249999999634
 40
0.5234374999999628
 40
0.5234374999999628
 40
0.5312499999999622
 40
0.5312499999999622
 40
0.5624999999999606
 40
0.5624999999999606
 40
0.5703124999999599
 40
0.5703124999999599
 40
0.5781249999999592
 40
0.5781249999999592
 40
0.5937499999999578
 40
0.6249999999999549
 40
0.6249999999999549
 40
0.6328124999999553
 40
0.6328124999999553
 40
0.6406249999999556
 40
0.6562499999999588
 40
0.6562499999999588
 40
0.6874999999999626
 40
0.6874999999999626
 40
0.7031249999999658
 40
0.7031249999999658
 40
0.7187499999999689
 40
0.7187499999999689
 40
0.749999999999972
 40
0.749999999999972
 40
0.7812499999999752
 40
0.7812499999999752
 40
0.8124999999999783
 40
0.8124999999999783
 40
0.8437499999999815
 40
0.8437499999999815
 40
0.8749999999999845
 40
0.8749999999999845
 40
0.9374999999999939
 40
0.9374999999999939
 40
0.9687499999999969
 40
0.9687499999999969
 40
1.0
 40
1.0
 40
1.0
 40
1.0
 10
341.2869333122812
 20
292.9173809064128
 30
0.0
 10
341.447052197798
 20
292.8160951133939
 30
0.0
 10
341.6049840822486
 20
292.7188441057702
 30
0.0
 10
341.9153448490712
 20
292.5316816037913
 30
0.0
 10
342.0677773841796
 20
292.4417709368889
 30
0.0
 10
342.2912633507776
 20
292.3118389097563
 30
0.0
 10
342.3648958824465
 20
292.2693502353189
 30
0.0
 10
342.5102259804152
 20
292.1859164643121
 30
0.0
 10
342.5819293262737
 20
292.1449713078061
 30
0.0
 10
342.7935209255044
 20
292.0243154626774
 30
0.0
 10
342.9299964800381
 20
291.9467817134811
 30
0.0
 10
343.1254811304819
 20
291.8341262117833
 30
0.0
 10
343.189095382569
 20
291.797180771865
 30
0.0
 10
343.3126796906702
 20
291.7243672112452
 30
0.0
 10
343.3726519540444
 20
291.6884992133693
 30
0.0
 10
343.4882394742451
 20
291.6176898626845
 30
0.0
 10
343.5438585892871
 20
291.5827486720515
 30
0.0
 10
343.6100556388048
 20
291.5395449037708
 30
0.0
 10
343.6231289255246
 20
291.5309268568972
 30
0.0
 10
343.6488406686013
 20
291.5137902650579
 30
0.0
 10
343.686787172522
 20
291.4882142482529
 30
0.0
 10
343.7227958163384
 20
291.4630153488449
 30
0.0
 10
343.7919990504824
 20
291.4130970580972
 30
0.0
 10
343.8344001783889
 20
291.3804561448742
 30
0.0
 10
343.9101563908654
 20
291.3163512913777
 30
0.0
 10
343.9435247831735
 20
291.2848857924644
 30
0.0
 10
343.9850831486049
 20
291.2385414729167
 30
0.0
 10
343.9975228459518
 20
291.2232230922268
 30
0.0
 10
344.0191186183108
 20
291.1929344866459
 30
0.0
 10
344.0282097564449
 20
291.1780568289869
 30
0.0
 10
344.0498553265007
 20
291.1342646569543
 30
0.0
 10
344.0568288173222
 20
291.1061780351754
 30
0.0
 10
344.0533848158409
 20
291.0660566272408
 30
0.0
 10
344.0499089363424
 20
291.0530203831456
 30
0.0
 10
344.0407404747061
 20
291.0340509213335
 30
0.0
 10
344.0370169764744
 20
291.0278212624034
 30
0.0
 10
344.0282580183896
 20
291.0156892680254
 30
0.0
 10
344.023217008275
 20
291.0097722384413
 30
0.0
 10
343.9946248534182
 20
290.9809627533834
 30
0.0
 10
343.9608677884947
 20
290.9603911358318
 30
0.0
 10
343.904347896988
 20
290.9382995307608
 30
0.0
 10
343.892322585701
 20
290.9340645715932
 30
0.0
 10
343.8668002483569
 20
290.9259815812766
 30
0.0
 10
343.8532783607653
 20
290.9221293030096
 30
0.0
 10
343.8109546330416
 20
290.9112990461326
 30
0.0
 10
343.7189085802629
 20
290.8924115956875
 30
0.0
 10
343.6061217669146
 20
290.881864605604
 30
0.0
 10
343.5022315873363
 20
290.8777745911942
 30
0.0
 10
343.4809258043559
 20
290.8771919526911
 30
0.0
 10
343.4377216800223
 20
290.8765009294821
 30
0.0
 10
343.3719176355353
 20
290.8761695421751
 30
0.0
 10
343.3033630969733
 20
290.8778825513896
 30
0.0
 10
343.1631385794402
 20
290.8838771436126
 30
0.0
 10
343.0655234571329
 20
290.8912918093607
 30
0.0
 10
342.9146201961478
 20
290.9070667787206
 30
0.0
 10
342.863566380897
 20
290.9131024157881
 30
0.0
 10
342.7601787659059
 20
290.9266672538532
 30
0.0
 10
342.7077500516808
 20
290.9342127761379
 30
0.0
 10
342.5499587000389
 20
290.9588274200221
 30
0.0
 10
342.443856215024
 20
290.9778897237637
 30
0.0
 10
342.2306734818832
 20
291.0207682236284
 30
0.0
 10
342.1235889224288
 20
291.0445871368976
 30
0.0
 10
341.9090055401706
 20
291.096605865625
 30
0.0
 10
341.801504299153
 20
291.1248071544335
 30
0.0
 10
341.586486588188
 20
291.1853268244054
 30
0.0
 10
341.4789686671452
 20
291.2176460599874
 30
0.0
 10
341.2642071943039
 20
291.2862140958277
 30
0.0
 10
341.1569627255941
 20
291.3224634152919
 30
0.0
 10
340.8359622396579
 20
291.4369093493362
 30
0.0
 10
340.6229565824285
 20
291.5207865233955
 30
0.0
 10
340.3057926839616
 20
291.6575622189293
 30
0.0
 10
340.2005877481558
 20
291.7049299088428
 30
0.0
 10
339.9916159890724
 20
291.8030247287031
 30
0.0
 10
339.8877960394598
 20
291.8537731574387
 30
0.0
 10
339.7846690312836
 20
291.9062024052294
 30
0.0
  0
SPLINE
  5
185
330
1F
100
AcDbEntity
  8
1
100
AcDbSpline
210
0.0
220
0.0
230
1.0
 70
     8
 71
     3
 72
    41
 73
    37
 74
     0
 42
0.000000001
 43
0.0000000001
 40
0.0
 40
0.0
 40
0.0
 40
0.0
 40
0.1250000000000256
 40
0.1250000000000256
 40
0.2500000000000513
 40
0.2500000000000513
 40
0.312500000000052
 40
0.312500000000052
 40
0.3750000000000526
 40
0.3750000000000526
 40
0.4375000000000533
 40
0.4375000000000533
 40
0.4687500000000477
 40
0.4687500000000477
 40
0.5000000000000422
 40
0.5000000000000422
 40
0.562500000000027
 40
0.562500000000027
 40
0.5937500000000174
 40
0.5937500000000174
 40
0.6250000000000079
 40
0.6562499999999984
 40
0.6562499999999984
 40
0.6874999999999887
 40
0.6874999999999887
 40
0.7499999999999901
 40
0.7499999999999901
 40
0.8124999999999912
 40
0.8124999999999912
 40
0.8437499999999927
 40
0.8437499999999927
 40
0.8749999999999941
 40
0.8749999999999941
 40
0.9374999999999969
 40
0.9374999999999969
 40
1.0
 40
1.0
 40
1.0
 40
1.0
 10
340.7947308643948
 20
293.1502777927643
 30
0.0
 10
340.7643538334513
 20
293.1654196926896
 30
0.0
 10
340.7354594636224
 20
293.1818301731038
 30
0.0
 10
340.6812297031132
 20
293.2176914388098
 30
0.0
 10
340.6558777946709
 20
293.2371281328828
 30
0.0
 10
340.6213813169814
 20
293.2692986547554
 30
0.0
 10
340.6104763747433
 20
293.2805293036447
 30
0.0
 10
340.590125322661
 20
293.3042363662897
 30
0.0
 10
340.5806696681219
 20
293.3167481392672
 30
0.0
 10
340.5640200454541
 20
293.3427096267168
 30
0.0
 10
340.5567640725753
 20
293.3562171709807
 30
0.0
 10
340.5478752725741
 20
293.3774617259947
 30
0.0
 10
340.5452397975512
 20
293.3847368535269
 30
0.0
 10
340.5407911457264
 20
293.3994594952276
 30
0.0
 10
340.5389705429156
 20
293.4069166010958
 30
0.0
 10
340.5348224128454
 20
293.4295994690195
 30
0.0
 10
340.5337933896476
 20
293.4451332170021
 30
0.0
 10
340.5354752535294
 20
293.4691978822318
 30
0.0
 10
340.536591292082
 20
293.4773838759761
 30
0.0
 10
340.5399446537058
 20
293.4936016147792
 30
0.0
 10
340.5444165121001
 20
293.509757305447
 30
0.0
 10
340.5511872910771
 20
293.5257850196287
 30
0.0
 10
340.5591550679641
 20
293.5417458614758
 30
0.0
 10
340.5637351353477
 20
293.5496679641936
 30
0.0
 10
340.5788697451551
 20
293.5726960657918
 30
0.0
 10
340.590914004813
 20
293.587285665223
 30
0.0
 10
340.6185315691729
 20
293.6150871459985
 30
0.0
 10
340.6336962362782
 20
293.6278885092004
 30
0.0
 10
340.6578709253706
 20
293.6456544860921
 30
0.0
 10
340.666179423149
 20
293.6513446513087
 30
0.0
 10
340.6832490923033
 20
293.6623057067537
 30
0.0
 10
340.6920352970513
 20
293.6675903665133
 30
0.0
 10
340.7188335929064
 20
293.6827661492478
 30
0.0
 10
340.7371738130339
 20
293.6919335939706
 30
0.0
 10
340.7745958823292
 20
293.7087849087641
 30
0.0
 10
340.7936793452655
 20
293.7164655506613
 30
0.0
 10
340.8130694081716
 20
293.7235330303826
 30
0.0
  0
SPLINE
  5
186
330
1F
100
AcDbEntity
  8
1
100
AcDbSpline
210
0.0
220
0.0
230
1.0
 70
     8
 71
     3
 72
    18
 73
    14
 74
     0
 42
0.000000001
 43
0.0000000001
 40
0.0
 40
0.0
 40
0.0
 40
0.0
 40
0.2499999999999941
 40
0.2499999999999941
 40
0.4999999999999882
 40
0.4999999999999882
 40
0.6249999999999876
 40
0.6249999999999876
 40
0.6874999999999897
 40
0.6874999999999897
 40
0.7499999999999919
 40
0.7499999999999919
 40
1.0
 40
1.0
 40
1.0
 40
1.0
 10
295.8057355617597
 20
275.4866536998258
 30
0.0
 10
295.9700679988171
 20
275.4952653002419
 30
0.0
 10
296.1372028834413
 20
275.5035618320678
 30
0.0
 10
296.4771443093876
 20
275.5186200657321
 30
0.0
 10
296.6499503029872
 20
275.5253824844468
 30
0.0
 10
296.9135712799725
 20
275.5338148802115
 30
0.0
 10
297.0021814474807
 20
275.5363416220729
 30
0.0
 10
297.1362330505111
 20
275.5396456844729
 30
0.0
 10
297.1811063975545
 20
275.540666100207
 30
0.0
 10
297.2712384326529
 20
275.5425359104687
 30
0.0
 10
297.3165517570864
 20
275.5433861954351
 30
0.0
 10
297.5434721700244
 20
275.5471783894532
 30
0.0
 10
297.7244349518283
 20
275.5487088665749
 30
0.0
 10
297.9048419452959
 20
275.5487088665749
 30
0.0
  0
SPLINE
  5
187
330
1F
100
AcDbEntity
  8
1
100
AcDbSpline
210
0.0
220
0.0
230
1.0
 70
     8
 71
     3
 72
    24
 73
    20
 74
     0
 42
0.000000001
 43
0.0000000001
 40
0.0
 40
0.0
 40
0.0
 40
0.0
 40
0.0624999999999996
 40
0.0624999999999996
 40
0.1249999999999992
 40
0.1249999999999992
 40
0.2499999999999999
 40
0.2499999999999999
 40
0.3750000000000006
 40
0.3750000000000006
 40
0.5000000000000005
 40
0.5000000000000005
 40
0.6250000000000004
 40
0.6250000000000004
 40
0.7500000000000002
 40
0.7500000000000002
 40
0.8750000000000001
 40
0.8750000000000001
 40
1.0
 40
1.0
 40
1.0
 40
1.0
 10
310.9372448407505
 20
276.6530052008761
 30
0.0
 10
310.6709923421029
 20
276.6113412204874
 30
0.0
 10
310.4044669170751
 20
276.5709302761376
 30
0.0
 10
309.8711045434753
 20
276.4927149067521
 30
0.0
 10
309.6042280580304
 20
276.4549040727768
 30
0.0
 10
308.8028749940597
 20
276.3453825687462
 30
0.0
 10
308.2676695257684
 20
276.2775963908908
 30
0.0
 10
307.1947024798711
 20
276.1522304898421
 30
0.0
 10
306.6569407971871
 20
276.094646539357
 30
0.0
 10
305.5784141950923
 20
275.9890481021569
 30
0.0
 10
305.0376497969922
 20
275.9410293654569
 30
0.0
 10
303.952834101655
 20
275.8536744692346
 30
0.0
 10
303.4087836650507
 20
275.8143346954724
 30
0.0
 10
302.3172538602822
 20
275.7433210958545
 30
0.0
 10
301.7697754517475
 20
275.7116445640107
 30
0.0
 10
300.6713611290777
 20
275.6549066330743
 30
0.0
 10
300.1204261163371
 20
275.6298434314056
 30
0.0
 10
299.0151550182588
 20
275.5853145857045
 30
0.0
 10
298.4608196967148
 20
275.5658478931544
 30
0.0
 10
297.9048419452959
 20
275.5487088665749
 30
0.0
  0
SPLINE
  5
188
330
1F
100
AcDbEntity
  8
1
100
AcDbSpline
210
0.0
220
0.0
230
1.0
 70
     8
 71
     3
 72
    14
 73
    10
 74
     0
 42
0.000000001
 43
0.0000000001
 40
0.0
 40
0.0
 40
0.0
 40
0.0
 40
0.25
 40
0.25
 40
0.5
 40
0.5
 40
0.75
 40
0.75
 40
1.0
 40
1.0
 40
1.0
 40
1.0
 10
292.7038318185191
 20
275.4258988304691
 30
0.0
 10
292.9622579197332
 20
275.4291857645246
 30
0.0
 10
293.2206731869588
 20
275.4329262987312
 30
0.0
 10
293.737457853708
 20
275.4413253544895
 30
0.0
 10
293.9958271343606
 20
275.445985038461
 30
0.0
 10
294.5126130645982
 20
275.4561966777719
 30
0.0
 10
294.7710302354694
 20
275.4617495221195
 30
0.0
 10
295.2881180136258
 20
275.4736510691533
 30
0.0
 10
295.5467896235705
 20
275.4800001488397
 30
0.0
 10
295.8057355617582
 20
275.4866536998261
 30
0.0
  0
SPLINE
  5
189
330
1F
100
AcDbEntity
  8
1
100
AcDbSpline
210
0.0
220
0.0
230
1.0
 70
     8
 71
     3
 72
    18
 73
    14
 74
     0
 42
0.000000001
 43
0.0000000001
 40
0.0
 40
0.0
 40
0.0
 40
0.0
 40
0.2499999999999897
 40
0.2499999999999897
 40
0.4999999999999793
 40
0.4999999999999793
 40
0.7499999999999691
 40
0.7499999999999691
 40
0.8124999999999765
 40
0.8124999999999765
 40
0.874999999999984
 40
0.874999999999984
 40
1.0
 40
1.0
 40
1.0
 40
1.0
 10
346.5153115031387
 20
292.2577457885598
 30
0.0
 10
346.4427270065253
 20
292.2688323611575
 30
0.0
 10
346.3716277823413
 20
292.2838559888879
 30
0.0
 10
346.2318133783483
 20
292.321352803929
 30
0.0
 10
346.1631011424202
 20
292.343828087676
 30
0.0
 10
346.0276653949636
 20
292.3962567095732
 30
0.0
 10
345.9609456309237
 20
292.4262075400871
 30
0.0
 10
345.8785959340496
 20
292.4686142962622
 30
0.0
 10
345.8621774143335
 20
292.4773471943043
 30
0.0
 10
345.8296648625756
 20
292.4951969199313
 30
0.0
 10
345.8135430086404
 20
292.5043277547638
 30
0.0
 10
345.7655771546534
 20
292.5323312908109
 30
0.0
 10
345.7341326172951
 20
292.5518147070065
 30
0.0
 10
345.7032144775437
 20
292.5720985054022
 30
0.0
  0
SPLINE
  5
18A
330
1F
100
AcDbEntity
  8
1
100
AcDbSpline
210
0.0
220
0.0
230
1.0
 70
    12
 71
     2
 72
     6
 73
     3
 74
     0
 42
0.000000001
 43
0.0000000001
 40
0.0
 40
0.0
 40
0.0
 40
1.0
 40
1.0
 40
1.0
 10
344.9612578574453
 20
302.3372701095757
 30
0.0
 41
0.5000001975893045
 10
345.0734808891785
 20
302.3370698437867
 30
0.0
 41
0.4999998024106957
 10
345.1857024248287
 20
302.3368690124053
 30
0.0
 41
0.5000001975893045
  0
SPLINE
  5
18B
330
1F
100
AcDbEntity
  8
1
100
AcDbSpline
210
0.0
220
0.0
230
1.0
 70
     8
 71
     3
 72
    15
 73
    11
 74
     0
 42
0.000000001
 43
0.0000000001
 40
0.0
 40
0.0
 40
0.0
 40
0.0
 40
0.25
 40
0.25
 40
0.5
 40
0.75
 40
0.75
 40
0.875
 40
0.875
 40
1.0
 40
1.0
 40
1.0
 40
1.0
 10
297.9048419452656
 20
302.3582779837466
 30
0.0
 10
297.7273343172353
 20
302.3582779837466
 30
0.0
 10
297.5511098332445
 20
302.3589975869198
 30
0.0
 10
297.2011418291785
 20
302.3617399013984
 30
0.0
 10
296.8536551235943
 20
302.3657847037542
 30
0.0
 10
296.5110560383865
 20
302.37188049126
 30
0.0
 10
296.2559445809846
 20
302.3769064034976
 30
0.0
 10
296.1712140779768
 20
302.3786562539086
 30
0.0
 10
296.0023713693317
 20
302.3822381345819
 30
0.0
 10
295.9186062937789
 20
302.3840626715975
 30
0.0
 10
295.8355230032528
 20
302.3858813719324
 30
0.0
  0
SPLINE
  5
18C
330
1F
100
AcDbEntity
  8
1
100
AcDbSpline
210
0.0
220
0.0
230
1.0
 70
     8
 71
     3
 72
    10
 73
     6
 74
     0
 42
0.000000001
 43
0.0000000001
 40
0.0
 40
0.0
 40
0.0
 40
0.0
 40
0.5
 40
0.5
 40
1.0
 40
1.0
 40
1.0
 40
1.0
 10
344.5865891285313
 20
299.0797157522387
 30
0.0
 10
344.4829202524181
 20
299.6152197794911
 30
0.0
 10
344.3862176789608
 20
300.1518929454042
 30
0.0
 10
344.2043665107779
 20
301.2271783550862
 30
0.0
 10
344.1192229123797
 20
301.7657914373773
 30
0.0
 10
344.0389216612592
 20
302.3052171997502
 30
0.0
  0
SPLINE
  5
18D
330
1F
100
AcDbEntity
  8
1
100
AcDbSpline
210
0.0
220
0.0
230
1.0
 70
    12
 71
     2
 72
     6
 73
     3
 74
     0
 42
0.000000001
 43
0.0000000001
 40
0.0
 40
0.0
 40
0.0
 40
1.0
 40
1.0
 40
1.0
 10
344.0389216611816
 20
302.3052171997301
 30
0.0
 41
0.5000000549228896
 10
344.4978619121023
 20
302.3042293220101
 30
0.0
 41
0.4999999450771105
 10
344.9567653205012
 20
302.3032319858715
 30
0.0
 41
0.5000000549228896
  0
SPLINE
  5
18E
330
1F
100
AcDbEntity
  8
1
100
AcDbSpline
210
0.0
220
0.0
230
1.0
 70
    28
 71
     4
 72
    13
 73
     8
 74
     0
 42
0.000000001
 43
0.0000000001
 40
0.0
 40
0.0
 40
0.0
 40
0.0
 40
0.0
 40
0.0662816196607679
 40
0.0662816196607679
 40
0.0662816196607679
 40
1.0
 40
1.0
 40
1.0
 40
1.0
 40
1.0
 10
297.9048419452959
 20
282.0746718665749
 30
0.0
 41
0.9906312528581844
 10
297.9048419452957
 20
281.9643392266307
 30
0.0
 41
0.990026276993016
 10
297.9048419452959
 20
281.8529241988281
 30
0.0
 41
0.9894444726253603
 10
297.9048419452959
 20
281.7405265887792
 30
0.0
 41
0.988890714776004
 10
297.9048419452959
 20
280.0187007464222
 30
0.0
 41
0.9810183105344096
 10
297.9048419452959
 20
278.2561263965076
 30
0.0
 41
0.9800105092906699
 10
297.9048419452959
 20
276.6960406040544
 30
0.0
 41
0.9962918755404496
 10
297.9048419452959
 20
275.5487088665749
 30
0.0
 41
1.003026508077563
  0
SPLINE
  5
18F
330
1F
100
AcDbEntity
  8
1
100
AcDbSpline
210
0.0
220
0.0
230
1.0
 70
     9
 71
     3
 72
   127
 73
   123
 74
     0
 42
0.000000001
 43
0.0000000001
 40
0.0
 40
0.0
 40
0.0
 40
0.0
 40
0.0312500000000111
 40
0.0312500000000111
 40
0.0468750000000191
 40
0.0468750000000191
 40
0.0546875000000232
 40
0.0546875000000232
 40
0.0625000000000272
 40
0.0625000000000272
 40
0.0937500000000343
 40
0.0937500000000343
 40
0.1015625000000349
 40
0.1015625000000349
 40
0.1093750000000356
 40
0.1093750000000356
 40
0.1250000000000407
 40
0.1250000000000407
 40
0.1562500000000477
 40
0.1562500000000477
 40
0.1875000000000548
 40
0.1875000000000548
 40
0.2031250000000583
 40
0.2031250000000583
 40
0.2109375000000607
 40
0.2109375000000607
 40
0.2187500000000631
 40
0.2187500000000631
 40
0.2500000000000721
 40
0.2500000000000721
 40
0.2578125000000742
 40
0.2578125000000742
 40
0.2656250000000766
 40
0.2656250000000766
 40
0.2812500000000811
 40
0.2812500000000811
 40
0.3125000000000903
 40
0.3125000000000903
 40
0.320312500000093
 40
0.320312500000093
 40
0.3281250000000956
 40
0.3437500000001033
 40
0.3437500000001033
 40
0.3750000000001187
 40
0.3750000000001187
 40
0.3828125000001235
 40
0.3828125000001235
 40
0.3906250000001283
 40
0.4062500000001338
 40
0.4218750000001394
 40
0.4218750000001394
 40
0.4296875000001423
 40
0.4296875000001423
 40
0.4375000000001452
 40
0.4375000000001452
 40
0.4687500000001521
 40
0.4687500000001521
 40
0.4843750000001554
 40
0.4843750000001554
 40
0.4921875000001547
 40
0.4921875000001547
 40
0.5000000000001538
 40
0.5000000000001538
 40
0.53125000000014
 40
0.53125000000014
 40
0.5390625000001354
 40
0.5390625000001354
 40
0.5468750000001306
 40
0.5468750000001306
 40
0.5625000000001212
 40
0.5781250000001118
 40
0.5781250000001118
 40
0.5859375000001071
 40
0.5859375000001071
 40
0.5937500000001024
 40
0.5937500000001024
 40
0.6250000000000884
 40
0.6250000000000884
 40
0.6328125000000849
 40
0.6328125000000849
 40
0.6406250000000813
 40
0.6406250000000813
 40
0.6562500000000746
 40
0.6562500000000746
 40
0.6875000000000614
 40
0.6875000000000614
 40
0.6953125000000591
 40
0.6953125000000591
 40
0.7031250000000565
 40
0.7187500000000515
 40
0.7343750000000464
 40
0.7343750000000464
 40
0.7421875000000443
 40
0.7421875000000443
 40
0.750000000000042
 40
0.750000000000042
 40
0.7812500000000334
 40
0.7812500000000334
 40
0.7968750000000295
 40
0.7968750000000295
 40
0.8125000000000257
 40
0.8125000000000257
 40
0.8437500000000202
 40
0.8437500000000202
 40
0.8593750000000158
 40
0.8593750000000158
 40
0.8671875000000138
 40
0.8671875000000138
 40
0.8750000000000115
 40
0.8750000000000115
 40
0.906250000000003
 40
0.906250000000003
 40
0.9218750000000007
 40
0.9218750000000007
 40
0.9374999999999987
 40
0.9531249999999968
 40
0.9531249999999968
 40
0.9609374999999978
 40
0.9609374999999978
 40
0.9687499999999994
 40
0.9687499999999994
 40
1.0
 40
1.0
 40
1.0
 40
1.0
 10
350.4246469271758
 20
286.5433679557893
 30
0.0
 10
350.5088673741515
 20
286.5418978824191
 30
0.0
 10
350.5914758995003
 20
286.5320273178685
 30
0.0
 10
350.7130711551775
 20
286.5051582482874
 30
0.0
 10
350.7532136223143
 20
286.4941758116103
 30
0.0
 10
350.8128288820261
 20
286.4745916059239
 30
0.0
 10
350.8326571126928
 20
286.4675212202245
 30
0.0
 10
350.8717592496978
 20
286.4524568087218
 30
0.0
 10
350.8910395891094
 20
286.4444647727891
 30
0.0
 10
350.9861147534641
 20
286.4022539742737
 30
0.0
 10
351.0579686713082
 20
286.361348196621
 30
0.0
 10
351.1425589974393
 20
286.3013941915975
 30
0.0
 10
351.1592133055862
 20
286.2889582784327
 30
0.0
 10
351.191985356964
 20
286.2631823177123
 30
0.0
 10
351.2080915718857
 20
286.2498465729303
 30
0.0
 10
351.2550651785308
 20
286.2089391514319
 30
0.0
 10
351.2847781866553
 20
286.1803262209481
 30
0.0
 10
351.369253071436
 20
286.0906020709422
 30
0.0
 10
351.4194071456501
 20
286.0256206195875
 30
0.0
 10
351.507002848214
 20
285.8852904119931
 30
0.0
 10
351.5430406521638
 20
285.8122038917822
 30
0.0
 10
351.5861157482318
 20
285.6985037321614
 30
0.0
 10
351.5986302485659
 20
285.6599199326075
 30
0.0
 10
351.6146012966377
 20
285.6010118760922
 30
0.0
 10
351.6194676005767
 20
285.5811548626299
 30
0.0
 10
351.6281965626254
 20
285.5413397420303
 30
0.0
 10
351.6320545846038
 20
285.5214163310488
 30
0.0
 10
351.6488712703901
 20
285.4217238004969
 30
0.0
 10
351.6544773905085
 20
285.3417320068756
 30
0.0
 10
351.6519065856213
 20
285.24146587374
 30
0.0
 10
351.6509093204487
 20
285.2213985966372
 30
0.0
 10
351.6479374644029
 20
285.1812355346527
 30
0.0
 10
351.6459560954842
 20
285.161089355052
 30
0.0
 10
351.6385727656244
 20
285.1010192681842
 30
0.0
 10
351.631755917555
 20
285.0615315223187
 30
0.0
 10
351.605808411011
 20
284.9446832604018
 30
0.0
 10
351.5812322084828
 20
284.8689241428578
 30
0.0
 10
351.5412398608233
 20
284.7769067293074
 30
0.0
 10
351.5327617070512
 20
284.7586144058906
 30
0.0
 10
351.5149005663138
 20
284.7224087699057
 30
0.0
 10
351.4868856154022
 20
284.6689428821759
 30
0.0
 10
351.4552773996063
 20
284.6179442124662
 30
0.0
 10
351.3873219735058
 20
284.5191771026555
 30
0.0
 10
351.3357502864402
 20
284.4576062065087
 30
0.0
 10
351.2629065122852
 20
284.3862619780351
 30
0.0
 10
351.2479434384539
 20
284.3723091669218
 30
0.0
 10
351.2174994093856
 20
284.3452795354771
 30
0.0
 10
351.1709422701084
 20
284.3059421954084
 30
0.0
 10
351.0889424558507
 20
284.2463270667503
 30
0.0
 10
351.0186131587632
 20
284.2049814907213
 30
0.0
 10
350.9640262710859
 20
284.1764271836963
 30
0.0
 10
350.9455234124878
 20
284.1673190046142
 30
0.0
 10
350.9078845500301
 20
284.1499452169103
 30
0.0
 10
350.8887160262775
 20
284.1416699028938
 30
0.0
 10
350.7924378757318
 20
284.1029283100606
 30
0.0
 10
350.7131912327688
 20
284.0798678261436
 30
0.0
 10
350.5909840940088
 20
284.0571055321007
 30
0.0
 10
350.5496883079102
 20
284.0515037717123
 30
0.0
 10
350.4868665966086
 20
284.0462092633753
 30
0.0
 10
350.4658233878124
 20
284.044970938576
 30
0.0
 10
350.4239673154696
 20
284.0435616356011
 30
0.0
 10
350.4030927761998
 20
284.0433849083652
 30
0.0
 10
350.2989831883204
 20
284.0450975812487
 30
0.0
 10
350.2165299382351
 20
284.0546986982685
 30
0.0
 10
350.1145133089963
 20
284.0770843306535
 30
0.0
 10
350.0941030810716
 20
284.0821031359359
 30
0.0
 10
350.0537722091225
 20
284.0931023574608
 30
0.0
 10
350.0338405951262
 20
284.0990812252344
 30
0.0
 10
349.9747292967734
 20
284.1184212103406
 30
0.0
 10
349.8977330862144
 20
284.1479421030018
 30
0.0
 10
349.8242705429965
 20
284.1847473778234
 30
0.0
 10
349.7704989812087
 20
284.2150967957992
 30
0.0
 10
349.7527807659304
 20
284.2256816167032
 30
0.0
 10
349.7178576545656
 20
284.247739287963
 30
0.0
 10
349.700761903484
 20
284.2591420256568
 30
0.0
 10
349.6170584718074
 20
284.3179763415083
 30
0.0
 10
349.5557238659519
 20
284.3708154814121
 30
0.0
 10
349.4857983365762
 20
284.4438763819351
 30
0.0
 10
349.472153595939
 20
284.4588424861292
 30
0.0
 10
349.4455503459295
 20
284.489490734645
 30
0.0
 10
349.4325721509107
 20
284.5052013060563
 30
0.0
 10
349.3950410320433
 20
284.5529518570442
 30
0.0
 10
349.3717700151676
 20
284.5857346587759
 30
0.0
 10
349.3070146811135
 20
284.6868511681251
 30
0.0
 10
349.2705403009166
 20
284.7579275062421
 30
0.0
 10
349.2334379782633
 20
284.8514902389764
 30
0.0
 10
349.2264415522701
 20
284.8704615826745
 30
0.0
 10
349.2134460756295
 20
284.9085017877253
 30
0.0
 10
349.1953960931892
 20
284.9658446942303
 30
0.0
 10
349.1723809383959
 20
285.0628089214774
 30
0.0
 10
349.1614236181035
 20
285.1418616110422
 30
0.0
 10
349.1560488466768
 20
285.2017186760451
 30
0.0
 10
349.1547319478228
 20
285.2217657641698
 30
0.0
 10
349.1530658845044
 20
285.2620532224894
 30
0.0
 10
349.152717982803
 20
285.2823483685323
 30
0.0
 10
349.1534478821301
 20
285.3834974864737
 30
0.0
 10
349.1618100908284
 20
285.4633840271609
 30
0.0
 10
349.1858225598565
 20
285.5816696209844
 30
0.0
 10
349.1957512387743
 20
285.6208387447624
 30
0.0
 10
349.2195862009945
 20
285.6986333681328
 30
0.0
 10
349.2335739999882
 20
285.7374088173028
 30
0.0
 10
349.2807458807619
 20
285.8504144129227
 30
0.0
 10
349.3192438920806
 20
285.9220708152329
 30
0.0
 10
349.3875987633956
 20
286.0239521489747
 30
0.0
 10
349.4121633823116
 20
286.0569724394425
 30
0.0
 10
349.4517995810597
 20
286.1050196765162
 30
0.0
 10
349.4654073167339
 20
286.1207000352309
 30
0.0
 10
349.4932705083719
 20
286.1512449267966
 30
0.0
 10
349.5075463889012
 20
286.1661343454661
 30
0.0
 10
349.5806264654155
 20
286.2386857530461
 30
0.0
 10
349.6444835925836
 20
286.2907154214166
 30
0.0
 10
349.748550943376
 20
286.3594595885475
 30
0.0
 10
349.7848056036121
 20
286.3808850662003
 30
0.0
 10
349.8585685016152
 20
286.4196192275433
 30
0.0
 10
349.9338745896866
 20
286.4544714909815
 30
0.0
 10
350.0122106641255
 20
286.4816856067302
 30
0.0
 10
350.0721119888613
 20
286.4991940216032
 30
0.0
 10
350.09227099457
 20
286.504545586882
 30
0.0
 10
350.1329794288774
 20
286.5142621503935
 30
0.0
 10
350.1535766428672
 20
286.5186355295234
 30
0.0
 10
350.2569314301928
 20
286.5378598828672
 30
0.0
 10
350.3404264802
 20
286.5448380291595
 30
0.0
 10
350.4246469271757
 20
286.5433679557893
 30
0.0
  0
SPLINE
  5
190
330
1F
100
AcDbEntity
  8
1
100
AcDbSpline
210
0.0
220
0.0
230
1.0
 70
     8
 71
     3
 72
     8
 73
     4
 74
     0
 42
0.000000001
 43
0.0000000001
 40
0.0
 40
0.0
 40
0.0
 40
0.0
 40
1.0
 40
1.0
 40
1.0
 40
1.0
 10
341.2869333122812
 20
292.9173809064129
 30
0.0
 10
341.1225337598415
 20
292.9910927972972
 30
0.0
 10
340.9584144865318
 20
293.0686871649507
 30
0.0
 10
340.7947308643948
 20
293.1502777927644
 30
0.0
  0
SPLINE
  5
191
330
1F
100
AcDbEntity
  8
1
100
AcDbSpline
210
0.0
220
0.0
230
1.0
 70
     8
 71
     3
 72
    53
 73
    49
 74
     0
 42
0.000000001
 43
0.0000000001
 40
0.0
 40
0.0
 40
0.0
 40
0.0
 40
0.0624999999999865
 40
0.0624999999999865
 40
0.0781249999999832
 40
0.0781249999999832
 40
0.0937499999999798
 40
0.1249999999999731
 40
0.1249999999999731
 40
0.2499999999999516
 40
0.2499999999999516
 40
0.312499999999941
 40
0.312499999999941
 40
0.3281249999999407
 40
0.3281249999999407
 40
0.3437499999999403
 40
0.3749999999999397
 40
0.3749999999999397
 40
0.4374999999999388
 40
0.4374999999999388
 40
0.499999999999938
 40
0.499999999999938
 40
0.5624999999999371
 40
0.5624999999999371
 40
0.5781249999999384
 40
0.5781249999999384
 40
0.5937499999999397
 40
0.6249999999999428
 40
0.6249999999999428
 40
0.6874999999999483
 40
0.6874999999999483
 40
0.7499999999999539
 40
0.7499999999999539
 40
0.7656249999999564
 40
0.7656249999999564
 40
0.781249999999959
 40
0.781249999999959
 40
0.8124999999999653
 40
0.8124999999999653
 40
0.874999999999977
 40
0.874999999999977
 40
0.9374999999999889
 40
0.9374999999999889
 40
0.953124999999992
 40
0.953124999999992
 40
0.9687499999999948
 40
0.9687499999999948
 40
1.0
 40
1.0
 40
1.0
 40
1.0
 10
340.8130694081716
 20
293.7235330303827
 30
0.0
 10
340.9508909473201
 20
293.7737675725709
 30
0.0
 10
341.0882376107088
 20
293.827950039466
 30
0.0
 10
341.2592433188802
 20
293.9013115901301
 30
0.0
 10
341.2934408877787
 20
293.9162800713411
 30
0.0
 10
341.3614970906833
 20
293.9466791646158
 30
0.0
 10
341.4631450934554
 20
293.9930003723863
 30
0.0
 10
341.5634648529383
 20
294.0415213106732
 30
0.0
 10
341.894824224806
 20
294.2082920894827
 30
0.0
 10
342.1502090788467
 20
294.3577774561479
 30
0.0
 10
342.5168075431632
 20
294.6092964070923
 30
0.0
 10
342.6362561855023
 20
294.6976917885918
 30
0.0
 10
342.7818677834209
 20
294.8143123435236
 30
0.0
 10
342.8107991628518
 20
294.8379396865103
 30
0.0
 10
342.868065473565
 20
294.8856330410595
 30
0.0
 10
342.9531535835563
 20
294.9578972631504
 30
0.0
 10
343.035799859938
 20
295.0323409871647
 30
0.0
 10
343.1978065649621
 20
295.1841612769072
 30
0.0
 10
343.3014346450408
 20
295.2892810279088
 30
0.0
 10
343.4996795915685
 20
295.5075636485594
 30
0.0
 10
343.5942986090173
 20
295.6207245982954
 30
0.0
 10
343.7740934629488
 20
295.8554751765271
 30
0.0
 10
343.8592726869362
 20
295.9770617814456
 30
0.0
 10
343.9594142167863
 20
296.1346972229713
 30
0.0
 10
343.9790998424357
 20
296.166469759259
 30
0.0
 10
344.0176429371143
 20
296.230281972383
 30
0.0
 10
344.0742777121093
 20
296.3264992053288
 30
0.0
 10
344.1273702348715
 20
296.4242142991109
 30
0.0
 10
344.2287936054855
 20
296.6216579870988
 30
0.0
 10
344.2900741204793
 20
296.755965929675
 30
0.0
 10
344.3994564527418
 20
297.0301544996365
 30
0.0
 10
344.4475635596281
 20
297.1700328902786
 30
0.0
 10
344.4988321355806
 20
297.3486296226777
 30
0.0
 10
344.5086410989611
 20
297.3845370349058
 30
0.0
 10
344.5273471831399
 20
297.4567374370136
 30
0.0
 10
344.5362513006378
 20
297.4930609184391
 30
0.0
 10
344.5615115182695
 20
297.6024242471679
 30
0.0
 10
344.5763317730209
 20
297.6754743559339
 30
0.0
 10
344.6146781826683
 20
297.895052174339
 30
0.0
 10
344.6321106368009
 20
298.0420059320477
 30
0.0
 10
344.6499474579526
 20
298.3371039856832
 30
0.0
 10
344.6503562453711
 20
298.4852479725526
 30
0.0
 10
344.6393043682453
 20
298.6712363868405
 30
0.0
 10
344.6365138946534
 20
298.7084746279257
 30
0.0
 10
344.6297413832876
 20
298.7830344196715
 30
0.0
 10
344.6257571857762
 20
298.8203592065929
 30
0.0
 10
344.6120379835015
 20
298.9319524242391
 30
0.0
 10
344.6005240633165
 20
299.0060079074826
 30
0.0
 10
344.5865891285313
 20
299.0797157522387
 30
0.0
  0
SPLINE
  5
192
330
1F
100
AcDbEntity
  8
1
100
AcDbSpline
210
0.0
220
0.0
230
1.0
 70
    12
 71
     3
 72
     9
 73
     5
 74
     0
 42
0.000000001
 43
0.0000000001
 40
0.0
 40
0.0
 40
0.0
 40
0.0
 40
0.4832294360739415
 40
1.0
 40
1.0
 40
1.0
 40
1.0
 10
324.6533317416635
 20
298.828933832027
 30
0.0
 41
1.001145989669981
 10
327.8913204450009
 20
298.9671622326714
 30
0.0
 41
1.000670108633282
 10
334.5649358458714
 20
298.4341846320745
 30
0.0
 41
1.003081436463854
 10
341.3166242534031
 20
298.0399319715576
 30
0.0
 41
1.000607963931228
 10
344.5865891285313
 20
299.0797157522387
 30
0.0
 41
1.001168483924526
  0
SPLINE
  5
193
330
1F
100
AcDbEntity
  8
1
100
AcDbSpline
210
0.0
220
0.0
230
1.0
 70
     8
 71
     3
 72
    18
 73
    14
 74
     0
 42
0.000000001
 43
0.0000000001
 40
0.0
 40
0.0
 40
0.0
 40
0.0
 40
0.2500000000000009
 40
0.2500000000000009
 40
0.3750000000000018
 40
0.3750000000000018
 40
0.4062500000000017
 40
0.4062500000000017
 40
0.4375000000000016
 40
0.5000000000000005
 40
0.5000000000000005
 40
0.7500000000000002
 40
1.0
 40
1.0
 40
1.0
 40
1.0
 10
287.0955093648947
 20
282.7866699864543
 30
0.0
 10
287.5334264065672
 20
282.8567104246076
 30
0.0
 10
287.9814961712271
 20
282.9097014832827
 30
0.0
 10
288.6690841462889
 20
282.9631870530258
 30
0.0
 10
288.9008650157509
 20
282.9766748134909
 30
0.0
 10
289.1938829303058
 20
282.9880065763779
 30
0.0
 10
289.252689387956
 20
282.989997423577
 30
0.0
 10
289.370444392583
 20
282.9934175425486
 30
0.0
 10
289.5471806211657
 20
282.9977033863862
 30
0.0
 10
289.7242257545544
 20
282.9994746246258
 30
0.0
 10
290.3150539118222
 20
282.9998619068934
 30
0.0
 10
291.2647062015963
 20
282.9652561523386
 30
0.0
 10
292.2227322304964
 20
282.862484895428
 30
0.0
 10
292.7038318185191
 20
282.7941137443013
 30
0.0
  0
SPLINE
  5
194
330
1F
100
AcDbEntity
  8
1
100
AcDbSpline
210
0.0
220
0.0
230
1.0
 70
     8
 71
     3
 72
    16
 73
    12
 74
     0
 42
0.000000001
 43
0.0000000001
 40
0.0
 40
0.0
 40
0.0
 40
0.0
 40
0.125
 40
0.125
 40
0.25
 40
0.25
 40
0.4999999999999998
 40
0.4999999999999998
 40
0.7499999999999999
 40
0.7499999999999999
 40
1.0
 40
1.0
 40
1.0
 40
1.0
 10
279.4048419452957
 20
270.1746103744173
 30
0.0
 10
279.5393783494408
 20
270.2289676114185
 30
0.0
 10
279.6752796222335
 20
270.2883331285034
 30
0.0
 10
279.9494324876914
 20
270.4156713571583
 30
0.0
 10
280.0876846794442
 20
270.4836468172589
 30
0.0
 10
280.505436224826
 20
270.6987267041495
 30
0.0
 10
280.7879304330847
 20
270.8569265064634
 30
0.0
 10
281.3581627475103
 20
271.1953945912592
 30
0.0
 10
281.6459014403175
 20
271.3756790577635
 30
0.0
 10
282.2238946313279
 20
271.7525280900908
 30
0.0
 10
282.514141001114
 20
271.949088631132
 30
0.0
 10
282.8043368819074
 20
272.151664360142
 30
0.0
  0
SPLINE
  5
195
330
1F
100
AcDbEntity
  8
1
100
AcDbSpline
210
0.0
220
0.0
230
1.0
 70
     8
 71
     3
 72
    48
 73
    44
 74
     0
 42
0.000000001
 43
0.0000000001
 40
0.0
 40
0.0
 40
0.0
 40
0.0
 40
0.0624999999999999
 40
0.0624999999999999
 40
0.0937500000000006
 40
0.0937500000000006
 40
0.1250000000000014
 40
0.1250000000000014
 40
0.1875000000000039
 40
0.1875000000000039
 40
0.2500000000000065
 40
0.2500000000000065
 40
0.312500000000009
 40
0.312500000000009
 40
0.3437500000000104
 40
0.3437500000000104
 40
0.3750000000000118
 40
0.3750000000000118
 40
0.4375000000000127
 40
0.4375000000000127
 40
0.468750000000013
 40
0.468750000000013
 40
0.5000000000000135
 40
0.5000000000000135
 40
0.5625000000000124
 40
0.5625000000000124
 40
0.5937500000000127
 40
0.5937500000000127
 40
0.625000000000013
 40
0.625000000000013
 40
0.6875000000000118
 40
0.6875000000000118
 40
0.7500000000000106
 40
0.7500000000000106
 40
0.8125000000000092
 40
0.8125000000000092
 40
0.8437500000000087
 40
0.8437500000000087
 40
0.8750000000000078
 40
0.8750000000000078
 40
0.9375000000000039
 40
0.9375000000000039
 40
1.0
 40
1.0
 40
1.0
 40
1.0
 10
353.1546781887927
 20
284.1454935136995
 30
0.0
 10
353.1566203638456
 20
284.1102272430971
 30
0.0
 10
353.1589664894896
 20
284.0768914083073
 30
0.0
 10
353.1630845103752
 20
284.0297494109358
 30
0.0
 10
353.1645571483316
 20
284.0145131304311
 30
0.0
 10
353.1677030633138
 20
283.9849994016482
 30
0.0
 10
353.1693782311661
 20
283.970709407882
 30
0.0
 10
353.1746826764113
 20
283.9294732140359
 30
0.0
 10
353.1785949246985
 20
283.9041030934514
 30
0.0
 10
353.1871673605059
 20
283.8575818444858
 30
0.0
 10
353.1918396982237
 20
283.8363943754347
 30
0.0
 10
353.2018578003843
 20
283.7986216209653
 30
0.0
 10
353.2072071304435
 20
283.7819975710043
 30
0.0
 10
353.2157421980699
 20
283.7604593355201
 30
0.0
 10
353.2186765134647
 20
283.7538394988816
 30
0.0
 10
353.2246971531456
 20
283.7417849596911
 30
0.0
 10
353.2277804757473
 20
283.7363539603959
 30
0.0
 10
353.2372474558233
 20
283.7218334704179
 30
0.0
 10
353.2438476781968
 20
283.7145128336145
 30
0.0
 10
353.254181578215
 20
283.7070731527012
 30
0.0
 10
353.2576985844148
 20
283.7051843844727
 30
0.0
 10
353.2648787465837
 20
283.7026005667921
 30
0.0
 10
353.2685471747793
 20
283.7019062117477
 30
0.0
 10
353.2797204285285
 20
283.7016389530623
 30
0.0
 10
353.2873994650846
 20
283.7038679014495
 30
0.0
 10
353.2992630537268
 20
283.710819210492
 30
0.0
 10
353.3032751788896
 20
283.7137385688093
 30
0.0
 10
353.3114156745607
 20
283.7207928185238
 30
0.0
 10
353.3155403303553
 20
283.7249259655941
 30
0.0
 10
353.3280283952835
 20
283.7390908775623
 30
0.0
 10
353.3365239289123
 20
283.7508993650937
 30
0.0
 10
353.3538569359079
 20
283.7792693636898
 30
0.0
 10
353.3627067343343
 20
283.7958668031758
 30
0.0
 10
353.3805757968194
 20
283.8335344332115
 30
0.0
 10
353.3896149504518
 20
283.854631179516
 30
0.0
 10
353.4033321968414
 20
283.8897049214908
 30
0.0
 10
353.4079349104472
 20
283.901980280699
 30
0.0
 10
353.4171479968455
 20
283.9275603441681
 30
0.0
 10
353.4217633253711
 20
283.9408768749032
 30
0.0
 10
353.4356356125766
 20
283.9824027068761
 30
0.0
 10
353.4449188151969
 20
284.0121847906947
 30
0.0
 10
353.4635563171024
 20
284.0760097359916
 30
0.0
 10
353.4728423010464
 20
284.1098196475087
 30
0.0
 10
353.4820890539383
 20
284.1454935137008
 30
0.0
  0
SPLINE
  5
196
330
1F
100
AcDbEntity
  8
1
100
AcDbSpline
210
0.0
220
0.0
230
1.0
 70
     8
 71
     3
 72
   133
 73
   129
 74
     0
 42
0.000000001
 43
0.0000000001
 40
0.0
 40
0.0
 40
0.0
 40
0.0
 40
0.0156250000000008
 40
0.0156250000000008
 40
0.0312500000000015
 40
0.0312500000000015
 40
0.0468750000000023
 40
0.0468750000000023
 40
0.0625000000000031
 40
0.0781250000000039
 40
0.0781250000000039
 40
0.0937500000000046
 40
0.0937500000000046
 40
0.1093750000000054
 40
0.1093750000000054
 40
0.1171875000000057
 40
0.1171875000000057
 40
0.1250000000000061
 40
0.1406250000000062
 40
0.1406250000000062
 40
0.1484375000000063
 40
0.1484375000000063
 40
0.1562500000000063
 40
0.1562500000000063
 40
0.1875000000000066
 40
0.1875000000000066
 40
0.2031250000000067
 40
0.2031250000000067
 40
0.2109375000000067
 40
0.2109375000000067
 40
0.2187500000000066
 40
0.2187500000000066
 40
0.2343750000000064
 40
0.2343750000000064
 40
0.2500000000000062
 40
0.2500000000000062
 40
0.2812500000000058
 40
0.2812500000000058
 40
0.2968750000000053
 40
0.2968750000000053
 40
0.3125000000000047
 40
0.3125000000000047
 40
0.3281250000000042
 40
0.3281250000000042
 40
0.3437500000000036
 40
0.3437500000000036
 40
0.3593750000000031
 40
0.3593750000000031
 40
0.3750000000000025
 40
0.3750000000000025
 40
0.3906250000000019
 40
0.3906250000000019
 40
0.4062500000000015
 40
0.4062500000000015
 40
0.4218750000000009
 40
0.4218750000000009
 40
0.4375000000000004
 40
0.453125
 40
0.453125
 40
0.4687499999999994
 40
0.4687499999999994
 40
0.484374999999999
 40
0.484374999999999
 40
0.4999999999999984
 40
0.4999999999999984
 40
0.5156249999999979
 40
0.5156249999999979
 40
0.5312499999999974
 40
0.5312499999999974
 40
0.5468749999999968
 40
0.5468749999999968
 40
0.5546874999999961
 40
0.5546874999999961
 40
0.5624999999999956
 40
0.5624999999999956
 40
0.5781249999999951
 40
0.5781249999999951
 40
0.5937499999999945
 40
0.5937499999999945
 40
0.6249999999999939
 40
0.6249999999999939
 40
0.6562499999999935
 40
0.6562499999999935
 40
0.6718749999999933
 40
0.6718749999999933
 40
0.6874999999999929
 40
0.6874999999999929
 40
0.6953124999999931
 40
0.6953124999999931
 40
0.7031249999999931
 40
0.7187499999999936
 40
0.7187499999999936
 40
0.734374999999994
 40
0.734374999999994
 40
0.7499999999999945
 40
0.7499999999999945
 40
0.7656249999999949
 40
0.7656249999999949
 40
0.7812499999999954
 40
0.7812499999999954
 40
0.7968749999999958
 40
0.7968749999999958
 40
0.8124999999999962
 40
0.8124999999999962
 40
0.8203124999999962
 40
0.8203124999999962
 40
0.8281249999999966
 40
0.8281249999999966
 40
0.8437499999999968
 40
0.8437499999999968
 40
0.8749999999999973
 40
0.8749999999999973
 40
0.8906249999999976
 40
0.8906249999999976
 40
0.8984374999999978
 40
0.8984374999999978
 40
0.9062499999999978
 40
0.9218749999999984
 40
0.9218749999999984
 40
0.9374999999999987
 40
0.9374999999999987
 40
0.9531249999999989
 40
0.9531249999999989
 40
0.9687499999999992
 40
0.9687499999999992
 40
0.9843749999999996
 40
0.9843749999999996
 40
1.0
 40
1.0
 40
1.0
 40
1.0
 10
353.4820890539383
 20
284.1454935137008
 30
0.0
 10
353.4865829825881
 20
284.175202588613
 30
0.0
 10
353.4909269076455
 20
284.2062461811362
 30
0.0
 10
353.4992610895043
 20
284.2706548890809
 30
0.0
 10
353.503242303268
 20
284.3039402131704
 30
0.0
 10
353.5108354948246
 20
284.3726581560358
 30
0.0
 10
353.5144496882391
 20
284.4081144794928
 30
0.0
 10
353.5212956531813
 20
284.481098256814
 30
0.0
 10
353.5277245274751
 20
284.5557753306872
 30
0.0
 10
353.5333282130277
 20
284.6338024898618
 30
0.0
 10
353.5385165979657
 20
284.713515678444
 30
0.0
 10
353.5408909250816
 20
284.7540349944383
 30
0.0
 10
353.5451918917555
 20
284.8361610134954
 30
0.0
 10
353.5471208398116
 20
284.8778030070271
 30
0.0
 10
353.5496810670641
 20
284.9411368043438
 30
0.0
 10
353.5504791136478
 20
284.9624037466559
 30
0.0
 10
353.551957467173
 20
285.0050515864093
 30
0.0
 10
353.5540009922158
 20
285.069256845522
 30
0.0
 10
353.5555269173348
 20
285.1341566774595
 30
0.0
 10
353.5567080790873
 20
285.1995191510132
 30
0.0
 10
353.5570446578556
 20
285.221418194964
 30
0.0
 10
353.5575997573051
 20
285.265171662525
 30
0.0
 10
353.5578184773693
 20
285.2870227607199
 30
0.0
 10
353.5586231036635
 20
285.396152328507
 30
0.0
 10
353.5583469665982
 20
285.4830551545131
 30
0.0
 10
353.5565910182589
 20
285.6128247163285
 30
0.0
 10
353.5557811185719
 20
285.6559833724997
 30
0.0
 10
353.554225614141
 20
285.7205729131355
 30
0.0
 10
353.5536502779133
 20
285.7420779937296
 30
0.0
 10
353.5523845715155
 20
285.7850380277802
 30
0.0
 10
353.5516936874772
 20
285.8065018143562
 30
0.0
 10
353.5494604930399
 20
285.8704274873954
 30
0.0
 10
353.5477543771599
 20
285.9125533749526
 30
0.0
 10
353.5439117387249
 20
285.9958322615816
 30
0.0
 10
353.5417726923892
 20
286.0370282822011
 30
0.0
 10
353.5347218992382
 20
286.1588645225038
 30
0.0
 10
353.5292165140802
 20
286.2371699761972
 30
0.0
 10
353.5197603411396
 20
286.3502834210692
 30
0.0
 10
353.516419149508
 20
286.3871179695061
 30
0.0
 10
353.5093835655414
 20
286.458833420226
 30
0.0
 10
353.5056860300084
 20
286.4937521870617
 30
0.0
 10
353.4979305746792
 20
286.5617071170084
 30
0.0
 10
353.4938732520267
 20
286.5947256183014
 30
0.0
 10
353.4854610469432
 20
286.6583686382751
 30
0.0
 10
353.4810988125115
 20
286.6890601979656
 30
0.0
 10
353.4720618573386
 20
286.7481818062678
 30
0.0
 10
353.4673795122355
 20
286.7766491916126
 30
0.0
 10
353.4577685141716
 20
286.8309016742703
 30
0.0
 10
353.4528338370581
 20
286.8567325715978
 30
0.0
 10
353.4427063783259
 20
286.9058062017672
 30
0.0
 10
353.4375032807919
 20
286.9290896767726
 30
0.0
 10
353.4268919124148
 20
286.9728001693803
 30
0.0
 10
353.4214870421946
 20
286.99322203407
 30
0.0
 10
353.4104794752858
 20
287.0312068848572
 30
0.0
 10
353.4048716948453
 20
287.0487841346466
 30
0.0
 10
353.3934774022503
 20
287.0809786240045
 30
0.0
 10
353.3819502720807
 20
287.1100897956742
 30
0.0
 10
353.3701587471209
 20
287.1330640506014
 30
0.0
 10
353.3582334401279
 20
287.1529330658354
 30
0.0
 10
353.3522242664306
 20
287.1612768504331
 30
0.0
 10
353.3401578963126
 20
287.1747305600907
 30
0.0
 10
353.3340937665692
 20
287.1798523237915
 30
0.0
 10
353.3219030253073
 20
287.1868549410231
 30
0.0
 10
353.3157772116435
 20
287.1887265461896
 30
0.0
 10
353.3035626854483
 20
287.189175495854
 30
0.0
 10
353.2974614945633
 20
287.1877620826639
 30
0.0
 10
353.285271337662
 20
287.1816377817933
 30
0.0
 10
353.2791719904335
 20
287.176911345923
 30
0.0
 10
353.2670788338113
 20
287.1641988788386
 30
0.0
 10
353.2610764004753
 20
287.1562142373717
 30
0.0
 10
353.2521391780035
 20
287.1417869142956
 30
0.0
 10
353.249171186801
 20
287.1365689815611
 30
0.0
 10
353.2432575485562
 20
287.1253088907409
 30
0.0
 10
353.2403103149621
 20
287.1192623516403
 30
0.0
 10
353.2315388409349
 20
287.0999562820961
 30
0.0
 10
353.2257732755647
 20
287.085512249544
 30
0.0
 10
353.2144062172511
 20
287.0534793765478
 30
0.0
 10
353.2087980429438
 20
287.0358670758823
 30
0.0
 10
353.1922679523789
 20
286.9783893575193
 30
0.0
 10
353.1817201345589
 20
286.9342120717724
 30
0.0
 10
353.161576859619
 20
286.8340421793095
 30
0.0
 10
353.1521025045822
 20
286.7786443226007
 30
0.0
 10
353.138807855317
 20
286.6876793497694
 30
0.0
 10
353.1345406994728
 20
286.6561086861811
 30
0.0
 10
353.126380579322
 20
286.5908345212313
 30
0.0
 10
353.122480150558
 20
286.5570808182802
 30
0.0
 10
353.1169002238728
 20
286.5047674417363
 30
0.0
 10
353.1150836007364
 20
286.4870296698041
 30
0.0
 10
353.1115539847958
 20
286.4511175307458
 30
0.0
 10
353.1064129010707
 20
286.3965783167557
 30
0.0
 10
353.1017282244381
 20
286.3400418988097
 30
0.0
 10
353.0958878860534
 20
286.262883832171
 30
0.0
 10
353.0931686734496
 20
286.2233677423823
 30
0.0
 10
353.0881821263621
 20
286.1432161955445
 30
0.0
 10
353.0859085753267
 20
286.102507282952
 30
0.0
 10
353.0817994826331
 20
286.0198273162712
 30
0.0
 10
353.0799613359207
 20
285.9777724057055
 30
0.0
 10
353.0767510219293
 20
285.8930185673349
 30
0.0
 10
353.0753757427245
 20
285.8502776630846
 30
0.0
 10
353.073081833994
 20
285.7640728022927
 30
0.0
 10
353.0721620447942
 20
285.7205184412314
 30
0.0
 10
353.0707908266403
 20
285.6331864594777
 30
0.0
 10
353.0703385002645
 20
285.5894299605326
 30
0.0
 10
353.0700065339993
 20
285.523660769423
 30
0.0
 10
353.069953695027
 20
285.5017152743303
 30
0.0
 10
353.069963827204
 20
285.4577793526075
 30
0.0
 10
353.0700270437578
 20
285.4357550623339
 30
0.0
 10
353.0703893892683
 20
285.3699187524218
 30
0.0
 10
353.0708599954452
 20
285.3263427149914
 30
0.0
 10
353.0729381844359
 20
285.1965305781354
 30
0.0
 10
353.0752085822443
 20
285.1112055668949
 30
0.0
 10
353.079927596289
 20
284.9850234392047
 30
0.0
 10
353.081720403672
 20
284.9432648650288
 30
0.0
 10
353.0847458848882
 20
284.8810892319214
 30
0.0
 10
353.0858109914808
 20
284.8604358905871
 30
0.0
 10
353.0880409823132
 20
284.8195315001709
 30
0.0
 10
353.0915400752804
 20
284.758685192312
 30
0.0
 10
353.0954977013313
 20
284.6993571780042
 30
0.0
 10
353.1011818010528
 20
284.6216016936903
 30
0.0
 10
353.1042308502464
 20
284.5833721249155
 30
0.0
 10
353.1106883274994
 20
284.5088604844532
 30
0.0
 10
353.1141018027192
 20
284.4725026646298
 30
0.0
 10
353.1212970809207
 20
284.4015774579136
 30
0.0
 10
353.1250868868015
 20
284.3669461176556
 30
0.0
 10
353.1329886755544
 20
284.2999163533997
 30
0.0
 10
353.1371013053533
 20
284.267498843381
 30
0.0
 10
353.1456483463235
 20
284.2048471045223
 30
0.0
 10
353.1500889264565
 20
284.1745742769724
 30
0.0
 10
353.1546781887927
 20
284.1454935136995
 30
0.0
  0
SPLINE
  5
197
330
1F
100
AcDbEntity
  8
1
100
AcDbSpline
210
0.0
220
0.0
230
1.0
 70
     8
 71
     3
 72
     8
 73
     4
 74
     0
 42
0.000000001
 43
0.0000000001
 40
0.0
 40
0.0
 40
0.0
 40
0.0
 40
1.0
 40
1.0
 40
1.0
 40
1.0
 10
292.2404508476413
 20
302.4156616201519
 30
0.0
 10
292.3938220844537
 20
302.4105659104677
 30
0.0
 10
292.5482615755082
 20
302.4077903775173
 30
0.0
 10
292.7038318185191
 20
302.4074818915562
 30
0.0
  0
SPLINE
  5
198
330
1F
100
AcDbEntity
  8
1
100
AcDbSpline
210
0.0
220
0.0
230
1.0
 70
     8
 71
     3
 72
    12
 73
     8
 74
     0
 42
0.000000001
 43
0.0000000001
 40
0.0
 40
0.0
 40
0.0
 40
0.0
 40
0.25
 40
0.25
 40
0.5
 40
0.75
 40
1.0
 40
1.0
 40
1.0
 40
1.0
 10
295.8355230032523
 20
302.385881371934
 30
0.0
 10
295.5734325319978
 20
302.3887006496143
 30
0.0
 10
295.3116891237506
 20
302.3913442447732
 30
0.0
 10
294.7887689095079
 20
302.3961469077726
 30
0.0
 10
294.2664148896983
 20
302.400465128508
 30
0.0
 10
293.4843318956134
 20
302.4051761158869
 30
0.0
 10
292.9638425338879
 20
302.4069663067382
 30
0.0
 10
292.7038318185191
 20
302.4074818915562
 30
0.0
  0
SPLINE
  5
199
330
1F
100
AcDbEntity
  8
1
100
AcDbSpline
210
0.0
220
0.0
230
1.0
 70
     8
 71
     3
 72
    30
 73
    26
 74
     0
 42
0.000000001
 43
0.0000000001
 40
0.0
 40
0.0
 40
0.0
 40
0.0
 40
0.062500000000006
 40
0.062500000000006
 40
0.125000000000012
 40
0.125000000000012
 40
0.187500000000018
 40
0.187500000000018
 40
0.250000000000024
 40
0.250000000000024
 40
0.2812500000000254
 40
0.2812500000000254
 40
0.3125000000000268
 40
0.3125000000000268
 40
0.3750000000000244
 40
0.3750000000000244
 40
0.4375000000000221
 40
0.4375000000000221
 40
0.5000000000000196
 40
0.5000000000000196
 40
0.6250000000000147
 40
0.6250000000000147
 40
0.7500000000000098
 40
0.8750000000000049
 40
1.0
 40
1.0
 40
1.0
 40
1.0
 10
339.7846690312836
 20
291.9062024052294
 30
0.0
 10
339.5950384398207
 20
292.002609635928
 30
0.0
 10
339.4043733358231
 20
292.1014408347035
 30
0.0
 10
339.0214575176895
 20
292.3028184780626
 30
0.0
 10
338.8292045078677
 20
292.4053703016717
 30
0.0
 10
338.4434409976042
 20
292.6134203772962
 30
0.0
 10
338.2499292119086
 20
292.7189216407921
 30
0.0
 10
337.8618798936967
 20
292.9323275969022
 30
0.0
 10
337.667341586446
 20
293.0402341047974
 30
0.0
 10
337.374888304297
 20
293.2036070915617
 30
0.0
 10
337.2772276923362
 20
293.2583564222278
 30
0.0
 10
337.0821349823241
 20
293.3680827479117
 30
0.0
 10
336.9846915723285
 20
293.4230657460184
 30
0.0
 10
336.6926462982789
 20
293.5883464491812
 30
0.0
 10
336.4983282353075
 20
293.6989745187473
 30
0.0
 10
336.1103549329679
 20
293.9210022313798
 30
0.0
 10
335.9167000248375
 20
294.0324022600306
 30
0.0
 10
335.5299922608285
 20
294.2559031486867
 30
0.0
 10
335.3369396199251
 20
294.3680042589384
 30
0.0
 10
334.7586311144123
 20
294.7052963713202
 30
0.0
 10
334.3742185675306
 20
294.9314690548634
 30
0.0
 10
333.6075720032497
 20
295.3863503841746
 30
0.0
 10
332.8431130870102
 20
295.8437782903577
 30
0.0
 10
331.7029499883869
 20
296.5375160315817
 30
0.0
 10
330.9472256010963
 20
297.0051115465322
 30
0.0
 10
330.5704833474919
 20
297.2402129933353
 30
0.0
  0
SPLINE
  5
19A
330
1F
100
AcDbEntity
  8
1
100
AcDbSpline
210
0.0
220
0.0
230
1.0
 70
     8
 71
     3
 72
    28
 73
    24
 74
     0
 42
0.000000001
 43
0.0000000001
 40
0.0
 40
0.0
 40
0.0
 40
0.0
 40
0.124999999999977
 40
0.124999999999977
 40
0.2499999999999541
 40
0.2499999999999541
 40
0.3124999999999426
 40
0.3124999999999426
 40
0.3749999999999312
 40
0.3749999999999312
 40
0.4999999999999082
 40
0.4999999999999082
 40
0.6249999999998853
 40
0.6249999999998853
 40
0.6562499999998797
 40
0.6562499999998797
 40
0.6874999999998741
 40
0.6874999999998741
 40
0.7499999999998887
 40
0.7499999999998887
 40
0.8749999999999444
 40
0.8749999999999444
 40
1.0
 40
1.0
 40
1.0
 40
1.0
 10
348.0052789308133
 20
292.6460303546343
 30
0.0
 10
347.9518465801603
 20
292.6057856187512
 30
0.0
 10
347.8970159587866
 20
292.5684929436071
 30
0.0
 10
347.7844884592719
 20
292.4994851765125
 30
0.0
 10
347.7267932330434
 20
292.4677723360833
 30
0.0
 10
347.6379829665731
 20
292.4243531665851
 30
0.0
 10
347.6079591668927
 20
292.4105560183834
 30
0.0
 10
347.5473088693679
 20
292.3844463303142
 30
0.0
 10
347.5167836782276
 20
292.3721746874353
 30
0.0
 10
347.4245598121814
 20
292.3376687336272
 30
0.0
 10
347.3622164158256
 20
292.3177333301144
 30
0.0
 10
347.2354747041172
 20
292.2840290955795
 30
0.0
 10
347.1710752065406
 20
292.2702596318507
 30
0.0
 10
347.0890194113476
 20
292.2571283170526
 30
0.0
 10
347.0724995132673
 20
292.2547030766997
 30
0.0
 10
347.0394783798526
 20
292.2502946140954
 30
0.0
 10
347.0229790304847
 20
292.2483106052752
 30
0.0
 10
346.9735162647479
 20
292.2430136366769
 30
0.0
 10
346.9405883508256
 20
292.2403555798397
 30
0.0
 10
346.8419519883432
 20
292.2349623421883
 30
0.0
 10
346.7763940852787
 20
292.2348048043078
 30
0.0
 10
346.6456261156135
 20
292.2412260138181
 30
0.0
 10
346.5804142045744
 20
292.247801987067
 30
0.0
 10
346.5153115031369
 20
292.25774578856
 30
0.0
  0
SPLINE
  5
19B
330
1F
100
AcDbEntity
  8
1
100
AcDbSpline
210
0.0
220
0.0
230
1.0
 70
     8
 71
     3
 72
    20
 73
    16
 74
     0
 42
0.000000001
 43
0.0000000001
 40
0.0
 40
0.0
 40
0.0
 40
0.0
 40
0.2500000000000058
 40
0.2500000000000058
 40
0.5000000000000116
 40
0.5000000000000116
 40
0.5625000000000091
 40
0.5625000000000091
 40
0.6250000000000067
 40
0.6250000000000067
 40
0.7500000000000022
 40
0.8749999999999971
 40
0.9374999999999985
 40
0.9374999999999985
 40
1.0
 40
1.0
 40
1.0
 40
1.0
 10
346.5151378434616
 20
292.0483752987146
 30
0.0
 10
346.0683168925792
 20
292.0287676798149
 30
0.0
 10
345.6233459972956
 20
292.0326775386562
 30
0.0
 10
344.737022773822
 20
292.0864366727831
 30
0.0
 10
344.2956705482937
 20
292.1362878756522
 30
0.0
 10
343.7462696226426
 20
292.2275992478656
 30
0.0
 10
343.6364841949504
 20
292.2473190331525
 30
0.0
 10
343.4172270924751
 20
292.2896723518563
 30
0.0
 10
343.3080214164412
 20
292.3122539552058
 30
0.0
 10
342.9816653561472
 20
292.3841839030668
 30
0.0
 10
342.549884708441
 20
292.4912451969556
 30
0.0
 10
342.0185141901883
 20
292.6527375328023
 30
0.0
 10
341.7034636742397
 20
292.7620850193185
 30
0.0
 10
341.4942729225727
 20
292.8377611439175
 30
0.0
 10
341.3902579778175
 20
292.8769311952569
 30
0.0
 10
341.2869333122811
 20
292.9173809064128
 30
0.0
  0
SPLINE
  5
19C
330
1F
100
AcDbEntity
  8
1
100
AcDbSpline
210
0.0
220
0.0
230
1.0
 70
     8
 71
     3
 72
     8
 73
     4
 74
     0
 42
0.000000001
 43
0.0000000001
 40
0.0
 40
0.0
 40
0.0
 40
0.0
 40
1.0
 40
1.0
 40
1.0
 40
1.0
 10
346.5151378434616
 20
292.0483752987146
 30
0.0
 10
346.5185994405131
 20
292.0485272022358
 30
0.0
 10
346.5220618404434
 20
292.048678651382
 30
0.0
 10
346.5255250443748
 20
292.0488296455181
 30
0.0
  0
SPLINE
  5
19D
330
1F
100
AcDbEntity
  8
1
100
AcDbSpline
210
0.0
220
0.0
230
1.0
 70
     8
 71
     3
 72
    36
 73
    32
 74
     0
 42
0.000000001
 43
0.0000000001
 40
0.0
 40
0.0
 40
0.0
 40
0.0
 40
0.1249999999999991
 40
0.1249999999999991
 40
0.2499999999999978
 40
0.2499999999999978
 40
0.2812499999999973
 40
0.2812499999999973
 40
0.2968749999999971
 40
0.2968749999999971
 40
0.3124999999999969
 40
0.3749999999999964
 40
0.3749999999999964
 40
0.4999999999999969
 40
0.4999999999999969
 40
0.5624999999999965
 40
0.5624999999999965
 40
0.5781249999999965
 40
0.5781249999999965
 40
0.5937499999999965
 40
0.5937499999999965
 40
0.6249999999999965
 40
0.6249999999999965
 40
0.7499999999999976
 40
0.7499999999999976
 40
0.8749999999999985
 40
0.8749999999999985
 40
0.9062499999999987
 40
0.9062499999999987
 40
0.9374999999999992
 40
1.0
 40
1.0
 40
1.0
 40
1.0
 10
276.5851201632438
 20
274.1227952197805
 30
0.0
 10
276.5395100320353
 20
273.8968294335681
 30
0.0
 10
276.5169745078393
 20
273.6765772030809
 30
0.0
 10
276.515664683744
 20
273.2473228531154
 30
0.0
 10
276.536900769217
 20
273.038321275666
 30
0.0
 10
276.5909486183902
 20
272.7840574984254
 30
0.0
 10
276.603139453164
 20
272.7335543947814
 30
0.0
 10
276.623518919786
 20
272.6583241113565
 30
0.0
 10
276.6306680809506
 20
272.6333117236427
 30
0.0
 10
276.6456330304324
 20
272.5835790947528
 30
0.0
 10
276.6846844038734
 20
272.460061634955
 30
0.0
 10
276.7318253358514
 20
272.3405484872422
 30
0.0
 10
276.8599841888656
 20
272.0609953882147
 30
0.0
 10
276.9653835021018
 20
271.8843125567616
 30
0.0
 10
277.1527247570751
 20
271.6325907908129
 30
0.0
 10
277.2200629087689
 20
271.5509056759288
 30
0.0
 10
277.3104045804465
 20
271.451482577145
 30
0.0
 10
277.3287816969684
 20
271.431732199006
 30
0.0
 10
277.3661562205435
 20
271.3924978677488
 30
0.0
 10
277.3851658223911
 20
271.3730023330876
 30
0.0
 10
277.4429314787087
 20
271.3151075575088
 30
0.0
 10
277.4824765969275
 20
271.2772426169622
 30
0.0
 10
277.6852828411663
 20
271.0914371630147
 30
0.0
 10
277.863713438737
 20
270.9540107588476
 30
0.0
 10
278.251795323474
 20
270.698810188422
 30
0.0
 10
278.4614495215789
 20
270.5810450307003
 30
0.0
 10
278.7434105255213
 20
270.444976491345
 30
0.0
 10
278.8008478502023
 20
270.4183027729831
 30
0.0
 10
278.9172542850068
 20
270.3662653584507
 30
0.0
 10
279.0943076614429
 20
270.2901007547987
 30
0.0
 10
279.2786672684572
 20
270.2194235647444
 30
0.0
 10
279.4048419452957
 20
270.1746103744173
 30
0.0
  0
SPLINE
  5
19E
330
1F
100
AcDbEntity
  8
1
100
AcDbSpline
210
0.0
220
0.0
230
1.0
 70
     8
 71
     3
 72
    60
 73
    56
 74
     0
 42
0.000000001
 43
0.0000000001
 40
0.0
 40
0.0
 40
0.0
 40
0.0
 40
0.0624999999999987
 40
0.0624999999999987
 40
0.1249999999999974
 40
0.1249999999999974
 40
0.1874999999999961
 40
0.1874999999999961
 40
0.2187499999999956
 40
0.2187499999999956
 40
0.2499999999999952
 40
0.2499999999999952
 40
0.2812499999999947
 40
0.2812499999999947
 40
0.3124999999999943
 40
0.3124999999999943
 40
0.3281249999999943
 40
0.3281249999999943
 40
0.3437499999999943
 40
0.3437499999999943
 40
0.3749999999999943
 40
0.3749999999999943
 40
0.4374999999999948
 40
0.4374999999999948
 40
0.4687499999999949
 40
0.4687499999999949
 40
0.4999999999999952
 40
0.4999999999999952
 40
0.5312499999999954
 40
0.5312499999999954
 40
0.5624999999999956
 40
0.5624999999999956
 40
0.5937499999999958
 40
0.5937499999999958
 40
0.624999999999996
 40
0.624999999999996
 40
0.6562499999999963
 40
0.6562499999999963
 40
0.6718749999999966
 40
0.6718749999999966
 40
0.6874999999999969
 40
0.6874999999999969
 40
0.7499999999999974
 40
0.7499999999999974
 40
0.8124999999999978
 40
0.8124999999999978
 40
0.8437499999999984
 40
0.8437499999999984
 40
0.8749999999999987
 40
0.8749999999999987
 40
0.9062499999999992
 40
0.9062499999999992
 40
0.9374999999999992
 40
0.9374999999999992
 40
1.0
 40
1.0
 40
1.0
 40
1.0
 10
297.9048419452959
 20
282.0723452271774
 30
0.0
 10
298.8313014277348
 20
281.8958282799007
 30
0.0
 10
299.7535586734571
 20
281.7102962993842
 30
0.0
 10
301.5891906754853
 20
281.3224161384315
 30
0.0
 10
302.502556645163
 20
281.120049166499
 30
0.0
 10
304.3203456466794
 20
280.7013194394225
 30
0.0
 10
305.2247588346679
 20
280.4849437229817
 30
0.0
 10
306.5751643620503
 20
280.1536127662677
 30
0.0
 10
307.0242704479865
 20
280.0420594474808
 30
0.0
 10
307.9205982642127
 20
279.8175754746428
 30
0.0
 10
308.3678199057971
 20
279.7046454340185
 30
0.0
 10
309.2606188686872
 20
279.478384614485
 30
0.0
 10
309.7061962811041
 20
279.3650549637322
 30
0.0
 10
310.5960136273732
 20
279.1390798542593
 30
0.0
 10
311.0402538699196
 20
279.0264360208728
 30
0.0
 10
311.705886955169
 20
278.8588472619014
 30
0.0
 10
311.9276438829658
 20
278.8032142054162
 30
0.0
 10
312.3709668198201
 20
278.6925532892695
 30
0.0
 10
312.5925640315085
 20
278.6375178203625
 30
0.0
 10
313.2569094472055
 20
278.4735947804674
 30
0.0
 10
313.6991237686865
 20
278.3659148936136
 30
0.0
 10
315.0244519115603
 20
278.0492936999149
 30
0.0
 10
315.9062543336883
 20
277.8468618781101
 30
0.0
 10
317.2294054005932
 20
277.5613710394617
 30
0.0
 10
317.6705443676072
 20
277.4692375354611
 30
0.0
 10
318.5537330052341
 20
277.2919391984513
 30
0.0
 10
318.9957823548079
 20
277.2067715558764
 30
0.0
 10
319.8813874846395
 20
277.0438947039401
 30
0.0
 10
320.3249424465822
 20
276.9661823652734
 30
0.0
 10
321.2140331233986
 20
276.8183813770179
 30
0.0
 10
321.6595673158886
 20
276.74828937123
 30
0.0
 10
322.5530036551067
 20
276.6156674958806
 30
0.0
 10
323.0009673504114
 20
276.5532001322587
 30
0.0
 10
323.8990431167397
 20
276.43502363521
 30
0.0
 10
324.3491285762963
 20
276.3792845083977
 30
0.0
 10
325.2509630426374
 20
276.2736430156189
 30
0.0
 10
325.7027129050912
 20
276.2237427773565
 30
0.0
 10
326.3813170649342
 20
276.1527894808389
 30
0.0
 10
326.6076821606592
 20
276.1297893781673
 30
0.0
 10
327.0606996549718
 20
276.0850263886504
 30
0.0
 10
327.2873680687042
 20
276.0632621699534
 30
0.0
 10
328.4208200183546
 20
275.9574412968949
 30
0.0
 10
329.3283098761373
 20
275.8822735714328
 30
0.0
 10
331.1429965068921
 20
275.7483644555178
 30
0.0
 10
332.0501891307129
 20
275.6896268843315
 30
0.0
 10
333.4095270137763
 20
275.6132306798002
 30
0.0
 10
333.8623957603197
 20
275.5897287276101
 30
0.0
 10
334.7675004596533
 20
275.5467207909733
 30
0.0
 10
335.2197658323659
 20
275.5272408903874
 30
0.0
 10
336.1241888070497
 20
275.4926443361542
 30
0.0
 10
336.5763469111924
 20
275.4775272477207
 30
0.0
 10
337.4809850890922
 20
275.4517784731694
 30
0.0
 10
337.9334653341266
 20
275.4411459502359
 30
0.0
 10
339.291961336157
 20
275.4158998196559
 30
0.0
 10
340.199051100178
 20
275.4079935137005
 30
0.0
 10
341.1088219688226
 20
275.4079935137005
 30
0.0
  0
SPLINE
  5
19F
330
1F
100
AcDbEntity
  8
1
100
AcDbSpline
210
0.0
220
0.0
230
1.0
 70
     8
 71
     3
 72
    48
 73
    44
 74
     0
 42
0.000000001
 43
0.0000000001
 40
0.0
 40
0.0
 40
0.0
 40
0.0
 40
0.0624999999999995
 40
0.0624999999999995
 40
0.1249999999999989
 40
0.1249999999999989
 40
0.1874999999999984
 40
0.1874999999999984
 40
0.2187499999999982
 40
0.2187499999999982
 40
0.2499999999999979
 40
0.2499999999999979
 40
0.3124999999999979
 40
0.3124999999999979
 40
0.374999999999998
 40
0.374999999999998
 40
0.4374999999999982
 40
0.4374999999999982
 40
0.4687499999999978
 40
0.4687499999999978
 40
0.4999999999999976
 40
0.4999999999999976
 40
0.5624999999999976
 40
0.5624999999999976
 40
0.5937499999999977
 40
0.5937499999999977
 40
0.6249999999999976
 40
0.6249999999999976
 40
0.6562499999999976
 40
0.6562499999999976
 40
0.6874999999999976
 40
0.6874999999999976
 40
0.7187499999999976
 40
0.7187499999999976
 40
0.7499999999999977
 40
0.7499999999999977
 40
0.8124999999999982
 40
0.8124999999999982
 40
0.8749999999999987
 40
0.8749999999999987
 40
0.9374999999999994
 40
0.9374999999999994
 40
1.0
 40
1.0
 40
1.0
 40
1.0
 10
297.9048419452957
 20
302.3582779837466
 30
0.0
 10
298.6099359290179
 20
302.3458582335186
 30
0.0
 10
299.3124579324723
 20
302.3303004112511
 30
0.0
 10
300.7122794278355
 20
302.2908951568567
 30
0.0
 10
301.4095766054985
 20
302.2670432317547
 30
0.0
 10
302.7990453530336
 20
302.2088530302018
 30
0.0
 10
303.4912144634201
 20
302.1745068746029
 30
0.0
 10
304.5258858058517
 20
302.1134777946249
 30
0.0
 10
304.8701814147013
 20
302.091550578401
 30
0.0
 10
305.5576564663517
 20
302.0442787384332
 30
0.0
 10
305.9009046483221
 20
302.0189281511687
 30
0.0
 10
306.928612241648
 20
301.9374610388671
 30
0.0
 10
307.6107307554918
 20
301.8759273900877
 30
0.0
 10
308.9701936158606
 20
301.7373213734381
 30
0.0
 10
309.6475407611433
 20
301.6602394590108
 30
0.0
 10
310.9991686969805
 20
301.4904337368768
 30
0.0
 10
311.6734562191756
 20
301.3977075860925
 30
0.0
 10
312.6840943361101
 20
301.2477182015171
 30
0.0
 10
313.0208431821204
 20
301.1959147314401
 30
0.0
 10
313.6943377005351
 20
301.0889414265823
 30
0.0
 10
314.0311203724394
 20
301.0337656223868
 30
0.0
 10
315.0414329175857
 20
300.8637231271057
 30
0.0
 10
315.7150123823575
 20
300.7443184041733
 30
0.0
 10
316.7268684752396
 20
300.5583943062658
 30
0.0
 10
317.064441049672
 20
300.4953480655081
 30
0.0
 10
317.7399750655149
 20
300.3669531196439
 30
0.0
 10
318.0779074348748
 20
300.3015640806115
 30
0.0
 10
318.7538237972111
 20
300.1680338199549
 30
0.0
 10
319.0918081300892
 20
300.0998919246717
 30
0.0
 10
319.767661787474
 20
299.9605887527338
 30
0.0
 10
320.1055316795985
 20
299.8894273444768
 30
0.0
 10
320.7810881972771
 20
299.7439340305803
 30
0.0
 10
321.118775501347
 20
299.6696023982343
 30
0.0
 10
321.7939778484711
 20
299.5177309718887
 30
0.0
 10
322.1315003680421
 20
299.4401897410096
 30
0.0
 10
323.1434321263007
 20
299.2029629664842
 30
0.0
 10
323.8173750026732
 20
299.0386343316662
 30
0.0
 10
325.1655774058671
 20
298.700539560825
 30
0.0
 10
325.8398278532303
 20
298.5267724264573
 30
0.0
 10
327.1894417005527
 20
298.1715778663115
 30
0.0
 10
327.8647974869789
 20
297.9901460833172
 30
0.0
 10
329.2168297671433
 20
297.6203692996662
 30
0.0
 10
329.8936431179705
 20
297.431979676912
 30
0.0
 10
330.5704833474919
 20
297.2402129933353
 30
0.0
  0
SPLINE
  5
1A0
330
1F
100
AcDbEntity
  8
1
100
AcDbSpline
210
0.0
220
0.0
230
1.0
 70
     8
 71
     3
 72
    46
 73
    42
 74
     0
 42
0.000000001
 43
0.0000000001
 40
0.0
 40
0.0
 40
0.0
 40
0.0
 40
0.0548817306959066
 40
0.0548817306959066
 40
0.1097634613918132
 40
0.1097634613918132
 40
0.1646451920877199
 40
0.1646451920877199
 40
0.2195269227836265
 40
0.2195269227836265
 40
0.2469677881315791
 40
0.2469677881315791
 40
0.2606882208055554
 40
0.2606882208055554
 40
0.2744086534795317
 40
0.2744086534795317
 40
0.3292903841754339
 40
0.3292903841754339
 40
0.3841721148713363
 40
0.3841721148713363
 40
0.4390538455672388
 40
0.4390538455672388
 40
0.4939355762631412
 40
0.4939355762631412
 40
0.5488173069590433
 40
0.5488173069590433
 40
0.658580768350848
 40
0.658580768350848
 40
0.7134624990467504
 40
0.7134624990467504
 40
0.7683442297426528
 40
0.7683442297426528
 40
0.823225960438555
 40
0.823225960438555
 40
0.8781076911344573
 40
0.8781076911344573
 40
0.9329894218303596
 40
0.9329894218303596
 40
0.9878711525262621
 40
0.9878711525262621
 40
1.0
 40
1.0
 40
1.0
 40
1.0
 10
344.0389216612622
 20
302.30521719973
 30
0.0
 10
343.6023758589717
 20
302.3368069273766
 30
0.0
 10
343.1605302127786
 20
302.3597343105907
 30
0.0
 10
342.2657806619182
 20
302.3919374149179
 30
0.0
 10
341.8128759460043
 20
302.4012220845786
 30
0.0
 10
340.8962124364255
 20
302.4095255551434
 30
0.0
 10
340.4324528488542
 20
302.4085517607984
 30
0.0
 10
339.494974048983
 20
302.3991706032832
 30
0.0
 10
339.0212549620954
 20
302.3907689257752
 30
0.0
 10
338.3044053011913
 20
302.3741523946551
 30
0.0
 10
338.0644157379199
 20
302.3679381573278
 30
0.0
 10
337.7030697103031
 20
302.3577363913056
 30
0.0
 10
337.5823944126546
 20
302.3541886207437
 30
0.0
 10
337.340627339866
 20
302.3468153488249
 30
0.0
 10
337.2195320717186
 20
302.3429896675181
 30
0.0
 10
336.613638258807
 20
302.3232169760187
 30
0.0
 10
336.1271300692927
 20
302.3053642457206
 30
0.0
 10
335.1524222743317
 20
302.265807985959
 30
0.0
 10
334.6642403713324
 20
302.244096939734
 30
0.0
 10
333.688358865078
 20
302.1960451757859
 30
0.0
 10
333.2005694742803
 20
302.1697199609103
 30
0.0
 10
332.2255202744279
 20
302.1122838467745
 30
0.0
 10
331.7382617202915
 20
302.0811716281265
 30
0.0
 10
330.7644691698791
 20
302.013898376935
 30
0.0
 10
330.2779355464469
 20
301.9777362063148
 30
0.0
 10
328.8196231788762
 20
301.8612289773956
 30
0.0
 10
327.8491481206997
 20
301.7728678263738
 30
0.0
 10
326.3963879185558
 20
301.6224137395167
 30
0.0
 10
325.9126210001962
 20
301.5692774037959
 30
0.0
 10
324.9461211466166
 20
301.4566534819413
 30
0.0
 10
324.4633856803642
 20
301.3971703835554
 30
0.0
 10
323.4990882540789
 20
301.2713181799642
 30
0.0
 10
323.0175239100035
 20
301.2049552950852
 30
0.0
 10
322.055870889179
 20
301.064483634642
 30
0.0
 10
321.5757801530401
 20
300.9903692556085
 30
0.0
 10
320.6169002739006
 20
300.8340676117828
 30
0.0
 10
320.1381154908322
 20
300.7518723271729
 30
0.0
 10
319.1815932017627
 20
300.5792520029177
 30
0.0
 10
318.7038579618086
 20
300.4888194382309
 30
0.0
 10
318.1209078592373
 20
300.3735319458642
 30
0.0
 10
318.015401576902
 20
300.3524695062373
 30
0.0
 10
317.9099145160517
 20
300.3312186339689
 30
0.0
  0
SPLINE
  5
1A1
330
1F
100
AcDbEntity
  8
1
100
AcDbSpline
210
0.0
220
0.0
230
1.0
 70
     8
 71
     3
 72
    36
 73
    32
 74
     0
 42
0.000000001
 43
0.0000000001
 40
0.0
 40
0.0
 40
0.0
 40
0.0
 40
0.0624999999999992
 40
0.0624999999999992
 40
0.1249999999999983
 40
0.1249999999999983
 40
0.1874999999999974
 40
0.1874999999999974
 40
0.2499999999999966
 40
0.2499999999999966
 40
0.3124999999999962
 40
0.3124999999999962
 40
0.3437499999999958
 40
0.3437499999999958
 40
0.3593749999999958
 40
0.3593749999999958
 40
0.3749999999999959
 40
0.4374999999999963
 40
0.4374999999999963
 40
0.4999999999999968
 40
0.4999999999999968
 40
0.6249999999999976
 40
0.6249999999999976
 40
0.7499999999999983
 40
0.7499999999999983
 40
0.8749999999999989
 40
0.8749999999999989
 40
0.9062499999999992
 40
0.9062499999999992
 40
0.9374999999999992
 40
1.0
 40
1.0
 40
1.0
 40
1.0
 10
292.7038318185191
 20
275.4258988304691
 30
0.0
 10
292.4517982046761
 20
275.4226932027691
 30
0.0
 10
292.2032509142187
 20
275.4127807405533
 30
0.0
 10
291.7122935206641
 20
275.381165577982
 30
0.0
 10
291.4698848690838
 20
275.3594610702515
 30
0.0
 10
290.9905463133755
 20
275.305576354113
 30
0.0
 10
290.7536173367818
 20
275.2733947855172
 30
0.0
 10
290.2847175737953
 20
275.1996130825243
 30
0.0
 10
290.0527473982253
 20
275.1580118286837
 30
0.0
 10
289.5933602134547
 20
275.066226988973
 30
0.0
 10
289.3659436275869
 20
275.0160424218242
 30
0.0
 10
289.0280052101837
 20
274.934813706975
 30
0.0
 10
288.9158908955603
 20
274.9067440997724
 30
0.0
 10
288.7484949467907
 20
274.8631987583982
 30
0.0
 10
288.6928681968204
 20
274.8484542416491
 30
0.0
 10
288.5821124869181
 20
274.81856015657
 30
0.0
 10
288.3063457582346
 20
274.7427786988083
 30
0.0
 10
288.0360502073207
 20
274.6619122133172
 30
0.0
 10
287.6100735754107
 20
274.5265715705573
 30
0.0
 10
287.4003346679029
 20
274.4559227301731
 30
0.0
 10
286.7803429443813
 20
274.2356696777575
 30
0.0
 10
286.379268823557
 20
274.0777920174498
 30
0.0
 10
285.6002336751392
 20
273.742215435091
 30
0.0
 10
285.2222901998562
 20
273.5644994545653
 30
0.0
 10
284.4894510621305
 20
273.1905939634255
 30
0.0
 10
284.1345642317956
 20
272.9943964192419
 30
0.0
 10
283.7058740607706
 20
272.7381352685679
 30
0.0
 10
283.6208446104284
 20
272.6863061797546
 30
0.0
 10
283.45265517886
 20
272.5817776649541
 30
0.0
 10
283.2030746693303
 20
272.42362149079
 30
0.0
 10
282.9616342225587
 20
272.2614682049334
 30
0.0
 10
282.8043368819074
 20
272.151664360142
 30
0.0
  0
SPLINE
  5
1A2
330
1F
100
AcDbEntity
  8
1
100
AcDbSpline
210
0.0
220
0.0
230
1.0
 70
     8
 71
     3
 72
    16
 73
    12
 74
     0
 42
0.000000001
 43
0.0000000001
 40
0.0
 40
0.0
 40
0.0
 40
0.0
 40
0.0103559070550928
 40
0.0103559070550928
 40
0.1517336346186509
 40
0.1517336346186509
 40
0.4344890897457672
 40
0.4344890897457672
 40
0.7172445448728837
 40
0.7172445448728837
 40
1.0
 40
1.0
 40
1.0
 40
1.0
 10
316.3670638264709
 20
277.7468682153958
 30
0.0
 10
316.3484411360451
 20
277.7423364109649
 30
0.0
 10
316.329816429507
 20
277.7378141621929
 30
0.0
 10
316.056899152491
 20
277.6716950207025
 30
0.0
 10
315.8022550267288
 20
277.6118297550804
 30
0.0
 10
315.0374294792405
 20
277.4370155176888
 30
0.0
 10
314.5263583193818
 20
277.3268288400745
 30
0.0
 10
313.5027033505523
 20
277.1172373317116
 30
0.0
 10
312.9901234482316
 20
277.0178318364796
 30
0.0
 10
311.9641650689432
 20
276.8284913920581
 30
0.0
 10
311.4507887113128
 20
276.7385589296724
 30
0.0
 10
310.9372448407506
 20
276.653005200876
 30
0.0
  0
SPLINE
  5
1A3
330
1F
100
AcDbEntity
  8
1
100
AcDbSpline
210
0.0
220
0.0
230
1.0
 70
     8
 71
     3
 72
    16
 73
    12
 74
     0
 42
0.000000001
 43
0.0000000001
 40
0.0
 40
0.0
 40
0.0
 40
0.0
 40
0.2563938179238899
 40
0.2563938179238899
 40
0.5127876358477799
 40
0.5127876358477799
 40
0.6409845448097249
 40
0.6409845448097249
 40
0.7691814537716701
 40
0.7691814537716701
 40
1.0
 40
1.0
 40
1.0
 40
1.0
 10
310.9372448407506
 20
276.6530052008756
 30
0.0
 10
311.3635560070262
 20
276.7399521610894
 30
0.0
 10
311.7901568118632
 20
276.8279188680584
 30
0.0
 10
312.6430207913136
 20
277.0096907778184
 30
0.0
 10
313.0692788214729
 20
277.1035042782238
 30
0.0
 10
313.7076277734757
 20
277.2524641133232
 30
0.0
 10
313.920299863159
 20
277.3035168307352
 30
0.0
 10
314.3445392618845
 20
277.4089740665997
 30
0.0
 10
314.5561610742283
 20
277.4633908694827
 30
0.0
 10
315.1470923708222
 20
277.6215551506994
 30
0.0
 10
315.5250247205416
 20
277.7299055153681
 30
0.0
 10
315.9003263055197
 20
277.847262266614
 30
0.0
  0
SPLINE
  5
1A4
330
1F
100
AcDbEntity
  8
1
100
AcDbSpline
210
0.0
220
0.0
230
1.0
 70
     8
 71
     3
 72
    20
 73
    16
 74
     0
 42
0.000000001
 43
0.0000000001
 40
0.0
 40
0.0
 40
0.0
 40
0.0
 40
0.2499999999999993
 40
0.2499999999999993
 40
0.4999999999999988
 40
0.4999999999999988
 40
0.6249999999999984
 40
0.6249999999999984
 40
0.6562499999999984
 40
0.6562499999999984
 40
0.6874999999999984
 40
0.6874999999999984
 40
0.7499999999999983
 40
0.7499999999999983
 40
1.0
 40
1.0
 40
1.0
 40
1.0
 10
282.8043368819074
 20
280.9380116366103
 30
0.0
 10
283.108027278803
 20
281.1696447518382
 30
0.0
 10
283.4250417269479
 20
281.3833534214831
 30
0.0
 10
284.0863897744554
 20
281.7739831182555
 30
0.0
 10
284.4307187732433
 20
281.9509178684342
 30
0.0
 10
284.9689502012386
 20
282.186677579046
 30
0.0
 10
285.1519918817211
 20
282.2603083844377
 30
0.0
 10
285.3855320421848
 20
282.3458014631878
 30
0.0
 10
285.4324771732427
 20
282.3625724021548
 30
0.0
 10
285.5268474147999
 20
282.3954484712936
 30
0.0
 10
285.5742715085292
 20
282.4115525813254
 30
0.0
 10
285.7169277849283
 20
282.4587393556137
 30
0.0
 10
285.8126563185844
 20
282.4887365284865
 30
0.0
 10
286.294429597396
 20
282.6313196748749
 30
0.0
 10
286.6898535122331
 20
282.7217894018775
 30
0.0
 10
287.0955093648947
 20
282.7866699864543
 30
0.0
  0
SPLINE
  5
1A5
330
1F
100
AcDbEntity
  8
1
100
AcDbSpline
210
0.0
220
0.0
230
1.0
 70
     8
 71
     3
 72
    16
 73
    12
 74
     0
 42
0.000000001
 43
0.0000000001
 40
0.0
 40
0.0
 40
0.0
 40
0.0
 40
0.25
 40
0.25
 40
0.5
 40
0.5
 40
0.75
 40
0.75
 40
0.875
 40
0.875
 40
1.0
 40
1.0
 40
1.0
 40
1.0
 10
282.8043368819074
 20
280.9380116366103
 30
0.0
 10
282.5063509030958
 20
280.710729439768
 30
0.0
 10
282.2114909608891
 20
280.4745719607334
 30
0.0
 10
281.6288950249902
 20
279.981017561319
 30
0.0
 10
281.3411564140464
 20
279.7236345914355
 30
0.0
 10
280.773555515625
 20
279.1838299364152
 30
0.0
 10
280.4936883619348
 20
278.9014355241534
 30
0.0
 10
280.0803532059068
 20
278.4555300571089
 30
0.0
 10
279.9436527812719
 20
278.3031664886296
 30
0.0
 10
279.6725166824645
 20
277.9902107957349
 30
0.0
 10
279.538080595167
 20
277.8296213673166
 30
0.0
 10
279.4048419452963
 20
277.6644364817982
 30
0.0
  0
SPLINE
  5
1A6
330
1F
100
AcDbEntity
  8
1
100
AcDbSpline
210
0.0
220
0.0
230
1.0
 70
     8
 71
     3
 72
    30
 73
    26
 74
     0
 42
0.000000001
 43
0.0000000001
 40
0.0
 40
0.0
 40
0.0
 40
0.0
 40
0.1250000000000001
 40
0.1250000000000001
 40
0.2500000000000001
 40
0.2500000000000001
 40
0.3750000000000005
 40
0.3750000000000005
 40
0.4062500000000007
 40
0.4062500000000007
 40
0.4375000000000009
 40
0.4375000000000009
 40
0.5000000000000014
 40
0.5000000000000014
 40
0.6250000000000025
 40
0.6250000000000025
 40
0.7500000000000035
 40
0.7500000000000035
 40
0.8125000000000031
 40
0.8125000000000031
 40
0.8437500000000026
 40
0.8437500000000026
 40
0.8750000000000023
 40
0.8750000000000023
 40
1.0
 40
1.0
 40
1.0
 40
1.0
 10
279.4048419452967
 20
277.6644364817988
 30
0.0
 10
279.218139288891
 20
277.5505246724808
 30
0.0
 10
279.0394381365465
 20
277.4306384525453
 30
0.0
 10
278.6975326672803
 20
277.1798794328113
 30
0.0
 10
278.5343295109217
 20
277.0490047629469
 30
0.0
 10
278.2233843039616
 20
276.7768867049862
 30
0.0
 10
278.0756410723212
 20
276.6356430356389
 30
0.0
 10
277.9008927101364
 20
276.4528031631185
 30
0.0
 10
277.8664407831297
 20
276.4159201702738
 30
0.0
 10
277.798544182659
 20
276.3415259642179
 30
0.0
 10
277.7650528597619
 20
276.3039601466989
 30
0.0
 10
277.6665612156957
 20
276.1908447172892
 30
0.0
 10
277.6034994163541
 20
276.1148432349718
 30
0.0
 10
277.4219756087919
 20
275.8852127310884
 30
0.0
 10
277.3111565567137
 20
275.7299638192792
 30
0.0
 10
277.1096531823571
 20
275.4157635107944
 30
0.0
 10
277.0189683858098
 20
275.2568112319495
 30
0.0
 10
276.898301887332
 20
275.015929371939
 30
0.0
 10
276.8606445810096
 20
274.9352251311744
 30
0.0
 10
276.8080840915377
 20
274.8135816451128
 30
0.0
 10
276.7912185067264
 20
274.7729358775245
 30
0.0
 10
276.7588137340921
 20
274.6914521497206
 30
0.0
 10
276.7432793752126
 20
274.6506215183973
 30
0.0
 10
276.6692690995974
 20
274.4468670316815
 30
0.0
 10
276.6214699136755
 20
274.2844542622254
 30
0.0
 10
276.5851201632438
 20
274.1227952197805
 30
0.0
  0
SPLINE
  5
1A7
330
1F
100
AcDbEntity
  8
1
100
AcDbSpline
210
0.0
220
0.0
230
1.0
 70
     8
 71
     3
 72
    20
 73
    16
 74
     0
 42
0.000000001
 43
0.0000000001
 40
0.0
 40
0.0
 40
0.0
 40
0.0
 40
0.1249999999999669
 40
0.1249999999999669
 40
0.2499999999999338
 40
0.2499999999999338
 40
0.3749999999999007
 40
0.3749999999999007
 40
0.4999999999998678
 40
0.4999999999998678
 40
0.6249999999998347
 40
0.6249999999998347
 40
0.7499999999998015
 40
0.7499999999998015
 40
1.0
 40
1.0
 40
1.0
 40
1.0
 10
351.1301121258568
 20
297.252851720951
 30
0.0
 10
351.1263838198277
 20
297.2482452050629
 30
0.0
 10
351.1223101886863
 20
297.2440603732776
 30
0.0
 10
351.1135103796362
 20
297.2364889084172
 30
0.0
 10
351.1087324221402
 20
297.2330751639914
 30
0.0
 10
351.0987830741158
 20
297.2272319769416
 30
0.0
 10
351.0936313041767
 20
297.2247990337111
 30
0.0
 10
351.0829928667034
 20
297.2208623321041
 30
0.0
 10
351.0774545901445
 20
297.2193509928967
 30
0.0
 10
351.0662920227997
 20
297.2173346288659
 30
0.0
 10
351.0607090270067
 20
297.2168262450728
 30
0.0
 10
351.0495416770015
 20
297.2167572051142
 30
0.0
 10
351.0439295453072
 20
297.2172016174385
 30
0.0
 10
351.0272759469257
 20
297.2199710890235
 30
0.0
 10
351.0167738833601
 20
297.2236125738488
 30
0.0
 10
351.0068680511467
 20
297.2290276963422
 30
0.0
  0
SPLINE
  5
1A8
330
1F
100
AcDbEntity
  8
1
100
AcDbSpline
210
0.0
220
0.0
230
1.0
 70
     8
 71
     3
 72
    15
 73
    11
 74
     0
 42
0.000000001
 43
0.0000000001
 40
0.0
 40
0.0
 40
0.0
 40
0.0
 40
0.4251019130855821
 40
0.4251019130855821
 40
0.5313773913569737
 40
0.5313773913569737
 40
0.6376528696283656
 40
0.6376528696283656
 40
0.8502038261711348
 40
1.0
 40
1.0
 40
1.0
 40
1.0
 10
348.7258369169639
 20
297.7849776957638
 30
0.0
 10
348.7154589401805
 20
297.8262988296603
 30
0.0
 10
348.7099822120338
 20
297.8683024567968
 30
0.0
 10
348.7092626054293
 20
297.921650986576
 30
0.0
 10
348.7094312959612
 20
297.9323860374523
 30
0.0
 10
348.7103878466623
 20
297.9537007491891
 30
0.0
 10
348.7111740565535
 20
297.9643058514213
 30
0.0
 10
348.7144397083907
 20
297.9959671680274
 30
0.0
 10
348.7202078193917
 20
298.0316011503735
 30
0.0
 10
348.7294584291338
 20
298.0666436256062
 30
0.0
 10
348.7338918688262
 20
298.0810269235495
 30
0.0
  0
SPLINE
  5
1A9
330
1F
100
AcDbEntity
  8
1
100
AcDbSpline
210
0.0
220
0.0
230
1.0
 70
     8
 71
     3
 72
    14
 73
    10
 74
     0
 42
0.000000001
 43
0.0000000001
 40
0.0
 40
0.0
 40
0.0
 40
0.0
 40
0.0895974066222821
 40
0.0895974066222821
 40
0.2413311721852709
 40
0.2413311721852709
 40
0.3930649377482596
 40
0.3930649377482596
 40
1.0
 40
1.0
 40
1.0
 40
1.0
 10
351.2280126451149
 20
297.4367047756824
 30
0.0
 10
351.2261590298148
 20
297.4306911397894
 30
0.0
 10
351.2241992813518
 20
297.4246981994237
 30
0.0
 10
351.218632063592
 20
297.4086124620314
 30
0.0
 10
351.2148283541727
 20
297.3985796791946
 30
0.0
 10
351.2067066726797
 20
297.3788962902528
 30
0.0
 10
351.202378009825
 20
297.3692136918775
 30
0.0
 10
351.1794198808876
 20
297.3215821155277
 30
0.0
 10
351.1568974185993
 20
297.2859463423741
 30
0.0
 10
351.130112125857
 20
297.252851720951
 30
0.0
  0
SPLINE
  5
1AA
330
1F
100
AcDbEntity
  8
1
100
AcDbSpline
210
0.0
220
0.0
230
1.0
 70
     8
 71
     3
 72
    14
 73
    10
 74
     0
 42
0.000000001
 43
0.0000000001
 40
0.0
 40
0.0
 40
0.0
 40
0.0
 40
0.25
 40
0.25
 40
0.5
 40
0.5
 40
0.75
 40
0.75
 40
1.0
 40
1.0
 40
1.0
 40
1.0
 10
349.3602217577092
 20
298.7343514080832
 30
0.0
 10
349.3640480483747
 20
298.7285778505903
 30
0.0
 10
349.3672427095678
 20
298.7224105176803
 30
0.0
 10
349.3722326232746
 20
298.7095790822343
 30
0.0
 10
349.3740205927054
 20
298.7029654478825
 30
0.0
 10
349.3761675165114
 20
298.6893347657132
 30
0.0
 10
349.3765071960109
 20
298.6822834868466
 30
0.0
 10
349.3756487047763
 20
298.6683841000903
 30
0.0
 10
349.3744715650375
 20
298.6614605701795
 30
0.0
 10
349.3724810900261
 20
298.6545626355378
 30
0.0
  0
SPLINE
  5
1AB
330
1F
100
AcDbEntity
  8
1
100
AcDbSpline
210
0.0
220
0.0
230
1.0
 70
     8
 71
     3
 72
    12
 73
     8
 74
     0
 42
0.000000001
 43
0.0000000001
 40
0.0
 40
0.0
 40
0.0
 40
0.0
 40
0.3933323418453304
 40
0.3933323418453304
 40
0.7866646836906608
 40
0.7866646836906608
 40
1.0
 40
1.0
 40
1.0
 40
1.0
 10
349.3602217577086
 20
298.7343514080843
 30
0.0
 10
349.3571631914368
 20
298.7389665326945
 30
0.0
 10
349.3545166919426
 20
298.7438205877347
 30
0.0
 10
349.3501140787906
 20
298.7538245791474
 30
0.0
 10
349.3483424144171
 20
298.7589963660675
 30
0.0
 10
349.3462921552707
 20
298.7672418593433
 30
0.0
 10
349.3457045896706
 20
298.7701926622365
 30
0.0
 10
349.3452557873454
 20
298.7731650207132
 30
0.0
  0
SPLINE
  5
1AC
330
1F
100
AcDbEntity
  8
1
100
AcDbSpline
210
0.0
220
0.0
230
1.0
 70
     8
 71
     3
 72
    14
 73
    10
 74
     0
 42
0.000000001
 43
0.0000000001
 40
0.0
 40
0.0
 40
0.0
 40
0.0
 40
0.100505713217083
 40
0.100505713217083
 40
0.4003371421447221
 40
0.4003371421447221
 40
0.700168571072361
 40
0.700168571072361
 40
1.0
 40
1.0
 40
1.0
 40
1.0
 10
350.914035194996
 20
298.3279366014598
 30
0.0
 10
350.9147327075991
 20
298.3302014446608
 30
0.0
 10
350.9155096058128
 20
298.3324283168681
 30
0.0
 10
350.9189019421713
 20
298.3411124606432
 30
0.0
 10
350.9220978861876
 20
298.347225863202
 30
0.0
 10
350.9297619723708
 20
298.3586999058427
 30
0.0
 10
350.9342435149135
 20
298.3640406418262
 30
0.0
 10
350.9440732209967
 20
298.3734970465471
 30
0.0
 10
350.9494635222304
 20
298.3776834337627
 30
0.0
 10
350.955345028413
 20
298.3813109066337
 30
0.0
  0
SPLINE
  5
1AD
330
1F
100
AcDbEntity
  8
1
100
AcDbSpline
210
0.0
220
0.0
230
1.0
 70
     8
 71
     3
 72
     8
 73
     4
 74
     0
 42
0.000000001
 43
0.0000000001
 40
0.0
 40
0.0
 40
0.0
 40
0.0
 40
1.0
 40
1.0
 40
1.0
 40
1.0
 10
350.9741719140588
 20
298.3964853261276
 30
0.0
 10
350.9685755980373
 20
298.3906552364149
 30
0.0
 10
350.9622976748228
 20
298.385599015062
 30
0.0
 10
350.955345028413
 20
298.3813109066337
 30
0.0
  0
SPLINE
  5
1AE
330
1F
100
AcDbEntity
  8
1
100
AcDbSpline
210
0.0
220
0.0
230
1.0
 70
     8
 71
     3
 72
    22
 73
    18
 74
     0
 42
0.000000001
 43
0.0000000001
 40
0.0
 40
0.0
 40
0.0
 40
0.0
 40
0.125
 40
0.125
 40
0.25
 40
0.25
 40
0.375
 40
0.375
 40
0.5
 40
0.5
 40
0.625
 40
0.625
 40
0.75
 40
0.75
 40
0.875
 40
0.875
 40
1.0
 40
1.0
 40
1.0
 40
1.0
 10
349.4494622508429
 20
296.7385383431487
 30
0.0
 10
349.4468376914766
 20
296.7334471828777
 30
0.0
 10
349.4437999531593
 20
296.7285934193571
 30
0.0
 10
349.4370283316659
 20
296.7195143091313
 30
0.0
 10
349.4332825227258
 20
296.7152638554502
 30
0.0
 10
349.4250505508517
 20
296.7073586680522
 30
0.0
 10
349.4205585434831
 20
296.7037133562754
 30
0.0
 10
349.4111218856547
 20
296.6972905571844
 30
0.0
 10
349.4061426857847
 20
296.6944761995796
 30
0.0
 10
349.3956407515572
 20
296.6896776287643
 30
0.0
 10
349.3901352183071
 20
296.687712882317
 30
0.0
 10
349.3789599143875
 20
296.6847870269479
 30
0.0
 10
349.3732444456433
 20
296.6838027207542
 30
0.0
 10
349.3615442940769
 20
296.6828476866317
 30
0.0
 10
349.3556485451265
 20
296.6828916514544
 30
0.0
 10
349.3440134618084
 20
296.6840147671031
 30
0.0
 10
349.338235799393
 20
296.6850899307095
 30
0.0
 10
349.3325009247522
 20
296.6867120833885
 30
0.0
  0
SPLINE
  5
1AF
330
1F
100
AcDbEntity
  8
1
100
AcDbSpline
210
0.0
220
0.0
230
1.0
 70
     8
 71
     3
 72
    20
 73
    16
 74
     0
 42
0.000000001
 43
0.0000000001
 40
0.0
 40
0.0
 40
0.0
 40
0.0
 40
0.1249999999999855
 40
0.1249999999999855
 40
0.2499999999999709
 40
0.2499999999999709
 40
0.3749999999999564
 40
0.3749999999999564
 40
0.4999999999999419
 40
0.4999999999999419
 40
0.6249999999999273
 40
0.6249999999999273
 40
0.7499999999999128
 40
0.7499999999999128
 40
1.0
 40
1.0
 40
1.0
 40
1.0
 10
350.1171841308491
 20
296.5130421497556
 30
0.0
 10
350.1112991851379
 20
296.5139913540603
 30
0.0
 10
350.1056005284129
 20
296.5154566452871
 30
0.0
 10
350.0945561930961
 20
296.5193632542837
 30
0.0
 10
350.0891606161683
 20
296.5218362500329
 30
0.0
 10
350.0790132784513
 20
296.5276264662713
 30
0.0
 10
350.0742701233557
 20
296.5309238997587
 30
0.0
 10
350.06541273276
 20
296.5382821665202
 30
0.0
 10
350.0612657246923
 20
296.542384108407
 30
0.0
 10
350.0537920075418
 20
296.5511749075573
 30
0.0
 10
350.0504850190897
 20
296.5558243513385
 30
0.0
 10
350.0446865968603
 20
296.5656033997041
 30
0.0
 10
350.0421855806244
 20
296.5707590703154
 30
0.0
 10
350.036010305765
 20
296.5867980552125
 30
0.0
 10
350.0337479727609
 20
296.5978708171732
 30
0.0
 10
350.0333178900886
 20
296.6093165510543
 30
0.0
  0
SPLINE
  5
1B0
330
1F
100
AcDbEntity
  8
1
100
AcDbSpline
210
0.0
220
0.0
230
1.0
 70
     8
 71
     3
 72
    14
 73
    10
 74
     0
 42
0.000000001
 43
0.0000000001
 40
0.0
 40
0.0
 40
0.0
 40
0.0
 40
0.25
 40
0.25
 40
0.5
 40
0.5
 40
0.75
 40
0.75
 40
1.0
 40
1.0
 40
1.0
 40
1.0
 10
349.4494622508434
 20
296.7385383431496
 30
0.0
 10
349.4527456000799
 20
296.7449074340543
 30
0.0
 10
349.4566865434318
 20
296.7509265719357
 30
0.0
 10
349.4656911378771
 20
296.7619943877468
 30
0.0
 10
349.4707131198737
 20
296.767010013065
 30
0.0
 10
349.4818096931373
 20
296.7759948834812
 30
0.0
 10
349.4879243854259
 20
296.7799651968115
 30
0.0
 10
349.5007180658953
 20
296.7864469135618
 30
0.0
 10
349.5074539416078
 20
296.7890160637788
 30
0.0
 10
349.514560318596
 20
296.7908556513997
 30
0.0
  0
SPLINE
  5
1B1
330
1F
100
AcDbEntity
  8
1
100
AcDbSpline
210
0.0
220
0.0
230
1.0
 70
     8
 71
     3
 72
    14
 73
    10
 74
     0
 42
0.000000001
 43
0.0000000001
 40
0.0
 40
0.0
 40
0.0
 40
0.0
 40
0.25
 40
0.25
 40
0.5
 40
0.5
 40
0.75
 40
0.75
 40
1.0
 40
1.0
 40
1.0
 40
1.0
 10
349.9965951371191
 20
296.6841693424648
 30
0.0
 10
350.0022521580277
 20
296.6795020859172
 30
0.0
 10
350.0073613505879
 20
296.6742223101764
 30
0.0
 10
350.0162017030187
 20
296.6628996760264
 30
0.0
 10
350.0199588709244
 20
296.6568536828049
 30
0.0
 10
350.0261910148635
 20
296.6440137381283
 30
0.0
 10
350.0286427075883
 20
296.6372164773783
 30
0.0
 10
350.0320511307677
 20
296.6234842255931
 30
0.0
 10
350.0330489199152
 20
296.6164746190897
 30
0.0
 10
350.0333178900886
 20
296.6093165510543
 30
0.0
  0
SPLINE
  5
1B2
330
1F
100
AcDbEntity
  8
1
100
AcDbSpline
210
0.0
220
0.0
230
1.0
 70
     8
 71
     3
 72
    21
 73
    17
 74
     0
 42
0.000000001
 43
0.0000000001
 40
0.0
 40
0.0
 40
0.0
 40
0.0
 40
0.2499999999999828
 40
0.2499999999999828
 40
0.3124999999999791
 40
0.3124999999999791
 40
0.3749999999999756
 40
0.3749999999999756
 40
0.4999999999999741
 40
0.6249999999999727
 40
0.6249999999999727
 40
0.687499999999976
 40
0.687499999999976
 40
0.7499999999999791
 40
0.7499999999999791
 40
1.0
 40
1.0
 40
1.0
 40
1.0
 10
349.3325009247522
 20
296.6867120833885
 30
0.0
 10
349.2912497948089
 20
296.6983802775757
 30
0.0
 10
349.2519131590931
 20
296.7146423590937
 30
0.0
 10
349.2051389395917
 20
296.7407064122867
 30
0.0
 10
349.1958869560503
 20
296.7462231251232
 30
0.0
 10
349.1778344418102
 20
296.7577159750353
 30
0.0
 10
349.1690109887021
 20
296.7637033746913
 30
0.0
 10
349.1431379854646
 20
296.7823753065894
 30
0.0
 10
349.1102297514558
 20
296.8091592535158
 30
0.0
 10
349.0804782443045
 20
296.8396935252315
 30
0.0
 10
349.0593879276738
 20
296.864047666901
 30
0.0
 10
349.0525778186345
 20
296.8723942221745
 30
0.0
 10
349.0395430165157
 20
296.8893528096032
 30
0.0
 10
349.0332958687101
 20
296.8979902123548
 30
0.0
 10
349.0033871267276
 20
296.9419535079617
 30
0.0
 10
348.983654275099
 20
296.9795777634886
 30
0.0
 10
348.9682289973808
 20
297.0197205576305
 30
0.0
  0
SPLINE
  5
1B3
330
1F
100
AcDbEntity
  8
1
100
AcDbSpline
210
0.0
220
0.0
230
1.0
 70
     8
 71
     3
 72
    21
 73
    17
 74
     0
 42
0.000000001
 43
0.0000000001
 40
0.0
 40
0.0
 40
0.0
 40
0.0
 40
0.2499999999999393
 40
0.2499999999999393
 40
0.3124999999999439
 40
0.3124999999999439
 40
0.3749999999999487
 40
0.3749999999999487
 40
0.4999999999999591
 40
0.6249999999999697
 40
0.6249999999999697
 40
0.6874999999999733
 40
0.6874999999999733
 40
0.7499999999999769
 40
0.7499999999999769
 40
1.0
 40
1.0
 40
1.0
 40
1.0
 10
349.514560318596
 20
296.7908556513997
 30
0.0
 10
349.5557930533599
 20
296.8015293362565
 30
0.0
 10
349.5977227534745
 20
296.8073736507424
 30
0.0
 10
349.6510957296883
 20
296.8084931443848
 30
0.0
 10
349.6618189183027
 20
296.8084037106129
 30
0.0
 10
349.6833670178902
 20
296.8075773334606
 30
0.0
 10
349.6942178235927
 20
296.806835612623
 30
0.0
 10
349.726441353311
 20
296.8036574828839
 30
0.0
 10
349.7688198302751
 20
296.7968865425643
 30
0.0
 10
349.8100512934182
 20
296.7851602888235
 30
0.0
 10
349.8405375304422
 20
296.7744755142962
 30
0.0
 10
349.850662377092
 20
296.7705825938212
 30
0.0
 10
349.8705737396617
 20
296.7622315040022
 30
0.0
 10
349.8803424764306
 20
296.757783909735
 30
0.0
 10
349.9282858700169
 20
296.7342298315802
 30
0.0
 10
349.9637957793576
 20
296.7112300551165
 30
0.0
 10
349.9965951371191
 20
296.6841693424648
 30
0.0
  0
SPLINE
  5
1B4
330
1F
100
AcDbEntity
  8
1
100
AcDbSpline
210
0.0
220
0.0
230
1.0
 70
     8
 71
     3
 72
    10
 73
     6
 74
     0
 42
0.000000001
 43
0.0000000001
 40
0.0
 40
0.0
 40
0.0
 40
0.0
 40
0.7930309521487237
 40
0.7930309521487237
 40
1.0
 40
1.0
 40
1.0
 40
1.0
 10
348.9682289973808
 20
297.0197205576305
 30
0.0
 10
348.966081974079
 20
297.0253079782265
 30
0.0
 10
348.9644692607315
 20
297.0309990939797
 30
0.0
 10
348.9630729549792
 20
297.0382989279744
 30
0.0
 10
348.9628185261939
 20
297.0398204971696
 30
0.0
 10
348.9625989203346
 20
297.0413488697708
 30
0.0
  0
SPLINE
  5
1B5
330
1F
100
AcDbEntity
  8
1
100
AcDbSpline
210
0.0
220
0.0
230
1.0
 70
     8
 71
     3
 72
    21
 73
    17
 74
     0
 42
0.000000001
 43
0.0000000001
 40
0.0
 40
0.0
 40
0.0
 40
0.0
 40
0.2500000000000807
 40
0.2500000000000807
 40
0.3125000000000661
 40
0.3125000000000661
 40
0.3750000000000515
 40
0.3750000000000515
 40
0.5000000000000245
 40
0.6249999999999974
 40
0.6249999999999974
 40
0.6874999999999842
 40
0.6874999999999842
 40
0.7499999999999712
 40
0.7499999999999712
 40
1.0
 40
1.0
 40
1.0
 40
1.0
 10
350.5878210001768
 20
296.6612645164504
 30
0.0
 10
350.5568772178616
 20
296.631382468465
 30
0.0
 10
350.5229647321555
 20
296.6054706759863
 30
0.0
 10
350.4768659251416
 20
296.5780426874782
 30
0.0
 10
350.4674374512688
 20
296.5727990367222
 30
0.0
 10
350.4484150329126
 20
296.5629339696823
 30
0.0
 10
350.4387998348292
 20
296.5582983735115
 30
0.0
 10
350.4096479257222
 20
296.5452661623166
 30
0.0
 10
350.3699638412344
 20
296.5302164453163
 30
0.0
 10
350.3286609647179
 20
296.5197881808062
 30
0.0
 10
350.2970565211704
 20
296.513757965566
 30
0.0
 10
350.286436980349
 20
296.5120534247306
 30
0.0
 10
350.2652670189282
 20
296.5092851924421
 30
0.0
 10
350.2546834006272
 20
296.5082147923637
 30
0.0
 10
350.2017722075579
 20
296.5044031937931
 30
0.0
 10
350.1594647922615
 20
296.5062225480478
 30
0.0
 10
350.1171841308491
 20
296.5130421497556
 30
0.0
  0
SPLINE
  5
1B6
330
1F
100
AcDbEntity
  8
1
100
AcDbSpline
210
0.0
220
0.0
230
1.0
 70
     8
 71
     3
 72
     8
 73
     4
 74
     0
 42
0.000000001
 43
0.0000000001
 40
0.0
 40
0.0
 40
0.0
 40
0.0
 40
1.0
 40
1.0
 40
1.0
 40
1.0
 10
349.0536767046314
 20
297.2121841633083
 30
0.0
 10
349.0529147253811
 20
297.2073344601279
 30
0.0
 10
349.0518008087215
 20
297.202554451613
 30
0.0
 10
349.0503720198254
 20
297.1979152957116
 30
0.0
  0
SPLINE
  5
1B7
330
1F
100
AcDbEntity
  8
1
100
AcDbSpline
210
0.0
220
0.0
230
1.0
 70
     8
 71
     3
 72
    21
 73
    17
 74
     0
 42
0.000000001
 43
0.0000000001
 40
0.0
 40
0.0
 40
0.0
 40
0.0
 40
0.2500000000000021
 40
0.2500000000000021
 40
0.3125000000000108
 40
0.3125000000000108
 40
0.3750000000000195
 40
0.3750000000000195
 40
0.5000000000000372
 40
0.6250000000000544
 40
0.6250000000000544
 40
0.6875000000000507
 40
0.6875000000000507
 40
0.7500000000000469
 40
0.7500000000000469
 40
1.0
 40
1.0
 40
1.0
 40
1.0
 10
348.9047740371761
 20
297.6822854511116
 30
0.0
 10
348.9342873049146
 20
297.6523817278907
 30
0.0
 10
348.9600403052221
 20
297.6193794692642
 30
0.0
 10
348.9874690282834
 20
297.5740779989322
 30
0.0
 10
348.9927134778917
 20
297.5648127196753
 30
0.0
 10
349.0027047694206
 20
297.5458570304696
 30
0.0
 10
349.0074604938786
 20
297.5361417162591
 30
0.0
 10
349.020758397741
 20
297.5067807750132
 30
0.0
 10
349.0360549392804
 20
297.4668142281523
 30
0.0
 10
349.0465923508834
 20
297.4252447620046
 30
0.0
 10
349.0526796198425
 20
297.3934569568029
 30
0.0
 10
349.0544099454453
 20
297.3827201422131
 30
0.0
 10
349.0572243557628
 20
297.3612419365282
 30
0.0
 10
349.058308510361
 20
297.3505217031317
 30
0.0
 10
349.0621675788317
 20
297.2970092892388
 30
0.0
 10
349.0603222665332
 20
297.2544805941932
 30
0.0
 10
349.0536767046314
 20
297.2121841633083
 30
0.0
  0
SPLINE
  5
1B8
330
1F
100
AcDbEntity
  8
1
100
AcDbSpline
210
0.0
220
0.0
230
1.0
 70
     8
 71
     3
 72
    14
 73
    10
 74
     0
 42
0.000000001
 43
0.0000000001
 40
0.0
 40
0.0
 40
0.0
 40
0.0
 40
0.25
 40
0.25
 40
0.5
 40
0.5
 40
0.75
 40
0.75
 40
1.0
 40
1.0
 40
1.0
 40
1.0
 10
348.8278891411975
 20
297.7112899898868
 30
0.0
 10
348.8349538089138
 20
297.7117407742237
 30
0.0
 10
348.8420451102131
 20
297.7114481394665
 30
0.0
 10
348.8559521518685
 20
297.7094022873432
 30
0.0
 10
348.8627199861672
 20
297.7076678112304
 30
0.0
 10
348.875882721445
 20
297.7027586282638
 30
0.0
 10
348.8822976799207
 20
297.6995503624118
 30
0.0
 10
348.8941611133822
 20
297.6919004982901
 30
0.0
 10
348.8996871834942
 20
297.6874396029974
 30
0.0
 10
348.9047740371761
 20
297.6822854511116
 30
0.0
  0
SPLINE
  5
1B9
330
1F
100
AcDbEntity
  8
1
100
AcDbSpline
210
0.0
220
0.0
230
1.0
 70
     8
 71
     3
 72
    22
 73
    18
 74
     0
 42
0.000000001
 43
0.0000000001
 40
0.0
 40
0.0
 40
0.0
 40
0.0
 40
0.125
 40
0.125
 40
0.25
 40
0.25
 40
0.375
 40
0.375
 40
0.5
 40
0.5
 40
0.625
 40
0.625
 40
0.75
 40
0.75
 40
0.875
 40
0.875
 40
1.0
 40
1.0
 40
1.0
 40
1.0
 10
348.8278891411975
 20
297.7112899898868
 30
0.0
 10
348.8222417606445
 20
297.7109296402145
 30
0.0
 10
348.8165927136913
 20
297.7110453999508
 30
0.0
 10
348.8054879559746
 20
297.7121962566549
 30
0.0
 10
348.8000047981668
 20
297.713228687116
 30
0.0
 10
348.7891819606534
 20
297.7162337679305
 30
0.0
 10
348.7838471266105
 20
297.7182163683047
 30
0.0
 10
348.7736958711857
 20
297.7230144436695
 30
0.0
 10
348.7688308533709
 20
297.7258406253945
 30
0.0
 10
348.7595423242335
 20
297.7323840837081
 30
0.0
 10
348.7551436405822
 20
297.7360968400839
 30
0.0
 10
348.7471238446988
 20
297.7441768639022
 30
0.0
 10
348.7434602640569
 20
297.7485714496634
 30
0.0
 10
348.7368674371967
 20
297.7581098711693
 30
0.0
 10
348.7339943820976
 20
297.7631854957362
 30
0.0
 10
348.7292117239197
 20
297.773731691346
 30
0.0
 10
348.727279660697
 20
297.7792332420793
 30
0.0
 10
348.7258369169639
 20
297.7849776957638
 30
0.0
  0
SPLINE
  5
1BA
330
1F
100
AcDbEntity
  8
1
100
AcDbSpline
210
0.0
220
0.0
230
1.0
 70
     8
 71
     3
 72
    21
 73
    17
 74
     0
 42
0.000000001
 43
0.0000000001
 40
0.0
 40
0.0
 40
0.0
 40
0.0
 40
0.2500000000000714
 40
0.2500000000000714
 40
0.3125000000000816
 40
0.3125000000000816
 40
0.3750000000000919
 40
0.3750000000000919
 40
0.5000000000000736
 40
0.6250000000000551
 40
0.6250000000000551
 40
0.6875000000000461
 40
0.6875000000000461
 40
0.7500000000000368
 40
0.7500000000000368
 40
1.0
 40
1.0
 40
1.0
 40
1.0
 10
350.5920536528659
 20
296.8717030361141
 30
0.0
 10
350.6039445850355
 20
296.9128351695243
 30
0.0
 10
350.6202580713443
 20
296.9521250960579
 30
0.0
 10
350.6463205166242
 20
296.998930405733
 30
0.0
 10
350.6518202295477
 20
297.0081745480726
 30
0.0
 10
350.6634133199025
 20
297.0264222215222
 30
0.0
 10
350.6695238485764
 20
297.0354458418208
 30
0.0
 10
350.6884865205433
 20
297.0617479520547
 30
0.0
 10
350.7155930817941
 20
297.0950229402333
 30
0.0
 10
350.7462625365467
 20
297.1247869717717
 30
0.0
 10
350.7706246384381
 20
297.1457712483265
 30
0.0
 10
350.7790036927362
 20
297.152565471622
 30
0.0
 10
350.7960643220205
 20
297.1655741017857
 30
0.0
 10
350.8047278973837
 20
297.1717783504632
 30
0.0
 10
350.8486938501573
 20
297.2013518146022
 30
0.0
 10
350.8859120994089
 20
297.2204367991944
 30
0.0
 10
350.9251858039338
 20
297.2351180149824
 30
0.0
  0
SPLINE
  5
1BB
330
1F
100
AcDbEntity
  8
1
100
AcDbSpline
210
0.0
220
0.0
230
1.0
 70
     8
 71
     3
 72
    14
 73
    10
 74
     0
 42
0.000000001
 43
0.0000000001
 40
0.0
 40
0.0
 40
0.0
 40
0.0
 40
0.25
 40
0.25
 40
0.5
 40
0.5
 40
0.75
 40
0.75
 40
1.0
 40
1.0
 40
1.0
 40
1.0
 10
350.9251858039338
 20
297.2351180149824
 30
0.0
 10
350.9319594110189
 20
297.2376501109098
 30
0.0
 10
350.9389775356129
 20
297.2393986537643
 30
0.0
 10
350.9529706102648
 20
297.241318178473
 30
0.0
 10
350.9599622668792
 20
297.2415102600863
 30
0.0
 10
350.9739403527436
 20
297.2404072981527
 30
0.0
 10
350.9809162414928
 20
297.2390907171426
 30
0.0
 10
350.9942407582928
 20
297.2350953920241
 30
0.0
 10
351.0006729219461
 20
297.2324143258308
 30
0.0
 10
351.0068680511466
 20
297.2290276963422
 30
0.0
  0
SPLINE
  5
1C2
330
1F
100
AcDbEntity
  8
1
100
AcDbSpline
210
0.0
220
0.0
230
1.0
 70
     8
 71
     3
 72
    36
 73
    32
 74
     0
 42
0.000000001
 43
0.0000000001
 40
0.0
 40
0.0
 40
0.0
 40
0.0
 40
0.1250000000000221
 40
0.1250000000000221
 40
0.1875000000000395
 40
0.1875000000000395
 40
0.2187500000000482
 40
0.2187500000000482
 40
0.2500000000000568
 40
0.2500000000000568
 40
0.3750000000000621
 40
0.3750000000000621
 40
0.4062500000000541
 40
0.4062500000000541
 40
0.437500000000046
 40
0.437500000000046
 40
0.5000000000000268
 40
0.5000000000000268
 40
0.6249999999999853
 40
0.6249999999999853
 40
0.6562499999999755
 40
0.6562499999999755
 40
0.6874999999999658
 40
0.7499999999999789
 40
0.8124999999999921
 40
0.8124999999999921
 40
0.8437499999999987
 40
0.8437499999999987
 40
0.8750000000000053
 40
0.8750000000000053
 40
1.0
 40
1.0
 40
1.0
 40
1.0
 10
354.7016286938657
 20
302.0555786786156
 30
0.0
 10
354.6993557885322
 20
302.1064109185622
 30
0.0
 10
354.6919443395961
 20
302.1561354201284
 30
0.0
 10
354.673598125418
 20
302.2291637764533
 30
0.0
 10
354.6662678439694
 20
302.2532446655919
 30
0.0
 10
354.6534240203576
 20
302.2889675312949
 30
0.0
 10
354.6488205737826
 20
302.3008400303518
 30
0.0
 10
354.6390578162545
 20
302.3242781755015
 30
0.0
 10
354.6339051229833
 20
302.3358334073556
 30
0.0
 10
354.6068157707105
 20
302.3928088939793
 30
0.0
 10
354.5809407855178
 20
302.4358508822533
 30
0.0
 10
354.5434212389172
 20
302.4865278094099
 30
0.0
 10
354.5356561043773
 20
302.4965054468138
 30
0.0
 10
354.519595457216
 20
302.5161404382422
 30
0.0
 10
354.5112845765998
 20
302.525812686614
 30
0.0
 10
354.4858102311132
 20
302.554049159383
 30
0.0
 10
354.4680356428668
 20
302.5719283031323
 30
0.0
 10
354.4124023196952
 20
302.6228084364674
 30
0.0
 10
354.3722570552983
 20
302.6530796215797
 30
0.0
 10
354.318123225479
 20
302.6862001560764
 30
0.0
 10
354.3070830806269
 20
302.69259169701
 30
0.0
 10
354.2848407720926
 20
302.7047574912299
 30
0.0
 10
354.2511500077539
 20
302.7221335474669
 30
0.0
 10
354.1933900489589
 20
302.7468046454676
 30
0.0
 10
354.1454769154991
 20
302.7619952938901
 30
0.0
 10
354.108887052638
 20
302.7716419177214
 30
0.0
 10
354.0965810583929
 20
302.7745658533642
 30
0.0
 10
354.0717450725307
 20
302.7798165139889
 30
0.0
 10
354.0591988289115
 20
302.7821443577515
 30
0.0
 10
353.996489154724
 20
302.7921614298511
 30
0.0
 10
353.9459619656711
 20
302.7951397286241
 30
0.0
 10
353.895063756893
 20
302.792920589579
 30
0.0
  0
SPLINE
  5
1C3
330
1F
100
AcDbEntity
  8
1
100
AcDbSpline
210
0.0
220
0.0
230
1.0
 70
     8
 71
     3
 72
    36
 73
    32
 74
     0
 42
0.000000001
 43
0.0000000001
 40
0.0
 40
0.0
 40
0.0
 40
0.0
 40
0.124999999999933
 40
0.124999999999933
 40
0.187499999999899
 40
0.187499999999899
 40
0.218749999999882
 40
0.218749999999882
 40
0.2499999999998649
 40
0.2499999999998649
 40
0.3749999999998589
 40
0.3749999999998589
 40
0.4062499999998487
 40
0.4062499999998487
 40
0.4374999999998383
 40
0.4374999999998383
 40
0.499999999999843
 40
0.499999999999843
 40
0.6249999999998789
 40
0.6249999999998789
 40
0.6562499999998826
 40
0.6562499999998826
 40
0.6874999999998862
 40
0.7499999999999122
 40
0.8124999999999381
 40
0.8124999999999381
 40
0.8437499999999468
 40
0.8437499999999468
 40
0.8749999999999555
 40
0.8749999999999555
 40
1.0
 40
1.0
 40
1.0
 40
1.0
 10
345.9251718287903
 20
302.4454368806708
 30
0.0
 10
345.8742680125895
 20
302.4432174971447
 30
0.0
 10
345.8244786209603
 20
302.4358659221675
 30
0.0
 10
345.7513623358532
 20
302.417618455305
 30
0.0
 10
345.727253717899
 20
302.4103225914316
 30
0.0
 10
345.6914916640827
 20
302.3975326791346
 30
0.0
 10
345.6796064716713
 20
302.3929476351809
 30
0.0
 10
345.656143934702
 20
302.3832221852426
 30
0.0
 10
345.6445770129682
 20
302.3780883770594
 30
0.0
 10
345.5875455498621
 20
302.3510945805319
 30
0.0
 10
345.5444666203775
 20
302.3252996233823
 30
0.0
 10
345.4937531701462
 20
302.2878845241693
 30
0.0
 10
345.4837687153399
 20
302.2801405017989
 30
0.0
 10
345.4641210783172
 20
302.2641225311192
 30
0.0
 10
345.4544429953086
 20
302.2558332518031
 30
0.0
 10
345.4261906870586
 20
302.230423724252
 30
0.0
 10
345.4083031412455
 20
302.2126925613377
 30
0.0
 10
345.3574040881624
 20
302.1571901366308
 30
0.0
 10
345.3271286091259
 20
302.1171329616278
 30
0.0
 10
345.2940134649473
 20
302.0631103087542
 30
0.0
 10
345.2876235506682
 20
302.0520924787163
 30
0.0
 10
345.2754620663181
 20
302.0298944246573
 30
0.0
 10
345.2580940655983
 20
301.9962696540923
 30
0.0
 10
345.2334441080107
 20
301.9386178171047
 30
0.0
 10
345.2182788459881
 20
301.8907890899892
 30
0.0
 10
345.2086543675306
 20
301.8542617847
 30
0.0
 10
345.2057383452423
 20
301.8419765133423
 30
0.0
 10
345.200504599972
 20
301.8171817077589
 30
0.0
 10
345.1981857726433
 20
301.8046559461885
 30
0.0
 10
345.1882161172212
 20
301.7420470481619
 30
0.0
 10
345.1852834196675
 20
301.6915960254506
 30
0.0
 10
345.1875560746241
 20
301.6407693850418
 30
0.0
  0
SPLINE
  5
1C4
330
1F
100
AcDbEntity
  8
1
100
AcDbSpline
210
0.0
220
0.0
230
1.0
 70
     8
 71
     3
 72
    36
 73
    32
 74
     0
 42
0.000000001
 43
0.0000000001
 40
0.0
 40
0.0
 40
0.0
 40
0.0
 40
0.1250000000000815
 40
0.1250000000000815
 40
0.1875000000001223
 40
0.1875000000001223
 40
0.2187500000001427
 40
0.2187500000001427
 40
0.2500000000001631
 40
0.2500000000001631
 40
0.3750000000001799
 40
0.3750000000001799
 40
0.4062500000001779
 40
0.4062500000001779
 40
0.4375000000001758
 40
0.4375000000001758
 40
0.5000000000001449
 40
0.5000000000001449
 40
0.6250000000001063
 40
0.6250000000001063
 40
0.6562500000000931
 40
0.6562500000000931
 40
0.68750000000008
 40
0.7500000000000685
 40
0.812500000000057
 40
0.812500000000057
 40
0.843750000000047
 40
0.843750000000047
 40
0.8750000000000369
 40
0.8750000000000369
 40
1.0
 40
1.0
 40
1.0
 40
1.0
 10
354.3198764333003
 20
293.2922257822549
 30
0.0
 10
354.370780249501
 20
293.2944451657812
 30
0.0
 10
354.4205696411303
 20
293.3017967407582
 30
0.0
 10
354.4936859262374
 20
293.3200442076207
 30
0.0
 10
354.5177945441916
 20
293.3273400714942
 30
0.0
 10
354.553556598008
 20
293.340129983791
 30
0.0
 10
354.5654417904192
 20
293.3447150277448
 30
0.0
 10
354.5889043273886
 20
293.3544404776831
 30
0.0
 10
354.6004712491224
 20
293.3595742858664
 30
0.0
 10
354.6575027122285
 20
293.3865680823938
 30
0.0
 10
354.700581641713
 20
293.4123630395434
 30
0.0
 10
354.7512950919444
 20
293.4497781387565
 30
0.0
 10
354.7612795467507
 20
293.4575221611268
 30
0.0
 10
354.7809271837734
 20
293.4735401318067
 30
0.0
 10
354.790605266782
 20
293.4818294111226
 30
0.0
 10
354.818857575032
 20
293.5072389386738
 30
0.0
 10
354.836745120845
 20
293.524970101588
 30
0.0
 10
354.8876441739281
 20
293.5804725262948
 30
0.0
 10
354.9179196529645
 20
293.6205297012979
 30
0.0
 10
354.9510347971432
 20
293.6745523541716
 30
0.0
 10
354.9574247114223
 20
293.6855701842094
 30
0.0
 10
354.9695861957725
 20
293.7077682382683
 30
0.0
 10
354.9869541964921
 20
293.7413930088335
 30
0.0
 10
355.0116040502905
 20
293.7990448847247
 30
0.0
 10
355.0267694161024
 20
293.8468735729365
 30
0.0
 10
355.0363938945598
 20
293.8834008782258
 30
0.0
 10
355.0393099168483
 20
293.8956861495833
 30
0.0
 10
355.0445436621186
 20
293.9204809551668
 30
0.0
 10
355.0468624894472
 20
293.9330067167372
 30
0.0
 10
355.0568321448694
 20
293.9956156147638
 30
0.0
 10
355.059764842423
 20
294.0460666374751
 30
0.0
 10
355.0574921874664
 20
294.0968932778838
 30
0.0
  0
SPLINE
  5
1C5
330
1F
100
AcDbEntity
  8
1
100
AcDbSpline
210
0.0
220
0.0
230
1.0
 70
     8
 71
     3
 72
    36
 73
    32
 74
     0
 42
0.000000001
 43
0.0000000001
 40
0.0
 40
0.0
 40
0.0
 40
0.0
 40
0.1249999999999849
 40
0.1249999999999849
 40
0.1874999999999805
 40
0.1874999999999805
 40
0.2187499999999783
 40
0.2187499999999783
 40
0.2499999999999761
 40
0.2499999999999761
 40
0.3750000000000172
 40
0.3750000000000172
 40
0.4062500000000161
 40
0.4062500000000161
 40
0.4375000000000149
 40
0.4375000000000149
 40
0.5000000000000124
 40
0.5000000000000124
 40
0.6249999999999835
 40
0.6249999999999835
 40
0.6562499999999762
 40
0.6562499999999762
 40
0.687499999999969
 40
0.7499999999999546
 40
0.8124999999999399
 40
0.8124999999999399
 40
0.8437499999999332
 40
0.8437499999999332
 40
0.8749999999999262
 40
0.8749999999999262
 40
1.0
 40
1.0
 40
1.0
 40
1.0
 10
345.5434195682248
 20
293.6820839843102
 30
0.0
 10
345.5456924735583
 20
293.6312517443635
 30
0.0
 10
345.5531039224943
 20
293.5815272427974
 30
0.0
 10
345.5714501366725
 20
293.5084988864724
 30
0.0
 10
345.5787804181213
 20
293.4844179973338
 30
0.0
 10
345.5916242417329
 20
293.4486951316308
 30
0.0
 10
345.5962276883079
 20
293.436822632574
 30
0.0
 10
345.6059904458361
 20
293.4133844874242
 30
0.0
 10
345.6111431391073
 20
293.4018292555702
 30
0.0
 10
345.63823249138
 20
293.3448537689463
 30
0.0
 10
345.6641074765728
 20
293.3018117806724
 30
0.0
 10
345.7016270231733
 20
293.2511348535158
 30
0.0
 10
345.7093921577133
 20
293.2411572161118
 30
0.0
 10
345.7254528048745
 20
293.2215222246834
 30
0.0
 10
345.7337636854907
 20
293.2118499763117
 30
0.0
 10
345.7592380309774
 20
293.1836135035427
 30
0.0
 10
345.7770126192238
 20
293.1657343597933
 30
0.0
 10
345.8326459423954
 20
293.1148542264583
 30
0.0
 10
345.8727912067922
 20
293.084583041346
 30
0.0
 10
345.9269250366115
 20
293.0514625068493
 30
0.0
 10
345.9379651814637
 20
293.0450709659157
 30
0.0
 10
345.9602074899978
 20
293.0329051716958
 30
0.0
 10
345.9938982543366
 20
293.0155291154589
 30
0.0
 10
346.0516582131317
 20
292.990858017458
 30
0.0
 10
346.0995713465913
 20
292.9756673690356
 30
0.0
 10
346.1361612094525
 20
292.9660207452043
 30
0.0
 10
346.1484672036976
 20
292.9630968095616
 30
0.0
 10
346.1733031895598
 20
292.9578461489368
 30
0.0
 10
346.1858494331791
 20
292.9555183051742
 30
0.0
 10
346.2485591073665
 20
292.9455012330747
 30
0.0
 10
346.2990862964193
 20
292.9425229343017
 30
0.0
 10
346.3499845051976
 20
292.9447420733469
 30
0.0
  0
LINE
  5
1E0
330
1F
100
AcDbEntity
  8
SK4
100
AcDbLine
 10
210.904842
 20
288.907994
 30
0.0
 11
277.404842
 21
288.907994
 31
0.0
  0
LINE
  5
1E1
330
1F
100
AcDbEntity
  8
4
100
AcDbLine
 10
269.703832
 20
288.907994
 30
0.0
 11
359.12252
 21
288.907994
 31
0.0
  0
MTEXT
  5
1E7
330
1F
100
AcDbEntity
  8
SK6
100
AcDbMText
 10
258.520787
 20
241.27662
 30
0.0
 40
3.5
 41
0.0
 71
     7
 72
     5
  1
\W0.7022;802D-28-56-S32
  7
cesky
 73
     2
 44
0.8433729999999998
  0
MTEXT
  5
2F8
330
1F
100
AcDbEntity
  8
2
100
AcDbMText
 10
281.827842
 20
340.562135
 30
0.0
 40
3.5
 41
0.0
 71
     7
 72
     5
  1
\W0.9524;141
  7
cesky
 73
     2
 44
0.8433729999999998
  0
LINE
  5
2F9
330
1F
100
AcDbEntity
  8
2
100
AcDbLine
 10
355.404842
 20
304.907994
 30
0.0
 11
355.404842
 21
341.687968
 31
0.0
  0
LINE
  5
2FA
330
1F
100
AcDbEntity
  8
2
100
AcDbLine
 10
214.404842
 20
302.907994
 30
0.0
 11
214.404842
 21
341.687968
 31
0.0
  0
LINE
  5
2FB
330
1F
100
AcDbEntity
  8
2
100
AcDbLine
 10
355.404842
 20
340.687968
 30
0.0
 11
214.404842
 21
340.687968
 31
0.0
  0
SOLID
  5
2FC
330
1F
100
AcDbEntity
  8
2
100
AcDbTrace
 10
355.404842
 20
340.687968
 30
0.0
 11
351.904844
 21
340.070823
 31
0.0
 12
351.90484
 22
341.305112
 32
0.0
 13
351.90484
 23
341.305112
 33
0.0
  0
SOLID
  5
2FD
330
1F
100
AcDbEntity
  8
2
100
AcDbTrace
 10
214.404842
 20
340.687968
 30
0.0
 11
217.90484
 21
341.305112
 31
0.0
 12
217.904844
 22
340.070823
 32
0.0
 13
217.904844
 23
340.070823
 33
0.0
  0
MTEXT
  5
2FE
330
1F
100
AcDbEntity
  8
2
100
AcDbMText
 10
242.590342
 20
327.385163
 30
0.0
 40
3.5
 41
0.0
 71
     7
 72
     5
  1
\W0.7045;60
  7
cesky
 73
     2
 44
0.8433729999999998
  0
LINE
  5
2FF
330
1F
100
AcDbEntity
  8
2
100
AcDbLine
 10
274.404842
 20
288.907994
 30
0.0
 11
274.404842
 21
328.5109970000001
 31
0.0
  0
LINE
  5
300
330
1F
100
AcDbEntity
  8
2
100
AcDbLine
 10
214.404842
 20
302.907994
 30
0.0
 11
214.404842
 21
328.5109970000001
 31
0.0
  0
LINE
  5
301
330
1F
100
AcDbEntity
  8
2
100
AcDbLine
 10
274.404842
 20
327.510997
 30
0.0
 11
214.404842
 21
327.510997
 31
0.0
  0
SOLID
  5
302
330
1F
100
AcDbEntity
  8
2
100
AcDbTrace
 10
274.404842
 20
327.510997
 30
0.0
 11
270.904844
 21
326.893852
 31
0.0
 12
270.90484
 22
328.128141
 32
0.0
 13
270.90484
 23
328.128141
 33
0.0
  0
SOLID
  5
303
330
1F
100
AcDbEntity
  8
2
100
AcDbTrace
 10
214.404842
 20
327.510997
 30
0.0
 11
217.90484
 21
328.128141
 31
0.0
 12
217.904844
 22
326.893852
 32
0.0
 13
217.904844
 23
326.893852
 33
0.0
  0
MTEXT
  5
304
330
1F
100
AcDbEntity
  8
2
100
AcDbMText
 10
318.820782
 20
316.511754
 30
0.0
 40
3.5
 41
0.0
 71
     7
 72
     5
  1
\W0.8459;64,5
  7
cesky
 73
     2
 44
0.8433729999999998
  0
LINE
  5
305
330
1F
100
AcDbEntity
  8
2
100
AcDbLine
 10
355.404842
 20
304.907994
 30
0.0
 11
355.404842
 21
317.637587
 31
0.0
  0
LINE
  5
306
330
1F
100
AcDbEntity
  8
2
100
AcDbLine
 10
290.915721
 20
302.808119
 30
0.0
 11
290.915721
 21
317.637587
 31
0.0
  0
LINE
  5
307
330
1F
100
AcDbEntity
  8
2
100
AcDbLine
 10
355.404842
 20
316.637587
 30
0.0
 11
290.915721
 21
316.637587
 31
0.0
  0
SOLID
  5
308
330
1F
100
AcDbEntity
  8
2
100
AcDbTrace
 10
355.404842
 20
316.637587
 30
0.0
 11
351.904844
 21
316.020443
 31
0.0
 12
351.90484
 22
317.254732
 32
0.0
 13
351.90484
 23
317.254732
 33
0.0
  0
SOLID
  5
309
330
1F
100
AcDbEntity
  8
2
100
AcDbTrace
 10
290.915721
 20
316.637587
 30
0.0
 11
294.415719
 21
317.254732
 31
0.0
 12
294.415723
 22
316.020443
 32
0.0
 13
294.415723
 23
316.020443
 33
0.0
  0
MTEXT
  5
30A
330
1F
100
AcDbEntity
  8
2
100
AcDbMText
 10
372.095868
 20
287.374652
 30
0.0
 40
3.5
 41
0.0
 71
     7
 72
     5
  1
\W0.7045;28
  7
cesky
 11
0.0000000000000001
 21
1.0
 31
0.0
 73
     2
 44
0.8433729999999998
  0
MTEXT
  5
30B
330
1F
100
AcDbEntity
  8
2
100
AcDbMText
 10
372.095868
 20
280.637152
 30
0.0
 40
3.5
 41
0.0
 71
     7
 72
     5
  1
\W3.0115;\H2.63;%%c\H3.50;
  7
cesky
 11
0.0000000000000001
 21
1.0
 31
0.0
 73
     2
 44
0.8433729999999998
  0
LINE
  5
30C
330
1F
100
AcDbEntity
  8
2
100
AcDbLine
 10
357.404842
 20
302.907994
 30
0.0
 11
373.283285
 21
302.907994
 31
0.0
  0
LINE
  5
30D
330
1F
100
AcDbEntity
  8
2
100
AcDbLine
 10
372.283285
 20
302.907994
 30
0.0
 11
372.283285
 21
280.479652
 31
0.0
  0
SOLID
  5
30E
330
1F
100
AcDbEntity
  8
2
100
AcDbTrace
 10
372.283285
 20
302.907994
 30
0.0
 11
372.900429
 21
299.407996
 31
0.0
 12
371.66614
 22
299.407991
 32
0.0
 13
371.66614
 23
299.407991
 33
0.0
  0
MTEXT
  5
30F
330
1F
100
AcDbEntity
  8
2
100
AcDbMText
 10
313.090342
 20
327.385163
 30
0.0
 40
3.5
 41
0.0
 71
     7
 72
     5
  1
\W0.9581;81
  7
cesky
 73
     2
 44
0.8433729999999998
  0
LINE
  5
310
330
1F
100
AcDbEntity
  8
2
100
AcDbLine
 10
355.404842
 20
302.907994
 30
0.0
 11
355.404842
 21
328.5109970000001
 31
0.0
  0
LINE
  5
311
330
1F
100
AcDbEntity
  8
2
100
AcDbLine
 10
274.404842
 20
289.907567
 30
0.0
 11
274.404842
 21
328.5109970000001
 31
0.0
  0
LINE
  5
312
330
1F
100
AcDbEntity
  8
2
100
AcDbLine
 10
355.404842
 20
327.510997
 30
0.0
 11
274.404842
 21
327.510997
 31
0.0
  0
SOLID
  5
313
330
1F
100
AcDbEntity
  8
2
100
AcDbTrace
 10
355.404842
 20
327.510997
 30
0.0
 11
351.904844
 21
326.893852
 31
0.0
 12
351.90484
 22
328.128141
 32
0.0
 13
351.90484
 23
328.128141
 33
0.0
  0
SOLID
  5
314
330
1F
100
AcDbEntity
  8
2
100
AcDbTrace
 10
274.404842
 20
327.510997
 30
0.0
 11
277.90484
 21
328.128141
 31
0.0
 12
277.904844
 22
326.893852
 32
0.0
 13
277.904844
 23
326.893852
 33
0.0
  0
MTEXT
  5
315
330
1F
100
AcDbEntity
  8
SK2
100
AcDbMText
 10
203.850458
 20
290.434244
 30
0.0
 40
3.5
 41
0.0
 71
     7
 72
     5
  1
\W0.7045;32
  7
cesky
 11
0.0000000000000001
 21
1.0
 31
0.0
 73
     2
 44
0.8433729999999998
  0
MTEXT
  5
316
330
1F
100
AcDbEntity
  8
SK2
100
AcDbMText
 10
203.850458
 20
283.696744
 30
0.0
 40
3.5
 41
0.0
 71
     7
 72
     5
  1
\W3.0115;\H2.63;%%c\H3.50;
  7
cesky
 11
0.0000000000000001
 21
1.0
 31
0.0
 73
     2
 44
0.8433729999999998
  0
LINE
  5
317
330
1F
100
AcDbEntity
  8
SK2
100
AcDbLine
 10
216.404842
 20
304.907994
 30
0.0
 11
203.037875
 21
304.907994
 31
0.0
  0
LINE
  5
318
330
1F
100
AcDbEntity
  8
SK2
100
AcDbLine
 10
216.404842
 20
272.907994
 30
0.0
 11
203.037875
 21
272.907994
 31
0.0
  0
LINE
  5
319
330
1F
100
AcDbEntity
  8
SK2
100
AcDbLine
 10
204.037875
 20
304.907994
 30
0.0
 11
204.037875
 21
272.907994
 31
0.0
  0
SOLID
  5
31A
330
1F
100
AcDbEntity
  8
SK2
100
AcDbTrace
 10
204.037875
 20
304.907994
 30
0.0
 11
204.65502
 21
301.407996
 31
0.0
 12
203.420731
 22
301.407991
 32
0.0
 13
203.420731
 23
301.407991
 33
0.0
  0
SOLID
  5
31B
330
1F
100
AcDbEntity
  8
SK2
100
AcDbTrace
 10
204.037875
 20
272.907994
 30
0.0
 11
203.420731
 21
276.407991
 31
0.0
 12
204.65502
 22
276.407996
 32
0.0
 13
204.65502
 23
276.407996
 33
0.0
  0
MTEXT
  5
31C
330
1F
100
AcDbEntity
  8
SK2
100
AcDbMText
 10
191.10057
 20
290.434244
 30
0.0
 40
3.5
 41
0.0
 71
     7
 72
     5
  1
\W0.7045;42
  7
cesky
 11
0.0000000000000001
 21
1.0
 31
0.0
 73
     2
 44
0.8433729999999998
  0
MTEXT
  5
31D
330
1F
100
AcDbEntity
  8
SK2
100
AcDbMText
 10
191.10057
 20
283.696744
 30
0.0
 40
3.5
 41
0.0
 71
     7
 72
     5
  1
\W3.0115;\H2.63;%%c\H3.50;
  7
cesky
 11
0.0000000000000001
 21
1.0
 31
0.0
 73
     2
 44
0.8433729999999998
  0
LINE
  5
31E
330
1F
100
AcDbEntity
  8
SK2
100
AcDbLine
 10
274.904842
 20
309.907994
 30
0.0
 11
190.287987
 21
309.907994
 31
0.0
  0
LINE
  5
31F
330
1F
100
AcDbEntity
  8
SK2
100
AcDbLine
 10
274.904842
 20
267.907994
 30
0.0
 11
190.287987
 21
267.907994
 31
0.0
  0
LINE
  5
320
330
1F
100
AcDbEntity
  8
SK2
100
AcDbLine
 10
191.287987
 20
309.907994
 30
0.0
 11
191.287987
 21
267.907994
 31
0.0
  0
SOLID
  5
321
330
1F
100
AcDbEntity
  8
SK2
100
AcDbTrace
 10
191.287987
 20
309.907994
 30
0.0
 11
191.905131
 21
306.407996
 31
0.0
 12
190.670842
 22
306.407991
 32
0.0
 13
190.670842
 23
306.407991
 33
0.0
  0
SOLID
  5
322
330
1F
100
AcDbEntity
  8
SK2
100
AcDbTrace
 10
191.287987
 20
267.907994
 30
0.0
 11
190.670842
 21
271.4079910000001
 31
0.0
 12
191.905131
 22
271.407996
 32
0.0
 13
191.905131
 23
271.407996
 33
0.0
  0
LINE
  5
323
330
1F
100
AcDbEntity
  8
CUT
100
AcDbLine
 10
353.895063756893
 20
302.9043062618901
 30
0.0
 11
345.9251718287903
 21
302.5400568597496
 31
0.0
  0
LINE
  5
326
330
1F
100
AcDbEntity
  8
CUT
100
AcDbLine
 10
355.2974360653503
 20
295.8831879626114
 30
0.0
 11
354.9583693143069
 21
296.4474361449548
 31
0.0
  0
LINE
  5
327
330
1F
100
AcDbEntity
  8
CUT
100
AcDbLine
 10
355.4048419452958
 20
289.7352586122853
 30
0.0
 11
355.2974360653503
 21
295.8831879626114
 31
0.0
  0
LINE
  5
328
330
1F
100
AcDbEntity
  8
CUT
100
AcDbLine
 10
354.9583693143069
 20
296.4474361449548
 30
0.0
 11
354.7016286938658
 21
302.1695058807888
 31
0.0
  0
LINE
  5
329
330
1F
100
AcDbEntity
  8
CUT
100
AcDbLine
 10
345.187556
 20
288.907994
 30
0.0
 11
355.404842
 21
288.907994
 31
0.0
  0
LINE
  5
32A
330
1F
100
AcDbEntity
  8
CUT
100
AcDbLine
 10
345.187556
 20
301.734148
 30
0.0
 11
345.187556
 21
288.907994
 31
0.0
  0
LINE
  5
32B
330
1F
100
AcDbEntity
  8
CUT
100
AcDbLine
 10
355.404842
 20
288.907994
 30
0.0
 11
355.404842
 21
289.735259
 31
0.0
  0
ARC
  5
32C
330
1F
100
AcDbEntity
  8
CUT
100
AcDbCircle
 10
353.9226278507482
 20
302.1248358541829
 30
0.0
 40
0.780280542404247
100
AcDbArc
 50
3.281901775499854
 51
89.25578714852354
  0
ARC
  5
32D
330
1F
100
AcDbEntity
  8
CUT
100
AcDbCircle
 10
353.9282343140779
 20
302.1793254431359
 30
0.0
 40
0.7257392599449675
100
AcDbArc
 50
89.64249767081332
 51
92.61966710316858
  0
ARC
  5
32E
330
1F
100
AcDbEntity
  8
CUT
100
AcDbCircle
 10
345.969387396626
 20
301.7585010526384
 30
0.0
 40
0.7828055288948664
100
AcDbArc
 50
93.23798738887482
 51
177.6392966481147
  0
ARC
  5
32F
330
1F
100
AcDbEntity
  8
CUT
100
AcDbCircle
 10
345.9103495237688
 20
301.7664043790117
 30
0.0
 40
0.7235128581697874
100
AcDbArc
 50
178.0720663451386
 51
182.5552796528113
  0
ENDSEC
  0
SECTION
  2
OBJECTS
  0
DICTIONARY
  5
C
330
0
100
AcDbDictionary
281
     1
  3
ACAD_CIP_PREVIOUS_PRODUCT_INFO
350
2F5
  3
ACAD_COLOR
350
2F0
  3
ACAD_DETAILVIEWSTYLE
350
2EC
  3
ACAD_GROUP
350
D
  3
ACAD_LAYOUT
350
1A
  3
ACAD_MATERIAL
350
43
  3
ACAD_MLEADERSTYLE
350
6B
  3
ACAD_MLINESTYLE
350
17
  3
ACAD_PLOTSETTINGS
350
19
  3
ACAD_PLOTSTYLENAME
350
E
  3
ACAD_SCALELIST
350
47
  3
ACAD_SECTIONVIEWSTYLE
350
2ED
  3
ACAD_TABLESTYLE
350
69
  3
ACAD_VISUALSTYLE
350
2A
  3
ACDB_RECOMPOSE_DATA
350
35B
  3
AcDbVariableDictionary
350
2A9
  0
DICTIONARY
  5
33E
330
10
100
AcDbDictionary
280
     1
281
     1
  3
ADSK_XREC_LAYER_RECONCILED
360
33F
  0
DICTIONARY
  5
340
330
330
100
AcDbDictionary
280
     1
281
     1
  3
ADSK_XREC_LAYER_RECONCILED
360
341
  0
DICTIONARY
  5
342
330
331
100
AcDbDictionary
280
     1
281
     1
  3
ADSK_XREC_LAYER_RECONCILED
360
343
  0
DICTIONARY
  5
344
330
332
100
AcDbDictionary
280
     1
281
     1
  3
ADSK_XREC_LAYER_RECONCILED
360
345
  0
DICTIONARY
  5
346
330
334
100
AcDbDictionary
280
     1
281
     1
  3
ADSK_XREC_LAYER_RECONCILED
360
347
  0
DICTIONARY
  5
348
330
335
100
AcDbDictionary
280
     1
281
     1
  3
ADSK_XREC_LAYER_RECONCILED
360
349
  0
DICTIONARY
  5
34A
330
337
100
AcDbDictionary
280
     1
281
     1
  3
ADSK_XREC_LAYER_RECONCILED
360
34B
  0
DICTIONARY
  5
34C
330
338
100
AcDbDictionary
280
     1
281
     1
  3
ADSK_XREC_LAYER_RECONCILED
360
34D
  0
DICTIONARY
  5
34E
330
339
100
AcDbDictionary
280
     1
281
     1
  3
ADSK_XREC_LAYER_RECONCILED
360
34F
  0
DICTIONARY
  5
350
330
33A
100
AcDbDictionary
280
     1
281
     1
  3
ADSK_XREC_LAYER_RECONCILED
360
351
  0
DICTIONARY
  5
352
330
33B
100
AcDbDictionary
280
     1
281
     1
  3
ADSK_XREC_LAYER_RECONCILED
360
353
  0
DICTIONARY
  5
354
330
33C
100
AcDbDictionary
280
     1
281
     1
  3
ADSK_XREC_LAYER_RECONCILED
360
355
  0
DICTIONARY
  5
2F6
330
1F
100
AcDbDictionary
280
     1
281
     1
  3
ACAD_SORTENTS
360
2F7
  0
XRECORD
  5
2F5
102
{ACAD_REACTORS
330
C
102
}
330
C
100
AcDbXrecord
280
     1
300
ACD
300
2019
300
87084ACD_2019_0F
  0
DICTIONARY
  5
2F0
102
{ACAD_REACTORS
330
C
102
}
330
C
100
AcDbDictionary
281
     1
  0
DICTIONARY
  5
2EC
102
{ACAD_REACTORS
330
C
102
}
330
C
100
AcDbDictionary
281
     1
  3
Metric50
350
2F2
  0
DICTIONARY
  5
D
102
{ACAD_REACTORS
330
C
102
}
330
C
100
AcDbDictionary
281
     1
  3
NULOVY_BOD
350
33D
  0
DICTIONARY
  5
1A
102
{ACAD_REACTORS
330
C
102
}
330
C
100
AcDbDictionary
281
     1
  3
Layout1
350
1E
  3
Layout2
350
26
  3
Model
350
22
  0
DICTIONARY
  5
43
102
{ACAD_REACTORS
330
C
102
}
330
C
100
AcDbDictionary
281
     1
  3
ByBlock
350
45
  3
ByLayer
350
44
  3
Global
350
46
  0
DICTIONARY
  5
6B
102
{ACAD_REACTORS
330
C
102
}
330
C
100
AcDbDictionary
281
     1
  3
Standard
350
6C
  0
DICTIONARY
  5
17
102
{ACAD_REACTORS
330
C
102
}
330
C
100
AcDbDictionary
281
     1
  3
Standard
350
18
  0
DICTIONARY
  5
19
102
{ACAD_REACTORS
330
C
102
}
330
C
100
AcDbDictionary
281
     1
  0
ACDBDICTIONARYWDFLT
  5
E
102
{ACAD_REACTORS
330
C
102
}
330
C
100
AcDbDictionary
281
     1
  3
Normal
350
F
100
AcDbDictionaryWithDefault
340
F
  0
DICTIONARY
  5
47
102
{ACAD_REACTORS
330
C
102
}
330
C
100
AcDbDictionary
281
     1
  3
A0
350
48
  3
A1
350
49
  3
A2
350
4A
  3
A3
350
4B
  3
A4
350
4C
  3
A5
350
4D
  3
A6
350
4E
  3
A7
350
4F
  3
A8
350
50
  3
A9
350
51
  3
B0
350
52
  3
B1
350
53
  3
B2
350
54
  3
B3
350
55
  3
B4
350
56
  3
B5
350
57
  3
B6
350
58
  3
B7
350
59
  3
B8
350
5A
  3
B9
350
5B
  3
C0
350
5C
  3
C1
350
5D
  3
C2
350
5E
  3
C3
350
5F
  3
C4
350
60
  3
C5
350
61
  3
C6
350
62
  3
C7
350
63
  3
C8
350
64
  3
C9
350
65
  3
D0
350
66
  3
D1
350
67
  3
D2
350
68
  0
DICTIONARY
  5
2ED
102
{ACAD_REACTORS
330
C
102
}
330
C
100
AcDbDictionary
281
     1
  3
Metric50
350
2F1
  0
DICTIONARY
  5
69
102
{ACAD_REACTORS
330
C
102
}
330
C
100
AcDbDictionary
281
     1
  3
Standard
350
6A
  0
DICTIONARY
  5
2A
102
{ACAD_REACTORS
330
C
102
}
330
C
100
AcDbDictionary
281
     1
  3
2dWireframe
350
2F
  3
Basic
350
32
  3
Brighten
350
36
  3
ColorChange
350
3A
  3
Conceptual
350
34
  3
Dim
350
35
  3
EdgeColorOff
350
3D
  3
Facepattern
350
39
  3
Flat
350
2B
  3
FlatWithEdges
350
2C
  3
Gouraud
350
2D
  3
GouraudWithEdges
350
2E
  3
Hidden
350
31
  3
JitterOff
350
3B
  3
Linepattern
350
38
  3
OverhangOff
350
3C
  3
Realistic
350
33
  3
Shaded
350
42
  3
Shaded with edges
350
41
  3
Shades of Gray
350
3E
  3
Sketchy
350
3F
  3
Thicken
350
37
  3
Wireframe
350
30
  3
X-Ray
350
40
  0
XRECORD
  5
35B
102
{ACAD_REACTORS
330
C
102
}
330
C
100
AcDbXrecord
280
     1
 90
        1
330
6A
  0
DICTIONARY
  5
2A9
102
{ACAD_REACTORS
330
C
102
}
330
C
100
AcDbDictionary
281
     1
  3
CANNOSCALE
350
2AA
  3
CMLEADERSTYLE
350
2EB
  3
CTABLESTYLE
350
2EA
  3
CVIEWDETAILSTYLE
350
356
  3
CVIEWSECTIONSTYLE
350
357
  3
MSLTSCALE
350
2AB
  3
XCLIPFRAME
350
358
  0
XRECORD
  5
33F
102
{ACAD_REACTORS
330
33E
102
}
330
33E
100
AcDbXrecord
280
     1
290
     1
  0
XRECORD
  5
341
102
{ACAD_REACTORS
330
340
102
}
330
340
100
AcDbXrecord
280
     1
290
     1
  0
XRECORD
  5
343
102
{ACAD_REACTORS
330
342
102
}
330
342
100
AcDbXrecord
280
     1
290
     1
  0
XRECORD
  5
345
102
{ACAD_REACTORS
330
344
102
}
330
344
100
AcDbXrecord
280
     1
290
     1
  0
XRECORD
  5
347
102
{ACAD_REACTORS
330
346
102
}
330
346
100
AcDbXrecord
280
     1
290
     1
  0
XRECORD
  5
349
102
{ACAD_REACTORS
330
348
102
}
330
348
100
AcDbXrecord
280
     1
290
     1
  0
XRECORD
  5
34B
102
{ACAD_REACTORS
330
34A
102
}
330
34A
100
AcDbXrecord
280
     1
290
     1
  0
XRECORD
  5
34D
102
{ACAD_REACTORS
330
34C
102
}
330
34C
100
AcDbXrecord
280
     1
290
     1
  0
XRECORD
  5
34F
102
{ACAD_REACTORS
330
34E
102
}
330
34E
100
AcDbXrecord
280
     1
290
     1
  0
XRECORD
  5
351
102
{ACAD_REACTORS
330
350
102
}
330
350
100
AcDbXrecord
280
     1
290
     1
  0
XRECORD
  5
353
102
{ACAD_REACTORS
330
352
102
}
330
352
100
AcDbXrecord
280
     1
290
     1
  0
XRECORD
  5
355
102
{ACAD_REACTORS
330
354
102
}
330
354
100
AcDbXrecord
280
     1
290
     1
  0
SORTENTSTABLE
  5
2F7
102
{ACAD_REACTORS
330
2F6
102
}
330
2F6
100
AcDbSortentsTable
330
1F
331
2F8
  5
24B
331
2F9
  5
264
331
2FA
  5
2F8
331
2FB
  5
2F9
331
2FC
  5
2FA
331
2FD
  5
2FB
331
2FE
  5
2FC
331
2FF
  5
2FD
331
300
  5
2FE
331
301
  5
2FF
331
302
  5
300
331
303
  5
301
331
304
  5
302
331
305
  5
303
331
306
  5
304
331
307
  5
305
331
308
  5
306
331
309
  5
307
331
30A
  5
308
331
30B
  5
309
331
30C
  5
30A
331
30D
  5
30B
331
30E
  5
30C
331
30F
  5
31D
331
310
  5
31E
331
311
  5
31F
331
312
  5
320
331
313
  5
321
331
314
  5
322
331
315
  5
30F
331
316
  5
310
331
317
  5
311
331
318
  5
312
331
319
  5
313
331
31A
  5
314
331
31B
  5
315
331
31C
  5
316
331
31D
  5
317
331
31E
  5
318
331
31F
  5
319
331
320
  5
31A
331
321
  5
31B
331
322
  5
31C
331
326
  5
32A
331
327
  5
32B
331
328
  5
32C
331
329
  5
32D
331
32A
  5
32E
331
32B
  5
32F
331
32C
  5
326
331
32D
  5
327
331
32E
  5
328
331
32F
  5
329
  0
ACDBDETAILVIEWSTYLE
  5
2F2
102
{ACAD_XDICTIONARY
360
38F
102
}
102
{ACAD_REACTORS
330
2EC
102
}
330
2EC
100
AcDbModelDocViewStyle
 70
     0
  3
Metric50
290
     0
100
AcDbDetailViewStyle
 70
     0
 71
     0
 90
        3
 71
     1
340
11
 62
   256
 40
5.0
340
0
 62
   256
 40
5.0
300

 40
0.0
280
     1
 71
     2
340
16
 90
       25
 62
   256
 71
     3
340
11
 62
   256
 40
5.0
 90
        0
 40
15.0
 90
        1
300
%<\AcVar ViewDetailId>% (%<\AcVar ViewScale \f "%sn">%)
 71
     4
340
16
 90
       25
 62
   256
340
16
 90
       25
 62
   256
280
     0
  0
GROUP
  5
33D
102
{ACAD_REACTORS
330
D
102
}
330
D
100
AcDbGroup
300

 70
     0
 71
     1
340
73
  0
LAYOUT
  5
1E
102
{ACAD_REACTORS
330
1A
102
}
330
1A
100
AcDbPlotSettings
  1

  2
none_device
  4

  6

 40
0.0
 41
0.0
 42
0.0
 43
0.0
 44
0.0
 45
0.0
 46
0.0
 47
0.0
 48
0.0
 49
0.0
140
0.0
141
0.0
142
1.0
143
1.0
 70
   688
 72
     0
 73
     0
 74
     5
  7

 75
    16
147
1.0
 76
     0
 77
     2
 78
   300
148
0.0
149
0.0
100
AcDbLayout
  1
Layout1
 70
     1
 71
     1
 10
-0.5
 20
-0.5
 11
5.0
 21
5.0
 12
0.0
 22
0.0
 32
0.0
 14
-0.5
 24
-0.5
 34
-0.5
 15
5.0
 25
5.0
 35
5.0
146
0.0
 13
0.0
 23
0.0
 33
0.0
 16
1.0
 26
0.0
 36
0.0
 17
0.0
 27
1.0
 37
0.0
 76
     0
330
1B
  0
LAYOUT
  5
26
102
{ACAD_REACTORS
330
1A
102
}
330
1A
100
AcDbPlotSettings
  1

  2
none_device
  4

  6

 40
0.0
 41
0.0
 42
0.0
 43
0.0
 44
0.0
 45
0.0
 46
0.0
 47
0.0
 48
0.0
 49
0.0
140
0.0
141
0.0
142
1.0
143
1.0
 70
   688
 72
     0
 73
     0
 74
     5
  7

 75
    16
147
1.0
 76
     0
 77
     2
 78
   300
148
0.0
149
0.0
100
AcDbLayout
  1
Layout2
 70
     1
 71
     2
 10
0.0
 20
0.0
 11
0.0
 21
0.0
 12
0.0
 22
0.0
 32
0.0
 14
0.0
 24
0.0
 34
0.0
 15
0.0
 25
0.0
 35
0.0
146
0.0
 13
0.0
 23
0.0
 33
0.0
 16
1.0
 26
0.0
 36
0.0
 17
0.0
 27
1.0
 37
0.0
 76
     0
330
23
  0
LAYOUT
  5
22
102
{ACAD_REACTORS
330
1A
102
}
330
1A
100
AcDbPlotSettings
  1

  2
none_device
  4
Letter_(8.50_x_11.00_Inches)
  6

 40
6.349999999999999
 41
6.349999999999999
 42
6.350005
 43
6.350005
 44
215.9
 45
279.4
 46
0.0
 47
0.0
 48
0.0
 49
0.0
140
0.0
141
0.0
142
1.0
143
1.0
 70
  1712
 72
     0
 73
     0
 74
     0
  7

 75
     0
147
1.0
 76
     0
 77
     2
 78
   300
148
0.0
149
0.0
100
AcDbLayout
  1
Model
 70
     1
 71
     0
 10
-0.5
 20
-0.5
 11
5.0
 21
5.0
 12
0.0
 22
0.0
 32
0.0
 14
-0.5
 24
-0.5
 34
-0.5
 15
5.0
 25
5.0
 35
5.0
146
0.0
 13
0.0
 23
0.0
 33
0.0
 16
1.0
 26
0.0
 36
0.0
 17
0.0
 27
1.0
 37
0.0
 76
     0
330
1F
331
29
  0
MATERIAL
  5
45
102
{ACAD_XDICTIONARY
360
2DF
102
}
102
{ACAD_REACTORS
330
43
102
}
330
43
100
AcDbMaterial
  1
ByBlock
  0
MATERIAL
  5
44
102
{ACAD_XDICTIONARY
360
2DD
102
}
102
{ACAD_REACTORS
330
43
102
}
330
43
100
AcDbMaterial
  1
ByLayer
  0
MATERIAL
  5
46
102
{ACAD_XDICTIONARY
360
2E1
102
}
102
{ACAD_REACTORS
330
43
102
}
330
43
100
AcDbMaterial
  1
Global
  0
MLEADERSTYLE
  5
6C
102
{ACAD_REACTORS
330
6B
102
}
330
6B
100
AcDbMLeaderStyle
170
     2
171
     1
172
     0
 90
        2
 40
0.0
 41
0.0
173
     1
 91
-1056964608
340
14
 92
       -2
290
     1
 42
0.09
291
     1
 43
0.36
  3
Standard
 44
0.18
300

342
11
174
     1
178
     6
175
     1
176
     0
 93
-1056964608
 45
0.18
292
     0
297
     0
 46
0.18
 94
-1056964608
 47
1.0
 49
1.0
140
1.0
293
     1
141
0.0
294
     1
177
     0
142
1.0
295
     0
296
     0
143
0.125
1001
ACAD_MLEADERVER
1070
     2
  0
MLINESTYLE
  5
18
102
{ACAD_REACTORS
330
17
102
}
330
17
100
AcDbMlineStyle
  2
STANDARD
 70
     0
  3

 62
   256
 51
90.0
 52
90.0
 71
     2
 49
0.5
 62
   256
  6
BYLAYER
 49
-0.5
 62
   256
  6
BYLAYER
  0
ACDBPLACEHOLDER
  5
F
102
{ACAD_REACTORS
330
E
102
}
330
E
  0
SCALE
  5
48
102
{ACAD_REACTORS
330
47
102
}
330
47
100
AcDbScale
 70
     0
300
1:1
140
1.0
141
1.0
290
     1
  0
SCALE
  5
49
102
{ACAD_REACTORS
330
47
102
}
330
47
100
AcDbScale
 70
     0
300
1:2
140
1.0
141
2.0
290
     0
  0
SCALE
  5
4A
102
{ACAD_REACTORS
330
47
102
}
330
47
100
AcDbScale
 70
     0
300
1:4
140
1.0
141
4.0
290
     0
  0
SCALE
  5
4B
102
{ACAD_REACTORS
330
47
102
}
330
47
100
AcDbScale
 70
     0
300
1:5
140
1.0
141
5.0
290
     0
  0
SCALE
  5
4C
102
{ACAD_REACTORS
330
47
102
}
330
47
100
AcDbScale
 70
     0
300
1:8
140
1.0
141
8.0
290
     0
  0
SCALE
  5
4D
102
{ACAD_REACTORS
330
47
102
}
330
47
100
AcDbScale
 70
     0
300
1:10
140
1.0
141
10.0
290
     0
  0
SCALE
  5
4E
102
{ACAD_REACTORS
330
47
102
}
330
47
100
AcDbScale
 70
     0
300
1:16
140
1.0
141
16.0
290
     0
  0
SCALE
  5
4F
102
{ACAD_REACTORS
330
47
102
}
330
47
100
AcDbScale
 70
     0
300
1:20
140
1.0
141
20.0
290
     0
  0
SCALE
  5
50
102
{ACAD_REACTORS
330
47
102
}
330
47
100
AcDbScale
 70
     0
300
1:30
140
1.0
141
30.0
290
     0
  0
SCALE
  5
51
102
{ACAD_REACTORS
330
47
102
}
330
47
100
AcDbScale
 70
     0
300
1:40
140
1.0
141
40.0
290
     0
  0
SCALE
  5
52
102
{ACAD_REACTORS
330
47
102
}
330
47
100
AcDbScale
 70
     0
300
1:50
140
1.0
141
50.0
290
     0
  0
SCALE
  5
53
102
{ACAD_REACTORS
330
47
102
}
330
47
100
AcDbScale
 70
     0
300
1:100
140
1.0
141
100.0
290
     0
  0
SCALE
  5
54
102
{ACAD_REACTORS
330
47
102
}
330
47
100
AcDbScale
 70
     0
300
2:1
140
2.0
141
1.0
290
     0
  0
SCALE
  5
55
102
{ACAD_REACTORS
330
47
102
}
330
47
100
AcDbScale
 70
     0
300
4:1
140
4.0
141
1.0
290
     0
  0
SCALE
  5
56
102
{ACAD_REACTORS
330
47
102
}
330
47
100
AcDbScale
 70
     0
300
8:1
140
8.0
141
1.0
290
     0
  0
SCALE
  5
57
102
{ACAD_REACTORS
330
47
102
}
330
47
100
AcDbScale
 70
     0
300
10:1
140
10.0
141
1.0
290
     0
  0
SCALE
  5
58
102
{ACAD_REACTORS
330
47
102
}
330
47
100
AcDbScale
 70
     0
300
100:1
140
100.0
141
1.0
290
     0
  0
SCALE
  5
59
102
{ACAD_REACTORS
330
47
102
}
330
47
100
AcDbScale
 70
     0
300
1/128" = 1'-0"
140
0.007812
141
12.0
290
     0
  0
SCALE
  5
5A
102
{ACAD_REACTORS
330
47
102
}
330
47
100
AcDbScale
 70
     0
300
1/64" = 1'-0"
140
0.015625
141
12.0
290
     0
  0
SCALE
  5
5B
102
{ACAD_REACTORS
330
47
102
}
330
47
100
AcDbScale
 70
     0
300
1/32" = 1'-0"
140
0.03125
141
12.0
290
     0
  0
SCALE
  5
5C
102
{ACAD_REACTORS
330
47
102
}
330
47
100
AcDbScale
 70
     0
300
1/16" = 1'-0"
140
0.0625
141
12.0
290
     0
  0
SCALE
  5
5D
102
{ACAD_REACTORS
330
47
102
}
330
47
100
AcDbScale
 70
     0
300
3/32" = 1'-0"
140
0.09375
141
12.0
290
     0
  0
SCALE
  5
5E
102
{ACAD_REACTORS
330
47
102
}
330
47
100
AcDbScale
 70
     0
300
1/8" = 1'-0"
140
0.125
141
12.0
290
     0
  0
SCALE
  5
5F
102
{ACAD_REACTORS
330
47
102
}
330
47
100
AcDbScale
 70
     0
300
3/16" = 1'-0"
140
0.1875
141
12.0
290
     0
  0
SCALE
  5
60
102
{ACAD_REACTORS
330
47
102
}
330
47
100
AcDbScale
 70
     0
300
1/4" = 1'-0"
140
0.25
141
12.0
290
     0
  0
SCALE
  5
61
102
{ACAD_REACTORS
330
47
102
}
330
47
100
AcDbScale
 70
     0
300
3/8" = 1'-0"
140
0.375
141
12.0
290
     0
  0
SCALE
  5
62
102
{ACAD_REACTORS
330
47
102
}
330
47
100
AcDbScale
 70
     0
300
1/2" = 1'-0"
140
0.5
141
12.0
290
     0
  0
SCALE
  5
63
102
{ACAD_REACTORS
330
47
102
}
330
47
100
AcDbScale
 70
     0
300
3/4" = 1'-0"
140
0.75
141
12.0
290
     0
  0
SCALE
  5
64
102
{ACAD_REACTORS
330
47
102
}
330
47
100
AcDbScale
 70
     0
300
1" = 1'-0"
140
1.0
141
12.0
290
     0
  0
SCALE
  5
65
102
{ACAD_REACTORS
330
47
102
}
330
47
100
AcDbScale
 70
     0
300
1-1/2" = 1'-0"
140
1.5
141
12.0
290
     0
  0
SCALE
  5
66
102
{ACAD_REACTORS
330
47
102
}
330
47
100
AcDbScale
 70
     0
300
3" = 1'-0"
140
3.0
141
12.0
290
     0
  0
SCALE
  5
67
102
{ACAD_REACTORS
330
47
102
}
330
47
100
AcDbScale
 70
     0
300
6" = 1'-0"
140
6.0
141
12.0
290
     0
  0
SCALE
  5
68
102
{ACAD_REACTORS
330
47
102
}
330
47
100
AcDbScale
 70
     0
300
1'-0" = 1'-0"
140
12.0
141
12.0
290
     0
  0
ACDBSECTIONVIEWSTYLE
  5
2F1
102
{ACAD_XDICTIONARY
360
38D
102
}
102
{ACAD_REACTORS
330
2ED
102
}
330
2ED
100
AcDbModelDocViewStyle
 70
     0
  3
Metric50
290
     0
100
AcDbSectionViewStyle
 70
     0
 71
     0
 90
      102
 71
     1
340
11
 62
   256
 40
5.0
340
0
340
0
 62
   256
 40
5.0
300
I, O, Q, S, X, Z
 40
10.0
 90
        0
 40
2.5
 90
        0
 71
     2
340
16
 90
       25
 62
   256
340
16
 90
       50
 62
   256
 40
5.0
 40
2.5
 40
5.0
 71
     3
340
11
 62
   256
 40
5.0
 90
        0
 40
15.0
 90
        1
300
%<\AcVar ViewSectionStartId>%-%<\AcVar ViewSectionEndId>% (%<\AcVar ViewScale \f "%sn">%)
 71
     4
 62
   256
 62
   257
300
ANSI31
 40
1.0
 90
        0
290
     0
290
     0
 90
        6
 40
0.0
 40
1.570796326794896
 40
0.2617993877991494
 40
1.308996938995747
 40
-0.2617993877991494
 40
1.832595714594046
  0
TABLESTYLE
  5
6A
102
{ACAD_XDICTIONARY
360
2E3
102
}
102
{ACAD_REACTORS
330
69
102
}
330
69
100
AcDbTableStyle
  3
Standard
 70
     0
 71
     0
 40
0.06
 41
0.06
280
     0
281
     0
  7
Standard
140
0.18
170
     2
 62
     0
 63
     7
283
     0
274
    -2
284
     1
 64
     0
275
    -2
285
     1
 65
     0
276
    -2
286
     1
 66
     0
277
    -2
287
     1
 67
     0
278
    -2
288
     1
 68
     0
279
    -2
289
     1
 69
     0
  7
Standard
140
0.25
170
     5
 62
     0
 63
     7
283
     0
274
    -2
284
     1
 64
     0
275
    -2
285
     1
 65
     0
276
    -2
286
     1
 66
     0
277
    -2
287
     1
 67
     0
278
    -2
288
     1
 68
     0
279
    -2
289
     1
 69
     0
  7
Standard
140
0.18
170
     5
 62
     0
 63
     7
283
     0
274
    -2
284
     1
 64
     0
275
    -2
285
     1
 65
     0
276
    -2
286
     1
 66
     0
277
    -2
287
     1
 67
     0
278
    -2
288
     1
 68
     0
279
    -2
289
     1
 69
     0
  0
VISUALSTYLE
  5
2F
102
{ACAD_XDICTIONARY
360
364
102
}
102
{ACAD_REACTORS
330
2A
102
}
330
2A
100
AcDbVisualStyle
  2

 70
     4
 71
     0
 72
     2
 73
     0
 90
        0
 40
-0.6
 41
-30.0
 62
     5
 63
     7
421
 16777215
 74
     1
 91
        4
 64
     7
 65
   257
 75
     1
175
     1
 42
1.0
 92
        0
 66
   257
 43
1.0
 76
     1
 77
     6
 78
     2
 67
     7
 79
     5
170
     0
171
     0
290
     0
174
     0
 93
        1
 44
0.0
173
     0
291
     0
 45
0.0
1001
ACAD
1000
AcDbSavedByObjectVersion
1070
     0
  0
VISUALSTYLE
  5
32
102
{ACAD_XDICTIONARY
360
36A
102
}
102
{ACAD_REACTORS
330
2A
102
}
330
2A
100
AcDbVisualStyle
  2

 70
     7
 71
     1
 72
     0
 73
     1
 90
        0
 40
-0.6
 41
-30.0
 62
     5
 63
     7
421
 16777215
 74
     0
 91
        4
 64
     7
 65
   257
 75
     1
175
     1
 42
1.0
 92
        8
 66
     7
 43
1.0
 76
     1
 77
     6
 78
     2
 67
     7
 79
     5
170
     0
171
     0
290
     0
174
     0
 93
        1
 44
0.0
173
     0
291
     1
 45
0.0
1001
ACAD
1000
AcDbSavedByObjectVersion
1070
     0
  0
VISUALSTYLE
  5
36
102
{ACAD_XDICTIONARY
360
372
102
}
102
{ACAD_REACTORS
330
2A
102
}
330
2A
100
AcDbVisualStyle
  2

 70
    12
 71
     2
 72
     2
 73
     0
 90
        0
 40
-0.6
 41
-30.0
 62
     5
 63
     7
421
 16777215
 74
     1
 91
        4
 64
     7
 65
   257
 75
     1
175
     1
 42
1.0
 92
        8
 66
     7
 43
1.0
 76
     1
 77
     6
 78
     2
 67
     7
 79
     5
170
     0
171
     0
290
     0
174
     0
 93
        1
 44
50.0
173
     0
291
     1
 45
0.0
1001
ACAD
1000
AcDbSavedByObjectVersion
1070
     0
  0
VISUALSTYLE
  5
3A
102
{ACAD_XDICTIONARY
360
37A
102
}
102
{ACAD_REACTORS
330
2A
102
}
330
2A
100
AcDbVisualStyle
  2

 70
    16
 71
     2
 72
     2
 73
     3
 90
        0
 40
-0.6
 41
-30.0
 62
     5
 63
     8
421
  8421504
 74
     1
 91
        4
 64
     7
 65
   257
 75
     1
175
     1
 42
1.0
 92
        8
 66
     8
424
  8421504
 43
1.0
 76
     1
 77
     6
 78
     2
 67
     7
 79
     5
170
     0
171
     0
290
     0
174
     0
 93
        1
 44
0.0
173
     0
291
     1
 45
0.0
1001
ACAD
1000
AcDbSavedByObjectVersion
1070
     0
  0
VISUALSTYLE
  5
34
102
{ACAD_XDICTIONARY
360
36E
102
}
102
{ACAD_REACTORS
330
2A
102
}
330
2A
100
AcDbVisualStyle
  2

 70
     9
 71
     3
 72
     2
 73
     0
 90
        0
 40
-0.6
 41
-30.0
 62
     5
 63
     7
421
 16777215
 74
     2
 91
        2
 64
     7
 65
   257
 75
     1
175
     1
 42
179.0
 92
        8
 66
     7
 43
1.0
 76
     1
 77
     6
 78
     2
 67
     7
 79
     3
170
     0
171
     0
290
     0
174
     0
 93
        1
 44
0.0
173
     0
291
     0
 45
0.0
1001
ACAD
1000
AcDbSavedByObjectVersion
1070
     0
  0
VISUALSTYLE
  5
35
102
{ACAD_XDICTIONARY
360
370
102
}
102
{ACAD_REACTORS
330
2A
102
}
330
2A
100
AcDbVisualStyle
  2

 70
    11
 71
     2
 72
     2
 73
     0
 90
        0
 40
-0.6
 41
-30.0
 62
     5
 63
     7
421
 16777215
 74
     1
 91
        4
 64
     7
 65
   257
 75
     1
175
     1
 42
1.0
 92
        8
 66
     7
 43
1.0
 76
     1
 77
     6
 78
     2
 67
     7
 79
     5
170
     0
171
     0
290
     0
174
     0
 93
        1
 44
-50.0
173
     0
291
     1
 45
0.0
1001
ACAD
1000
AcDbSavedByObjectVersion
1070
     0
  0
VISUALSTYLE
  5
3D
102
{ACAD_XDICTIONARY
360
380
102
}
102
{ACAD_REACTORS
330
2A
102
}
330
2A
100
AcDbVisualStyle
  2

 70
    22
 71
     2
 72
     2
 73
     0
 90
        0
 40
-0.6
 41
-30.0
 62
     5
 63
     7
421
 16777215
 74
     1
 91
        4
 64
     7
 65
   257
 75
     1
175
     1
 42
1.0
 92
        8
 66
     7
 43
1.0
 76
     1
 77
     6
 78
     2
 67
     7
 79
     5
170
     0
171
     0
290
     0
174
     0
 93
        1
 44
0.0
173
     0
291
     1
 45
0.0
1001
ACAD
1000
AcDbSavedByObjectVersion
1070
     0
  0
VISUALSTYLE
  5
39
102
{ACAD_XDICTIONARY
360
378
102
}
102
{ACAD_REACTORS
330
2A
102
}
330
2A
100
AcDbVisualStyle
  2

 70
    15
 71
     2
 72
     2
 73
     0
 90
        0
 40
-0.6
 41
-30.0
 62
     5
 63
     7
421
 16777215
 74
     1
 91
        4
 64
     7
 65
   257
 75
     1
175
     1
 42
1.0
 92
        8
 66
     7
 43
1.0
 76
     1
 77
     6
 78
     2
 67
     7
 79
     5
170
     0
171
     0
290
     0
174
     0
 93
        1
 44
0.0
173
     0
291
     1
 45
0.0
1001
ACAD
1000
AcDbSavedByObjectVersion
1070
     0
  0
VISUALSTYLE
  5
2B
102
{ACAD_XDICTIONARY
360
35C
102
}
102
{ACAD_REACTORS
330
2A
102
}
330
2A
100
AcDbVisualStyle
  2

 70
     0
 71
     2
 72
     1
 73
     1
 90
        2
 40
-0.6
 41
30.0
 62
     5
 63
     7
421
 16777215
 74
     0
 91
        0
 64
     7
 65
   257
 75
     1
175
     1
 42
1.0
 92
        8
 66
     7
 43
1.0
 76
     1
 77
     6
 78
     2
 67
     7
 79
     5
170
     0
171
     0
290
     0
174
     0
 93
       13
 44
0.0
173
     0
291
     1
 45
0.0
1001
ACAD
1000
AcDbSavedByObjectVersion
1070
     0
  0
VISUALSTYLE
  5
2C
102
{ACAD_XDICTIONARY
360
35E
102
}
102
{ACAD_REACTORS
330
2A
102
}
330
2A
100
AcDbVisualStyle
  2

 70
     1
 71
     2
 72
     1
 73
     1
 90
        2
 40
-0.6
 41
30.0
 62
     5
 63
     7
421
 16777215
 74
     1
 91
        0
 64
     7
 65
   257
 75
     1
175
     1
 42
1.0
 92
        0
 66
   257
 43
1.0
 76
     1
 77
     6
 78
     2
 67
     7
 79
     5
170
     0
171
     0
290
     0
174
     0
 93
       13
 44
0.0
173
     0
291
     1
 45
0.0
1001
ACAD
1000
AcDbSavedByObjectVersion
1070
     0
  0
VISUALSTYLE
  5
2D
102
{ACAD_XDICTIONARY
360
360
102
}
102
{ACAD_REACTORS
330
2A
102
}
330
2A
100
AcDbVisualStyle
  2

 70
     2
 71
     2
 72
     2
 73
     1
 90
        2
 40
-0.6
 41
30.0
 62
     5
 63
     7
421
 16777215
 74
     0
 91
        0
 64
     7
 65
   257
 75
     1
175
     1
 42
1.0
 92
        0
 66
     7
 43
1.0
 76
     1
 77
     6
 78
     2
 67
     7
 79
     5
170
     0
171
     0
290
     0
174
     0
 93
       13
 44
0.0
173
     0
291
     1
 45
0.0
1001
ACAD
1000
AcDbSavedByObjectVersion
1070
     0
  0
VISUALSTYLE
  5
2E
102
{ACAD_XDICTIONARY
360
362
102
}
102
{ACAD_REACTORS
330
2A
102
}
330
2A
100
AcDbVisualStyle
  2

 70
     3
 71
     2
 72
     2
 73
     1
 90
        2
 40
-0.6
 41
30.0
 62
     5
 63
     7
421
 16777215
 74
     1
 91
        0
 64
     7
 65
   257
 75
     1
175
     1
 42
1.0
 92
        0
 66
   257
 43
1.0
 76
     1
 77
     6
 78
     2
 67
     7
 79
     5
170
     0
171
     0
290
     0
174
     0
 93
       13
 44
0.0
173
     0
291
     1
 45
0.0
1001
ACAD
1000
AcDbSavedByObjectVersion
1070
     0
  0
VISUALSTYLE
  5
31
102
{ACAD_XDICTIONARY
360
368
102
}
102
{ACAD_REACTORS
330
2A
102
}
330
2A
100
AcDbVisualStyle
  2

 70
     6
 71
     1
 72
     2
 73
     2
 90
        0
 40
-0.6
 41
-30.0
 62
     5
 63
     7
421
 16777215
 74
     2
 91
        2
 64
     7
 65
   257
 75
     2
175
     1
 42
40.0
 92
        0
 66
   257
 43
1.0
 76
     1
 77
     6
 78
     2
 67
     7
 79
     3
170
     0
171
     0
290
     0
174
     0
 93
        1
 44
0.0
173
     0
291
     0
 45
0.0
1001
ACAD
1000
AcDbSavedByObjectVersion
1070
     0
  0
VISUALSTYLE
  5
3B
102
{ACAD_XDICTIONARY
360
37C
102
}
102
{ACAD_REACTORS
330
2A
102
}
330
2A
100
AcDbVisualStyle
  2

 70
    20
 71
     2
 72
     2
 73
     0
 90
        0
 40
-0.6
 41
-30.0
 62
     5
 63
     7
421
 16777215
 74
     1
 91
        4
 64
     7
 65
   257
 75
     1
175
     1
 42
1.0
 92
       10
 66
     7
 43
1.0
 76
     1
 77
     6
 78
     2
 67
     7
 79
     5
170
     0
171
     0
290
     0
174
     0
 93
        1
 44
0.0
173
     0
291
     1
 45
0.0
1001
ACAD
1000
AcDbSavedByObjectVersion
1070
     0
  0
VISUALSTYLE
  5
38
102
{ACAD_XDICTIONARY
360
376
102
}
102
{ACAD_REACTORS
330
2A
102
}
330
2A
100
AcDbVisualStyle
  2

 70
    14
 71
     2
 72
     2
 73
     0
 90
        0
 40
-0.6
 41
-30.0
 62
     5
 63
     7
421
 16777215
 74
     1
 91
        4
 64
     7
 65
   257
 75
     7
175
     7
 42
1.0
 92
        8
 66
     7
 43
1.0
 76
     1
 77
     6
 78
     2
 67
     7
 79
     5
170
     0
171
     0
290
     0
174
     0
 93
        1
 44
0.0
173
     0
291
     1
 45
0.0
1001
ACAD
1000
AcDbSavedByObjectVersion
1070
     0
  0
VISUALSTYLE
  5
3C
102
{ACAD_XDICTIONARY
360
37E
102
}
102
{ACAD_REACTORS
330
2A
102
}
330
2A
100
AcDbVisualStyle
  2

 70
    21
 71
     2
 72
     2
 73
     0
 90
        0
 40
-0.6
 41
-30.0
 62
     5
 63
     7
421
 16777215
 74
     1
 91
        4
 64
     7
 65
   257
 75
     1
175
     1
 42
1.0
 92
        9
 66
     7
 43
1.0
 76
     1
 77
     6
 78
     2
 67
     7
 79
     5
170
     0
171
     0
290
     0
174
     0
 93
        1
 44
0.0
173
     0
291
     1
 45
0.0
1001
ACAD
1000
AcDbSavedByObjectVersion
1070
     0
  0
VISUALSTYLE
  5
33
102
{ACAD_XDICTIONARY
360
36C
102
}
102
{ACAD_REACTORS
330
2A
102
}
330
2A
100
AcDbVisualStyle
  2

 70
     8
 71
     2
 72
     3
 73
     0
 90
        2
 40
-0.6
 41
30.0
 62
     5
 63
     7
421
 16777215
 74
     0
 91
        0
 64
     7
 65
   257
 75
     1
175
     1
 42
1.0
 92
        8
 66
   257
 43
1.0
 76
     1
 77
     6
 78
     2
 67
     7
 79
     3
170
     0
171
     0
290
     0
174
     0
 93
       13
 44
0.0
173
     0
291
     0
 45
0.0
1001
ACAD
1000
AcDbSavedByObjectVersion
1070
     0
  0
VISUALSTYLE
  5
42
102
{ACAD_XDICTIONARY
360
38A
102
}
102
{ACAD_REACTORS
330
2A
102
}
330
2A
100
AcDbVisualStyle
  2

 70
    27
 71
     2
 72
     2
 73
     1
 90
        2
 40
-0.6
 41
30.0
 62
     5
 63
     7
421
 16777215
 74
     0
 91
        4
 64
     7
 65
   257
 75
     1
175
     1
 42
1.0
 92
        8
 66
   257
 43
1.0
 76
     1
 77
     6
 78
     2
 67
     8
425
  7895160
 79
     3
170
     0
171
     0
290
     0
174
     0
 93
        5
 44
0.0
173
     0
291
     0
 45
0.0
1001
ACAD
1000
AcDbSavedByObjectVersion
1070
     0
  0
VISUALSTYLE
  5
41
102
{ACAD_XDICTIONARY
360
388
102
}
102
{ACAD_REACTORS
330
2A
102
}
330
2A
100
AcDbVisualStyle
  2

 70
    26
 71
     2
 72
     2
 73
     1
 90
        2
 40
-0.6
 41
30.0
 62
     5
 63
     7
421
 16777215
 74
     1
 91
       10
 64
     7
 65
   257
 75
     2
175
     1
 42
1.0
 92
        8
 66
   257
 43
1.0
 76
     1
 77
     6
 78
     2
 67
     7
 79
     3
170
     0
171
     0
290
     0
174
     0
 93
        5
 44
0.0
173
     0
291
     0
 45
0.0
1001
ACAD
1000
AcDbSavedByObjectVersion
1070
     0
  0
VISUALSTYLE
  5
3E
102
{ACAD_XDICTIONARY
360
382
102
}
102
{ACAD_REACTORS
330
2A
102
}
330
2A
100
AcDbVisualStyle
  2

 70
    23
 71
     2
 72
     2
 73
     3
 90
        0
 40
-0.6
 41
-30.0
 62
     5
 63
     7
421
 16777215
 74
     2
 91
        2
 64
     7
 65
     7
 75
     1
175
     1
 42
40.0
 92
        8
 66
     7
 43
1.0
 76
     1
 77
     6
 78
     2
 67
     7
 79
     3
170
     0
171
     0
290
     0
174
     0
 93
        1
 44
0.0
173
     0
291
     0
 45
0.0
1001
ACAD
1000
AcDbSavedByObjectVersion
1070
     0
  0
VISUALSTYLE
  5
3F
102
{ACAD_XDICTIONARY
360
384
102
}
102
{ACAD_REACTORS
330
2A
102
}
330
2A
100
AcDbVisualStyle
  2

 70
    24
 71
     1
 72
     2
 73
     2
 90
        0
 40
-0.6
 41
-30.0
 62
     5
 63
     7
421
 16777215
 74
     2
 91
        2
 64
     7
 65
     7
 75
     1
175
     1
 42
40.0
 92
       11
 66
     7
 43
1.0
 76
     1
 77
     6
 78
     2
 67
     7
 79
     6
170
     0
171
     0
290
     0
174
     0
 93
        1
 44
0.0
173
     0
291
     0
 45
0.0
1001
ACAD
1000
AcDbSavedByObjectVersion
1070
     0
  0
VISUALSTYLE
  5
37
102
{ACAD_XDICTIONARY
360
374
102
}
102
{ACAD_REACTORS
330
2A
102
}
330
2A
100
AcDbVisualStyle
  2

 70
    13
 71
     2
 72
     2
 73
     0
 90
        0
 40
-0.6
 41
-30.0
 62
     5
 63
     7
421
 16777215
 74
     1
 91
        4
 64
     7
 65
   257
 75
     1
175
     1
 42
1.0
 92
       12
 66
     7
 43
1.0
 76
     1
 77
     6
 78
     2
 67
     7
 79
     5
170
     0
171
     0
290
     0
174
     0
 93
        1
 44
0.0
173
     0
291
     1
 45
0.0
1001
ACAD
1000
AcDbSavedByObjectVersion
1070
     0
  0
VISUALSTYLE
  5
30
102
{ACAD_XDICTIONARY
360
366
102
}
102
{ACAD_REACTORS
330
2A
102
}
330
2A
100
AcDbVisualStyle
  2

 70
     5
 71
     0
 72
     2
 73
     0
 90
        0
 40
-0.6
 41
-30.0
 62
     5
 63
     7
421
 16777215
 74
     1
 91
        4
 64
     7
 65
   257
 75
     1
175
     1
 42
1.0
 92
        0
 66
   257
 43
1.0
 76
     1
 77
     6
 78
     2
 67
     7
 79
     3
170
     0
171
     0
290
     0
174
     0
 93
        1
 44
0.0
173
     0
291
     0
 45
0.0
1001
ACAD
1000
AcDbSavedByObjectVersion
1070
     0
  0
VISUALSTYLE
  5
40
102
{ACAD_XDICTIONARY
360
386
102
}
102
{ACAD_REACTORS
330
2A
102
}
330
2A
100
AcDbVisualStyle
  2

 70
    25
 71
     2
 72
     2
 73
     1
 90
        1
 40
0.5
 41
-30.0
 62
     5
 63
     7
421
 16777215
 74
     1
 91
        0
 64
     7
 65
   257
 75
     1
175
     1
 42
1.0
 92
        8
 66
     7
 43
1.0
 76
     1
 77
     6
 78
     2
 67
     7
 79
     3
170
     0
171
     0
290
     0
174
     0
 93
       13
 44
0.0
173
     0
291
     0
 45
0.0
1001
ACAD
1000
AcDbSavedByObjectVersion
1070
     0
  0
DICTIONARYVAR
  5
2AA
102
{ACAD_REACTORS
330
2A9
102
}
330
2A9
100
DictionaryVariables
280
     0
  1
1:1
  0
DICTIONARYVAR
  5
2EB
102
{ACAD_REACTORS
330
2A9
102
}
330
2A9
100
DictionaryVariables
280
     0
  1
STANDARD
  0
DICTIONARYVAR
  5
2EA
102
{ACAD_REACTORS
330
2A9
102
}
330
2A9
100
DictionaryVariables
280
     0
  1
STANDARD
  0
DICTIONARYVAR
  5
356
102
{ACAD_REACTORS
330
2A9
102
}
330
2A9
100
DictionaryVariables
280
     0
  1
Metric50
  0
DICTIONARYVAR
  5
357
102
{ACAD_REACTORS
330
2A9
102
}
330
2A9
100
DictionaryVariables
280
     0
  1
Metric50
  0
DICTIONARYVAR
  5
2AB
102
{ACAD_REACTORS
330
2A9
102
}
330
2A9
100
DictionaryVariables
280
     0
  1
1
  0
DICTIONARYVAR
  5
358
102
{ACAD_REACTORS
330
2A9
102
}
330
2A9
100
DictionaryVariables
280
     0
  1
2
  0
DICTIONARY
  5
38F
330
2F2
100
AcDbDictionary
280
     1
281
     1
  3
ACAD_XREC_ROUNDTRIP
360
390
  0
DICTIONARY
  5
2DF
330
45
100
AcDbDictionary
280
     1
281
     1
  3
ACAD_XREC_ROUNDTRIP
360
2E0
  0
DICTIONARY
  5
2DD
330
44
100
AcDbDictionary
280
     1
281
     1
  3
ACAD_XREC_ROUNDTRIP
360
2DE
  0
DICTIONARY
  5
2E1
330
46
100
AcDbDictionary
280
     1
281
     1
  3
ACAD_XREC_ROUNDTRIP
360
2E2
  0
DICTIONARY
  5
38D
330
2F1
100
AcDbDictionary
280
     1
281
     1
  3
ACAD_XREC_ROUNDTRIP
360
38E
  0
DICTIONARY
  5
2E3
330
6A
100
AcDbDictionary
280
     1
281
     1
  3
ACAD_ROUNDTRIP_2008_TABLESTYLE_CELLSTYLEMAP
360
35A
  3
ACAD_XREC_ROUNDTRIP
360
38C
  0
DICTIONARY
  5
364
330
2F
100
AcDbDictionary
280
     1
281
     1
  3
ACAD_XREC_ROUNDTRIP
360
365
  0
DICTIONARY
  5
36A
330
32
100
AcDbDictionary
280
     1
281
     1
  3
ACAD_XREC_ROUNDTRIP
360
36B
  0
DICTIONARY
  5
372
330
36
100
AcDbDictionary
280
     1
281
     1
  3
ACAD_XREC_ROUNDTRIP
360
373
  0
DICTIONARY
  5
37A
330
3A
100
AcDbDictionary
280
     1
281
     1
  3
ACAD_XREC_ROUNDTRIP
360
37B
  0
DICTIONARY
  5
36E
330
34
100
AcDbDictionary
280
     1
281
     1
  3
ACAD_XREC_ROUNDTRIP
360
36F
  0
DICTIONARY
  5
370
330
35
100
AcDbDictionary
280
     1
281
     1
  3
ACAD_XREC_ROUNDTRIP
360
371
  0
DICTIONARY
  5
380
330
3D
100
AcDbDictionary
280
     1
281
     1
  3
ACAD_XREC_ROUNDTRIP
360
381
  0
DICTIONARY
  5
378
330
39
100
AcDbDictionary
280
     1
281
     1
  3
ACAD_XREC_ROUNDTRIP
360
379
  0
DICTIONARY
  5
35C
330
2B
100
AcDbDictionary
280
     1
281
     1
  3
ACAD_XREC_ROUNDTRIP
360
35D
  0
DICTIONARY
  5
35E
330
2C
100
AcDbDictionary
280
     1
281
     1
  3
ACAD_XREC_ROUNDTRIP
360
35F
  0
DICTIONARY
  5
360
330
2D
100
AcDbDictionary
280
     1
281
     1
  3
ACAD_XREC_ROUNDTRIP
360
361
  0
DICTIONARY
  5
362
330
2E
100
AcDbDictionary
280
     1
281
     1
  3
ACAD_XREC_ROUNDTRIP
360
363
  0
DICTIONARY
  5
368
330
31
100
AcDbDictionary
280
     1
281
     1
  3
ACAD_XREC_ROUNDTRIP
360
369
  0
DICTIONARY
  5
37C
330
3B
100
AcDbDictionary
280
     1
281
     1
  3
ACAD_XREC_ROUNDTRIP
360
37D
  0
DICTIONARY
  5
376
330
38
100
AcDbDictionary
280
     1
281
     1
  3
ACAD_XREC_ROUNDTRIP
360
377
  0
DICTIONARY
  5
37E
330
3C
100
AcDbDictionary
280
     1
281
     1
  3
ACAD_XREC_ROUNDTRIP
360
37F
  0
DICTIONARY
  5
36C
330
33
100
AcDbDictionary
280
     1
281
     1
  3
ACAD_XREC_ROUNDTRIP
360
36D
  0
DICTIONARY
  5
38A
330
42
100
AcDbDictionary
280
     1
281
     1
  3
ACAD_XREC_ROUNDTRIP
360
38B
  0
DICTIONARY
  5
388
330
41
100
AcDbDictionary
280
     1
281
     1
  3
ACAD_XREC_ROUNDTRIP
360
389
  0
DICTIONARY
  5
382
330
3E
100
AcDbDictionary
280
     1
281
     1
  3
ACAD_XREC_ROUNDTRIP
360
383
  0
DICTIONARY
  5
384
330
3F
100
AcDbDictionary
280
     1
281
     1
  3
ACAD_XREC_ROUNDTRIP
360
385
  0
DICTIONARY
  5
374
330
37
100
AcDbDictionary
280
     1
281
     1
  3
ACAD_XREC_ROUNDTRIP
360
375
  0
DICTIONARY
  5
366
330
30
100
AcDbDictionary
280
     1
281
     1
  3
ACAD_XREC_ROUNDTRIP
360
367
  0
DICTIONARY
  5
386
330
40
100
AcDbDictionary
280
     1
281
     1
  3
ACAD_XREC_ROUNDTRIP
360
387
  0
XRECORD
  5
390
102
{ACAD_REACTORS
330
38F
102
}
330
38F
100
AcDbXrecord
280
     1
102
DISPLAYNAME
  1
Metric50
102
FLAGS
 90
        0
  0
XRECORD
  5
2E0
102
{ACAD_REACTORS
330
2DF
102
}
330
2DF
100
AcDbXrecord
280
     1
102
MATERIAL
148
0.0
149
0.0
149
0.0
 93
        0
 94
      127
282
     0
 72
     1
 77
     1
171
     1
175
     1
179
     1
273
     0
  0
XRECORD
  5
2DE
102
{ACAD_REACTORS
330
2DD
102
}
330
2DD
100
AcDbXrecord
280
     1
102
MATERIAL
148
0.0
149
0.0
149
0.0
 93
        0
 94
      127
282
     0
 72
     1
 77
     1
171
     1
175
     1
179
     1
273
     0
  0
XRECORD
  5
2E2
102
{ACAD_REACTORS
330
2E1
102
}
330
2E1
100
AcDbXrecord
280
     1
102
MATERIAL
148
0.0
149
0.0
149
0.0
 93
        0
 94
      127
282
     0
 72
     1
 77
     1
171
     1
175
     1
179
     1
273
     0
  0
XRECORD
  5
38E
102
{ACAD_REACTORS
330
38D
102
}
330
38D
100
AcDbXrecord
280
     1
102
DISPLAYNAME
  1
Metric50
102
FLAGS
 90
        0
  0
CELLSTYLEMAP
  5
35A
102
{ACAD_REACTORS
330
2E3
102
}
330
2E3
100
AcDbCellStyleMap
 90
        3
300
CELLSTYLE
  1
TABLEFORMAT_BEGIN
 90
        5
170
     1
 91
        0
 92
    32768
 62
   257
 93
        1
300
CONTENTFORMAT
  1
CONTENTFORMAT_BEGIN
 90
        0
 91
        0
 92
        4
 93
        0
300

 40
0.0
140
1.0
 94
        5
 62
     0
340
11
144
0.25
309
CONTENTFORMAT_END
171
     1
301
MARGIN
  1
CELLMARGIN_BEGIN
 40
0.06
 40
0.06
 40
0.06
 40
0.06
 40
0.18
 40
0.18
309
CELLMARGIN_END
 94
        6
 95
        1
302
GRIDFORMAT
  1
GRIDFORMAT_BEGIN
 90
        0
 91
        1
 62
     0
 92
       -2
340
14
 93
        0
 40
0.045
309
GRIDFORMAT_END
 95
        2
302
GRIDFORMAT
  1
GRIDFORMAT_BEGIN
 90
        0
 91
        1
 62
     0
 92
       -2
340
14
 93
        0
 40
0.045
309
GRIDFORMAT_END
 95
        4
302
GRIDFORMAT
  1
GRIDFORMAT_BEGIN
 90
        0
 91
        1
 62
     0
 92
       -2
340
14
 93
        0
 40
0.045
309
GRIDFORMAT_END
 95
        8
302
GRIDFORMAT
  1
GRIDFORMAT_BEGIN
 90
        0
 91
        1
 62
     0
 92
       -2
340
14
 93
        0
 40
0.045
309
GRIDFORMAT_END
 95
       16
302
GRIDFORMAT
  1
GRIDFORMAT_BEGIN
 90
        0
 91
        1
 62
     0
 92
       -2
340
14
 93
        0
 40
0.045
309
GRIDFORMAT_END
 95
       32
302
GRIDFORMAT
  1
GRIDFORMAT_BEGIN
 90
        0
 91
        1
 62
     0
 92
       -2
340
14
 93
        0
 40
0.045
309
GRIDFORMAT_END
309
TABLEFORMAT_END
  1
CELLSTYLE_BEGIN
 90
        1
 91
        1
300
_TITLE
309
CELLSTYLE_END
300
CELLSTYLE
  1
TABLEFORMAT_BEGIN
 90
        5
170
     1
 91
        0
 92
        0
 62
   257
 93
        1
300
CONTENTFORMAT
  1
CONTENTFORMAT_BEGIN
 90
        0
 91
        0
 92
        4
 93
        0
300

 40
0.0
140
1.0
 94
        5
 62
     0
340
11
144
0.18
309
CONTENTFORMAT_END
171
     1
301
MARGIN
  1
CELLMARGIN_BEGIN
 40
0.06
 40
0.06
 40
0.06
 40
0.06
 40
0.18
 40
0.18
309
CELLMARGIN_END
 94
        6
 95
        1
302
GRIDFORMAT
  1
GRIDFORMAT_BEGIN
 90
        0
 91
        1
 62
     0
 92
       -2
340
14
 93
        0
 40
0.045
309
GRIDFORMAT_END
 95
        2
302
GRIDFORMAT
  1
GRIDFORMAT_BEGIN
 90
        0
 91
        1
 62
     0
 92
       -2
340
14
 93
        0
 40
0.045
309
GRIDFORMAT_END
 95
        4
302
GRIDFORMAT
  1
GRIDFORMAT_BEGIN
 90
        0
 91
        1
 62
     0
 92
       -2
340
14
 93
        0
 40
0.045
309
GRIDFORMAT_END
 95
        8
302
GRIDFORMAT
  1
GRIDFORMAT_BEGIN
 90
        0
 91
        1
 62
     0
 92
       -2
340
14
 93
        0
 40
0.045
309
GRIDFORMAT_END
 95
       16
302
GRIDFORMAT
  1
GRIDFORMAT_BEGIN
 90
        0
 91
        1
 62
     0
 92
       -2
340
14
 93
        0
 40
0.045
309
GRIDFORMAT_END
 95
       32
302
GRIDFORMAT
  1
GRIDFORMAT_BEGIN
 90
        0
 91
        1
 62
     0
 92
       -2
340
14
 93
        0
 40
0.045
309
GRIDFORMAT_END
309
TABLEFORMAT_END
  1
CELLSTYLE_BEGIN
 90
        2
 91
        1
300
_HEADER
309
CELLSTYLE_END
300
CELLSTYLE
  1
TABLEFORMAT_BEGIN
 90
        5
170
     1
 91
        0
 92
        0
 62
   257
 93
        1
300
CONTENTFORMAT
  1
CONTENTFORMAT_BEGIN
 90
        0
 91
        0
 92
        4
 93
        0
300

 40
0.0
140
1.0
 94
        2
 62
     0
340
11
144
0.18
309
CONTENTFORMAT_END
171
     1
301
MARGIN
  1
CELLMARGIN_BEGIN
 40
0.06
 40
0.06
 40
0.06
 40
0.06
 40
0.18
 40
0.18
309
CELLMARGIN_END
 94
        6
 95
        1
302
GRIDFORMAT
  1
GRIDFORMAT_BEGIN
 90
        0
 91
        1
 62
     0
 92
       -2
340
14
 93
        0
 40
0.045
309
GRIDFORMAT_END
 95
        2
302
GRIDFORMAT
  1
GRIDFORMAT_BEGIN
 90
        0
 91
        1
 62
     0
 92
       -2
340
14
 93
        0
 40
0.045
309
GRIDFORMAT_END
 95
        4
302
GRIDFORMAT
  1
GRIDFORMAT_BEGIN
 90
        0
 91
        1
 62
     0
 92
       -2
340
14
 93
        0
 40
0.045
309
GRIDFORMAT_END
 95
        8
302
GRIDFORMAT
  1
GRIDFORMAT_BEGIN
 90
        0
 91
        1
 62
     0
 92
       -2
340
14
 93
        0
 40
0.045
309
GRIDFORMAT_END
 95
       16
302
GRIDFORMAT
  1
GRIDFORMAT_BEGIN
 90
        0
 91
        1
 62
     0
 92
       -2
340
14
 93
        0
 40
0.045
309
GRIDFORMAT_END
 95
       32
302
GRIDFORMAT
  1
GRIDFORMAT_BEGIN
 90
        0
 91
        1
 62
     0
 92
       -2
340
14
 93
        0
 40
0.045
309
GRIDFORMAT_END
309
TABLEFORMAT_END
  1
CELLSTYLE_BEGIN
 90
        3
 91
        2
300
_DATA
309
CELLSTYLE_END
  0
XRECORD
  5
38C
102
{ACAD_REACTORS
330
2E3
102
}
330
2E3
100
AcDbXrecord
280
     1
102
ACAD_ROUNDTRIP_PRE2007_TABLESTYLE
 90
        4
 91
        0
  1

 92
        4
 93
        0
  2

 94
        4
 95
        0
  3

  0
XRECORD
  5
365
102
{ACAD_REACTORS
330
364
102
}
330
364
100
AcDbXrecord
280
     1
102
RTVSPost2010Prop28
280
     1
102
RTVSPost2010PropOp28
 70
     1
102
RTVSPost2010Prop29
280
     1
102
RTVSPost2010PropOp29
 70
     1
102
RTVSPost2010Prop30
280
     0
102
RTVSPost2010PropOp30
 70
     1
102
RTVSPost2010Prop31
280
     0
102
RTVSPost2010PropOp31
 70
     1
102
RTVSPost2010Prop32
280
     0
102
RTVSPost2010PropOp32
 70
     1
102
RTVSPost2010Prop33
280
     0
102
RTVSPost2010PropOp33
 70
     1
102
RTVSPost2010Prop34
280
     0
102
RTVSPost2010PropOp34
 70
     1
102
RTVSPost2010Prop35
280
     0
102
RTVSPost2010PropOp35
 70
     1
102
RTVSPost2010Prop36
280
     0
102
RTVSPost2010PropOp36
 70
     1
102
RTVSPost2010Prop37
 90
       50
102
RTVSPost2010PropOp37
 70
     1
102
RTVSPost2010Prop38
140
0.0
102
RTVSPost2010PropOp38
 70
     1
102
RTVSPost2010Prop39
140
1.0
102
RTVSPost2010PropOp39
 70
     1
102
RTVSPost2010Prop40
 90
        0
102
RTVSPost2010PropOp40
 70
     1
102
RTVSPost2010Prop41ColorIndex
 90
       18
102
RTVSPost2010Prop41ColorRGB
 90
        0
102
RTVSPost2010PropOp41
 70
     1
102
RTVSPost2010Prop42
 90
       50
102
RTVSPost2010PropOp42
 70
     1
102
RTVSPost2010Prop43
 90
        3
102
RTVSPost2010PropOp43
 70
     1
102
RTVSPost2010Prop44ColorIndex
 90
        5
102
RTVSPost2010Prop44ColorRGB
 90
      255
102
RTVSPost2010PropOp44
 70
     1
102
RTVSPost2010Prop45
280
     0
102
RTVSPost2010PropOp45
 70
     1
102
RTVSPost2010Prop46
 90
       50
102
RTVSPost2010PropOp46
 70
     1
102
RTVSPost2010Prop47
 90
       50
102
RTVSPost2010PropOp47
 70
     1
102
RTVSPost2010Prop48
 90
       50
102
RTVSPost2010PropOp48
 70
     1
102
RTVSPost2010Prop49
280
     0
102
RTVSPost2010PropOp49
 70
     1
102
RTVSPost2010Prop50
 90
       50
102
RTVSPost2010PropOp50
 70
     1
102
RTVSPost2010Prop51ColorIndex
 90
      256
102
RTVSPost2010Prop51ColorRGB
 90
-16777216
102
RTVSPost2010PropOp51
 70
     0
102
RTVSPost2010Prop52
140
1.0
102
RTVSPost2010PropOp52
 70
     0
102
RTVSPost2010Prop53
 90
        2
102
RTVSPost2010PropOp53
 70
     1
102
RTVSPost2010Prop54
  1
strokes_ogs.tif
102
RTVSPost2010PropOp54
 70
     1
102
RTVSPost2010Prop55
280
     0
102
RTVSPost2010PropOp55
 70
     1
102
RTVSPost2010Prop56
140
1.0
102
RTVSPost2010PropOp56
 70
     1
102
RTVSPost2010Prop57
140
1.0
102
RTVSPost2010PropOp57
 70
     1
102
RTVSPropertyOp0
 70
     1
102
RTVSPropertyOp1
 70
     1
102
RTVSPropertyOp2
 70
     1
102
RTVSPropertyOp3
 70
     1
102
RTVSPropertyOp4
 70
     1
102
RTVSPropertyOp5
 70
     1
102
RTVSPropertyOp6
 70
     1
102
RTVSPropertyOp7
 70
     1
102
RTVSPropertyOp8
 70
     1
102
RTVSPropertyOp9
 70
     1
102
RTVSPropertyOp10
 70
     1
102
RTVSPropertyOp11
 70
     1
102
RTVSPropertyOp12
 70
     1
102
RTVSPropertyOp13
 70
     1
102
RTVSPropertyOp14
 70
     1
102
RTVSPropertyOp15
 70
     1
102
RTVSPropertyOp16
 70
     1
102
RTVSPropertyOp17
 70
     1
102
RTVSPropertyOp18
 70
     1
102
RTVSPropertyOp19
 70
     1
102
RTVSPropertyOp20
 70
     1
102
RTVSPropertyOp21
 70
     1
102
RTVSPropertyOp22
 70
     1
102
RTVSPropertyOp23
 70
     1
102
RTVSPropertyOp24
 70
     1
102
RTVSPropertyOp25
 70
     1
102
RTVSPropertyOp26
 70
     1
102
RTVSPropertyOp27
 70
     1
102
RTVSPropertyOp28
 70
     1
102
RTVSPropertyOp29
 70
     1
102
RTVSPropertyOp30
 70
     1
102
RTVSPropertyOp31
 70
     1
102
RTVSPropertyOp32
 70
     1
102
RTVSPropertyOp33
 70
     1
102
RTVSPropertyOp34
 70
     1
102
RTVSPropertyOp35
 70
     1
102
RTVSPropertyOp36
 70
     1
102
RTVSPropertyOp37
 70
     1
102
RTVSPropertyOp38
 70
     1
102
RTVSPropertyOp39
 70
     1
102
RTVSPropertyOp40
 70
     1
102
RTVSPropertyOp41
 70
     1
102
RTVSPropertyOp42
 70
     1
102
RTVSPropertyOp43
 70
     1
102
RTVSPropertyOp44
 70
     1
102
RTVSPropertyOp45
 70
     1
102
RTVSPropertyOp46
 70
     1
102
RTVSPropertyOp47
 70
     1
102
RTVSPropertyOp48
 70
     1
102
RTVSPropertyOp49
 70
     1
102
RTVSPropertyOp50
 70
     1
102
RTVSPropertyOp51
 70
     0
102
RTVSPropertyOp52
 70
     0
102
RTVSPropertyOp53
 70
     1
102
RTVSPropertyOp54
 70
     1
102
RTVSPropertyOp55
 70
     1
102
RTVSPropertyOp56
 70
     1
102
RTVSPropertyOp57
 70
     1
102
RTVSPropertyOp58
 70
     1
102
RTVSPropertyOp59
 70
     1
102
RTVSPropertyOp60
 70
     1
102
RTVSPropertyOp61
 70
     1
102
RTVSPropertyOp62
 70
     1
  0
XRECORD
  5
36B
102
{ACAD_REACTORS
330
36A
102
}
330
36A
100
AcDbXrecord
280
     1
102
RTVSPost2010Prop28
280
     0
102
RTVSPost2010PropOp28
 70
     1
102
RTVSPost2010Prop29
280
     1
102
RTVSPost2010PropOp29
 70
     1
102
RTVSPost2010Prop30
280
     1
102
RTVSPost2010PropOp30
 70
     1
102
RTVSPost2010Prop31
280
     0
102
RTVSPost2010PropOp31
 70
     1
102
RTVSPost2010Prop32
280
     0
102
RTVSPost2010PropOp32
 70
     1
102
RTVSPost2010Prop33
280
     0
102
RTVSPost2010PropOp33
 70
     1
102
RTVSPost2010Prop34
280
     0
102
RTVSPost2010PropOp34
 70
     1
102
RTVSPost2010Prop35
280
     0
102
RTVSPost2010PropOp35
 70
     1
102
RTVSPost2010Prop36
280
     0
102
RTVSPost2010PropOp36
 70
     1
102
RTVSPost2010Prop37
 90
       50
102
RTVSPost2010PropOp37
 70
     1
102
RTVSPost2010Prop38
140
0.0
102
RTVSPost2010PropOp38
 70
     1
102
RTVSPost2010Prop39
140
1.0
102
RTVSPost2010PropOp39
 70
     1
102
RTVSPost2010Prop40
 90
        0
102
RTVSPost2010PropOp40
 70
     1
102
RTVSPost2010Prop41ColorIndex
 90
       18
102
RTVSPost2010Prop41ColorRGB
 90
        0
102
RTVSPost2010PropOp41
 70
     1
102
RTVSPost2010Prop42
 90
       50
102
RTVSPost2010PropOp42
 70
     1
102
RTVSPost2010Prop43
 90
        3
102
RTVSPost2010PropOp43
 70
     1
102
RTVSPost2010Prop44ColorIndex
 90
        5
102
RTVSPost2010Prop44ColorRGB
 90
      255
102
RTVSPost2010PropOp44
 70
     1
102
RTVSPost2010Prop45
280
     0
102
RTVSPost2010PropOp45
 70
     1
102
RTVSPost2010Prop46
 90
       50
102
RTVSPost2010PropOp46
 70
     1
102
RTVSPost2010Prop47
 90
       50
102
RTVSPost2010PropOp47
 70
     1
102
RTVSPost2010Prop48
 90
       50
102
RTVSPost2010PropOp48
 70
     1
102
RTVSPost2010Prop49
280
     0
102
RTVSPost2010PropOp49
 70
     1
102
RTVSPost2010Prop50
 90
       50
102
RTVSPost2010PropOp50
 70
     1
102
RTVSPost2010Prop51ColorIndex
 90
      256
102
RTVSPost2010Prop51ColorRGB
 90
-16777216
102
RTVSPost2010PropOp51
 70
     0
102
RTVSPost2010Prop52
140
1.0
102
RTVSPost2010PropOp52
 70
     0
102
RTVSPost2010Prop53
 90
        2
102
RTVSPost2010PropOp53
 70
     1
102
RTVSPost2010Prop54
  1
strokes_ogs.tif
102
RTVSPost2010PropOp54
 70
     1
102
RTVSPost2010Prop55
280
     0
102
RTVSPost2010PropOp55
 70
     1
102
RTVSPost2010Prop56
140
1.0
102
RTVSPost2010PropOp56
 70
     1
102
RTVSPost2010Prop57
140
1.0
102
RTVSPost2010PropOp57
 70
     1
102
RTVSPropertyOp0
 70
     1
102
RTVSPropertyOp1
 70
     1
102
RTVSPropertyOp2
 70
     1
102
RTVSPropertyOp3
 70
     1
102
RTVSPropertyOp4
 70
     1
102
RTVSPropertyOp5
 70
     1
102
RTVSPropertyOp6
 70
     1
102
RTVSPropertyOp7
 70
     1
102
RTVSPropertyOp8
 70
     1
102
RTVSPropertyOp9
 70
     1
102
RTVSPropertyOp10
 70
     1
102
RTVSPropertyOp11
 70
     1
102
RTVSPropertyOp12
 70
     1
102
RTVSPropertyOp13
 70
     1
102
RTVSPropertyOp14
 70
     1
102
RTVSPropertyOp15
 70
     1
102
RTVSPropertyOp16
 70
     1
102
RTVSPropertyOp17
 70
     1
102
RTVSPropertyOp18
 70
     1
102
RTVSPropertyOp19
 70
     1
102
RTVSPropertyOp20
 70
     1
102
RTVSPropertyOp21
 70
     1
102
RTVSPropertyOp22
 70
     1
102
RTVSPropertyOp23
 70
     1
102
RTVSPropertyOp24
 70
     1
102
RTVSPropertyOp25
 70
     1
102
RTVSPropertyOp26
 70
     1
102
RTVSPropertyOp27
 70
     1
102
RTVSPropertyOp28
 70
     1
102
RTVSPropertyOp29
 70
     1
102
RTVSPropertyOp30
 70
     1
102
RTVSPropertyOp31
 70
     1
102
RTVSPropertyOp32
 70
     1
102
RTVSPropertyOp33
 70
     1
102
RTVSPropertyOp34
 70
     1
102
RTVSPropertyOp35
 70
     1
102
RTVSPropertyOp36
 70
     1
102
RTVSPropertyOp37
 70
     1
102
RTVSPropertyOp38
 70
     1
102
RTVSPropertyOp39
 70
     1
102
RTVSPropertyOp40
 70
     1
102
RTVSPropertyOp41
 70
     1
102
RTVSPropertyOp42
 70
     1
102
RTVSPropertyOp43
 70
     1
102
RTVSPropertyOp44
 70
     1
102
RTVSPropertyOp45
 70
     1
102
RTVSPropertyOp46
 70
     1
102
RTVSPropertyOp47
 70
     1
102
RTVSPropertyOp48
 70
     1
102
RTVSPropertyOp49
 70
     1
102
RTVSPropertyOp50
 70
     1
102
RTVSPropertyOp51
 70
     0
102
RTVSPropertyOp52
 70
     0
102
RTVSPropertyOp53
 70
     1
102
RTVSPropertyOp54
 70
     1
102
RTVSPropertyOp55
 70
     1
102
RTVSPropertyOp56
 70
     1
102
RTVSPropertyOp57
 70
     1
102
RTVSPropertyOp58
 70
     1
102
RTVSPropertyOp59
 70
     1
102
RTVSPropertyOp60
 70
     1
102
RTVSPropertyOp61
 70
     1
102
RTVSPropertyOp62
 70
     1
  0
XRECORD
  5
373
102
{ACAD_REACTORS
330
372
102
}
330
372
100
AcDbXrecord
280
     1
102
RTVSPost2010Prop28
280
     0
102
RTVSPost2010PropOp28
 70
     1
102
RTVSPost2010Prop29
280
     1
102
RTVSPost2010PropOp29
 70
     1
102
RTVSPost2010Prop30
280
     1
102
RTVSPost2010PropOp30
 70
     1
102
RTVSPost2010Prop31
280
     0
102
RTVSPost2010PropOp31
 70
     1
102
RTVSPost2010Prop32
280
     0
102
RTVSPost2010PropOp32
 70
     1
102
RTVSPost2010Prop33
280
     0
102
RTVSPost2010PropOp33
 70
     1
102
RTVSPost2010Prop34
280
     0
102
RTVSPost2010PropOp34
 70
     1
102
RTVSPost2010Prop35
280
     0
102
RTVSPost2010PropOp35
 70
     1
102
RTVSPost2010Prop36
280
     0
102
RTVSPost2010PropOp36
 70
     1
102
RTVSPost2010Prop37
 90
       50
102
RTVSPost2010PropOp37
 70
     1
102
RTVSPost2010Prop38
140
0.0
102
RTVSPost2010PropOp38
 70
     1
102
RTVSPost2010Prop39
140
1.0
102
RTVSPost2010PropOp39
 70
     1
102
RTVSPost2010Prop40
 90
        0
102
RTVSPost2010PropOp40
 70
     1
102
RTVSPost2010Prop41ColorIndex
 90
       18
102
RTVSPost2010Prop41ColorRGB
 90
        0
102
RTVSPost2010PropOp41
 70
     1
102
RTVSPost2010Prop42
 90
       50
102
RTVSPost2010PropOp42
 70
     1
102
RTVSPost2010Prop43
 90
        3
102
RTVSPost2010PropOp43
 70
     1
102
RTVSPost2010Prop44ColorIndex
 90
        5
102
RTVSPost2010Prop44ColorRGB
 90
      255
102
RTVSPost2010PropOp44
 70
     1
102
RTVSPost2010Prop45
280
     0
102
RTVSPost2010PropOp45
 70
     1
102
RTVSPost2010Prop46
 90
       50
102
RTVSPost2010PropOp46
 70
     1
102
RTVSPost2010Prop47
 90
       50
102
RTVSPost2010PropOp47
 70
     1
102
RTVSPost2010Prop48
 90
       50
102
RTVSPost2010PropOp48
 70
     1
102
RTVSPost2010Prop49
280
     0
102
RTVSPost2010PropOp49
 70
     1
102
RTVSPost2010Prop50
 90
       50
102
RTVSPost2010PropOp50
 70
     1
102
RTVSPost2010Prop51ColorIndex
 90
      256
102
RTVSPost2010Prop51ColorRGB
 90
-16777216
102
RTVSPost2010PropOp51
 70
     0
102
RTVSPost2010Prop52
140
1.0
102
RTVSPost2010PropOp52
 70
     0
102
RTVSPost2010Prop53
 90
        2
102
RTVSPost2010PropOp53
 70
     1
102
RTVSPost2010Prop54
  1
strokes_ogs.tif
102
RTVSPost2010PropOp54
 70
     1
102
RTVSPost2010Prop55
280
     0
102
RTVSPost2010PropOp55
 70
     1
102
RTVSPost2010Prop56
140
1.0
102
RTVSPost2010PropOp56
 70
     1
102
RTVSPost2010Prop57
140
1.0
102
RTVSPost2010PropOp57
 70
     1
102
RTVSPropertyOp0
 70
     1
102
RTVSPropertyOp1
 70
     1
102
RTVSPropertyOp2
 70
     1
102
RTVSPropertyOp3
 70
     1
102
RTVSPropertyOp4
 70
     1
102
RTVSPropertyOp5
 70
     1
102
RTVSPropertyOp6
 70
     1
102
RTVSPropertyOp7
 70
     1
102
RTVSPropertyOp8
 70
     1
102
RTVSPropertyOp9
 70
     1
102
RTVSPropertyOp10
 70
     1
102
RTVSPropertyOp11
 70
     1
102
RTVSPropertyOp12
 70
     1
102
RTVSPropertyOp13
 70
     1
102
RTVSPropertyOp14
 70
     1
102
RTVSPropertyOp15
 70
     1
102
RTVSPropertyOp16
 70
     1
102
RTVSPropertyOp17
 70
     1
102
RTVSPropertyOp18
 70
     1
102
RTVSPropertyOp19
 70
     1
102
RTVSPropertyOp20
 70
     1
102
RTVSPropertyOp21
 70
     1
102
RTVSPropertyOp22
 70
     1
102
RTVSPropertyOp23
 70
     1
102
RTVSPropertyOp24
 70
     1
102
RTVSPropertyOp25
 70
     1
102
RTVSPropertyOp26
 70
     1
102
RTVSPropertyOp27
 70
     1
102
RTVSPropertyOp28
 70
     1
102
RTVSPropertyOp29
 70
     1
102
RTVSPropertyOp30
 70
     1
102
RTVSPropertyOp31
 70
     1
102
RTVSPropertyOp32
 70
     1
102
RTVSPropertyOp33
 70
     1
102
RTVSPropertyOp34
 70
     1
102
RTVSPropertyOp35
 70
     1
102
RTVSPropertyOp36
 70
     1
102
RTVSPropertyOp37
 70
     1
102
RTVSPropertyOp38
 70
     1
102
RTVSPropertyOp39
 70
     1
102
RTVSPropertyOp40
 70
     1
102
RTVSPropertyOp41
 70
     1
102
RTVSPropertyOp42
 70
     1
102
RTVSPropertyOp43
 70
     1
102
RTVSPropertyOp44
 70
     1
102
RTVSPropertyOp45
 70
     1
102
RTVSPropertyOp46
 70
     1
102
RTVSPropertyOp47
 70
     1
102
RTVSPropertyOp48
 70
     1
102
RTVSPropertyOp49
 70
     1
102
RTVSPropertyOp50
 70
     1
102
RTVSPropertyOp51
 70
     0
102
RTVSPropertyOp52
 70
     0
102
RTVSPropertyOp53
 70
     1
102
RTVSPropertyOp54
 70
     1
102
RTVSPropertyOp55
 70
     1
102
RTVSPropertyOp56
 70
     1
102
RTVSPropertyOp57
 70
     1
102
RTVSPropertyOp58
 70
     1
102
RTVSPropertyOp59
 70
     1
102
RTVSPropertyOp60
 70
     1
102
RTVSPropertyOp61
 70
     1
102
RTVSPropertyOp62
 70
     1
  0
XRECORD
  5
37B
102
{ACAD_REACTORS
330
37A
102
}
330
37A
100
AcDbXrecord
280
     1
102
RTVSPost2010Prop28
280
     0
102
RTVSPost2010PropOp28
 70
     1
102
RTVSPost2010Prop29
280
     1
102
RTVSPost2010PropOp29
 70
     1
102
RTVSPost2010Prop30
280
     1
102
RTVSPost2010PropOp30
 70
     1
102
RTVSPost2010Prop31
280
     0
102
RTVSPost2010PropOp31
 70
     1
102
RTVSPost2010Prop32
280
     0
102
RTVSPost2010PropOp32
 70
     1
102
RTVSPost2010Prop33
280
     0
102
RTVSPost2010PropOp33
 70
     1
102
RTVSPost2010Prop34
280
     0
102
RTVSPost2010PropOp34
 70
     1
102
RTVSPost2010Prop35
280
     0
102
RTVSPost2010PropOp35
 70
     1
102
RTVSPost2010Prop36
280
     0
102
RTVSPost2010PropOp36
 70
     1
102
RTVSPost2010Prop37
 90
       50
102
RTVSPost2010PropOp37
 70
     1
102
RTVSPost2010Prop38
140
0.0
102
RTVSPost2010PropOp38
 70
     1
102
RTVSPost2010Prop39
140
1.0
102
RTVSPost2010PropOp39
 70
     1
102
RTVSPost2010Prop40
 90
        0
102
RTVSPost2010PropOp40
 70
     1
102
RTVSPost2010Prop41ColorIndex
 90
       18
102
RTVSPost2010Prop41ColorRGB
 90
        0
102
RTVSPost2010PropOp41
 70
     1
102
RTVSPost2010Prop42
 90
       50
102
RTVSPost2010PropOp42
 70
     1
102
RTVSPost2010Prop43
 90
        3
102
RTVSPost2010PropOp43
 70
     1
102
RTVSPost2010Prop44ColorIndex
 90
        5
102
RTVSPost2010Prop44ColorRGB
 90
      255
102
RTVSPost2010PropOp44
 70
     1
102
RTVSPost2010Prop45
280
     0
102
RTVSPost2010PropOp45
 70
     1
102
RTVSPost2010Prop46
 90
       50
102
RTVSPost2010PropOp46
 70
     1
102
RTVSPost2010Prop47
 90
       50
102
RTVSPost2010PropOp47
 70
     1
102
RTVSPost2010Prop48
 90
       50
102
RTVSPost2010PropOp48
 70
     1
102
RTVSPost2010Prop49
280
     0
102
RTVSPost2010PropOp49
 70
     1
102
RTVSPost2010Prop50
 90
       50
102
RTVSPost2010PropOp50
 70
     1
102
RTVSPost2010Prop51ColorIndex
 90
      256
102
RTVSPost2010Prop51ColorRGB
 90
-16777216
102
RTVSPost2010PropOp51
 70
     0
102
RTVSPost2010Prop52
140
1.0
102
RTVSPost2010PropOp52
 70
     0
102
RTVSPost2010Prop53
 90
        2
102
RTVSPost2010PropOp53
 70
     1
102
RTVSPost2010Prop54
  1
strokes_ogs.tif
102
RTVSPost2010PropOp54
 70
     1
102
RTVSPost2010Prop55
280
     0
102
RTVSPost2010PropOp55
 70
     1
102
RTVSPost2010Prop56
140
1.0
102
RTVSPost2010PropOp56
 70
     1
102
RTVSPost2010Prop57
140
1.0
102
RTVSPost2010PropOp57
 70
     1
102
RTVSPropertyOp0
 70
     1
102
RTVSPropertyOp1
 70
     1
102
RTVSPropertyOp2
 70
     1
102
RTVSPropertyOp3
 70
     1
102
RTVSPropertyOp4
 70
     1
102
RTVSPropertyOp5
 70
     1
102
RTVSPropertyOp6
 70
     1
102
RTVSPropertyOp7
 70
     1
102
RTVSPropertyOp8
 70
     1
102
RTVSPropertyOp9
 70
     1
102
RTVSPropertyOp10
 70
     1
102
RTVSPropertyOp11
 70
     1
102
RTVSPropertyOp12
 70
     1
102
RTVSPropertyOp13
 70
     1
102
RTVSPropertyOp14
 70
     1
102
RTVSPropertyOp15
 70
     1
102
RTVSPropertyOp16
 70
     1
102
RTVSPropertyOp17
 70
     1
102
RTVSPropertyOp18
 70
     1
102
RTVSPropertyOp19
 70
     1
102
RTVSPropertyOp20
 70
     1
102
RTVSPropertyOp21
 70
     1
102
RTVSPropertyOp22
 70
     1
102
RTVSPropertyOp23
 70
     1
102
RTVSPropertyOp24
 70
     1
102
RTVSPropertyOp25
 70
     1
102
RTVSPropertyOp26
 70
     1
102
RTVSPropertyOp27
 70
     1
102
RTVSPropertyOp28
 70
     1
102
RTVSPropertyOp29
 70
     1
102
RTVSPropertyOp30
 70
     1
102
RTVSPropertyOp31
 70
     1
102
RTVSPropertyOp32
 70
     1
102
RTVSPropertyOp33
 70
     1
102
RTVSPropertyOp34
 70
     1
102
RTVSPropertyOp35
 70
     1
102
RTVSPropertyOp36
 70
     1
102
RTVSPropertyOp37
 70
     1
102
RTVSPropertyOp38
 70
     1
102
RTVSPropertyOp39
 70
     1
102
RTVSPropertyOp40
 70
     1
102
RTVSPropertyOp41
 70
     1
102
RTVSPropertyOp42
 70
     1
102
RTVSPropertyOp43
 70
     1
102
RTVSPropertyOp44
 70
     1
102
RTVSPropertyOp45
 70
     1
102
RTVSPropertyOp46
 70
     1
102
RTVSPropertyOp47
 70
     1
102
RTVSPropertyOp48
 70
     1
102
RTVSPropertyOp49
 70
     1
102
RTVSPropertyOp50
 70
     1
102
RTVSPropertyOp51
 70
     0
102
RTVSPropertyOp52
 70
     0
102
RTVSPropertyOp53
 70
     1
102
RTVSPropertyOp54
 70
     1
102
RTVSPropertyOp55
 70
     1
102
RTVSPropertyOp56
 70
     1
102
RTVSPropertyOp57
 70
     1
102
RTVSPropertyOp58
 70
     1
102
RTVSPropertyOp59
 70
     1
102
RTVSPropertyOp60
 70
     1
102
RTVSPropertyOp61
 70
     1
102
RTVSPropertyOp62
 70
     1
  0
XRECORD
  5
36F
102
{ACAD_REACTORS
330
36E
102
}
330
36E
100
AcDbXrecord
280
     1
102
RTVSPost2010Prop28
280
     0
102
RTVSPost2010PropOp28
 70
     1
102
RTVSPost2010Prop29
280
     1
102
RTVSPost2010PropOp29
 70
     1
102
RTVSPost2010Prop30
280
     1
102
RTVSPost2010PropOp30
 70
     1
102
RTVSPost2010Prop31
280
     0
102
RTVSPost2010PropOp31
 70
     1
102
RTVSPost2010Prop32
280
     0
102
RTVSPost2010PropOp32
 70
     1
102
RTVSPost2010Prop33
280
     0
102
RTVSPost2010PropOp33
 70
     1
102
RTVSPost2010Prop34
280
     0
102
RTVSPost2010PropOp34
 70
     1
102
RTVSPost2010Prop35
280
     0
102
RTVSPost2010PropOp35
 70
     1
102
RTVSPost2010Prop36
280
     0
102
RTVSPost2010PropOp36
 70
     1
102
RTVSPost2010Prop37
 90
       50
102
RTVSPost2010PropOp37
 70
     1
102
RTVSPost2010Prop38
140
0.0
102
RTVSPost2010PropOp38
 70
     1
102
RTVSPost2010Prop39
140
1.0
102
RTVSPost2010PropOp39
 70
     1
102
RTVSPost2010Prop40
 90
        0
102
RTVSPost2010PropOp40
 70
     1
102
RTVSPost2010Prop41ColorIndex
 90
       18
102
RTVSPost2010Prop41ColorRGB
 90
        0
102
RTVSPost2010PropOp41
 70
     1
102
RTVSPost2010Prop42
 90
       50
102
RTVSPost2010PropOp42
 70
     1
102
RTVSPost2010Prop43
 90
        3
102
RTVSPost2010PropOp43
 70
     1
102
RTVSPost2010Prop44ColorIndex
 90
        5
102
RTVSPost2010Prop44ColorRGB
 90
      255
102
RTVSPost2010PropOp44
 70
     1
102
RTVSPost2010Prop45
280
     0
102
RTVSPost2010PropOp45
 70
     1
102
RTVSPost2010Prop46
 90
       50
102
RTVSPost2010PropOp46
 70
     1
102
RTVSPost2010Prop47
 90
       50
102
RTVSPost2010PropOp47
 70
     1
102
RTVSPost2010Prop48
 90
       50
102
RTVSPost2010PropOp48
 70
     1
102
RTVSPost2010Prop49
280
     0
102
RTVSPost2010PropOp49
 70
     1
102
RTVSPost2010Prop50
 90
       50
102
RTVSPost2010PropOp50
 70
     1
102
RTVSPost2010Prop51ColorIndex
 90
      256
102
RTVSPost2010Prop51ColorRGB
 90
-16777216
102
RTVSPost2010PropOp51
 70
     0
102
RTVSPost2010Prop52
140
1.0
102
RTVSPost2010PropOp52
 70
     0
102
RTVSPost2010Prop53
 90
        2
102
RTVSPost2010PropOp53
 70
     1
102
RTVSPost2010Prop54
  1
strokes_ogs.tif
102
RTVSPost2010PropOp54
 70
     1
102
RTVSPost2010Prop55
280
     0
102
RTVSPost2010PropOp55
 70
     1
102
RTVSPost2010Prop56
140
1.0
102
RTVSPost2010PropOp56
 70
     1
102
RTVSPost2010Prop57
140
1.0
102
RTVSPost2010PropOp57
 70
     1
102
RTVSPropertyOp0
 70
     1
102
RTVSPropertyOp1
 70
     1
102
RTVSPropertyOp2
 70
     1
102
RTVSPropertyOp3
 70
     1
102
RTVSPropertyOp4
 70
     1
102
RTVSPropertyOp5
 70
     1
102
RTVSPropertyOp6
 70
     1
102
RTVSPropertyOp7
 70
     1
102
RTVSPropertyOp8
 70
     1
102
RTVSPropertyOp9
 70
     1
102
RTVSPropertyOp10
 70
     1
102
RTVSPropertyOp11
 70
     1
102
RTVSPropertyOp12
 70
     1
102
RTVSPropertyOp13
 70
     1
102
RTVSPropertyOp14
 70
     1
102
RTVSPropertyOp15
 70
     1
102
RTVSPropertyOp16
 70
     1
102
RTVSPropertyOp17
 70
     1
102
RTVSPropertyOp18
 70
     1
102
RTVSPropertyOp19
 70
     1
102
RTVSPropertyOp20
 70
     1
102
RTVSPropertyOp21
 70
     1
102
RTVSPropertyOp22
 70
     1
102
RTVSPropertyOp23
 70
     1
102
RTVSPropertyOp24
 70
     1
102
RTVSPropertyOp25
 70
     1
102
RTVSPropertyOp26
 70
     1
102
RTVSPropertyOp27
 70
     1
102
RTVSPropertyOp28
 70
     1
102
RTVSPropertyOp29
 70
     1
102
RTVSPropertyOp30
 70
     1
102
RTVSPropertyOp31
 70
     1
102
RTVSPropertyOp32
 70
     1
102
RTVSPropertyOp33
 70
     1
102
RTVSPropertyOp34
 70
     1
102
RTVSPropertyOp35
 70
     1
102
RTVSPropertyOp36
 70
     1
102
RTVSPropertyOp37
 70
     1
102
RTVSPropertyOp38
 70
     1
102
RTVSPropertyOp39
 70
     1
102
RTVSPropertyOp40
 70
     1
102
RTVSPropertyOp41
 70
     1
102
RTVSPropertyOp42
 70
     1
102
RTVSPropertyOp43
 70
     1
102
RTVSPropertyOp44
 70
     1
102
RTVSPropertyOp45
 70
     1
102
RTVSPropertyOp46
 70
     1
102
RTVSPropertyOp47
 70
     1
102
RTVSPropertyOp48
 70
     1
102
RTVSPropertyOp49
 70
     1
102
RTVSPropertyOp50
 70
     1
102
RTVSPropertyOp51
 70
     0
102
RTVSPropertyOp52
 70
     0
102
RTVSPropertyOp53
 70
     1
102
RTVSPropertyOp54
 70
     1
102
RTVSPropertyOp55
 70
     1
102
RTVSPropertyOp56
 70
     1
102
RTVSPropertyOp57
 70
     1
102
RTVSPropertyOp58
 70
     1
102
RTVSPropertyOp59
 70
     1
102
RTVSPropertyOp60
 70
     1
102
RTVSPropertyOp61
 70
     1
102
RTVSPropertyOp62
 70
     1
  0
XRECORD
  5
371
102
{ACAD_REACTORS
330
370
102
}
330
370
100
AcDbXrecord
280
     1
102
RTVSPost2010Prop28
280
     0
102
RTVSPost2010PropOp28
 70
     1
102
RTVSPost2010Prop29
280
     1
102
RTVSPost2010PropOp29
 70
     1
102
RTVSPost2010Prop30
280
     1
102
RTVSPost2010PropOp30
 70
     1
102
RTVSPost2010Prop31
280
     0
102
RTVSPost2010PropOp31
 70
     1
102
RTVSPost2010Prop32
280
     0
102
RTVSPost2010PropOp32
 70
     1
102
RTVSPost2010Prop33
280
     0
102
RTVSPost2010PropOp33
 70
     1
102
RTVSPost2010Prop34
280
     0
102
RTVSPost2010PropOp34
 70
     1
102
RTVSPost2010Prop35
280
     0
102
RTVSPost2010PropOp35
 70
     1
102
RTVSPost2010Prop36
280
     0
102
RTVSPost2010PropOp36
 70
     1
102
RTVSPost2010Prop37
 90
       50
102
RTVSPost2010PropOp37
 70
     1
102
RTVSPost2010Prop38
140
0.0
102
RTVSPost2010PropOp38
 70
     1
102
RTVSPost2010Prop39
140
1.0
102
RTVSPost2010PropOp39
 70
     1
102
RTVSPost2010Prop40
 90
        0
102
RTVSPost2010PropOp40
 70
     1
102
RTVSPost2010Prop41ColorIndex
 90
       18
102
RTVSPost2010Prop41ColorRGB
 90
        0
102
RTVSPost2010PropOp41
 70
     1
102
RTVSPost2010Prop42
 90
       50
102
RTVSPost2010PropOp42
 70
     1
102
RTVSPost2010Prop43
 90
        3
102
RTVSPost2010PropOp43
 70
     1
102
RTVSPost2010Prop44ColorIndex
 90
        5
102
RTVSPost2010Prop44ColorRGB
 90
      255
102
RTVSPost2010PropOp44
 70
     1
102
RTVSPost2010Prop45
280
     0
102
RTVSPost2010PropOp45
 70
     1
102
RTVSPost2010Prop46
 90
       50
102
RTVSPost2010PropOp46
 70
     1
102
RTVSPost2010Prop47
 90
       50
102
RTVSPost2010PropOp47
 70
     1
102
RTVSPost2010Prop48
 90
       50
102
RTVSPost2010PropOp48
 70
     1
102
RTVSPost2010Prop49
280
     0
102
RTVSPost2010PropOp49
 70
     1
102
RTVSPost2010Prop50
 90
       50
102
RTVSPost2010PropOp50
 70
     1
102
RTVSPost2010Prop51ColorIndex
 90
      256
102
RTVSPost2010Prop51ColorRGB
 90
-16777216
102
RTVSPost2010PropOp51
 70
     0
102
RTVSPost2010Prop52
140
1.0
102
RTVSPost2010PropOp52
 70
     0
102
RTVSPost2010Prop53
 90
        2
102
RTVSPost2010PropOp53
 70
     1
102
RTVSPost2010Prop54
  1
strokes_ogs.tif
102
RTVSPost2010PropOp54
 70
     1
102
RTVSPost2010Prop55
280
     0
102
RTVSPost2010PropOp55
 70
     1
102
RTVSPost2010Prop56
140
1.0
102
RTVSPost2010PropOp56
 70
     1
102
RTVSPost2010Prop57
140
1.0
102
RTVSPost2010PropOp57
 70
     1
102
RTVSPropertyOp0
 70
     1
102
RTVSPropertyOp1
 70
     1
102
RTVSPropertyOp2
 70
     1
102
RTVSPropertyOp3
 70
     1
102
RTVSPropertyOp4
 70
     1
102
RTVSPropertyOp5
 70
     1
102
RTVSPropertyOp6
 70
     1
102
RTVSPropertyOp7
 70
     1
102
RTVSPropertyOp8
 70
     1
102
RTVSPropertyOp9
 70
     1
102
RTVSPropertyOp10
 70
     1
102
RTVSPropertyOp11
 70
     1
102
RTVSPropertyOp12
 70
     1
102
RTVSPropertyOp13
 70
     1
102
RTVSPropertyOp14
 70
     1
102
RTVSPropertyOp15
 70
     1
102
RTVSPropertyOp16
 70
     1
102
RTVSPropertyOp17
 70
     1
102
RTVSPropertyOp18
 70
     1
102
RTVSPropertyOp19
 70
     1
102
RTVSPropertyOp20
 70
     1
102
RTVSPropertyOp21
 70
     1
102
RTVSPropertyOp22
 70
     1
102
RTVSPropertyOp23
 70
     1
102
RTVSPropertyOp24
 70
     1
102
RTVSPropertyOp25
 70
     1
102
RTVSPropertyOp26
 70
     1
102
RTVSPropertyOp27
 70
     1
102
RTVSPropertyOp28
 70
     1
102
RTVSPropertyOp29
 70
     1
102
RTVSPropertyOp30
 70
     1
102
RTVSPropertyOp31
 70
     1
102
RTVSPropertyOp32
 70
     1
102
RTVSPropertyOp33
 70
     1
102
RTVSPropertyOp34
 70
     1
102
RTVSPropertyOp35
 70
     1
102
RTVSPropertyOp36
 70
     1
102
RTVSPropertyOp37
 70
     1
102
RTVSPropertyOp38
 70
     1
102
RTVSPropertyOp39
 70
     1
102
RTVSPropertyOp40
 70
     1
102
RTVSPropertyOp41
 70
     1
102
RTVSPropertyOp42
 70
     1
102
RTVSPropertyOp43
 70
     1
102
RTVSPropertyOp44
 70
     1
102
RTVSPropertyOp45
 70
     1
102
RTVSPropertyOp46
 70
     1
102
RTVSPropertyOp47
 70
     1
102
RTVSPropertyOp48
 70
     1
102
RTVSPropertyOp49
 70
     1
102
RTVSPropertyOp50
 70
     1
102
RTVSPropertyOp51
 70
     0
102
RTVSPropertyOp52
 70
     0
102
RTVSPropertyOp53
 70
     1
102
RTVSPropertyOp54
 70
     1
102
RTVSPropertyOp55
 70
     1
102
RTVSPropertyOp56
 70
     1
102
RTVSPropertyOp57
 70
     1
102
RTVSPropertyOp58
 70
     1
102
RTVSPropertyOp59
 70
     1
102
RTVSPropertyOp60
 70
     1
102
RTVSPropertyOp61
 70
     1
102
RTVSPropertyOp62
 70
     1
  0
XRECORD
  5
381
102
{ACAD_REACTORS
330
380
102
}
330
380
100
AcDbXrecord
280
     1
102
RTVSPost2010Prop28
280
     0
102
RTVSPost2010PropOp28
 70
     0
102
RTVSPost2010Prop29
280
     1
102
RTVSPost2010PropOp29
 70
     0
102
RTVSPost2010Prop30
280
     1
102
RTVSPost2010PropOp30
 70
     0
102
RTVSPost2010Prop31
280
     0
102
RTVSPost2010PropOp31
 70
     0
102
RTVSPost2010Prop32
280
     0
102
RTVSPost2010PropOp32
 70
     0
102
RTVSPost2010Prop33
280
     0
102
RTVSPost2010PropOp33
 70
     0
102
RTVSPost2010Prop34
280
     0
102
RTVSPost2010PropOp34
 70
     0
102
RTVSPost2010Prop35
280
     0
102
RTVSPost2010PropOp35
 70
     0
102
RTVSPost2010Prop36
280
     0
102
RTVSPost2010PropOp36
 70
     0
102
RTVSPost2010Prop37
 90
       50
102
RTVSPost2010PropOp37
 70
     0
102
RTVSPost2010Prop38
140
0.0
102
RTVSPost2010PropOp38
 70
     0
102
RTVSPost2010Prop39
140
1.0
102
RTVSPost2010PropOp39
 70
     0
102
RTVSPost2010Prop40
 90
        0
102
RTVSPost2010PropOp40
 70
     0
102
RTVSPost2010Prop41ColorIndex
 90
       18
102
RTVSPost2010Prop41ColorRGB
 90
        0
102
RTVSPost2010PropOp41
 70
     0
102
RTVSPost2010Prop42
 90
       50
102
RTVSPost2010PropOp42
 70
     0
102
RTVSPost2010Prop43
 90
        3
102
RTVSPost2010PropOp43
 70
     0
102
RTVSPost2010Prop44ColorIndex
 90
        5
102
RTVSPost2010Prop44ColorRGB
 90
      255
102
RTVSPost2010PropOp44
 70
     0
102
RTVSPost2010Prop45
280
     0
102
RTVSPost2010PropOp45
 70
     0
102
RTVSPost2010Prop46
 90
       50
102
RTVSPost2010PropOp46
 70
     0
102
RTVSPost2010Prop47
 90
       50
102
RTVSPost2010PropOp47
 70
     0
102
RTVSPost2010Prop48
 90
       50
102
RTVSPost2010PropOp48
 70
     0
102
RTVSPost2010Prop49
280
     0
102
RTVSPost2010PropOp49
 70
     0
102
RTVSPost2010Prop50
 90
       50
102
RTVSPost2010PropOp50
 70
     0
102
RTVSPost2010Prop51ColorIndex
 90
      256
102
RTVSPost2010Prop51ColorRGB
 90
-16777216
102
RTVSPost2010PropOp51
 70
     0
102
RTVSPost2010Prop52
140
1.0
102
RTVSPost2010PropOp52
 70
     0
102
RTVSPost2010Prop53
 90
        2
102
RTVSPost2010PropOp53
 70
     0
102
RTVSPost2010Prop54
  1
strokes_ogs.tif
102
RTVSPost2010PropOp54
 70
     0
102
RTVSPost2010Prop55
280
     0
102
RTVSPost2010PropOp55
 70
     0
102
RTVSPost2010Prop56
140
1.0
102
RTVSPost2010PropOp56
 70
     0
102
RTVSPost2010Prop57
140
1.0
102
RTVSPost2010PropOp57
 70
     0
102
RTVSPropertyOp0
 70
     0
102
RTVSPropertyOp1
 70
     0
102
RTVSPropertyOp2
 70
     0
102
RTVSPropertyOp3
 70
     0
102
RTVSPropertyOp4
 70
     0
102
RTVSPropertyOp5
 70
     0
102
RTVSPropertyOp6
 70
     0
102
RTVSPropertyOp7
 70
     0
102
RTVSPropertyOp8
 70
     0
102
RTVSPropertyOp9
 70
     0
102
RTVSPropertyOp10
 70
     0
102
RTVSPropertyOp11
 70
     0
102
RTVSPropertyOp12
 70
     0
102
RTVSPropertyOp13
 70
     0
102
RTVSPropertyOp14
 70
     2
102
RTVSPropertyOp15
 70
     0
102
RTVSPropertyOp16
 70
     0
102
RTVSPropertyOp17
 70
     0
102
RTVSPropertyOp18
 70
     0
102
RTVSPropertyOp19
 70
     0
102
RTVSPropertyOp20
 70
     0
102
RTVSPropertyOp21
 70
     0
102
RTVSPropertyOp22
 70
     0
102
RTVSPropertyOp23
 70
     0
102
RTVSPropertyOp24
 70
     0
102
RTVSPropertyOp25
 70
     0
102
RTVSPropertyOp26
 70
     0
102
RTVSPropertyOp27
 70
     0
102
RTVSPropertyOp28
 70
     0
102
RTVSPropertyOp29
 70
     0
102
RTVSPropertyOp30
 70
     0
102
RTVSPropertyOp31
 70
     0
102
RTVSPropertyOp32
 70
     0
102
RTVSPropertyOp33
 70
     0
102
RTVSPropertyOp34
 70
     0
102
RTVSPropertyOp35
 70
     0
102
RTVSPropertyOp36
 70
     0
102
RTVSPropertyOp37
 70
     0
102
RTVSPropertyOp38
 70
     0
102
RTVSPropertyOp39
 70
     0
102
RTVSPropertyOp40
 70
     0
102
RTVSPropertyOp41
 70
     0
102
RTVSPropertyOp42
 70
     0
102
RTVSPropertyOp43
 70
     0
102
RTVSPropertyOp44
 70
     0
102
RTVSPropertyOp45
 70
     0
102
RTVSPropertyOp46
 70
     0
102
RTVSPropertyOp47
 70
     0
102
RTVSPropertyOp48
 70
     0
102
RTVSPropertyOp49
 70
     0
102
RTVSPropertyOp50
 70
     0
102
RTVSPropertyOp51
 70
     0
102
RTVSPropertyOp52
 70
     0
102
RTVSPropertyOp53
 70
     0
102
RTVSPropertyOp54
 70
     0
102
RTVSPropertyOp55
 70
     0
102
RTVSPropertyOp56
 70
     0
102
RTVSPropertyOp57
 70
     0
102
RTVSPropertyOp58
 70
     1
102
RTVSPropertyOp59
 70
     1
102
RTVSPropertyOp60
 70
     1
102
RTVSPropertyOp61
 70
     1
102
RTVSPropertyOp62
 70
     1
  0
XRECORD
  5
379
102
{ACAD_REACTORS
330
378
102
}
330
378
100
AcDbXrecord
280
     1
102
RTVSPost2010Prop28
280
     0
102
RTVSPost2010PropOp28
 70
     1
102
RTVSPost2010Prop29
280
     1
102
RTVSPost2010PropOp29
 70
     1
102
RTVSPost2010Prop30
280
     1
102
RTVSPost2010PropOp30
 70
     1
102
RTVSPost2010Prop31
280
     0
102
RTVSPost2010PropOp31
 70
     1
102
RTVSPost2010Prop32
280
     0
102
RTVSPost2010PropOp32
 70
     1
102
RTVSPost2010Prop33
280
     0
102
RTVSPost2010PropOp33
 70
     1
102
RTVSPost2010Prop34
280
     0
102
RTVSPost2010PropOp34
 70
     1
102
RTVSPost2010Prop35
280
     0
102
RTVSPost2010PropOp35
 70
     1
102
RTVSPost2010Prop36
280
     0
102
RTVSPost2010PropOp36
 70
     1
102
RTVSPost2010Prop37
 90
       50
102
RTVSPost2010PropOp37
 70
     1
102
RTVSPost2010Prop38
140
0.0
102
RTVSPost2010PropOp38
 70
     1
102
RTVSPost2010Prop39
140
1.0
102
RTVSPost2010PropOp39
 70
     1
102
RTVSPost2010Prop40
 90
        0
102
RTVSPost2010PropOp40
 70
     1
102
RTVSPost2010Prop41ColorIndex
 90
       18
102
RTVSPost2010Prop41ColorRGB
 90
        0
102
RTVSPost2010PropOp41
 70
     1
102
RTVSPost2010Prop42
 90
       50
102
RTVSPost2010PropOp42
 70
     1
102
RTVSPost2010Prop43
 90
        3
102
RTVSPost2010PropOp43
 70
     1
102
RTVSPost2010Prop44ColorIndex
 90
        5
102
RTVSPost2010Prop44ColorRGB
 90
      255
102
RTVSPost2010PropOp44
 70
     1
102
RTVSPost2010Prop45
280
     0
102
RTVSPost2010PropOp45
 70
     1
102
RTVSPost2010Prop46
 90
       50
102
RTVSPost2010PropOp46
 70
     1
102
RTVSPost2010Prop47
 90
       50
102
RTVSPost2010PropOp47
 70
     1
102
RTVSPost2010Prop48
 90
       50
102
RTVSPost2010PropOp48
 70
     1
102
RTVSPost2010Prop49
280
     0
102
RTVSPost2010PropOp49
 70
     1
102
RTVSPost2010Prop50
 90
       50
102
RTVSPost2010PropOp50
 70
     1
102
RTVSPost2010Prop51ColorIndex
 90
      256
102
RTVSPost2010Prop51ColorRGB
 90
-16777216
102
RTVSPost2010PropOp51
 70
     0
102
RTVSPost2010Prop52
140
1.0
102
RTVSPost2010PropOp52
 70
     0
102
RTVSPost2010Prop53
 90
        2
102
RTVSPost2010PropOp53
 70
     1
102
RTVSPost2010Prop54
  1
strokes_ogs.tif
102
RTVSPost2010PropOp54
 70
     1
102
RTVSPost2010Prop55
280
     0
102
RTVSPost2010PropOp55
 70
     1
102
RTVSPost2010Prop56
140
1.0
102
RTVSPost2010PropOp56
 70
     1
102
RTVSPost2010Prop57
140
1.0
102
RTVSPost2010PropOp57
 70
     1
102
RTVSPropertyOp0
 70
     1
102
RTVSPropertyOp1
 70
     1
102
RTVSPropertyOp2
 70
     1
102
RTVSPropertyOp3
 70
     1
102
RTVSPropertyOp4
 70
     1
102
RTVSPropertyOp5
 70
     1
102
RTVSPropertyOp6
 70
     1
102
RTVSPropertyOp7
 70
     1
102
RTVSPropertyOp8
 70
     1
102
RTVSPropertyOp9
 70
     1
102
RTVSPropertyOp10
 70
     1
102
RTVSPropertyOp11
 70
     1
102
RTVSPropertyOp12
 70
     1
102
RTVSPropertyOp13
 70
     1
102
RTVSPropertyOp14
 70
     1
102
RTVSPropertyOp15
 70
     1
102
RTVSPropertyOp16
 70
     1
102
RTVSPropertyOp17
 70
     1
102
RTVSPropertyOp18
 70
     1
102
RTVSPropertyOp19
 70
     1
102
RTVSPropertyOp20
 70
     1
102
RTVSPropertyOp21
 70
     1
102
RTVSPropertyOp22
 70
     1
102
RTVSPropertyOp23
 70
     1
102
RTVSPropertyOp24
 70
     1
102
RTVSPropertyOp25
 70
     1
102
RTVSPropertyOp26
 70
     1
102
RTVSPropertyOp27
 70
     1
102
RTVSPropertyOp28
 70
     1
102
RTVSPropertyOp29
 70
     1
102
RTVSPropertyOp30
 70
     1
102
RTVSPropertyOp31
 70
     1
102
RTVSPropertyOp32
 70
     1
102
RTVSPropertyOp33
 70
     1
102
RTVSPropertyOp34
 70
     1
102
RTVSPropertyOp35
 70
     1
102
RTVSPropertyOp36
 70
     1
102
RTVSPropertyOp37
 70
     1
102
RTVSPropertyOp38
 70
     1
102
RTVSPropertyOp39
 70
     1
102
RTVSPropertyOp40
 70
     1
102
RTVSPropertyOp41
 70
     1
102
RTVSPropertyOp42
 70
     1
102
RTVSPropertyOp43
 70
     1
102
RTVSPropertyOp44
 70
     1
102
RTVSPropertyOp45
 70
     1
102
RTVSPropertyOp46
 70
     1
102
RTVSPropertyOp47
 70
     1
102
RTVSPropertyOp48
 70
     1
102
RTVSPropertyOp49
 70
     1
102
RTVSPropertyOp50
 70
     1
102
RTVSPropertyOp51
 70
     0
102
RTVSPropertyOp52
 70
     0
102
RTVSPropertyOp53
 70
     1
102
RTVSPropertyOp54
 70
     1
102
RTVSPropertyOp55
 70
     1
102
RTVSPropertyOp56
 70
     1
102
RTVSPropertyOp57
 70
     1
102
RTVSPropertyOp58
 70
     1
102
RTVSPropertyOp59
 70
     1
102
RTVSPropertyOp60
 70
     1
102
RTVSPropertyOp61
 70
     1
102
RTVSPropertyOp62
 70
     1
  0
XRECORD
  5
35D
102
{ACAD_REACTORS
330
35C
102
}
330
35C
100
AcDbXrecord
280
     1
102
RTVSPost2010Prop28
280
     0
102
RTVSPost2010PropOp28
 70
     1
102
RTVSPost2010Prop29
280
     1
102
RTVSPost2010PropOp29
 70
     1
102
RTVSPost2010Prop30
280
     1
102
RTVSPost2010PropOp30
 70
     1
102
RTVSPost2010Prop31
280
     0
102
RTVSPost2010PropOp31
 70
     1
102
RTVSPost2010Prop32
280
     0
102
RTVSPost2010PropOp32
 70
     1
102
RTVSPost2010Prop33
280
     0
102
RTVSPost2010PropOp33
 70
     1
102
RTVSPost2010Prop34
280
     0
102
RTVSPost2010PropOp34
 70
     1
102
RTVSPost2010Prop35
280
     0
102
RTVSPost2010PropOp35
 70
     1
102
RTVSPost2010Prop36
280
     0
102
RTVSPost2010PropOp36
 70
     1
102
RTVSPost2010Prop37
 90
       50
102
RTVSPost2010PropOp37
 70
     1
102
RTVSPost2010Prop38
140
0.0
102
RTVSPost2010PropOp38
 70
     1
102
RTVSPost2010Prop39
140
1.0
102
RTVSPost2010PropOp39
 70
     1
102
RTVSPost2010Prop40
 90
        0
102
RTVSPost2010PropOp40
 70
     1
102
RTVSPost2010Prop41ColorIndex
 90
       18
102
RTVSPost2010Prop41ColorRGB
 90
        0
102
RTVSPost2010PropOp41
 70
     1
102
RTVSPost2010Prop42
 90
       50
102
RTVSPost2010PropOp42
 70
     1
102
RTVSPost2010Prop43
 90
        3
102
RTVSPost2010PropOp43
 70
     1
102
RTVSPost2010Prop44ColorIndex
 90
        5
102
RTVSPost2010Prop44ColorRGB
 90
      255
102
RTVSPost2010PropOp44
 70
     1
102
RTVSPost2010Prop45
280
     0
102
RTVSPost2010PropOp45
 70
     1
102
RTVSPost2010Prop46
 90
       50
102
RTVSPost2010PropOp46
 70
     1
102
RTVSPost2010Prop47
 90
       50
102
RTVSPost2010PropOp47
 70
     1
102
RTVSPost2010Prop48
 90
       50
102
RTVSPost2010PropOp48
 70
     1
102
RTVSPost2010Prop49
280
     0
102
RTVSPost2010PropOp49
 70
     1
102
RTVSPost2010Prop50
 90
       50
102
RTVSPost2010PropOp50
 70
     1
102
RTVSPost2010Prop51ColorIndex
 90
      256
102
RTVSPost2010Prop51ColorRGB
 90
-16777216
102
RTVSPost2010PropOp51
 70
     0
102
RTVSPost2010Prop52
140
1.0
102
RTVSPost2010PropOp52
 70
     0
102
RTVSPost2010Prop53
 90
        2
102
RTVSPost2010PropOp53
 70
     1
102
RTVSPost2010Prop54
  1
strokes_ogs.tif
102
RTVSPost2010PropOp54
 70
     1
102
RTVSPost2010Prop55
280
     0
102
RTVSPost2010PropOp55
 70
     1
102
RTVSPost2010Prop56
140
1.0
102
RTVSPost2010PropOp56
 70
     1
102
RTVSPost2010Prop57
140
1.0
102
RTVSPost2010PropOp57
 70
     1
102
RTVSPropertyOp0
 70
     1
102
RTVSPropertyOp1
 70
     1
102
RTVSPropertyOp2
 70
     1
102
RTVSPropertyOp3
 70
     1
102
RTVSPropertyOp4
 70
     1
102
RTVSPropertyOp5
 70
     1
102
RTVSPropertyOp6
 70
     1
102
RTVSPropertyOp7
 70
     1
102
RTVSPropertyOp8
 70
     1
102
RTVSPropertyOp9
 70
     1
102
RTVSPropertyOp10
 70
     1
102
RTVSPropertyOp11
 70
     1
102
RTVSPropertyOp12
 70
     1
102
RTVSPropertyOp13
 70
     1
102
RTVSPropertyOp14
 70
     1
102
RTVSPropertyOp15
 70
     1
102
RTVSPropertyOp16
 70
     1
102
RTVSPropertyOp17
 70
     1
102
RTVSPropertyOp18
 70
     1
102
RTVSPropertyOp19
 70
     1
102
RTVSPropertyOp20
 70
     1
102
RTVSPropertyOp21
 70
     1
102
RTVSPropertyOp22
 70
     1
102
RTVSPropertyOp23
 70
     1
102
RTVSPropertyOp24
 70
     1
102
RTVSPropertyOp25
 70
     1
102
RTVSPropertyOp26
 70
     1
102
RTVSPropertyOp27
 70
     1
102
RTVSPropertyOp28
 70
     1
102
RTVSPropertyOp29
 70
     1
102
RTVSPropertyOp30
 70
     1
102
RTVSPropertyOp31
 70
     1
102
RTVSPropertyOp32
 70
     1
102
RTVSPropertyOp33
 70
     1
102
RTVSPropertyOp34
 70
     1
102
RTVSPropertyOp35
 70
     1
102
RTVSPropertyOp36
 70
     1
102
RTVSPropertyOp37
 70
     1
102
RTVSPropertyOp38
 70
     1
102
RTVSPropertyOp39
 70
     1
102
RTVSPropertyOp40
 70
     1
102
RTVSPropertyOp41
 70
     1
102
RTVSPropertyOp42
 70
     1
102
RTVSPropertyOp43
 70
     1
102
RTVSPropertyOp44
 70
     1
102
RTVSPropertyOp45
 70
     1
102
RTVSPropertyOp46
 70
     1
102
RTVSPropertyOp47
 70
     1
102
RTVSPropertyOp48
 70
     1
102
RTVSPropertyOp49
 70
     1
102
RTVSPropertyOp50
 70
     1
102
RTVSPropertyOp51
 70
     0
102
RTVSPropertyOp52
 70
     0
102
RTVSPropertyOp53
 70
     1
102
RTVSPropertyOp54
 70
     1
102
RTVSPropertyOp55
 70
     1
102
RTVSPropertyOp56
 70
     1
102
RTVSPropertyOp57
 70
     1
102
RTVSPropertyOp58
 70
     1
102
RTVSPropertyOp59
 70
     1
102
RTVSPropertyOp60
 70
     1
102
RTVSPropertyOp61
 70
     1
102
RTVSPropertyOp62
 70
     1
  0
XRECORD
  5
35F
102
{ACAD_REACTORS
330
35E
102
}
330
35E
100
AcDbXrecord
280
     1
102
RTVSPost2010Prop28
280
     0
102
RTVSPost2010PropOp28
 70
     1
102
RTVSPost2010Prop29
280
     1
102
RTVSPost2010PropOp29
 70
     1
102
RTVSPost2010Prop30
280
     1
102
RTVSPost2010PropOp30
 70
     1
102
RTVSPost2010Prop31
280
     0
102
RTVSPost2010PropOp31
 70
     1
102
RTVSPost2010Prop32
280
     0
102
RTVSPost2010PropOp32
 70
     1
102
RTVSPost2010Prop33
280
     0
102
RTVSPost2010PropOp33
 70
     1
102
RTVSPost2010Prop34
280
     0
102
RTVSPost2010PropOp34
 70
     1
102
RTVSPost2010Prop35
280
     0
102
RTVSPost2010PropOp35
 70
     1
102
RTVSPost2010Prop36
280
     0
102
RTVSPost2010PropOp36
 70
     1
102
RTVSPost2010Prop37
 90
       50
102
RTVSPost2010PropOp37
 70
     1
102
RTVSPost2010Prop38
140
0.0
102
RTVSPost2010PropOp38
 70
     1
102
RTVSPost2010Prop39
140
1.0
102
RTVSPost2010PropOp39
 70
     1
102
RTVSPost2010Prop40
 90
        0
102
RTVSPost2010PropOp40
 70
     1
102
RTVSPost2010Prop41ColorIndex
 90
       18
102
RTVSPost2010Prop41ColorRGB
 90
        0
102
RTVSPost2010PropOp41
 70
     1
102
RTVSPost2010Prop42
 90
       50
102
RTVSPost2010PropOp42
 70
     1
102
RTVSPost2010Prop43
 90
        3
102
RTVSPost2010PropOp43
 70
     1
102
RTVSPost2010Prop44ColorIndex
 90
        5
102
RTVSPost2010Prop44ColorRGB
 90
      255
102
RTVSPost2010PropOp44
 70
     1
102
RTVSPost2010Prop45
280
     0
102
RTVSPost2010PropOp45
 70
     1
102
RTVSPost2010Prop46
 90
       50
102
RTVSPost2010PropOp46
 70
     1
102
RTVSPost2010Prop47
 90
       50
102
RTVSPost2010PropOp47
 70
     1
102
RTVSPost2010Prop48
 90
       50
102
RTVSPost2010PropOp48
 70
     1
102
RTVSPost2010Prop49
280
     0
102
RTVSPost2010PropOp49
 70
     1
102
RTVSPost2010Prop50
 90
       50
102
RTVSPost2010PropOp50
 70
     1
102
RTVSPost2010Prop51ColorIndex
 90
      256
102
RTVSPost2010Prop51ColorRGB
 90
-16777216
102
RTVSPost2010PropOp51
 70
     0
102
RTVSPost2010Prop52
140
1.0
102
RTVSPost2010PropOp52
 70
     0
102
RTVSPost2010Prop53
 90
        2
102
RTVSPost2010PropOp53
 70
     1
102
RTVSPost2010Prop54
  1
strokes_ogs.tif
102
RTVSPost2010PropOp54
 70
     1
102
RTVSPost2010Prop55
280
     0
102
RTVSPost2010PropOp55
 70
     1
102
RTVSPost2010Prop56
140
1.0
102
RTVSPost2010PropOp56
 70
     1
102
RTVSPost2010Prop57
140
1.0
102
RTVSPost2010PropOp57
 70
     1
102
RTVSPropertyOp0
 70
     1
102
RTVSPropertyOp1
 70
     1
102
RTVSPropertyOp2
 70
     1
102
RTVSPropertyOp3
 70
     1
102
RTVSPropertyOp4
 70
     1
102
RTVSPropertyOp5
 70
     1
102
RTVSPropertyOp6
 70
     1
102
RTVSPropertyOp7
 70
     1
102
RTVSPropertyOp8
 70
     1
102
RTVSPropertyOp9
 70
     1
102
RTVSPropertyOp10
 70
     1
102
RTVSPropertyOp11
 70
     1
102
RTVSPropertyOp12
 70
     1
102
RTVSPropertyOp13
 70
     1
102
RTVSPropertyOp14
 70
     1
102
RTVSPropertyOp15
 70
     1
102
RTVSPropertyOp16
 70
     1
102
RTVSPropertyOp17
 70
     1
102
RTVSPropertyOp18
 70
     1
102
RTVSPropertyOp19
 70
     1
102
RTVSPropertyOp20
 70
     1
102
RTVSPropertyOp21
 70
     1
102
RTVSPropertyOp22
 70
     1
102
RTVSPropertyOp23
 70
     1
102
RTVSPropertyOp24
 70
     1
102
RTVSPropertyOp25
 70
     1
102
RTVSPropertyOp26
 70
     1
102
RTVSPropertyOp27
 70
     1
102
RTVSPropertyOp28
 70
     1
102
RTVSPropertyOp29
 70
     1
102
RTVSPropertyOp30
 70
     1
102
RTVSPropertyOp31
 70
     1
102
RTVSPropertyOp32
 70
     1
102
RTVSPropertyOp33
 70
     1
102
RTVSPropertyOp34
 70
     1
102
RTVSPropertyOp35
 70
     1
102
RTVSPropertyOp36
 70
     1
102
RTVSPropertyOp37
 70
     1
102
RTVSPropertyOp38
 70
     1
102
RTVSPropertyOp39
 70
     1
102
RTVSPropertyOp40
 70
     1
102
RTVSPropertyOp41
 70
     1
102
RTVSPropertyOp42
 70
     1
102
RTVSPropertyOp43
 70
     1
102
RTVSPropertyOp44
 70
     1
102
RTVSPropertyOp45
 70
     1
102
RTVSPropertyOp46
 70
     1
102
RTVSPropertyOp47
 70
     1
102
RTVSPropertyOp48
 70
     1
102
RTVSPropertyOp49
 70
     1
102
RTVSPropertyOp50
 70
     1
102
RTVSPropertyOp51
 70
     0
102
RTVSPropertyOp52
 70
     0
102
RTVSPropertyOp53
 70
     1
102
RTVSPropertyOp54
 70
     1
102
RTVSPropertyOp55
 70
     1
102
RTVSPropertyOp56
 70
     1
102
RTVSPropertyOp57
 70
     1
102
RTVSPropertyOp58
 70
     1
102
RTVSPropertyOp59
 70
     1
102
RTVSPropertyOp60
 70
     1
102
RTVSPropertyOp61
 70
     1
102
RTVSPropertyOp62
 70
     1
  0
XRECORD
  5
361
102
{ACAD_REACTORS
330
360
102
}
330
360
100
AcDbXrecord
280
     1
102
RTVSPost2010Prop28
280
     0
102
RTVSPost2010PropOp28
 70
     1
102
RTVSPost2010Prop29
280
     1
102
RTVSPost2010PropOp29
 70
     1
102
RTVSPost2010Prop30
280
     1
102
RTVSPost2010PropOp30
 70
     1
102
RTVSPost2010Prop31
280
     0
102
RTVSPost2010PropOp31
 70
     1
102
RTVSPost2010Prop32
280
     0
102
RTVSPost2010PropOp32
 70
     1
102
RTVSPost2010Prop33
280
     0
102
RTVSPost2010PropOp33
 70
     1
102
RTVSPost2010Prop34
280
     0
102
RTVSPost2010PropOp34
 70
     1
102
RTVSPost2010Prop35
280
     0
102
RTVSPost2010PropOp35
 70
     1
102
RTVSPost2010Prop36
280
     0
102
RTVSPost2010PropOp36
 70
     1
102
RTVSPost2010Prop37
 90
       50
102
RTVSPost2010PropOp37
 70
     1
102
RTVSPost2010Prop38
140
0.0
102
RTVSPost2010PropOp38
 70
     1
102
RTVSPost2010Prop39
140
1.0
102
RTVSPost2010PropOp39
 70
     1
102
RTVSPost2010Prop40
 90
        0
102
RTVSPost2010PropOp40
 70
     1
102
RTVSPost2010Prop41ColorIndex
 90
       18
102
RTVSPost2010Prop41ColorRGB
 90
        0
102
RTVSPost2010PropOp41
 70
     1
102
RTVSPost2010Prop42
 90
       50
102
RTVSPost2010PropOp42
 70
     1
102
RTVSPost2010Prop43
 90
        3
102
RTVSPost2010PropOp43
 70
     1
102
RTVSPost2010Prop44ColorIndex
 90
        5
102
RTVSPost2010Prop44ColorRGB
 90
      255
102
RTVSPost2010PropOp44
 70
     1
102
RTVSPost2010Prop45
280
     0
102
RTVSPost2010PropOp45
 70
     1
102
RTVSPost2010Prop46
 90
       50
102
RTVSPost2010PropOp46
 70
     1
102
RTVSPost2010Prop47
 90
       50
102
RTVSPost2010PropOp47
 70
     1
102
RTVSPost2010Prop48
 90
       50
102
RTVSPost2010PropOp48
 70
     1
102
RTVSPost2010Prop49
280
     0
102
RTVSPost2010PropOp49
 70
     1
102
RTVSPost2010Prop50
 90
       50
102
RTVSPost2010PropOp50
 70
     1
102
RTVSPost2010Prop51ColorIndex
 90
      256
102
RTVSPost2010Prop51ColorRGB
 90
-16777216
102
RTVSPost2010PropOp51
 70
     0
102
RTVSPost2010Prop52
140
1.0
102
RTVSPost2010PropOp52
 70
     0
102
RTVSPost2010Prop53
 90
        2
102
RTVSPost2010PropOp53
 70
     1
102
RTVSPost2010Prop54
  1
strokes_ogs.tif
102
RTVSPost2010PropOp54
 70
     1
102
RTVSPost2010Prop55
280
     0
102
RTVSPost2010PropOp55
 70
     1
102
RTVSPost2010Prop56
140
1.0
102
RTVSPost2010PropOp56
 70
     1
102
RTVSPost2010Prop57
140
1.0
102
RTVSPost2010PropOp57
 70
     1
102
RTVSPropertyOp0
 70
     1
102
RTVSPropertyOp1
 70
     1
102
RTVSPropertyOp2
 70
     1
102
RTVSPropertyOp3
 70
     1
102
RTVSPropertyOp4
 70
     1
102
RTVSPropertyOp5
 70
     1
102
RTVSPropertyOp6
 70
     1
102
RTVSPropertyOp7
 70
     1
102
RTVSPropertyOp8
 70
     1
102
RTVSPropertyOp9
 70
     1
102
RTVSPropertyOp10
 70
     1
102
RTVSPropertyOp11
 70
     1
102
RTVSPropertyOp12
 70
     1
102
RTVSPropertyOp13
 70
     1
102
RTVSPropertyOp14
 70
     1
102
RTVSPropertyOp15
 70
     1
102
RTVSPropertyOp16
 70
     1
102
RTVSPropertyOp17
 70
     1
102
RTVSPropertyOp18
 70
     1
102
RTVSPropertyOp19
 70
     1
102
RTVSPropertyOp20
 70
     1
102
RTVSPropertyOp21
 70
     1
102
RTVSPropertyOp22
 70
     1
102
RTVSPropertyOp23
 70
     1
102
RTVSPropertyOp24
 70
     1
102
RTVSPropertyOp25
 70
     1
102
RTVSPropertyOp26
 70
     1
102
RTVSPropertyOp27
 70
     1
102
RTVSPropertyOp28
 70
     1
102
RTVSPropertyOp29
 70
     1
102
RTVSPropertyOp30
 70
     1
102
RTVSPropertyOp31
 70
     1
102
RTVSPropertyOp32
 70
     1
102
RTVSPropertyOp33
 70
     1
102
RTVSPropertyOp34
 70
     1
102
RTVSPropertyOp35
 70
     1
102
RTVSPropertyOp36
 70
     1
102
RTVSPropertyOp37
 70
     1
102
RTVSPropertyOp38
 70
     1
102
RTVSPropertyOp39
 70
     1
102
RTVSPropertyOp40
 70
     1
102
RTVSPropertyOp41
 70
     1
102
RTVSPropertyOp42
 70
     1
102
RTVSPropertyOp43
 70
     1
102
RTVSPropertyOp44
 70
     1
102
RTVSPropertyOp45
 70
     1
102
RTVSPropertyOp46
 70
     1
102
RTVSPropertyOp47
 70
     1
102
RTVSPropertyOp48
 70
     1
102
RTVSPropertyOp49
 70
     1
102
RTVSPropertyOp50
 70
     1
102
RTVSPropertyOp51
 70
     0
102
RTVSPropertyOp52
 70
     0
102
RTVSPropertyOp53
 70
     1
102
RTVSPropertyOp54
 70
     1
102
RTVSPropertyOp55
 70
     1
102
RTVSPropertyOp56
 70
     1
102
RTVSPropertyOp57
 70
     1
102
RTVSPropertyOp58
 70
     1
102
RTVSPropertyOp59
 70
     1
102
RTVSPropertyOp60
 70
     1
102
RTVSPropertyOp61
 70
     1
102
RTVSPropertyOp62
 70
     1
  0
XRECORD
  5
363
102
{ACAD_REACTORS
330
362
102
}
330
362
100
AcDbXrecord
280
     1
102
RTVSPost2010Prop28
280
     0
102
RTVSPost2010PropOp28
 70
     1
102
RTVSPost2010Prop29
280
     1
102
RTVSPost2010PropOp29
 70
     1
102
RTVSPost2010Prop30
280
     1
102
RTVSPost2010PropOp30
 70
     1
102
RTVSPost2010Prop31
280
     0
102
RTVSPost2010PropOp31
 70
     1
102
RTVSPost2010Prop32
280
     0
102
RTVSPost2010PropOp32
 70
     1
102
RTVSPost2010Prop33
280
     0
102
RTVSPost2010PropOp33
 70
     1
102
RTVSPost2010Prop34
280
     0
102
RTVSPost2010PropOp34
 70
     1
102
RTVSPost2010Prop35
280
     0
102
RTVSPost2010PropOp35
 70
     1
102
RTVSPost2010Prop36
280
     0
102
RTVSPost2010PropOp36
 70
     1
102
RTVSPost2010Prop37
 90
       50
102
RTVSPost2010PropOp37
 70
     1
102
RTVSPost2010Prop38
140
0.0
102
RTVSPost2010PropOp38
 70
     1
102
RTVSPost2010Prop39
140
1.0
102
RTVSPost2010PropOp39
 70
     1
102
RTVSPost2010Prop40
 90
        0
102
RTVSPost2010PropOp40
 70
     1
102
RTVSPost2010Prop41ColorIndex
 90
       18
102
RTVSPost2010Prop41ColorRGB
 90
        0
102
RTVSPost2010PropOp41
 70
     1
102
RTVSPost2010Prop42
 90
       50
102
RTVSPost2010PropOp42
 70
     1
102
RTVSPost2010Prop43
 90
        3
102
RTVSPost2010PropOp43
 70
     1
102
RTVSPost2010Prop44ColorIndex
 90
        5
102
RTVSPost2010Prop44ColorRGB
 90
      255
102
RTVSPost2010PropOp44
 70
     1
102
RTVSPost2010Prop45
280
     0
102
RTVSPost2010PropOp45
 70
     1
102
RTVSPost2010Prop46
 90
       50
102
RTVSPost2010PropOp46
 70
     1
102
RTVSPost2010Prop47
 90
       50
102
RTVSPost2010PropOp47
 70
     1
102
RTVSPost2010Prop48
 90
       50
102
RTVSPost2010PropOp48
 70
     1
102
RTVSPost2010Prop49
280
     0
102
RTVSPost2010PropOp49
 70
     1
102
RTVSPost2010Prop50
 90
       50
102
RTVSPost2010PropOp50
 70
     1
102
RTVSPost2010Prop51ColorIndex
 90
      256
102
RTVSPost2010Prop51ColorRGB
 90
-16777216
102
RTVSPost2010PropOp51
 70
     0
102
RTVSPost2010Prop52
140
1.0
102
RTVSPost2010PropOp52
 70
     0
102
RTVSPost2010Prop53
 90
        2
102
RTVSPost2010PropOp53
 70
     1
102
RTVSPost2010Prop54
  1
strokes_ogs.tif
102
RTVSPost2010PropOp54
 70
     1
102
RTVSPost2010Prop55
280
     0
102
RTVSPost2010PropOp55
 70
     1
102
RTVSPost2010Prop56
140
1.0
102
RTVSPost2010PropOp56
 70
     1
102
RTVSPost2010Prop57
140
1.0
102
RTVSPost2010PropOp57
 70
     1
102
RTVSPropertyOp0
 70
     1
102
RTVSPropertyOp1
 70
     1
102
RTVSPropertyOp2
 70
     1
102
RTVSPropertyOp3
 70
     1
102
RTVSPropertyOp4
 70
     1
102
RTVSPropertyOp5
 70
     1
102
RTVSPropertyOp6
 70
     1
102
RTVSPropertyOp7
 70
     1
102
RTVSPropertyOp8
 70
     1
102
RTVSPropertyOp9
 70
     1
102
RTVSPropertyOp10
 70
     1
102
RTVSPropertyOp11
 70
     1
102
RTVSPropertyOp12
 70
     1
102
RTVSPropertyOp13
 70
     1
102
RTVSPropertyOp14
 70
     1
102
RTVSPropertyOp15
 70
     1
102
RTVSPropertyOp16
 70
     1
102
RTVSPropertyOp17
 70
     1
102
RTVSPropertyOp18
 70
     1
102
RTVSPropertyOp19
 70
     1
102
RTVSPropertyOp20
 70
     1
102
RTVSPropertyOp21
 70
     1
102
RTVSPropertyOp22
 70
     1
102
RTVSPropertyOp23
 70
     1
102
RTVSPropertyOp24
 70
     1
102
RTVSPropertyOp25
 70
     1
102
RTVSPropertyOp26
 70
     1
102
RTVSPropertyOp27
 70
     1
102
RTVSPropertyOp28
 70
     1
102
RTVSPropertyOp29
 70
     1
102
RTVSPropertyOp30
 70
     1
102
RTVSPropertyOp31
 70
     1
102
RTVSPropertyOp32
 70
     1
102
RTVSPropertyOp33
 70
     1
102
RTVSPropertyOp34
 70
     1
102
RTVSPropertyOp35
 70
     1
102
RTVSPropertyOp36
 70
     1
102
RTVSPropertyOp37
 70
     1
102
RTVSPropertyOp38
 70
     1
102
RTVSPropertyOp39
 70
     1
102
RTVSPropertyOp40
 70
     1
102
RTVSPropertyOp41
 70
     1
102
RTVSPropertyOp42
 70
     1
102
RTVSPropertyOp43
 70
     1
102
RTVSPropertyOp44
 70
     1
102
RTVSPropertyOp45
 70
     1
102
RTVSPropertyOp46
 70
     1
102
RTVSPropertyOp47
 70
     1
102
RTVSPropertyOp48
 70
     1
102
RTVSPropertyOp49
 70
     1
102
RTVSPropertyOp50
 70
     1
102
RTVSPropertyOp51
 70
     0
102
RTVSPropertyOp52
 70
     0
102
RTVSPropertyOp53
 70
     1
102
RTVSPropertyOp54
 70
     1
102
RTVSPropertyOp55
 70
     1
102
RTVSPropertyOp56
 70
     1
102
RTVSPropertyOp57
 70
     1
102
RTVSPropertyOp58
 70
     1
102
RTVSPropertyOp59
 70
     1
102
RTVSPropertyOp60
 70
     1
102
RTVSPropertyOp61
 70
     1
102
RTVSPropertyOp62
 70
     1
  0
XRECORD
  5
369
102
{ACAD_REACTORS
330
368
102
}
330
368
100
AcDbXrecord
280
     1
102
RTVSPost2010Prop28
280
     0
102
RTVSPost2010PropOp28
 70
     1
102
RTVSPost2010Prop29
280
     1
102
RTVSPost2010PropOp29
 70
     1
102
RTVSPost2010Prop30
280
     1
102
RTVSPost2010PropOp30
 70
     1
102
RTVSPost2010Prop31
280
     0
102
RTVSPost2010PropOp31
 70
     1
102
RTVSPost2010Prop32
280
     0
102
RTVSPost2010PropOp32
 70
     1
102
RTVSPost2010Prop33
280
     0
102
RTVSPost2010PropOp33
 70
     1
102
RTVSPost2010Prop34
280
     0
102
RTVSPost2010PropOp34
 70
     1
102
RTVSPost2010Prop35
280
     0
102
RTVSPost2010PropOp35
 70
     1
102
RTVSPost2010Prop36
280
     0
102
RTVSPost2010PropOp36
 70
     1
102
RTVSPost2010Prop37
 90
       50
102
RTVSPost2010PropOp37
 70
     1
102
RTVSPost2010Prop38
140
0.0
102
RTVSPost2010PropOp38
 70
     1
102
RTVSPost2010Prop39
140
1.0
102
RTVSPost2010PropOp39
 70
     1
102
RTVSPost2010Prop40
 90
        0
102
RTVSPost2010PropOp40
 70
     1
102
RTVSPost2010Prop41ColorIndex
 90
       18
102
RTVSPost2010Prop41ColorRGB
 90
        0
102
RTVSPost2010PropOp41
 70
     1
102
RTVSPost2010Prop42
 90
       50
102
RTVSPost2010PropOp42
 70
     1
102
RTVSPost2010Prop43
 90
        3
102
RTVSPost2010PropOp43
 70
     1
102
RTVSPost2010Prop44ColorIndex
 90
        5
102
RTVSPost2010Prop44ColorRGB
 90
      255
102
RTVSPost2010PropOp44
 70
     1
102
RTVSPost2010Prop45
280
     0
102
RTVSPost2010PropOp45
 70
     1
102
RTVSPost2010Prop46
 90
       50
102
RTVSPost2010PropOp46
 70
     1
102
RTVSPost2010Prop47
 90
       50
102
RTVSPost2010PropOp47
 70
     1
102
RTVSPost2010Prop48
 90
       50
102
RTVSPost2010PropOp48
 70
     1
102
RTVSPost2010Prop49
280
     0
102
RTVSPost2010PropOp49
 70
     1
102
RTVSPost2010Prop50
 90
       50
102
RTVSPost2010PropOp50
 70
     1
102
RTVSPost2010Prop51ColorIndex
 90
      256
102
RTVSPost2010Prop51ColorRGB
 90
-16777216
102
RTVSPost2010PropOp51
 70
     0
102
RTVSPost2010Prop52
140
1.0
102
RTVSPost2010PropOp52
 70
     0
102
RTVSPost2010Prop53
 90
        2
102
RTVSPost2010PropOp53
 70
     1
102
RTVSPost2010Prop54
  1
strokes_ogs.tif
102
RTVSPost2010PropOp54
 70
     1
102
RTVSPost2010Prop55
280
     0
102
RTVSPost2010PropOp55
 70
     1
102
RTVSPost2010Prop56
140
1.0
102
RTVSPost2010PropOp56
 70
     1
102
RTVSPost2010Prop57
140
1.0
102
RTVSPost2010PropOp57
 70
     1
102
RTVSPropertyOp0
 70
     1
102
RTVSPropertyOp1
 70
     1
102
RTVSPropertyOp2
 70
     1
102
RTVSPropertyOp3
 70
     1
102
RTVSPropertyOp4
 70
     1
102
RTVSPropertyOp5
 70
     1
102
RTVSPropertyOp6
 70
     1
102
RTVSPropertyOp7
 70
     1
102
RTVSPropertyOp8
 70
     1
102
RTVSPropertyOp9
 70
     1
102
RTVSPropertyOp10
 70
     1
102
RTVSPropertyOp11
 70
     1
102
RTVSPropertyOp12
 70
     1
102
RTVSPropertyOp13
 70
     1
102
RTVSPropertyOp14
 70
     1
102
RTVSPropertyOp15
 70
     1
102
RTVSPropertyOp16
 70
     1
102
RTVSPropertyOp17
 70
     1
102
RTVSPropertyOp18
 70
     1
102
RTVSPropertyOp19
 70
     1
102
RTVSPropertyOp20
 70
     1
102
RTVSPropertyOp21
 70
     1
102
RTVSPropertyOp22
 70
     1
102
RTVSPropertyOp23
 70
     1
102
RTVSPropertyOp24
 70
     1
102
RTVSPropertyOp25
 70
     1
102
RTVSPropertyOp26
 70
     1
102
RTVSPropertyOp27
 70
     1
102
RTVSPropertyOp28
 70
     1
102
RTVSPropertyOp29
 70
     1
102
RTVSPropertyOp30
 70
     1
102
RTVSPropertyOp31
 70
     1
102
RTVSPropertyOp32
 70
     1
102
RTVSPropertyOp33
 70
     1
102
RTVSPropertyOp34
 70
     1
102
RTVSPropertyOp35
 70
     1
102
RTVSPropertyOp36
 70
     1
102
RTVSPropertyOp37
 70
     1
102
RTVSPropertyOp38
 70
     1
102
RTVSPropertyOp39
 70
     1
102
RTVSPropertyOp40
 70
     1
102
RTVSPropertyOp41
 70
     1
102
RTVSPropertyOp42
 70
     1
102
RTVSPropertyOp43
 70
     1
102
RTVSPropertyOp44
 70
     1
102
RTVSPropertyOp45
 70
     1
102
RTVSPropertyOp46
 70
     1
102
RTVSPropertyOp47
 70
     1
102
RTVSPropertyOp48
 70
     1
102
RTVSPropertyOp49
 70
     1
102
RTVSPropertyOp50
 70
     1
102
RTVSPropertyOp51
 70
     0
102
RTVSPropertyOp52
 70
     0
102
RTVSPropertyOp53
 70
     1
102
RTVSPropertyOp54
 70
     1
102
RTVSPropertyOp55
 70
     1
102
RTVSPropertyOp56
 70
     1
102
RTVSPropertyOp57
 70
     1
102
RTVSPropertyOp58
 70
     1
102
RTVSPropertyOp59
 70
     1
102
RTVSPropertyOp60
 70
     1
102
RTVSPropertyOp61
 70
     1
102
RTVSPropertyOp62
 70
     1
  0
XRECORD
  5
37D
102
{ACAD_REACTORS
330
37C
102
}
330
37C
100
AcDbXrecord
280
     1
102
RTVSPost2010Prop28
280
     0
102
RTVSPost2010PropOp28
 70
     0
102
RTVSPost2010Prop29
280
     1
102
RTVSPost2010PropOp29
 70
     0
102
RTVSPost2010Prop30
280
     1
102
RTVSPost2010PropOp30
 70
     0
102
RTVSPost2010Prop31
280
     0
102
RTVSPost2010PropOp31
 70
     0
102
RTVSPost2010Prop32
280
     0
102
RTVSPost2010PropOp32
 70
     0
102
RTVSPost2010Prop33
280
     0
102
RTVSPost2010PropOp33
 70
     0
102
RTVSPost2010Prop34
280
     0
102
RTVSPost2010PropOp34
 70
     0
102
RTVSPost2010Prop35
280
     0
102
RTVSPost2010PropOp35
 70
     0
102
RTVSPost2010Prop36
280
     0
102
RTVSPost2010PropOp36
 70
     0
102
RTVSPost2010Prop37
 90
       50
102
RTVSPost2010PropOp37
 70
     0
102
RTVSPost2010Prop38
140
0.0
102
RTVSPost2010PropOp38
 70
     0
102
RTVSPost2010Prop39
140
1.0
102
RTVSPost2010PropOp39
 70
     0
102
RTVSPost2010Prop40
 90
        0
102
RTVSPost2010PropOp40
 70
     0
102
RTVSPost2010Prop41ColorIndex
 90
       18
102
RTVSPost2010Prop41ColorRGB
 90
        0
102
RTVSPost2010PropOp41
 70
     0
102
RTVSPost2010Prop42
 90
       50
102
RTVSPost2010PropOp42
 70
     0
102
RTVSPost2010Prop43
 90
        3
102
RTVSPost2010PropOp43
 70
     0
102
RTVSPost2010Prop44ColorIndex
 90
        5
102
RTVSPost2010Prop44ColorRGB
 90
      255
102
RTVSPost2010PropOp44
 70
     0
102
RTVSPost2010Prop45
280
     0
102
RTVSPost2010PropOp45
 70
     0
102
RTVSPost2010Prop46
 90
       50
102
RTVSPost2010PropOp46
 70
     0
102
RTVSPost2010Prop47
 90
       50
102
RTVSPost2010PropOp47
 70
     0
102
RTVSPost2010Prop48
 90
       50
102
RTVSPost2010PropOp48
 70
     0
102
RTVSPost2010Prop49
280
     0
102
RTVSPost2010PropOp49
 70
     0
102
RTVSPost2010Prop50
 90
       50
102
RTVSPost2010PropOp50
 70
     0
102
RTVSPost2010Prop51ColorIndex
 90
      256
102
RTVSPost2010Prop51ColorRGB
 90
-16777216
102
RTVSPost2010PropOp51
 70
     0
102
RTVSPost2010Prop52
140
1.0
102
RTVSPost2010PropOp52
 70
     0
102
RTVSPost2010Prop53
 90
        2
102
RTVSPost2010PropOp53
 70
     0
102
RTVSPost2010Prop54
  1
strokes_ogs.tif
102
RTVSPost2010PropOp54
 70
     0
102
RTVSPost2010Prop55
280
     0
102
RTVSPost2010PropOp55
 70
     0
102
RTVSPost2010Prop56
140
1.0
102
RTVSPost2010PropOp56
 70
     0
102
RTVSPost2010Prop57
140
1.0
102
RTVSPost2010PropOp57
 70
     0
102
RTVSPropertyOp0
 70
     0
102
RTVSPropertyOp1
 70
     0
102
RTVSPropertyOp2
 70
     0
102
RTVSPropertyOp3
 70
     0
102
RTVSPropertyOp4
 70
     0
102
RTVSPropertyOp5
 70
     0
102
RTVSPropertyOp6
 70
     0
102
RTVSPropertyOp7
 70
     0
102
RTVSPropertyOp8
 70
     0
102
RTVSPropertyOp9
 70
     0
102
RTVSPropertyOp10
 70
     0
102
RTVSPropertyOp11
 70
     0
102
RTVSPropertyOp12
 70
     0
102
RTVSPropertyOp13
 70
     0
102
RTVSPropertyOp14
 70
     2
102
RTVSPropertyOp15
 70
     0
102
RTVSPropertyOp16
 70
     0
102
RTVSPropertyOp17
 70
     0
102
RTVSPropertyOp18
 70
     0
102
RTVSPropertyOp19
 70
     0
102
RTVSPropertyOp20
 70
     0
102
RTVSPropertyOp21
 70
     0
102
RTVSPropertyOp22
 70
     0
102
RTVSPropertyOp23
 70
     0
102
RTVSPropertyOp24
 70
     0
102
RTVSPropertyOp25
 70
     0
102
RTVSPropertyOp26
 70
     0
102
RTVSPropertyOp27
 70
     0
102
RTVSPropertyOp28
 70
     0
102
RTVSPropertyOp29
 70
     0
102
RTVSPropertyOp30
 70
     0
102
RTVSPropertyOp31
 70
     0
102
RTVSPropertyOp32
 70
     0
102
RTVSPropertyOp33
 70
     0
102
RTVSPropertyOp34
 70
     0
102
RTVSPropertyOp35
 70
     0
102
RTVSPropertyOp36
 70
     0
102
RTVSPropertyOp37
 70
     0
102
RTVSPropertyOp38
 70
     0
102
RTVSPropertyOp39
 70
     0
102
RTVSPropertyOp40
 70
     0
102
RTVSPropertyOp41
 70
     0
102
RTVSPropertyOp42
 70
     0
102
RTVSPropertyOp43
 70
     0
102
RTVSPropertyOp44
 70
     0
102
RTVSPropertyOp45
 70
     0
102
RTVSPropertyOp46
 70
     0
102
RTVSPropertyOp47
 70
     0
102
RTVSPropertyOp48
 70
     0
102
RTVSPropertyOp49
 70
     0
102
RTVSPropertyOp50
 70
     0
102
RTVSPropertyOp51
 70
     0
102
RTVSPropertyOp52
 70
     0
102
RTVSPropertyOp53
 70
     0
102
RTVSPropertyOp54
 70
     0
102
RTVSPropertyOp55
 70
     0
102
RTVSPropertyOp56
 70
     0
102
RTVSPropertyOp57
 70
     0
102
RTVSPropertyOp58
 70
     1
102
RTVSPropertyOp59
 70
     1
102
RTVSPropertyOp60
 70
     1
102
RTVSPropertyOp61
 70
     1
102
RTVSPropertyOp62
 70
     1
  0
XRECORD
  5
377
102
{ACAD_REACTORS
330
376
102
}
330
376
100
AcDbXrecord
280
     1
102
RTVSPost2010Prop28
280
     0
102
RTVSPost2010PropOp28
 70
     1
102
RTVSPost2010Prop29
280
     1
102
RTVSPost2010PropOp29
 70
     1
102
RTVSPost2010Prop30
280
     1
102
RTVSPost2010PropOp30
 70
     1
102
RTVSPost2010Prop31
280
     0
102
RTVSPost2010PropOp31
 70
     1
102
RTVSPost2010Prop32
280
     0
102
RTVSPost2010PropOp32
 70
     1
102
RTVSPost2010Prop33
280
     0
102
RTVSPost2010PropOp33
 70
     1
102
RTVSPost2010Prop34
280
     0
102
RTVSPost2010PropOp34
 70
     1
102
RTVSPost2010Prop35
280
     0
102
RTVSPost2010PropOp35
 70
     1
102
RTVSPost2010Prop36
280
     0
102
RTVSPost2010PropOp36
 70
     1
102
RTVSPost2010Prop37
 90
       50
102
RTVSPost2010PropOp37
 70
     1
102
RTVSPost2010Prop38
140
0.0
102
RTVSPost2010PropOp38
 70
     1
102
RTVSPost2010Prop39
140
1.0
102
RTVSPost2010PropOp39
 70
     1
102
RTVSPost2010Prop40
 90
        0
102
RTVSPost2010PropOp40
 70
     1
102
RTVSPost2010Prop41ColorIndex
 90
       18
102
RTVSPost2010Prop41ColorRGB
 90
        0
102
RTVSPost2010PropOp41
 70
     1
102
RTVSPost2010Prop42
 90
       50
102
RTVSPost2010PropOp42
 70
     1
102
RTVSPost2010Prop43
 90
        3
102
RTVSPost2010PropOp43
 70
     1
102
RTVSPost2010Prop44ColorIndex
 90
        5
102
RTVSPost2010Prop44ColorRGB
 90
      255
102
RTVSPost2010PropOp44
 70
     1
102
RTVSPost2010Prop45
280
     0
102
RTVSPost2010PropOp45
 70
     1
102
RTVSPost2010Prop46
 90
       50
102
RTVSPost2010PropOp46
 70
     1
102
RTVSPost2010Prop47
 90
       50
102
RTVSPost2010PropOp47
 70
     1
102
RTVSPost2010Prop48
 90
       50
102
RTVSPost2010PropOp48
 70
     1
102
RTVSPost2010Prop49
280
     0
102
RTVSPost2010PropOp49
 70
     1
102
RTVSPost2010Prop50
 90
       50
102
RTVSPost2010PropOp50
 70
     1
102
RTVSPost2010Prop51ColorIndex
 90
      256
102
RTVSPost2010Prop51ColorRGB
 90
-16777216
102
RTVSPost2010PropOp51
 70
     0
102
RTVSPost2010Prop52
140
1.0
102
RTVSPost2010PropOp52
 70
     0
102
RTVSPost2010Prop53
 90
        2
102
RTVSPost2010PropOp53
 70
     1
102
RTVSPost2010Prop54
  1
strokes_ogs.tif
102
RTVSPost2010PropOp54
 70
     1
102
RTVSPost2010Prop55
280
     0
102
RTVSPost2010PropOp55
 70
     1
102
RTVSPost2010Prop56
140
1.0
102
RTVSPost2010PropOp56
 70
     1
102
RTVSPost2010Prop57
140
1.0
102
RTVSPost2010PropOp57
 70
     1
102
RTVSPropertyOp0
 70
     1
102
RTVSPropertyOp1
 70
     1
102
RTVSPropertyOp2
 70
     1
102
RTVSPropertyOp3
 70
     1
102
RTVSPropertyOp4
 70
     1
102
RTVSPropertyOp5
 70
     1
102
RTVSPropertyOp6
 70
     1
102
RTVSPropertyOp7
 70
     1
102
RTVSPropertyOp8
 70
     1
102
RTVSPropertyOp9
 70
     1
102
RTVSPropertyOp10
 70
     1
102
RTVSPropertyOp11
 70
     1
102
RTVSPropertyOp12
 70
     1
102
RTVSPropertyOp13
 70
     1
102
RTVSPropertyOp14
 70
     1
102
RTVSPropertyOp15
 70
     1
102
RTVSPropertyOp16
 70
     1
102
RTVSPropertyOp17
 70
     1
102
RTVSPropertyOp18
 70
     1
102
RTVSPropertyOp19
 70
     1
102
RTVSPropertyOp20
 70
     1
102
RTVSPropertyOp21
 70
     1
102
RTVSPropertyOp22
 70
     1
102
RTVSPropertyOp23
 70
     1
102
RTVSPropertyOp24
 70
     1
102
RTVSPropertyOp25
 70
     1
102
RTVSPropertyOp26
 70
     1
102
RTVSPropertyOp27
 70
     1
102
RTVSPropertyOp28
 70
     1
102
RTVSPropertyOp29
 70
     1
102
RTVSPropertyOp30
 70
     1
102
RTVSPropertyOp31
 70
     1
102
RTVSPropertyOp32
 70
     1
102
RTVSPropertyOp33
 70
     1
102
RTVSPropertyOp34
 70
     1
102
RTVSPropertyOp35
 70
     1
102
RTVSPropertyOp36
 70
     1
102
RTVSPropertyOp37
 70
     1
102
RTVSPropertyOp38
 70
     1
102
RTVSPropertyOp39
 70
     1
102
RTVSPropertyOp40
 70
     1
102
RTVSPropertyOp41
 70
     1
102
RTVSPropertyOp42
 70
     1
102
RTVSPropertyOp43
 70
     1
102
RTVSPropertyOp44
 70
     1
102
RTVSPropertyOp45
 70
     1
102
RTVSPropertyOp46
 70
     1
102
RTVSPropertyOp47
 70
     1
102
RTVSPropertyOp48
 70
     1
102
RTVSPropertyOp49
 70
     1
102
RTVSPropertyOp50
 70
     1
102
RTVSPropertyOp51
 70
     0
102
RTVSPropertyOp52
 70
     0
102
RTVSPropertyOp53
 70
     1
102
RTVSPropertyOp54
 70
     1
102
RTVSPropertyOp55
 70
     1
102
RTVSPropertyOp56
 70
     1
102
RTVSPropertyOp57
 70
     1
102
RTVSPropertyOp58
 70
     1
102
RTVSPropertyOp59
 70
     1
102
RTVSPropertyOp60
 70
     1
102
RTVSPropertyOp61
 70
     1
102
RTVSPropertyOp62
 70
     1
  0
XRECORD
  5
37F
102
{ACAD_REACTORS
330
37E
102
}
330
37E
100
AcDbXrecord
280
     1
102
RTVSPost2010Prop28
280
     0
102
RTVSPost2010PropOp28
 70
     0
102
RTVSPost2010Prop29
280
     1
102
RTVSPost2010PropOp29
 70
     0
102
RTVSPost2010Prop30
280
     1
102
RTVSPost2010PropOp30
 70
     0
102
RTVSPost2010Prop31
280
     0
102
RTVSPost2010PropOp31
 70
     0
102
RTVSPost2010Prop32
280
     0
102
RTVSPost2010PropOp32
 70
     0
102
RTVSPost2010Prop33
280
     0
102
RTVSPost2010PropOp33
 70
     0
102
RTVSPost2010Prop34
280
     0
102
RTVSPost2010PropOp34
 70
     0
102
RTVSPost2010Prop35
280
     0
102
RTVSPost2010PropOp35
 70
     0
102
RTVSPost2010Prop36
280
     0
102
RTVSPost2010PropOp36
 70
     0
102
RTVSPost2010Prop37
 90
       50
102
RTVSPost2010PropOp37
 70
     0
102
RTVSPost2010Prop38
140
0.0
102
RTVSPost2010PropOp38
 70
     0
102
RTVSPost2010Prop39
140
1.0
102
RTVSPost2010PropOp39
 70
     0
102
RTVSPost2010Prop40
 90
        0
102
RTVSPost2010PropOp40
 70
     0
102
RTVSPost2010Prop41ColorIndex
 90
       18
102
RTVSPost2010Prop41ColorRGB
 90
        0
102
RTVSPost2010PropOp41
 70
     0
102
RTVSPost2010Prop42
 90
       50
102
RTVSPost2010PropOp42
 70
     0
102
RTVSPost2010Prop43
 90
        3
102
RTVSPost2010PropOp43
 70
     0
102
RTVSPost2010Prop44ColorIndex
 90
        5
102
RTVSPost2010Prop44ColorRGB
 90
      255
102
RTVSPost2010PropOp44
 70
     0
102
RTVSPost2010Prop45
280
     0
102
RTVSPost2010PropOp45
 70
     0
102
RTVSPost2010Prop46
 90
       50
102
RTVSPost2010PropOp46
 70
     0
102
RTVSPost2010Prop47
 90
       50
102
RTVSPost2010PropOp47
 70
     0
102
RTVSPost2010Prop48
 90
       50
102
RTVSPost2010PropOp48
 70
     0
102
RTVSPost2010Prop49
280
     0
102
RTVSPost2010PropOp49
 70
     0
102
RTVSPost2010Prop50
 90
       50
102
RTVSPost2010PropOp50
 70
     0
102
RTVSPost2010Prop51ColorIndex
 90
      256
102
RTVSPost2010Prop51ColorRGB
 90
-16777216
102
RTVSPost2010PropOp51
 70
     0
102
RTVSPost2010Prop52
140
1.0
102
RTVSPost2010PropOp52
 70
     0
102
RTVSPost2010Prop53
 90
        2
102
RTVSPost2010PropOp53
 70
     0
102
RTVSPost2010Prop54
  1
strokes_ogs.tif
102
RTVSPost2010PropOp54
 70
     0
102
RTVSPost2010Prop55
280
     0
102
RTVSPost2010PropOp55
 70
     0
102
RTVSPost2010Prop56
140
1.0
102
RTVSPost2010PropOp56
 70
     0
102
RTVSPost2010Prop57
140
1.0
102
RTVSPost2010PropOp57
 70
     0
102
RTVSPropertyOp0
 70
     0
102
RTVSPropertyOp1
 70
     0
102
RTVSPropertyOp2
 70
     0
102
RTVSPropertyOp3
 70
     0
102
RTVSPropertyOp4
 70
     0
102
RTVSPropertyOp5
 70
     0
102
RTVSPropertyOp6
 70
     0
102
RTVSPropertyOp7
 70
     0
102
RTVSPropertyOp8
 70
     0
102
RTVSPropertyOp9
 70
     0
102
RTVSPropertyOp10
 70
     0
102
RTVSPropertyOp11
 70
     0
102
RTVSPropertyOp12
 70
     0
102
RTVSPropertyOp13
 70
     0
102
RTVSPropertyOp14
 70
     2
102
RTVSPropertyOp15
 70
     0
102
RTVSPropertyOp16
 70
     0
102
RTVSPropertyOp17
 70
     0
102
RTVSPropertyOp18
 70
     0
102
RTVSPropertyOp19
 70
     0
102
RTVSPropertyOp20
 70
     0
102
RTVSPropertyOp21
 70
     0
102
RTVSPropertyOp22
 70
     0
102
RTVSPropertyOp23
 70
     0
102
RTVSPropertyOp24
 70
     0
102
RTVSPropertyOp25
 70
     0
102
RTVSPropertyOp26
 70
     0
102
RTVSPropertyOp27
 70
     0
102
RTVSPropertyOp28
 70
     0
102
RTVSPropertyOp29
 70
     0
102
RTVSPropertyOp30
 70
     0
102
RTVSPropertyOp31
 70
     0
102
RTVSPropertyOp32
 70
     0
102
RTVSPropertyOp33
 70
     0
102
RTVSPropertyOp34
 70
     0
102
RTVSPropertyOp35
 70
     0
102
RTVSPropertyOp36
 70
     0
102
RTVSPropertyOp37
 70
     0
102
RTVSPropertyOp38
 70
     0
102
RTVSPropertyOp39
 70
     0
102
RTVSPropertyOp40
 70
     0
102
RTVSPropertyOp41
 70
     0
102
RTVSPropertyOp42
 70
     0
102
RTVSPropertyOp43
 70
     0
102
RTVSPropertyOp44
 70
     0
102
RTVSPropertyOp45
 70
     0
102
RTVSPropertyOp46
 70
     0
102
RTVSPropertyOp47
 70
     0
102
RTVSPropertyOp48
 70
     0
102
RTVSPropertyOp49
 70
     0
102
RTVSPropertyOp50
 70
     0
102
RTVSPropertyOp51
 70
     0
102
RTVSPropertyOp52
 70
     0
102
RTVSPropertyOp53
 70
     0
102
RTVSPropertyOp54
 70
     0
102
RTVSPropertyOp55
 70
     0
102
RTVSPropertyOp56
 70
     0
102
RTVSPropertyOp57
 70
     0
102
RTVSPropertyOp58
 70
     1
102
RTVSPropertyOp59
 70
     1
102
RTVSPropertyOp60
 70
     1
102
RTVSPropertyOp61
 70
     1
102
RTVSPropertyOp62
 70
     1
  0
XRECORD
  5
36D
102
{ACAD_REACTORS
330
36C
102
}
330
36C
100
AcDbXrecord
280
     1
102
RTVSPost2010Prop28
280
     0
102
RTVSPost2010PropOp28
 70
     1
102
RTVSPost2010Prop29
280
     1
102
RTVSPost2010PropOp29
 70
     1
102
RTVSPost2010Prop30
280
     1
102
RTVSPost2010PropOp30
 70
     1
102
RTVSPost2010Prop31
280
     0
102
RTVSPost2010PropOp31
 70
     1
102
RTVSPost2010Prop32
280
     0
102
RTVSPost2010PropOp32
 70
     1
102
RTVSPost2010Prop33
280
     0
102
RTVSPost2010PropOp33
 70
     1
102
RTVSPost2010Prop34
280
     0
102
RTVSPost2010PropOp34
 70
     1
102
RTVSPost2010Prop35
280
     0
102
RTVSPost2010PropOp35
 70
     1
102
RTVSPost2010Prop36
280
     0
102
RTVSPost2010PropOp36
 70
     1
102
RTVSPost2010Prop37
 90
       50
102
RTVSPost2010PropOp37
 70
     1
102
RTVSPost2010Prop38
140
0.0
102
RTVSPost2010PropOp38
 70
     1
102
RTVSPost2010Prop39
140
1.0
102
RTVSPost2010PropOp39
 70
     1
102
RTVSPost2010Prop40
 90
        0
102
RTVSPost2010PropOp40
 70
     1
102
RTVSPost2010Prop41ColorIndex
 90
       18
102
RTVSPost2010Prop41ColorRGB
 90
        0
102
RTVSPost2010PropOp41
 70
     1
102
RTVSPost2010Prop42
 90
       50
102
RTVSPost2010PropOp42
 70
     1
102
RTVSPost2010Prop43
 90
        3
102
RTVSPost2010PropOp43
 70
     1
102
RTVSPost2010Prop44ColorIndex
 90
        5
102
RTVSPost2010Prop44ColorRGB
 90
      255
102
RTVSPost2010PropOp44
 70
     1
102
RTVSPost2010Prop45
280
     0
102
RTVSPost2010PropOp45
 70
     1
102
RTVSPost2010Prop46
 90
       50
102
RTVSPost2010PropOp46
 70
     1
102
RTVSPost2010Prop47
 90
       50
102
RTVSPost2010PropOp47
 70
     1
102
RTVSPost2010Prop48
 90
       50
102
RTVSPost2010PropOp48
 70
     1
102
RTVSPost2010Prop49
280
     0
102
RTVSPost2010PropOp49
 70
     1
102
RTVSPost2010Prop50
 90
       50
102
RTVSPost2010PropOp50
 70
     1
102
RTVSPost2010Prop51ColorIndex
 90
      256
102
RTVSPost2010Prop51ColorRGB
 90
-16777216
102
RTVSPost2010PropOp51
 70
     0
102
RTVSPost2010Prop52
140
1.0
102
RTVSPost2010PropOp52
 70
     0
102
RTVSPost2010Prop53
 90
        2
102
RTVSPost2010PropOp53
 70
     1
102
RTVSPost2010Prop54
  1
strokes_ogs.tif
102
RTVSPost2010PropOp54
 70
     1
102
RTVSPost2010Prop55
280
     0
102
RTVSPost2010PropOp55
 70
     1
102
RTVSPost2010Prop56
140
1.0
102
RTVSPost2010PropOp56
 70
     1
102
RTVSPost2010Prop57
140
1.0
102
RTVSPost2010PropOp57
 70
     1
102
RTVSPropertyOp0
 70
     1
102
RTVSPropertyOp1
 70
     1
102
RTVSPropertyOp2
 70
     1
102
RTVSPropertyOp3
 70
     1
102
RTVSPropertyOp4
 70
     1
102
RTVSPropertyOp5
 70
     1
102
RTVSPropertyOp6
 70
     1
102
RTVSPropertyOp7
 70
     1
102
RTVSPropertyOp8
 70
     1
102
RTVSPropertyOp9
 70
     1
102
RTVSPropertyOp10
 70
     1
102
RTVSPropertyOp11
 70
     1
102
RTVSPropertyOp12
 70
     1
102
RTVSPropertyOp13
 70
     1
102
RTVSPropertyOp14
 70
     1
102
RTVSPropertyOp15
 70
     1
102
RTVSPropertyOp16
 70
     1
102
RTVSPropertyOp17
 70
     1
102
RTVSPropertyOp18
 70
     1
102
RTVSPropertyOp19
 70
     1
102
RTVSPropertyOp20
 70
     1
102
RTVSPropertyOp21
 70
     1
102
RTVSPropertyOp22
 70
     1
102
RTVSPropertyOp23
 70
     1
102
RTVSPropertyOp24
 70
     1
102
RTVSPropertyOp25
 70
     1
102
RTVSPropertyOp26
 70
     1
102
RTVSPropertyOp27
 70
     1
102
RTVSPropertyOp28
 70
     1
102
RTVSPropertyOp29
 70
     1
102
RTVSPropertyOp30
 70
     1
102
RTVSPropertyOp31
 70
     1
102
RTVSPropertyOp32
 70
     1
102
RTVSPropertyOp33
 70
     1
102
RTVSPropertyOp34
 70
     1
102
RTVSPropertyOp35
 70
     1
102
RTVSPropertyOp36
 70
     1
102
RTVSPropertyOp37
 70
     1
102
RTVSPropertyOp38
 70
     1
102
RTVSPropertyOp39
 70
     1
102
RTVSPropertyOp40
 70
     1
102
RTVSPropertyOp41
 70
     1
102
RTVSPropertyOp42
 70
     1
102
RTVSPropertyOp43
 70
     1
102
RTVSPropertyOp44
 70
     1
102
RTVSPropertyOp45
 70
     1
102
RTVSPropertyOp46
 70
     1
102
RTVSPropertyOp47
 70
     1
102
RTVSPropertyOp48
 70
     1
102
RTVSPropertyOp49
 70
     1
102
RTVSPropertyOp50
 70
     1
102
RTVSPropertyOp51
 70
     0
102
RTVSPropertyOp52
 70
     0
102
RTVSPropertyOp53
 70
     1
102
RTVSPropertyOp54
 70
     1
102
RTVSPropertyOp55
 70
     1
102
RTVSPropertyOp56
 70
     1
102
RTVSPropertyOp57
 70
     1
102
RTVSPropertyOp58
 70
     1
102
RTVSPropertyOp59
 70
     1
102
RTVSPropertyOp60
 70
     1
102
RTVSPropertyOp61
 70
     1
102
RTVSPropertyOp62
 70
     1
  0
XRECORD
  5
38B
102
{ACAD_REACTORS
330
38A
102
}
330
38A
100
AcDbXrecord
280
     1
102
RTVSPost2010Prop28
280
     0
102
RTVSPost2010PropOp28
 70
     1
102
RTVSPost2010Prop29
280
     1
102
RTVSPost2010PropOp29
 70
     1
102
RTVSPost2010Prop30
280
     1
102
RTVSPost2010PropOp30
 70
     1
102
RTVSPost2010Prop31
280
     0
102
RTVSPost2010PropOp31
 70
     1
102
RTVSPost2010Prop32
280
     0
102
RTVSPost2010PropOp32
 70
     1
102
RTVSPost2010Prop33
280
     0
102
RTVSPost2010PropOp33
 70
     1
102
RTVSPost2010Prop34
280
     0
102
RTVSPost2010PropOp34
 70
     1
102
RTVSPost2010Prop35
280
     0
102
RTVSPost2010PropOp35
 70
     1
102
RTVSPost2010Prop36
280
     0
102
RTVSPost2010PropOp36
 70
     1
102
RTVSPost2010Prop37
 90
       50
102
RTVSPost2010PropOp37
 70
     1
102
RTVSPost2010Prop38
140
0.0
102
RTVSPost2010PropOp38
 70
     1
102
RTVSPost2010Prop39
140
1.0
102
RTVSPost2010PropOp39
 70
     1
102
RTVSPost2010Prop40
 90
        0
102
RTVSPost2010PropOp40
 70
     1
102
RTVSPost2010Prop41ColorIndex
 90
       18
102
RTVSPost2010Prop41ColorRGB
 90
        0
102
RTVSPost2010PropOp41
 70
     1
102
RTVSPost2010Prop42
 90
       50
102
RTVSPost2010PropOp42
 70
     1
102
RTVSPost2010Prop43
 90
        3
102
RTVSPost2010PropOp43
 70
     1
102
RTVSPost2010Prop44ColorIndex
 90
        5
102
RTVSPost2010Prop44ColorRGB
 90
      255
102
RTVSPost2010PropOp44
 70
     1
102
RTVSPost2010Prop45
280
     0
102
RTVSPost2010PropOp45
 70
     1
102
RTVSPost2010Prop46
 90
       50
102
RTVSPost2010PropOp46
 70
     1
102
RTVSPost2010Prop47
 90
       50
102
RTVSPost2010PropOp47
 70
     1
102
RTVSPost2010Prop48
 90
       50
102
RTVSPost2010PropOp48
 70
     1
102
RTVSPost2010Prop49
280
     0
102
RTVSPost2010PropOp49
 70
     1
102
RTVSPost2010Prop50
 90
       50
102
RTVSPost2010PropOp50
 70
     1
102
RTVSPost2010Prop51ColorIndex
 90
      256
102
RTVSPost2010Prop51ColorRGB
 90
-16777216
102
RTVSPost2010PropOp51
 70
     0
102
RTVSPost2010Prop52
140
1.0
102
RTVSPost2010PropOp52
 70
     0
102
RTVSPost2010Prop53
 90
        2
102
RTVSPost2010PropOp53
 70
     1
102
RTVSPost2010Prop54
  1
strokes_ogs.tif
102
RTVSPost2010PropOp54
 70
     1
102
RTVSPost2010Prop55
280
     0
102
RTVSPost2010PropOp55
 70
     1
102
RTVSPost2010Prop56
140
1.0
102
RTVSPost2010PropOp56
 70
     1
102
RTVSPost2010Prop57
140
1.0
102
RTVSPost2010PropOp57
 70
     1
102
RTVSPropertyOp0
 70
     1
102
RTVSPropertyOp1
 70
     1
102
RTVSPropertyOp2
 70
     1
102
RTVSPropertyOp3
 70
     1
102
RTVSPropertyOp4
 70
     1
102
RTVSPropertyOp5
 70
     1
102
RTVSPropertyOp6
 70
     1
102
RTVSPropertyOp7
 70
     1
102
RTVSPropertyOp8
 70
     1
102
RTVSPropertyOp9
 70
     1
102
RTVSPropertyOp10
 70
     1
102
RTVSPropertyOp11
 70
     1
102
RTVSPropertyOp12
 70
     1
102
RTVSPropertyOp13
 70
     1
102
RTVSPropertyOp14
 70
     1
102
RTVSPropertyOp15
 70
     1
102
RTVSPropertyOp16
 70
     1
102
RTVSPropertyOp17
 70
     1
102
RTVSPropertyOp18
 70
     1
102
RTVSPropertyOp19
 70
     1
102
RTVSPropertyOp20
 70
     1
102
RTVSPropertyOp21
 70
     1
102
RTVSPropertyOp22
 70
     1
102
RTVSPropertyOp23
 70
     1
102
RTVSPropertyOp24
 70
     1
102
RTVSPropertyOp25
 70
     1
102
RTVSPropertyOp26
 70
     1
102
RTVSPropertyOp27
 70
     1
102
RTVSPropertyOp28
 70
     1
102
RTVSPropertyOp29
 70
     1
102
RTVSPropertyOp30
 70
     1
102
RTVSPropertyOp31
 70
     1
102
RTVSPropertyOp32
 70
     1
102
RTVSPropertyOp33
 70
     1
102
RTVSPropertyOp34
 70
     1
102
RTVSPropertyOp35
 70
     1
102
RTVSPropertyOp36
 70
     1
102
RTVSPropertyOp37
 70
     1
102
RTVSPropertyOp38
 70
     1
102
RTVSPropertyOp39
 70
     1
102
RTVSPropertyOp40
 70
     1
102
RTVSPropertyOp41
 70
     1
102
RTVSPropertyOp42
 70
     1
102
RTVSPropertyOp43
 70
     1
102
RTVSPropertyOp44
 70
     1
102
RTVSPropertyOp45
 70
     1
102
RTVSPropertyOp46
 70
     1
102
RTVSPropertyOp47
 70
     1
102
RTVSPropertyOp48
 70
     1
102
RTVSPropertyOp49
 70
     1
102
RTVSPropertyOp50
 70
     1
102
RTVSPropertyOp51
 70
     0
102
RTVSPropertyOp52
 70
     0
102
RTVSPropertyOp53
 70
     1
102
RTVSPropertyOp54
 70
     1
102
RTVSPropertyOp55
 70
     1
102
RTVSPropertyOp56
 70
     1
102
RTVSPropertyOp57
 70
     1
102
RTVSPropertyOp58
 70
     1
102
RTVSPropertyOp59
 70
     1
102
RTVSPropertyOp60
 70
     1
102
RTVSPropertyOp61
 70
     1
102
RTVSPropertyOp62
 70
     1
  0
XRECORD
  5
389
102
{ACAD_REACTORS
330
388
102
}
330
388
100
AcDbXrecord
280
     1
102
RTVSPost2010Prop28
280
     0
102
RTVSPost2010PropOp28
 70
     1
102
RTVSPost2010Prop29
280
     1
102
RTVSPost2010PropOp29
 70
     1
102
RTVSPost2010Prop30
280
     1
102
RTVSPost2010PropOp30
 70
     1
102
RTVSPost2010Prop31
280
     0
102
RTVSPost2010PropOp31
 70
     1
102
RTVSPost2010Prop32
280
     0
102
RTVSPost2010PropOp32
 70
     1
102
RTVSPost2010Prop33
280
     0
102
RTVSPost2010PropOp33
 70
     1
102
RTVSPost2010Prop34
280
     0
102
RTVSPost2010PropOp34
 70
     1
102
RTVSPost2010Prop35
280
     0
102
RTVSPost2010PropOp35
 70
     1
102
RTVSPost2010Prop36
280
     0
102
RTVSPost2010PropOp36
 70
     1
102
RTVSPost2010Prop37
 90
       50
102
RTVSPost2010PropOp37
 70
     1
102
RTVSPost2010Prop38
140
0.0
102
RTVSPost2010PropOp38
 70
     1
102
RTVSPost2010Prop39
140
1.0
102
RTVSPost2010PropOp39
 70
     1
102
RTVSPost2010Prop40
 90
        0
102
RTVSPost2010PropOp40
 70
     1
102
RTVSPost2010Prop41ColorIndex
 90
       18
102
RTVSPost2010Prop41ColorRGB
 90
        0
102
RTVSPost2010PropOp41
 70
     1
102
RTVSPost2010Prop42
 90
       50
102
RTVSPost2010PropOp42
 70
     1
102
RTVSPost2010Prop43
 90
        3
102
RTVSPost2010PropOp43
 70
     1
102
RTVSPost2010Prop44ColorIndex
 90
        5
102
RTVSPost2010Prop44ColorRGB
 90
      255
102
RTVSPost2010PropOp44
 70
     1
102
RTVSPost2010Prop45
280
     0
102
RTVSPost2010PropOp45
 70
     1
102
RTVSPost2010Prop46
 90
       50
102
RTVSPost2010PropOp46
 70
     1
102
RTVSPost2010Prop47
 90
       50
102
RTVSPost2010PropOp47
 70
     1
102
RTVSPost2010Prop48
 90
       50
102
RTVSPost2010PropOp48
 70
     1
102
RTVSPost2010Prop49
280
     0
102
RTVSPost2010PropOp49
 70
     1
102
RTVSPost2010Prop50
 90
       50
102
RTVSPost2010PropOp50
 70
     1
102
RTVSPost2010Prop51ColorIndex
 90
      256
102
RTVSPost2010Prop51ColorRGB
 90
-16777216
102
RTVSPost2010PropOp51
 70
     0
102
RTVSPost2010Prop52
140
1.0
102
RTVSPost2010PropOp52
 70
     0
102
RTVSPost2010Prop53
 90
        2
102
RTVSPost2010PropOp53
 70
     1
102
RTVSPost2010Prop54
  1
strokes_ogs.tif
102
RTVSPost2010PropOp54
 70
     1
102
RTVSPost2010Prop55
280
     0
102
RTVSPost2010PropOp55
 70
     1
102
RTVSPost2010Prop56
140
1.0
102
RTVSPost2010PropOp56
 70
     1
102
RTVSPost2010Prop57
140
1.0
102
RTVSPost2010PropOp57
 70
     1
102
RTVSPropertyOp0
 70
     1
102
RTVSPropertyOp1
 70
     1
102
RTVSPropertyOp2
 70
     1
102
RTVSPropertyOp3
 70
     1
102
RTVSPropertyOp4
 70
     1
102
RTVSPropertyOp5
 70
     1
102
RTVSPropertyOp6
 70
     1
102
RTVSPropertyOp7
 70
     1
102
RTVSPropertyOp8
 70
     1
102
RTVSPropertyOp9
 70
     1
102
RTVSPropertyOp10
 70
     1
102
RTVSPropertyOp11
 70
     1
102
RTVSPropertyOp12
 70
     1
102
RTVSPropertyOp13
 70
     1
102
RTVSPropertyOp14
 70
     1
102
RTVSPropertyOp15
 70
     1
102
RTVSPropertyOp16
 70
     1
102
RTVSPropertyOp17
 70
     1
102
RTVSPropertyOp18
 70
     1
102
RTVSPropertyOp19
 70
     1
102
RTVSPropertyOp20
 70
     1
102
RTVSPropertyOp21
 70
     1
102
RTVSPropertyOp22
 70
     1
102
RTVSPropertyOp23
 70
     1
102
RTVSPropertyOp24
 70
     1
102
RTVSPropertyOp25
 70
     1
102
RTVSPropertyOp26
 70
     1
102
RTVSPropertyOp27
 70
     1
102
RTVSPropertyOp28
 70
     1
102
RTVSPropertyOp29
 70
     1
102
RTVSPropertyOp30
 70
     1
102
RTVSPropertyOp31
 70
     1
102
RTVSPropertyOp32
 70
     1
102
RTVSPropertyOp33
 70
     1
102
RTVSPropertyOp34
 70
     1
102
RTVSPropertyOp35
 70
     1
102
RTVSPropertyOp36
 70
     1
102
RTVSPropertyOp37
 70
     1
102
RTVSPropertyOp38
 70
     1
102
RTVSPropertyOp39
 70
     1
102
RTVSPropertyOp40
 70
     1
102
RTVSPropertyOp41
 70
     1
102
RTVSPropertyOp42
 70
     1
102
RTVSPropertyOp43
 70
     1
102
RTVSPropertyOp44
 70
     1
102
RTVSPropertyOp45
 70
     1
102
RTVSPropertyOp46
 70
     1
102
RTVSPropertyOp47
 70
     1
102
RTVSPropertyOp48
 70
     1
102
RTVSPropertyOp49
 70
     1
102
RTVSPropertyOp50
 70
     1
102
RTVSPropertyOp51
 70
     0
102
RTVSPropertyOp52
 70
     0
102
RTVSPropertyOp53
 70
     1
102
RTVSPropertyOp54
 70
     1
102
RTVSPropertyOp55
 70
     1
102
RTVSPropertyOp56
 70
     1
102
RTVSPropertyOp57
 70
     1
102
RTVSPropertyOp58
 70
     1
102
RTVSPropertyOp59
 70
     1
102
RTVSPropertyOp60
 70
     1
102
RTVSPropertyOp61
 70
     1
102
RTVSPropertyOp62
 70
     1
  0
XRECORD
  5
383
102
{ACAD_REACTORS
330
382
102
}
330
382
100
AcDbXrecord
280
     1
102
RTVSPost2010Prop28
280
     0
102
RTVSPost2010PropOp28
 70
     1
102
RTVSPost2010Prop29
280
     1
102
RTVSPost2010PropOp29
 70
     1
102
RTVSPost2010Prop30
280
     1
102
RTVSPost2010PropOp30
 70
     1
102
RTVSPost2010Prop31
280
     0
102
RTVSPost2010PropOp31
 70
     1
102
RTVSPost2010Prop32
280
     0
102
RTVSPost2010PropOp32
 70
     1
102
RTVSPost2010Prop33
280
     0
102
RTVSPost2010PropOp33
 70
     1
102
RTVSPost2010Prop34
280
     0
102
RTVSPost2010PropOp34
 70
     1
102
RTVSPost2010Prop35
280
     0
102
RTVSPost2010PropOp35
 70
     1
102
RTVSPost2010Prop36
280
     0
102
RTVSPost2010PropOp36
 70
     1
102
RTVSPost2010Prop37
 90
       50
102
RTVSPost2010PropOp37
 70
     1
102
RTVSPost2010Prop38
140
0.0
102
RTVSPost2010PropOp38
 70
     1
102
RTVSPost2010Prop39
140
1.0
102
RTVSPost2010PropOp39
 70
     1
102
RTVSPost2010Prop40
 90
        0
102
RTVSPost2010PropOp40
 70
     1
102
RTVSPost2010Prop41ColorIndex
 90
       18
102
RTVSPost2010Prop41ColorRGB
 90
        0
102
RTVSPost2010PropOp41
 70
     1
102
RTVSPost2010Prop42
 90
       50
102
RTVSPost2010PropOp42
 70
     1
102
RTVSPost2010Prop43
 90
        3
102
RTVSPost2010PropOp43
 70
     1
102
RTVSPost2010Prop44ColorIndex
 90
        5
102
RTVSPost2010Prop44ColorRGB
 90
      255
102
RTVSPost2010PropOp44
 70
     1
102
RTVSPost2010Prop45
280
     0
102
RTVSPost2010PropOp45
 70
     1
102
RTVSPost2010Prop46
 90
       50
102
RTVSPost2010PropOp46
 70
     1
102
RTVSPost2010Prop47
 90
       50
102
RTVSPost2010PropOp47
 70
     1
102
RTVSPost2010Prop48
 90
       50
102
RTVSPost2010PropOp48
 70
     1
102
RTVSPost2010Prop49
280
     0
102
RTVSPost2010PropOp49
 70
     1
102
RTVSPost2010Prop50
 90
       50
102
RTVSPost2010PropOp50
 70
     1
102
RTVSPost2010Prop51ColorIndex
 90
      256
102
RTVSPost2010Prop51ColorRGB
 90
-16777216
102
RTVSPost2010PropOp51
 70
     0
102
RTVSPost2010Prop52
140
1.0
102
RTVSPost2010PropOp52
 70
     0
102
RTVSPost2010Prop53
 90
        2
102
RTVSPost2010PropOp53
 70
     1
102
RTVSPost2010Prop54
  1
strokes_ogs.tif
102
RTVSPost2010PropOp54
 70
     1
102
RTVSPost2010Prop55
280
     0
102
RTVSPost2010PropOp55
 70
     1
102
RTVSPost2010Prop56
140
1.0
102
RTVSPost2010PropOp56
 70
     1
102
RTVSPost2010Prop57
140
1.0
102
RTVSPost2010PropOp57
 70
     1
102
RTVSPropertyOp0
 70
     1
102
RTVSPropertyOp1
 70
     1
102
RTVSPropertyOp2
 70
     1
102
RTVSPropertyOp3
 70
     1
102
RTVSPropertyOp4
 70
     1
102
RTVSPropertyOp5
 70
     1
102
RTVSPropertyOp6
 70
     1
102
RTVSPropertyOp7
 70
     1
102
RTVSPropertyOp8
 70
     1
102
RTVSPropertyOp9
 70
     1
102
RTVSPropertyOp10
 70
     1
102
RTVSPropertyOp11
 70
     1
102
RTVSPropertyOp12
 70
     1
102
RTVSPropertyOp13
 70
     1
102
RTVSPropertyOp14
 70
     1
102
RTVSPropertyOp15
 70
     1
102
RTVSPropertyOp16
 70
     1
102
RTVSPropertyOp17
 70
     1
102
RTVSPropertyOp18
 70
     1
102
RTVSPropertyOp19
 70
     1
102
RTVSPropertyOp20
 70
     1
102
RTVSPropertyOp21
 70
     1
102
RTVSPropertyOp22
 70
     1
102
RTVSPropertyOp23
 70
     1
102
RTVSPropertyOp24
 70
     1
102
RTVSPropertyOp25
 70
     1
102
RTVSPropertyOp26
 70
     1
102
RTVSPropertyOp27
 70
     1
102
RTVSPropertyOp28
 70
     1
102
RTVSPropertyOp29
 70
     1
102
RTVSPropertyOp30
 70
     1
102
RTVSPropertyOp31
 70
     1
102
RTVSPropertyOp32
 70
     1
102
RTVSPropertyOp33
 70
     1
102
RTVSPropertyOp34
 70
     1
102
RTVSPropertyOp35
 70
     1
102
RTVSPropertyOp36
 70
     1
102
RTVSPropertyOp37
 70
     1
102
RTVSPropertyOp38
 70
     1
102
RTVSPropertyOp39
 70
     1
102
RTVSPropertyOp40
 70
     1
102
RTVSPropertyOp41
 70
     1
102
RTVSPropertyOp42
 70
     1
102
RTVSPropertyOp43
 70
     1
102
RTVSPropertyOp44
 70
     1
102
RTVSPropertyOp45
 70
     1
102
RTVSPropertyOp46
 70
     1
102
RTVSPropertyOp47
 70
     1
102
RTVSPropertyOp48
 70
     1
102
RTVSPropertyOp49
 70
     1
102
RTVSPropertyOp50
 70
     1
102
RTVSPropertyOp51
 70
     0
102
RTVSPropertyOp52
 70
     0
102
RTVSPropertyOp53
 70
     1
102
RTVSPropertyOp54
 70
     1
102
RTVSPropertyOp55
 70
     1
102
RTVSPropertyOp56
 70
     1
102
RTVSPropertyOp57
 70
     1
102
RTVSPropertyOp58
 70
     1
102
RTVSPropertyOp59
 70
     1
102
RTVSPropertyOp60
 70
     1
102
RTVSPropertyOp61
 70
     1
102
RTVSPropertyOp62
 70
     1
  0
XRECORD
  5
385
102
{ACAD_REACTORS
330
384
102
}
330
384
100
AcDbXrecord
280
     1
102
RTVSPost2010Prop28
280
     0
102
RTVSPost2010PropOp28
 70
     1
102
RTVSPost2010Prop29
280
     1
102
RTVSPost2010PropOp29
 70
     1
102
RTVSPost2010Prop30
280
     1
102
RTVSPost2010PropOp30
 70
     1
102
RTVSPost2010Prop31
280
     0
102
RTVSPost2010PropOp31
 70
     1
102
RTVSPost2010Prop32
280
     0
102
RTVSPost2010PropOp32
 70
     1
102
RTVSPost2010Prop33
280
     0
102
RTVSPost2010PropOp33
 70
     1
102
RTVSPost2010Prop34
280
     0
102
RTVSPost2010PropOp34
 70
     1
102
RTVSPost2010Prop35
280
     0
102
RTVSPost2010PropOp35
 70
     1
102
RTVSPost2010Prop36
280
     0
102
RTVSPost2010PropOp36
 70
     1
102
RTVSPost2010Prop37
 90
       50
102
RTVSPost2010PropOp37
 70
     1
102
RTVSPost2010Prop38
140
0.0
102
RTVSPost2010PropOp38
 70
     1
102
RTVSPost2010Prop39
140
1.0
102
RTVSPost2010PropOp39
 70
     1
102
RTVSPost2010Prop40
 90
        0
102
RTVSPost2010PropOp40
 70
     1
102
RTVSPost2010Prop41ColorIndex
 90
       18
102
RTVSPost2010Prop41ColorRGB
 90
        0
102
RTVSPost2010PropOp41
 70
     1
102
RTVSPost2010Prop42
 90
       50
102
RTVSPost2010PropOp42
 70
     1
102
RTVSPost2010Prop43
 90
        3
102
RTVSPost2010PropOp43
 70
     1
102
RTVSPost2010Prop44ColorIndex
 90
        5
102
RTVSPost2010Prop44ColorRGB
 90
      255
102
RTVSPost2010PropOp44
 70
     1
102
RTVSPost2010Prop45
280
     0
102
RTVSPost2010PropOp45
 70
     1
102
RTVSPost2010Prop46
 90
       50
102
RTVSPost2010PropOp46
 70
     1
102
RTVSPost2010Prop47
 90
       50
102
RTVSPost2010PropOp47
 70
     1
102
RTVSPost2010Prop48
 90
       50
102
RTVSPost2010PropOp48
 70
     1
102
RTVSPost2010Prop49
280
     0
102
RTVSPost2010PropOp49
 70
     1
102
RTVSPost2010Prop50
 90
       50
102
RTVSPost2010PropOp50
 70
     1
102
RTVSPost2010Prop51ColorIndex
 90
      256
102
RTVSPost2010Prop51ColorRGB
 90
-16777216
102
RTVSPost2010PropOp51
 70
     0
102
RTVSPost2010Prop52
140
1.0
102
RTVSPost2010PropOp52
 70
     0
102
RTVSPost2010Prop53
 90
        2
102
RTVSPost2010PropOp53
 70
     1
102
RTVSPost2010Prop54
  1
strokes_ogs.tif
102
RTVSPost2010PropOp54
 70
     1
102
RTVSPost2010Prop55
280
     0
102
RTVSPost2010PropOp55
 70
     1
102
RTVSPost2010Prop56
140
1.0
102
RTVSPost2010PropOp56
 70
     1
102
RTVSPost2010Prop57
140
1.0
102
RTVSPost2010PropOp57
 70
     1
102
RTVSPropertyOp0
 70
     1
102
RTVSPropertyOp1
 70
     1
102
RTVSPropertyOp2
 70
     1
102
RTVSPropertyOp3
 70
     1
102
RTVSPropertyOp4
 70
     1
102
RTVSPropertyOp5
 70
     1
102
RTVSPropertyOp6
 70
     1
102
RTVSPropertyOp7
 70
     1
102
RTVSPropertyOp8
 70
     1
102
RTVSPropertyOp9
 70
     1
102
RTVSPropertyOp10
 70
     1
102
RTVSPropertyOp11
 70
     1
102
RTVSPropertyOp12
 70
     1
102
RTVSPropertyOp13
 70
     1
102
RTVSPropertyOp14
 70
     1
102
RTVSPropertyOp15
 70
     1
102
RTVSPropertyOp16
 70
     1
102
RTVSPropertyOp17
 70
     1
102
RTVSPropertyOp18
 70
     1
102
RTVSPropertyOp19
 70
     1
102
RTVSPropertyOp20
 70
     1
102
RTVSPropertyOp21
 70
     1
102
RTVSPropertyOp22
 70
     1
102
RTVSPropertyOp23
 70
     1
102
RTVSPropertyOp24
 70
     1
102
RTVSPropertyOp25
 70
     1
102
RTVSPropertyOp26
 70
     1
102
RTVSPropertyOp27
 70
     1
102
RTVSPropertyOp28
 70
     1
102
RTVSPropertyOp29
 70
     1
102
RTVSPropertyOp30
 70
     1
102
RTVSPropertyOp31
 70
     1
102
RTVSPropertyOp32
 70
     1
102
RTVSPropertyOp33
 70
     1
102
RTVSPropertyOp34
 70
     1
102
RTVSPropertyOp35
 70
     1
102
RTVSPropertyOp36
 70
     1
102
RTVSPropertyOp37
 70
     1
102
RTVSPropertyOp38
 70
     1
102
RTVSPropertyOp39
 70
     1
102
RTVSPropertyOp40
 70
     1
102
RTVSPropertyOp41
 70
     1
102
RTVSPropertyOp42
 70
     1
102
RTVSPropertyOp43
 70
     1
102
RTVSPropertyOp44
 70
     1
102
RTVSPropertyOp45
 70
     1
102
RTVSPropertyOp46
 70
     1
102
RTVSPropertyOp47
 70
     1
102
RTVSPropertyOp48
 70
     1
102
RTVSPropertyOp49
 70
     1
102
RTVSPropertyOp50
 70
     1
102
RTVSPropertyOp51
 70
     0
102
RTVSPropertyOp52
 70
     0
102
RTVSPropertyOp53
 70
     1
102
RTVSPropertyOp54
 70
     1
102
RTVSPropertyOp55
 70
     1
102
RTVSPropertyOp56
 70
     1
102
RTVSPropertyOp57
 70
     1
102
RTVSPropertyOp58
 70
     1
102
RTVSPropertyOp59
 70
     1
102
RTVSPropertyOp60
 70
     1
102
RTVSPropertyOp61
 70
     1
102
RTVSPropertyOp62
 70
     1
  0
XRECORD
  5
375
102
{ACAD_REACTORS
330
374
102
}
330
374
100
AcDbXrecord
280
     1
102
RTVSPost2010Prop28
280
     0
102
RTVSPost2010PropOp28
 70
     1
102
RTVSPost2010Prop29
280
     1
102
RTVSPost2010PropOp29
 70
     1
102
RTVSPost2010Prop30
280
     1
102
RTVSPost2010PropOp30
 70
     1
102
RTVSPost2010Prop31
280
     0
102
RTVSPost2010PropOp31
 70
     1
102
RTVSPost2010Prop32
280
     0
102
RTVSPost2010PropOp32
 70
     1
102
RTVSPost2010Prop33
280
     0
102
RTVSPost2010PropOp33
 70
     1
102
RTVSPost2010Prop34
280
     0
102
RTVSPost2010PropOp34
 70
     1
102
RTVSPost2010Prop35
280
     0
102
RTVSPost2010PropOp35
 70
     1
102
RTVSPost2010Prop36
280
     0
102
RTVSPost2010PropOp36
 70
     1
102
RTVSPost2010Prop37
 90
       50
102
RTVSPost2010PropOp37
 70
     1
102
RTVSPost2010Prop38
140
0.0
102
RTVSPost2010PropOp38
 70
     1
102
RTVSPost2010Prop39
140
1.0
102
RTVSPost2010PropOp39
 70
     1
102
RTVSPost2010Prop40
 90
        0
102
RTVSPost2010PropOp40
 70
     1
102
RTVSPost2010Prop41ColorIndex
 90
       18
102
RTVSPost2010Prop41ColorRGB
 90
        0
102
RTVSPost2010PropOp41
 70
     1
102
RTVSPost2010Prop42
 90
       50
102
RTVSPost2010PropOp42
 70
     1
102
RTVSPost2010Prop43
 90
        3
102
RTVSPost2010PropOp43
 70
     1
102
RTVSPost2010Prop44ColorIndex
 90
        5
102
RTVSPost2010Prop44ColorRGB
 90
      255
102
RTVSPost2010PropOp44
 70
     1
102
RTVSPost2010Prop45
280
     0
102
RTVSPost2010PropOp45
 70
     1
102
RTVSPost2010Prop46
 90
       50
102
RTVSPost2010PropOp46
 70
     1
102
RTVSPost2010Prop47
 90
       50
102
RTVSPost2010PropOp47
 70
     1
102
RTVSPost2010Prop48
 90
       50
102
RTVSPost2010PropOp48
 70
     1
102
RTVSPost2010Prop49
280
     0
102
RTVSPost2010PropOp49
 70
     1
102
RTVSPost2010Prop50
 90
       50
102
RTVSPost2010PropOp50
 70
     1
102
RTVSPost2010Prop51ColorIndex
 90
      256
102
RTVSPost2010Prop51ColorRGB
 90
-16777216
102
RTVSPost2010PropOp51
 70
     0
102
RTVSPost2010Prop52
140
1.0
102
RTVSPost2010PropOp52
 70
     0
102
RTVSPost2010Prop53
 90
        2
102
RTVSPost2010PropOp53
 70
     1
102
RTVSPost2010Prop54
  1
strokes_ogs.tif
102
RTVSPost2010PropOp54
 70
     1
102
RTVSPost2010Prop55
280
     0
102
RTVSPost2010PropOp55
 70
     1
102
RTVSPost2010Prop56
140
1.0
102
RTVSPost2010PropOp56
 70
     1
102
RTVSPost2010Prop57
140
1.0
102
RTVSPost2010PropOp57
 70
     1
102
RTVSPropertyOp0
 70
     1
102
RTVSPropertyOp1
 70
     1
102
RTVSPropertyOp2
 70
     1
102
RTVSPropertyOp3
 70
     1
102
RTVSPropertyOp4
 70
     1
102
RTVSPropertyOp5
 70
     1
102
RTVSPropertyOp6
 70
     1
102
RTVSPropertyOp7
 70
     1
102
RTVSPropertyOp8
 70
     1
102
RTVSPropertyOp9
 70
     1
102
RTVSPropertyOp10
 70
     1
102
RTVSPropertyOp11
 70
     1
102
RTVSPropertyOp12
 70
     1
102
RTVSPropertyOp13
 70
     1
102
RTVSPropertyOp14
 70
     1
102
RTVSPropertyOp15
 70
     1
102
RTVSPropertyOp16
 70
     1
102
RTVSPropertyOp17
 70
     1
102
RTVSPropertyOp18
 70
     1
102
RTVSPropertyOp19
 70
     1
102
RTVSPropertyOp20
 70
     1
102
RTVSPropertyOp21
 70
     1
102
RTVSPropertyOp22
 70
     1
102
RTVSPropertyOp23
 70
     1
102
RTVSPropertyOp24
 70
     1
102
RTVSPropertyOp25
 70
     1
102
RTVSPropertyOp26
 70
     1
102
RTVSPropertyOp27
 70
     1
102
RTVSPropertyOp28
 70
     1
102
RTVSPropertyOp29
 70
     1
102
RTVSPropertyOp30
 70
     1
102
RTVSPropertyOp31
 70
     1
102
RTVSPropertyOp32
 70
     1
102
RTVSPropertyOp33
 70
     1
102
RTVSPropertyOp34
 70
     1
102
RTVSPropertyOp35
 70
     1
102
RTVSPropertyOp36
 70
     1
102
RTVSPropertyOp37
 70
     1
102
RTVSPropertyOp38
 70
     1
102
RTVSPropertyOp39
 70
     1
102
RTVSPropertyOp40
 70
     1
102
RTVSPropertyOp41
 70
     1
102
RTVSPropertyOp42
 70
     1
102
RTVSPropertyOp43
 70
     1
102
RTVSPropertyOp44
 70
     1
102
RTVSPropertyOp45
 70
     1
102
RTVSPropertyOp46
 70
     1
102
RTVSPropertyOp47
 70
     1
102
RTVSPropertyOp48
 70
     1
102
RTVSPropertyOp49
 70
     1
102
RTVSPropertyOp50
 70
     1
102
RTVSPropertyOp51
 70
     0
102
RTVSPropertyOp52
 70
     0
102
RTVSPropertyOp53
 70
     1
102
RTVSPropertyOp54
 70
     1
102
RTVSPropertyOp55
 70
     1
102
RTVSPropertyOp56
 70
     1
102
RTVSPropertyOp57
 70
     1
102
RTVSPropertyOp58
 70
     1
102
RTVSPropertyOp59
 70
     1
102
RTVSPropertyOp60
 70
     1
102
RTVSPropertyOp61
 70
     1
102
RTVSPropertyOp62
 70
     1
  0
XRECORD
  5
367
102
{ACAD_REACTORS
330
366
102
}
330
366
100
AcDbXrecord
280
     1
102
RTVSPost2010Prop28
280
     0
102
RTVSPost2010PropOp28
 70
     1
102
RTVSPost2010Prop29
280
     1
102
RTVSPost2010PropOp29
 70
     1
102
RTVSPost2010Prop30
280
     1
102
RTVSPost2010PropOp30
 70
     1
102
RTVSPost2010Prop31
280
     0
102
RTVSPost2010PropOp31
 70
     1
102
RTVSPost2010Prop32
280
     0
102
RTVSPost2010PropOp32
 70
     1
102
RTVSPost2010Prop33
280
     0
102
RTVSPost2010PropOp33
 70
     1
102
RTVSPost2010Prop34
280
     0
102
RTVSPost2010PropOp34
 70
     1
102
RTVSPost2010Prop35
280
     0
102
RTVSPost2010PropOp35
 70
     1
102
RTVSPost2010Prop36
280
     0
102
RTVSPost2010PropOp36
 70
     1
102
RTVSPost2010Prop37
 90
       50
102
RTVSPost2010PropOp37
 70
     1
102
RTVSPost2010Prop38
140
0.0
102
RTVSPost2010PropOp38
 70
     1
102
RTVSPost2010Prop39
140
1.0
102
RTVSPost2010PropOp39
 70
     1
102
RTVSPost2010Prop40
 90
        0
102
RTVSPost2010PropOp40
 70
     1
102
RTVSPost2010Prop41ColorIndex
 90
       18
102
RTVSPost2010Prop41ColorRGB
 90
        0
102
RTVSPost2010PropOp41
 70
     1
102
RTVSPost2010Prop42
 90
       50
102
RTVSPost2010PropOp42
 70
     1
102
RTVSPost2010Prop43
 90
        3
102
RTVSPost2010PropOp43
 70
     1
102
RTVSPost2010Prop44ColorIndex
 90
        5
102
RTVSPost2010Prop44ColorRGB
 90
      255
102
RTVSPost2010PropOp44
 70
     1
102
RTVSPost2010Prop45
280
     0
102
RTVSPost2010PropOp45
 70
     1
102
RTVSPost2010Prop46
 90
       50
102
RTVSPost2010PropOp46
 70
     1
102
RTVSPost2010Prop47
 90
       50
102
RTVSPost2010PropOp47
 70
     1
102
RTVSPost2010Prop48
 90
       50
102
RTVSPost2010PropOp48
 70
     1
102
RTVSPost2010Prop49
280
     0
102
RTVSPost2010PropOp49
 70
     1
102
RTVSPost2010Prop50
 90
       50
102
RTVSPost2010PropOp50
 70
     1
102
RTVSPost2010Prop51ColorIndex
 90
      256
102
RTVSPost2010Prop51ColorRGB
 90
-16777216
102
RTVSPost2010PropOp51
 70
     0
102
RTVSPost2010Prop52
140
1.0
102
RTVSPost2010PropOp52
 70
     0
102
RTVSPost2010Prop53
 90
        2
102
RTVSPost2010PropOp53
 70
     1
102
RTVSPost2010Prop54
  1
strokes_ogs.tif
102
RTVSPost2010PropOp54
 70
     1
102
RTVSPost2010Prop55
280
     0
102
RTVSPost2010PropOp55
 70
     1
102
RTVSPost2010Prop56
140
1.0
102
RTVSPost2010PropOp56
 70
     1
102
RTVSPost2010Prop57
140
1.0
102
RTVSPost2010PropOp57
 70
     1
102
RTVSPropertyOp0
 70
     1
102
RTVSPropertyOp1
 70
     1
102
RTVSPropertyOp2
 70
     1
102
RTVSPropertyOp3
 70
     1
102
RTVSPropertyOp4
 70
     1
102
RTVSPropertyOp5
 70
     1
102
RTVSPropertyOp6
 70
     1
102
RTVSPropertyOp7
 70
     1
102
RTVSPropertyOp8
 70
     1
102
RTVSPropertyOp9
 70
     1
102
RTVSPropertyOp10
 70
     1
102
RTVSPropertyOp11
 70
     1
102
RTVSPropertyOp12
 70
     1
102
RTVSPropertyOp13
 70
     1
102
RTVSPropertyOp14
 70
     1
102
RTVSPropertyOp15
 70
     1
102
RTVSPropertyOp16
 70
     1
102
RTVSPropertyOp17
 70
     1
102
RTVSPropertyOp18
 70
     1
102
RTVSPropertyOp19
 70
     1
102
RTVSPropertyOp20
 70
     1
102
RTVSPropertyOp21
 70
     1
102
RTVSPropertyOp22
 70
     1
102
RTVSPropertyOp23
 70
     1
102
RTVSPropertyOp24
 70
     1
102
RTVSPropertyOp25
 70
     1
102
RTVSPropertyOp26
 70
     1
102
RTVSPropertyOp27
 70
     1
102
RTVSPropertyOp28
 70
     1
102
RTVSPropertyOp29
 70
     1
102
RTVSPropertyOp30
 70
     1
102
RTVSPropertyOp31
 70
     1
102
RTVSPropertyOp32
 70
     1
102
RTVSPropertyOp33
 70
     1
102
RTVSPropertyOp34
 70
     1
102
RTVSPropertyOp35
 70
     1
102
RTVSPropertyOp36
 70
     1
102
RTVSPropertyOp37
 70
     1
102
RTVSPropertyOp38
 70
     1
102
RTVSPropertyOp39
 70
     1
102
RTVSPropertyOp40
 70
     1
102
RTVSPropertyOp41
 70
     1
102
RTVSPropertyOp42
 70
     1
102
RTVSPropertyOp43
 70
     1
102
RTVSPropertyOp44
 70
     1
102
RTVSPropertyOp45
 70
     1
102
RTVSPropertyOp46
 70
     1
102
RTVSPropertyOp47
 70
     1
102
RTVSPropertyOp48
 70
     1
102
RTVSPropertyOp49
 70
     1
102
RTVSPropertyOp50
 70
     1
102
RTVSPropertyOp51
 70
     0
102
RTVSPropertyOp52
 70
     0
102
RTVSPropertyOp53
 70
     1
102
RTVSPropertyOp54
 70
     1
102
RTVSPropertyOp55
 70
     1
102
RTVSPropertyOp56
 70
     1
102
RTVSPropertyOp57
 70
     1
102
RTVSPropertyOp58
 70
     1
102
RTVSPropertyOp59
 70
     1
102
RTVSPropertyOp60
 70
     1
102
RTVSPropertyOp61
 70
     1
102
RTVSPropertyOp62
 70
     1
  0
XRECORD
  5
387
102
{ACAD_REACTORS
330
386
102
}
330
386
100
AcDbXrecord
280
     1
102
RTVSPost2010Prop28
280
     0
102
RTVSPost2010PropOp28
 70
     1
102
RTVSPost2010Prop29
280
     1
102
RTVSPost2010PropOp29
 70
     1
102
RTVSPost2010Prop30
280
     1
102
RTVSPost2010PropOp30
 70
     1
102
RTVSPost2010Prop31
280
     0
102
RTVSPost2010PropOp31
 70
     1
102
RTVSPost2010Prop32
280
     0
102
RTVSPost2010PropOp32
 70
     1
102
RTVSPost2010Prop33
280
     0
102
RTVSPost2010PropOp33
 70
     1
102
RTVSPost2010Prop34
280
     0
102
RTVSPost2010PropOp34
 70
     1
102
RTVSPost2010Prop35
280
     0
102
RTVSPost2010PropOp35
 70
     1
102
RTVSPost2010Prop36
280
     0
102
RTVSPost2010PropOp36
 70
     1
102
RTVSPost2010Prop37
 90
       50
102
RTVSPost2010PropOp37
 70
     1
102
RTVSPost2010Prop38
140
0.0
102
RTVSPost2010PropOp38
 70
     1
102
RTVSPost2010Prop39
140
1.0
102
RTVSPost2010PropOp39
 70
     1
102
RTVSPost2010Prop40
 90
        0
102
RTVSPost2010PropOp40
 70
     1
102
RTVSPost2010Prop41ColorIndex
 90
       18
102
RTVSPost2010Prop41ColorRGB
 90
        0
102
RTVSPost2010PropOp41
 70
     1
102
RTVSPost2010Prop42
 90
       50
102
RTVSPost2010PropOp42
 70
     1
102
RTVSPost2010Prop43
 90
        3
102
RTVSPost2010PropOp43
 70
     1
102
RTVSPost2010Prop44ColorIndex
 90
        5
102
RTVSPost2010Prop44ColorRGB
 90
      255
102
RTVSPost2010PropOp44
 70
     1
102
RTVSPost2010Prop45
280
     0
102
RTVSPost2010PropOp45
 70
     1
102
RTVSPost2010Prop46
 90
       50
102
RTVSPost2010PropOp46
 70
     1
102
RTVSPost2010Prop47
 90
       50
102
RTVSPost2010PropOp47
 70
     1
102
RTVSPost2010Prop48
 90
       50
102
RTVSPost2010PropOp48
 70
     1
102
RTVSPost2010Prop49
280
     0
102
RTVSPost2010PropOp49
 70
     1
102
RTVSPost2010Prop50
 90
       50
102
RTVSPost2010PropOp50
 70
     1
102
RTVSPost2010Prop51ColorIndex
 90
      256
102
RTVSPost2010Prop51ColorRGB
 90
-16777216
102
RTVSPost2010PropOp51
 70
     0
102
RTVSPost2010Prop52
140
1.0
102
RTVSPost2010PropOp52
 70
     0
102
RTVSPost2010Prop53
 90
        2
102
RTVSPost2010PropOp53
 70
     1
102
RTVSPost2010Prop54
  1
strokes_ogs.tif
102
RTVSPost2010PropOp54
 70
     1
102
RTVSPost2010Prop55
280
     0
102
RTVSPost2010PropOp55
 70
     1
102
RTVSPost2010Prop56
140
1.0
102
RTVSPost2010PropOp56
 70
     1
102
RTVSPost2010Prop57
140
1.0
102
RTVSPost2010PropOp57
 70
     1
102
RTVSPropertyOp0
 70
     1
102
RTVSPropertyOp1
 70
     1
102
RTVSPropertyOp2
 70
     1
102
RTVSPropertyOp3
 70
     1
102
RTVSPropertyOp4
 70
     1
102
RTVSPropertyOp5
 70
     1
102
RTVSPropertyOp6
 70
     1
102
RTVSPropertyOp7
 70
     1
102
RTVSPropertyOp8
 70
     1
102
RTVSPropertyOp9
 70
     1
102
RTVSPropertyOp10
 70
     1
102
RTVSPropertyOp11
 70
     1
102
RTVSPropertyOp12
 70
     1
102
RTVSPropertyOp13
 70
     1
102
RTVSPropertyOp14
 70
     1
102
RTVSPropertyOp15
 70
     1
102
RTVSPropertyOp16
 70
     1
102
RTVSPropertyOp17
 70
     1
102
RTVSPropertyOp18
 70
     1
102
RTVSPropertyOp19
 70
     1
102
RTVSPropertyOp20
 70
     1
102
RTVSPropertyOp21
 70
     1
102
RTVSPropertyOp22
 70
     1
102
RTVSPropertyOp23
 70
     1
102
RTVSPropertyOp24
 70
     1
102
RTVSPropertyOp25
 70
     1
102
RTVSPropertyOp26
 70
     1
102
RTVSPropertyOp27
 70
     1
102
RTVSPropertyOp28
 70
     1
102
RTVSPropertyOp29
 70
     1
102
RTVSPropertyOp30
 70
     1
102
RTVSPropertyOp31
 70
     1
102
RTVSPropertyOp32
 70
     1
102
RTVSPropertyOp33
 70
     1
102
RTVSPropertyOp34
 70
     1
102
RTVSPropertyOp35
 70
     1
102
RTVSPropertyOp36
 70
     1
102
RTVSPropertyOp37
 70
     1
102
RTVSPropertyOp38
 70
     1
102
RTVSPropertyOp39
 70
     1
102
RTVSPropertyOp40
 70
     1
102
RTVSPropertyOp41
 70
     1
102
RTVSPropertyOp42
 70
     1
102
RTVSPropertyOp43
 70
     1
102
RTVSPropertyOp44
 70
     1
102
RTVSPropertyOp45
 70
     1
102
RTVSPropertyOp46
 70
     1
102
RTVSPropertyOp47
 70
     1
102
RTVSPropertyOp48
 70
     1
102
RTVSPropertyOp49
 70
     1
102
RTVSPropertyOp50
 70
     1
102
RTVSPropertyOp51
 70
     0
102
RTVSPropertyOp52
 70
     0
102
RTVSPropertyOp53
 70
     1
102
RTVSPropertyOp54
 70
     1
102
RTVSPropertyOp55
 70
     1
102
RTVSPropertyOp56
 70
     1
102
RTVSPropertyOp57
 70
     1
102
RTVSPropertyOp58
 70
     1
102
RTVSPropertyOp59
 70
     1
102
RTVSPropertyOp60
 70
     1
102
RTVSPropertyOp61
 70
     1
102
RTVSPropertyOp62
 70
     1
  0
ENDSEC
  0
EOF
