  0
SECTION
  2
HEADER
  9
$ACADVER
  1
AC1018
  9
$ACADMAINTVER
 70
   104
  9
$DWGCODEPAGE
  3
ANSI_1250
  9
$LASTSAVEDBY
  1
wq7085
  9
$INSBASE
 10
0.0
 20
0.0
 30
0.0
  9
$EXTMIN
 10
186.4339033333333
 20
118.534924
 30
0.0
  9
$EXTMAX
 10
369.778533
 20
345.2288016666667
 30
0.0
  9
$LIMMIN
 10
-0.5
 20
-0.5
  9
$LIMMAX
 10
5.0
 20
5.0
  9
$ORTHOMODE
 70
     0
  9
$REGENMODE
 70
     1
  9
$FILLMODE
 70
     1
  9
$QTEXTMODE
 70
     0
  9
$MIRRTEXT
 70
     1
  9
$LTSCALE
 40
1.0
  9
$ATTMODE
 70
     1
  9
$TEXTSIZE
 40
0.2
  9
$TRACEWID
 40
0.05
  9
$TEXTSTYLE
  7
Standard
  9
$CLAYER
  8
0
  9
$CELTYPE
  6
ByLayer
  9
$CECOLOR
 62
   256
  9
$CELTSCALE
 40
1.0
  9
$DISPSILH
 70
     0
  9
$DIMSCALE
 40
1.0
  9
$DIMASZ
 40
0.18
  9
$DIMEXO
 40
0.0625
  9
$DIMDLI
 40
0.38
  9
$DIMRND
 40
0.0
  9
$DIMDLE
 40
0.0
  9
$DIMEXE
 40
0.18
  9
$DIMTP
 40
0.0
  9
$DIMTM
 40
0.0
  9
$DIMTXT
 40
0.18
  9
$DIMCEN
 40
0.09
  9
$DIMTSZ
 40
0.0
  9
$DIMTOL
 70
     0
  9
$DIMLIM
 70
     0
  9
$DIMTIH
 70
     1
  9
$DIMTOH
 70
     1
  9
$DIMSE1
 70
     0
  9
$DIMSE2
 70
     0
  9
$DIMTAD
 70
     0
  9
$DIMZIN
 70
     0
  9
$DIMBLK
  1

  9
$DIMASO
 70
     1
  9
$DIMSHO
 70
     1
  9
$DIMPOST
  1

  9
$DIMAPOST
  1

  9
$DIMALT
 70
     0
  9
$DIMALTD
 70
     2
  9
$DIMALTF
 40
25.4
  9
$DIMLFAC
 40
1.0
  9
$DIMTOFL
 70
     0
  9
$DIMTVP
 40
0.0
  9
$DIMTIX
 70
     0
  9
$DIMSOXD
 70
     0
  9
$DIMSAH
 70
     0
  9
$DIMBLK1
  1

  9
$DIMBLK2
  1

  9
$DIMSTYLE
  2
Standard
  9
$DIMCLRD
 70
     0
  9
$DIMCLRE
 70
     0
  9
$DIMCLRT
 70
     0
  9
$DIMTFAC
 40
1.0
  9
$DIMGAP
 40
0.09
  9
$DIMJUST
 70
     0
  9
$DIMSD1
 70
     0
  9
$DIMSD2
 70
     0
  9
$DIMTOLJ
 70
     1
  9
$DIMTZIN
 70
     0
  9
$DIMALTZ
 70
     0
  9
$DIMALTTZ
 70
     0
  9
$DIMUPT
 70
     0
  9
$DIMDEC
 70
     4
  9
$DIMTDEC
 70
     4
  9
$DIMALTU
 70
     2
  9
$DIMALTTD
 70
     2
  9
$DIMTXSTY
  7
Standard
  9
$DIMAUNIT
 70
     0
  9
$DIMADEC
 70
     0
  9
$DIMALTRND
 40
0.0
  9
$DIMAZIN
 70
     0
  9
$DIMDSEP
 70
    46
  9
$DIMATFIT
 70
     3
  9
$DIMFRAC
 70
     0
  9
$DIMLDRBLK
  1

  9
$DIMLUNIT
 70
     2
  9
$DIMLWD
 70
    -2
  9
$DIMLWE
 70
    -2
  9
$DIMTMOVE
 70
     0
  9
$LUNITS
 70
     2
  9
$LUPREC
 70
     4
  9
$SKETCHINC
 40
0.1
  9
$FILLETRAD
 40
0.5
  9
$AUNITS
 70
     0
  9
$AUPREC
 70
     0
  9
$MENU
  1
.
  9
$ELEVATION
 40
0.0
  9
$PELEVATION
 40
0.0
  9
$THICKNESS
 40
0.0
  9
$LIMCHECK
 70
     0
  9
$CHAMFERA
 40
0.0
  9
$CHAMFERB
 40
0.0
  9
$CHAMFERC
 40
0.0
  9
$CHAMFERD
 40
0.0
  9
$SKPOLY
 70
     0
  9
$TDCREATE
 40
2458954.415185186
  9
$TDUCREATE
 40
2458954.331859248
  9
$TDUPDATE
 40
2458954.419756945
  9
$TDUUPDATE
 40
2458954.336423611
  9
$TDINDWG
 40
0.0023958449
  9
$TDUSRTIMER
 40
0.0023958449
  9
$USRTIMER
 70
     1
  9
$ANGBASE
 50
0.0
  9
$ANGDIR
 70
     0
  9
$PDMODE
 70
     0
  9
$PDSIZE
 40
0.0
  9
$PLINEWID
 40
0.0
  9
$SPLFRAME
 70
     0
  9
$SPLINETYPE
 70
     6
  9
$SPLINESEGS
 70
     8
  9
$HANDSEED
  5
39A
  9
$SURFTAB1
 70
     6
  9
$SURFTAB2
 70
     6
  9
$SURFTYPE
 70
     6
  9
$SURFU
 70
     6
  9
$SURFV
 70
     6
  9
$UCSBASE
  2

  9
$UCSNAME
  2

  9
$UCSORG
 10
274.404842
 20
288.907994
 30
0.0
  9
$UCSXDIR
 10
1.0
 20
0.0
 30
0.0
  9
$UCSYDIR
 10
0.0
 20
1.0
 30
0.0
  9
$UCSORTHOREF
  2

  9
$UCSORTHOVIEW
 70
     0
  9
$UCSORGTOP
 10
0.0
 20
0.0
 30
0.0
  9
$UCSORGBOTTOM
 10
0.0
 20
0.0
 30
0.0
  9
$UCSORGLEFT
 10
0.0
 20
0.0
 30
0.0
  9
$UCSORGRIGHT
 10
0.0
 20
0.0
 30
0.0
  9
$UCSORGFRONT
 10
0.0
 20
0.0
 30
0.0
  9
$UCSORGBACK
 10
0.0
 20
0.0
 30
0.0
  9
$PUCSBASE
  2

  9
$PUCSNAME
  2

  9
$PUCSORG
 10
0.0
 20
0.0
 30
0.0
  9
$PUCSXDIR
 10
1.0
 20
0.0
 30
0.0
  9
$PUCSYDIR
 10
0.0
 20
1.0
 30
0.0
  9
$PUCSORTHOREF
  2

  9
$PUCSORTHOVIEW
 70
     0
  9
$PUCSORGTOP
 10
0.0
 20
0.0
 30
0.0
  9
$PUCSORGBOTTOM
 10
0.0
 20
0.0
 30
0.0
  9
$PUCSORGLEFT
 10
0.0
 20
0.0
 30
0.0
  9
$PUCSORGRIGHT
 10
0.0
 20
0.0
 30
0.0
  9
$PUCSORGFRONT
 10
0.0
 20
0.0
 30
0.0
  9
$PUCSORGBACK
 10
0.0
 20
0.0
 30
0.0
  9
$USERI1
 70
     0
  9
$USERI2
 70
     0
  9
$USERI3
 70
     0
  9
$USERI4
 70
     0
  9
$USERI5
 70
     0
  9
$USERR1
 40
0.0
  9
$USERR2
 40
0.0
  9
$USERR3
 40
0.0
  9
$USERR4
 40
0.0
  9
$USERR5
 40
0.0
  9
$WORLDVIEW
 70
     1
  9
$SHADEDGE
 70
     3
  9
$SHADEDIF
 70
    70
  9
$TILEMODE
 70
     1
  9
$MAXACTVP
 70
    64
  9
$PINSBASE
 10
0.0
 20
0.0
 30
0.0
  9
$PLIMCHECK
 70
     0
  9
$PEXTMIN
 10
-0.5
 20
-0.5
 30
-0.5
  9
$PEXTMAX
 10
5.0
 20
5.0
 30
5.0
  9
$PLIMMIN
 10
-0.5
 20
-0.5
  9
$PLIMMAX
 10
5.0
 20
5.0
  9
$UNITMODE
 70
     0
  9
$VISRETAIN
 70
     1
  9
$PLINEGEN
 70
     0
  9
$PSLTSCALE
 70
     1
  9
$TREEDEPTH
 70
  3020
  9
$CMLSTYLE
  2
Standard
  9
$CMLJUST
 70
     0
  9
$CMLSCALE
 40
1.0
  9
$PROXYGRAPHICS
 70
     1
  9
$MEASUREMENT
 70
     1
  9
$CELWEIGHT
370
    13
  9
$ENDCAPS
280
     0
  9
$JOINSTYLE
280
     0
  9
$LWDISPLAY
290
     0
  9
$INSUNITS
 70
     4
  9
$HYPERLINKBASE
  1

  9
$STYLESHEET
  1

  9
$XEDIT
290
     1
  9
$CEPSNTYPE
380
     0
  9
$PSTYLEMODE
290
     1
  9
$FINGERPRINTGUID
  2
{792987BE-BA7F-4CBA-82B4-C3A4D0335B77}
  9
$VERSIONGUID
  2
{E5B7E9B9-141F-244D-B424-E8E49C223196}
  9
$EXTNAMES
290
     1
  9
$PSVPSCALE
 40
0.0
  9
$OLESTARTUP
290
     0
  9
$SORTENTS
280
   127
  9
$INDEXCTL
280
     0
  9
$HIDETEXT
280
     1
  9
$XCLIPFRAME
290
     0
  9
$HALOGAP
280
     0
  9
$OBSCOLOR
 70
   257
  9
$OBSLTYPE
280
     0
  9
$INTERSECTIONDISPLAY
280
     0
  9
$INTERSECTIONCOLOR
 70
   257
  9
$DIMASSOC
280
     2
  9
$PROJECTNAME
  1

  0
ENDSEC
  0
SECTION
  2
CLASSES
  0
CLASS
  1
ACDBDICTIONARYWDFLT
  2
AcDbDictionaryWithDefault
  3
ObjectDBX Classes
 90
        0
 91
        1
280
     0
281
     0
  0
CLASS
  1
VISUALSTYLE
  2
AcDbVisualStyle
  3
ObjectDBX Classes
 90
     4095
 91
       24
280
     0
281
     0
  0
CLASS
  1
MATERIAL
  2
AcDbMaterial
  3
ObjectDBX Classes
 90
     1153
 91
        3
280
     0
281
     0
  0
CLASS
  1
SCALE
  2
AcDbScale
  3
ObjectDBX Classes
 90
     1153
 91
       33
280
     0
281
     0
  0
CLASS
  1
TABLESTYLE
  2
AcDbTableStyle
  3
ObjectDBX Classes
 90
     4095
 91
        1
280
     0
281
     0
  0
CLASS
  1
MLEADERSTYLE
  2
AcDbMLeaderStyle
  3
ACDB_MLEADERSTYLE_CLASS
 90
     4095
 91
        1
280
     0
281
     0
  0
CLASS
  1
SUN
  2
AcDbSun
  3
SCENEOE
 90
     1153
 91
        0
280
     0
281
     0
  0
CLASS
  1
DIMASSOC
  2
AcDbDimAssoc
  3
"AcDbDimAssoc|Product Desc:     AcDim ARX App For Dimension|Company:          Autodesk, Inc.|WEB Address:      www.autodesk.com"
 90
        0
 91
        7
280
     0
281
     0
  0
CLASS
  1
DICTIONARYVAR
  2
AcDbDictionaryVar
  3
ObjectDBX Classes
 90
        0
 91
        8
280
     0
281
     0
  0
CLASS
  1
CELLSTYLEMAP
  2
AcDbCellStyleMap
  3
ObjectDBX Classes
 90
     1152
 91
        2
280
     0
281
     0
  0
CLASS
  1
ACDBSECTIONVIEWSTYLE
  2
AcDbSectionViewStyle
  3
ObjectDBX Classes
 90
     1025
 91
        1
280
     0
281
     0
  0
CLASS
  1
ACDBDETAILVIEWSTYLE
  2
AcDbDetailViewStyle
  3
ObjectDBX Classes
 90
     1025
 91
        1
280
     0
281
     0
  0
CLASS
  1
SORTENTSTABLE
  2
AcDbSortentsTable
  3
ObjectDBX Classes
 90
        0
 91
        1
280
     0
281
     0
  0
ENDSEC
  0
SECTION
  2
TABLES
  0
TABLE
  2
VPORT
  5
8
330
0
100
AcDbSymbolTable
 70
    16
  0
VPORT
  5
29
330
8
100
AcDbSymbolTableRecord
100
AcDbViewportTableRecord
  2
*Active
 70
     0
 10
0.0
 20
0.0
 11
1.0
 21
1.0
 12
297.6938180462907
 22
298.4495178130737
 13
0.0
 23
0.0
 14
0.5
 24
0.5
 15
0.5
 25
0.5
 16
0.0
 26
0.0
 36
1.0
 17
0.0
 27
0.0
 37
0.0
 40
209.6331698768528
 41
2.283154121863799
 42
50.0
 43
380.063575
 44
-380.063575
 50
0.0
 51
0.0
 71
     0
 72
   100
 73
     1
 74
     3
 75
     0
 76
     0
 77
     0
 78
     0
281
     0
 65
     1
110
274.404842
120
288.907994
130
0.0
111
1.0
121
0.0
131
0.0
112
0.0
122
1.0
132
0.0
 79
     0
146
0.0
1001
ACAD_NAV_VCDISPLAY
1070
     3
  0
VPORT
  5
29E
330
8
100
AcDbSymbolTableRecord
100
AcDbViewportTableRecord
  2
L1
 70
     0
 10
0.0
 20
0.0
 11
1.0
 21
1.0
 12
277.602013
 22
231.745355
 13
0.0
 23
0.0
 14
0.5
 24
0.5
 15
0.5
 25
0.5
 16
0.0
 26
0.0
 36
1.0
 17
0.0
 27
0.0
 37
0.0
 40
207.433333
 41
0.085602
 42
50.0
 43
380.063575
 44
-380.063575
 50
0.0
 51
0.0
 71
     0
 72
   100
 73
     1
 74
     3
 75
     0
 76
     0
 77
     0
 78
     0
281
     0
 65
     1
110
0.0
120
0.0
130
0.0
111
1.0
121
0.0
131
0.0
112
0.0
122
1.0
132
0.0
 79
     0
146
0.0
  0
VPORT
  5
29F
330
8
100
AcDbSymbolTableRecord
100
AcDbViewportTableRecord
  2
L2
 70
     0
 10
0.0
 20
0.0
 11
0.5
 21
1.0
 12
0.0
 22
0.0
 13
0.0
 23
0.0
 14
0.5
 24
0.5
 15
0.5
 25
0.5
 16
0.0
 26
-1.0
 36
0.0
 17
0.0
 27
0.0
 37
0.0
 40
1319.143726
 41
0.013461
 42
50.0
 43
679.601336
 44
-679.601336
 50
0.0
 51
0.0
 71
     0
 72
   100
 73
     1
 74
     3
 75
     0
 76
     0
 77
     0
 78
     0
281
     0
 65
     1
110
0.0
120
0.0
130
0.0
111
1.0
121
0.0
131
0.0
112
0.0
122
1.0
132
0.0
 79
     0
146
0.0
  0
VPORT
  5
2A0
330
8
100
AcDbSymbolTableRecord
100
AcDbViewportTableRecord
  2
L2
 70
     0
 10
0.5
 20
0.0
 11
1.0
 21
1.0
 12
0.0
 22
0.0
 13
0.0
 23
0.0
 14
0.5
 24
0.5
 15
0.5
 25
0.5
 16
1.0
 26
0.0
 36
0.0
 17
0.0
 27
0.0
 37
0.0
 40
1319.143726
 41
0.013461
 42
50.0
 43
667.6767099999999
 44
-667.6767099999999
 50
0.0
 51
0.0
 71
     0
 72
   100
 73
     1
 74
     3
 75
     0
 76
     0
 77
     0
 78
     0
281
     0
 65
     1
110
0.0
120
0.0
130
0.0
111
1.0
121
0.0
131
0.0
112
0.0
122
1.0
132
0.0
 79
     0
146
0.0
  0
VPORT
  5
2A1
330
8
100
AcDbSymbolTableRecord
100
AcDbViewportTableRecord
  2
L3
 70
     0
 10
0.0
 20
0.5
 11
1.0
 21
1.0
 12
277.602013
 22
231.745355
 13
0.0
 23
0.0
 14
0.5
 24
0.5
 15
0.5
 25
0.5
 16
0.0
 26
0.0
 36
1.0
 17
0.0
 27
0.0
 37
0.0
 40
207.433333
 41
0.085602
 42
50.0
 43
380.063575
 44
-380.063575
 50
0.0
 51
0.0
 71
     0
 72
   100
 73
     1
 74
     3
 75
     0
 76
     0
 77
     0
 78
     0
281
     0
 65
     1
110
0.0
120
0.0
130
0.0
111
1.0
121
0.0
131
0.0
112
0.0
122
1.0
132
0.0
 79
     0
146
0.0
  0
VPORT
  5
2A2
330
8
100
AcDbSymbolTableRecord
100
AcDbViewportTableRecord
  2
L3
 70
     0
 10
0.0
 20
0.0
 11
1.0
 21
0.5
 12
0.0
 22
0.0
 13
0.0
 23
0.0
 14
0.5
 24
0.5
 15
0.5
 25
0.5
 16
0.0
 26
-1.0
 36
0.0
 17
0.0
 27
0.0
 37
0.0
 40
1319.143726
 41
0.013461
 42
50.0
 43
679.601336
 44
-679.601336
 50
0.0
 51
0.0
 71
     0
 72
   100
 73
     1
 74
     3
 75
     0
 76
     0
 77
     0
 78
     0
281
     0
 65
     1
110
0.0
120
0.0
130
0.0
111
1.0
121
0.0
131
0.0
112
0.0
122
1.0
132
0.0
 79
     0
146
0.0
  0
VPORT
  5
2A3
330
8
100
AcDbSymbolTableRecord
100
AcDbViewportTableRecord
  2
L4
 70
     0
 10
0.0
 20
0.5
 11
0.5
 21
1.0
 12
277.602013
 22
231.745355
 13
0.0
 23
0.0
 14
0.5
 24
0.5
 15
0.5
 25
0.5
 16
0.0
 26
0.0
 36
1.0
 17
0.0
 27
0.0
 37
0.0
 40
207.433333
 41
0.085602
 42
50.0
 43
380.063575
 44
-380.063575
 50
0.0
 51
0.0
 71
     0
 72
   100
 73
     1
 74
     3
 75
     0
 76
     0
 77
     0
 78
     0
281
     0
 65
     1
110
0.0
120
0.0
130
0.0
111
1.0
121
0.0
131
0.0
112
0.0
122
1.0
132
0.0
 79
     0
146
0.0
  0
VPORT
  5
2A4
330
8
100
AcDbSymbolTableRecord
100
AcDbViewportTableRecord
  2
L4
 70
     0
 10
0.0
 20
0.0
 11
0.5
 21
0.5
 12
0.0
 22
0.0
 13
0.0
 23
0.0
 14
0.5
 24
0.5
 15
0.5
 25
0.5
 16
0.0
 26
-1.0
 36
0.0
 17
0.0
 27
0.0
 37
0.0
 40
1319.143726
 41
0.013461
 42
50.0
 43
679.601336
 44
-679.601336
 50
0.0
 51
0.0
 71
     0
 72
   100
 73
     1
 74
     3
 75
     0
 76
     0
 77
     0
 78
     0
281
     0
 65
     1
110
0.0
120
0.0
130
0.0
111
1.0
121
0.0
131
0.0
112
0.0
122
1.0
132
0.0
 79
     0
146
0.0
  0
VPORT
  5
2A5
330
8
100
AcDbSymbolTableRecord
100
AcDbViewportTableRecord
  2
L4
 70
     0
 10
0.5
 20
0.0
 11
1.0
 21
0.5
 12
0.0
 22
0.0
 13
0.0
 23
0.0
 14
0.5
 24
0.5
 15
0.5
 25
0.5
 16
1.0
 26
0.0
 36
0.0
 17
0.0
 27
0.0
 37
0.0
 40
1319.143726
 41
0.013461
 42
50.0
 43
667.6767099999999
 44
-667.6767099999999
 50
0.0
 51
0.0
 71
     0
 72
   100
 73
     1
 74
     3
 75
     0
 76
     0
 77
     0
 78
     0
281
     0
 65
     1
110
0.0
120
0.0
130
0.0
111
1.0
121
0.0
131
0.0
112
0.0
122
1.0
132
0.0
 79
     0
146
0.0
  0
VPORT
  5
2A6
330
8
100
AcDbSymbolTableRecord
100
AcDbViewportTableRecord
  2
L4
 70
     0
 10
0.5
 20
0.5
 11
1.0
 21
1.0
 12
0.0
 22
0.0
 13
0.0
 23
0.0
 14
0.5
 24
0.5
 15
0.5
 25
0.5
 16
0.5773502691896259
 26
-0.5773502691896259
 36
0.5773502691896259
 17
0.0
 27
0.0
 37
0.0
 40
1295.484074
 41
0.013707
 42
50.0
 43
674.79345
 44
-674.79345
 50
0.0
 51
0.0
 71
     0
 72
   100
 73
     1
 74
     3
 75
     0
 76
     0
 77
     0
 78
     0
281
     0
 65
     1
110
0.0
120
0.0
130
0.0
111
1.0
121
0.0
131
0.0
112
0.0
122
1.0
132
0.0
 79
     0
146
0.0
  0
VPORT
  5
2A7
330
8
100
AcDbSymbolTableRecord
100
AcDbViewportTableRecord
  2
L6
 70
     0
 10
0.0
 20
0.5
 11
0.333333
 21
1.0
 12
0.0
 22
0.0
 13
0.0
 23
0.0
 14
0.5
 24
0.5
 15
0.5
 25
0.5
 16
0.7188730927569434
 26
-0.5850486126764433
 36
0.3754192287502549
 17
0.0
 27
0.0
 37
0.0
 40
1367.187154
 41
0.012988
 42
50.0
 43
707.8776949999999
 44
-707.8776949999999
 50
0.0
 51
0.0
 71
     0
 72
   100
 73
     1
 74
     3
 75
     0
 76
     0
 77
     0
 78
     0
281
     0
 65
     1
110
0.0
120
0.0
130
0.0
111
1.0
121
0.0
131
0.0
112
0.0
122
1.0
132
0.0
 79
     0
146
0.0
  0
VPORT
  5
2A8
330
8
100
AcDbSymbolTableRecord
100
AcDbViewportTableRecord
  2
L6
 70
     0
 10
0.0
 20
0.0
 11
0.333333
 21
0.5
 12
0.0
 22
0.0
 13
0.0
 23
0.0
 14
0.5
 24
0.5
 15
0.5
 25
0.5
 16
-1.0
 26
0.0
 36
0.0
 17
0.0
 27
0.0
 37
0.0
 40
1319.143726
 41
0.013461
 42
50.0
 43
667.6767099999999
 44
-667.6767099999999
 50
0.0
 51
0.0
 71
     0
 72
   100
 73
     1
 74
     3
 75
     0
 76
     0
 77
     0
 78
     0
281
     0
 65
     1
110
0.0
120
0.0
130
0.0
111
1.0
121
0.0
131
0.0
112
0.0
122
1.0
132
0.0
 79
     0
146
0.0
  0
VPORT
  5
2A9
330
8
100
AcDbSymbolTableRecord
100
AcDbViewportTableRecord
  2
L6
 70
     0
 10
0.333333
 20
0.5
 11
0.666667
 21
1.0
 12
277.602013
 22
231.745355
 13
0.0
 23
0.0
 14
0.5
 24
0.5
 15
0.5
 25
0.5
 16
0.0
 26
0.0
 36
1.0
 17
0.0
 27
0.0
 37
0.0
 40
207.433333
 41
0.085602
 42
50.0
 43
380.063575
 44
-380.063575
 50
0.0
 51
0.0
 71
     0
 72
   100
 73
     1
 74
     3
 75
     0
 76
     0
 77
     0
 78
     0
281
     0
 65
     1
110
0.0
120
0.0
130
0.0
111
1.0
121
0.0
131
0.0
112
0.0
122
1.0
132
0.0
 79
     0
146
0.0
  0
VPORT
  5
2AA
330
8
100
AcDbSymbolTableRecord
100
AcDbViewportTableRecord
  2
L6
 70
     0
 10
0.333333
 20
0.0
 11
0.666667
 21
0.5
 12
0.0
 22
0.0
 13
0.0
 23
0.0
 14
0.5
 24
0.5
 15
0.5
 25
0.5
 16
0.0
 26
-1.0
 36
0.0
 17
0.0
 27
0.0
 37
0.0
 40
1319.143726
 41
0.013461
 42
50.0
 43
679.601336
 44
-679.601336
 50
0.0
 51
0.0
 71
     0
 72
   100
 73
     1
 74
     3
 75
     0
 76
     0
 77
     0
 78
     0
281
     0
 65
     1
110
0.0
120
0.0
130
0.0
111
1.0
121
0.0
131
0.0
112
0.0
122
1.0
132
0.0
 79
     0
146
0.0
  0
VPORT
  5
2AB
330
8
100
AcDbSymbolTableRecord
100
AcDbViewportTableRecord
  2
L6
 70
     0
 10
0.666667
 20
0.5
 11
1.0
 21
1.0
 12
0.0
 22
0.0
 13
0.0
 23
0.0
 14
0.5
 24
0.5
 15
0.5
 25
0.5
 16
0.5773502691896259
 26
-0.5773502691896259
 36
0.5773502691896259
 17
0.0
 27
0.0
 37
0.0
 40
1295.484074
 41
0.013707
 42
50.0
 43
674.79345
 44
-674.79345
 50
0.0
 51
0.0
 71
     0
 72
   100
 73
     1
 74
     3
 75
     0
 76
     0
 77
     0
 78
     0
281
     0
 65
     1
110
0.0
120
0.0
130
0.0
111
1.0
121
0.0
131
0.0
112
0.0
122
1.0
132
0.0
 79
     0
146
0.0
  0
VPORT
  5
2AC
330
8
100
AcDbSymbolTableRecord
100
AcDbViewportTableRecord
  2
L6
 70
     0
 10
0.666667
 20
0.0
 11
1.0
 21
0.5
 12
0.0
 22
0.0
 13
0.0
 23
0.0
 14
0.5
 24
0.5
 15
0.5
 25
0.5
 16
1.0
 26
0.0
 36
0.0
 17
0.0
 27
0.0
 37
0.0
 40
1319.143726
 41
0.013461
 42
50.0
 43
667.6767099999999
 44
-667.6767099999999
 50
0.0
 51
0.0
 71
     0
 72
   100
 73
     1
 74
     3
 75
     0
 76
     0
 77
     0
 78
     0
281
     0
 65
     1
110
0.0
120
0.0
130
0.0
111
1.0
121
0.0
131
0.0
112
0.0
122
1.0
132
0.0
 79
     0
146
0.0
  0
ENDTAB
  0
TABLE
  2
LTYPE
  5
5
330
0
100
AcDbSymbolTable
 70
     7
  0
LTYPE
  5
14
330
5
100
AcDbSymbolTableRecord
100
AcDbLinetypeTableRecord
  2
ByBlock
 70
     0
  3

 72
    65
 73
     0
 40
0.0
  0
LTYPE
  5
15
330
5
100
AcDbSymbolTableRecord
100
AcDbLinetypeTableRecord
  2
ByLayer
 70
     0
  3

 72
    65
 73
     0
 40
0.0
  0
LTYPE
  5
16
330
5
100
AcDbSymbolTableRecord
100
AcDbLinetypeTableRecord
  2
Continuous
 70
     0
  3
Solid line
 72
    65
 73
     0
 40
0.0
  0
LTYPE
  5
6E
330
5
100
AcDbSymbolTableRecord
100
AcDbLinetypeTableRecord
  2
CENTER
 70
     0
  3
____ _ ____ _ ____ _ ____
 72
    65
 73
     4
 40
47.4
 49
22.0
 74
     4
 75
     0
340
0
 46
0.0
 50
0.0
 44
0.0
 45
0.0
 49
-8.5
 74
     4
 75
     0
340
0
 46
0.0
 50
0.0
 44
0.0
 45
0.0
 49
8.5
 74
     4
 75
     0
340
0
 46
0.0
 50
0.0
 44
0.0
 45
0.0
 49
-8.5
 74
     4
 75
     0
340
0
 46
0.0
 50
0.0
 44
0.0
 45
0.0
  0
LTYPE
  5
6F
330
5
100
AcDbSymbolTableRecord
100
AcDbLinetypeTableRecord
  2
DASHDOT
 70
     0
  3
_._._._._._._._._._._._._._._._.
 72
    65
 73
     4
 40
70.0
 49
31.0
 74
     4
 75
     0
340
0
 46
0.0
 50
0.0
 44
0.0
 45
0.0
 49
-13.0
 74
     4
 75
     0
340
0
 46
0.0
 50
0.0
 44
0.0
 45
0.0
 49
13.0
 74
     4
 75
     0
340
0
 46
0.0
 50
0.0
 44
0.0
 45
0.0
 49
-13.0
 74
     4
 75
     0
340
0
 46
0.0
 50
0.0
 44
0.0
 45
0.0
  0
LTYPE
  5
70
330
5
100
AcDbSymbolTableRecord
100
AcDbLinetypeTableRecord
  2
DASHED
 70
     0
  3
__ __ __ __ __ __ __ __ __
 72
    65
 73
     2
 40
25.72
 49
12.86
 74
     4
 75
     0
340
0
 46
0.0
 50
0.0
 44
0.0
 45
0.0
 49
-12.86
 74
     4
 75
     0
340
0
 46
0.0
 50
0.0
 44
0.0
 45
0.0
  0
LTYPE
  5
71
330
5
100
AcDbSymbolTableRecord
100
AcDbLinetypeTableRecord
  2
DOT
 70
     0
  3
.........................
 72
    65
 73
     2
 40
10.0
 49
0.0
 74
     4
 75
     0
340
0
 46
0.0
 50
0.0
 44
0.0
 45
0.0
 49
-10.0
 74
     4
 75
     0
340
0
 46
0.0
 50
0.0
 44
0.0
 45
0.0
  0
LTYPE
  5
72
330
5
100
AcDbSymbolTableRecord
100
AcDbLinetypeTableRecord
  2
PHANTOM
 70
     0
  3
____ _ _ ____ _ _ _____ _ _ ____
 72
    65
 73
     6
 40
50.5
 49
18.0
 74
     4
 75
     0
340
0
 46
0.0
 50
0.0
 44
0.0
 45
0.0
 49
-6.5
 74
     4
 75
     0
340
0
 46
0.0
 50
0.0
 44
0.0
 45
0.0
 49
6.5
 74
     4
 75
     0
340
0
 46
0.0
 50
0.0
 44
0.0
 45
0.0
 49
-6.5
 74
     4
 75
     0
340
0
 46
0.0
 50
0.0
 44
0.0
 45
0.0
 49
6.5
 74
     4
 75
     0
340
0
 46
0.0
 50
0.0
 44
0.0
 45
0.0
 49
-6.5
 74
     4
 75
     0
340
0
 46
0.0
 50
0.0
 44
0.0
 45
0.0
  0
LTYPE
  5
33C
330
5
100
AcDbSymbolTableRecord
100
AcDbLinetypeTableRecord
  2
CENTER2
 70
     0
  3
Center (.5x) ___ _ ___ _ ___ _ ___ _ ___ _ ___
 72
    65
 73
     4
 40
1.125
 49
0.75
 74
     0
 49
-0.125
 74
     0
 49
0.125
 74
     0
 49
-0.125
 74
     0
  0
ENDTAB
  0
TABLE
  2
LAYER
  5
2
330
0
100
AcDbSymbolTable
 70
    22
  0
LAYER
  5
10
102
{ACAD_XDICTIONARY
360
347
102
}
330
2
100
AcDbSymbolTableRecord
100
AcDbLayerTableRecord
  2
0
 70
     0
 62
     7
  6
Continuous
370
    -3
390
F
  0
LAYER
  5
1F8
330
2
100
AcDbSymbolTableRecord
100
AcDbLayerTableRecord
  2
Defpoints
 70
     0
 62
     7
  6
Continuous
290
     0
370
    -3
390
F
  0
LAYER
  5
339
102
{ACAD_XDICTIONARY
360
349
102
}
330
2
100
AcDbSymbolTableRecord
100
AcDbLayerTableRecord
  2
1
 70
     0
 62
     4
  6
Continuous
370
    -3
390
F
  0
LAYER
  5
33A
102
{ACAD_XDICTIONARY
360
34B
102
}
330
2
100
AcDbSymbolTableRecord
100
AcDbLayerTableRecord
  2
2
 70
     0
 62
     7
  6
Continuous
370
    -3
390
F
  0
LAYER
  5
33B
102
{ACAD_XDICTIONARY
360
34D
102
}
330
2
100
AcDbSymbolTableRecord
100
AcDbLayerTableRecord
  2
4
 70
     0
 62
     2
  6
CENTER2
370
    -3
390
F
  0
LAYER
  5
33D
102
{ACAD_XDICTIONARY
360
34F
102
}
330
2
100
AcDbSymbolTableRecord
100
AcDbLayerTableRecord
  2
SK1
 70
     0
 62
     4
  6
Continuous
370
    -3
390
F
  0
LAYER
  5
33E
102
{ACAD_XDICTIONARY
360
351
102
}
330
2
100
AcDbSymbolTableRecord
100
AcDbLayerTableRecord
  2
SK2
 70
     0
 62
     7
  6
Continuous
370
    -3
390
F
  0
LAYER
  5
340
102
{ACAD_XDICTIONARY
360
353
102
}
330
2
100
AcDbSymbolTableRecord
100
AcDbLayerTableRecord
  2
SK4
 70
     0
 62
     2
  6
CENTER2
370
    -3
390
F
  0
LAYER
  5
341
102
{ACAD_XDICTIONARY
360
355
102
}
330
2
100
AcDbSymbolTableRecord
100
AcDbLayerTableRecord
  2
SK6
 70
     0
 62
     5
  6
Continuous
370
    -3
390
F
  0
LAYER
  5
342
102
{ACAD_XDICTIONARY
360
357
102
}
330
2
100
AcDbSymbolTableRecord
100
AcDbLayerTableRecord
  2
CUT
 70
     0
 62
     1
  6
Continuous
370
    -3
390
F
  0
LAYER
  5
343
102
{ACAD_XDICTIONARY
360
359
102
}
330
2
100
AcDbSymbolTableRecord
100
AcDbLayerTableRecord
  2
NOCUT
 70
     0
 62
     7
  6
Continuous
370
    -3
390
F
  0
LAYER
  5
344
102
{ACAD_XDICTIONARY
360
35B
102
}
330
2
100
AcDbSymbolTableRecord
100
AcDbLayerTableRecord
  2
80
 70
     0
 62
     6
  6
Continuous
370
    -3
390
F
  0
LAYER
  5
345
102
{ACAD_XDICTIONARY
360
35D
102
}
330
2
100
AcDbSymbolTableRecord
100
AcDbLayerTableRecord
  2
81
 70
     0
 62
     3
  6
Continuous
370
    -3
390
F
  0
ENDTAB
  0
TABLE
  2
STYLE
  5
3
330
0
100
AcDbSymbolTable
 70
     3
  0
STYLE
  5
11
330
3
100
AcDbSymbolTableRecord
100
AcDbTextStyleTableRecord
  2
Standard
 70
     0
 40
0.0
 41
1.0
 50
0.0
 71
     0
 42
0.2
  3
txt
  4

  0
STYLE
  5
1EC
330
3
100
AcDbSymbolTableRecord
100
AcDbTextStyleTableRecord
  2
cesky
 70
     0
 40
0.0
 41
1.0
 50
0.0
 71
     0
 42
0.2
  3
simplex.shx
  4

  0
STYLE
  5
1ED
330
3
100
AcDbSymbolTableRecord
100
AcDbTextStyleTableRecord
  2
DWGDirectTextStyle
 70
     0
 40
0.0
 41
1.0
 50
0.0
 71
     0
 42
0.2
  3
simplex
  4

  0
ENDTAB
  0
TABLE
  2
VIEW
  5
6
330
0
100
AcDbSymbolTable
 70
     0
  0
ENDTAB
  0
TABLE
  2
UCS
  5
7
330
0
100
AcDbSymbolTable
 70
     0
  0
ENDTAB
  0
TABLE
  2
APPID
  5
9
330
0
100
AcDbSymbolTable
 70
     7
  0
APPID
  5
12
330
9
100
AcDbSymbolTableRecord
100
AcDbRegAppTableRecord
  2
ACAD
 70
     0
  0
APPID
  5
1F4
330
9
100
AcDbSymbolTableRecord
100
AcDbRegAppTableRecord
  2
ACAD_DSTYLE_DIMBREAK
 70
     0
  0
APPID
  5
2AD
330
9
100
AcDbSymbolTableRecord
100
AcDbRegAppTableRecord
  2
ACAD_DSTYLE_DIM_LINETYPE
 70
     0
  0
APPID
  5
2AE
330
9
100
AcDbSymbolTableRecord
100
AcDbRegAppTableRecord
  2
ACAD_DSTYLE_DIM_EXT1_LINETYPE
 70
     0
  0
APPID
  5
2AF
330
9
100
AcDbSymbolTableRecord
100
AcDbRegAppTableRecord
  2
ACAD_DSTYLE_DIM_EXT2_LINETYPE
 70
     0
  0
APPID
  5
2EF
330
9
100
AcDbSymbolTableRecord
100
AcDbRegAppTableRecord
  2
ACAD_MLEADERVER
 70
     0
  0
APPID
  5
362
330
9
100
AcDbSymbolTableRecord
100
AcDbRegAppTableRecord
  2
ACAD_NAV_VCDISPLAY
 70
     0
  0
ENDTAB
  0
TABLE
  2
DIMSTYLE
  5
A
330
0
100
AcDbSymbolTable
 70
     1
100
AcDbDimStyleTable
 71
     0
  0
DIMSTYLE
105
27
330
A
100
AcDbSymbolTableRecord
100
AcDbDimStyleTableRecord
  2
Standard
 70
     0
340
11
1001
ACAD_DSTYLE_DIMBREAK
1070
   391
1040
6.349999999999999
  0
ENDTAB
  0
TABLE
  2
BLOCK_RECORD
  5
1
330
0
100
AcDbSymbolTable
 70
    16
  0
BLOCK_RECORD
  5
1F
102
{ACAD_XDICTIONARY
360
2FF
102
}
330
1
100
AcDbSymbolTableRecord
100
AcDbBlockTableRecord
  2
*Model_Space
340
22
  0
BLOCK_RECORD
  5
1B
330
1
100
AcDbSymbolTableRecord
100
AcDbBlockTableRecord
  2
*Paper_Space
340
1E
  0
BLOCK_RECORD
  5
23
330
1
100
AcDbSymbolTableRecord
100
AcDbBlockTableRecord
  2
*Paper_Space0
340
26
  0
BLOCK_RECORD
  5
1EF
330
1
100
AcDbSymbolTableRecord
100
AcDbBlockTableRecord
  2
ASSORTED_DRAFT1
340
0
  0
BLOCK_RECORD
  5
1F9
330
1
100
AcDbSymbolTableRecord
100
AcDbBlockTableRecord
  2
*D2
340
0
  0
BLOCK_RECORD
  5
204
330
1
100
AcDbSymbolTableRecord
100
AcDbBlockTableRecord
  2
_U0
340
0
  0
BLOCK_RECORD
  5
20F
330
1
100
AcDbSymbolTableRecord
100
AcDbBlockTableRecord
  2
*D4
340
0
  0
BLOCK_RECORD
  5
21B
330
1
100
AcDbSymbolTableRecord
100
AcDbBlockTableRecord
  2
_U1
340
0
  0
BLOCK_RECORD
  5
228
330
1
100
AcDbSymbolTableRecord
100
AcDbBlockTableRecord
  2
*D6
340
0
  0
BLOCK_RECORD
  5
234
330
1
100
AcDbSymbolTableRecord
100
AcDbBlockTableRecord
  2
_U2
340
0
  0
BLOCK_RECORD
  5
241
330
1
100
AcDbSymbolTableRecord
100
AcDbBlockTableRecord
  2
*D8
340
0
  0
BLOCK_RECORD
  5
24D
330
1
100
AcDbSymbolTableRecord
100
AcDbBlockTableRecord
  2
_U3
340
0
  0
BLOCK_RECORD
  5
259
330
1
100
AcDbSymbolTableRecord
100
AcDbBlockTableRecord
  2
*D10
340
0
  0
BLOCK_RECORD
  5
265
330
1
100
AcDbSymbolTableRecord
100
AcDbBlockTableRecord
  2
_U4
340
0
  0
BLOCK_RECORD
  5
271
330
1
100
AcDbSymbolTableRecord
100
AcDbBlockTableRecord
  2
*D12
340
0
  0
BLOCK_RECORD
  5
27D
330
1
100
AcDbSymbolTableRecord
100
AcDbBlockTableRecord
  2
_U5
340
0
  0
BLOCK_RECORD
  5
289
330
1
100
AcDbSymbolTableRecord
100
AcDbBlockTableRecord
  2
*D14
340
0
  0
BLOCK_RECORD
  5
295
330
1
100
AcDbSymbolTableRecord
100
AcDbBlockTableRecord
  2
_U6
340
0
  0
ENDTAB
  0
ENDSEC
  0
SECTION
  2
BLOCKS
  0
BLOCK
  5
20
330
1F
100
AcDbEntity
  8
0
100
AcDbBlockBegin
  2
*Model_Space
 70
     0
 10
0.0
 20
0.0
 30
0.0
  3
*Model_Space
  1

  0
ENDBLK
  5
21
330
1F
100
AcDbEntity
  8
0
100
AcDbBlockEnd
  0
BLOCK
  5
1C
330
1B
100
AcDbEntity
 67
     1
  8
0
100
AcDbBlockBegin
  2
*Paper_Space
 70
     0
 10
0.0
 20
0.0
 30
0.0
  3
*Paper_Space
  1

  0
ENDBLK
  5
1D
330
1B
100
AcDbEntity
 67
     1
  8
0
100
AcDbBlockEnd
  0
BLOCK
  5
24
330
23
100
AcDbEntity
 67
     1
  8
0
100
AcDbBlockBegin
  2
*Paper_Space0
 70
     0
 10
0.0
 20
0.0
 30
0.0
  3
*Paper_Space0
  1

  0
ENDBLK
  5
25
330
23
100
AcDbEntity
 67
     1
  8
0
100
AcDbBlockEnd
  0
BLOCK
  5
1F2
330
1EF
100
AcDbEntity
  8
0
100
AcDbBlockBegin
  2
ASSORTED_DRAFT1
 70
     0
 10
0.0
 20
0.0
 30
0.0
  3
ASSORTED_DRAFT1
  1

  0
SOLID
  5
1F0
330
1EF
100
AcDbEntity
  8
0
 62
   254
370
    13
100
AcDbTrace
 10
270.185042
 20
165.274374
 30
0.0
 11
265.185046
 21
164.165901
 31
0.0
 12
265.1850379999999
 22
166.382848
 32
0.0
 13
270.185042
 23
165.274374
 33
0.0
  0
ENDBLK
  5
1F3
330
1EF
100
AcDbEntity
  8
0
100
AcDbBlockEnd
  0
BLOCK
  5
1FA
330
1F9
100
AcDbEntity
  8
0
100
AcDbBlockBegin
  2
*D2
 70
     1
 10
0.0
 20
0.0
 30
0.0
  3
*D2
  1

  0
LINE
  5
1FC
330
1F9
100
AcDbEntity
  8
0
 62
   254
370
    -2
100
AcDbLine
 10
293.203832
 20
288.907994
 30
0.0
 11
369.778533
 21
288.907994
 31
0.0
  0
LINE
  5
1FD
330
1F9
100
AcDbEntity
  8
0
 62
   254
370
    -2
100
AcDbLine
 10
330.83929
 20
302.407994
 30
0.0
 11
369.778533
 21
302.407994
 31
0.0
  0
LINE
  5
1FE
330
1F9
100
AcDbEntity
  8
0
 62
   254
370
    -2
100
AcDbLine
 10
368.778533
 20
305.907994
 30
0.0
 11
368.778533
 21
309.407994
 31
0.0
  0
SOLID
  5
1FF
330
1F9
100
AcDbEntity
  8
0
 62
   254
100
AcDbTrace
 10
368.1952
 20
305.907994
 30
0.0
 11
369.361866
 21
305.907994
 31
0.0
 12
368.778533
 22
302.407994
 32
0.0
 13
368.778533
 23
302.407994
 33
0.0
  0
MTEXT
  5
200
330
1F9
100
AcDbEntity
  8
0
 62
   254
370
    13
100
AcDbMText
 10
363.528533
 20
275.57466
 30
0.0
 40
3.5
 41
0.0
 71
     5
 72
     1
  1
\A1;27
  7
cesky
 11
0.0
 21
1.0
 31
0.0
 73
     1
 44
1.0
  0
POINT
  5
201
330
1F9
100
AcDbEntity
  8
Defpoints
 62
     0
100
AcDbPoint
 10
293.203832
 20
288.907994
 30
0.0
  0
POINT
  5
202
330
1F9
100
AcDbEntity
  8
Defpoints
 62
     0
100
AcDbPoint
 10
330.83929
 20
302.407994
 30
0.0
  0
POINT
  5
203
330
1F9
100
AcDbEntity
  8
Defpoints
 62
     0
100
AcDbPoint
 10
368.778533
 20
302.407994
 30
0.0
  0
ENDBLK
  5
1FB
330
1F9
100
AcDbEntity
  8
0
100
AcDbBlockEnd
  0
BLOCK
  5
20A
330
204
100
AcDbEntity
  8
0
100
AcDbBlockBegin
  2
_U0
 70
     0
 10
0.0
 20
0.0
 30
0.0
  3
_U0
  1

  0
ENDBLK
  5
20B
330
204
100
AcDbEntity
  8
0
100
AcDbBlockEnd
  0
BLOCK
  5
210
330
20F
100
AcDbEntity
  8
0
100
AcDbBlockBegin
  2
*D4
 70
     1
 10
0.0
 20
0.0
 30
0.0
  3
*D4
  1

  0
LINE
  5
212
330
20F
100
AcDbEntity
  8
0
 62
    95
370
    -2
100
AcDbLine
 10
216.404842
 20
304.907994
 30
0.0
 11
203.037875
 21
304.907994
 31
0.0
  0
LINE
  5
213
330
20F
100
AcDbEntity
  8
0
 62
    95
370
    -2
100
AcDbLine
 10
216.404842
 20
272.907994
 30
0.0
 11
203.037875
 21
272.907994
 31
0.0
  0
LINE
  5
214
330
20F
100
AcDbEntity
  8
0
 62
    95
370
    -2
100
AcDbLine
 10
204.037875
 20
301.407994
 30
0.0
 11
204.037875
 21
276.407994
 31
0.0
  0
SOLID
  5
215
330
20F
100
AcDbEntity
  8
0
 62
    95
100
AcDbTrace
 10
204.621208
 20
301.407994
 30
0.0
 11
203.454542
 21
301.407994
 31
0.0
 12
204.037875
 22
304.907994
 32
0.0
 13
204.037875
 23
304.907994
 33
0.0
  0
SOLID
  5
216
330
20F
100
AcDbEntity
  8
0
 62
    95
100
AcDbTrace
 10
203.454542
 20
276.407994
 30
0.0
 11
204.621208
 21
276.407994
 31
0.0
 12
204.037875
 22
272.907994
 32
0.0
 13
204.037875
 23
272.907994
 33
0.0
  0
MTEXT
  5
217
330
20F
100
AcDbEntity
  8
0
 62
    95
370
    13
100
AcDbMText
 10
198.787875
 20
288.907994
 30
0.0
 40
3.5
 41
0.0
 71
     5
 72
     1
  1
\A1;32
  7
cesky
 11
0.0
 21
1.0
 31
0.0
 73
     1
 44
1.0
  0
POINT
  5
218
330
20F
100
AcDbEntity
  8
Defpoints
 62
     0
100
AcDbPoint
 10
216.404842
 20
304.907994
 30
0.0
  0
POINT
  5
219
330
20F
100
AcDbEntity
  8
Defpoints
 62
     0
100
AcDbPoint
 10
216.404842
 20
272.907994
 30
0.0
  0
POINT
  5
21A
330
20F
100
AcDbEntity
  8
Defpoints
 62
     0
100
AcDbPoint
 10
204.037875
 20
272.907994
 30
0.0
  0
ENDBLK
  5
211
330
20F
100
AcDbEntity
  8
0
100
AcDbBlockEnd
  0
BLOCK
  5
223
330
21B
100
AcDbEntity
  8
0
100
AcDbBlockBegin
  2
_U1
 70
     0
 10
0.0
 20
0.0
 30
0.0
  3
_U1
  1

  0
ENDBLK
  5
224
330
21B
100
AcDbEntity
  8
0
100
AcDbBlockEnd
  0
BLOCK
  5
229
330
228
100
AcDbEntity
  8
0
100
AcDbBlockBegin
  2
*D6
 70
     1
 10
0.0
 20
0.0
 30
0.0
  3
*D6
  1

  0
LINE
  5
22B
330
228
100
AcDbEntity
  8
0
 62
    95
370
    -2
100
AcDbLine
 10
277.154842
 20
309.907994
 30
0.0
 11
190.287987
 21
309.907994
 31
0.0
  0
LINE
  5
22C
330
228
100
AcDbEntity
  8
0
 62
    95
370
    -2
100
AcDbLine
 10
277.154842
 20
267.907994
 30
0.0
 11
190.287987
 21
267.907994
 31
0.0
  0
LINE
  5
22D
330
228
100
AcDbEntity
  8
0
 62
    95
370
    -2
100
AcDbLine
 10
191.287987
 20
306.407994
 30
0.0
 11
191.287987
 21
271.407994
 31
0.0
  0
SOLID
  5
22E
330
228
100
AcDbEntity
  8
0
 62
    95
100
AcDbTrace
 10
191.87132
 20
306.407994
 30
0.0
 11
190.704653
 21
306.407994
 31
0.0
 12
191.287987
 22
309.907994
 32
0.0
 13
191.287987
 23
309.907994
 33
0.0
  0
SOLID
  5
22F
330
228
100
AcDbEntity
  8
0
 62
    95
100
AcDbTrace
 10
190.704653
 20
271.407994
 30
0.0
 11
191.87132
 21
271.407994
 31
0.0
 12
191.287987
 22
267.907994
 32
0.0
 13
191.287987
 23
267.907994
 33
0.0
  0
MTEXT
  5
230
330
228
100
AcDbEntity
  8
0
 62
    95
370
    13
100
AcDbMText
 10
186.037987
 20
288.907994
 30
0.0
 40
3.5
 41
0.0
 71
     5
 72
     1
  1
\A1;42
  7
cesky
 11
0.0
 21
1.0
 31
0.0
 73
     1
 44
1.0
  0
POINT
  5
231
330
228
100
AcDbEntity
  8
Defpoints
 62
     0
100
AcDbPoint
 10
277.154842
 20
309.907994
 30
0.0
  0
POINT
  5
232
330
228
100
AcDbEntity
  8
Defpoints
 62
     0
100
AcDbPoint
 10
277.154842
 20
267.907994
 30
0.0
  0
POINT
  5
233
330
228
100
AcDbEntity
  8
Defpoints
 62
     0
100
AcDbPoint
 10
191.287987
 20
267.907994
 30
0.0
  0
ENDBLK
  5
22A
330
228
100
AcDbEntity
  8
0
100
AcDbBlockEnd
  0
BLOCK
  5
23C
330
234
100
AcDbEntity
  8
0
100
AcDbBlockBegin
  2
_U2
 70
     0
 10
0.0
 20
0.0
 30
0.0
  3
_U2
  1

  0
ENDBLK
  5
23D
330
234
100
AcDbEntity
  8
0
100
AcDbBlockEnd
  0
BLOCK
  5
242
330
241
100
AcDbEntity
  8
0
100
AcDbBlockBegin
  2
*D8
 70
     1
 10
0.0
 20
0.0
 30
0.0
  3
*D8
  1

  0
LINE
  5
244
330
241
100
AcDbEntity
  8
0
 62
   254
370
    -2
100
AcDbLine
 10
353.404842
 20
302.407994
 30
0.0
 11
353.404842
 21
317.637587
 31
0.0
  0
LINE
  5
245
330
241
100
AcDbEntity
  8
0
 62
   254
370
    -2
100
AcDbLine
 10
291.415721
 20
302.308119
 30
0.0
 11
291.415721
 21
317.637587
 31
0.0
  0
LINE
  5
246
330
241
100
AcDbEntity
  8
0
 62
   254
370
    -2
100
AcDbLine
 10
349.904842
 20
316.637587
 30
0.0
 11
294.915721
 21
316.637587
 31
0.0
  0
SOLID
  5
247
330
241
100
AcDbEntity
  8
0
 62
   254
100
AcDbTrace
 10
349.904842
 20
316.054254
 30
0.0
 11
349.904842
 21
317.220921
 31
0.0
 12
353.404842
 22
316.637587
 32
0.0
 13
353.404842
 23
316.637587
 33
0.0
  0
SOLID
  5
248
330
241
100
AcDbEntity
  8
0
 62
   254
100
AcDbTrace
 10
294.915721
 20
317.220921
 30
0.0
 11
294.915721
 21
316.054254
 31
0.0
 12
291.415721
 22
316.637587
 32
0.0
 13
291.415721
 23
316.637587
 33
0.0
  0
MTEXT
  5
249
330
241
100
AcDbEntity
  8
0
 62
   254
370
    13
100
AcDbMText
 10
322.410282
 20
321.887587
 30
0.0
 40
3.5
 41
0.0
 71
     5
 72
     1
  1
\A1;62
  7
cesky
 73
     1
 44
1.0
  0
POINT
  5
24A
330
241
100
AcDbEntity
  8
Defpoints
 62
     0
100
AcDbPoint
 10
353.404842
 20
302.407994
 30
0.0
  0
POINT
  5
24B
330
241
100
AcDbEntity
  8
Defpoints
 62
     0
100
AcDbPoint
 10
291.415721
 20
302.308119
 30
0.0
  0
POINT
  5
24C
330
241
100
AcDbEntity
  8
Defpoints
 62
     0
100
AcDbPoint
 10
291.415721
 20
316.637587
 30
0.0
  0
ENDBLK
  5
243
330
241
100
AcDbEntity
  8
0
100
AcDbBlockEnd
  0
BLOCK
  5
254
330
24D
100
AcDbEntity
  8
0
100
AcDbBlockBegin
  2
_U3
 70
     0
 10
0.0
 20
0.0
 30
0.0
  3
_U3
  1

  0
ENDBLK
  5
255
330
24D
100
AcDbEntity
  8
0
100
AcDbBlockEnd
  0
BLOCK
  5
25A
330
259
100
AcDbEntity
  8
0
100
AcDbBlockBegin
  2
*D10
 70
     1
 10
0.0
 20
0.0
 30
0.0
  3
*D10
  1

  0
LINE
  5
25C
330
259
100
AcDbEntity
  8
0
 62
   254
370
    -2
100
AcDbLine
 10
353.404842
 20
304.407994
 30
0.0
 11
353.404842
 21
341.687968
 31
0.0
  0
LINE
  5
25D
330
259
100
AcDbEntity
  8
0
 62
   254
370
    -2
100
AcDbLine
 10
214.404842
 20
302.907994
 30
0.0
 11
214.404842
 21
341.687968
 31
0.0
  0
LINE
  5
25E
330
259
100
AcDbEntity
  8
0
 62
   254
370
    -2
100
AcDbLine
 10
349.904842
 20
340.687968
 30
0.0
 11
217.904842
 21
340.687968
 31
0.0
  0
SOLID
  5
25F
330
259
100
AcDbEntity
  8
0
 62
   254
100
AcDbTrace
 10
349.904842
 20
340.104634
 30
0.0
 11
349.904842
 21
341.271301
 31
0.0
 12
353.404842
 22
340.687968
 32
0.0
 13
353.404842
 23
340.687968
 33
0.0
  0
SOLID
  5
260
330
259
100
AcDbEntity
  8
0
 62
   254
100
AcDbTrace
 10
217.904842
 20
341.271301
 30
0.0
 11
217.904842
 21
340.104634
 31
0.0
 12
214.404842
 22
340.687968
 32
0.0
 13
214.404842
 23
340.687968
 33
0.0
  0
MTEXT
  5
261
330
259
100
AcDbEntity
  8
0
 62
   254
370
    13
100
AcDbMText
 10
283.904842
 20
345.937968
 30
0.0
 40
3.5
 41
0.0
 71
     5
 72
     1
  1
\A1;139
  7
cesky
 73
     1
 44
1.0
  0
POINT
  5
262
330
259
100
AcDbEntity
  8
Defpoints
 62
     0
100
AcDbPoint
 10
353.404842
 20
304.407994
 30
0.0
  0
POINT
  5
263
330
259
100
AcDbEntity
  8
Defpoints
 62
     0
100
AcDbPoint
 10
214.404842
 20
302.907994
 30
0.0
  0
POINT
  5
264
330
259
100
AcDbEntity
  8
Defpoints
 62
     0
100
AcDbPoint
 10
214.404842
 20
340.687968
 30
0.0
  0
ENDBLK
  5
25B
330
259
100
AcDbEntity
  8
0
100
AcDbBlockEnd
  0
BLOCK
  5
26C
330
265
100
AcDbEntity
  8
0
100
AcDbBlockBegin
  2
_U4
 70
     0
 10
0.0
 20
0.0
 30
0.0
  3
_U4
  1

  0
ENDBLK
  5
26D
330
265
100
AcDbEntity
  8
0
100
AcDbBlockEnd
  0
BLOCK
  5
272
330
271
100
AcDbEntity
  8
0
100
AcDbBlockBegin
  2
*D12
 70
     1
 10
0.0
 20
0.0
 30
0.0
  3
*D12
  1

  0
LINE
  5
274
330
271
100
AcDbEntity
  8
0
 62
   254
370
    -2
100
AcDbLine
 10
274.404842
 20
288.907994
 30
0.0
 11
274.404842
 21
328.5109970000001
 31
0.0
  0
LINE
  5
275
330
271
100
AcDbEntity
  8
0
 62
   254
370
    -2
100
AcDbLine
 10
214.404842
 20
295.907994
 30
0.0
 11
214.404842
 21
328.5109970000001
 31
0.0
  0
LINE
  5
276
330
271
100
AcDbEntity
  8
0
 62
   254
370
    -2
100
AcDbLine
 10
270.904842
 20
327.510997
 30
0.0
 11
217.904842
 21
327.510997
 31
0.0
  0
SOLID
  5
277
330
271
100
AcDbEntity
  8
0
 62
   254
100
AcDbTrace
 10
270.904842
 20
326.927663
 30
0.0
 11
270.904842
 21
328.09433
 31
0.0
 12
274.404842
 22
327.510997
 32
0.0
 13
274.404842
 23
327.510997
 33
0.0
  0
SOLID
  5
278
330
271
100
AcDbEntity
  8
0
 62
   254
100
AcDbTrace
 10
217.904842
 20
328.09433
 30
0.0
 11
217.904842
 21
326.927663
 31
0.0
 12
214.404842
 22
327.510997
 32
0.0
 13
214.404842
 23
327.510997
 33
0.0
  0
MTEXT
  5
279
330
271
100
AcDbEntity
  8
0
 62
   254
370
    13
100
AcDbMText
 10
244.404842
 20
332.7609970000001
 30
0.0
 40
3.5
 41
0.0
 71
     5
 72
     1
  1
\A1;60
  7
cesky
 73
     1
 44
1.0
  0
POINT
  5
27A
330
271
100
AcDbEntity
  8
Defpoints
 62
     0
100
AcDbPoint
 10
274.404842
 20
288.907994
 30
0.0
  0
POINT
  5
27B
330
271
100
AcDbEntity
  8
Defpoints
 62
     0
100
AcDbPoint
 10
214.404842
 20
295.907994
 30
0.0
  0
POINT
  5
27C
330
271
100
AcDbEntity
  8
Defpoints
 62
     0
100
AcDbPoint
 10
214.404842
 20
327.510997
 30
0.0
  0
ENDBLK
  5
273
330
271
100
AcDbEntity
  8
0
100
AcDbBlockEnd
  0
BLOCK
  5
284
330
27D
100
AcDbEntity
  8
0
100
AcDbBlockBegin
  2
_U5
 70
     0
 10
0.0
 20
0.0
 30
0.0
  3
_U5
  1

  0
ENDBLK
  5
285
330
27D
100
AcDbEntity
  8
0
100
AcDbBlockEnd
  0
BLOCK
  5
28A
330
289
100
AcDbEntity
  8
0
100
AcDbBlockBegin
  2
*D14
 70
     1
 10
0.0
 20
0.0
 30
0.0
  3
*D14
  1

  0
LINE
  5
28C
330
289
100
AcDbEntity
  8
0
 62
   254
370
    -2
100
AcDbLine
 10
353.404842
 20
302.407994
 30
0.0
 11
353.404842
 21
328.5109970000001
 31
0.0
  0
LINE
  5
28D
330
289
100
AcDbEntity
  8
0
 62
   254
370
    -2
100
AcDbLine
 10
274.404842
 20
288.907994
 30
0.0
 11
274.404842
 21
328.5109970000001
 31
0.0
  0
LINE
  5
28E
330
289
100
AcDbEntity
  8
0
 62
   254
370
    -2
100
AcDbLine
 10
349.904842
 20
327.510997
 30
0.0
 11
277.904842
 21
327.510997
 31
0.0
  0
SOLID
  5
28F
330
289
100
AcDbEntity
  8
0
 62
   254
100
AcDbTrace
 10
349.904842
 20
326.927663
 30
0.0
 11
349.904842
 21
328.09433
 31
0.0
 12
353.404842
 22
327.510997
 32
0.0
 13
353.404842
 23
327.510997
 33
0.0
  0
SOLID
  5
290
330
289
100
AcDbEntity
  8
0
 62
   254
100
AcDbTrace
 10
277.904842
 20
328.09433
 30
0.0
 11
277.904842
 21
326.927663
 31
0.0
 12
274.404842
 22
327.510997
 32
0.0
 13
274.404842
 23
327.510997
 33
0.0
  0
MTEXT
  5
291
330
289
100
AcDbEntity
  8
0
 62
   254
370
    13
100
AcDbMText
 10
313.904842
 20
332.7609970000001
 30
0.0
 40
3.5
 41
0.0
 71
     5
 72
     1
  1
\A1;79
  7
cesky
 73
     1
 44
1.0
  0
POINT
  5
292
330
289
100
AcDbEntity
  8
Defpoints
 62
     0
100
AcDbPoint
 10
353.404842
 20
302.407994
 30
0.0
  0
POINT
  5
293
330
289
100
AcDbEntity
  8
Defpoints
 62
     0
100
AcDbPoint
 10
274.404842
 20
288.907994
 30
0.0
  0
POINT
  5
294
330
289
100
AcDbEntity
  8
Defpoints
 62
     0
100
AcDbPoint
 10
274.404842
 20
327.510997
 30
0.0
  0
ENDBLK
  5
28B
330
289
100
AcDbEntity
  8
0
100
AcDbBlockEnd
  0
BLOCK
  5
29C
330
295
100
AcDbEntity
  8
0
100
AcDbBlockBegin
  2
_U6
 70
     0
 10
0.0
 20
0.0
 30
0.0
  3
_U6
  1

  0
ENDBLK
  5
29D
330
295
100
AcDbEntity
  8
0
100
AcDbBlockEnd
  0
ENDSEC
  0
SECTION
  2
ENTITIES
  0
POINT
  5
73
102
{ACAD_REACTORS
330
346
102
}
330
1F
100
AcDbEntity
  8
80
100
AcDbPoint
 10
274.404842
 20
288.907994
 30
0.0
  0
POINT
  5
76
330
1F
100
AcDbEntity
  8
SK4
 60
     1
100
AcDbPoint
 10
216.404842
 20
288.907994
 30
0.0
  0
POINT
  5
78
330
1F
100
AcDbEntity
  8
SK4
 60
     1
100
AcDbPoint
 10
274.404842
 20
288.907994
 30
0.0
  0
POINT
  5
79
330
1F
100
AcDbEntity
  8
4
 60
     1
100
AcDbPoint
 10
293.203832
 20
288.907994
 30
0.0
  0
POINT
  5
7A
330
1F
100
AcDbEntity
  8
4
 60
     1
100
AcDbPoint
 10
352.493426
 20
288.907994
 30
0.0
  0
POINT
  5
7B
330
1F
100
AcDbEntity
  8
SK6
 60
     1
100
AcDbPoint
 10
291.415721
 20
302.308119
 30
0.0
  0
POINT
  5
7C
330
1F
100
AcDbEntity
  8
SK6
 60
     1
100
AcDbPoint
 10
274.404842
 20
288.907994
 30
0.0
  0
LINE
  5
7F
330
1F
100
AcDbEntity
  8
1
100
AcDbLine
 10
345.108833
 20
301.811019
 30
0.0
 11
345.107053
 21
301.8520410000001
 31
0.0
  0
LINE
  5
81
330
1F
100
AcDbEntity
  8
1
100
AcDbLine
 10
345.05093
 20
301.907994
 30
0.0
 11
339.324981
 21
301.907994
 31
0.0
  0
LINE
  5
82
330
1F
100
AcDbEntity
  8
1
100
AcDbLine
 10
349.468884
 20
297.043796
 30
0.0
 11
349.464352
 21
297.039122
 31
0.0
  0
LINE
  5
84
330
1F
100
AcDbEntity
  8
1
100
AcDbLine
 10
348.328228
 20
297.120751
 30
0.0
 11
348.303812
 21
297.031776
 31
0.0
  0
LINE
  5
85
330
1F
100
AcDbEntity
  8
81
100
AcDbLine
 10
351.404842
 20
302.407994
 30
0.0
 11
355.404842
 21
302.407994
 31
0.0
  0
LINE
  5
86
330
1F
100
AcDbEntity
  8
SK1
100
AcDbLine
 10
216.404842
 20
272.907994
 30
0.0
 11
274.404842
 21
272.907994
 31
0.0
  0
LINE
  5
87
330
1F
100
AcDbEntity
  8
80
100
AcDbLine
 10
274.404842
 20
287.90842
 30
0.0
 11
274.404842
 21
289.907567
 31
0.0
  0
LINE
  5
88
330
1F
100
AcDbEntity
  8
81
100
AcDbLine
 10
353.404842
 20
304.407994
 30
0.0
 11
353.404842
 21
300.407994
 31
0.0
  0
LINE
  5
89
330
1F
100
AcDbEntity
  8
1
100
AcDbLine
 10
274.904842
 20
267.907994
 30
0.0
 11
279.404842
 21
267.907994
 31
0.0
  0
LINE
  5
8A
330
1F
100
AcDbEntity
  8
1
100
AcDbLine
 10
352.3014
 20
281.685939
 30
0.0
 11
351.960308
 21
282.03915
 31
0.0
  0
LINE
  5
8C
330
1F
100
AcDbEntity
  8
1
100
AcDbLine
 10
352.3014
 20
281.685939
 30
0.0
 11
351.899152
 21
281.4629700000001
 31
0.0
  0
LINE
  5
8D
330
1F
100
AcDbEntity
  8
1
100
AcDbLine
 10
352.413818
 20
289.222185
 30
0.0
 11
352.183867
 21
289.000123
 31
0.0
  0
LINE
  5
8E
330
1F
100
AcDbEntity
  8
1
100
AcDbLine
 10
352.183914
 20
289.360325
 30
0.0
 11
352.413818
 21
289.222185
 31
0.0
  0
LINE
  5
8F
330
1F
100
AcDbEntity
  8
1
100
AcDbLine
 10
352.887419
 20
288.367787
 30
0.0
 11
352.241473
 21
288.206734
 31
0.0
  0
LINE
  5
90
330
1F
100
AcDbEntity
  8
1
100
AcDbLine
 10
352.144899
 20
282.674001
 30
0.0
 11
352.16797
 21
283.995719
 31
0.0
  0
LINE
  5
91
330
1F
100
AcDbEntity
  8
1
100
AcDbLine
 10
352.183868
 20
284.906545
 30
0.0
 11
352.241473
 21
288.206734
 31
0.0
  0
LINE
  5
92
330
1F
100
AcDbEntity
  8
1
100
AcDbLine
 10
352.784831
 20
282.490503
 30
0.0
 11
352.144899
 21
282.674001
 31
0.0
  0
LINE
  5
93
330
1F
100
AcDbEntity
  8
1
100
AcDbLine
 10
352.887419
 20
288.367787
 30
0.0
 11
352.784831
 21
282.490503
 31
0.0
  0
LINE
  5
94
330
1F
100
AcDbEntity
  8
1
100
AcDbLine
 10
274.404842
 20
309.407994
 30
0.0
 11
274.404842
 21
288.907994
 31
0.0
  0
LINE
  5
95
330
1F
100
AcDbEntity
  8
1
100
AcDbLine
 10
274.404842
 20
288.907994
 30
0.0
 11
274.404842
 21
268.407994
 31
0.0
  0
LINE
  5
96
330
1F
100
AcDbEntity
  8
1
100
AcDbLine
 10
350.861726
 20
297.504813
 30
0.0
 11
350.876376
 21
297.558198
 31
0.0
  0
LINE
  5
97
330
1F
100
AcDbEntity
  8
1
100
AcDbLine
 10
279.404842
 20
267.907994
 30
0.0
 11
283.304337
 21
271.807488
 31
0.0
  0
LINE
  5
98
330
1F
100
AcDbEntity
  8
1
100
AcDbLine
 10
283.304337
 20
306.008499
 30
0.0
 11
279.404842
 21
309.907994
 31
0.0
  0
LINE
  5
99
330
1F
100
AcDbEntity
  8
SK1
100
AcDbLine
 10
274.404842
 20
304.907994
 30
0.0
 11
216.404842
 21
304.907994
 31
0.0
  0
LINE
  5
9A
330
1F
100
AcDbEntity
  8
1
100
AcDbLine
 10
274.904842
 20
267.907994
 30
0.0
 11
274.404842
 21
268.407994
 31
0.0
  0
LINE
  5
9B
330
1F
100
AcDbEntity
  8
1
100
AcDbLine
 10
274.404842
 20
309.407994
 30
0.0
 11
274.904842
 21
309.907994
 31
0.0
  0
LINE
  5
9C
330
1F
100
AcDbEntity
  8
1
100
AcDbLine
 10
279.404842
 20
309.907994
 30
0.0
 11
274.904842
 21
309.907994
 31
0.0
  0
LINE
  5
9F
330
1F
100
AcDbEntity
  8
80
100
AcDbLine
 10
275.404416
 20
288.907994
 30
0.0
 11
273.405268
 21
288.907994
 31
0.0
  0
LINE
  5
A0
330
1F
100
AcDbEntity
  8
1
100
AcDbLine
 10
344.616086
 20
301.78708
 30
0.0
 11
344.894301
 21
295.375978
 31
0.0
  0
LINE
  5
A1
330
1F
100
AcDbEntity
  8
1
100
AcDbLine
 10
352.48718
 20
294.186403
 30
0.0
 11
352.485349
 21
294.39152
 31
0.0
  0
LINE
  5
A2
330
1F
100
AcDbEntity
  8
1
100
AcDbLine
 10
352.48718
 20
294.186403
 30
0.0
 11
352.445214
 21
294.165741
 31
0.0
  0
LINE
  5
A3
330
1F
100
AcDbEntity
  8
1
100
AcDbLine
 10
352.240799
 20
280.338693
 30
0.0
 11
352.198708
 21
280.3393660000001
 31
0.0
  0
LINE
  5
A4
330
1F
100
AcDbEntity
  8
1
100
AcDbLine
 10
352.018441
 20
280.911646
 30
0.0
 11
351.911089
 21
280.913364
 31
0.0
  0
LINE
  5
A5
330
1F
100
AcDbEntity
  8
1
100
AcDbLine
 10
351.554874
 20
284.145494
 30
0.0
 11
352.183868
 21
284.145494
 31
0.0
  0
LINE
  5
A6
330
1F
100
AcDbEntity
  8
1
100
AcDbLine
 10
352.254138
 20
289.840151
 30
0.0
 11
352.361672
 21
289.838274
 31
0.0
  0
LINE
  5
A7
330
1F
100
AcDbEntity
  8
1
100
AcDbLine
 10
352.60268
 20
290.403477
 30
0.0
 11
352.644842
 21
290.402741
 31
0.0
  0
LINE
  5
A8
330
1F
100
AcDbEntity
  8
1
100
AcDbLine
 10
352.364784
 20
293.461696
 30
0.0
 11
352.381176
 21
293.4697680000001
 31
0.0
  0
LINE
  5
A9
330
1F
100
AcDbEntity
  8
1
100
AcDbLine
 10
351.893924
 20
281.413703
 30
0.0
 11
352.183868
 21
284.145494
 31
0.0
  0
LINE
  5
AA
330
1F
100
AcDbEntity
  8
1
100
AcDbLine
 10
352.183868
 20
284.145494
 30
0.0
 11
352.183868
 21
289.341302
 31
0.0
  0
LINE
  5
AB
330
1F
100
AcDbEntity
  8
1
100
AcDbLine
 10
352.22399
 20
280.577567
 30
0.0
 11
352.018441
 21
280.911646
 31
0.0
  0
LINE
  5
AC
330
1F
100
AcDbEntity
  8
1
100
AcDbLine
 10
352.22399
 20
280.577567
 30
0.0
 11
352.198708
 21
280.3393660000001
 31
0.0
  0
LINE
  5
AD
330
1F
100
AcDbEntity
  8
1
100
AcDbLine
 10
352.361672
 20
289.838274
 30
0.0
 11
352.60268
 21
290.164866
 31
0.0
  0
LINE
  5
AE
330
1F
100
AcDbEntity
  8
1
100
AcDbLine
 10
352.60268
 20
290.403477
 30
0.0
 11
352.60268
 21
290.164866
 31
0.0
  0
LINE
  5
AF
330
1F
100
AcDbEntity
  8
1
100
AcDbLine
 10
351.770537
 20
275.907994
 30
0.0
 11
352.240799
 21
280.338693
 31
0.0
  0
LINE
  5
B0
330
1F
100
AcDbEntity
  8
1
100
AcDbLine
 10
351.770537
 20
275.907994
 30
0.0
 11
339.551814
 21
275.907994
 31
0.0
  0
LINE
  5
B1
330
1F
100
AcDbEntity
  8
1
100
AcDbLine
 10
352.644842
 20
294.454451
 30
0.0
 11
352.644842
 21
290.402741
 31
0.0
  0
LINE
  5
B2
330
1F
100
AcDbEntity
  8
1
100
AcDbLine
 10
274.904842
 20
267.907994
 30
0.0
 11
274.904842
 21
288.907994
 31
0.0
  0
LINE
  5
B3
330
1F
100
AcDbEntity
  8
1
100
AcDbLine
 10
274.904842
 20
288.907994
 30
0.0
 11
274.904842
 21
309.907994
 31
0.0
  0
LINE
  5
B4
330
1F
100
AcDbEntity
  8
1
100
AcDbLine
 10
279.404842
 20
267.907994
 30
0.0
 11
279.404842
 21
270.190315
 31
0.0
  0
LINE
  5
B5
330
1F
100
AcDbEntity
  8
1
100
AcDbLine
 10
279.404842
 20
309.907994
 30
0.0
 11
279.404842
 21
277.701839
 31
0.0
  0
LINE
  5
B6
330
1F
100
AcDbEntity
  8
1
100
AcDbLine
 10
345.129879
 20
294.820628
 30
0.0
 11
344.843652
 21
301.201793
 31
0.0
  0
LINE
  5
B7
330
1F
100
AcDbEntity
  8
1
100
AcDbLine
 10
345.090272
 20
301.793473
 30
0.0
 11
345.085401
 21
301.905725
 31
0.0
  0
LINE
  5
B8
330
1F
100
AcDbEntity
  8
1
100
AcDbLine
 10
346.520807
 20
293.907546
 30
0.0
 11
352.445214
 21
294.165741
 31
0.0
  0
LINE
  5
B9
330
1F
100
AcDbEntity
  8
1
100
AcDbLine
 10
352.446662
 20
294.003501
 30
0.0
 11
352.445214
 21
294.165741
 31
0.0
  0
LINE
  5
BA
330
1F
100
AcDbEntity
  8
1
100
AcDbLine
 10
352.364784
 20
293.461696
 30
0.0
 11
346.113459
 21
293.189254
 31
0.0
  0
LINE
  5
BB
330
1F
100
AcDbEntity
  8
1
100
AcDbLine
 10
352.364784
 20
293.461696
 30
0.0
 11
350.839844
 21
290.920837
 31
0.0
  0
LINE
  5
BC
330
1F
100
AcDbEntity
  8
1
100
AcDbLine
 10
352.48718
 20
294.186403
 30
0.0
 11
346.526037
 21
293.926608
 31
0.0
  0
LINE
  5
BD
330
1F
100
AcDbEntity
  8
1
100
AcDbLine
 10
346.520807
 20
293.907546
 30
0.0
 11
346.526037
 21
293.926608
 31
0.0
  0
LINE
  5
BE
330
1F
100
AcDbEntity
  8
1
100
AcDbLine
 10
344.863292
 20
301.401781
 30
0.0
 11
344.844966
 21
301.824086
 31
0.0
  0
LINE
  5
BF
330
1F
100
AcDbEntity
  8
1
100
AcDbLine
 10
344.899532
 20
295.395039
 30
0.0
 11
344.894301
 21
295.375978
 31
0.0
  0
LINE
  5
C0
330
1F
100
AcDbEntity
  8
1
100
AcDbLine
 10
344.899532
 20
295.395039
 30
0.0
 11
344.620519
 21
301.82453
 31
0.0
  0
LINE
  5
C1
330
1F
100
AcDbEntity
  8
1
100
AcDbLine
 10
348.227633
 20
298.9630009999999
 30
0.0
 11
348.252384
 21
299.053198
 31
0.0
  0
LINE
  5
C2
330
1F
100
AcDbEntity
  8
1
100
AcDbLine
 10
347.650404
 20
298.100563
 30
0.0
 11
347.626352
 21
298.012916
 31
0.0
  0
LINE
  5
C3
330
1F
100
AcDbEntity
  8
1
100
AcDbLine
 10
347.736467
 20
298.085888
 30
0.0
 11
347.711882
 21
297.996298
 31
0.0
  0
LINE
  5
C4
330
1F
100
AcDbEntity
  8
1
100
AcDbLine
 10
349.917391
 20
297.507525
 30
0.0
 11
349.941417
 21
297.595082
 31
0.0
  0
LINE
  5
C5
330
1F
100
AcDbEntity
  8
1
100
AcDbLine
 10
349.827116
 20
297.528266
 30
0.0
 11
349.851714
 21
297.6179029999999
 31
0.0
  0
LINE
  5
C6
330
1F
100
AcDbEntity
  8
1
100
AcDbLine
 10
348.884083
 20
296.911251
 30
0.0
 11
348.908554
 21
297.000426
 31
0.0
  0
LINE
  5
C7
330
1F
100
AcDbEntity
  8
1
100
AcDbLine
 10
342.529109
 20
291.426997
 30
0.0
 11
342.540618
 21
291.090604
 31
0.0
  0
LINE
  5
C8
330
1F
100
AcDbEntity
  8
1
100
AcDbLine
 10
350.902946
 20
293.436734
 30
0.0
 11
346.106053
 21
293.227678
 31
0.0
  0
LINE
  5
C9
330
1F
100
AcDbEntity
  8
1
100
AcDbLine
 10
287.404842
 20
301.665254
 30
0.0
 11
287.404842
 21
284.5706190000001
 31
0.0
  0
LINE
  5
CA
330
1F
100
AcDbEntity
  8
1
100
AcDbLine
 10
348.223909
 20
298.941433
 30
0.0
 11
348.248769
 21
299.032028
 31
0.0
  0
LINE
  5
CB
330
1F
100
AcDbEntity
  8
1
100
AcDbLine
 10
350.944829
 20
284.145494
 30
0.0
 11
351.225859
 21
284.145494
 31
0.0
  0
LINE
  5
CC
330
1F
100
AcDbEntity
  8
SK1
100
AcDbLine
 10
214.404842
 20
302.907994
 30
0.0
 11
214.404842
 21
274.907994
 31
0.0
  0
LINE
  5
CD
330
1F
100
AcDbEntity
  8
SK1
100
AcDbLine
 10
214.404842
 20
274.907994
 30
0.0
 11
216.404842
 21
272.907994
 31
0.0
  0
LINE
  5
CE
330
1F
100
AcDbEntity
  8
SK1
100
AcDbLine
 10
216.404842
 20
304.907994
 30
0.0
 11
214.404842
 21
302.907994
 31
0.0
  0
LINE
  5
CF
330
1F
100
AcDbEntity
  8
SK1
100
AcDbLine
 10
216.404842
 20
304.907994
 30
0.0
 11
216.404842
 21
272.907994
 31
0.0
  0
LINE
  5
D0
330
1F
100
AcDbEntity
  8
1
100
AcDbLine
 10
347.902909
 20
297.488578
 30
0.0
 11
347.92772
 21
297.578993
 31
0.0
  0
LINE
  5
D1
330
1F
100
AcDbEntity
  8
1
100
AcDbLine
 10
349.443699
 20
297.159322
 30
0.0
 11
349.468559
 21
297.249917
 31
0.0
  0
LINE
  5
D2
330
1F
100
AcDbEntity
  8
1
100
AcDbLine
 10
349.789509
 20
298.702592
 30
0.0
 11
349.764699
 21
298.612177
 31
0.0
  0
LINE
  5
D3
330
1F
100
AcDbEntity
  8
1
100
AcDbLine
 10
352.671836
 20
281.302342
 30
0.0
 11
351.968452
 21
280.91245
 31
0.0
  0
LINE
  5
D4
330
1F
100
AcDbEntity
  8
1
100
AcDbLine
 10
352.3014
 20
281.685939
 30
0.0
 11
352.671836
 21
281.302342
 31
0.0
  0
LINE
  5
D5
330
1F
100
AcDbEntity
  8
1
100
AcDbLine
 10
353.297436
 20
282.343516
 30
0.0
 11
352.671836
 21
281.302342
 31
0.0
  0
LINE
  5
D6
330
1F
100
AcDbEntity
  8
1
100
AcDbLine
 10
352.369933
 20
289.849478
 30
0.0
 11
352.797416
 21
289.59262
 31
0.0
  0
LINE
  5
D7
330
1F
100
AcDbEntity
  8
1
100
AcDbLine
 10
352.784831
 20
282.490503
 30
0.0
 11
353.297436
 21
282.343516
 31
0.0
  0
LINE
  5
D8
330
1F
100
AcDbEntity
  8
1
100
AcDbLine
 10
353.404842
 20
288.496795
 30
0.0
 11
353.297436
 21
282.343516
 31
0.0
  0
LINE
  5
D9
330
1F
100
AcDbEntity
  8
1
100
AcDbLine
 10
352.413818
 20
289.222185
 30
0.0
 11
352.797416
 21
289.59262
 31
0.0
  0
LINE
  5
DA
330
1F
100
AcDbEntity
  8
1
100
AcDbLine
 10
352.887419
 20
288.367787
 30
0.0
 11
353.404842
 21
288.496795
 31
0.0
  0
LINE
  5
DB
330
1F
100
AcDbEntity
  8
1
100
AcDbLine
 10
352.797416
 20
289.59262
 30
0.0
 11
353.404842
 21
288.496795
 31
0.0
  0
LINE
  5
DC
330
1F
100
AcDbEntity
  8
1
100
AcDbLine
 10
352.784831
 20
282.490503
 30
0.0
 11
352.3014
 21
281.685939
 31
0.0
  0
LINE
  5
DD
330
1F
100
AcDbEntity
  8
1
100
AcDbLine
 10
352.002538
 20
282.437072
 30
0.0
 11
352.144899
 21
282.674001
 31
0.0
  0
LINE
  5
DE
330
1F
100
AcDbEntity
  8
1
100
AcDbLine
 10
352.241473
 20
288.206734
 30
0.0
 11
352.183864
 21
288.310664
 31
0.0
  0
LINE
  5
DF
330
1F
100
AcDbEntity
  8
1
100
AcDbLine
 10
352.413818
 20
289.222185
 30
0.0
 11
352.887419
 21
288.367787
 31
0.0
  0
LINE
  5
E0
330
1F
100
AcDbEntity
  8
1
100
AcDbLine
 10
346.3391529999999
 20
300.558179
 30
0.0
 11
351.33339
 21
300.775835
 31
0.0
  0
LINE
  5
E1
330
1F
100
AcDbEntity
  8
1
100
AcDbLine
 10
346.562762
 20
295.573031
 30
0.0
 11
346.3391529999999
 21
300.558179
 31
0.0
  0
LINE
  5
E2
330
1F
100
AcDbEntity
  8
1
100
AcDbLine
 10
351.556999
 20
295.790688
 30
0.0
 11
346.562762
 21
295.573031
 31
0.0
  0
LINE
  5
E3
330
1F
100
AcDbEntity
  8
1
100
AcDbLine
 10
351.33339
 20
300.775835
 30
0.0
 11
351.556999
 21
295.790688
 31
0.0
  0
LINE
  5
E4
330
1F
100
AcDbEntity
  8
1
100
AcDbLine
 10
345.576814
 20
302.001372
 30
0.0
 11
351.969612
 21
302.27998
 31
0.0
  0
LINE
  5
E5
330
1F
100
AcDbEntity
  8
1
100
AcDbLine
 10
352.771503
 20
301.5473
 30
0.0
 11
353.057731
 21
295.166136
 31
0.0
  0
LINE
  5
E6
330
1F
100
AcDbEntity
  8
1
100
AcDbLine
 10
352.324569
 20
294.366556
 30
0.0
 11
345.93177
 21
294.087949
 31
0.0
  0
LINE
  5
11A
330
1F
100
AcDbEntity
  8
NOCUT
100
AcDbLine
 10
279.404842
 20
309.907994
 30
0.0
 11
283.304337
 21
306.008499
 31
0.0
  0
LINE
  5
11B
330
1F
100
AcDbEntity
  8
NOCUT
100
AcDbLine
 10
293.203832
 20
301.907994
 30
0.0
 11
352.327587
 21
301.907994
 31
0.0
  0
LINE
  5
11C
330
1F
100
AcDbEntity
  8
NOCUT
100
AcDbLine
 10
352.327587
 20
301.907994
 30
0.0
 11
352.644842
 21
294.6986129999999
 31
0.0
  0
LINE
  5
11D
330
1F
100
AcDbEntity
  8
NOCUT
100
AcDbLine
 10
352.644842
 20
294.6986129999999
 30
0.0
 11
352.644842
 21
288.907994
 31
0.0
  0
LINE
  5
11E
330
1F
100
AcDbEntity
  8
NOCUT
100
AcDbLine
 10
214.404842
 20
302.907994
 30
0.0
 11
216.404842
 21
304.907994
 31
0.0
  0
LINE
  5
11F
330
1F
100
AcDbEntity
  8
NOCUT
100
AcDbLine
 10
274.404842
 20
304.907994
 30
0.0
 11
216.404842
 21
304.907994
 31
0.0
  0
LINE
  5
120
330
1F
100
AcDbEntity
  8
NOCUT
100
AcDbLine
 10
214.404842
 20
302.907994
 30
0.0
 11
214.404842
 21
288.907994
 31
0.0
  0
LINE
  5
121
330
1F
100
AcDbEntity
  8
NOCUT
100
AcDbLine
 10
279.404842
 20
309.907994
 30
0.0
 11
274.904842
 21
309.907994
 31
0.0
  0
LINE
  5
122
330
1F
100
AcDbEntity
  8
NOCUT
100
AcDbLine
 10
352.644842
 20
288.907994
 30
0.0
 11
214.404842
 21
288.907994
 31
0.0
  0
LINE
  5
123
330
1F
100
AcDbEntity
  8
NOCUT
100
AcDbLine
 10
274.404842
 20
304.907994
 30
0.0
 11
274.404842
 21
309.407994
 31
0.0
  0
LINE
  5
124
330
1F
100
AcDbEntity
  8
NOCUT
100
AcDbLine
 10
274.404842
 20
309.407994
 30
0.0
 11
274.904842
 21
309.907994
 31
0.0
  0
CIRCLE
  5
12D
330
1F
100
AcDbEntity
  8
1
100
AcDbCircle
 10
348.422479
 20
285.683212
 30
0.0
 40
1.099999999999998
  0
ARC
  5
12E
330
1F
100
AcDbEntity
  8
1
100
AcDbCircle
 10
348.402831
 20
285.703558
 30
0.0
 40
1.5
100
AcDbArc
 50
75.0
 51
345.0
  0
ARC
  5
12F
330
1F
100
AcDbEntity
  8
1
100
AcDbCircle
 10
293.203832
 20
261.907994
 30
0.0
 40
14.0
100
AcDbArc
 50
105.513943
 51
135.0
  0
ARC
  5
130
330
1F
100
AcDbEntity
  8
1
100
AcDbCircle
 10
293.203832
 20
315.907994
 30
0.0
 40
14.0
100
AcDbArc
 50
225.0
 51
260.54726
  0
ARC
  5
13F
330
1F
100
AcDbEntity
  8
NOCUT
100
AcDbCircle
 10
293.203832
 20
315.907994
 30
0.0
 40
14.0
100
AcDbArc
 50
225.0
 51
270.0
  0
ELLIPSE
  5
140
330
1F
100
AcDbEntity
  8
1
100
AcDbEllipse
 10
345.769306
 20
294.709921
 30
0.0
 11
1.060785514030281
 21
-0.2910912111753123
 31
0.0
210
0.0
220
0.0
230
0.9999999999999998
 40
0.9978269999999998
 41
2.758024080934758
 42
4.538259474509465
  0
ELLIPSE
  5
141
330
1F
100
AcDbEntity
  8
1
100
AcDbEllipse
 10
345.194302
 20
288.908078
 30
0.0
 11
0.547876056983627
 21
-12.99991041150118
 31
0.0
210
0.0
220
0.0
230
1.0
 40
0.020121
 41
3.254121653716476
 42
3.277240214059488
  0
ELLIPSE
  5
142
330
1F
100
AcDbEntity
  8
1
100
AcDbEllipse
 10
290.321903
 20
288.909278
 30
0.0
 11
745.4390896884295
 21
-0.8264385513027491
 31
0.0
210
0.0
220
0.0
230
1.0
 40
0.017402
 41
1.49791589752837
 42
1.500152125091095
  0
ELLIPSE
  5
143
330
1F
100
AcDbEntity
  8
1
100
AcDbEllipse
 10
352.376719
 20
293.969063
 30
0.0
 11
0.0003732720689593
 21
0.500481236692309
 31
0.0
210
0.0
220
0.0
230
1.0
 40
0.140034
 41
3.210561104237826
 42
4.781357431028875
  0
ELLIPSE
  5
144
330
1F
100
AcDbEntity
  8
1
100
AcDbEllipse
 10
315.768721
 20
288.907994
 30
0.0
 11
84.45652700703154
 21
-9.762412214285953
 31
0.0
210
0.0
220
0.0
230
0.9999999999999998
 40
0.101645
 41
4.453693911235992
 42
4.511027181126558
  0
ELLIPSE
  5
145
330
1F
100
AcDbEntity
  8
1
100
AcDbEllipse
 10
353.15032
 20
288.907994
 30
0.0
 11
1.407104002464817
 21
12.99852976774859
 31
0.0
210
0.0
220
0.0
230
0.9999999999999998
 40
0.138944
 41
1.960915193309505
 42
3.156632395651075
  0
ELLIPSE
  5
146
330
1F
100
AcDbEntity
  8
1
100
AcDbEllipse
 10
352.644842
 20
288.907994
 30
0.0
 11
0.0
 21
12.99999999999105
 31
0.0
210
0.0
220
0.0
230
1.0
 40
0.140541
 41
1.415336789335638
 42
1.945875451248275
  0
ELLIPSE
  5
147
330
1F
100
AcDbEntity
  8
1
100
AcDbEllipse
 10
297.904842
 20
280.167347
 30
0.0
 11
-1.59693653001584
 21
-6.815408551150914
 31
0.0
210
0.0
220
0.0
230
1.0
 40
0.201211
 41
4.40101544194638
 42
5.407473031454836
  0
ELLIPSE
  5
148
330
1F
100
AcDbEntity
  8
1
100
AcDbEllipse
 10
351.964075
 20
281.41258
 30
0.0
 11
0.0538770024358993
 21
0.4991611425114765
 31
0.0
210
0.0
220
0.0
230
0.9999999999999998
 40
0.139171
 41
1.583568179252948
 42
3.154364506042252
  0
ELLIPSE
  5
149
330
1F
100
AcDbEntity
  8
1
100
AcDbEllipse
 10
352.254138
 20
289.340075
 30
0.0
 11
0.0001758288819746
 21
-0.5000776676640009
 31
0.0
210
0.0
220
0.0
230
1.0
 40
0.140519
 41
3.139090475969326
 42
4.709886802768002
  0
ELLIPSE
  5
14A
330
1F
100
AcDbEntity
  8
1
100
AcDbEllipse
 10
348.785677
 20
296.89423
 30
0.0
 11
-0.0963441148020745
 21
0.0264378846585083
 31
0.0
210
0.0
220
0.0
230
0.9999999999999998
 40
0.997827
 41
3.453600078388488
 42
4.302535230799116
  0
ELLIPSE
  5
14B
330
1F
100
AcDbEntity
  8
1
100
AcDbEllipse
 10
348.499974
 20
296.539816
 30
0.0
 11
-0.5361502866933693
 21
0.147125535050536
 31
0.0
210
0.0
220
0.0
230
1.0
 40
0.9978269999999998
 41
4.302535230799295
 42
5.222658803969131
  0
ELLIPSE
  5
14C
330
1F
100
AcDbEntity
  8
1
100
AcDbEllipse
 10
348.833804
 20
298.050378
 30
0.0
 11
1.446525700950385
 21
-0.3969425606936076
 31
0.0
210
0.0
220
0.0
230
1.0
 40
0.997827
 41
0.0
 42
6.283185307179585
  0
ELLIPSE
  5
14D
330
1F
100
AcDbEntity
  8
1
100
AcDbEllipse
 10
348.83659
 20
298.060533
 30
0.0
 11
2.025135981330539
 21
-0.5557195849710507
 31
0.0
210
0.0
220
0.0
230
0.9999999999999998
 40
0.997827
 41
0.0000081764629416
 42
3.141502728007143
  0
ELLIPSE
  5
14E
330
1F
100
AcDbEntity
  8
1
100
AcDbEllipse
 10
348.950953
 20
298.184917
 30
0.0
 11
2.077921831113903
 21
-0.5702046026707918
 31
0.0
210
0.0
220
0.0
230
1.0
 40
0.997827
 41
0.0
 42
6.283185307179585
  0
ELLIPSE
  5
14F
330
1F
100
AcDbEntity
  8
1
100
AcDbEllipse
 10
348.970743
 20
298.257034
 30
0.0
 11
2.020559536702493
 21
-0.5544637582350757
 31
0.0
210
0.0
220
0.0
230
0.9999999999999998
 40
0.9978270000000001
 41
2.235643891581271
 42
2.733684419256631
  0
ELLIPSE
  5
150
330
1F
100
AcDbEntity
  8
1
100
AcDbEllipse
 10
348.970743
 20
298.257034
 30
0.0
 11
2.020559536702493
 21
-0.5544637582350757
 31
0.0
210
0.0
220
0.0
230
0.9999999999999998
 40
0.9978270000000001
 41
5.915627048820402
 42
6.283185307179585
  0
ELLIPSE
  5
151
330
1F
100
AcDbEntity
  8
1
100
AcDbEllipse
 10
348.970743
 20
298.257034
 30
0.0
 11
2.020559536702493
 21
-0.5544637582350757
 31
0.0
210
0.0
220
0.0
230
0.9999999999999998
 40
0.9978270000000001
 41
0.0
 42
0.9059649755093731
  0
ELLIPSE
  5
152
330
1F
100
AcDbEntity
  8
1
100
AcDbEllipse
 10
346.045325
 20
294.9708740000001
 30
0.0
 11
0.954027102836312
 21
1.042301214729443
 31
0.0
210
0.0
220
0.0
230
1.0
 40
0.021277
 41
0.9744713318984423
 42
1.529282364791606
  0
ELLIPSE
  5
153
330
1F
100
AcDbEntity
  8
1
100
AcDbEllipse
 10
345.774599
 20
301.0064569999999
 30
0.0
 11
1.042963112846267
 21
-0.9546329437885839
 31
0.0
210
0.0
220
0.0
230
1.0
 40
0.041485
 41
1.03723233093987
 42
1.59204336414523
  0
ELLIPSE
  5
154
330
1F
100
AcDbEntity
  8
1
100
AcDbEllipse
 10
351.821186
 20
301.269976
 30
0.0
 11
0.9540271033447609
 21
1.042301215269523
 31
0.0
210
0.0
220
0.0
230
1.0
 40
0.021277
 41
1.529282365158131
 42
2.084093397772471
  0
ELLIPSE
  5
155
330
1F
100
AcDbEntity
  8
1
100
AcDbEllipse
 10
352.091912
 20
295.234393
 30
0.0
 11
1.042963113515169
 21
-0.9546329443953956
 31
0.0
210
0.0
220
0.0
230
1.0
 40
0.041485
 41
1.592043364065659
 42
2.14685439693038
  0
ELLIPSE
  5
156
330
1F
100
AcDbEntity
  8
1
100
AcDbEllipse
 10
348.948076
 20
298.174433
 30
0.0
 11
-2.169788551425579
 21
0.5954138410404095
 31
0.0
210
0.0
220
0.0
230
0.9999999999999996
 40
0.9978269999999998
 41
0.0
 42
6.283185307179585
  0
ELLIPSE
  5
157
330
1F
100
AcDbEntity
  8
1
100
AcDbEllipse
 10
344.157707
 20
291.862021
 30
0.0
 11
-3.730728827118006
 21
-0.1797691047660386
 31
0.0
210
0.0
220
0.0
230
1.0
 40
0.221492
 41
2.132823293474935
 42
4.144182840281021
  0
ELLIPSE
  5
158
330
1F
100
AcDbEntity
  8
1
100
AcDbEllipse
 10
345.628069
 20
288.907994
 30
0.0
 11
0.5478798494298997
 21
-12.9999953382484
 31
0.0
210
0.0
220
0.0
230
1.0
 40
0.020121
 41
3.047931284272209
 42
3.12206445449908
  0
ELLIPSE
  5
159
330
1F
100
AcDbEntity
  8
1
100
AcDbEllipse
 10
345.769306
 20
294.709921
 30
0.0
 11
1.060785514030281
 21
-0.2910912111753123
 31
0.0
210
0.0
220
0.0
230
0.9999999999999998
 40
0.9978269999999998
 41
5.457466967632087
 42
5.73190714921784
  0
ELLIPSE
  5
15A
330
1F
100
AcDbEntity
  8
1
100
AcDbEllipse
 10
345.499225
 20
288.907994
 30
0.0
 11
0.4574553249104103
 21
-12.99983893335072
 31
0.0
210
0.0
220
0.0
230
0.9999999999999998
 40
0.141462
 41
3.117934523587674
 42
3.250292809933823
  0
ELLIPSE
  5
15B
330
1F
100
AcDbEntity
  8
1
100
AcDbEllipse
 10
350.055813
 20
288.907994
 30
0.0
 11
22.29835289080673
 21
-12.82534830628444
 31
0.0
210
0.0
220
0.0
230
1.0
 40
0.095244
 41
4.117928120559148
 42
4.269257876112702
  0
ELLIPSE
  5
15C
330
1F
100
AcDbEntity
  8
1
100
AcDbEllipse
 10
248.458224
 20
288.907992
 30
0.0
 11
276.6751184997927
 21
12.67776315428725
 31
0.0
210
0.0
220
0.0
230
0.9999999999999998
 40
0.010397
 41
5.072975732203601
 42
5.090967564152978
  0
ELLIPSE
  5
15D
330
1F
100
AcDbEntity
  8
1
100
AcDbEllipse
 10
345.774536
 20
294.728983
 30
0.0
 11
-1.060785514030281
 21
0.2910912111753111
 31
0.0
210
0.0
220
0.0
230
0.9999999999999998
 40
0.9978269999999998
 41
2.590314495628045
 42
2.82304616628193
  0
ELLIPSE
  5
15E
330
1F
100
AcDbEntity
  8
1
100
AcDbEllipse
 10
345.828239
 20
294.924684
 30
0.0
 11
-1.060785514030281
 21
0.291091211175311
 31
0.0
210
0.0
220
0.0
230
0.9999999999999998
 40
0.9978269999999998
 41
0.1016187778980415
 42
1.882803739923194
  0
ELLIPSE
  5
15F
330
1F
100
AcDbEntity
  8
1
100
AcDbEllipse
 10
345.828239
 20
294.924684
 30
0.0
 11
-1.060785514030281
 21
0.291091211175311
 31
0.0
210
0.0
220
0.0
230
0.9999999999999998
 40
0.9978269999999998
 41
1.882803739923194
 42
2.581710349609369
  0
ELLIPSE
  5
160
330
1F
100
AcDbEntity
  8
1
100
AcDbEllipse
 10
345.774536
 20
294.728983
 30
0.0
 11
-1.060785514030281
 21
0.2910912111753111
 31
0.0
210
0.0
220
0.0
230
0.9999999999999998
 40
0.9978269999999998
 41
5.645397946807505
 42
5.899616734524532
  0
ELLIPSE
  5
161
330
1F
100
AcDbEntity
  8
1
100
AcDbEllipse
 10
348.85124
 20
298.113917
 30
0.0
 11
-2.02513598133054
 21
0.5557195849710488
 31
0.0
210
0.0
220
0.0
230
1.0
 40
0.997827
 41
3.141600559641129
 42
6.283095111185332
  0
ELLIPSE
  5
162
330
1F
100
AcDbEntity
  8
1
100
AcDbEllipse
 10
348.390252
 20
296.981708
 30
0.0
 11
-0.0963441148020745
 21
0.0264378846585083
 31
0.0
210
0.0
220
0.0
230
0.9999999999999998
 40
0.997827
 41
5.222658803969126
 42
6.071593956380059
  0
ELLIPSE
  5
163
330
1F
100
AcDbEntity
  8
1
100
AcDbEllipse
 10
348.212941
 20
297.073784
 30
0.0
 11
-0.0963441148020746
 21
0.0264378846585084
 31
0.0
210
0.0
220
0.0
230
1.0
 40
0.997827
 41
1.557467374781321
 42
2.930001302790227
  0
ELLIPSE
  5
164
330
1F
100
AcDbEntity
  8
1
100
AcDbEllipse
 10
348.339218
 20
297.510987
 30
0.0
 11
-0.5361502866933696
 21
0.147125535050536
 31
0.0
210
0.0
220
0.0
230
0.9999999999999998
 40
0.9978269999999998
 41
0.6373438016112113
 42
1.557467374781082
  0
ELLIPSE
  5
165
330
1F
100
AcDbEntity
  8
1
100
AcDbEllipse
 10
347.914094
 20
297.346838
 30
0.0
 11
-0.0963441148020745
 21
0.0264378846585083
 31
0.0
210
0.0
220
0.0
230
1.0
 40
0.997827
 41
5.547995180781619
 42
6.920529108790759
  0
ELLIPSE
  5
166
330
1F
100
AcDbEntity
  8
1
100
AcDbEllipse
 10
347.806565
 20
297.515016
 30
0.0
 11
-0.0963441148020745
 21
0.0264378846585083
 31
0.0
210
0.0
220
0.0
230
0.9999999999999998
 40
0.997827
 41
2.406402527191826
 42
3.255337679602718
  0
ELLIPSE
  5
167
330
1F
100
AcDbEntity
  8
1
100
AcDbEllipse
 10
347.355932
 20
297.585115
 30
0.0
 11
-0.5361502866933693
 21
0.147125535050536
 31
0.0
210
0.0
220
0.0
230
1.0
 40
0.9978269999999998
 41
3.255337679602696
 42
4.175461252772536
  0
ELLIPSE
  5
168
330
1F
100
AcDbEntity
  8
1
100
AcDbEllipse
 10
347.684372
 20
297.90048
 30
0.0
 11
-0.0963441148020745
 21
0.0264378846585083
 31
0.0
210
0.0
220
0.0
230
0.9999999999999998
 40
0.997827
 41
4.175461252772639
 42
5.024396405183704
  0
ELLIPSE
  5
169
330
1F
100
AcDbEntity
  8
1
100
AcDbEllipse
 10
347.675436
 20
298.099698
 30
0.0
 11
-0.0963441148020746
 21
0.0264378846585084
 31
0.0
210
0.0
220
0.0
230
1.0
 40
0.997827
 41
0.5102698235845073
 42
1.882803751593504
  0
ELLIPSE
  5
16A
330
1F
100
AcDbEntity
  8
1
100
AcDbEllipse
 10
348.118034
 20
298.208725
 30
0.0
 11
-0.5361502866933696
 21
0.147125535050536
 31
0.0
210
0.0
220
0.0
230
0.9999999999999998
 40
0.9978269999999998
 41
5.873331557594206
 42
6.793455130764014
  0
ELLIPSE
  5
16B
330
1F
100
AcDbEntity
  8
1
100
AcDbEllipse
 10
347.76264
 20
298.494288
 30
0.0
 11
-0.0963441148020745
 21
0.0264378846585083
 31
0.0
210
0.0
220
0.0
230
1.0
 40
0.997827
 41
4.5007976295852
 42
5.873331557594347
  0
ELLIPSE
  5
16C
330
1F
100
AcDbEntity
  8
1
100
AcDbEllipse
 10
347.854691
 20
298.671165
 30
0.0
 11
-0.0963441148020745
 21
0.0264378846585083
 31
0.0
210
0.0
220
0.0
230
0.9999999999999998
 40
0.997827
 41
1.359204975995129
 42
2.208140128406154
  0
ELLIPSE
  5
16D
330
1F
100
AcDbEntity
  8
1
100
AcDbEllipse
 10
347.689763
 20
299.095677
 30
0.0
 11
-0.5361502866933693
 21
0.147125535050536
 31
0.0
210
0.0
220
0.0
230
1.0
 40
0.9978269999999998
 41
2.208140128406095
 42
3.128263701575951
  0
ELLIPSE
  5
16E
330
1F
100
AcDbEntity
  8
1
100
AcDbEllipse
 10
348.127925
 20
298.96915
 30
0.0
 11
-0.0963441148020745
 21
0.0264378846585083
 31
0.0
210
0.0
220
0.0
230
0.9999999999999998
 40
0.997827
 41
3.128263701576019
 42
3.977198853986755
  0
ELLIPSE
  5
16F
330
1F
100
AcDbEntity
  8
1
100
AcDbEllipse
 10
348.296299
 20
299.076292
 30
0.0
 11
-0.0963441148020746
 21
0.0264378846585084
 31
0.0
210
0.0
220
0.0
230
1.0
 40
0.997827
 41
5.746257579567397
 42
7.118791507576476
  0
ELLIPSE
  5
170
330
1F
100
AcDbEntity
  8
1
100
AcDbEllipse
 10
348.61262
 20
298.7481160000001
 30
0.0
 11
-0.5361502866933696
 21
0.147125535050536
 31
0.0
210
0.0
220
0.0
230
0.9999999999999998
 40
0.9978269999999998
 41
4.826134006397558
 42
5.74625757956743
  0
ELLIPSE
  5
171
330
1F
100
AcDbEntity
  8
1
100
AcDbEllipse
 10
348.682349
 20
299.197828
 30
0.0
 11
-0.0963441148020745
 21
0.0264378846585083
 31
0.0
210
0.0
220
0.0
230
1.0
 40
0.997827
 41
3.453600078388411
 42
4.826134006397317
  0
ELLIPSE
  5
172
330
1F
100
AcDbEntity
  8
1
100
AcDbEllipse
 10
348.8819299999999
 20
299.206526
 30
0.0
 11
-0.0963441148020745
 21
0.0264378846585083
 31
0.0
210
0.0
220
0.0
230
0.9999999999999998
 40
0.997827
 41
0.3120074247986518
 42
1.160942577209425
  0
ELLIPSE
  5
173
330
1F
100
AcDbEntity
  8
1
100
AcDbEllipse
 10
349.167634
 20
299.56094
 30
0.0
 11
-0.5361502866933693
 21
0.147125535050536
 31
0.0
210
0.0
220
0.0
230
1.0
 40
0.9978269999999998
 41
1.160942577209502
 42
2.081066150379335
  0
ELLIPSE
  5
174
330
1F
100
AcDbEntity
  8
1
100
AcDbEllipse
 10
349.277356
 20
299.119048
 30
0.0
 11
-0.0963441148020745
 21
0.0264378846585083
 31
0.0
210
0.0
220
0.0
230
0.9999999999999998
 40
0.997827
 41
2.081066150379315
 42
2.930001302790091
  0
ELLIPSE
  5
175
330
1F
100
AcDbEntity
  8
1
100
AcDbEllipse
 10
349.4546660000001
 20
299.026972
 30
0.0
 11
-0.0963441148020746
 21
0.0264378846585084
 31
0.0
210
0.0
220
0.0
230
1.0
 40
0.997827
 41
4.699060028370831
 42
6.07159395637995
  0
ELLIPSE
  5
176
330
1F
100
AcDbEntity
  8
1
100
AcDbEllipse
 10
349.32839
 20
298.589769
 30
0.0
 11
-0.5361502866933696
 21
0.147125535050536
 31
0.0
210
0.0
220
0.0
230
0.9999999999999998
 40
0.9978269999999998
 41
3.778936455201025
 42
4.699060028370875
  0
ELLIPSE
  5
177
330
1F
100
AcDbEntity
  8
1
100
AcDbEllipse
 10
349.753513
 20
298.753918
 30
0.0
 11
-0.0963441148020745
 21
0.0264378846585083
 31
0.0
210
0.0
220
0.0
230
1.0
 40
0.997827
 41
2.406402527191851
 42
3.778936455201051
  0
ELLIPSE
  5
178
330
1F
100
AcDbEntity
  8
1
100
AcDbEllipse
 10
349.861043
 20
298.58574
 30
0.0
 11
-0.0963441148020745
 21
0.0264378846585083
 31
0.0
210
0.0
220
0.0
230
0.9999999999999998
 40
0.997827
 41
5.547995180781889
 42
6.396930333192551
  0
ELLIPSE
  5
179
330
1F
100
AcDbEntity
  8
1
100
AcDbEllipse
 10
350.311675
 20
298.515641
 30
0.0
 11
-0.5361502866933693
 21
0.147125535050536
 31
0.0
210
0.0
220
0.0
230
1.0
 40
0.9978269999999998
 41
0.1137450260129106
 42
1.033868599182752
  0
ELLIPSE
  5
17A
330
1F
100
AcDbEntity
  8
1
100
AcDbEllipse
 10
349.9832350000001
 20
298.200276
 30
0.0
 11
-0.0963441148020745
 21
0.0264378846585083
 31
0.0
210
0.0
220
0.0
230
0.9999999999999998
 40
0.997827
 41
1.033868599182865
 42
1.882803751593798
  0
ELLIPSE
  5
17B
330
1F
100
AcDbEntity
  8
1
100
AcDbEllipse
 10
349.992171
 20
298.001058
 30
0.0
 11
-0.0963441148020746
 21
0.0264378846585084
 31
0.0
210
0.0
220
0.0
230
1.0
 40
0.997827
 41
3.651862477174206
 42
5.024396405183287
  0
ELLIPSE
  5
17C
330
1F
100
AcDbEntity
  8
1
100
AcDbEllipse
 10
349.549573
 20
297.892031
 30
0.0
 11
-0.5361502866933696
 21
0.147125535050536
 31
0.0
210
0.0
220
0.0
230
0.9999999999999998
 40
0.9978269999999998
 41
2.731738904004396
 42
3.651862477174258
  0
ELLIPSE
  5
17D
330
1F
100
AcDbEntity
  8
1
100
AcDbEllipse
 10
349.904968
 20
297.606468
 30
0.0
 11
-0.0963441148020745
 21
0.0264378846585083
 31
0.0
210
0.0
220
0.0
230
1.0
 40
0.997827
 41
1.3592049759951
 42
2.731738904004245
  0
ELLIPSE
  5
17E
330
1F
100
AcDbEntity
  8
1
100
AcDbEllipse
 10
349.812916
 20
297.429591
 30
0.0
 11
-0.0963441148020745
 21
0.0264378846585083
 31
0.0
210
0.0
220
0.0
230
0.9999999999999998
 40
0.997827
 41
4.500797629585171
 42
5.349732781995969
  0
ELLIPSE
  5
17F
330
1F
100
AcDbEntity
  8
1
100
AcDbEllipse
 10
349.977845
 20
297.005079
 30
0.0
 11
-0.5361502866933693
 21
0.147125535050536
 31
0.0
210
0.0
220
0.0
230
1.0
 40
0.9978269999999998
 41
5.349732781995917
 42
6.269856355165737
  0
ELLIPSE
  5
180
330
1F
100
AcDbEntity
  8
1
100
AcDbEllipse
 10
349.539683
 20
297.131606
 30
0.0
 11
-0.0963441148020745
 21
0.0264378846585083
 31
0.0
210
0.0
220
0.0
230
0.9999999999999998
 40
0.997827
 41
6.269856355165777
 42
7.118791507576499
  0
ELLIPSE
  5
181
330
1F
100
AcDbEntity
  8
1
100
AcDbEllipse
 10
349.371309
 20
297.024464
 30
0.0
 11
-0.0963441148020746
 21
0.0264378846585084
 31
0.0
210
0.0
220
0.0
230
1.0
 40
0.997827
 41
2.604664925977736
 42
3.977198853986706
  0
ELLIPSE
  5
182
330
1F
100
AcDbEntity
  8
1
100
AcDbEllipse
 10
349.054988
 20
297.35264
 30
0.0
 11
-0.5361502866933696
 21
0.147125535050536
 31
0.0
210
0.0
220
0.0
230
0.9999999999999998
 40
0.9978269999999998
 41
1.684541352807792
 42
2.604664925977638
  0
ELLIPSE
  5
183
330
1F
100
AcDbEntity
  8
1
100
AcDbEllipse
 10
348.985258
 20
296.902928
 30
0.0
 11
-0.0963441148020745
 21
0.0264378846585083
 31
0.0
210
0.0
220
0.0
230
1.0
 40
0.997827
 41
0.3120074247986517
 42
1.684541352807804
  0
ELLIPSE
  5
184
330
1F
100
AcDbEntity
  8
1
100
AcDbEllipse
 10
345.5497
 20
305.790561
 30
0.0
 11
-12.15081588798323
 21
3.334317509826287
 31
0.0
210
0.0
220
0.0
230
1.0
 40
0.997827
 41
1.631075781607798
 42
1.88223626756228
  0
SPLINE
  5
18C
330
1F
100
AcDbEntity
  8
1
100
AcDbSpline
210
0.0
220
0.0
230
1.0
 70
     8
 71
     3
 72
    13
 73
     9
 74
     0
 42
0.000000001
 43
0.0000000001
 40
0.0
 40
0.0
 40
0.0
 40
0.0
 40
0.1597506432167561
 40
0.3698129824125513
 40
0.3698129824125513
 40
0.5798753216083466
 40
0.5798753216083466
 40
1.0
 40
1.0
 40
1.0
 40
1.0
 10
345.1423564476585
 20
301.8387323942543
 30
0.0
 10
345.1388620990637
 20
301.8394180375004
 30
0.0
 10
345.1313552693541
 20
301.8410200785272
 30
0.0
 10
345.1251833260259
 20
301.8426530774359
 30
0.0
 10
345.119046716469
 20
301.8445263809382
 30
0.0
 10
345.116407212006
 20
301.8454764601457
 30
0.0
 10
345.1099407604958
 20
301.8483142337349
 30
0.0
 10
345.1075325202952
 20
301.8501880460019
 30
0.0
 10
345.1070533157879
 20
301.8520405815084
 30
0.0
  0
SPLINE
  5
191
330
1F
100
AcDbEntity
  8
1
100
AcDbSpline
210
0.0
220
0.0
230
1.0
 70
    12
 71
     2
 72
     6
 73
     3
 74
     0
 42
0.000000001
 43
0.0000000001
 40
0.0
 40
0.0
 40
0.0
 40
1.0
 40
1.0
 40
1.0
 10
344.6205191942377
 20
301.8245303108281
 30
0.0
 41
0.5000019872355538
 10
344.7327432668936
 20
301.8243086308182
 30
0.0
 41
0.4999980127644463
 10
344.8449656486741
 20
301.824086363928
 30
0.0
 41
0.5000019872355538
  0
SPLINE
  5
192
330
1F
100
AcDbEntity
  8
1
100
AcDbSpline
210
0.0
220
0.0
230
1.0
 70
     8
 71
     3
 72
    12
 73
     8
 74
     0
 42
0.000000001
 43
0.0000000001
 40
0.0
 40
0.0
 40
0.0
 40
0.0
 40
0.25
 40
0.25
 40
0.5
 40
0.75
 40
1.0
 40
1.0
 40
1.0
 40
1.0
 10
297.9048419452955
 20
301.8117930554674
 30
0.0
 10
297.7294417555025
 20
301.8117930554674
 30
0.0
 10
297.5554664505048
 20
301.8127577603148
 30
0.0
 10
297.2102548164798
 20
301.8164597149713
 30
0.0
 10
296.867782555437
 20
301.8219336491686
 30
0.0
 10
296.3621131593728
 20
301.8346320538664
 30
0.0
 10
296.0303308057861
 20
301.8453021839667
 30
0.0
 10
295.8657872993017
 20
301.8509277632909
 30
0.0
  0
SPLINE
  5
193
330
1F
100
AcDbEntity
  8
1
100
AcDbSpline
210
0.0
220
0.0
230
1.0
 70
     8
 71
     3
 72
    10
 73
     6
 74
     0
 42
0.000000001
 43
0.0000000001
 40
0.0
 40
0.0
 40
0.0
 40
0.0
 40
0.5
 40
0.5
 40
1.0
 40
1.0
 40
1.0
 40
1.0
 10
343.5900931386957
 20
298.8805955159065
 30
0.0
 10
343.4682705429346
 20
299.3622673102692
 30
0.0
 10
343.3554121975362
 20
299.8458772308797
 30
0.0
 10
343.1441808814648
 20
300.8162288995073
 30
0.0
 10
343.0458184553548
 20
301.3029729273239
 30
0.0
 10
342.9534080811041
 20
301.7910038254834
 30
0.0
  0
SPLINE
  5
194
330
1F
100
AcDbEntity
  8
1
100
AcDbSpline
210
0.0
220
0.0
230
1.0
 70
    28
 71
     4
 72
    13
 73
     8
 74
     0
 42
0.000000001
 43
0.0000000001
 40
0.0
 40
0.0
 40
0.0
 40
0.0
 40
0.0
 40
0.1336653553063441
 40
0.1336653553063441
 40
0.1336653553063441
 40
1.0
 40
1.0
 40
1.0
 40
1.0
 40
1.0
 10
297.9048419452957
 20
282.4500918992212
 30
0.0
 41
1.000685697315089
 10
297.9048419452957
 20
282.2442816702783
 30
0.0
 41
1.001035991600855
 10
297.9048419452957
 20
282.0371869095065
 30
0.0
 41
1.001322820616252
 10
297.9048419452959
 20
281.8296904941627
 30
0.0
 41
1.001498006703475
 10
297.9048419452959
 20
280.2813320033357
 30
0.0
 41
1.001498006703475
 10
297.9048419452959
 20
278.7504653029271
 30
0.0
 41
0.9941387616807972
 10
297.9048419452959
 20
277.2996589376148
 30
0.0
 41
0.9967211947857352
 10
297.9048419452959
 20
276.123773899226
 30
0.0
 41
0.9994309529928342
  0
SPLINE
  5
195
330
1F
100
AcDbEntity
  8
1
100
AcDbSpline
210
0.0
220
0.0
230
1.0
 70
    11
 71
     3
 72
   127
 73
   123
 74
     0
 42
0.000000001
 43
0.0000000001
 40
0.0
 40
0.0
 40
0.0
 40
0.0
 40
0.0312499999999935
 40
0.0312499999999935
 40
0.0468749999999903
 40
0.0468749999999903
 40
0.0546874999999912
 40
0.0546874999999912
 40
0.0624999999999921
 40
0.0624999999999921
 40
0.0937500000000004
 40
0.0937500000000004
 40
0.1015625000000013
 40
0.1015625000000013
 40
0.1093750000000023
 40
0.1093750000000023
 40
0.1250000000000082
 40
0.1250000000000082
 40
0.1562500000000167
 40
0.1562500000000167
 40
0.1640625000000194
 40
0.1640625000000194
 40
0.1718750000000221
 40
0.1875000000000276
 40
0.2031250000000332
 40
0.2031250000000332
 40
0.210937500000036
 40
0.210937500000036
 40
0.2187500000000388
 40
0.2187500000000388
 40
0.2500000000000519
 40
0.2500000000000519
 40
0.2578125000000551
 40
0.2578125000000551
 40
0.2656250000000583
 40
0.2656250000000583
 40
0.2812500000000642
 40
0.2812500000000642
 40
0.3125000000000746
 40
0.3125000000000746
 40
0.3203125000000772
 40
0.3203125000000772
 40
0.3281250000000798
 40
0.3437500000000825
 40
0.3437500000000825
 40
0.3750000000000879
 40
0.3750000000000879
 40
0.3828125000000868
 40
0.3828125000000868
 40
0.3906250000000857
 40
0.4062500000000834
 40
0.421875000000081
 40
0.421875000000081
 40
0.4296875000000821
 40
0.4296875000000821
 40
0.4375000000000833
 40
0.4375000000000833
 40
0.4687500000000825
 40
0.4687500000000825
 40
0.4843750000000821
 40
0.4843750000000821
 40
0.4921875000000819
 40
0.4921875000000819
 40
0.5000000000000818
 40
0.5000000000000818
 40
0.5312500000000813
 40
0.5312500000000813
 40
0.5390625000000799
 40
0.5390625000000799
 40
0.5468750000000786
 40
0.5468750000000786
 40
0.5625000000000707
 40
0.578125000000063
 40
0.578125000000063
 40
0.5937500000000551
 40
0.5937500000000551
 40
0.6250000000000395
 40
0.6250000000000395
 40
0.6328125000000365
 40
0.6328125000000365
 40
0.6406250000000336
 40
0.6406250000000336
 40
0.6562500000000279
 40
0.6562500000000279
 40
0.6875000000000164
 40
0.6875000000000164
 40
0.6953125000000143
 40
0.6953125000000143
 40
0.7031250000000125
 40
0.7187500000000099
 40
0.7343750000000073
 40
0.7343750000000073
 40
0.7421875000000061
 40
0.7421875000000061
 40
0.7500000000000047
 40
0.7500000000000047
 40
0.7812499999999992
 40
0.7812499999999992
 40
0.7968749999999965
 40
0.7968749999999965
 40
0.8124999999999936
 40
0.8124999999999936
 40
0.84374999999999
 40
0.84374999999999
 40
0.8593749999999868
 40
0.8593749999999868
 40
0.8749999999999836
 40
0.8749999999999836
 40
0.906249999999977
 40
0.906249999999977
 40
0.9140624999999783
 40
0.9140624999999783
 40
0.9218749999999801
 40
0.9218749999999801
 40
0.9374999999999827
 40
0.9531249999999859
 40
0.9531249999999859
 40
0.9609374999999875
 40
0.9609374999999875
 40
0.9687499999999888
 40
0.9687499999999888
 40
1.0
 40
1.0
 40
1.0
 40
1.0
 10
348.4246469271758
 20
286.9533679557893
 30
0.0
 10
348.5086134187771
 20
286.9519023152266
 30
0.0
 10
348.5909859487572
 20
286.9420860978522
 30
0.0
 10
348.7122521025284
 20
286.9153636537725
 30
0.0
 10
348.7522890741783
 20
286.904441126692
 30
0.0
 10
348.8117526296289
 20
286.8849636337297
 30
0.0
 10
348.8315307996818
 20
286.8779322028127
 30
0.0
 10
348.8705657189107
 20
286.8629382403978
 30
0.0
 10
348.8898145747612
 20
286.8549828845757
 30
0.0
 10
348.9847425925164
 20
286.8129621019857
 30
0.0
 10
349.056511241897
 20
286.7722291951089
 30
0.0
 10
349.141034486716
 20
286.7125105907342
 30
0.0
 10
349.157677379028
 20
286.7001227406864
 30
0.0
 10
349.1904306715415
 20
286.6744447626329
 30
0.0
 10
349.2065518006596
 20
286.6611408852884
 30
0.0
 10
349.2535742074977
 20
286.6203243174143
 30
0.0
 10
349.2833236839082
 20
286.5917698455137
 30
0.0
 10
349.3679196060075
 20
286.5022134823379
 30
0.0
 10
349.4181568905613
 20
286.4373548050612
 30
0.0
 10
349.4730598195184
 20
286.3497308082917
 30
0.0
 10
349.48358199453
 20
286.3319688790896
 30
0.0
 10
349.5036394696399
 20
286.2961335504796
 30
0.0
 10
349.5322857639584
 20
286.2418395867592
 30
0.0
 10
349.5729896443322
 20
286.1487151966185
 30
0.0
 10
349.5981573086343
 20
286.0714666537438
 30
0.0
 10
349.6142252160954
 20
286.0124923048905
 30
0.0
 10
349.6191193268164
 20
285.9926289750125
 30
0.0
 10
349.6279233650241
 20
285.9526925021863
 30
0.0
 10
349.6318152395243
 20
285.932709339748
 30
0.0
 10
349.64878455718
 20
285.8327225136952
 30
0.0
 10
349.6544605149596
 20
285.7525093805833
 30
0.0
 10
349.6519288956035
 20
285.6519834480554
 30
0.0
 10
349.6509370083793
 20
285.6318650661742
 30
0.0
 10
349.6479712350029
 20
285.5916015331103
 30
0.0
 10
349.6459917534751
 20
285.5714130272535
 30
0.0
 10
349.6385933090885
 20
285.511119904415
 30
0.0
 10
349.6317535047302
 20
285.4714968100162
 30
0.0
 10
349.6057079992112
 20
285.3542789187056
 30
0.0
 10
349.5810278823783
 20
285.2783215330658
 30
0.0
 10
349.5408797506423
 20
285.1861121338707
 30
0.0
 10
349.5323719622345
 20
285.1677899535842
 30
0.0
 10
349.5144361010359
 20
285.1315034463567
 30
0.0
 10
349.486306748955
 20
285.0779285576784
 30
0.0
 10
349.454580299947
 20
285.0268551456206
 30
0.0
 10
349.3863906857512
 20
284.9279793026433
 30
0.0
 10
349.3346655132439
 20
284.8663899983535
 30
0.0
 10
349.2616588970858
 20
284.7950805091138
 30
0.0
 10
349.2466775165483
 20
284.7811494260753
 30
0.0
 10
349.2161935376986
 20
284.7541591836954
 30
0.0
 10
349.1695814867638
 20
284.7148861539166
 30
0.0
 10
349.0875198023547
 20
284.6553983079365
 30
0.0
 10
349.0171770110265
 20
284.6141715672112
 30
0.0
 10
348.9625963642045
 20
284.5857103076832
 30
0.0
 10
348.9440983209501
 20
284.5766337952762
 30
0.0
 10
348.9064751468276
 20
284.5593241925603
 30
0.0
 10
348.8873382857306
 20
284.5510906130049
 30
0.0
 10
348.7912457027064
 20
284.5125526791313
 30
0.0
 10
348.7121662510662
 20
284.4896198342443
 30
0.0
 10
348.5902388817988
 20
284.4669957122584
 30
0.0
 10
348.5490412315094
 20
284.4614309936493
 30
0.0
 10
348.4863746532723
 20
284.4561771042145
 30
0.0
 10
348.4654129236304
 20
284.4549514849005
 30
0.0
 10
348.4236981692278
 20
284.4535582991775
 30
0.0
 10
348.4028923537289
 20
284.4533859937903
 30
0.0
 10
348.2991170012904
 20
284.4551042622726
 30
0.0
 10
348.2169014111716
 20
284.4646578976885
 30
0.0
 10
348.1151461861497
 20
284.4869354604559
 30
0.0
 10
348.0947869497782
 20
284.4919299543861
 30
0.0
 10
348.0545491814178
 20
284.502877606937
 30
0.0
 10
348.0346605902117
 20
284.5088290350367
 30
0.0
 10
347.9756685120477
 20
284.5280827464078
 30
0.0
 10
347.8988051365202
 20
284.5574782511438
 30
0.0
 10
347.8254290221666
 20
284.5941459983942
 30
0.0
 10
347.7537988200684
 20
284.6344718342264
 30
0.0
 10
347.7187272422878
 20
284.6565742488514
 30
0.0
 10
347.6182191611298
 20
284.7270439100579
 30
0.0
 10
347.5568179952417
 20
284.779810587124
 30
0.0
 10
347.4867907296432
 20
284.8528064671053
 30
0.0
 10
347.473124695039
 20
284.8677608485388
 30
0.0
 10
347.4464771860582
 20
284.8983884074731
 30
0.0
 10
347.4334663765617
 20
284.9141009710333
 30
0.0
 10
347.3958065364338
 20
284.9619068294831
 30
0.0
 10
347.372456640999
 20
284.9947311355754
 30
0.0
 10
347.3074837820535
 20
285.0959842322189
 30
0.0
 10
347.270889619077
 20
285.1671675489715
 30
0.0
 10
347.2336678202992
 20
285.2608810430708
 30
0.0
 10
347.2266411577698
 20
285.2799036950338
 30
0.0
 10
347.2135846833552
 20
285.3180702414123
 30
0.0
 10
347.1954549909197
 20
285.3755998136506
 30
0.0
 10
347.1723601347147
 20
285.4728600199911
 30
0.0
 10
347.1613873033557
 20
285.5521315810708
 30
0.0
 10
347.1560166541814
 20
285.6121453692388
 30
0.0
 10
347.1547037630384
 20
285.6322434593332
 30
0.0
 10
347.1530506723742
 20
285.672630312436
 30
0.0
 10
347.152711412532
 20
285.692971967004
 30
0.0
 10
347.1535001453742
 20
285.7944703951939
 30
0.0
 10
347.1619617676334
 20
285.8745804937874
 30
0.0
 10
347.1861648669277
 20
285.9931252864364
 30
0.0
 10
347.1961642049002
 20
286.0323680286537
 30
0.0
 10
347.2201500185997
 20
286.1102846381387
 30
0.0
 10
347.2342192148034
 20
286.1491108981772
 30
0.0
 10
347.2816382579607
 20
286.2622283390708
 30
0.0
 10
347.3203036106221
 20
286.3339024580447
 30
0.0
 10
347.3888883457984
 20
286.4357430716447
 30
0.0
 10
347.4135261298818
 20
286.4687384600616
 30
0.0
 10
347.4665097332687
 20
286.5327309828517
 30
0.0
 10
347.4944436152355
 20
286.5632244447419
 30
0.0
 10
347.5822264327141
 20
286.6500700026969
 30
0.0
 10
347.6461116339363
 20
286.7019437359057
 30
0.0
 10
347.7328263586734
 20
286.7590318603684
 30
0.0
 10
347.7505358451252
 20
286.7700703264366
 30
0.0
 10
347.7865766922032
 20
286.7912933465552
 30
0.0
 10
347.8047930003693
 20
286.801411575877
 30
0.0
 10
347.8600177161068
 20
286.8303147536813
 30
0.0
 10
347.9351832910408
 20
286.8649886516894
 30
0.0
 10
348.0133592407963
 20
286.8920591440133
 30
0.0
 10
348.0731333279458
 20
286.9094728675028
 30
0.0
 10
348.09324872646
 20
286.9147950470474
 30
0.0
 10
348.133867541291
 20
286.9244572860462
 30
0.0
 10
348.1544206004759
 20
286.9288057700369
 30
0.0
 10
348.2574521604353
 20
286.9479024166983
 30
0.0
 10
348.3406804355743
 20
286.954833596352
 30
0.0
 10
348.4246469271757
 20
286.9533679557893
 30
0.0
  0
SPLINE
  5
196
330
1F
100
AcDbEntity
  8
1
100
AcDbSpline
210
0.0
220
0.0
230
1.0
 70
     8
 71
     3
 72
     8
 73
     4
 74
     0
 42
0.000000001
 43
0.0000000001
 40
0.0
 40
0.0
 40
0.0
 40
0.0
 40
1.0
 40
1.0
 40
1.0
 40
1.0
 10
342.1588169418981
 20
293.6300693440425
 30
0.0
 10
342.0124340326752
 20
293.6774799291437
 30
0.0
 10
341.8662383806149
 20
293.7276783854084
 30
0.0
 10
341.7202587804958
 20
293.7807277639537
 30
0.0
  0
SPLINE
  5
197
330
1F
100
AcDbEntity
  8
1
100
AcDbSpline
210
0.0
220
0.0
230
1.0
 70
     8
 71
     3
 72
    38
 73
    34
 74
     0
 42
0.000000001
 43
0.0000000001
 40
0.0
 40
0.0
 40
0.0
 40
0.0
 40
0.1250000000000158
 40
0.1250000000000158
 40
0.2500000000000317
 40
0.2500000000000317
 40
0.2812500000000371
 40
0.2968750000000372
 40
0.2968750000000372
 40
0.3125000000000373
 40
0.3125000000000373
 40
0.375000000000038
 40
0.375000000000038
 40
0.50000000000004
 40
0.50000000000004
 40
0.5625000000000409
 40
0.5625000000000409
 40
0.5781250000000402
 40
0.5781250000000402
 40
0.5937500000000396
 40
0.5937500000000396
 40
0.6250000000000365
 40
0.6250000000000365
 40
0.7500000000000238
 40
0.7500000000000238
 40
0.812500000000017
 40
0.812500000000017
 40
0.8281250000000156
 40
0.8281250000000156
 40
0.8437500000000142
 40
0.8750000000000111
 40
0.8750000000000111
 40
1.0
 40
1.0
 40
1.0
 40
1.0
 10
341.4776125389046
 20
294.4241117433383
 30
0.0
 10
341.66039827667
 20
294.5461866837007
 30
0.0
 10
341.8358761685373
 20
294.6767180917058
 30
0.0
 10
342.1709629985654
 20
294.9561440882503
 30
0.0
 10
342.3305866965313
 20
295.1050215970903
 30
0.0
 10
342.5189660805136
 20
295.3040212772314
 30
0.0
 10
342.5746398623568
 20
295.3646932481385
 30
0.0
 10
342.6290054450837
 20
295.4268790363398
 30
0.0
 10
342.6649524130343
 20
295.4686796250797
 30
0.0
 10
342.6827856365753
 20
295.4897618862716
 30
0.0
 10
342.7708972094456
 20
295.5956869412112
 30
0.0
 10
342.8382409013627
 20
295.6823258490634
 30
0.0
 10
343.0305536894753
 20
295.9481091490484
 30
0.0
 10
343.1458654926436
 20
296.1330832973828
 30
0.0
 10
343.2974464911684
 20
296.4234548957958
 30
0.0
 10
343.3443954553239
 20
296.5224053582748
 30
0.0
 10
343.3982613882779
 20
296.649003259231
 30
0.0
 10
343.4087931145084
 20
296.6744686002507
 30
0.0
 10
343.4293630374191
 20
296.7256972081114
 30
0.0
 10
343.4394073941606
 20
296.7514784969579
 30
0.0
 10
343.4686537228802
 20
296.8289272167924
 30
0.0
 10
343.4870123951431
 20
296.8808025300215
 30
0.0
 10
343.573070362558
 20
297.1414020033997
 30
0.0
 10
343.6236721073795
 20
297.3537717227419
 30
0.0
 10
343.6701918315954
 20
297.678591355736
 30
0.0
 10
343.6807804420234
 20
297.7879131806967
 30
0.0
 10
343.6874651112306
 20
297.9259622935998
 30
0.0
 10
343.6884732115913
 20
297.9536532610747
 30
0.0
 10
343.6898173996253
 20
298.0089003903704
 30
0.0
 10
343.6908315195132
 20
298.0916697453687
 30
0.0
 10
343.6888476239706
 20
298.1741359401258
 30
0.0
 10
343.6755831032499
 20
298.4483506506627
 30
0.0
 10
343.6437900274585
 20
298.6655805434316
 30
0.0
 10
343.5900931386957
 20
298.8805955159065
 30
0.0
  0
SPLINE
  5
198
330
1F
100
AcDbEntity
  8
1
100
AcDbSpline
210
0.0
220
0.0
230
1.0
 70
    12
 71
     3
 72
     9
 73
     5
 74
     0
 42
0.000000001
 43
0.0000000001
 40
0.0
 40
0.0
 40
0.0
 40
0.0
 40
0.4975106173384895
 40
1.0
 40
1.0
 40
1.0
 40
1.0
 10
321.9720560008793
 20
298.6055078297038
 30
0.0
 41
1.005412943477965
 10
325.5791156360255
 20
298.9312503462688
 30
0.0
 41
1.005246956991807
 10
332.837177626101
 20
298.3162029295705
 30
0.0
 41
1.00736261658415
 10
340.1366676633715
 20
297.9193016657475
 30
0.0
 41
0.9970411479302232
 10
343.5900931386957
 20
298.8805955159065
 30
0.0
 41
1.001130282250149
  0
SPLINE
  5
199
330
1F
100
AcDbEntity
  8
1
100
AcDbSpline
210
0.0
220
0.0
230
1.0
 70
     8
 71
     3
 72
    19
 73
    15
 74
     0
 42
0.000000001
 43
0.0000000001
 40
0.0
 40
0.0
 40
0.0
 40
0.0
 40
0.2499999999999961
 40
0.2499999999999961
 40
0.2812499999999956
 40
0.2812499999999956
 40
0.3124999999999951
 40
0.3124999999999951
 40
0.3749999999999949
 40
0.4999999999999952
 40
0.4999999999999952
 40
0.7499999999999976
 40
0.7499999999999976
 40
1.0
 40
1.0
 40
1.0
 40
1.0
 10
287.3351936298795
 20
283.0582277886986
 30
0.0
 10
287.7918921168134
 20
283.1390754337761
 30
0.0
 10
288.2612600669518
 20
283.2012342766525
 30
0.0
 10
288.804010287084
 20
283.2494622818848
 30
0.0
 10
288.8645207186262
 20
283.2545187713991
 30
0.0
 10
288.9859538020188
 20
283.264023681745
 30
0.0
 10
289.0469153712885
 20
283.2684743326433
 30
0.0
 10
289.2298383485878
 20
283.280870982379
 30
0.0
 10
289.596301438332
 20
283.3018835244642
 30
0.0
 10
289.9645854904459
 20
283.3117402978671
 30
0.0
 10
290.7035200781322
 20
283.3169560480741
 30
0.0
 10
291.1992924051529
 20
283.3011398389185
 30
0.0
 10
292.1969623097302
 20
283.2319822749846
 30
0.0
 10
292.6988596409337
 20
283.1786424294404
 30
0.0
 10
293.203831818519
 20
283.1064651408289
 30
0.0
  0
SPLINE
  5
19A
330
1F
100
AcDbEntity
  8
1
100
AcDbSpline
210
0.0
220
0.0
230
1.0
 70
     8
 71
     3
 72
    20
 73
    16
 74
     0
 42
0.000000001
 43
0.0000000001
 40
0.0
 40
0.0
 40
0.0
 40
0.0
 40
0.1249999999999997
 40
0.1249999999999997
 40
0.2499999999999994
 40
0.2499999999999994
 40
0.3749999999999992
 40
0.3749999999999992
 40
0.4999999999999992
 40
0.4999999999999992
 40
0.7499999999999995
 40
0.7499999999999995
 40
0.8749999999999996
 40
0.8749999999999996
 40
1.0
 40
1.0
 40
1.0
 40
1.0
 10
279.4048419452957
 20
270.1903147528157
 30
0.0
 10
279.558935836693
 20
270.2522307036732
 30
0.0
 10
279.7147726559912
 20
270.320730180392
 30
0.0
 10
280.0293790626552
 20
270.4687779531234
 30
0.0
 10
280.1881497603044
 20
270.5483315462891
 30
0.0
 10
280.5081107133601
 20
270.7167728932424
 30
0.0
 10
280.6693015651506
 20
270.8056636436081
 30
0.0
 10
280.9936010469609
 20
270.9913309468292
 30
0.0
 10
281.1567098989565
 20
271.0881090703991
 30
0.0
 10
281.6481598457083
 20
271.3884006656727
 30
0.0
 10
281.9786213180731
 20
271.6017916932969
 30
0.0
 10
282.4755458600299
 20
271.9356903225846
 30
0.0
 10
282.6413929438281
 20
272.0493118917825
 30
0.0
 10
282.9730223493825
 20
272.2804585302103
 30
0.0
 10
283.1388037725318
 20
272.3979828094623
 30
0.0
 10
283.3043368819074
 20
272.5171852063986
 30
0.0
  0
SPLINE
  5
19B
330
1F
100
AcDbEntity
  8
1
100
AcDbSpline
210
0.0
220
0.0
230
1.0
 70
     8
 71
     3
 72
    36
 73
    32
 74
     0
 42
0.000000001
 43
0.0000000001
 40
0.0
 40
0.0
 40
0.0
 40
0.0
 40
0.124999999999998
 40
0.124999999999998
 40
0.2499999999999956
 40
0.2499999999999956
 40
0.2812499999999948
 40
0.2812499999999948
 40
0.2968749999999945
 40
0.2968749999999945
 40
0.3124999999999941
 40
0.3749999999999927
 40
0.3749999999999927
 40
0.4999999999999896
 40
0.4999999999999896
 40
0.5624999999999883
 40
0.5624999999999883
 40
0.578124999999988
 40
0.578124999999988
 40
0.5937499999999878
 40
0.5937499999999878
 40
0.6249999999999885
 40
0.6249999999999885
 40
0.7499999999999919
 40
0.7499999999999919
 40
0.8749999999999952
 40
0.8749999999999952
 40
0.9062499999999964
 40
0.9062499999999964
 40
0.9374999999999975
 40
1.0
 40
1.0
 40
1.0
 40
1.0
 10
276.5816395429912
 20
274.1514444684931
 30
0.0
 10
276.5358932484139
 20
273.9248248260785
 30
0.0
 10
276.513236328517
 20
273.7039148637548
 30
0.0
 10
276.5117243031895
 20
273.2733396493279
 30
0.0
 10
276.5328794497716
 20
273.0636749293083
 30
0.0
 10
276.586863872759
 20
272.8085800454767
 30
0.0
 10
276.5990439382831
 20
272.7579106109589
 30
0.0
 10
276.6194104578997
 20
272.6824306879864
 30
0.0
 10
276.6265559534282
 20
272.6573346233649
 30
0.0
 10
276.6415137044552
 20
272.6074382479362
 30
0.0
 10
276.6805497024151
 20
272.4835127867412
 30
0.0
 10
276.7276887168423
 20
272.3635985061615
 30
0.0
 10
276.8558724133211
 20
272.0830963824972
 30
0.0
 10
276.9613271547195
 20
271.905799062233
 30
0.0
 10
277.1488300667032
 20
271.6531858937382
 30
0.0
 10
277.216235277298
 20
271.5712087145534
 30
0.0
 10
277.3066802242148
 20
271.4714273290269
 30
0.0
 10
277.3250789712818
 20
271.451605633667
 30
0.0
 10
277.3624987940384
 20
271.4122293615231
 30
0.0
 10
277.3815312192094
 20
271.3926640674965
 30
0.0
 10
277.4393655064194
 20
271.3345643289045
 30
0.0
 10
277.4789594826266
 20
271.2965654505473
 30
0.0
 10
277.6820261401083
 20
271.1101036702007
 30
0.0
 10
277.8607161805316
 20
270.972194722279
 30
0.0
 10
278.2494418582702
 20
270.7161139800363
 30
0.0
 10
278.4594801523023
 20
270.5979511420998
 30
0.0
 10
278.7420232121522
 20
270.4614427032025
 30
0.0
 10
278.7995784016214
 20
270.4346856757608
 30
0.0
 10
278.9162199894456
 20
270.3824924157818
 30
0.0
 10
279.0936360006262
 20
270.306105251108
 30
0.0
 10
279.2783893176069
 20
270.235238941089
 30
0.0
 10
279.4048419452957
 20
270.1903147528157
 30
0.0
  0
SPLINE
  5
19C
330
1F
100
AcDbEntity
  8
1
100
AcDbSpline
210
0.0
220
0.0
230
1.0
 70
     8
 71
     3
 72
    54
 73
    50
 74
     0
 42
0.000000001
 43
0.0000000001
 40
0.0
 40
0.0
 40
0.0
 40
0.0
 40
0.0624999999999994
 40
0.0624999999999994
 40
0.1249999999999987
 40
0.1249999999999987
 40
0.1874999999999981
 40
0.1874999999999981
 40
0.2187499999999978
 40
0.2187499999999978
 40
0.2499999999999974
 40
0.2499999999999974
 40
0.2812499999999971
 40
0.2812499999999971
 40
0.3124999999999968
 40
0.3124999999999968
 40
0.3437499999999965
 40
0.3437499999999965
 40
0.3593749999999966
 40
0.3593749999999966
 40
0.3749999999999966
 40
0.3749999999999966
 40
0.4374999999999968
 40
0.4374999999999968
 40
0.4687499999999973
 40
0.4687499999999973
 40
0.4999999999999976
 40
0.4999999999999976
 40
0.5312499999999979
 40
0.5312499999999979
 40
0.5624999999999983
 40
0.5624999999999983
 40
0.624999999999999
 40
0.624999999999999
 40
0.6874999999999997
 40
0.6874999999999997
 40
0.71875
 40
0.71875
 40
0.7500000000000004
 40
0.7500000000000004
 40
0.8125000000000005
 40
0.8125000000000005
 40
0.8437500000000007
 40
0.8437500000000007
 40
0.8750000000000007
 40
0.8750000000000007
 40
0.9375000000000007
 40
0.9375000000000007
 40
1.0
 40
1.0
 40
1.0
 40
1.0
 10
297.9048419452959
 20
282.4493666773264
 30
0.0
 10
298.7998210076586
 20
282.2803201893488
 30
0.0
 10
299.6906243951189
 20
282.1021519469878
 30
0.0
 10
301.4632957426574
 20
281.7284391639983
 30
0.0
 10
302.3451540489141
 20
281.5328732295469
 30
0.0
 10
304.0997785821484
 20
281.1269102819917
 30
0.0
 10
304.9725338720983
 20
280.9164978915894
 30
0.0
 10
306.2752995421127
 20
280.5933955670899
 30
0.0
 10
306.7085006132407
 20
280.4844672080838
 30
0.0
 10
307.5729680011115
 20
280.2650016819504
 30
0.0
 10
308.0042342242456
 20
280.1544651731002
 30
0.0
 10
308.8650765344269
 20
279.9327766716956
 30
0.0
 10
309.2946527299508
 20
279.8216259107408
 30
0.0
 10
310.152431140303
 20
279.599820723369
 30
0.0
 10
310.5806337040278
 20
279.4891680722968
 30
0.0
 10
311.4360458020157
 20
279.2695440845754
 30
0.0
 10
311.8632559253582
 20
279.1605749166475
 30
0.0
 10
312.5036500610452
 20
278.9992808531841
 30
0.0
 10
312.7170756281785
 20
278.9458684611835
 30
0.0
 10
313.1436078280138
 20
278.8399667431554
 30
0.0
 10
313.3567317977054
 20
278.7874730182116
 30
0.0
 10
314.4217982298809
 20
278.5276282405072
 30
0.0
 10
315.2720773748088
 20
278.3282554853225
 30
0.0
 10
316.547950494778
 20
278.0472703829595
 30
0.0
 10
316.9733357868072
 20
277.9566304561153
 30
0.0
 10
317.8249699956996
 20
277.7822254521696
 30
0.0
 10
318.2512185951887
 20
277.6984574310433
 30
0.0
 10
319.1051153129479
 20
277.538216063697
 30
0.0
 10
319.5327625709548
 20
277.4617394296176
 30
0.0
 10
320.3898701032902
 20
277.3161880335966
 30
0.0
 10
320.8193287754751
 20
277.2471097608824
 30
0.0
 10
322.1109151940884
 20
277.0508233714427
 30
0.0
 10
322.9764353098894
 20
276.9346617220555
 30
0.0
 10
324.7131534185535
 20
276.7246144617997
 30
0.0
 10
325.5843524514065
 20
276.6307656539132
 30
0.0
 10
326.8937091934337
 20
276.5037691362622
 30
0.0
 10
327.3305938906187
 20
276.4637522568613
 30
0.0
 10
328.2049935236598
 20
276.3880384542611
 30
0.0
 10
328.6424078612293
 20
276.3523513222686
 30
0.0
 10
329.9542741912454
 20
276.251515933309
 30
0.0
 10
330.8286339445228
 20
276.192521381829
 30
0.0
 10
332.1387912262992
 20
276.1158251563833
 30
0.0
 10
332.5752714455766
 20
276.0922327058604
 30
0.0
 10
333.4476831032388
 20
276.0490767591095
 30
0.0
 10
333.8836445462572
 20
276.0295344772425
 30
0.0
 10
335.1911986934493
 20
275.9773315902366
 30
0.0
 10
336.062478533383
 20
275.9511408384797
 30
0.0
 10
337.8060524806439
 20
275.9164808643203
 30
0.0
 10
338.6783456356614
 20
275.9079935137006
 30
0.0
 10
339.5518142766261
 20
275.9079935137005
 30
0.0
  0
SPLINE
  5
19D
330
1F
100
AcDbEntity
  8
1
100
AcDbSpline
210
0.0
220
0.0
230
1.0
 70
     8
 71
     3
 72
    54
 73
    50
 74
     0
 42
0.000000001
 43
0.0000000001
 40
0.0
 40
0.0
 40
0.0
 40
0.0
 40
0.0624999999999996
 40
0.0624999999999996
 40
0.1249999999999992
 40
0.1249999999999992
 40
0.1874999999999988
 40
0.1874999999999988
 40
0.2187499999999988
 40
0.2187499999999988
 40
0.2499999999999987
 40
0.2499999999999987
 40
0.3124999999999986
 40
0.3124999999999986
 40
0.3749999999999984
 40
0.3749999999999984
 40
0.4374999999999984
 40
0.4374999999999984
 40
0.4687499999999983
 40
0.4687499999999983
 40
0.4999999999999983
 40
0.4999999999999983
 40
0.5312499999999982
 40
0.5312499999999982
 40
0.5624999999999979
 40
0.5624999999999979
 40
0.5937499999999979
 40
0.5937499999999979
 40
0.6249999999999979
 40
0.6249999999999979
 40
0.6562499999999978
 40
0.6562499999999978
 40
0.6874999999999977
 40
0.6874999999999977
 40
0.7187499999999977
 40
0.7187499999999977
 40
0.7499999999999976
 40
0.7499999999999976
 40
0.8124999999999978
 40
0.8124999999999978
 40
0.8437499999999984
 40
0.8437499999999984
 40
0.8749999999999987
 40
0.8749999999999987
 40
0.9374999999999996
 40
0.9374999999999996
 40
0.9687499999999998
 40
0.9687499999999998
 40
1.0
 40
1.0
 40
1.0
 40
1.0
 10
297.9048419452957
 20
301.8117930554674
 30
0.0
 10
298.7417411923901
 20
301.7918409621096
 30
0.0
 10
299.5743940875557
 20
301.7669291597867
 30
0.0
 10
301.2312351277139
 20
301.7034054112754
 30
0.0
 10
302.0554176318665
 20
301.6647771552864
 30
0.0
 10
303.6958003484644
 20
301.5698013551164
 30
0.0
 10
304.5119943121282
 20
301.5134257234267
 30
0.0
 10
305.7311473676503
 20
301.4128845175052
 30
0.0
 10
306.1366811572909
 20
301.3767140130302
 30
0.0
 10
306.946263949891
 20
301.2987380616253
 30
0.0
 10
307.3504024227952
 20
301.2569202915618
 30
0.0
 10
308.5596583753277
 20
301.1228704656289
 30
0.0
 10
309.3619642286626
 20
301.0219264072491
 30
0.0
 10
310.9621461436002
 20
300.7973566752402
 30
0.0
 10
311.7600457445233
 20
300.6737390910422
 30
0.0
 10
313.3552350617555
 20
300.4069102970283
 30
0.0
 10
314.1525526085713
 20
300.263740996963
 30
0.0
 10
315.3506978174212
 20
300.0380289491331
 30
0.0
 10
315.7504457330695
 20
299.9609844039111
 30
0.0
 10
316.5509524236149
 20
299.8038910180397
 30
0.0
 10
316.9514589482413
 20
299.7238024815509
 30
0.0
 10
317.7524364065353
 20
299.559815530077
 30
0.0
 10
318.1529077121946
 20
299.4759147656113
 30
0.0
 10
318.9535100919727
 20
299.3038043908681
 30
0.0
 10
319.3536424075944
 20
299.2155942969265
 30
0.0
 10
320.1534756885555
 20
299.0346440108464
 30
0.0
 10
320.5531784555742
 20
298.9419049278179
 30
0.0
 10
321.3522282311725
 20
298.7519426889173
 30
0.0
 10
321.7515623786934
 20
298.6546941865229
 30
0.0
 10
322.5501488847132
 20
298.4561407239385
 30
0.0
 10
322.9494217841697
 20
298.354873187539
 30
0.0
 10
323.7482409407709
 20
298.1489444316153
 30
0.0
 10
324.1477860548964
 20
298.0442824565163
 30
0.0
 10
324.9473415411214
 20
297.8319824693663
 30
0.0
 10
325.3473848843169
 20
297.7243343570692
 30
0.0
 10
326.1476521417304
 20
297.5064382099967
 30
0.0
 10
326.5479173838607
 20
297.3961787445385
 30
0.0
 10
327.7491689324615
 20
297.0616815694445
 30
0.0
 10
328.5506317764335
 20
296.833780848981
 30
0.0
 10
329.7535615178966
 20
296.4843812164391
 30
0.0
 10
330.1546274423813
 20
296.3666506935173
 30
0.0
 10
330.9566457708935
 20
296.1285093166567
 30
0.0
 10
331.357626560625
 20
296.0080915365277
 30
0.0
 10
332.5602618857825
 20
295.6422630702056
 30
0.0
 10
333.3616797468524
 20
295.3924000658711
 30
0.0
 10
334.5615955102069
 20
295.0044879914208
 30
0.0
 10
334.9610659557518
 20
294.873025133056
 30
0.0
 10
335.7589542026864
 20
294.6055701623495
 30
0.0
 10
336.1573695201043
 20
294.4695701756543
 30
0.0
 10
336.5553674522341
 20
294.3315394425986
 30
0.0
  0
SPLINE
  5
19E
330
1F
100
AcDbEntity
  8
1
100
AcDbSpline
210
0.0
220
0.0
230
1.0
 70
     8
 71
     3
 72
    44
 73
    40
 74
     0
 42
0.000000001
 43
0.0000000001
 40
0.0
 40
0.0
 40
0.0
 40
0.0
 40
0.0534387857355326
 40
0.0534387857355326
 40
0.1068775714710652
 40
0.1068775714710652
 40
0.1603163572065978
 40
0.1603163572065978
 40
0.2137551429421303
 40
0.2137551429421303
 40
0.2671939286776615
 40
0.2671939286776615
 40
0.3206327144131926
 40
0.3206327144131926
 40
0.3740715001487238
 40
0.3740715001487238
 40
0.4007908930164894
 40
0.4007908930164894
 40
0.4275102858842549
 40
0.4275102858842549
 40
0.4809490716197868
 40
0.4809490716197868
 40
0.5343878573553186
 40
0.5343878573553186
 40
0.6412654288263815
 40
0.6412654288263815
 40
0.6947042145619131
 40
0.6947042145619131
 40
0.7481430002974446
 40
0.7481430002974446
 40
0.8015817860329761
 40
0.8015817860329761
 40
0.8550205717685075
 40
0.8550205717685075
 40
0.9084593575040392
 40
0.9084593575040392
 40
0.9618981432395708
 40
0.9618981432395708
 40
1.0
 40
1.0
 40
1.0
 40
1.0
 10
342.9534080811064
 20
301.7910038254715
 30
0.0
 10
342.5171112457249
 20
301.8232343011655
 30
0.0
 10
342.0773534634955
 20
301.847585108466
 30
0.0
 10
341.1904086057011
 20
301.8834342213182
 30
0.0
 10
340.7432223533747
 20
301.8949408037231
 30
0.0
 10
339.8414004930764
 20
301.907873489156
 30
0.0
 10
339.3867652458798
 20
301.9093057948826
 30
0.0
 10
338.4704935824125
 20
301.9044908059882
 30
0.0
 10
338.0088576364467
 20
301.8982481533096
 30
0.0
 10
337.0794906813663
 20
301.8799518844961
 30
0.0
 10
336.6117607325294
 20
301.8679015501276
 30
0.0
 10
335.6715486618741
 20
301.8392081613935
 30
0.0
 10
335.1990685910672
 20
301.8225672243136
 30
0.0
 10
334.2510907466774
 20
301.7851803722791
 30
0.0
 10
333.7755962596077
 20
301.7644357449742
 30
0.0
 10
333.0616262939881
 20
301.7300208018978
 30
0.0
 10
332.8235820684318
 20
301.7179926216855
 30
0.0
 10
332.3476627067444
 20
301.6927386556803
 30
0.0
 10
332.1097580610364
 20
301.6795187335121
 30
0.0
 10
331.3962476855163
 20
301.6380487325087
 30
0.0
 10
330.920846978221
 20
301.6079901368859
 30
0.0
 10
329.9707778357053
 20
301.5428258542655
 30
0.0
 10
329.4961102101419
 20
301.5077187564885
 30
0.0
 10
328.0734051010707
 20
301.3944317039723
 30
0.0
 10
327.126689430598
 20
301.3082782726785
 30
0.0
 10
325.7094936625218
 20
301.1615546584093
 30
0.0
 10
325.2375671546649
 20
301.109734075784
 30
0.0
 10
324.2946745916094
 20
300.9999894150719
 30
0.0
 10
323.8237058177699
 20
300.9420695119896
 30
0.0
 10
322.8828064260319
 20
300.8197428033237
 30
0.0
 10
322.4128724440504
 20
300.7553429080743
 30
0.0
 10
321.4742776591551
 20
300.6193990095047
 30
0.0
 10
321.0056598202503
 20
300.5477963471807
 30
0.0
 10
320.0697898781929
 20
300.3968438960727
 30
0.0
 10
319.6025295907602
 20
300.3175028540152
 30
0.0
 10
318.669210630376
 20
300.150809451029
 30
0.0
 10
318.203155334582
 20
300.0634483636783
 30
0.0
 10
317.4055420348877
 20
299.9069823853832
 30
0.0
 10
317.0737724827979
 20
299.8398299471063
 30
0.0
 10
316.7421121636835
 20
299.770771859679
 30
0.0
  0
SPLINE
  5
19F
330
1F
100
AcDbEntity
  8
1
100
AcDbSpline
210
0.0
220
0.0
230
1.0
 70
     8
 71
     3
 72
    35
 73
    31
 74
     0
 42
0.000000001
 43
0.0000000001
 40
0.0
 40
0.0
 40
0.0
 40
0.0
 40
0.0624999999999998
 40
0.0624999999999998
 40
0.1249999999999996
 40
0.1249999999999996
 40
0.1874999999999994
 40
0.1874999999999994
 40
0.2499999999999992
 40
0.2499999999999992
 40
0.3124999999999989
 40
0.3124999999999989
 40
0.3437499999999989
 40
0.3437499999999989
 40
0.3749999999999989
 40
0.3749999999999989
 40
0.4374999999999992
 40
0.4374999999999992
 40
0.4999999999999993
 40
0.4999999999999993
 40
0.6249999999999997
 40
0.6249999999999997
 40
0.75
 40
0.75
 40
0.8750000000000003
 40
0.8750000000000003
 40
0.9062500000000003
 40
0.9062500000000003
 40
0.9375000000000001
 40
1.0
 40
1.0
 40
1.0
 40
1.0
 10
293.2038318185191
 20
275.9712942224691
 30
0.0
 10
292.9505946954597
 20
275.9649045834274
 30
0.0
 10
292.7010147756261
 20
275.951473826588
 30
0.0
 10
292.2083309863135
 20
275.9123458615026
 30
0.0
 10
291.9652284963565
 20
275.8866469753571
 30
0.0
 10
291.4848218195764
 20
275.8244756991321
 30
0.0
 10
291.2475184667717
 20
275.788002131568
 30
0.0
 10
290.7781563589811
 20
275.7054981381166
 30
0.0
 10
290.5460980982285
 20
275.6594667722092
 30
0.0
 10
290.0867773176116
 20
275.5588183855234
 30
0.0
 10
289.8595150893902
 20
275.5042005168208
 30
0.0
 10
289.5219520727909
 20
275.4163985456483
 30
0.0
 10
289.4099451955532
 20
275.3861387137932
 30
0.0
 10
289.1871811393946
 20
275.3237819853656
 30
0.0
 10
289.0767300387345
 20
275.2917718439547
 30
0.0
 10
288.7480321271942
 20
275.193381709236
 30
0.0
 10
288.5324349182586
 20
275.124647674693
 30
0.0
 10
288.1077319539073
 20
274.9814653997402
 30
0.0
 10
287.8986274278148
 20
274.9070155615213
 30
0.0
 10
287.2804444729457
 20
274.6756959571607
 30
0.0
 10
286.8804431523258
 20
274.5108965329471
 30
0.0
 10
286.1029980001953
 20
274.1620236918399
 30
0.0
 10
285.7255734032019
 20
273.9779282412114
 30
0.0
 10
284.9931368539568
 20
273.591260371361
 30
0.0
 10
284.6381359594727
 20
273.3886774282431
 30
0.0
 10
284.208948081928
 20
273.1240514808433
 30
0.0
 10
284.1238143627967
 20
273.0705383754338
 30
0.0
 10
283.9551466125411
 20
272.9624458619705
 30
0.0
 10
283.7047779910393
 20
272.7988586735939
 30
0.0
 10
283.4623563320631
 20
272.6309769263279
 30
0.0
 10
283.3043368819074
 20
272.5171852063986
 30
0.0
  0
SPLINE
  5
1A0
330
1F
100
AcDbEntity
  8
1
100
AcDbSpline
210
0.0
220
0.0
230
1.0
 70
     8
 71
     3
 72
    36
 73
    32
 74
     0
 42
0.000000001
 43
0.0000000001
 40
0.0
 40
0.0
 40
0.0
 40
0.0
 40
0.1249999999999733
 40
0.1249999999999733
 40
0.187499999999961
 40
0.187499999999961
 40
0.2187499999999538
 40
0.2187499999999538
 40
0.2499999999999467
 40
0.2499999999999467
 40
0.3749999999998903
 40
0.3749999999998903
 40
0.406249999999886
 40
0.406249999999886
 40
0.4374999999998818
 40
0.4374999999998818
 40
0.4999999999998963
 40
0.4999999999998963
 40
0.624999999999924
 40
0.624999999999924
 40
0.6562499999999229
 40
0.6562499999999229
 40
0.6874999999999221
 40
0.7499999999999512
 40
0.8124999999999802
 40
0.8124999999999802
 40
0.8437499999999948
 40
0.8437499999999948
 40
0.8750000000000095
 40
0.8750000000000095
 40
1.0
 40
1.0
 40
1.0
 40
1.0
 10
345.1298794677725
 20
294.8206282672792
 30
0.0
 10
345.1321441182844
 20
294.770140038095
 30
0.0
 10
345.1395713830526
 20
294.720764595969
 30
0.0
 10
345.1579254216048
 20
294.6482562052268
 30
0.0
 10
345.1652560040575
 20
294.624348107631
 30
0.0
 10
345.1780921372519
 20
294.5888826240269
 30
0.0
 10
345.1826920565085
 20
294.5770952687904
 30
0.0
 10
345.1924357819977
 20
294.5538444526184
 30
0.0
 10
345.1975771010956
 20
294.5423810358612
 30
0.0
 10
345.224599579864
 20
294.4858550326288
 30
0.0
 10
345.2503888664734
 20
294.4431419275021
 30
0.0
 10
345.2877525866198
 20
294.3928328548147
 30
0.0
 10
345.2954841297912
 20
294.3829266247213
 30
0.0
 10
345.3114725530408
 20
294.3634299857153
 30
0.0
 10
345.3197357482956
 20
294.3538354360562
 30
0.0
 10
345.3450526787365
 20
294.3258275179939
 30
0.0
 10
345.3627145431552
 20
294.3080835688207
 30
0.0
 10
345.4179895735402
 20
294.2575619645864
 30
0.0
 10
345.4578689792195
 20
294.2274670916329
 30
0.0
 10
345.5116478635814
 20
294.194500406261
 30
0.0
 10
345.5226049490081
 20
294.1881427590753
 30
0.0
 10
345.5446777825415
 20
294.1760376977273
 30
0.0
 10
345.5781136290491
 20
294.1587403901461
 30
0.0
 10
345.6354473155658
 20
294.1341452560795
 30
0.0
 10
345.6830227205816
 20
294.1189693784986
 30
0.0
 10
345.7193626942434
 20
294.1093218088699
 30
0.0
 10
345.7315859648838
 20
294.1063955604279
 30
0.0
 10
345.7562580972135
 20
294.1011372911096
 30
0.0
 10
345.7687200755581
 20
294.0988047787971
 30
0.0
 10
345.8310038410644
 20
294.0887608448538
 30
0.0
 10
345.8811968174843
 20
294.0857447584964
 30
0.0
 10
345.9317704209633
 20
294.0879488311542
 30
0.0
  0
SPLINE
  5
1A1
330
1F
100
AcDbEntity
  8
1
100
AcDbSpline
210
0.0
220
0.0
230
1.0
 70
     8
 71
     3
 72
    18
 73
    14
 74
     0
 42
0.000000001
 43
0.0000000001
 40
0.0
 40
0.0
 40
0.0
 40
0.0
 40
0.2500000000000084
 40
0.2500000000000084
 40
0.5000000000000167
 40
0.5000000000000167
 40
0.750000000000025
 40
0.750000000000025
 40
0.8125000000000229
 40
0.8125000000000229
 40
0.8750000000000207
 40
0.8750000000000207
 40
1.0
 40
1.0
 40
1.0
 40
1.0
 10
346.1317297573942
 20
292.6552440696641
 30
0.0
 10
345.9584884802684
 20
292.6712849654437
 30
0.0
 10
345.7810110648276
 20
292.6883813889495
 30
0.0
 10
345.4187093643363
 20
292.7262846944448
 30
0.0
 10
345.2338785278849
 20
292.7470845589013
 30
0.0
 10
344.8575012001274
 20
292.7936552734649
 30
0.0
 10
344.6659519790825
 20
292.8194217918754
 30
0.0
 10
344.4225007775892
 20
292.855428553139
 30
0.0
 10
344.3736090499048
 20
292.8628196155557
 30
0.0
 10
344.2754243125917
 20
292.8779979171982
 30
0.0
 10
344.226129619658
 20
292.8857857922335
 30
0.0
 10
344.0781249469454
 20
292.9096888711162
 30
0.0
 10
343.9791362228583
 20
292.9263678435837
 30
0.0
 10
343.8798419452958
 20
292.9438320125547
 30
0.0
  0
SPLINE
  5
1A2
330
1F
100
AcDbEntity
  8
1
100
AcDbSpline
210
0.0
220
0.0
230
1.0
 70
     8
 71
     3
 72
    16
 73
    12
 74
     0
 42
0.000000001
 43
0.0000000001
 40
0.0
 40
0.0
 40
0.0
 40
0.0
 40
0.2499999999999963
 40
0.2499999999999963
 40
0.4999999999999928
 40
0.4999999999999928
 40
0.749999999999989
 40
0.749999999999989
 40
0.8749999999999944
 40
0.8749999999999944
 40
1.0
 40
1.0
 40
1.0
 40
1.0
 10
343.8798419452955
 20
291.1628175374689
 30
0.0
 10
344.0830404619764
 20
291.1436979080347
 30
0.0
 10
344.2836281735306
 20
291.1318388977086
 30
0.0
 10
344.679442768624
 20
291.1217923209657
 30
0.0
 10
344.8746710194537
 20
291.1236067044211
 30
0.0
 10
345.2593473019529
 20
291.1403206310814
 30
0.0
 10
345.4487992962113
 20
291.15522068412
 30
0.0
 10
345.7280612172925
 20
291.1871097874069
 30
0.0
 10
345.8204655794339
 20
291.1993568107618
 30
0.0
 10
346.0021651378355
 20
291.2267909461055
 30
0.0
 10
346.0915901647108
 20
291.2419877190277
 30
0.0
 10
346.1795146045679
 20
291.2586007683588
 30
0.0
  0
SPLINE
  5
1A3
330
1F
100
AcDbEntity
  8
1
100
AcDbSpline
210
0.0
220
0.0
230
1.0
 70
    24
 71
     3
 72
    22
 73
    18
 74
     0
 42
0.000000001
 43
0.0000000001
 40
0.0
 40
0.0
 40
0.0
 40
0.0
 40
0.125051075479911
 40
0.125051075479911
 40
0.250102150959822
 40
0.250102150959822
 40
0.375153226439733
 40
0.375153226439733
 40
0.500204301919644
 40
0.500204301919644
 40
0.6252553773995551
 40
0.6252553773995551
 40
0.750306452879466
 40
0.750306452879466
 40
0.8753575283593768
 40
0.8753575283593768
 40
1.0
 40
1.0
 40
1.0
 40
1.0
 10
343.8798419452958
 20
292.9438320125547
 30
0.0
 10
343.8798419452958
 20
292.677082218294
 30
0.0
 10
343.8798419452958
 20
292.4288536060469
 30
0.0
 10
343.8798419452958
 20
291.9752939015883
 30
0.0
 10
343.8798419452958
 20
291.7699670404007
 30
0.0
 10
343.8798419452958
 20
291.4070625000688
 30
0.0
 10
343.8798419452958
 20
291.2494882062735
 30
0.0
 10
343.8798419452958
 20
290.9858123954623
 30
0.0
 10
343.8798419452958
 20
290.879713338142
 30
0.0
 10
343.8798419452958
 20
290.7214955583773
 30
0.0
 10
343.8798419452958
 20
290.669378311865
 30
0.0
 10
343.8798419452958
 20
290.6203564344894
 30
0.0
 10
343.8798419452958
 20
290.6234522609257
 30
0.0
 10
343.8798419452958
 20
290.684784420447
 30
0.0
 10
343.8798419452957
 20
290.7430201813962
 30
0.0
 10
343.8798419452958
 20
290.9129792900294
 30
0.0
 10
343.8798419452957
 20
291.0245256678091
 30
0.0
 10
343.8798419452958
 20
291.161469924387
 30
0.0
  0
SPLINE
  5
1A4
330
1F
100
AcDbEntity
  8
1
100
AcDbSpline
210
0.0
220
0.0
230
1.0
 70
     8
 71
     3
 72
    12
 73
     8
 74
     0
 42
0.000000001
 43
0.0000000001
 40
0.0
 40
0.0
 40
0.0
 40
0.0
 40
0.5000000000000067
 40
0.5000000000000067
 40
0.7500000000000034
 40
0.7500000000000034
 40
1.0
 40
1.0
 40
1.0
 40
1.0
 10
342.1588169418981
 20
293.6300693440425
 30
0.0
 10
342.4503658087133
 20
293.4959151018354
 30
0.0
 10
342.7401212021617
 20
293.3723252575512
 30
0.0
 10
343.1709320997883
 20
293.2012826694598
 30
0.0
 10
343.3138921760801
 20
293.1466598849655
 30
0.0
 10
343.5981977741986
 20
293.04193249187
 30
0.0
 10
343.739545737851
 20
292.9918290313187
 30
0.0
 10
343.8798419452958
 20
292.9438320125547
 30
0.0
  0
SPLINE
  5
1A5
330
1F
100
AcDbEntity
  8
1
100
AcDbSpline
210
0.0
220
0.0
230
1.0
 70
     8
 71
     3
 72
    12
 73
     8
 74
     0
 42
0.000000001
 43
0.0000000001
 40
0.0
 40
0.0
 40
0.0
 40
0.0
 40
0.3751463561588808
 40
0.3751463561588808
 40
0.6875731780794405
 40
0.6875731780794405
 40
1.0
 40
1.0
 40
1.0
 40
1.0
 10
290.9041988073886
 20
302.0981341778575
 30
0.0
 10
291.1824018693252
 20
302.0517938326781
 30
0.0
 10
291.4638730984787
 20
302.0124266702607
 30
0.0
 10
291.9861967123292
 20
301.9543050714586
 30
0.0
 10
292.225980005852
 20
301.9332236278365
 30
0.0
 10
292.7108261638865
 20
301.9027601940526
 30
0.0
 10
292.9558882853686
 20
301.8933770523189
 30
0.0
 10
293.2038318185191
 20
301.8904659684751
 30
0.0
  0
SPLINE
  5
1A6
330
1F
100
AcDbEntity
  8
1
100
AcDbSpline
210
0.0
220
0.0
230
1.0
 70
     8
 71
     3
 72
    10
 73
     6
 74
     0
 42
0.000000001
 43
0.0000000001
 40
0.0
 40
0.0
 40
0.0
 40
0.0
 40
0.5
 40
0.5
 40
1.0
 40
1.0
 40
1.0
 40
1.0
 10
295.8657872993013
 20
301.8509277632905
 30
0.0
 10
295.4199856774893
 20
301.858422685286
 30
0.0
 10
294.9754120251064
 20
301.8657381859974
 30
0.0
 10
294.0882130802886
 20
301.8791648874875
 30
0.0
 10
293.645585613808
 20
301.8852793748985
 30
0.0
 10
293.2038318185191
 20
301.8904659684751
 30
0.0
  0
SPLINE
  5
1A7
330
1F
100
AcDbEntity
  8
1
100
AcDbSpline
210
0.0
220
0.0
230
1.0
 70
     8
 71
     3
 72
    14
 73
    10
 74
     0
 42
0.000000001
 43
0.0000000001
 40
0.0
 40
0.0
 40
0.0
 40
0.0
 40
0.25
 40
0.25
 40
0.5
 40
0.5
 40
0.75
 40
0.75
 40
1.0
 40
1.0
 40
1.0
 40
1.0
 10
339.3847653996959
 20
292.6821372516424
 30
0.0
 10
339.1466149916488
 20
292.8165470180622
 30
0.0
 10
338.9092660769088
 20
292.951986197331
 30
0.0
 10
338.435789454129
 20
293.2244330354275
 30
0.0
 10
338.1996635805748
 20
293.3614430504107
 30
0.0
 10
337.7283822708182
 20
293.6367094796549
 30
0.0
 10
337.4932279033611
 20
293.7749672665789
 30
0.0
 10
337.0237220870035
 20
294.0525140838215
 30
0.0
 10
336.7893712978928
 20
294.1918039615535
 30
0.0
 10
336.5553674522536
 20
294.3315394425917
 30
0.0
  0
SPLINE
  5
1A8
330
1F
100
AcDbEntity
  8
1
100
AcDbSpline
210
0.0
220
0.0
230
1.0
 70
     8
 71
     3
 72
     8
 73
     4
 74
     0
 42
0.000000001
 43
0.0000000001
 40
0.0
 40
0.0
 40
0.0
 40
0.0
 40
1.0
 40
1.0
 40
1.0
 40
1.0
 10
346.275051874448
 20
293.7345325978856
 30
0.0
 10
346.2168132875157
 20
293.7044955058489
 30
0.0
 10
346.1563671429611
 20
293.6797391158977
 30
0.0
 10
346.0937113987982
 20
293.660370268217
 30
0.0
  0
SPLINE
  5
1A9
330
1F
100
AcDbEntity
  8
1
100
AcDbSpline
210
0.0
220
0.0
230
1.0
 70
     8
 71
     3
 72
    14
 73
    10
 74
     0
 42
0.000000001
 43
0.0000000001
 40
0.0
 40
0.0
 40
0.0
 40
0.0
 40
0.25
 40
0.25
 40
0.5
 40
0.5
 40
0.75
 40
0.75
 40
1.0
 40
1.0
 40
1.0
 40
1.0
 10
342.1588169418981
 20
293.6300693440425
 30
0.0
 10
342.4786290543953
 20
293.5427070345724
 30
0.0
 10
342.8022042020947
 20
293.4676138208562
 30
0.0
 10
343.4567432373371
 20
293.3423959155849
 30
0.0
 10
343.7850449538635
 20
293.2927771075262
 30
0.0
 10
344.4436747661408
 20
293.2191024072108
 30
0.0
 10
344.7740029214328
 20
293.1950470157065
 30
0.0
 10
345.4366870451369
 20
293.1725587264408
 30
0.0
 10
345.7690429474173
 20
293.174124863995
 30
0.0
 10
346.1024330631428
 20
293.1887719703047
 30
0.0
  0
SPLINE
  5
1AA
330
1F
100
AcDbEntity
  8
1
100
AcDbSpline
210
0.0
220
0.0
230
1.0
 70
     8
 71
     3
 72
     8
 73
     4
 74
     0
 42
0.000000001
 43
0.0000000001
 40
0.0
 40
0.0
 40
0.0
 40
0.0
 40
1.0
 40
1.0
 40
1.0
 40
1.0
 10
346.1024330631428
 20
293.1887719703047
 30
0.0
 10
346.1061074609844
 20
293.1889334006929
 30
0.0
 10
346.1097828030526
 20
293.1890942253913
 30
0.0
 10
346.1134590908056
 20
293.1892544434647
 30
0.0
  0
SPLINE
  5
1AB
330
1F
100
AcDbEntity
  8
1
100
AcDbSpline
210
0.0
220
0.0
230
1.0
 70
     8
 71
     3
 72
    24
 73
    20
 74
     0
 42
0.000000001
 43
0.0000000001
 40
0.0
 40
0.0
 40
0.0
 40
0.0
 40
0.1249999999999978
 40
0.1249999999999978
 40
0.2499999999999956
 40
0.2499999999999956
 40
0.3749999999999934
 40
0.3749999999999934
 40
0.4999999999999912
 40
0.4999999999999912
 40
0.5312499999999894
 40
0.5312499999999894
 40
0.5624999999999875
 40
0.6249999999999893
 40
0.6249999999999893
 40
0.7499999999999928
 40
0.8749999999999964
 40
0.8749999999999964
 40
1.0
 40
1.0
 40
1.0
 40
1.0
 10
339.3913915553751
 20
292.4884696663836
 30
0.0
 10
339.6428089031057
 20
292.3283333607048
 30
0.0
 10
339.8992639525264
 20
292.1785830367767
 30
0.0
 10
340.4219121246792
 20
291.8996471530482
 30
0.0
 10
340.6881052739585
 20
291.7704607899917
 30
0.0
 10
341.2300452561915
 20
291.5326842162816
 30
0.0
 10
341.5057917568097
 20
291.4240927062844
 30
0.0
 10
342.0668107039003
 20
291.2278075353904
 30
0.0
 10
342.3520823707442
 20
291.1401118060811
 30
0.0
 10
342.7147164031546
 20
291.0439416333521
 30
0.0
 10
342.7875540017932
 20
291.0253789698576
 30
0.0
 10
342.933805891873
 20
290.9896218410862
 30
0.0
 10
343.1534015886872
 20
290.9381966070139
 30
0.0
 10
343.3736440444046
 20
290.8933454668022
 30
0.0
 10
343.8149775717567
 20
290.8122958968366
 30
0.0
 10
344.4056823045092
 20
290.7272771784454
 30
0.0
 10
345.0008339837783
 20
290.6878097823994
 30
0.0
 10
345.5982200485656
 20
290.6712774469356
 30
0.0
 10
345.8980301283022
 20
290.6744773913477
 30
0.0
 10
346.1989875544514
 20
290.6894503656658
 30
0.0
  0
SPLINE
  5
1AC
330
1F
100
AcDbEntity
  8
1
100
AcDbSpline
210
0.0
220
0.0
230
1.0
 70
     8
 71
     3
 72
    18
 73
    14
 74
     0
 42
0.000000001
 43
0.0000000001
 40
0.0
 40
0.0
 40
0.0
 40
0.0
 40
0.2500000000000103
 40
0.2500000000000103
 40
0.3750000000000155
 40
0.3750000000000155
 40
0.4375000000000139
 40
0.4375000000000139
 40
0.5000000000000125
 40
0.5000000000000125
 40
0.7500000000000063
 40
0.7500000000000063
 40
1.0
 40
1.0
 40
1.0
 40
1.0
 10
343.8798419452955
 20
291.1628175374683
 30
0.0
 10
343.483438179697
 20
291.2183561215343
 30
0.0
 10
343.0913655273266
 20
291.2923199304658
 30
0.0
 10
342.5096717875484
 20
291.4303144309999
 30
0.0
 10
342.3168450013156
 20
291.48083150765
 30
0.0
 10
342.0292183766495
 20
291.5634026664374
 30
0.0
 10
341.933557770971
 20
291.5920766321923
 30
0.0
 10
341.743027060318
 20
291.6516224907828
 30
0.0
 10
341.6482568162339
 20
291.6824616358844
 30
0.0
 10
341.176862254472
 20
291.8419486034853
 30
0.0
 10
340.8075915519997
 20
291.9864220791882
 30
0.0
 10
340.0845240688848
 20
292.3088891199595
 30
0.0
 10
339.7307273644053
 20
292.4868796946721
 30
0.0
 10
339.3847653996804
 20
292.6821372516512
 30
0.0
  0
SPLINE
  5
1AD
330
1F
100
AcDbEntity
  8
1
100
AcDbSpline
210
0.0
220
0.0
230
1.0
 70
     8
 71
     3
 72
    37
 73
    33
 74
     0
 42
0.000000001
 43
0.0000000001
 40
0.0
 40
0.0
 40
0.0
 40
0.0
 40
0.1249999999999887
 40
0.1249999999999887
 40
0.2499999999999774
 40
0.2499999999999774
 40
0.3124999999999856
 40
0.3124999999999856
 40
0.3749999999999939
 40
0.3749999999999939
 40
0.4999999999999846
 40
0.4999999999999846
 40
0.5624999999999791
 40
0.5624999999999791
 40
0.6249999999999736
 40
0.6249999999999736
 40
0.6562499999999668
 40
0.6562499999999668
 40
0.6874999999999602
 40
0.7187499999999534
 40
0.7187499999999534
 40
0.7499999999999467
 40
0.7499999999999467
 40
0.8124999999999353
 40
0.8124999999999353
 40
0.8437499999999381
 40
0.8437499999999381
 40
0.8749999999999413
 40
0.8749999999999413
 40
0.9374999999999708
 40
0.9374999999999708
 40
1.0
 40
1.0
 40
1.0
 40
1.0
 10
341.7202587804957
 20
293.7807277639535
 30
0.0
 10
341.6855005243972
 20
293.7933590075233
 30
0.0
 10
341.6517848837811
 20
293.8074285003168
 30
0.0
 10
341.5867295990263
 20
293.8388394580314
 30
0.0
 10
341.5553839506072
 20
293.8561727140538
 30
0.0
 10
341.5105538325724
 20
293.8851821527083
 30
0.0
 10
341.49597759185
 20
293.8953568641448
 30
0.0
 10
341.4676758976896
 20
293.9168755831214
 30
0.0
 10
341.4539037366119
 20
293.928262514601
 30
0.0
 10
341.4145366514611
 20
293.9641386763219
 30
0.0
 10
341.3908105900327
 20
293.9902527693948
 30
0.0
 10
341.3608031663982
 20
294.0342832295097
 30
0.0
 10
341.3519024268173
 20
294.0495670545969
 30
0.0
 10
341.3367958118873
 20
294.0815145004233
 30
0.0
 10
341.3305749852032
 20
294.0981850866641
 30
0.0
 10
341.3238199098987
 20
294.1245359438734
 30
0.0
 10
341.3219951830257
 20
294.133587217891
 30
0.0
 10
341.3193897931869
 20
294.1520265308419
 30
0.0
 10
341.3178417212533
 20
294.1706520840022
 30
0.0
 10
341.3185735862813
 20
294.1896783320558
 30
0.0
 10
341.3205560287408
 20
294.2089238619497
 30
0.0
 10
341.3221939868317
 20
294.218730053351
 30
0.0
 10
341.3290095233069
 20
294.2477795630055
 30
0.0
 10
341.3360446111329
 20
294.2667287870859
 30
0.0
 10
341.3503199353008
 20
294.2945271504079
 30
0.0
 10
341.355727913819
 20
294.3037145180934
 30
0.0
 10
341.3674448018721
 20
294.3213852229629
 30
0.0
 10
341.3737825192038
 20
294.3299342990653
 30
0.0
 10
341.3941037744239
 20
294.3547999998573
 30
0.0
 10
341.4095091309903
 20
294.3704138059991
 30
0.0
 10
341.4421484578614
 20
294.3989417110195
 30
0.0
 10
341.4594805523385
 20
294.4120021487618
 30
0.0
 10
341.4776125389046
 20
294.4241117433383
 30
0.0
  0
SPLINE
  5
1AE
330
1F
100
AcDbEntity
  8
1
100
AcDbSpline
210
0.0
220
0.0
230
1.0
 70
     8
 71
     3
 72
    17
 73
    13
 74
     0
 42
0.000000001
 43
0.0000000001
 40
0.0
 40
0.0
 40
0.0
 40
0.0
 40
0.2500000000000012
 40
0.2500000000000012
 40
0.5000000000000025
 40
0.5000000000000025
 40
0.7500000000000037
 40
0.7500000000000037
 40
0.8125000000000015
 40
0.8125000000000015
 40
0.8749999999999992
 40
1.0
 40
1.0
 40
1.0
 40
1.0
 10
295.8288963419391
 20
276.0491936066176
 30
0.0
 10
295.9927553820255
 20
276.0600546884765
 30
0.0
 10
296.1589977020237
 20
276.0702410791371
 30
0.0
 10
296.4962885816619
 20
276.0884591400687
 30
0.0
 10
296.6673368243219
 20
276.0964914201314
 30
0.0
 10
297.0143854104424
 20
276.1097322453085
 30
0.0
 10
297.1903849571019
 20
276.1149409024961
 30
0.0
 10
297.4136470565615
 20
276.1193458205162
 30
0.0
 10
297.4585136087542
 20
276.1201222854623
 30
0.0
 10
297.5480381424998
 20
276.121451010746
 30
0.0
 10
297.6821797295439
 20
276.1231120122398
 30
0.0
 10
297.8158902336978
 20
276.1237738992253
 30
0.0
 10
297.9048419452959
 20
276.1237738992253
 30
0.0
  0
SPLINE
  5
1AF
330
1F
100
AcDbEntity
  8
1
100
AcDbSpline
210
0.0
220
0.0
230
1.0
 70
     8
 71
     3
 72
    30
 73
    26
 74
     0
 42
0.000000001
 43
0.0000000001
 40
0.0
 40
0.0
 40
0.0
 40
0.0
 40
0.0344994109054984
 40
0.0344994109054984
 40
0.1724280664904302
 40
0.1724280664904302
 40
0.2413923942828955
 40
0.2413923942828955
 40
0.3103567220753609
 40
0.3103567220753609
 40
0.344838885971593
 40
0.344838885971593
 40
0.3793210498678251
 40
0.3793210498678251
 40
0.4482853776602895
 40
0.4482853776602895
 40
0.5172497054527536
 40
0.5172497054527536
 40
0.586214033245218
 40
0.586214033245218
 40
0.7241426888301453
 40
0.7241426888301453
 40
0.8620713444150727
 40
0.8620713444150727
 40
1.0
 40
1.0
 40
1.0
 40
1.0
 10
315.4163287367367
 20
278.3022251925338
 30
0.0
 10
315.2181504230305
 20
278.2585040692238
 30
0.0
 10
315.020058741895
 20
278.2151639261859
 30
0.0
 10
314.030300136411
 20
278.000759104378
 30
0.0
 10
313.2400255499915
 20
277.8365094135744
 30
0.0
 10
312.0535148300902
 20
277.6057546776938
 30
0.0
 10
311.6578264552543
 20
277.5314217386684
 30
0.0
 10
310.8655507006416
 20
277.3884575829964
 30
0.0
 10
310.4689625718606
 20
277.3198266103342
 30
0.0
 10
309.8730412773126
 20
277.2214063901971
 30
0.0
 10
309.6742280821704
 20
277.1893524459092
 30
0.0
 10
309.2762013075967
 20
277.126773122095
 30
0.0
 10
309.07696086463
 20
277.0962438120577
 30
0.0
 10
308.4788289764499
 20
277.0070043172777
 30
0.0
 10
308.0795008912752
 20
276.9506430880018
 30
0.0
 10
307.2794101506531
 20
276.8441151514721
 30
0.0
 10
306.8786474226383
 20
276.7939472384662
 30
0.0
 10
306.0754616850701
 20
276.699579668773
 30
0.0
 10
305.6730387610111
 20
276.6553787293715
 30
0.0
 10
304.4630340811365
 20
276.5312129023865
 30
0.0
 10
303.6526916804433
 20
276.4597040256867
 30
0.0
 10
302.0240156141682
 20
276.335663263951
 30
0.0
 10
301.2056908212307
 20
276.2831047567116
 30
0.0
 10
299.5610986825892
 20
276.1930517395848
 30
0.0
 10
298.7348393159822
 20
276.1555435219317
 30
0.0
 10
297.9048419452959
 20
276.1237738992253
 30
0.0
  0
SPLINE
  5
1B0
330
1F
100
AcDbEntity
  8
1
100
AcDbSpline
210
0.0
220
0.0
230
1.0
 70
     8
 71
     3
 72
    10
 73
     6
 74
     0
 42
0.000000001
 43
0.0000000001
 40
0.0
 40
0.0
 40
0.0
 40
0.0
 40
0.5
 40
0.5
 40
1.0
 40
1.0
 40
1.0
 40
1.0
 10
293.2038318185191
 20
275.9712942224691
 30
0.0
 10
293.6399201722099
 20
275.9822975348456
 30
0.0
 10
294.0765153661124
 20
275.9945299205547
 30
0.0
 10
294.9512585112426
 20
276.0208042371978
 30
0.0
 10
295.3894137742961
 20
276.0348499038737
 30
0.0
 10
295.8288963419393
 20
276.0491936066176
 30
0.0
  0
SPLINE
  5
1B1
330
1F
100
AcDbEntity
  8
1
100
AcDbSpline
210
0.0
220
0.0
230
1.0
 70
     8
 71
     3
 72
    20
 73
    16
 74
     0
 42
0.000000001
 43
0.0000000001
 40
0.0
 40
0.0
 40
0.0
 40
0.0
 40
0.2500000000000263
 40
0.2500000000000263
 40
0.3750000000000138
 40
0.3750000000000138
 40
0.5000000000000016
 40
0.5000000000000016
 40
0.749999999999977
 40
0.749999999999977
 40
0.8749999999999648
 40
0.8749999999999648
 40
0.9374999999999824
 40
0.9374999999999824
 40
1.0
 40
1.0
 40
1.0
 40
1.0
 10
346.0937113987982
 20
293.660370268217
 30
0.0
 10
346.0283382872711
 20
293.6401613974024
 30
0.0
 10
345.9620499272554
 20
293.6262710522253
 30
0.0
 10
345.8612887995543
 20
293.6146975618079
 30
0.0
 10
345.8274788581725
 20
293.6123926730765
 30
0.0
 10
345.7594031736519
 20
293.6109626672983
 30
0.0
 10
345.7249994618164
 20
293.6118605188573
 30
0.0
 10
345.62315444333
 20
293.6193204919878
 30
0.0
 10
345.5565110615881
 20
293.6305488557448
 30
0.0
 10
345.4583182538554
 20
293.6565129336455
 30
0.0
 10
345.425883995424
 20
293.6666969372386
 30
0.0
 10
345.3776760272242
 20
293.6843200322408
 30
0.0
 10
345.3617149746051
 20
293.6905761279346
 30
0.0
 10
345.3302809417283
 20
293.7037297895549
 30
0.0
 10
345.3147681971086
 20
293.7106415639573
 30
0.0
 10
345.2994573932266
 20
293.7178791152733
 30
0.0
  0
SPLINE
  5
1B2
330
1F
100
AcDbEntity
  8
1
100
AcDbSpline
210
0.0
220
0.0
230
1.0
 70
     8
 71
     3
 72
    21
 73
    17
 74
     0
 42
0.000000001
 43
0.0000000001
 40
0.0
 40
0.0
 40
0.0
 40
0.0
 40
0.2499999999999063
 40
0.2499999999999063
 40
0.3124999999998952
 40
0.3124999999998952
 40
0.3749999999998842
 40
0.3749999999998842
 40
0.4999999999999042
 40
0.6249999999999244
 40
0.6249999999999244
 40
0.6874999999999343
 40
0.6874999999999343
 40
0.7499999999999443
 40
0.7499999999999443
 40
1.0
 40
1.0
 40
1.0
 40
1.0
 10
347.7811806161386
 20
298.0601591150303
 30
0.0
 10
347.810697606521
 20
298.0303365185305
 30
0.0
 10
347.8364546953723
 20
297.9974029257694
 30
0.0
 10
347.8638890041739
 20
297.9521679660753
 30
0.0
 10
347.8691345949859
 20
297.9429150140187
 30
0.0
 10
347.8791282187569
 20
297.9239819002307
 30
0.0
 10
347.8838851373022
 20
297.9142768483598
 30
0.0
 10
347.8971866460933
 20
297.8849429948699
 30
0.0
 10
347.9124880848835
 20
297.8450030489404
 30
0.0
 10
347.9230305709874
 20
297.8034412443069
 30
0.0
 10
347.9291217134699
 20
297.7716520858805
 30
0.0
 10
347.9308533462757
 20
297.7609136248064
 30
0.0
 10
347.9336703693458
 20
297.7394298138036
 30
0.0
 10
347.9347558269298
 20
297.7287056376172
 30
0.0
 10
347.9386213943999
 20
297.6751681588346
 30
0.0
 10
347.9367812308167
 20
297.6326024516435
 30
0.0
 10
347.9301407762296
 20
297.5902552030729
 30
0.0
  0
SPLINE
  5
1B3
330
1F
100
AcDbEntity
  8
1
100
AcDbSpline
210
0.0
220
0.0
230
1.0
 70
     8
 71
     3
 72
    22
 73
    18
 74
     0
 42
0.000000001
 43
0.0000000001
 40
0.0
 40
0.0
 40
0.0
 40
0.0
 40
0.1250000000000002
 40
0.1250000000000002
 40
0.2500000000000003
 40
0.2500000000000003
 40
0.3750000000000006
 40
0.3750000000000006
 40
0.5000000000000007
 40
0.5000000000000007
 40
0.6250000000000005
 40
0.6250000000000005
 40
0.7500000000000004
 40
0.7500000000000004
 40
0.8750000000000001
 40
0.8750000000000001
 40
1.0
 40
1.0
 40
1.0
 40
1.0
 10
347.7042919936571
 20
298.0889620207934
 30
0.0
 10
347.6986446437293
 20
298.0885875267314
 30
0.0
 10
347.6929955692045
 20
298.0886889923868
 30
0.0
 10
347.6818906444292
 20
298.0898114597493
 30
0.0
 10
347.6764073473948
 20
298.0908297265054
 30
0.0
 10
347.6655841168188
 20
298.0938065225545
 30
0.0
 10
347.6602490277343
 20
298.095775010487
 30
0.0
 10
347.6500971615934
 20
298.1005458482284
 30
0.0
 10
347.6452317866797
 20
298.1033587789105
 30
0.0
 10
347.6359424353652
 20
298.1098764621626
 30
0.0
 10
347.6315432872461
 20
298.1135767576912
 30
0.0
 10
347.6235224841247
 20
298.1216334694731
 30
0.0
 10
347.6198583572716
 20
298.1260170875609
 30
0.0
 10
347.6132643479447
 20
298.1355349844552
 30
0.0
 10
347.6103906650658
 20
298.1406012202759
 30
0.0
 10
347.6056067051271
 20
298.1511307298798
 30
0.0
 10
347.6036739640808
 20
298.1566249143916
 30
0.0
 10
347.602230513862
 20
298.1623630259679
 30
0.0
  0
SPLINE
  5
1B4
330
1F
100
AcDbEntity
  8
1
100
AcDbSpline
210
0.0
220
0.0
230
1.0
 70
     8
 71
     3
 72
    14
 73
    10
 74
     0
 42
0.000000001
 43
0.0000000001
 40
0.0
 40
0.0
 40
0.0
 40
0.0
 40
0.6587879832802602
 40
0.6587879832802602
 40
0.8234849791003059
 40
0.8234849791003059
 40
0.9881819749203517
 40
0.9881819749203517
 40
1.0
 40
1.0
 40
1.0
 40
1.0
 10
347.602230513862
 20
298.1623630259679
 30
0.0
 10
347.5918474551698
 20
298.2036385396666
 30
0.0
 10
347.5863655681653
 20
298.2456034917893
 30
0.0
 10
347.5856394174057
 20
298.2989118474961
 30
0.0
 10
347.5858067914982
 20
298.3096392655065
 30
0.0
 10
347.5867607291767
 20
298.3309397089596
 30
0.0
 10
347.5875456393617
 20
298.3415381547464
 30
0.0
 10
347.5887109143869
 20
298.3528425909349
 30
0.0
 10
347.5887904848359
 20
298.3535991837198
 30
0.0
 10
347.5888716079209
 20
298.3543555152878
 30
0.0
  0
SPLINE
  5
1B5
330
1F
100
AcDbEntity
  8
1
100
AcDbSpline
210
0.0
220
0.0
230
1.0
 70
     8
 71
     3
 72
    14
 73
    10
 74
     0
 42
0.000000001
 43
0.0000000001
 40
0.0
 40
0.0
 40
0.0
 40
0.0
 40
0.25
 40
0.25
 40
0.5
 40
0.5
 40
0.75
 40
0.75
 40
1.0
 40
1.0
 40
1.0
 40
1.0
 10
348.236499381425
 20
299.1115938983394
 30
0.0
 10
348.2403263956767
 20
299.1058406492296
 30
0.0
 10
348.243521828695
 20
299.0996937738262
 30
0.0
 10
348.2485133461358
 20
299.086902585049
 30
0.0
 10
348.2503021411836
 20
299.0803085987936
 30
0.0
 10
348.2524507645826
 20
299.066716195343
 30
0.0
 10
348.2527913222937
 20
299.0596836071927
 30
0.0
 10
348.2519345600869
 20
299.045818758126
 30
0.0
 10
348.2507582805815
 20
299.0389113011381
 30
0.0
 10
348.2487686614394
 20
299.0320280809797
 30
0.0
  0
SPLINE
  5
1B6
330
1F
100
AcDbEntity
  8
1
100
AcDbSpline
210
0.0
220
0.0
230
1.0
 70
     8
 71
     3
 72
    12
 73
     8
 74
     0
 42
0.000000001
 43
0.0000000001
 40
0.0
 40
0.0
 40
0.0
 40
0.0
 40
0.4694548196600222
 40
0.4694548196600222
 40
0.9389096393200443
 40
0.9389096393200443
 40
1.0
 40
1.0
 40
1.0
 40
1.0
 10
348.2364993814244
 20
299.1115938983406
 30
0.0
 10
348.2334402367501
 20
299.1161927893344
 30
0.0
 10
348.2307931296213
 20
299.1210305620455
 30
0.0
 10
348.2263892654661
 20
299.1310024476147
 30
0.0
 10
348.2246169549845
 20
299.1361583326971
 30
0.0
 10
348.2231139372983
 20
299.1421821542249
 30
0.0
 10
348.2229485495179
 20
299.1428787293274
 30
0.0
 10
348.2227909149967
 20
299.1435778490378
 30
0.0
  0
SPLINE
  5
1B7
330
1F
100
AcDbEntity
  8
1
100
AcDbSpline
210
0.0
220
0.0
230
1.0
 70
     8
 71
     3
 72
    10
 73
     6
 74
     0
 42
0.000000001
 43
0.0000000001
 40
0.0
 40
0.0
 40
0.0
 40
0.0
 40
0.0959422802761846
 40
0.0959422802761846
 40
1.0
 40
1.0
 40
1.0
 40
1.0
 10
350.0799349875486
 20
297.7493948748776
 30
0.0
 10
350.0780815047859
 20
297.7452975200228
 30
0.0
 10
350.0761802617904
 20
297.7412286078485
 30
0.0
 10
350.0558698053001
 20
297.6991128182427
 30
0.0
 10
350.033351726307
 20
297.6635129247453
 30
0.0
 10
350.0065705138205
 20
297.6304604685696
 30
0.0
  0
SPLINE
  5
1B8
330
1F
100
AcDbEntity
  8
1
100
AcDbSpline
210
0.0
220
0.0
230
1.0
 70
     8
 71
     3
 72
    20
 73
    16
 74
     0
 42
0.000000001
 43
0.0000000001
 40
0.0
 40
0.0
 40
0.0
 40
0.0
 40
0.125
 40
0.125
 40
0.2500000000000001
 40
0.2500000000000001
 40
0.3750000000000001
 40
0.3750000000000001
 40
0.5000000000000001
 40
0.5000000000000001
 40
0.6250000000000002
 40
0.6250000000000002
 40
0.7500000000000002
 40
0.7500000000000002
 40
1.0
 40
1.0
 40
1.0
 40
1.0
 10
350.0065705138205
 20
297.6304604685696
 30
0.0
 10
350.0028427757314
 20
297.6258598217587
 30
0.0
 10
349.998769662111
 20
297.6216818158288
 30
0.0
 10
349.9899707926949
 20
297.6141258434082
 30
0.0
 10
349.9851932607236
 20
297.6107208657035
 30
0.0
 10
349.975244645188
 20
297.6048966208416
 30
0.0
 10
349.9700931825926
 20
297.6024738079453
 30
0.0
 10
349.959455247848
 20
297.5985586636794
 30
0.0
 10
349.9539171677156
 20
297.5970588628464
 30
0.0
 10
349.9427548713684
 20
297.5950664081455
 30
0.0
 10
349.9371719504566
 20
297.5945703004023
 30
0.0
 10
349.9260046353083
 20
297.5945264611719
 30
0.0
 10
349.9203924630411
 20
297.5949838643263
 30
0.0
 10
349.9037385684221
 20
297.5977929275943
 30
0.0
 10
349.8932360883588
 20
297.6014607491446
 30
0.0
 10
349.8833296233257
 20
297.6069022089916
 30
0.0
  0
SPLINE
  5
1B9
330
1F
100
AcDbEntity
  8
1
100
AcDbSpline
210
0.0
220
0.0
230
1.0
 70
     8
 71
     3
 72
    14
 73
    10
 74
     0
 42
0.000000001
 43
0.0000000001
 40
0.0
 40
0.0
 40
0.0
 40
0.0
 40
0.25
 40
0.25
 40
0.5
 40
0.5
 40
0.75
 40
0.75
 40
1.0
 40
1.0
 40
1.0
 40
1.0
 10
349.8016468295048
 20
297.6131794257831
 30
0.0
 10
349.8084201142099
 20
297.6156986310637
 30
0.0
 10
349.8154380106417
 20
297.6174329895082
 30
0.0
 10
349.8294308200471
 20
297.6193228681744
 30
0.0
 10
349.8364224369843
 20
297.6194994694559
 30
0.0
 10
349.8504006236337
 20
297.6183643626176
 30
0.0
 10
349.8573766554794
 20
297.6170311237031
 30
0.0
 10
349.8707016249979
 20
297.6130028530143
 30
0.0
 10
349.8771340983582
 20
297.6103053099189
 30
0.0
 10
349.8833296233257
 20
297.6069022089916
 30
0.0
  0
SPLINE
  5
1BA
330
1F
100
AcDbEntity
  8
1
100
AcDbSpline
210
0.0
220
0.0
230
1.0
 70
     8
 71
     3
 72
    21
 73
    17
 74
     0
 42
0.000000001
 43
0.0000000001
 40
0.0
 40
0.0
 40
0.0
 40
0.0
 40
0.2500000000001735
 40
0.2500000000001735
 40
0.312500000000193
 40
0.312500000000193
 40
0.3750000000002124
 40
0.3750000000002124
 40
0.500000000000243
 40
0.6250000000002736
 40
0.6250000000002736
 40
0.6875000000002619
 40
0.6875000000002619
 40
0.7500000000002501
 40
0.7500000000002501
 40
1.0
 40
1.0
 40
1.0
 40
1.0
 10
349.4685591810667
 20
297.2499170296468
 30
0.0
 10
349.4804451476817
 20
297.2911004643079
 30
0.0
 10
349.4967538795874
 20
297.330428704274
 30
0.0
 10
349.522810642525
 20
297.3772618530131
 30
0.0
 10
349.5283092321942
 20
297.3865105512711
 30
0.0
 10
349.5399001031604
 20
297.4047651801014
 30
0.0
 10
349.5460095332437
 20
297.4137911950478
 30
0.0
 10
349.5649689996457
 20
297.4400970224489
 30
0.0
 10
349.5920714963292
 20
297.4733678606181
 30
0.0
 10
349.6227372961237
 20
297.5031096038211
 30
0.0
 10
349.6470968131041
 20
297.5240703703388
 30
0.0
 10
349.6554750290204
 20
297.5308555865504
 30
0.0
 10
349.6725340501404
 20
297.5438441318983
 30
0.0
 10
349.6811968569908
 20
297.5500373319471
 30
0.0
 10
349.7251591389645
 20
297.5795508471001
 30
0.0
 10
349.7623749941547
 20
297.5985729505937
 30
0.0
 10
349.8016468295049
 20
297.6131794257831
 30
0.0
  0
SPLINE
  5
1BB
330
1F
100
AcDbEntity
  8
1
100
AcDbSpline
210
0.0
220
0.0
230
1.0
 70
     8
 71
     3
 72
     8
 73
     4
 74
     0
 42
0.000000001
 43
0.0000000001
 40
0.0
 40
0.0
 40
0.0
 40
0.0
 40
1.0
 40
1.0
 40
1.0
 40
1.0
 10
349.8497335805613
 20
298.7730306936697
 30
0.0
 10
349.844330573769
 20
298.7675501729077
 30
0.0
 10
349.8383059264706
 20
298.7627754815425
 30
0.0
 10
349.8316656379468
 20
298.7587016238135
 30
0.0
  0
SPLINE
  5
1BC
330
1F
100
AcDbEntity
  8
1
100
AcDbSpline
210
0.0
220
0.0
230
1.0
 70
     8
 71
     3
 72
    14
 73
    10
 74
     0
 42
0.000000001
 43
0.0000000001
 40
0.0
 40
0.0
 40
0.0
 40
0.0
 40
0.1375561217771637
 40
0.1375561217771637
 40
0.4250374145181091
 40
0.4250374145181091
 40
0.7125187072590546
 40
0.7125187072590546
 40
1.0
 40
1.0
 40
1.0
 40
1.0
 10
349.7895123123935
 20
298.7025963159002
 30
0.0
 10
349.7904094803446
 20
298.7058655352619
 30
0.0
 10
349.7914724418817
 20
298.7090647193115
 30
0.0
 10
349.7952276085141
 20
298.7186553928866
 30
0.0
 10
349.7984227889316
 20
298.7247508289886
 30
0.0
 10
349.8060854380516
 20
298.7361874461473
 30
0.0
 10
349.8105663095608
 20
298.7415087290796
 30
0.0
 10
349.8203948231392
 20
298.7509265403799
 30
0.0
 10
349.8257845940558
 20
298.7550935673225
 30
0.0
 10
349.8316656379468
 20
298.7587016238135
 30
0.0
  0
SPLINE
  5
1BD
330
1F
100
AcDbEntity
  8
1
100
AcDbSpline
210
0.0
220
0.0
230
1.0
 70
     8
 71
     3
 72
    21
 73
    17
 74
     0
 42
0.000000001
 43
0.0000000001
 40
0.0
 40
0.0
 40
0.0
 40
0.0
 40
0.2500000000001239
 40
0.2500000000001239
 40
0.3125000000001176
 40
0.3125000000001176
 40
0.3750000000001112
 40
0.3750000000001112
 40
0.5000000000000242
 40
0.6249999999999372
 40
0.6249999999999372
 40
0.6874999999999343
 40
0.6874999999999343
 40
0.7499999999999315
 40
0.7499999999999315
 40
1.0
 40
1.0
 40
1.0
 40
1.0
 10
349.4643518320073
 20
297.0391216467643
 30
0.0
 10
349.4334116813551
 20
297.009223873544
 30
0.0
 10
349.3995023491522
 20
296.9833019209974
 30
0.0
 10
349.3534068859352
 20
296.9558676732457
 30
0.0
 10
349.343979051675
 20
296.9506230984015
 30
0.0
 10
349.3249578373667
 20
296.9407568541183
 30
0.0
 10
349.3153432054457
 20
296.9361210004265
 30
0.0
 10
349.2861928891948
 20
296.9230889839556
 30
0.0
 10
349.2465106475103
 20
296.9080420977426
 30
0.0
 10
349.2052090555807
 20
296.8976217379072
 30
0.0
 10
349.1736053591568
 20
296.8915994305289
 30
0.0
 10
349.1629860304623
 20
296.8898978539818
 30
0.0
 10
349.141816415735
 20
296.8871361376242
 30
0.0
 10
349.131232932831
 20
296.8860692971365
 30
0.0
 10
349.0783222304235
 20
296.8822769959966
 30
0.0
 10
349.0360146187374
 20
296.884116504139
 30
0.0
 10
348.9937331565012
 20
296.8909615124347
 30
0.0
  0
SPLINE
  5
1BE
330
1F
100
AcDbEntity
  8
1
100
AcDbSpline
210
0.0
220
0.0
230
1.0
 70
     8
 71
     3
 72
    21
 73
    17
 74
     0
 42
0.000000001
 43
0.0000000001
 40
0.0
 40
0.0
 40
0.0
 40
0.0
 40
0.2499999999999019
 40
0.2499999999999019
 40
0.3124999999998571
 40
0.3124999999998571
 40
0.3749999999998125
 40
0.3749999999998125
 40
0.4999999999998019
 40
0.6249999999997913
 40
0.6249999999997913
 40
0.687499999999824
 40
0.687499999999824
 40
0.7499999999998565
 40
0.7499999999998565
 40
1.0
 40
1.0
 40
1.0
 40
1.0
 10
348.3910758759521
 20
297.1691035893638
 30
0.0
 10
348.4323073676518
 20
297.1798413633029
 30
0.0
 10
348.4742364017791
 20
297.1857380337123
 30
0.0
 10
348.5276092813044
 20
297.1869045481888
 30
0.0
 10
348.5383324878549
 20
297.1868235891594
 30
0.0
 10
348.5598807002772
 20
297.1860121758689
 30
0.0
 10
348.5707316014631
 20
297.1852769497127
 30
0.0
 10
348.6029555304989
 20
297.1821149145822
 30
0.0
 10
348.6453348401165
 20
297.1753566378712
 30
0.0
 10
348.6865677228283
 20
297.1636255159783
 30
0.0
 10
348.7170552485173
 20
297.152930527865
 30
0.0
 10
348.7271805640164
 20
297.1490330873157
 30
0.0
 10
348.7470929311843
 20
297.1406708808349
 30
0.0
 10
348.7568622024352
 20
297.1362167102576
 30
0.0
 10
348.8048084242853
 20
297.1126249893998
 30
0.0
 10
348.8403210883947
 20
297.0895800015683
 30
0.0
 10
348.8731236844814
 20
297.0624620735428
 30
0.0
  0
SPLINE
  5
1BF
330
1F
100
AcDbEntity
  8
1
100
AcDbSpline
210
0.0
220
0.0
230
1.0
 70
     8
 71
     3
 72
    14
 73
    10
 74
     0
 42
0.000000001
 43
0.0000000001
 40
0.0
 40
0.0
 40
0.0
 40
0.0
 40
0.25
 40
0.25
 40
0.5
 40
0.5
 40
0.75
 40
0.75
 40
1.0
 40
1.0
 40
1.0
 40
1.0
 10
348.3259840290227
 20
297.1166187917399
 30
0.0
 10
348.3292666163947
 20
297.1230030928537
 30
0.0
 10
348.333206840594
 20
297.1290375712695
 30
0.0
 10
348.3422101144466
 20
297.1401356002449
 30
0.0
 10
348.3472314989319
 20
297.1451659910834
 30
0.0
 10
348.358327003873
 20
297.1541796444711
 30
0.0
 10
348.3644412252605
 20
297.1581640212605
 30
0.0
 10
348.3772341395997
 20
297.1646717187416
 30
0.0
 10
348.3839697132035
 20
297.1672529561216
 30
0.0
 10
348.3910758759521
 20
297.1691035893638
 30
0.0
  0
SPLINE
  5
1C0
330
1F
100
AcDbEntity
  8
1
100
AcDbSpline
210
0.0
220
0.0
230
1.0
 70
     8
 71
     3
 72
    22
 73
    18
 74
     0
 42
0.000000001
 43
0.0000000001
 40
0.0
 40
0.0
 40
0.0
 40
0.0
 40
0.125
 40
0.125
 40
0.25
 40
0.25
 40
0.375
 40
0.375
 40
0.5
 40
0.5
 40
0.625
 40
0.625
 40
0.75
 40
0.75
 40
0.875
 40
0.875
 40
1.0
 40
1.0
 40
1.0
 40
1.0
 10
348.3259840290223
 20
297.116618791739
 30
0.0
 10
348.3233600786556
 20
297.1115154731217
 30
0.0
 10
348.3203229203988
 20
297.1066495025951
 30
0.0
 10
348.3135523828153
 20
297.0975462984103
 30
0.0
 10
348.3098070807289
 20
297.0932838990065
 30
0.0
 10
348.3015760502108
 20
297.0853550070682
 30
0.0
 10
348.2970844762064
 20
297.0816979461118
 30
0.0
 10
348.2876485803215
 20
297.0752526207775
 30
0.0
 10
348.2826697134258
 20
297.0724273802643
 30
0.0
 10
348.2721683447498
 20
297.0676077959402
 30
0.0
 10
348.2666630417548
 20
297.0656329727674
 30
0.0
 10
348.2554880774515
 20
297.0626884263577
 30
0.0
 10
348.2497727208083
 20
297.0616954107405
 30
0.0
 10
348.2380726711901
 20
297.0607242573401
 30
0.0
 10
348.2321769104171
 20
297.0607609464115
 30
0.0
 10
348.2205416790292
 20
297.0618713323856
 30
0.0
 10
348.2147638808037
 20
297.0629409881042
 30
0.0
 10
348.2090288045467
 20
297.0645585293346
 30
0.0
  0
SPLINE
  5
1C1
330
1F
100
AcDbEntity
  8
1
100
AcDbSpline
210
0.0
220
0.0
230
1.0
 70
     8
 71
     3
 72
    14
 73
    10
 74
     0
 42
0.000000001
 43
0.0000000001
 40
0.0
 40
0.0
 40
0.0
 40
0.0
 40
0.25
 40
0.25
 40
0.5
 40
0.5
 40
0.75
 40
0.75
 40
1.0
 40
1.0
 40
1.0
 40
1.0
 10
347.7042919936571
 20
298.0889620207934
 30
0.0
 10
347.7113566230626
 20
298.0894304992471
 30
0.0
 10
347.718447976982
 20
298.0891558558675
 30
0.0
 10
347.7323553017276
 20
298.0871457211992
 30
0.0
 10
347.7391233640921
 20
298.0854288446566
 30
0.0
 10
347.7522867305689
 20
298.0805542793803
 30
0.0
 10
347.758702096325
 20
298.0773630905049
 30
0.0
 10
347.7705664926198
 20
298.0697451400692
 30
0.0
 10
347.7760931208284
 20
298.0652992840605
 30
0.0
 10
347.7811806161386
 20
298.0601591150303
 30
0.0
  0
SPLINE
  5
1C2
330
1F
100
AcDbEntity
  8
1
100
AcDbSpline
210
0.0
220
0.0
230
1.0
 70
     8
 71
     3
 72
     8
 73
     4
 74
     0
 42
0.000000001
 43
0.0000000001
 40
0.0
 40
0.0
 40
0.0
 40
0.0
 40
1.0
 40
1.0
 40
1.0
 40
1.0
 10
347.8447161840031
 20
297.3974271872626
 30
0.0
 10
347.8428967715694
 20
297.4021618805367
 30
0.0
 10
347.8414607994839
 20
297.4069717732913
 30
0.0
 10
347.8403906920179
 20
297.4118533029196
 30
0.0
  0
SPLINE
  5
1C3
330
1F
100
AcDbEntity
  8
1
100
AcDbSpline
210
0.0
220
0.0
230
1.0
 70
     8
 71
     3
 72
    20
 73
    16
 74
     0
 42
0.000000001
 43
0.0000000001
 40
0.0
 40
0.0
 40
0.0
 40
0.0
 40
0.1249999999999835
 40
0.1249999999999835
 40
0.2499999999999668
 40
0.2499999999999668
 40
0.3749999999999503
 40
0.3749999999999503
 40
0.4999999999999336
 40
0.4999999999999336
 40
0.624999999999917
 40
0.624999999999917
 40
0.7499999999999005
 40
0.7499999999999005
 40
1.0
 40
1.0
 40
1.0
 40
1.0
 10
348.9937331565012
 20
296.8909615124347
 30
0.0
 10
348.9878480993251
 20
296.8919142530226
 30
0.0
 10
348.9821492690987
 20
296.8933839975113
 30
0.0
 10
348.9711044694861
 20
296.897301278588
 30
0.0
 10
348.9657085979827
 20
296.8997805683127
 30
0.0
 10
348.9555605695618
 20
296.9055848439296
 30
0.0
 10
348.9508170207088
 20
296.9088900022512
 30
0.0
 10
348.941958750797
 20
296.9162650836711
 30
0.0
 10
348.9378112522514
 20
296.9203762052489
 30
0.0
 10
348.9303364834892
 20
296.92918637887
 30
0.0
 10
348.9270289386226
 20
296.9338459338794
 30
0.0
 10
348.9212293457549
 20
296.9436460481901
 30
0.0
 10
348.9187277121725
 20
296.9488127285467
 30
0.0
 10
348.9125505163553
 20
296.9648857389292
 30
0.0
 10
348.9102868566604
 20
296.9759817180511
 30
0.0
 10
348.9098554021694
 20
296.9874512544641
 30
0.0
  0
SPLINE
  5
1C4
330
1F
100
AcDbEntity
  8
1
100
AcDbSpline
210
0.0
220
0.0
230
1.0
 70
     8
 71
     3
 72
    21
 73
    17
 74
     0
 42
0.000000001
 43
0.0000000001
 40
0.0
 40
0.0
 40
0.0
 40
0.0
 40
0.2500000000000184
 40
0.2500000000000184
 40
0.3125000000000243
 40
0.3125000000000243
 40
0.3750000000000301
 40
0.3750000000000301
 40
0.5000000000000357
 40
0.6250000000000414
 40
0.6250000000000414
 40
0.6875000000000178
 40
0.6875000000000178
 40
0.7499999999999943
 40
0.7499999999999943
 40
1.0
 40
1.0
 40
1.0
 40
1.0
 10
348.2090288045467
 20
297.0645585293346
 30
0.0
 10
348.1677762243722
 20
297.0761935532306
 30
0.0
 10
348.1284375833433
 20
297.0924277675916
 30
0.0
 10
348.0816601635587
 20
297.1184631023971
 30
0.0
 10
348.0724075031943
 20
297.1239743733206
 30
0.0
 10
348.0543535799697
 20
297.1354570787078
 30
0.0
 10
348.0455293933149
 20
297.1414397606921
 30
0.0
 10
348.0196541038569
 20
297.160098576063
 30
0.0
 10
347.9867425938897
 20
297.1868677895326
 30
0.0
 10
347.9569873585231
 20
297.2173927674473
 30
0.0
 10
347.9358940704718
 20
297.2417420598802
 30
0.0
 10
347.9290829434284
 20
297.250087359392
 30
0.0
 10
347.9160460735976
 20
297.2670441802587
 30
0.0
 10
347.9097978729885
 20
297.2756810666867
 30
0.0
 10
347.8798837739777
 20
297.3196436009834
 30
0.0
 10
347.8601463427219
 20
297.3572729773917
 30
0.0
 10
347.8447161840031
 20
297.3974271872626
 30
0.0
  0
SPLINE
  5
1C5
330
1F
100
AcDbEntity
  8
1
100
AcDbSpline
210
0.0
220
0.0
230
1.0
 70
     8
 71
     3
 72
    14
 73
    10
 74
     0
 42
0.000000001
 43
0.0000000001
 40
0.0
 40
0.0
 40
0.0
 40
0.0
 40
0.25
 40
0.25
 40
0.5
 40
0.5
 40
0.75
 40
0.75
 40
1.0
 40
1.0
 40
1.0
 40
1.0
 10
348.8731236844814
 20
297.0624620735428
 30
0.0
 10
348.8787812639152
 20
297.0577849488578
 30
0.0
 10
348.8838910883962
 20
297.0524939396975
 30
0.0
 10
348.8927327962737
 20
297.0411472171177
 30
0.0
 10
348.8964906880776
 20
297.0350883625103
 30
0.0
 10
348.9027243696904
 20
297.022221203118
 30
0.0
 10
348.9051768765919
 20
297.0154095838438
 30
0.0
 10
348.9085869449689
 20
297.0016484737144
 30
0.0
 10
348.9095855740716
 20
296.9946242084075
 30
0.0
 10
348.9098554021694
 20
296.9874512544641
 30
0.0
  0
SPLINE
  5
1C6
330
1F
100
AcDbEntity
  8
1
100
AcDbSpline
210
0.0
220
0.0
230
1.0
 70
     8
 71
     3
 72
     8
 73
     4
 74
     0
 42
0.000000001
 43
0.0000000001
 40
0.0
 40
0.0
 40
0.0
 40
0.0
 40
1.0
 40
1.0
 40
1.0
 40
1.0
 10
347.9301407762296
 20
297.5902552030729
 30
0.0
 10
347.9295434943475
 20
297.5864462402988
 30
0.0
 10
347.9287296331571
 20
297.5826797065213
 30
0.0
 10
347.9277170812633
 20
297.5789900305007
 30
0.0
  0
SPLINE
  5
1C7
330
1F
100
AcDbEntity
  8
1
100
AcDbSpline
210
0.0
220
0.0
230
1.0
 70
     8
 71
     3
 72
    45
 73
    41
 74
     0
 42
0.000000001
 43
0.0000000001
 40
0.0
 40
0.0
 40
0.0
 40
0.0
 40
0.0624999999999971
 40
0.0624999999999971
 40
0.1249999999999943
 40
0.1249999999999943
 40
0.1874999999999914
 40
0.1874999999999914
 40
0.2187499999999909
 40
0.2187499999999909
 40
0.2499999999999903
 40
0.2499999999999903
 40
0.3749999999999932
 40
0.3749999999999932
 40
0.4062499999999945
 40
0.4062499999999945
 40
0.4374999999999958
 40
0.4374999999999958
 40
0.4687499999999973
 40
0.4687499999999973
 40
0.4999999999999986
 40
0.4999999999999986
 40
0.5624999999999992
 40
0.5624999999999992
 40
0.5937499999999995
 40
0.5937499999999995
 40
0.6249999999999999
 40
0.6249999999999999
 40
0.6875000000000004
 40
0.6875000000000004
 40
0.7500000000000008
 40
0.7500000000000008
 40
0.8125000000000012
 40
0.8125000000000012
 40
0.8437500000000021
 40
0.8437500000000021
 40
0.875000000000003
 40
0.9375000000000015
 40
0.9375000000000015
 40
1.0
 40
1.0
 40
1.0
 40
1.0
 10
351.225858874345
 20
284.1454935136763
 30
0.0
 10
351.2277936568125
 20
284.1099419428005
 30
0.0
 10
351.2301384008233
 20
284.0763238539296
 30
0.0
 10
351.2356399855903
 20
284.0129177291955
 30
0.0
 10
351.2388057727331
 20
283.9830716238379
 30
0.0
 10
351.2459020085398
 20
283.9276949993199
 30
0.0
 10
351.249832960635
 20
283.9021257684773
 30
0.0
 10
351.2563030100653
 20
283.8669470571298
 30
0.0
 10
351.2585597280809
 20
283.8557326370348
 30
0.0
 10
351.2632403837518
 20
283.8344865910558
 30
0.0
 10
351.2656641654007
 20
283.8244509830412
 30
0.0
 10
351.2781934987784
 20
283.777161844741
 30
0.0
 10
351.2895201942937
 20
283.7485037053346
 30
0.0
 10
351.3053024503455
 20
283.7241112497958
 30
0.0
 10
351.3085407278134
 20
283.7198087176174
 30
0.0
 10
351.3151833926962
 20
283.7123728684988
 30
0.0
 10
351.318593028772
 20
283.7092362031929
 30
0.0
 10
351.3255531654741
 20
283.7041763747484
 30
0.0
 10
351.3291017850673
 20
283.7022521659465
 30
0.0
 10
351.336336202221
 20
283.6996158261349
 30
0.0
 10
351.3400253856389
 20
283.6989041939475
 30
0.0
 10
351.3512633583758
 20
283.6985974821851
 30
0.0
 10
351.3589876122789
 20
283.7008198857234
 30
0.0
 10
351.3709220800513
 20
283.7077904520636
 30
0.0
 10
351.3749583420311
 20
283.7107210911045
 30
0.0
 10
351.3831481424346
 20
283.7178077236462
 30
0.0
 10
351.3872976219716
 20
283.7219616585238
 30
0.0
 10
351.3998614521697
 20
283.73620329147
 30
0.0
 10
351.4084090505478
 20
283.7480818882925
 30
0.0
 10
351.4258493822247
 20
283.7766311990641
 30
0.0
 10
351.4347538511049
 20
283.7933369684507
 30
0.0
 10
351.4527335342242
 20
283.8312574442746
 30
0.0
 10
351.4618290815546
 20
283.8524995714329
 30
0.0
 10
351.4756326509388
 20
283.8878220725995
 30
0.0
 10
351.4802639597251
 20
283.9001842971977
 30
0.0
 10
351.4895338459858
 20
283.9259456238107
 30
0.0
 10
351.5034654296674
 20
283.9661828231117
 30
0.0
 10
351.5174772102231
 20
284.0111861694973
 30
0.0
 10
351.5362315586389
 20
284.0754938641834
 30
0.0
 10
351.5455714079049
 20
284.1095479606266
 30
0.0
 10
351.5548741049324
 20
284.1454935137006
 30
0.0
  0
SPLINE
  5
1C8
330
1F
100
AcDbEntity
  8
1
100
AcDbSpline
210
0.0
220
0.0
230
1.0
 70
     8
 71
     3
 72
   132
 73
   128
 74
     0
 42
0.000000001
 43
0.0000000001
 40
0.0
 40
0.0
 40
0.0
 40
0.0
 40
0.0078125000000004
 40
0.0078125000000004
 40
0.0156250000000009
 40
0.0156250000000009
 40
0.0312500000000013
 40
0.0312500000000013
 40
0.0468750000000017
 40
0.0468750000000017
 40
0.0625000000000021
 40
0.0781250000000025
 40
0.0781250000000025
 40
0.0937500000000029
 40
0.0937500000000029
 40
0.1093750000000033
 40
0.1093750000000033
 40
0.1250000000000037
 40
0.1250000000000037
 40
0.1406250000000041
 40
0.1406250000000041
 40
0.1484375000000044
 40
0.1484375000000044
 40
0.1562500000000046
 40
0.1562500000000046
 40
0.1875000000000054
 40
0.1875000000000054
 40
0.2031250000000059
 40
0.2031250000000059
 40
0.2109375000000061
 40
0.2109375000000061
 40
0.2187500000000063
 40
0.2187500000000063
 40
0.2343750000000065
 40
0.2343750000000065
 40
0.2500000000000067
 40
0.2500000000000067
 40
0.281250000000007
 40
0.281250000000007
 40
0.2968750000000072
 40
0.2968750000000072
 40
0.3125000000000074
 40
0.3125000000000074
 40
0.3281250000000076
 40
0.3281250000000076
 40
0.3437500000000078
 40
0.3437500000000078
 40
0.359375000000008
 40
0.359375000000008
 40
0.3750000000000082
 40
0.3750000000000082
 40
0.3906250000000084
 40
0.3906250000000084
 40
0.4062500000000087
 40
0.4062500000000087
 40
0.4218750000000088
 40
0.4218750000000088
 40
0.4375000000000089
 40
0.453125000000009
 40
0.453125000000009
 40
0.4687500000000093
 40
0.4687500000000093
 40
0.4843750000000094
 40
0.4843750000000094
 40
0.5000000000000095
 40
0.5000000000000095
 40
0.5156250000000097
 40
0.5156250000000097
 40
0.5312500000000099
 40
0.5312500000000099
 40
0.5468750000000102
 40
0.5468750000000102
 40
0.5625000000000103
 40
0.5625000000000103
 40
0.5781250000000105
 40
0.5781250000000105
 40
0.5937500000000107
 40
0.5937500000000107
 40
0.6250000000000111
 40
0.6250000000000111
 40
0.6562500000000112
 40
0.6562500000000112
 40
0.6718750000000112
 40
0.6718750000000112
 40
0.6875000000000112
 40
0.6875000000000112
 40
0.6953125000000115
 40
0.6953125000000115
 40
0.7031250000000117
 40
0.7187500000000117
 40
0.7187500000000117
 40
0.7343750000000117
 40
0.7343750000000117
 40
0.7500000000000116
 40
0.7500000000000116
 40
0.7656250000000116
 40
0.7656250000000116
 40
0.7812500000000116
 40
0.7812500000000116
 40
0.7968750000000116
 40
0.7968750000000116
 40
0.8125000000000115
 40
0.8125000000000115
 40
0.8203125000000113
 40
0.8203125000000113
 40
0.8281250000000113
 40
0.8281250000000113
 40
0.843750000000011
 40
0.843750000000011
 40
0.8750000000000103
 40
0.8750000000000103
 40
0.8906250000000097
 40
0.8906250000000097
 40
0.8984375000000092
 40
0.8984375000000092
 40
0.9062500000000087
 40
0.9218750000000074
 40
0.9218750000000074
 40
0.937500000000006
 40
0.937500000000006
 40
0.9531250000000044
 40
0.9531250000000044
 40
0.968750000000003
 40
0.968750000000003
 40
0.9843750000000015
 40
0.9843750000000015
 40
1.0
 40
1.0
 40
1.0
 40
1.0
 10
351.5548741049324
 20
284.1454935137006
 30
0.0
 10
351.5571156895581
 20
284.1603755033962
 30
0.0
 10
351.5593180057459
 20
284.1755769962666
 30
0.0
 10
351.5636436525463
 20
284.206622639143
 30
0.0
 10
351.5657689470087
 20
284.2224828268044
 30
0.0
 10
351.5720014631852
 20
284.270848472855
 30
0.0
 10
351.5759710011788
 20
284.3041722883095
 30
0.0
 10
351.5835412686212
 20
284.3729675775942
 30
0.0
 10
351.5871453852765
 20
284.4084755822399
 30
0.0
 10
351.5939659329888
 20
284.4815069579235
 30
0.0
 10
351.6003699299137
 20
284.5562317310174
 30
0.0
 10
351.6059490388046
 20
284.6343099085515
 30
0.0
 10
351.6111126211284
 20
284.7140773197492
 30
0.0
 10
351.6134726038403
 20
284.7545930369674
 30
0.0
 10
351.6177466294727
 20
284.8367415393656
 30
0.0
 10
351.6196620506247
 20
284.8783956331143
 30
0.0
 10
351.6230481698269
 20
284.9628675348615
 30
0.0
 10
351.6245138599759
 20
285.0055829718889
 30
0.0
 10
351.6269791569505
 20
285.0914922216512
 30
0.0
 10
351.6279816512394
 20
285.1347559198
 30
0.0
 10
351.6291402027761
 20
285.2001150213265
 30
0.0
 10
351.6294691296072
 20
285.2220125363839
 30
0.0
 10
351.6300085960931
 20
285.2657373458635
 30
0.0
 10
351.6302195148412
 20
285.2875739942655
 30
0.0
 10
351.6309851424775
 20
285.3966306907936
 30
0.0
 10
351.6306778210537
 20
285.4834732342935
 30
0.0
 10
351.6288740025737
 20
285.6131489879342
 30
0.0
 10
351.6280479661496
 20
285.6562758095487
 30
0.0
 10
351.6264678519249
 20
285.7208166834496
 30
0.0
 10
351.6258842449369
 20
285.7423053891668
 30
0.0
 10
351.6246018383584
 20
285.7852323548806
 30
0.0
 10
351.6239028797013
 20
285.8066680711842
 30
0.0
 10
351.6216456887108
 20
285.8705069123649
 30
0.0
 10
351.6199236491778
 20
285.9125742036117
 30
0.0
 10
351.6160492037561
 20
285.9957342538142
 30
0.0
 10
351.613893630957
 20
286.036880296986
 30
0.0
 10
351.6067980872543
 20
286.1584844073813
 30
0.0
 10
351.6012637423763
 20
286.2366357980216
 30
0.0
 10
351.5917649356193
 20
286.349517378348
 30
0.0
 10
351.5884122319677
 20
286.386247252564
 30
0.0
 10
351.5813521685481
 20
286.4577812659554
 30
0.0
 10
351.5776426814542
 20
286.4926107351303
 30
0.0
 10
351.5698638288983
 20
286.5603895433599
 30
0.0
 10
351.5657971966964
 20
286.5933037572493
 30
0.0
 10
351.5573665526225
 20
286.6567509441219
 30
0.0
 10
351.5529954254002
 20
286.6873478557677
 30
0.0
 10
351.5439412592336
 20
286.7462861363041
 30
0.0
 10
351.5392518552017
 20
286.7746565942238
 30
0.0
 10
351.5296293918493
 20
286.8287146499716
 30
0.0
 10
351.5246892450152
 20
286.8544536721149
 30
0.0
 10
351.514551281083
 20
286.9033533065205
 30
0.0
 10
351.5093430081929
 20
286.9265544606598
 30
0.0
 10
351.4987273921066
 20
286.9700892967737
 30
0.0
 10
351.4933204811304
 20
286.9904306779214
 30
0.0
 10
351.4823089005426
 20
287.0282678018015
 30
0.0
 10
351.4766970097593
 20
287.045783550993
 30
0.0
 10
351.4653051783705
 20
287.0778382360632
 30
0.0
 10
351.4537800870172
 20
287.1068275373292
 30
0.0
 10
351.4419895825064
 20
287.1297115300841
 30
0.0
 10
351.4300646996289
 20
287.1495044123839
 30
0.0
 10
351.4240616263596
 20
287.1578087782948
 30
0.0
 10
351.4120007423437
 20
287.1712100320367
 30
0.0
 10
351.405938731414
 20
287.1763139945539
 30
0.0
 10
351.393750916017
 20
287.1832954277428
 30
0.0
 10
351.3876304520711
 20
287.1851620696278
 30
0.0
 10
351.3754233322907
 20
287.1856191035255
 30
0.0
 10
351.3693248104657
 20
287.1842177026073
 30
0.0
 10
351.3571379200795
 20
287.1781301110408
 30
0.0
 10
351.3510414863836
 20
287.1734296883328
 30
0.0
 10
351.3389556360929
 20
287.1607869388147
 30
0.0
 10
351.3329555285454
 20
287.1528437494358
 30
0.0
 10
351.3210413183363
 20
287.1336997385762
 30
0.0
 10
351.315114886988
 20
287.1224695835526
 30
0.0
 10
351.3034236650817
 20
287.0968526300644
 30
0.0
 10
351.2976586904443
 20
287.0824751906864
 30
0.0
 10
351.2862901043779
 20
287.0505806242946
 30
0.0
 10
351.2806780886472
 20
287.0330339189169
 30
0.0
 10
351.2641464870671
 20
286.9758045694783
 30
0.0
 10
351.2535917839928
 20
286.9317992872349
 30
0.0
 10
351.2334251095717
 20
286.8319608201414
 30
0.0
 10
351.2239428279723
 20
286.7767698063554
 30
0.0
 10
351.2106231455034
 20
286.6860567008231
 30
0.0
 10
351.2063494033564
 20
286.6545861140826
 30
0.0
 10
351.1981720970872
 20
286.5894883359404
 30
0.0
 10
351.1942620933165
 20
286.5558178522302
 30
0.0
 10
351.1886665984651
 20
286.5036200866437
 30
0.0
 10
351.1868447878932
 20
286.4859212086178
 30
0.0
 10
351.1833054985468
 20
286.4500945968105
 30
0.0
 10
351.1781493090556
 20
286.3956789833979
 30
0.0
 10
351.1734479728108
 20
286.3392512364752
 30
0.0
 10
351.1675844191761
 20
286.2622231086388
 30
0.0
 10
351.1648539085577
 20
286.2227757941852
 30
0.0
 10
351.1598445699428
 20
286.142755710766
 30
0.0
 10
351.1575592513626
 20
286.1021051397271
 30
0.0
 10
351.1534262361018
 20
286.01952609141
 30
0.0
 10
351.1515761834352
 20
285.977518753172
 30
0.0
 10
351.1483427851185
 20
285.8928668566576
 30
0.0
 10
351.1469558777037
 20
285.8501696098577
 30
0.0
 10
351.1446388368746
 20
285.7640370587542
 30
0.0
 10
351.1437075517599
 20
285.7205099985505
 30
0.0
 10
351.1423142409091
 20
285.6332523158436
 30
0.0
 10
351.1418509902578
 20
285.5895262979863
 30
0.0
 10
351.1415029825085
 20
285.5237928549525
 30
0.0
 10
351.1414448537892
 20
285.5018576118817
 30
0.0
 10
351.1414445481599
 20
285.457938849986
 30
0.0
 10
351.1415026262706
 20
285.4359222705481
 30
0.0
 10
351.1418495818235
 20
285.3701359437254
 30
0.0
 10
351.1423101105431
 20
285.3265876402365
 30
0.0
 10
351.1443587639906
 20
285.1968426709902
 30
0.0
 10
351.1466103998666
 20
285.1115411488605
 30
0.0
 10
351.1513032015172
 20
284.9853634028945
 30
0.0
 10
351.1530875929175
 20
284.9436011240198
 30
0.0
 10
351.1561010047558
 20
284.8814121163358
 30
0.0
 10
351.1571617196099
 20
284.8607621578586
 30
0.0
 10
351.159382998358
 20
284.8198624599902
 30
0.0
 10
351.1628691969611
 20
284.7590194460492
 30
0.0
 10
351.1668144627894
 20
284.6996836391994
 30
0.0
 10
351.1724825762637
 20
284.6219079823834
 30
0.0
 10
351.1755230618097
 20
284.5836740175792
 30
0.0
 10
351.1819634318408
 20
284.5091462060362
 30
0.0
 10
351.1853685597036
 20
284.4727746209322
 30
0.0
 10
351.1925475702456
 20
284.4018106357443
 30
0.0
 10
351.1963292397116
 20
284.3671566060023
 30
0.0
 10
351.2042128470485
 20
284.3000885325349
 30
0.0
 10
351.2083166142889
 20
284.2676449637559
 30
0.0
 10
351.2168464121548
 20
284.2049275603569
 30
0.0
 10
351.2212795197356
 20
284.1746094914812
 30
0.0
 10
351.2258588743475
 20
284.1454935136762
 30
0.0
  0
SPLINE
  5
1C9
330
1F
100
AcDbEntity
  8
1
100
AcDbSpline
210
0.0
220
0.0
230
1.0
 70
     8
 71
     3
 72
    20
 73
    16
 74
     0
 42
0.000000001
 43
0.0000000001
 40
0.0
 40
0.0
 40
0.0
 40
0.0
 40
0.2500000000000021
 40
0.2500000000000021
 40
0.5000000000000041
 40
0.5000000000000041
 40
0.6250000000000054
 40
0.6250000000000054
 40
0.6875000000000058
 40
0.6875000000000058
 40
0.7187500000000055
 40
0.7187500000000055
 40
0.7500000000000054
 40
0.7500000000000054
 40
1.0
 40
1.0
 40
1.0
 40
1.0
 10
283.3043368819074
 20
281.3528210789142
 30
0.0
 10
283.5924304912784
 20
281.5612774171199
 30
0.0
 10
283.8923449341361
 20
281.7542253632197
 30
0.0
 10
284.5162230995327
 20
282.1083819018464
 30
0.0
 10
284.8401846908099
 20
282.2695986063848
 30
0.0
 10
285.3450245353241
 20
282.4861085040047
 30
0.0
 10
285.5164600484857
 20
282.5540483847062
 30
0.0
 10
285.7785125142693
 20
282.6493113877864
 30
0.0
 10
285.8666802929582
 20
282.679957072708
 30
0.0
 10
286.0001821099315
 20
282.724216730648
 30
0.0
 10
286.0449083304196
 20
282.7386902431637
 30
0.0
 10
286.1346093454123
 20
282.7670057190637
 30
0.0
 10
286.179601077374
 20
282.7808535663816
 30
0.0
 10
286.5857989559767
 20
282.9026787631168
 30
0.0
 10
286.9558993461526
 20
282.9910827236108
 30
0.0
 10
287.3351936298795
 20
283.0582277886986
 30
0.0
  0
SPLINE
  5
1CA
330
1F
100
AcDbEntity
  8
1
100
AcDbSpline
210
0.0
220
0.0
230
1.0
 70
     8
 71
     3
 72
    30
 73
    26
 74
     0
 42
0.000000001
 43
0.0000000001
 40
0.0
 40
0.0
 40
0.0
 40
0.0
 40
0.1249999999999999
 40
0.1249999999999999
 40
0.2499999999999999
 40
0.2499999999999999
 40
0.3749999999999997
 40
0.3749999999999997
 40
0.4062499999999994
 40
0.4062499999999994
 40
0.4374999999999992
 40
0.4374999999999992
 40
0.5000000000000002
 40
0.5000000000000002
 40
0.6250000000000007
 40
0.6250000000000007
 40
0.7500000000000013
 40
0.7500000000000013
 40
0.8125000000000014
 40
0.8125000000000014
 40
0.843750000000001
 40
0.843750000000001
 40
0.8750000000000003
 40
0.8750000000000003
 40
1.0
 40
1.0
 40
1.0
 40
1.0
 10
279.404841945297
 20
277.7018393813546
 30
0.0
 10
279.2179197568357
 20
277.5877086041068
 30
0.0
 10
279.0390147865307
 20
277.4675772364848
 30
0.0
 10
278.696725562861
 20
277.2162824921808
 30
0.0
 10
278.5333425003093
 20
277.085117218964
 30
0.0
 10
278.2220558562061
 20
276.8123768319836
 30
0.0
 10
278.0741511115166
 20
276.6708014251528
 30
0.0
 10
277.8992096807486
 20
276.4875226345924
 30
0.0
 10
277.8647195835911
 20
276.450550641327
 30
0.0
 10
277.7967474718179
 20
276.375976019742
 30
0.0
 10
277.7632188726286
 20
276.338318768778
 30
0.0
 10
277.6646195196144
 20
276.2249296549295
 30
0.0
 10
277.6014878200327
 20
276.1487424483992
 30
0.0
 10
277.4197591349821
 20
275.9185454112913
 30
0.0
 10
277.3088098776939
 20
275.7629063682568
 30
0.0
 10
277.1070555166204
 20
275.4479022433224
 30
0.0
 10
277.0162499462019
 20
275.2885362753664
 30
0.0
 10
276.8954080418669
 20
275.0470163123693
 30
0.0
 10
276.8576932374966
 20
274.9660964334942
 30
0.0
 10
276.805047897415
 20
274.8441250149367
 30
0.0
 10
276.7881542625688
 20
274.8033691900416
 30
0.0
 10
276.7556938565649
 20
274.7216638357374
 30
0.0
 10
276.7401327352648
 20
274.6807237749879
 30
0.0
 10
276.6659894324308
 20
274.4764192802906
 30
0.0
 10
276.6180874461832
 20
274.3135588556449
 30
0.0
 10
276.5816395429912
 20
274.1514444684931
 30
0.0
  0
SPLINE
  5
1CB
330
1F
100
AcDbEntity
  8
1
100
AcDbSpline
210
0.0
220
0.0
230
1.0
 70
     8
 71
     3
 72
    18
 73
    14
 74
     0
 42
0.000000001
 43
0.0000000001
 40
0.0
 40
0.0
 40
0.0
 40
0.0
 40
0.2500000000000002
 40
0.2500000000000002
 40
0.5000000000000001
 40
0.5000000000000001
 40
0.6250000000000001
 40
0.6250000000000001
 40
0.7500000000000001
 40
0.7500000000000001
 40
0.8750000000000001
 40
0.8750000000000001
 40
1.0
 40
1.0
 40
1.0
 40
1.0
 10
283.3043368819074
 20
281.3528210789142
 30
0.0
 10
282.9622006349192
 20
281.1052610258804
 30
0.0
 10
282.6235515518915
 20
280.847273324866
 30
0.0
 10
281.9545485408204
 20
280.3051824744437
 30
0.0
 10
281.6241914731281
 20
280.0211003406438
 30
0.0
 10
281.1356898347853
 20
279.5711733234693
 30
0.0
 10
280.974026729942
 20
279.4172255597857
 30
0.0
 10
280.6531679888017
 20
279.1005682747461
 30
0.0
 10
280.493972036581
 20
278.9378608878571
 30
0.0
 10
280.1781759080181
 20
278.6027339877555
 30
0.0
 10
280.0215752769399
 20
278.4303177714871
 30
0.0
 10
279.7111122583472
 20
278.0746078814604
 30
0.0
 10
279.5572491650326
 20
277.8913196276611
 30
0.0
 10
279.4048419452965
 20
277.7018393813537
 30
0.0
  0
SPLINE
  5
1CC
330
1F
100
AcDbEntity
  8
1
100
AcDbSpline
210
0.0
220
0.0
230
1.0
 70
     8
 71
     3
 72
    36
 73
    32
 74
     0
 42
0.000000001
 43
0.0000000001
 40
0.0
 40
0.0
 40
0.0
 40
0.0
 40
0.1250000000000884
 40
0.1250000000000884
 40
0.1875000000001326
 40
0.1875000000001326
 40
0.2187500000001567
 40
0.2187500000001567
 40
0.2500000000001808
 40
0.2500000000001808
 40
0.3750000000002843
 40
0.3750000000002843
 40
0.4062500000002983
 40
0.4062500000002983
 40
0.4375000000003121
 40
0.4375000000003121
 40
0.5000000000003134
 40
0.5000000000003134
 40
0.6250000000003132
 40
0.6250000000003132
 40
0.6562500000003059
 40
0.6562500000003059
 40
0.6875000000002986
 40
0.7500000000002527
 40
0.8125000000002069
 40
0.8125000000002069
 40
0.843750000000184
 40
0.843750000000184
 40
0.8750000000001609
 40
0.8750000000001609
 40
1.0
 40
1.0
 40
1.0
 40
1.0
 10
352.7715033356618
 20
301.547300083522
 30
0.0
 10
352.76923868515
 20
301.5977883127062
 30
0.0
 10
352.7618114203818
 20
301.6471637548322
 30
0.0
 10
352.7434573818294
 20
301.7196721455744
 30
0.0
 10
352.7361267993768
 20
301.7435802431702
 30
0.0
 10
352.7232906661824
 20
301.7790457267743
 30
0.0
 10
352.7186907469259
 20
301.7908330820108
 30
0.0
 10
352.7089470214365
 20
301.8140838981829
 30
0.0
 10
352.7038057023387
 20
301.82554731494
 30
0.0
 10
352.6767832235703
 20
301.8820733181724
 30
0.0
 10
352.6509939369609
 20
301.9247864232992
 30
0.0
 10
352.6136302168143
 20
301.9750954959865
 30
0.0
 10
352.6058986736432
 20
301.9850017260799
 30
0.0
 10
352.5899102503934
 20
302.0044983650858
 30
0.0
 10
352.5816470551387
 20
302.014092914745
 30
0.0
 10
352.5563301246978
 20
302.0421008328073
 30
0.0
 10
352.5386682602792
 20
302.0598447819805
 30
0.0
 10
352.4833932298941
 20
302.1103663862147
 30
0.0
 10
352.4435138242147
 20
302.1404612591683
 30
0.0
 10
352.3897349398529
 20
302.1734279445401
 30
0.0
 10
352.3787778544261
 20
302.1797855917259
 30
0.0
 10
352.3567050208927
 20
302.1918906530739
 30
0.0
 10
352.3232691743853
 20
302.2091879606551
 30
0.0
 10
352.2659354878683
 20
302.2337830947217
 30
0.0
 10
352.2183600828527
 20
302.2489589723026
 30
0.0
 10
352.1820201091908
 20
302.2586065419313
 30
0.0
 10
352.1697968385505
 20
302.2615327903733
 30
0.0
 10
352.1451247062208
 20
302.2667910596916
 30
0.0
 10
352.1326627278762
 20
302.2691235720041
 30
0.0
 10
352.0703789623699
 20
302.2791675059474
 30
0.0
 10
352.0201859859501
 20
302.2821835923049
 30
0.0
 10
351.9696123824709
 20
302.2799795196472
 30
0.0
  0
SPLINE
  5
1CD
330
1F
100
AcDbEntity
  8
1
100
AcDbSpline
210
0.0
220
0.0
230
1.0
 70
     8
 71
     3
 72
    36
 73
    32
 74
     0
 42
0.000000001
 43
0.0000000001
 40
0.0
 40
0.0
 40
0.0
 40
0.0
 40
0.124999999999951
 40
0.124999999999951
 40
0.1874999999999264
 40
0.1874999999999264
 40
0.2187499999999296
 40
0.2187499999999296
 40
0.2499999999999328
 40
0.2499999999999328
 40
0.3749999999999438
 40
0.3749999999999438
 40
0.4062499999999453
 40
0.4062499999999453
 40
0.4374999999999467
 40
0.4374999999999467
 40
0.4999999999999751
 40
0.4999999999999751
 40
0.6250000000000086
 40
0.6250000000000086
 40
0.6562500000000071
 40
0.6562500000000071
 40
0.6875000000000055
 40
0.7500000000000025
 40
0.8124999999999994
 40
0.8124999999999994
 40
0.8437500000000001
 40
0.8437500000000001
 40
0.875000000000001
 40
0.875000000000001
 40
1.0
 40
1.0
 40
1.0
 40
1.0
 10
345.5768136751308
 20
302.0013718692468
 30
0.0
 10
345.52623339372
 20
301.999167505555
 30
0.0
 10
345.4767737155794
 20
301.9918089374752
 30
0.0
 10
345.404149891531
 20
301.973569694121
 30
0.0
 10
345.3802051520002
 20
301.9662793520033
 30
0.0
 10
345.3446874916516
 20
301.9535065770833
 30
0.0
 10
345.3328831653645
 20
301.9489283390942
 30
0.0
 10
345.3095996176228
 20
301.9392286326781
 30
0.0
 10
345.2981204376677
 20
301.9341096466903
 30
0.0
 10
345.2415185611638
 20
301.9072004136349
 30
0.0
 10
345.1987540857328
 20
301.8815067326562
 30
0.0
 10
345.1483922659578
 20
301.8442686763793
 30
0.0
 10
345.1384760652012
 20
301.8365625767576
 30
0.0
 10
345.1189606596829
 20
301.820625671452
 30
0.0
 10
345.1093573134301
 20
301.8123885669877
 30
0.0
 10
345.0813250440622
 20
301.7871500328881
 30
0.0
 10
345.063567469217
 20
301.7695408669559
 30
0.0
 10
345.0130126062699
 20
301.7144252002984
 30
0.0
 10
344.9829056413872
 20
301.6746537152777
 30
0.0
 10
344.9499369172834
 20
301.6210119086144
 30
0.0
 10
344.9435795273162
 20
301.610082353154
 30
0.0
 10
344.9314762995565
 20
301.5880641984589
 30
0.0
 10
344.9141837163185
 20
301.5547100252408
 30
0.0
 10
344.889606170596
 20
301.4975107631846
 30
0.0
 10
344.8744546896663
 20
301.4500410931768
 30
0.0
 10
344.8648293970422
 20
301.4137797253135
 30
0.0
 10
344.8619112387872
 20
301.4015825404751
 30
0.0
 10
344.8566705133238
 20
301.3769623414685
 30
0.0
 10
344.8543474683221
 20
301.3645262356965
 30
0.0
 10
344.8443538736841
 20
301.3023699871216
 30
0.0
 10
344.8413878660063
 20
301.2522741354505
 30
0.0
 10
344.8436522175245
 20
301.201792572045
 30
0.0
  0
SPLINE
  5
1CE
330
1F
100
AcDbEntity
  8
1
100
AcDbSpline
210
0.0
220
0.0
230
1.0
 70
     8
 71
     3
 72
    36
 73
    32
 74
     0
 42
0.000000001
 43
0.0000000001
 40
0.0
 40
0.0
 40
0.0
 40
0.0
 40
0.1249999999998939
 40
0.1249999999998939
 40
0.1874999999998409
 40
0.1874999999998409
 40
0.2187499999998302
 40
0.2187499999998302
 40
0.2499999999998195
 40
0.2499999999998195
 40
0.3749999999997794
 40
0.3749999999997794
 40
0.4062499999997697
 40
0.4062499999997697
 40
0.4374999999997601
 40
0.4374999999997601
 40
0.4999999999997676
 40
0.4999999999997676
 40
0.6249999999998078
 40
0.6249999999998078
 40
0.6562499999998265
 40
0.6562499999998265
 40
0.6874999999998451
 40
0.7499999999998823
 40
0.8124999999999193
 40
0.8124999999999193
 40
0.8437499999999335
 40
0.8437499999999335
 40
0.8749999999999475
 40
0.8749999999999475
 40
1.0
 40
1.0
 40
1.0
 40
1.0
 10
352.3245691283034
 20
294.3665564815543
 30
0.0
 10
352.3751494097143
 20
294.3687608452462
 30
0.0
 10
352.4246090878548
 20
294.3761194133259
 30
0.0
 10
352.4972329119033
 20
294.3943586566801
 30
0.0
 10
352.521177651434
 20
294.4016489987979
 30
0.0
 10
352.5566953117827
 20
294.4144217737179
 30
0.0
 10
352.5684996380697
 20
294.4190000117071
 30
0.0
 10
352.5917831858115
 20
294.4286997181231
 30
0.0
 10
352.6032623657666
 20
294.4338187041109
 30
0.0
 10
352.6598642422704
 20
294.4607279371663
 30
0.0
 10
352.7026287177013
 20
294.486421618145
 30
0.0
 10
352.7529905374765
 20
294.5236596744219
 30
0.0
 10
352.7629067382331
 20
294.5313657740436
 30
0.0
 10
352.7824221437516
 20
294.5473026793492
 30
0.0
 10
352.7920254900041
 20
294.5555397838135
 30
0.0
 10
352.8200577593722
 20
294.5807783179132
 30
0.0
 10
352.8378153342173
 20
294.5983874838453
 30
0.0
 10
352.8883701971644
 20
294.6535031505027
 30
0.0
 10
352.9184771620471
 20
294.6932746355237
 30
0.0
 10
352.9514458861509
 20
294.7469164421868
 30
0.0
 10
352.9578032761181
 20
294.7578459976472
 30
0.0
 10
352.9699065038778
 20
294.7798641523423
 30
0.0
 10
352.9871990871158
 20
294.8132183255604
 30
0.0
 10
353.0117767723464
 20
294.8704175347196
 30
0.0
 10
353.026928113768
 20
294.9178872576244
 30
0.0
 10
353.036553406392
 20
294.9541486254877
 30
0.0
 10
353.0394715646472
 20
294.9663458103261
 30
0.0
 10
353.0447122901104
 20
294.9909660093327
 30
0.0
 10
353.0470353351121
 20
295.0034021151047
 30
0.0
 10
353.0570289297501
 20
295.0655583636796
 30
0.0
 10
353.059994937428
 20
295.1156542153507
 30
0.0
 10
353.0577305859097
 20
295.1661357787563
 30
0.0
  0
LINE
  5
1E9
330
1F
100
AcDbEntity
  8
SK4
100
AcDbLine
 10
210.904842
 20
288.907994
 30
0.0
 11
277.404842
 21
288.907994
 31
0.0
  0
LINE
  5
1EA
330
1F
100
AcDbEntity
  8
4
100
AcDbLine
 10
270.203832
 20
288.907994
 30
0.0
 11
357.293426
 21
288.907994
 31
0.0
  0
MTEXT
  5
1EB
330
1F
100
AcDbEntity
  8
SK6
100
AcDbMText
 10
258.520787
 20
241.27662
 30
0.0
 40
3.5
 41
0.0
 71
     7
 72
     5
  1
\W0.7022;802D-27-54-S32
  7
cesky
 73
     2
 44
0.8433729999999998
  0
MTEXT
  5
301
330
1F
100
AcDbEntity
  8
2
100
AcDbMText
 10
368.591116
 20
286.796451
 30
0.0
 40
3.5
 41
0.0
 71
     7
 72
     5
  1
\W0.7045;27
  7
cesky
 11
0.0000000000000001
 21
1.0
 31
0.0
 73
     2
 44
0.8433729999999998
  0
MTEXT
  5
302
330
1F
100
AcDbEntity
  8
2
100
AcDbMText
 10
368.591116
 20
280.058951
 30
0.0
 40
3.5
 41
0.0
 71
     7
 72
     5
  1
\W3.0115;\H2.63;%%c\H3.50;
  7
cesky
 11
0.0000000000000001
 21
1.0
 31
0.0
 73
     2
 44
0.8433729999999998
  0
LINE
  5
303
330
1F
100
AcDbEntity
  8
2
100
AcDbLine
 10
355.404842
 20
302.407994
 30
0.0
 11
369.778533
 21
302.407994
 31
0.0
  0
LINE
  5
304
330
1F
100
AcDbEntity
  8
2
100
AcDbLine
 10
368.778533
 20
302.407994
 30
0.0
 11
368.778533
 21
279.901451
 31
0.0
  0
SOLID
  5
305
330
1F
100
AcDbEntity
  8
2
100
AcDbTrace
 10
368.778533
 20
302.407994
 30
0.0
 11
369.395677
 21
298.907996
 31
0.0
 12
368.161388
 22
298.907991
 32
0.0
 13
368.161388
 23
298.907991
 33
0.0
  0
MTEXT
  5
306
330
1F
100
AcDbEntity
  8
2
100
AcDbMText
 10
320.595782
 20
316.511754
 30
0.0
 40
3.5
 41
0.0
 71
     7
 72
     5
  1
\W0.7045;62
  7
cesky
 73
     2
 44
0.8433729999999998
  0
LINE
  5
307
330
1F
100
AcDbEntity
  8
2
100
AcDbLine
 10
353.404842
 20
304.407994
 30
0.0
 11
353.404842
 21
317.637587
 31
0.0
  0
LINE
  5
308
330
1F
100
AcDbEntity
  8
2
100
AcDbLine
 10
291.415721
 20
302.308119
 30
0.0
 11
291.415721
 21
317.637587
 31
0.0
  0
LINE
  5
309
330
1F
100
AcDbEntity
  8
2
100
AcDbLine
 10
353.404842
 20
316.637587
 30
0.0
 11
291.415721
 21
316.637587
 31
0.0
  0
SOLID
  5
30A
330
1F
100
AcDbEntity
  8
2
100
AcDbTrace
 10
353.404842
 20
316.637587
 30
0.0
 11
349.904844
 21
316.020443
 31
0.0
 12
349.90484
 22
317.254732
 32
0.0
 13
349.90484
 23
317.254732
 33
0.0
  0
SOLID
  5
30B
330
1F
100
AcDbEntity
  8
2
100
AcDbTrace
 10
291.415721
 20
316.637587
 30
0.0
 11
294.915719
 21
317.254732
 31
0.0
 12
294.915723
 22
316.020443
 32
0.0
 13
294.915723
 23
316.020443
 33
0.0
  0
MTEXT
  5
30C
330
1F
100
AcDbEntity
  8
2
100
AcDbMText
 10
280.827842
 20
340.562135
 30
0.0
 40
3.5
 41
0.0
 71
     7
 72
     5
  1
\W0.7969;139
  7
cesky
 73
     2
 44
0.8433729999999998
  0
LINE
  5
30D
330
1F
100
AcDbEntity
  8
2
100
AcDbLine
 10
353.404842
 20
304.407994
 30
0.0
 11
353.404842
 21
341.687968
 31
0.0
  0
LINE
  5
30E
330
1F
100
AcDbEntity
  8
2
100
AcDbLine
 10
214.404842
 20
302.907994
 30
0.0
 11
214.404842
 21
341.687968
 31
0.0
  0
LINE
  5
30F
330
1F
100
AcDbEntity
  8
2
100
AcDbLine
 10
353.404842
 20
340.687968
 30
0.0
 11
214.404842
 21
340.687968
 31
0.0
  0
SOLID
  5
310
330
1F
100
AcDbEntity
  8
2
100
AcDbTrace
 10
353.404842
 20
340.687968
 30
0.0
 11
349.904844
 21
340.070823
 31
0.0
 12
349.90484
 22
341.305112
 32
0.0
 13
349.90484
 23
341.305112
 33
0.0
  0
SOLID
  5
311
330
1F
100
AcDbEntity
  8
2
100
AcDbTrace
 10
214.404842
 20
340.687968
 30
0.0
 11
217.90484
 21
341.305112
 31
0.0
 12
217.904844
 22
340.070823
 32
0.0
 13
217.904844
 23
340.070823
 33
0.0
  0
MTEXT
  5
312
330
1F
100
AcDbEntity
  8
2
100
AcDbMText
 10
242.590342
 20
327.385163
 30
0.0
 40
3.5
 41
0.0
 71
     7
 72
     5
  1
\W0.7045;60
  7
cesky
 73
     2
 44
0.8433729999999998
  0
LINE
  5
313
330
1F
100
AcDbEntity
  8
2
100
AcDbLine
 10
274.404842
 20
288.907994
 30
0.0
 11
274.404842
 21
328.5109970000001
 31
0.0
  0
LINE
  5
314
330
1F
100
AcDbEntity
  8
2
100
AcDbLine
 10
214.404842
 20
302.907994
 30
0.0
 11
214.404842
 21
328.5109970000001
 31
0.0
  0
LINE
  5
315
330
1F
100
AcDbEntity
  8
2
100
AcDbLine
 10
274.404842
 20
327.510997
 30
0.0
 11
214.404842
 21
327.510997
 31
0.0
  0
SOLID
  5
316
330
1F
100
AcDbEntity
  8
2
100
AcDbTrace
 10
274.404842
 20
327.510997
 30
0.0
 11
270.904844
 21
326.893852
 31
0.0
 12
270.90484
 22
328.128141
 32
0.0
 13
270.90484
 23
328.128141
 33
0.0
  0
SOLID
  5
317
330
1F
100
AcDbEntity
  8
2
100
AcDbTrace
 10
214.404842
 20
327.510997
 30
0.0
 11
217.90484
 21
328.128141
 31
0.0
 12
217.904844
 22
326.893852
 32
0.0
 13
217.904844
 23
326.893852
 33
0.0
  0
MTEXT
  5
318
330
1F
100
AcDbEntity
  8
2
100
AcDbMText
 10
312.090342
 20
327.385163
 30
0.0
 40
3.5
 41
0.0
 71
     7
 72
     5
  1
\W0.7259;79
  7
cesky
 73
     2
 44
0.8433729999999998
  0
LINE
  5
319
330
1F
100
AcDbEntity
  8
2
100
AcDbLine
 10
353.404842
 20
302.407994
 30
0.0
 11
353.404842
 21
328.5109970000001
 31
0.0
  0
LINE
  5
31A
330
1F
100
AcDbEntity
  8
2
100
AcDbLine
 10
274.404842
 20
289.907567
 30
0.0
 11
274.404842
 21
328.5109970000001
 31
0.0
  0
LINE
  5
31B
330
1F
100
AcDbEntity
  8
2
100
AcDbLine
 10
353.404842
 20
327.510997
 30
0.0
 11
274.404842
 21
327.510997
 31
0.0
  0
SOLID
  5
31C
330
1F
100
AcDbEntity
  8
2
100
AcDbTrace
 10
353.404842
 20
327.510997
 30
0.0
 11
349.904844
 21
326.893852
 31
0.0
 12
349.90484
 22
328.128141
 32
0.0
 13
349.90484
 23
328.128141
 33
0.0
  0
SOLID
  5
31D
330
1F
100
AcDbEntity
  8
2
100
AcDbTrace
 10
274.404842
 20
327.510997
 30
0.0
 11
277.90484
 21
328.128141
 31
0.0
 12
277.904844
 22
326.893852
 32
0.0
 13
277.904844
 23
326.893852
 33
0.0
  0
MTEXT
  5
31E
330
1F
100
AcDbEntity
  8
SK2
100
AcDbMText
 10
203.850458
 20
290.434244
 30
0.0
 40
3.5
 41
0.0
 71
     7
 72
     5
  1
\W0.7045;32
  7
cesky
 11
0.0000000000000001
 21
1.0
 31
0.0
 73
     2
 44
0.8433729999999998
  0
MTEXT
  5
31F
330
1F
100
AcDbEntity
  8
SK2
100
AcDbMText
 10
203.850458
 20
283.696744
 30
0.0
 40
3.5
 41
0.0
 71
     7
 72
     5
  1
\W3.0115;\H2.63;%%c\H3.50;
  7
cesky
 11
0.0000000000000001
 21
1.0
 31
0.0
 73
     2
 44
0.8433729999999998
  0
LINE
  5
320
330
1F
100
AcDbEntity
  8
SK2
100
AcDbLine
 10
216.404842
 20
304.907994
 30
0.0
 11
203.037875
 21
304.907994
 31
0.0
  0
LINE
  5
321
330
1F
100
AcDbEntity
  8
SK2
100
AcDbLine
 10
216.404842
 20
272.907994
 30
0.0
 11
203.037875
 21
272.907994
 31
0.0
  0
LINE
  5
322
330
1F
100
AcDbEntity
  8
SK2
100
AcDbLine
 10
204.037875
 20
304.907994
 30
0.0
 11
204.037875
 21
272.907994
 31
0.0
  0
SOLID
  5
323
330
1F
100
AcDbEntity
  8
SK2
100
AcDbTrace
 10
204.037875
 20
304.907994
 30
0.0
 11
204.65502
 21
301.407996
 31
0.0
 12
203.420731
 22
301.407991
 32
0.0
 13
203.420731
 23
301.407991
 33
0.0
  0
SOLID
  5
324
330
1F
100
AcDbEntity
  8
SK2
100
AcDbTrace
 10
204.037875
 20
272.907994
 30
0.0
 11
203.420731
 21
276.407991
 31
0.0
 12
204.65502
 22
276.407996
 32
0.0
 13
204.65502
 23
276.407996
 33
0.0
  0
MTEXT
  5
325
330
1F
100
AcDbEntity
  8
SK2
100
AcDbMText
 10
191.10057
 20
290.434244
 30
0.0
 40
3.5
 41
0.0
 71
     7
 72
     5
  1
\W0.7045;42
  7
cesky
 11
0.0000000000000001
 21
1.0
 31
0.0
 73
     2
 44
0.8433729999999998
  0
MTEXT
  5
326
330
1F
100
AcDbEntity
  8
SK2
100
AcDbMText
 10
191.10057
 20
283.696744
 30
0.0
 40
3.5
 41
0.0
 71
     7
 72
     5
  1
\W3.0115;\H2.63;%%c\H3.50;
  7
cesky
 11
0.0000000000000001
 21
1.0
 31
0.0
 73
     2
 44
0.8433729999999998
  0
LINE
  5
327
330
1F
100
AcDbEntity
  8
SK2
100
AcDbLine
 10
274.904842
 20
309.907994
 30
0.0
 11
190.287987
 21
309.907994
 31
0.0
  0
LINE
  5
328
330
1F
100
AcDbEntity
  8
SK2
100
AcDbLine
 10
274.904842
 20
267.907994
 30
0.0
 11
190.287987
 21
267.907994
 31
0.0
  0
LINE
  5
329
330
1F
100
AcDbEntity
  8
SK2
100
AcDbLine
 10
191.287987
 20
309.907994
 30
0.0
 11
191.287987
 21
267.907994
 31
0.0
  0
SOLID
  5
32A
330
1F
100
AcDbEntity
  8
SK2
100
AcDbTrace
 10
191.287987
 20
309.907994
 30
0.0
 11
191.905131
 21
306.407996
 31
0.0
 12
190.670842
 22
306.407991
 32
0.0
 13
190.670842
 23
306.407991
 33
0.0
  0
SOLID
  5
32B
330
1F
100
AcDbEntity
  8
SK2
100
AcDbTrace
 10
191.287987
 20
267.907994
 30
0.0
 11
190.670842
 21
271.4079910000001
 31
0.0
 12
191.905131
 22
271.407996
 32
0.0
 13
191.905131
 23
271.407996
 33
0.0
  0
LINE
  5
32C
330
1F
100
AcDbEntity
  8
CUT
100
AcDbLine
 10
351.9696123824709
 20
302.4044288950364
 30
0.0
 11
345.5768136751308
 21
302.1111619524794
 31
0.0
  0
LINE
  5
32F
330
1F
100
AcDbEntity
  8
CUT
100
AcDbLine
 10
353.0306807968536
 20
295.9171398099886
 30
0.0
 11
352.7715033356618
 21
301.6742581282372
 31
0.0
  0
LINE
  5
330
330
1F
100
AcDbEntity
  8
CUT
100
AcDbLine
 10
353.2974360653503
 20
295.4732327309301
 30
0.0
 11
353.0306807968536
 21
295.9171398099886
 31
0.0
  0
LINE
  5
331
330
1F
100
AcDbEntity
  8
CUT
100
AcDbLine
 10
353.4048419452958
 20
289.3311772684492
 30
0.0
 11
353.2974360653504
 21
295.4732327309301
 31
0.0
  0
LINE
  5
332
330
1F
100
AcDbEntity
  8
CUT
100
AcDbLine
 10
344.843652
 20
288.907994
 30
0.0
 11
353.404842
 21
288.907994
 31
0.0
  0
LINE
  5
333
330
1F
100
AcDbEntity
  8
CUT
100
AcDbLine
 10
344.843652
 20
301.310094
 30
0.0
 11
344.843652
 21
288.907994
 31
0.0
  0
LINE
  5
334
330
1F
100
AcDbEntity
  8
CUT
100
AcDbLine
 10
353.404842
 20
288.907994
 30
0.0
 11
353.404842
 21
289.331177
 31
0.0
  0
ARC
  5
335
330
1F
100
AcDbEntity
  8
CUT
100
AcDbCircle
 10
351.9952105406927
 20
301.6277170208178
 30
0.0
 40
0.7776866838264163
100
AcDbArc
 50
3.430948987002813
 51
87.74742076627267
  0
ARC
  5
336
330
1F
100
AcDbEntity
  8
CUT
100
AcDbCircle
 10
352.0024704785591
 20
301.6871881431069
 30
0.0
 40
0.7179930018510178
100
AcDbArc
 50
88.13978624128694
 51
92.62298933873124
  0
ARC
  5
337
330
1F
100
AcDbEntity
  8
CUT
100
AcDbCircle
 10
345.6228917411928
 20
301.3320709920043
 30
0.0
 40
0.7804523770646568
100
AcDbArc
 50
93.38472272709649
 51
176.1093528631968
  0
ARC
  5
338
330
1F
100
AcDbEntity
  8
CUT
100
AcDbCircle
 10
345.55877064166
 20
301.3419719651296
 30
0.0
 40
0.7158285885669054
100
AcDbArc
 50
176.5517756015027
 51
182.5523984985645
  0
ENDSEC
  0
SECTION
  2
OBJECTS
  0
DICTIONARY
  5
C
330
0
100
AcDbDictionary
281
     1
  3
ACAD_CIP_PREVIOUS_PRODUCT_INFO
350
2FE
  3
ACAD_COLOR
350
2F9
  3
ACAD_DETAILVIEWSTYLE
350
2F5
  3
ACAD_GROUP
350
D
  3
ACAD_LAYOUT
350
1A
  3
ACAD_MATERIAL
350
43
  3
ACAD_MLEADERSTYLE
350
6B
  3
ACAD_MLINESTYLE
350
17
  3
ACAD_PLOTSETTINGS
350
19
  3
ACAD_PLOTSTYLENAME
350
E
  3
ACAD_SCALELIST
350
47
  3
ACAD_SECTIONVIEWSTYLE
350
2F6
  3
ACAD_TABLESTYLE
350
69
  3
ACAD_VISUALSTYLE
350
2A
  3
ACDB_RECOMPOSE_DATA
350
364
  3
AcDbVariableDictionary
350
2B2
  0
DICTIONARY
  5
347
330
10
100
AcDbDictionary
280
     1
281
     1
  3
ADSK_XREC_LAYER_RECONCILED
360
348
  0
DICTIONARY
  5
349
330
339
100
AcDbDictionary
280
     1
281
     1
  3
ADSK_XREC_LAYER_RECONCILED
360
34A
  0
DICTIONARY
  5
34B
330
33A
100
AcDbDictionary
280
     1
281
     1
  3
ADSK_XREC_LAYER_RECONCILED
360
34C
  0
DICTIONARY
  5
34D
330
33B
100
AcDbDictionary
280
     1
281
     1
  3
ADSK_XREC_LAYER_RECONCILED
360
34E
  0
DICTIONARY
  5
34F
330
33D
100
AcDbDictionary
280
     1
281
     1
  3
ADSK_XREC_LAYER_RECONCILED
360
350
  0
DICTIONARY
  5
351
330
33E
100
AcDbDictionary
280
     1
281
     1
  3
ADSK_XREC_LAYER_RECONCILED
360
352
  0
DICTIONARY
  5
353
330
340
100
AcDbDictionary
280
     1
281
     1
  3
ADSK_XREC_LAYER_RECONCILED
360
354
  0
DICTIONARY
  5
355
330
341
100
AcDbDictionary
280
     1
281
     1
  3
ADSK_XREC_LAYER_RECONCILED
360
356
  0
DICTIONARY
  5
357
330
342
100
AcDbDictionary
280
     1
281
     1
  3
ADSK_XREC_LAYER_RECONCILED
360
358
  0
DICTIONARY
  5
359
330
343
100
AcDbDictionary
280
     1
281
     1
  3
ADSK_XREC_LAYER_RECONCILED
360
35A
  0
DICTIONARY
  5
35B
330
344
100
AcDbDictionary
280
     1
281
     1
  3
ADSK_XREC_LAYER_RECONCILED
360
35C
  0
DICTIONARY
  5
35D
330
345
100
AcDbDictionary
280
     1
281
     1
  3
ADSK_XREC_LAYER_RECONCILED
360
35E
  0
DICTIONARY
  5
2FF
330
1F
100
AcDbDictionary
280
     1
281
     1
  3
ACAD_SORTENTS
360
300
  0
XRECORD
  5
2FE
102
{ACAD_REACTORS
330
C
102
}
330
C
100
AcDbXrecord
280
     1
300
ACD
300
2019
300
87084ACD_2019_0F
  0
DICTIONARY
  5
2F9
102
{ACAD_REACTORS
330
C
102
}
330
C
100
AcDbDictionary
281
     1
  0
DICTIONARY
  5
2F5
102
{ACAD_REACTORS
330
C
102
}
330
C
100
AcDbDictionary
281
     1
  3
Metric50
350
2FB
  0
DICTIONARY
  5
D
102
{ACAD_REACTORS
330
C
102
}
330
C
100
AcDbDictionary
281
     1
  3
NULOVY_BOD
350
346
  0
DICTIONARY
  5
1A
102
{ACAD_REACTORS
330
C
102
}
330
C
100
AcDbDictionary
281
     1
  3
Layout1
350
1E
  3
Layout2
350
26
  3
Model
350
22
  0
DICTIONARY
  5
43
102
{ACAD_REACTORS
330
C
102
}
330
C
100
AcDbDictionary
281
     1
  3
ByBlock
350
45
  3
ByLayer
350
44
  3
Global
350
46
  0
DICTIONARY
  5
6B
102
{ACAD_REACTORS
330
C
102
}
330
C
100
AcDbDictionary
281
     1
  3
Standard
350
6C
  0
DICTIONARY
  5
17
102
{ACAD_REACTORS
330
C
102
}
330
C
100
AcDbDictionary
281
     1
  3
Standard
350
18
  0
DICTIONARY
  5
19
102
{ACAD_REACTORS
330
C
102
}
330
C
100
AcDbDictionary
281
     1
  0
ACDBDICTIONARYWDFLT
  5
E
102
{ACAD_REACTORS
330
C
102
}
330
C
100
AcDbDictionary
281
     1
  3
Normal
350
F
100
AcDbDictionaryWithDefault
340
F
  0
DICTIONARY
  5
47
102
{ACAD_REACTORS
330
C
102
}
330
C
100
AcDbDictionary
281
     1
  3
A0
350
48
  3
A1
350
49
  3
A2
350
4A
  3
A3
350
4B
  3
A4
350
4C
  3
A5
350
4D
  3
A6
350
4E
  3
A7
350
4F
  3
A8
350
50
  3
A9
350
51
  3
B0
350
52
  3
B1
350
53
  3
B2
350
54
  3
B3
350
55
  3
B4
350
56
  3
B5
350
57
  3
B6
350
58
  3
B7
350
59
  3
B8
350
5A
  3
B9
350
5B
  3
C0
350
5C
  3
C1
350
5D
  3
C2
350
5E
  3
C3
350
5F
  3
C4
350
60
  3
C5
350
61
  3
C6
350
62
  3
C7
350
63
  3
C8
350
64
  3
C9
350
65
  3
D0
350
66
  3
D1
350
67
  3
D2
350
68
  0
DICTIONARY
  5
2F6
102
{ACAD_REACTORS
330
C
102
}
330
C
100
AcDbDictionary
281
     1
  3
Metric50
350
2FA
  0
DICTIONARY
  5
69
102
{ACAD_REACTORS
330
C
102
}
330
C
100
AcDbDictionary
281
     1
  3
Standard
350
6A
  0
DICTIONARY
  5
2A
102
{ACAD_REACTORS
330
C
102
}
330
C
100
AcDbDictionary
281
     1
  3
2dWireframe
350
2F
  3
Basic
350
32
  3
Brighten
350
36
  3
ColorChange
350
3A
  3
Conceptual
350
34
  3
Dim
350
35
  3
EdgeColorOff
350
3D
  3
Facepattern
350
39
  3
Flat
350
2B
  3
FlatWithEdges
350
2C
  3
Gouraud
350
2D
  3
GouraudWithEdges
350
2E
  3
Hidden
350
31
  3
JitterOff
350
3B
  3
Linepattern
350
38
  3
OverhangOff
350
3C
  3
Realistic
350
33
  3
Shaded
350
42
  3
Shaded with edges
350
41
  3
Shades of Gray
350
3E
  3
Sketchy
350
3F
  3
Thicken
350
37
  3
Wireframe
350
30
  3
X-Ray
350
40
  0
XRECORD
  5
364
102
{ACAD_REACTORS
330
C
102
}
330
C
100
AcDbXrecord
280
     1
 90
        1
330
6A
  0
DICTIONARY
  5
2B2
102
{ACAD_REACTORS
330
C
102
}
330
C
100
AcDbDictionary
281
     1
  3
CANNOSCALE
350
2B3
  3
CMLEADERSTYLE
350
2F4
  3
CTABLESTYLE
350
2F3
  3
CVIEWDETAILSTYLE
350
35F
  3
CVIEWSECTIONSTYLE
350
360
  3
MSLTSCALE
350
2B4
  3
XCLIPFRAME
350
361
  0
XRECORD
  5
348
102
{ACAD_REACTORS
330
347
102
}
330
347
100
AcDbXrecord
280
     1
290
     1
  0
XRECORD
  5
34A
102
{ACAD_REACTORS
330
349
102
}
330
349
100
AcDbXrecord
280
     1
290
     1
  0
XRECORD
  5
34C
102
{ACAD_REACTORS
330
34B
102
}
330
34B
100
AcDbXrecord
280
     1
290
     1
  0
XRECORD
  5
34E
102
{ACAD_REACTORS
330
34D
102
}
330
34D
100
AcDbXrecord
280
     1
290
     1
  0
XRECORD
  5
350
102
{ACAD_REACTORS
330
34F
102
}
330
34F
100
AcDbXrecord
280
     1
290
     1
  0
XRECORD
  5
352
102
{ACAD_REACTORS
330
351
102
}
330
351
100
AcDbXrecord
280
     1
290
     1
  0
XRECORD
  5
354
102
{ACAD_REACTORS
330
353
102
}
330
353
100
AcDbXrecord
280
     1
290
     1
  0
XRECORD
  5
356
102
{ACAD_REACTORS
330
355
102
}
330
355
100
AcDbXrecord
280
     1
290
     1
  0
XRECORD
  5
358
102
{ACAD_REACTORS
330
357
102
}
330
357
100
AcDbXrecord
280
     1
290
     1
  0
XRECORD
  5
35A
102
{ACAD_REACTORS
330
359
102
}
330
359
100
AcDbXrecord
280
     1
290
     1
  0
XRECORD
  5
35C
102
{ACAD_REACTORS
330
35B
102
}
330
35B
100
AcDbXrecord
280
     1
290
     1
  0
XRECORD
  5
35E
102
{ACAD_REACTORS
330
35D
102
}
330
35D
100
AcDbXrecord
280
     1
290
     1
  0
SORTENTSTABLE
  5
300
102
{ACAD_REACTORS
330
2FF
102
}
330
2FF
100
AcDbSortentsTable
330
1F
331
301
  5
20C
331
302
  5
225
331
303
  5
301
331
304
  5
302
331
305
  5
303
331
306
  5
314
331
307
  5
315
331
308
  5
316
331
309
  5
317
331
30A
  5
318
331
30B
  5
319
331
30C
  5
31A
331
30D
  5
31B
331
30E
  5
31C
331
30F
  5
31D
331
310
  5
31E
331
311
  5
31F
331
312
  5
320
331
313
  5
321
331
314
  5
322
331
315
  5
323
331
316
  5
324
331
317
  5
325
331
318
  5
326
331
319
  5
327
331
31A
  5
328
331
31B
  5
329
331
31C
  5
32A
331
31D
  5
32B
331
31E
  5
306
331
31F
  5
307
331
320
  5
308
331
321
  5
309
331
322
  5
30A
331
323
  5
30B
331
324
  5
30C
331
325
  5
30D
331
326
  5
30E
331
327
  5
30F
331
328
  5
310
331
329
  5
311
331
32A
  5
312
331
32B
  5
313
331
32F
  5
333
331
330
  5
334
331
331
  5
335
331
332
  5
336
331
333
  5
337
331
334
  5
338
331
335
  5
32F
331
336
  5
330
331
337
  5
331
331
338
  5
332
  0
ACDBDETAILVIEWSTYLE
  5
2FB
102
{ACAD_XDICTIONARY
360
398
102
}
102
{ACAD_REACTORS
330
2F5
102
}
330
2F5
100
AcDbModelDocViewStyle
 70
     0
  3
Metric50
290
     0
100
AcDbDetailViewStyle
 70
     0
 71
     0
 90
        3
 71
     1
340
11
 62
   256
 40
5.0
340
0
 62
   256
 40
5.0
300

 40
0.0
280
     1
 71
     2
340
16
 90
       25
 62
   256
 71
     3
340
11
 62
   256
 40
5.0
 90
        0
 40
15.0
 90
        1
300
%<\AcVar ViewDetailId>% (%<\AcVar ViewScale \f "%sn">%)
 71
     4
340
16
 90
       25
 62
   256
340
16
 90
       25
 62
   256
280
     0
  0
GROUP
  5
346
102
{ACAD_REACTORS
330
D
102
}
330
D
100
AcDbGroup
300

 70
     0
 71
     1
340
73
  0
LAYOUT
  5
1E
102
{ACAD_REACTORS
330
1A
102
}
330
1A
100
AcDbPlotSettings
  1

  2
none_device
  4

  6

 40
0.0
 41
0.0
 42
0.0
 43
0.0
 44
0.0
 45
0.0
 46
0.0
 47
0.0
 48
0.0
 49
0.0
140
0.0
141
0.0
142
1.0
143
1.0
 70
   688
 72
     0
 73
     0
 74
     5
  7

 75
    16
147
1.0
 76
     0
 77
     2
 78
   300
148
0.0
149
0.0
100
AcDbLayout
  1
Layout1
 70
     1
 71
     1
 10
-0.5
 20
-0.5
 11
5.0
 21
5.0
 12
0.0
 22
0.0
 32
0.0
 14
-0.5
 24
-0.5
 34
-0.5
 15
5.0
 25
5.0
 35
5.0
146
0.0
 13
0.0
 23
0.0
 33
0.0
 16
1.0
 26
0.0
 36
0.0
 17
0.0
 27
1.0
 37
0.0
 76
     0
330
1B
  0
LAYOUT
  5
26
102
{ACAD_REACTORS
330
1A
102
}
330
1A
100
AcDbPlotSettings
  1

  2
none_device
  4

  6

 40
0.0
 41
0.0
 42
0.0
 43
0.0
 44
0.0
 45
0.0
 46
0.0
 47
0.0
 48
0.0
 49
0.0
140
0.0
141
0.0
142
1.0
143
1.0
 70
   688
 72
     0
 73
     0
 74
     5
  7

 75
    16
147
1.0
 76
     0
 77
     2
 78
   300
148
0.0
149
0.0
100
AcDbLayout
  1
Layout2
 70
     1
 71
     2
 10
0.0
 20
0.0
 11
0.0
 21
0.0
 12
0.0
 22
0.0
 32
0.0
 14
0.0
 24
0.0
 34
0.0
 15
0.0
 25
0.0
 35
0.0
146
0.0
 13
0.0
 23
0.0
 33
0.0
 16
1.0
 26
0.0
 36
0.0
 17
0.0
 27
1.0
 37
0.0
 76
     0
330
23
  0
LAYOUT
  5
22
102
{ACAD_REACTORS
330
1A
102
}
330
1A
100
AcDbPlotSettings
  1

  2
none_device
  4
Letter_(8.50_x_11.00_Inches)
  6

 40
6.349999999999999
 41
6.349999999999999
 42
6.350005
 43
6.350005
 44
215.9
 45
279.4
 46
0.0
 47
0.0
 48
0.0
 49
0.0
140
0.0
141
0.0
142
1.0
143
1.0
 70
  1712
 72
     0
 73
     0
 74
     0
  7

 75
     0
147
1.0
 76
     0
 77
     2
 78
   300
148
0.0
149
0.0
100
AcDbLayout
  1
Model
 70
     1
 71
     0
 10
-0.5
 20
-0.5
 11
5.0
 21
5.0
 12
0.0
 22
0.0
 32
0.0
 14
-0.5
 24
-0.5
 34
-0.5
 15
5.0
 25
5.0
 35
5.0
146
0.0
 13
0.0
 23
0.0
 33
0.0
 16
1.0
 26
0.0
 36
0.0
 17
0.0
 27
1.0
 37
0.0
 76
     0
330
1F
331
29
  0
MATERIAL
  5
45
102
{ACAD_XDICTIONARY
360
2E8
102
}
102
{ACAD_REACTORS
330
43
102
}
330
43
100
AcDbMaterial
  1
ByBlock
  0
MATERIAL
  5
44
102
{ACAD_XDICTIONARY
360
2E6
102
}
102
{ACAD_REACTORS
330
43
102
}
330
43
100
AcDbMaterial
  1
ByLayer
  0
MATERIAL
  5
46
102
{ACAD_XDICTIONARY
360
2EA
102
}
102
{ACAD_REACTORS
330
43
102
}
330
43
100
AcDbMaterial
  1
Global
  0
MLEADERSTYLE
  5
6C
102
{ACAD_REACTORS
330
6B
102
}
330
6B
100
AcDbMLeaderStyle
170
     2
171
     1
172
     0
 90
        2
 40
0.0
 41
0.0
173
     1
 91
-1056964608
340
14
 92
       -2
290
     1
 42
0.09
291
     1
 43
0.36
  3
Standard
 44
0.18
300

342
11
174
     1
178
     6
175
     1
176
     0
 93
-1056964608
 45
0.18
292
     0
297
     0
 46
0.18
 94
-1056964608
 47
1.0
 49
1.0
140
1.0
293
     1
141
0.0
294
     1
177
     0
142
1.0
295
     0
296
     0
143
0.125
1001
ACAD_MLEADERVER
1070
     2
  0
MLINESTYLE
  5
18
102
{ACAD_REACTORS
330
17
102
}
330
17
100
AcDbMlineStyle
  2
STANDARD
 70
     0
  3

 62
   256
 51
90.0
 52
90.0
 71
     2
 49
0.5
 62
   256
  6
BYLAYER
 49
-0.5
 62
   256
  6
BYLAYER
  0
ACDBPLACEHOLDER
  5
F
102
{ACAD_REACTORS
330
E
102
}
330
E
  0
SCALE
  5
48
102
{ACAD_REACTORS
330
47
102
}
330
47
100
AcDbScale
 70
     0
300
1:1
140
1.0
141
1.0
290
     1
  0
SCALE
  5
49
102
{ACAD_REACTORS
330
47
102
}
330
47
100
AcDbScale
 70
     0
300
1:2
140
1.0
141
2.0
290
     0
  0
SCALE
  5
4A
102
{ACAD_REACTORS
330
47
102
}
330
47
100
AcDbScale
 70
     0
300
1:4
140
1.0
141
4.0
290
     0
  0
SCALE
  5
4B
102
{ACAD_REACTORS
330
47
102
}
330
47
100
AcDbScale
 70
     0
300
1:5
140
1.0
141
5.0
290
     0
  0
SCALE
  5
4C
102
{ACAD_REACTORS
330
47
102
}
330
47
100
AcDbScale
 70
     0
300
1:8
140
1.0
141
8.0
290
     0
  0
SCALE
  5
4D
102
{ACAD_REACTORS
330
47
102
}
330
47
100
AcDbScale
 70
     0
300
1:10
140
1.0
141
10.0
290
     0
  0
SCALE
  5
4E
102
{ACAD_REACTORS
330
47
102
}
330
47
100
AcDbScale
 70
     0
300
1:16
140
1.0
141
16.0
290
     0
  0
SCALE
  5
4F
102
{ACAD_REACTORS
330
47
102
}
330
47
100
AcDbScale
 70
     0
300
1:20
140
1.0
141
20.0
290
     0
  0
SCALE
  5
50
102
{ACAD_REACTORS
330
47
102
}
330
47
100
AcDbScale
 70
     0
300
1:30
140
1.0
141
30.0
290
     0
  0
SCALE
  5
51
102
{ACAD_REACTORS
330
47
102
}
330
47
100
AcDbScale
 70
     0
300
1:40
140
1.0
141
40.0
290
     0
  0
SCALE
  5
52
102
{ACAD_REACTORS
330
47
102
}
330
47
100
AcDbScale
 70
     0
300
1:50
140
1.0
141
50.0
290
     0
  0
SCALE
  5
53
102
{ACAD_REACTORS
330
47
102
}
330
47
100
AcDbScale
 70
     0
300
1:100
140
1.0
141
100.0
290
     0
  0
SCALE
  5
54
102
{ACAD_REACTORS
330
47
102
}
330
47
100
AcDbScale
 70
     0
300
2:1
140
2.0
141
1.0
290
     0
  0
SCALE
  5
55
102
{ACAD_REACTORS
330
47
102
}
330
47
100
AcDbScale
 70
     0
300
4:1
140
4.0
141
1.0
290
     0
  0
SCALE
  5
56
102
{ACAD_REACTORS
330
47
102
}
330
47
100
AcDbScale
 70
     0
300
8:1
140
8.0
141
1.0
290
     0
  0
SCALE
  5
57
102
{ACAD_REACTORS
330
47
102
}
330
47
100
AcDbScale
 70
     0
300
10:1
140
10.0
141
1.0
290
     0
  0
SCALE
  5
58
102
{ACAD_REACTORS
330
47
102
}
330
47
100
AcDbScale
 70
     0
300
100:1
140
100.0
141
1.0
290
     0
  0
SCALE
  5
59
102
{ACAD_REACTORS
330
47
102
}
330
47
100
AcDbScale
 70
     0
300
1/128" = 1'-0"
140
0.007812
141
12.0
290
     0
  0
SCALE
  5
5A
102
{ACAD_REACTORS
330
47
102
}
330
47
100
AcDbScale
 70
     0
300
1/64" = 1'-0"
140
0.015625
141
12.0
290
     0
  0
SCALE
  5
5B
102
{ACAD_REACTORS
330
47
102
}
330
47
100
AcDbScale
 70
     0
300
1/32" = 1'-0"
140
0.03125
141
12.0
290
     0
  0
SCALE
  5
5C
102
{ACAD_REACTORS
330
47
102
}
330
47
100
AcDbScale
 70
     0
300
1/16" = 1'-0"
140
0.0625
141
12.0
290
     0
  0
SCALE
  5
5D
102
{ACAD_REACTORS
330
47
102
}
330
47
100
AcDbScale
 70
     0
300
3/32" = 1'-0"
140
0.09375
141
12.0
290
     0
  0
SCALE
  5
5E
102
{ACAD_REACTORS
330
47
102
}
330
47
100
AcDbScale
 70
     0
300
1/8" = 1'-0"
140
0.125
141
12.0
290
     0
  0
SCALE
  5
5F
102
{ACAD_REACTORS
330
47
102
}
330
47
100
AcDbScale
 70
     0
300
3/16" = 1'-0"
140
0.1875
141
12.0
290
     0
  0
SCALE
  5
60
102
{ACAD_REACTORS
330
47
102
}
330
47
100
AcDbScale
 70
     0
300
1/4" = 1'-0"
140
0.25
141
12.0
290
     0
  0
SCALE
  5
61
102
{ACAD_REACTORS
330
47
102
}
330
47
100
AcDbScale
 70
     0
300
3/8" = 1'-0"
140
0.375
141
12.0
290
     0
  0
SCALE
  5
62
102
{ACAD_REACTORS
330
47
102
}
330
47
100
AcDbScale
 70
     0
300
1/2" = 1'-0"
140
0.5
141
12.0
290
     0
  0
SCALE
  5
63
102
{ACAD_REACTORS
330
47
102
}
330
47
100
AcDbScale
 70
     0
300
3/4" = 1'-0"
140
0.75
141
12.0
290
     0
  0
SCALE
  5
64
102
{ACAD_REACTORS
330
47
102
}
330
47
100
AcDbScale
 70
     0
300
1" = 1'-0"
140
1.0
141
12.0
290
     0
  0
SCALE
  5
65
102
{ACAD_REACTORS
330
47
102
}
330
47
100
AcDbScale
 70
     0
300
1-1/2" = 1'-0"
140
1.5
141
12.0
290
     0
  0
SCALE
  5
66
102
{ACAD_REACTORS
330
47
102
}
330
47
100
AcDbScale
 70
     0
300
3" = 1'-0"
140
3.0
141
12.0
290
     0
  0
SCALE
  5
67
102
{ACAD_REACTORS
330
47
102
}
330
47
100
AcDbScale
 70
     0
300
6" = 1'-0"
140
6.0
141
12.0
290
     0
  0
SCALE
  5
68
102
{ACAD_REACTORS
330
47
102
}
330
47
100
AcDbScale
 70
     0
300
1'-0" = 1'-0"
140
12.0
141
12.0
290
     0
  0
ACDBSECTIONVIEWSTYLE
  5
2FA
102
{ACAD_XDICTIONARY
360
396
102
}
102
{ACAD_REACTORS
330
2F6
102
}
330
2F6
100
AcDbModelDocViewStyle
 70
     0
  3
Metric50
290
     0
100
AcDbSectionViewStyle
 70
     0
 71
     0
 90
      102
 71
     1
340
11
 62
   256
 40
5.0
340
0
340
0
 62
   256
 40
5.0
300
I, O, Q, S, X, Z
 40
10.0
 90
        0
 40
2.5
 90
        0
 71
     2
340
16
 90
       25
 62
   256
340
16
 90
       50
 62
   256
 40
5.0
 40
2.5
 40
5.0
 71
     3
340
11
 62
   256
 40
5.0
 90
        0
 40
15.0
 90
        1
300
%<\AcVar ViewSectionStartId>%-%<\AcVar ViewSectionEndId>% (%<\AcVar ViewScale \f "%sn">%)
 71
     4
 62
   256
 62
   257
300
ANSI31
 40
1.0
 90
        0
290
     0
290
     0
 90
        6
 40
0.0
 40
1.570796326794896
 40
0.2617993877991494
 40
1.308996938995747
 40
-0.2617993877991494
 40
1.832595714594046
  0
TABLESTYLE
  5
6A
102
{ACAD_XDICTIONARY
360
2EC
102
}
102
{ACAD_REACTORS
330
69
102
}
330
69
100
AcDbTableStyle
  3
Standard
 70
     0
 71
     0
 40
0.06
 41
0.06
280
     0
281
     0
  7
Standard
140
0.18
170
     2
 62
     0
 63
     7
283
     0
274
    -2
284
     1
 64
     0
275
    -2
285
     1
 65
     0
276
    -2
286
     1
 66
     0
277
    -2
287
     1
 67
     0
278
    -2
288
     1
 68
     0
279
    -2
289
     1
 69
     0
  7
Standard
140
0.25
170
     5
 62
     0
 63
     7
283
     0
274
    -2
284
     1
 64
     0
275
    -2
285
     1
 65
     0
276
    -2
286
     1
 66
     0
277
    -2
287
     1
 67
     0
278
    -2
288
     1
 68
     0
279
    -2
289
     1
 69
     0
  7
Standard
140
0.18
170
     5
 62
     0
 63
     7
283
     0
274
    -2
284
     1
 64
     0
275
    -2
285
     1
 65
     0
276
    -2
286
     1
 66
     0
277
    -2
287
     1
 67
     0
278
    -2
288
     1
 68
     0
279
    -2
289
     1
 69
     0
  0
VISUALSTYLE
  5
2F
102
{ACAD_XDICTIONARY
360
36D
102
}
102
{ACAD_REACTORS
330
2A
102
}
330
2A
100
AcDbVisualStyle
  2

 70
     4
 71
     0
 72
     2
 73
     0
 90
        0
 40
-0.6
 41
-30.0
 62
     5
 63
     7
421
 16777215
 74
     1
 91
        4
 64
     7
 65
   257
 75
     1
175
     1
 42
1.0
 92
        0
 66
   257
 43
1.0
 76
     1
 77
     6
 78
     2
 67
     7
 79
     5
170
     0
171
     0
290
     0
174
     0
 93
        1
 44
0.0
173
     0
291
     0
 45
0.0
1001
ACAD
1000
AcDbSavedByObjectVersion
1070
     0
  0
VISUALSTYLE
  5
32
102
{ACAD_XDICTIONARY
360
373
102
}
102
{ACAD_REACTORS
330
2A
102
}
330
2A
100
AcDbVisualStyle
  2

 70
     7
 71
     1
 72
     0
 73
     1
 90
        0
 40
-0.6
 41
-30.0
 62
     5
 63
     7
421
 16777215
 74
     0
 91
        4
 64
     7
 65
   257
 75
     1
175
     1
 42
1.0
 92
        8
 66
     7
 43
1.0
 76
     1
 77
     6
 78
     2
 67
     7
 79
     5
170
     0
171
     0
290
     0
174
     0
 93
        1
 44
0.0
173
     0
291
     1
 45
0.0
1001
ACAD
1000
AcDbSavedByObjectVersion
1070
     0
  0
VISUALSTYLE
  5
36
102
{ACAD_XDICTIONARY
360
37B
102
}
102
{ACAD_REACTORS
330
2A
102
}
330
2A
100
AcDbVisualStyle
  2

 70
    12
 71
     2
 72
     2
 73
     0
 90
        0
 40
-0.6
 41
-30.0
 62
     5
 63
     7
421
 16777215
 74
     1
 91
        4
 64
     7
 65
   257
 75
     1
175
     1
 42
1.0
 92
        8
 66
     7
 43
1.0
 76
     1
 77
     6
 78
     2
 67
     7
 79
     5
170
     0
171
     0
290
     0
174
     0
 93
        1
 44
50.0
173
     0
291
     1
 45
0.0
1001
ACAD
1000
AcDbSavedByObjectVersion
1070
     0
  0
VISUALSTYLE
  5
3A
102
{ACAD_XDICTIONARY
360
383
102
}
102
{ACAD_REACTORS
330
2A
102
}
330
2A
100
AcDbVisualStyle
  2

 70
    16
 71
     2
 72
     2
 73
     3
 90
        0
 40
-0.6
 41
-30.0
 62
     5
 63
     8
421
  8421504
 74
     1
 91
        4
 64
     7
 65
   257
 75
     1
175
     1
 42
1.0
 92
        8
 66
     8
424
  8421504
 43
1.0
 76
     1
 77
     6
 78
     2
 67
     7
 79
     5
170
     0
171
     0
290
     0
174
     0
 93
        1
 44
0.0
173
     0
291
     1
 45
0.0
1001
ACAD
1000
AcDbSavedByObjectVersion
1070
     0
  0
VISUALSTYLE
  5
34
102
{ACAD_XDICTIONARY
360
377
102
}
102
{ACAD_REACTORS
330
2A
102
}
330
2A
100
AcDbVisualStyle
  2

 70
     9
 71
     3
 72
     2
 73
     0
 90
        0
 40
-0.6
 41
-30.0
 62
     5
 63
     7
421
 16777215
 74
     2
 91
        2
 64
     7
 65
   257
 75
     1
175
     1
 42
179.0
 92
        8
 66
     7
 43
1.0
 76
     1
 77
     6
 78
     2
 67
     7
 79
     3
170
     0
171
     0
290
     0
174
     0
 93
        1
 44
0.0
173
     0
291
     0
 45
0.0
1001
ACAD
1000
AcDbSavedByObjectVersion
1070
     0
  0
VISUALSTYLE
  5
35
102
{ACAD_XDICTIONARY
360
379
102
}
102
{ACAD_REACTORS
330
2A
102
}
330
2A
100
AcDbVisualStyle
  2

 70
    11
 71
     2
 72
     2
 73
     0
 90
        0
 40
-0.6
 41
-30.0
 62
     5
 63
     7
421
 16777215
 74
     1
 91
        4
 64
     7
 65
   257
 75
     1
175
     1
 42
1.0
 92
        8
 66
     7
 43
1.0
 76
     1
 77
     6
 78
     2
 67
     7
 79
     5
170
     0
171
     0
290
     0
174
     0
 93
        1
 44
-50.0
173
     0
291
     1
 45
0.0
1001
ACAD
1000
AcDbSavedByObjectVersion
1070
     0
  0
VISUALSTYLE
  5
3D
102
{ACAD_XDICTIONARY
360
389
102
}
102
{ACAD_REACTORS
330
2A
102
}
330
2A
100
AcDbVisualStyle
  2

 70
    22
 71
     2
 72
     2
 73
     0
 90
        0
 40
-0.6
 41
-30.0
 62
     5
 63
     7
421
 16777215
 74
     1
 91
        4
 64
     7
 65
   257
 75
     1
175
     1
 42
1.0
 92
        8
 66
     7
 43
1.0
 76
     1
 77
     6
 78
     2
 67
     7
 79
     5
170
     0
171
     0
290
     0
174
     0
 93
        1
 44
0.0
173
     0
291
     1
 45
0.0
1001
ACAD
1000
AcDbSavedByObjectVersion
1070
     0
  0
VISUALSTYLE
  5
39
102
{ACAD_XDICTIONARY
360
381
102
}
102
{ACAD_REACTORS
330
2A
102
}
330
2A
100
AcDbVisualStyle
  2

 70
    15
 71
     2
 72
     2
 73
     0
 90
        0
 40
-0.6
 41
-30.0
 62
     5
 63
     7
421
 16777215
 74
     1
 91
        4
 64
     7
 65
   257
 75
     1
175
     1
 42
1.0
 92
        8
 66
     7
 43
1.0
 76
     1
 77
     6
 78
     2
 67
     7
 79
     5
170
     0
171
     0
290
     0
174
     0
 93
        1
 44
0.0
173
     0
291
     1
 45
0.0
1001
ACAD
1000
AcDbSavedByObjectVersion
1070
     0
  0
VISUALSTYLE
  5
2B
102
{ACAD_XDICTIONARY
360
365
102
}
102
{ACAD_REACTORS
330
2A
102
}
330
2A
100
AcDbVisualStyle
  2

 70
     0
 71
     2
 72
     1
 73
     1
 90
        2
 40
-0.6
 41
30.0
 62
     5
 63
     7
421
 16777215
 74
     0
 91
        0
 64
     7
 65
   257
 75
     1
175
     1
 42
1.0
 92
        8
 66
     7
 43
1.0
 76
     1
 77
     6
 78
     2
 67
     7
 79
     5
170
     0
171
     0
290
     0
174
     0
 93
       13
 44
0.0
173
     0
291
     1
 45
0.0
1001
ACAD
1000
AcDbSavedByObjectVersion
1070
     0
  0
VISUALSTYLE
  5
2C
102
{ACAD_XDICTIONARY
360
367
102
}
102
{ACAD_REACTORS
330
2A
102
}
330
2A
100
AcDbVisualStyle
  2

 70
     1
 71
     2
 72
     1
 73
     1
 90
        2
 40
-0.6
 41
30.0
 62
     5
 63
     7
421
 16777215
 74
     1
 91
        0
 64
     7
 65
   257
 75
     1
175
     1
 42
1.0
 92
        0
 66
   257
 43
1.0
 76
     1
 77
     6
 78
     2
 67
     7
 79
     5
170
     0
171
     0
290
     0
174
     0
 93
       13
 44
0.0
173
     0
291
     1
 45
0.0
1001
ACAD
1000
AcDbSavedByObjectVersion
1070
     0
  0
VISUALSTYLE
  5
2D
102
{ACAD_XDICTIONARY
360
369
102
}
102
{ACAD_REACTORS
330
2A
102
}
330
2A
100
AcDbVisualStyle
  2

 70
     2
 71
     2
 72
     2
 73
     1
 90
        2
 40
-0.6
 41
30.0
 62
     5
 63
     7
421
 16777215
 74
     0
 91
        0
 64
     7
 65
   257
 75
     1
175
     1
 42
1.0
 92
        0
 66
     7
 43
1.0
 76
     1
 77
     6
 78
     2
 67
     7
 79
     5
170
     0
171
     0
290
     0
174
     0
 93
       13
 44
0.0
173
     0
291
     1
 45
0.0
1001
ACAD
1000
AcDbSavedByObjectVersion
1070
     0
  0
VISUALSTYLE
  5
2E
102
{ACAD_XDICTIONARY
360
36B
102
}
102
{ACAD_REACTORS
330
2A
102
}
330
2A
100
AcDbVisualStyle
  2

 70
     3
 71
     2
 72
     2
 73
     1
 90
        2
 40
-0.6
 41
30.0
 62
     5
 63
     7
421
 16777215
 74
     1
 91
        0
 64
     7
 65
   257
 75
     1
175
     1
 42
1.0
 92
        0
 66
   257
 43
1.0
 76
     1
 77
     6
 78
     2
 67
     7
 79
     5
170
     0
171
     0
290
     0
174
     0
 93
       13
 44
0.0
173
     0
291
     1
 45
0.0
1001
ACAD
1000
AcDbSavedByObjectVersion
1070
     0
  0
VISUALSTYLE
  5
31
102
{ACAD_XDICTIONARY
360
371
102
}
102
{ACAD_REACTORS
330
2A
102
}
330
2A
100
AcDbVisualStyle
  2

 70
     6
 71
     1
 72
     2
 73
     2
 90
        0
 40
-0.6
 41
-30.0
 62
     5
 63
     7
421
 16777215
 74
     2
 91
        2
 64
     7
 65
   257
 75
     2
175
     1
 42
40.0
 92
        0
 66
   257
 43
1.0
 76
     1
 77
     6
 78
     2
 67
     7
 79
     3
170
     0
171
     0
290
     0
174
     0
 93
        1
 44
0.0
173
     0
291
     0
 45
0.0
1001
ACAD
1000
AcDbSavedByObjectVersion
1070
     0
  0
VISUALSTYLE
  5
3B
102
{ACAD_XDICTIONARY
360
385
102
}
102
{ACAD_REACTORS
330
2A
102
}
330
2A
100
AcDbVisualStyle
  2

 70
    20
 71
     2
 72
     2
 73
     0
 90
        0
 40
-0.6
 41
-30.0
 62
     5
 63
     7
421
 16777215
 74
     1
 91
        4
 64
     7
 65
   257
 75
     1
175
     1
 42
1.0
 92
       10
 66
     7
 43
1.0
 76
     1
 77
     6
 78
     2
 67
     7
 79
     5
170
     0
171
     0
290
     0
174
     0
 93
        1
 44
0.0
173
     0
291
     1
 45
0.0
1001
ACAD
1000
AcDbSavedByObjectVersion
1070
     0
  0
VISUALSTYLE
  5
38
102
{ACAD_XDICTIONARY
360
37F
102
}
102
{ACAD_REACTORS
330
2A
102
}
330
2A
100
AcDbVisualStyle
  2

 70
    14
 71
     2
 72
     2
 73
     0
 90
        0
 40
-0.6
 41
-30.0
 62
     5
 63
     7
421
 16777215
 74
     1
 91
        4
 64
     7
 65
   257
 75
     7
175
     7
 42
1.0
 92
        8
 66
     7
 43
1.0
 76
     1
 77
     6
 78
     2
 67
     7
 79
     5
170
     0
171
     0
290
     0
174
     0
 93
        1
 44
0.0
173
     0
291
     1
 45
0.0
1001
ACAD
1000
AcDbSavedByObjectVersion
1070
     0
  0
VISUALSTYLE
  5
3C
102
{ACAD_XDICTIONARY
360
387
102
}
102
{ACAD_REACTORS
330
2A
102
}
330
2A
100
AcDbVisualStyle
  2

 70
    21
 71
     2
 72
     2
 73
     0
 90
        0
 40
-0.6
 41
-30.0
 62
     5
 63
     7
421
 16777215
 74
     1
 91
        4
 64
     7
 65
   257
 75
     1
175
     1
 42
1.0
 92
        9
 66
     7
 43
1.0
 76
     1
 77
     6
 78
     2
 67
     7
 79
     5
170
     0
171
     0
290
     0
174
     0
 93
        1
 44
0.0
173
     0
291
     1
 45
0.0
1001
ACAD
1000
AcDbSavedByObjectVersion
1070
     0
  0
VISUALSTYLE
  5
33
102
{ACAD_XDICTIONARY
360
375
102
}
102
{ACAD_REACTORS
330
2A
102
}
330
2A
100
AcDbVisualStyle
  2

 70
     8
 71
     2
 72
     3
 73
     0
 90
        2
 40
-0.6
 41
30.0
 62
     5
 63
     7
421
 16777215
 74
     0
 91
        0
 64
     7
 65
   257
 75
     1
175
     1
 42
1.0
 92
        8
 66
   257
 43
1.0
 76
     1
 77
     6
 78
     2
 67
     7
 79
     3
170
     0
171
     0
290
     0
174
     0
 93
       13
 44
0.0
173
     0
291
     0
 45
0.0
1001
ACAD
1000
AcDbSavedByObjectVersion
1070
     0
  0
VISUALSTYLE
  5
42
102
{ACAD_XDICTIONARY
360
393
102
}
102
{ACAD_REACTORS
330
2A
102
}
330
2A
100
AcDbVisualStyle
  2

 70
    27
 71
     2
 72
     2
 73
     1
 90
        2
 40
-0.6
 41
30.0
 62
     5
 63
     7
421
 16777215
 74
     0
 91
        4
 64
     7
 65
   257
 75
     1
175
     1
 42
1.0
 92
        8
 66
   257
 43
1.0
 76
     1
 77
     6
 78
     2
 67
     8
425
  7895160
 79
     3
170
     0
171
     0
290
     0
174
     0
 93
        5
 44
0.0
173
     0
291
     0
 45
0.0
1001
ACAD
1000
AcDbSavedByObjectVersion
1070
     0
  0
VISUALSTYLE
  5
41
102
{ACAD_XDICTIONARY
360
391
102
}
102
{ACAD_REACTORS
330
2A
102
}
330
2A
100
AcDbVisualStyle
  2

 70
    26
 71
     2
 72
     2
 73
     1
 90
        2
 40
-0.6
 41
30.0
 62
     5
 63
     7
421
 16777215
 74
     1
 91
       10
 64
     7
 65
   257
 75
     2
175
     1
 42
1.0
 92
        8
 66
   257
 43
1.0
 76
     1
 77
     6
 78
     2
 67
     7
 79
     3
170
     0
171
     0
290
     0
174
     0
 93
        5
 44
0.0
173
     0
291
     0
 45
0.0
1001
ACAD
1000
AcDbSavedByObjectVersion
1070
     0
  0
VISUALSTYLE
  5
3E
102
{ACAD_XDICTIONARY
360
38B
102
}
102
{ACAD_REACTORS
330
2A
102
}
330
2A
100
AcDbVisualStyle
  2

 70
    23
 71
     2
 72
     2
 73
     3
 90
        0
 40
-0.6
 41
-30.0
 62
     5
 63
     7
421
 16777215
 74
     2
 91
        2
 64
     7
 65
     7
 75
     1
175
     1
 42
40.0
 92
        8
 66
     7
 43
1.0
 76
     1
 77
     6
 78
     2
 67
     7
 79
     3
170
     0
171
     0
290
     0
174
     0
 93
        1
 44
0.0
173
     0
291
     0
 45
0.0
1001
ACAD
1000
AcDbSavedByObjectVersion
1070
     0
  0
VISUALSTYLE
  5
3F
102
{ACAD_XDICTIONARY
360
38D
102
}
102
{ACAD_REACTORS
330
2A
102
}
330
2A
100
AcDbVisualStyle
  2

 70
    24
 71
     1
 72
     2
 73
     2
 90
        0
 40
-0.6
 41
-30.0
 62
     5
 63
     7
421
 16777215
 74
     2
 91
        2
 64
     7
 65
     7
 75
     1
175
     1
 42
40.0
 92
       11
 66
     7
 43
1.0
 76
     1
 77
     6
 78
     2
 67
     7
 79
     6
170
     0
171
     0
290
     0
174
     0
 93
        1
 44
0.0
173
     0
291
     0
 45
0.0
1001
ACAD
1000
AcDbSavedByObjectVersion
1070
     0
  0
VISUALSTYLE
  5
37
102
{ACAD_XDICTIONARY
360
37D
102
}
102
{ACAD_REACTORS
330
2A
102
}
330
2A
100
AcDbVisualStyle
  2

 70
    13
 71
     2
 72
     2
 73
     0
 90
        0
 40
-0.6
 41
-30.0
 62
     5
 63
     7
421
 16777215
 74
     1
 91
        4
 64
     7
 65
   257
 75
     1
175
     1
 42
1.0
 92
       12
 66
     7
 43
1.0
 76
     1
 77
     6
 78
     2
 67
     7
 79
     5
170
     0
171
     0
290
     0
174
     0
 93
        1
 44
0.0
173
     0
291
     1
 45
0.0
1001
ACAD
1000
AcDbSavedByObjectVersion
1070
     0
  0
VISUALSTYLE
  5
30
102
{ACAD_XDICTIONARY
360
36F
102
}
102
{ACAD_REACTORS
330
2A
102
}
330
2A
100
AcDbVisualStyle
  2

 70
     5
 71
     0
 72
     2
 73
     0
 90
        0
 40
-0.6
 41
-30.0
 62
     5
 63
     7
421
 16777215
 74
     1
 91
        4
 64
     7
 65
   257
 75
     1
175
     1
 42
1.0
 92
        0
 66
   257
 43
1.0
 76
     1
 77
     6
 78
     2
 67
     7
 79
     3
170
     0
171
     0
290
     0
174
     0
 93
        1
 44
0.0
173
     0
291
     0
 45
0.0
1001
ACAD
1000
AcDbSavedByObjectVersion
1070
     0
  0
VISUALSTYLE
  5
40
102
{ACAD_XDICTIONARY
360
38F
102
}
102
{ACAD_REACTORS
330
2A
102
}
330
2A
100
AcDbVisualStyle
  2

 70
    25
 71
     2
 72
     2
 73
     1
 90
        1
 40
0.5
 41
-30.0
 62
     5
 63
     7
421
 16777215
 74
     1
 91
        0
 64
     7
 65
   257
 75
     1
175
     1
 42
1.0
 92
        8
 66
     7
 43
1.0
 76
     1
 77
     6
 78
     2
 67
     7
 79
     3
170
     0
171
     0
290
     0
174
     0
 93
       13
 44
0.0
173
     0
291
     0
 45
0.0
1001
ACAD
1000
AcDbSavedByObjectVersion
1070
     0
  0
DICTIONARYVAR
  5
2B3
102
{ACAD_REACTORS
330
2B2
102
}
330
2B2
100
DictionaryVariables
280
     0
  1
1:1
  0
DICTIONARYVAR
  5
2F4
102
{ACAD_REACTORS
330
2B2
102
}
330
2B2
100
DictionaryVariables
280
     0
  1
STANDARD
  0
DICTIONARYVAR
  5
2F3
102
{ACAD_REACTORS
330
2B2
102
}
330
2B2
100
DictionaryVariables
280
     0
  1
STANDARD
  0
DICTIONARYVAR
  5
35F
102
{ACAD_REACTORS
330
2B2
102
}
330
2B2
100
DictionaryVariables
280
     0
  1
Metric50
  0
DICTIONARYVAR
  5
360
102
{ACAD_REACTORS
330
2B2
102
}
330
2B2
100
DictionaryVariables
280
     0
  1
Metric50
  0
DICTIONARYVAR
  5
2B4
102
{ACAD_REACTORS
330
2B2
102
}
330
2B2
100
DictionaryVariables
280
     0
  1
1
  0
DICTIONARYVAR
  5
361
102
{ACAD_REACTORS
330
2B2
102
}
330
2B2
100
DictionaryVariables
280
     0
  1
2
  0
DICTIONARY
  5
398
330
2FB
100
AcDbDictionary
280
     1
281
     1
  3
ACAD_XREC_ROUNDTRIP
360
399
  0
DICTIONARY
  5
2E8
330
45
100
AcDbDictionary
280
     1
281
     1
  3
ACAD_XREC_ROUNDTRIP
360
2E9
  0
DICTIONARY
  5
2E6
330
44
100
AcDbDictionary
280
     1
281
     1
  3
ACAD_XREC_ROUNDTRIP
360
2E7
  0
DICTIONARY
  5
2EA
330
46
100
AcDbDictionary
280
     1
281
     1
  3
ACAD_XREC_ROUNDTRIP
360
2EB
  0
DICTIONARY
  5
396
330
2FA
100
AcDbDictionary
280
     1
281
     1
  3
ACAD_XREC_ROUNDTRIP
360
397
  0
DICTIONARY
  5
2EC
330
6A
100
AcDbDictionary
280
     1
281
     1
  3
ACAD_ROUNDTRIP_2008_TABLESTYLE_CELLSTYLEMAP
360
363
  3
ACAD_XREC_ROUNDTRIP
360
395
  0
DICTIONARY
  5
36D
330
2F
100
AcDbDictionary
280
     1
281
     1
  3
ACAD_XREC_ROUNDTRIP
360
36E
  0
DICTIONARY
  5
373
330
32
100
AcDbDictionary
280
     1
281
     1
  3
ACAD_XREC_ROUNDTRIP
360
374
  0
DICTIONARY
  5
37B
330
36
100
AcDbDictionary
280
     1
281
     1
  3
ACAD_XREC_ROUNDTRIP
360
37C
  0
DICTIONARY
  5
383
330
3A
100
AcDbDictionary
280
     1
281
     1
  3
ACAD_XREC_ROUNDTRIP
360
384
  0
DICTIONARY
  5
377
330
34
100
AcDbDictionary
280
     1
281
     1
  3
ACAD_XREC_ROUNDTRIP
360
378
  0
DICTIONARY
  5
379
330
35
100
AcDbDictionary
280
     1
281
     1
  3
ACAD_XREC_ROUNDTRIP
360
37A
  0
DICTIONARY
  5
389
330
3D
100
AcDbDictionary
280
     1
281
     1
  3
ACAD_XREC_ROUNDTRIP
360
38A
  0
DICTIONARY
  5
381
330
39
100
AcDbDictionary
280
     1
281
     1
  3
ACAD_XREC_ROUNDTRIP
360
382
  0
DICTIONARY
  5
365
330
2B
100
AcDbDictionary
280
     1
281
     1
  3
ACAD_XREC_ROUNDTRIP
360
366
  0
DICTIONARY
  5
367
330
2C
100
AcDbDictionary
280
     1
281
     1
  3
ACAD_XREC_ROUNDTRIP
360
368
  0
DICTIONARY
  5
369
330
2D
100
AcDbDictionary
280
     1
281
     1
  3
ACAD_XREC_ROUNDTRIP
360
36A
  0
DICTIONARY
  5
36B
330
2E
100
AcDbDictionary
280
     1
281
     1
  3
ACAD_XREC_ROUNDTRIP
360
36C
  0
DICTIONARY
  5
371
330
31
100
AcDbDictionary
280
     1
281
     1
  3
ACAD_XREC_ROUNDTRIP
360
372
  0
DICTIONARY
  5
385
330
3B
100
AcDbDictionary
280
     1
281
     1
  3
ACAD_XREC_ROUNDTRIP
360
386
  0
DICTIONARY
  5
37F
330
38
100
AcDbDictionary
280
     1
281
     1
  3
ACAD_XREC_ROUNDTRIP
360
380
  0
DICTIONARY
  5
387
330
3C
100
AcDbDictionary
280
     1
281
     1
  3
ACAD_XREC_ROUNDTRIP
360
388
  0
DICTIONARY
  5
375
330
33
100
AcDbDictionary
280
     1
281
     1
  3
ACAD_XREC_ROUNDTRIP
360
376
  0
DICTIONARY
  5
393
330
42
100
AcDbDictionary
280
     1
281
     1
  3
ACAD_XREC_ROUNDTRIP
360
394
  0
DICTIONARY
  5
391
330
41
100
AcDbDictionary
280
     1
281
     1
  3
ACAD_XREC_ROUNDTRIP
360
392
  0
DICTIONARY
  5
38B
330
3E
100
AcDbDictionary
280
     1
281
     1
  3
ACAD_XREC_ROUNDTRIP
360
38C
  0
DICTIONARY
  5
38D
330
3F
100
AcDbDictionary
280
     1
281
     1
  3
ACAD_XREC_ROUNDTRIP
360
38E
  0
DICTIONARY
  5
37D
330
37
100
AcDbDictionary
280
     1
281
     1
  3
ACAD_XREC_ROUNDTRIP
360
37E
  0
DICTIONARY
  5
36F
330
30
100
AcDbDictionary
280
     1
281
     1
  3
ACAD_XREC_ROUNDTRIP
360
370
  0
DICTIONARY
  5
38F
330
40
100
AcDbDictionary
280
     1
281
     1
  3
ACAD_XREC_ROUNDTRIP
360
390
  0
XRECORD
  5
399
102
{ACAD_REACTORS
330
398
102
}
330
398
100
AcDbXrecord
280
     1
102
DISPLAYNAME
  1
Metric50
102
FLAGS
 90
        0
  0
XRECORD
  5
2E9
102
{ACAD_REACTORS
330
2E8
102
}
330
2E8
100
AcDbXrecord
280
     1
102
MATERIAL
148
0.0
149
0.0
149
0.0
 93
        0
 94
      127
282
     0
 72
     1
 77
     1
171
     1
175
     1
179
     1
273
     0
  0
XRECORD
  5
2E7
102
{ACAD_REACTORS
330
2E6
102
}
330
2E6
100
AcDbXrecord
280
     1
102
MATERIAL
148
0.0
149
0.0
149
0.0
 93
        0
 94
      127
282
     0
 72
     1
 77
     1
171
     1
175
     1
179
     1
273
     0
  0
XRECORD
  5
2EB
102
{ACAD_REACTORS
330
2EA
102
}
330
2EA
100
AcDbXrecord
280
     1
102
MATERIAL
148
0.0
149
0.0
149
0.0
 93
        0
 94
      127
282
     0
 72
     1
 77
     1
171
     1
175
     1
179
     1
273
     0
  0
XRECORD
  5
397
102
{ACAD_REACTORS
330
396
102
}
330
396
100
AcDbXrecord
280
     1
102
DISPLAYNAME
  1
Metric50
102
FLAGS
 90
        0
  0
CELLSTYLEMAP
  5
363
102
{ACAD_REACTORS
330
2EC
102
}
330
2EC
100
AcDbCellStyleMap
 90
        3
300
CELLSTYLE
  1
TABLEFORMAT_BEGIN
 90
        5
170
     1
 91
        0
 92
    32768
 62
   257
 93
        1
300
CONTENTFORMAT
  1
CONTENTFORMAT_BEGIN
 90
        0
 91
        0
 92
        4
 93
        0
300

 40
0.0
140
1.0
 94
        5
 62
     0
340
11
144
0.25
309
CONTENTFORMAT_END
171
     1
301
MARGIN
  1
CELLMARGIN_BEGIN
 40
0.06
 40
0.06
 40
0.06
 40
0.06
 40
0.18
 40
0.18
309
CELLMARGIN_END
 94
        6
 95
        1
302
GRIDFORMAT
  1
GRIDFORMAT_BEGIN
 90
        0
 91
        1
 62
     0
 92
       -2
340
14
 93
        0
 40
0.045
309
GRIDFORMAT_END
 95
        2
302
GRIDFORMAT
  1
GRIDFORMAT_BEGIN
 90
        0
 91
        1
 62
     0
 92
       -2
340
14
 93
        0
 40
0.045
309
GRIDFORMAT_END
 95
        4
302
GRIDFORMAT
  1
GRIDFORMAT_BEGIN
 90
        0
 91
        1
 62
     0
 92
       -2
340
14
 93
        0
 40
0.045
309
GRIDFORMAT_END
 95
        8
302
GRIDFORMAT
  1
GRIDFORMAT_BEGIN
 90
        0
 91
        1
 62
     0
 92
       -2
340
14
 93
        0
 40
0.045
309
GRIDFORMAT_END
 95
       16
302
GRIDFORMAT
  1
GRIDFORMAT_BEGIN
 90
        0
 91
        1
 62
     0
 92
       -2
340
14
 93
        0
 40
0.045
309
GRIDFORMAT_END
 95
       32
302
GRIDFORMAT
  1
GRIDFORMAT_BEGIN
 90
        0
 91
        1
 62
     0
 92
       -2
340
14
 93
        0
 40
0.045
309
GRIDFORMAT_END
309
TABLEFORMAT_END
  1
CELLSTYLE_BEGIN
 90
        1
 91
        1
300
_TITLE
309
CELLSTYLE_END
300
CELLSTYLE
  1
TABLEFORMAT_BEGIN
 90
        5
170
     1
 91
        0
 92
        0
 62
   257
 93
        1
300
CONTENTFORMAT
  1
CONTENTFORMAT_BEGIN
 90
        0
 91
        0
 92
        4
 93
        0
300

 40
0.0
140
1.0
 94
        5
 62
     0
340
11
144
0.18
309
CONTENTFORMAT_END
171
     1
301
MARGIN
  1
CELLMARGIN_BEGIN
 40
0.06
 40
0.06
 40
0.06
 40
0.06
 40
0.18
 40
0.18
309
CELLMARGIN_END
 94
        6
 95
        1
302
GRIDFORMAT
  1
GRIDFORMAT_BEGIN
 90
        0
 91
        1
 62
     0
 92
       -2
340
14
 93
        0
 40
0.045
309
GRIDFORMAT_END
 95
        2
302
GRIDFORMAT
  1
GRIDFORMAT_BEGIN
 90
        0
 91
        1
 62
     0
 92
       -2
340
14
 93
        0
 40
0.045
309
GRIDFORMAT_END
 95
        4
302
GRIDFORMAT
  1
GRIDFORMAT_BEGIN
 90
        0
 91
        1
 62
     0
 92
       -2
340
14
 93
        0
 40
0.045
309
GRIDFORMAT_END
 95
        8
302
GRIDFORMAT
  1
GRIDFORMAT_BEGIN
 90
        0
 91
        1
 62
     0
 92
       -2
340
14
 93
        0
 40
0.045
309
GRIDFORMAT_END
 95
       16
302
GRIDFORMAT
  1
GRIDFORMAT_BEGIN
 90
        0
 91
        1
 62
     0
 92
       -2
340
14
 93
        0
 40
0.045
309
GRIDFORMAT_END
 95
       32
302
GRIDFORMAT
  1
GRIDFORMAT_BEGIN
 90
        0
 91
        1
 62
     0
 92
       -2
340
14
 93
        0
 40
0.045
309
GRIDFORMAT_END
309
TABLEFORMAT_END
  1
CELLSTYLE_BEGIN
 90
        2
 91
        1
300
_HEADER
309
CELLSTYLE_END
300
CELLSTYLE
  1
TABLEFORMAT_BEGIN
 90
        5
170
     1
 91
        0
 92
        0
 62
   257
 93
        1
300
CONTENTFORMAT
  1
CONTENTFORMAT_BEGIN
 90
        0
 91
        0
 92
        4
 93
        0
300

 40
0.0
140
1.0
 94
        2
 62
     0
340
11
144
0.18
309
CONTENTFORMAT_END
171
     1
301
MARGIN
  1
CELLMARGIN_BEGIN
 40
0.06
 40
0.06
 40
0.06
 40
0.06
 40
0.18
 40
0.18
309
CELLMARGIN_END
 94
        6
 95
        1
302
GRIDFORMAT
  1
GRIDFORMAT_BEGIN
 90
        0
 91
        1
 62
     0
 92
       -2
340
14
 93
        0
 40
0.045
309
GRIDFORMAT_END
 95
        2
302
GRIDFORMAT
  1
GRIDFORMAT_BEGIN
 90
        0
 91
        1
 62
     0
 92
       -2
340
14
 93
        0
 40
0.045
309
GRIDFORMAT_END
 95
        4
302
GRIDFORMAT
  1
GRIDFORMAT_BEGIN
 90
        0
 91
        1
 62
     0
 92
       -2
340
14
 93
        0
 40
0.045
309
GRIDFORMAT_END
 95
        8
302
GRIDFORMAT
  1
GRIDFORMAT_BEGIN
 90
        0
 91
        1
 62
     0
 92
       -2
340
14
 93
        0
 40
0.045
309
GRIDFORMAT_END
 95
       16
302
GRIDFORMAT
  1
GRIDFORMAT_BEGIN
 90
        0
 91
        1
 62
     0
 92
       -2
340
14
 93
        0
 40
0.045
309
GRIDFORMAT_END
 95
       32
302
GRIDFORMAT
  1
GRIDFORMAT_BEGIN
 90
        0
 91
        1
 62
     0
 92
       -2
340
14
 93
        0
 40
0.045
309
GRIDFORMAT_END
309
TABLEFORMAT_END
  1
CELLSTYLE_BEGIN
 90
        3
 91
        2
300
_DATA
309
CELLSTYLE_END
  0
XRECORD
  5
395
102
{ACAD_REACTORS
330
2EC
102
}
330
2EC
100
AcDbXrecord
280
     1
102
ACAD_ROUNDTRIP_PRE2007_TABLESTYLE
 90
        4
 91
        0
  1

 92
        4
 93
        0
  2

 94
        4
 95
        0
  3

  0
XRECORD
  5
36E
102
{ACAD_REACTORS
330
36D
102
}
330
36D
100
AcDbXrecord
280
     1
102
RTVSPost2010Prop28
280
     1
102
RTVSPost2010PropOp28
 70
     1
102
RTVSPost2010Prop29
280
     1
102
RTVSPost2010PropOp29
 70
     1
102
RTVSPost2010Prop30
280
     0
102
RTVSPost2010PropOp30
 70
     1
102
RTVSPost2010Prop31
280
     0
102
RTVSPost2010PropOp31
 70
     1
102
RTVSPost2010Prop32
280
     0
102
RTVSPost2010PropOp32
 70
     1
102
RTVSPost2010Prop33
280
     0
102
RTVSPost2010PropOp33
 70
     1
102
RTVSPost2010Prop34
280
     0
102
RTVSPost2010PropOp34
 70
     1
102
RTVSPost2010Prop35
280
     0
102
RTVSPost2010PropOp35
 70
     1
102
RTVSPost2010Prop36
280
     0
102
RTVSPost2010PropOp36
 70
     1
102
RTVSPost2010Prop37
 90
       50
102
RTVSPost2010PropOp37
 70
     1
102
RTVSPost2010Prop38
140
0.0
102
RTVSPost2010PropOp38
 70
     1
102
RTVSPost2010Prop39
140
1.0
102
RTVSPost2010PropOp39
 70
     1
102
RTVSPost2010Prop40
 90
        0
102
RTVSPost2010PropOp40
 70
     1
102
RTVSPost2010Prop41ColorIndex
 90
       18
102
RTVSPost2010Prop41ColorRGB
 90
        0
102
RTVSPost2010PropOp41
 70
     1
102
RTVSPost2010Prop42
 90
       50
102
RTVSPost2010PropOp42
 70
     1
102
RTVSPost2010Prop43
 90
        3
102
RTVSPost2010PropOp43
 70
     1
102
RTVSPost2010Prop44ColorIndex
 90
        5
102
RTVSPost2010Prop44ColorRGB
 90
      255
102
RTVSPost2010PropOp44
 70
     1
102
RTVSPost2010Prop45
280
     0
102
RTVSPost2010PropOp45
 70
     1
102
RTVSPost2010Prop46
 90
       50
102
RTVSPost2010PropOp46
 70
     1
102
RTVSPost2010Prop47
 90
       50
102
RTVSPost2010PropOp47
 70
     1
102
RTVSPost2010Prop48
 90
       50
102
RTVSPost2010PropOp48
 70
     1
102
RTVSPost2010Prop49
280
     0
102
RTVSPost2010PropOp49
 70
     1
102
RTVSPost2010Prop50
 90
       50
102
RTVSPost2010PropOp50
 70
     1
102
RTVSPost2010Prop51ColorIndex
 90
      256
102
RTVSPost2010Prop51ColorRGB
 90
-16777216
102
RTVSPost2010PropOp51
 70
     0
102
RTVSPost2010Prop52
140
1.0
102
RTVSPost2010PropOp52
 70
     0
102
RTVSPost2010Prop53
 90
        2
102
RTVSPost2010PropOp53
 70
     1
102
RTVSPost2010Prop54
  1
strokes_ogs.tif
102
RTVSPost2010PropOp54
 70
     1
102
RTVSPost2010Prop55
280
     0
102
RTVSPost2010PropOp55
 70
     1
102
RTVSPost2010Prop56
140
1.0
102
RTVSPost2010PropOp56
 70
     1
102
RTVSPost2010Prop57
140
1.0
102
RTVSPost2010PropOp57
 70
     1
102
RTVSPropertyOp0
 70
     1
102
RTVSPropertyOp1
 70
     1
102
RTVSPropertyOp2
 70
     1
102
RTVSPropertyOp3
 70
     1
102
RTVSPropertyOp4
 70
     1
102
RTVSPropertyOp5
 70
     1
102
RTVSPropertyOp6
 70
     1
102
RTVSPropertyOp7
 70
     1
102
RTVSPropertyOp8
 70
     1
102
RTVSPropertyOp9
 70
     1
102
RTVSPropertyOp10
 70
     1
102
RTVSPropertyOp11
 70
     1
102
RTVSPropertyOp12
 70
     1
102
RTVSPropertyOp13
 70
     1
102
RTVSPropertyOp14
 70
     1
102
RTVSPropertyOp15
 70
     1
102
RTVSPropertyOp16
 70
     1
102
RTVSPropertyOp17
 70
     1
102
RTVSPropertyOp18
 70
     1
102
RTVSPropertyOp19
 70
     1
102
RTVSPropertyOp20
 70
     1
102
RTVSPropertyOp21
 70
     1
102
RTVSPropertyOp22
 70
     1
102
RTVSPropertyOp23
 70
     1
102
RTVSPropertyOp24
 70
     1
102
RTVSPropertyOp25
 70
     1
102
RTVSPropertyOp26
 70
     1
102
RTVSPropertyOp27
 70
     1
102
RTVSPropertyOp28
 70
     1
102
RTVSPropertyOp29
 70
     1
102
RTVSPropertyOp30
 70
     1
102
RTVSPropertyOp31
 70
     1
102
RTVSPropertyOp32
 70
     1
102
RTVSPropertyOp33
 70
     1
102
RTVSPropertyOp34
 70
     1
102
RTVSPropertyOp35
 70
     1
102
RTVSPropertyOp36
 70
     1
102
RTVSPropertyOp37
 70
     1
102
RTVSPropertyOp38
 70
     1
102
RTVSPropertyOp39
 70
     1
102
RTVSPropertyOp40
 70
     1
102
RTVSPropertyOp41
 70
     1
102
RTVSPropertyOp42
 70
     1
102
RTVSPropertyOp43
 70
     1
102
RTVSPropertyOp44
 70
     1
102
RTVSPropertyOp45
 70
     1
102
RTVSPropertyOp46
 70
     1
102
RTVSPropertyOp47
 70
     1
102
RTVSPropertyOp48
 70
     1
102
RTVSPropertyOp49
 70
     1
102
RTVSPropertyOp50
 70
     1
102
RTVSPropertyOp51
 70
     0
102
RTVSPropertyOp52
 70
     0
102
RTVSPropertyOp53
 70
     1
102
RTVSPropertyOp54
 70
     1
102
RTVSPropertyOp55
 70
     1
102
RTVSPropertyOp56
 70
     1
102
RTVSPropertyOp57
 70
     1
102
RTVSPropertyOp58
 70
     1
102
RTVSPropertyOp59
 70
     1
102
RTVSPropertyOp60
 70
     1
102
RTVSPropertyOp61
 70
     1
102
RTVSPropertyOp62
 70
     1
  0
XRECORD
  5
374
102
{ACAD_REACTORS
330
373
102
}
330
373
100
AcDbXrecord
280
     1
102
RTVSPost2010Prop28
280
     0
102
RTVSPost2010PropOp28
 70
     1
102
RTVSPost2010Prop29
280
     1
102
RTVSPost2010PropOp29
 70
     1
102
RTVSPost2010Prop30
280
     1
102
RTVSPost2010PropOp30
 70
     1
102
RTVSPost2010Prop31
280
     0
102
RTVSPost2010PropOp31
 70
     1
102
RTVSPost2010Prop32
280
     0
102
RTVSPost2010PropOp32
 70
     1
102
RTVSPost2010Prop33
280
     0
102
RTVSPost2010PropOp33
 70
     1
102
RTVSPost2010Prop34
280
     0
102
RTVSPost2010PropOp34
 70
     1
102
RTVSPost2010Prop35
280
     0
102
RTVSPost2010PropOp35
 70
     1
102
RTVSPost2010Prop36
280
     0
102
RTVSPost2010PropOp36
 70
     1
102
RTVSPost2010Prop37
 90
       50
102
RTVSPost2010PropOp37
 70
     1
102
RTVSPost2010Prop38
140
0.0
102
RTVSPost2010PropOp38
 70
     1
102
RTVSPost2010Prop39
140
1.0
102
RTVSPost2010PropOp39
 70
     1
102
RTVSPost2010Prop40
 90
        0
102
RTVSPost2010PropOp40
 70
     1
102
RTVSPost2010Prop41ColorIndex
 90
       18
102
RTVSPost2010Prop41ColorRGB
 90
        0
102
RTVSPost2010PropOp41
 70
     1
102
RTVSPost2010Prop42
 90
       50
102
RTVSPost2010PropOp42
 70
     1
102
RTVSPost2010Prop43
 90
        3
102
RTVSPost2010PropOp43
 70
     1
102
RTVSPost2010Prop44ColorIndex
 90
        5
102
RTVSPost2010Prop44ColorRGB
 90
      255
102
RTVSPost2010PropOp44
 70
     1
102
RTVSPost2010Prop45
280
     0
102
RTVSPost2010PropOp45
 70
     1
102
RTVSPost2010Prop46
 90
       50
102
RTVSPost2010PropOp46
 70
     1
102
RTVSPost2010Prop47
 90
       50
102
RTVSPost2010PropOp47
 70
     1
102
RTVSPost2010Prop48
 90
       50
102
RTVSPost2010PropOp48
 70
     1
102
RTVSPost2010Prop49
280
     0
102
RTVSPost2010PropOp49
 70
     1
102
RTVSPost2010Prop50
 90
       50
102
RTVSPost2010PropOp50
 70
     1
102
RTVSPost2010Prop51ColorIndex
 90
      256
102
RTVSPost2010Prop51ColorRGB
 90
-16777216
102
RTVSPost2010PropOp51
 70
     0
102
RTVSPost2010Prop52
140
1.0
102
RTVSPost2010PropOp52
 70
     0
102
RTVSPost2010Prop53
 90
        2
102
RTVSPost2010PropOp53
 70
     1
102
RTVSPost2010Prop54
  1
strokes_ogs.tif
102
RTVSPost2010PropOp54
 70
     1
102
RTVSPost2010Prop55
280
     0
102
RTVSPost2010PropOp55
 70
     1
102
RTVSPost2010Prop56
140
1.0
102
RTVSPost2010PropOp56
 70
     1
102
RTVSPost2010Prop57
140
1.0
102
RTVSPost2010PropOp57
 70
     1
102
RTVSPropertyOp0
 70
     1
102
RTVSPropertyOp1
 70
     1
102
RTVSPropertyOp2
 70
     1
102
RTVSPropertyOp3
 70
     1
102
RTVSPropertyOp4
 70
     1
102
RTVSPropertyOp5
 70
     1
102
RTVSPropertyOp6
 70
     1
102
RTVSPropertyOp7
 70
     1
102
RTVSPropertyOp8
 70
     1
102
RTVSPropertyOp9
 70
     1
102
RTVSPropertyOp10
 70
     1
102
RTVSPropertyOp11
 70
     1
102
RTVSPropertyOp12
 70
     1
102
RTVSPropertyOp13
 70
     1
102
RTVSPropertyOp14
 70
     1
102
RTVSPropertyOp15
 70
     1
102
RTVSPropertyOp16
 70
     1
102
RTVSPropertyOp17
 70
     1
102
RTVSPropertyOp18
 70
     1
102
RTVSPropertyOp19
 70
     1
102
RTVSPropertyOp20
 70
     1
102
RTVSPropertyOp21
 70
     1
102
RTVSPropertyOp22
 70
     1
102
RTVSPropertyOp23
 70
     1
102
RTVSPropertyOp24
 70
     1
102
RTVSPropertyOp25
 70
     1
102
RTVSPropertyOp26
 70
     1
102
RTVSPropertyOp27
 70
     1
102
RTVSPropertyOp28
 70
     1
102
RTVSPropertyOp29
 70
     1
102
RTVSPropertyOp30
 70
     1
102
RTVSPropertyOp31
 70
     1
102
RTVSPropertyOp32
 70
     1
102
RTVSPropertyOp33
 70
     1
102
RTVSPropertyOp34
 70
     1
102
RTVSPropertyOp35
 70
     1
102
RTVSPropertyOp36
 70
     1
102
RTVSPropertyOp37
 70
     1
102
RTVSPropertyOp38
 70
     1
102
RTVSPropertyOp39
 70
     1
102
RTVSPropertyOp40
 70
     1
102
RTVSPropertyOp41
 70
     1
102
RTVSPropertyOp42
 70
     1
102
RTVSPropertyOp43
 70
     1
102
RTVSPropertyOp44
 70
     1
102
RTVSPropertyOp45
 70
     1
102
RTVSPropertyOp46
 70
     1
102
RTVSPropertyOp47
 70
     1
102
RTVSPropertyOp48
 70
     1
102
RTVSPropertyOp49
 70
     1
102
RTVSPropertyOp50
 70
     1
102
RTVSPropertyOp51
 70
     0
102
RTVSPropertyOp52
 70
     0
102
RTVSPropertyOp53
 70
     1
102
RTVSPropertyOp54
 70
     1
102
RTVSPropertyOp55
 70
     1
102
RTVSPropertyOp56
 70
     1
102
RTVSPropertyOp57
 70
     1
102
RTVSPropertyOp58
 70
     1
102
RTVSPropertyOp59
 70
     1
102
RTVSPropertyOp60
 70
     1
102
RTVSPropertyOp61
 70
     1
102
RTVSPropertyOp62
 70
     1
  0
XRECORD
  5
37C
102
{ACAD_REACTORS
330
37B
102
}
330
37B
100
AcDbXrecord
280
     1
102
RTVSPost2010Prop28
280
     0
102
RTVSPost2010PropOp28
 70
     1
102
RTVSPost2010Prop29
280
     1
102
RTVSPost2010PropOp29
 70
     1
102
RTVSPost2010Prop30
280
     1
102
RTVSPost2010PropOp30
 70
     1
102
RTVSPost2010Prop31
280
     0
102
RTVSPost2010PropOp31
 70
     1
102
RTVSPost2010Prop32
280
     0
102
RTVSPost2010PropOp32
 70
     1
102
RTVSPost2010Prop33
280
     0
102
RTVSPost2010PropOp33
 70
     1
102
RTVSPost2010Prop34
280
     0
102
RTVSPost2010PropOp34
 70
     1
102
RTVSPost2010Prop35
280
     0
102
RTVSPost2010PropOp35
 70
     1
102
RTVSPost2010Prop36
280
     0
102
RTVSPost2010PropOp36
 70
     1
102
RTVSPost2010Prop37
 90
       50
102
RTVSPost2010PropOp37
 70
     1
102
RTVSPost2010Prop38
140
0.0
102
RTVSPost2010PropOp38
 70
     1
102
RTVSPost2010Prop39
140
1.0
102
RTVSPost2010PropOp39
 70
     1
102
RTVSPost2010Prop40
 90
        0
102
RTVSPost2010PropOp40
 70
     1
102
RTVSPost2010Prop41ColorIndex
 90
       18
102
RTVSPost2010Prop41ColorRGB
 90
        0
102
RTVSPost2010PropOp41
 70
     1
102
RTVSPost2010Prop42
 90
       50
102
RTVSPost2010PropOp42
 70
     1
102
RTVSPost2010Prop43
 90
        3
102
RTVSPost2010PropOp43
 70
     1
102
RTVSPost2010Prop44ColorIndex
 90
        5
102
RTVSPost2010Prop44ColorRGB
 90
      255
102
RTVSPost2010PropOp44
 70
     1
102
RTVSPost2010Prop45
280
     0
102
RTVSPost2010PropOp45
 70
     1
102
RTVSPost2010Prop46
 90
       50
102
RTVSPost2010PropOp46
 70
     1
102
RTVSPost2010Prop47
 90
       50
102
RTVSPost2010PropOp47
 70
     1
102
RTVSPost2010Prop48
 90
       50
102
RTVSPost2010PropOp48
 70
     1
102
RTVSPost2010Prop49
280
     0
102
RTVSPost2010PropOp49
 70
     1
102
RTVSPost2010Prop50
 90
       50
102
RTVSPost2010PropOp50
 70
     1
102
RTVSPost2010Prop51ColorIndex
 90
      256
102
RTVSPost2010Prop51ColorRGB
 90
-16777216
102
RTVSPost2010PropOp51
 70
     0
102
RTVSPost2010Prop52
140
1.0
102
RTVSPost2010PropOp52
 70
     0
102
RTVSPost2010Prop53
 90
        2
102
RTVSPost2010PropOp53
 70
     1
102
RTVSPost2010Prop54
  1
strokes_ogs.tif
102
RTVSPost2010PropOp54
 70
     1
102
RTVSPost2010Prop55
280
     0
102
RTVSPost2010PropOp55
 70
     1
102
RTVSPost2010Prop56
140
1.0
102
RTVSPost2010PropOp56
 70
     1
102
RTVSPost2010Prop57
140
1.0
102
RTVSPost2010PropOp57
 70
     1
102
RTVSPropertyOp0
 70
     1
102
RTVSPropertyOp1
 70
     1
102
RTVSPropertyOp2
 70
     1
102
RTVSPropertyOp3
 70
     1
102
RTVSPropertyOp4
 70
     1
102
RTVSPropertyOp5
 70
     1
102
RTVSPropertyOp6
 70
     1
102
RTVSPropertyOp7
 70
     1
102
RTVSPropertyOp8
 70
     1
102
RTVSPropertyOp9
 70
     1
102
RTVSPropertyOp10
 70
     1
102
RTVSPropertyOp11
 70
     1
102
RTVSPropertyOp12
 70
     1
102
RTVSPropertyOp13
 70
     1
102
RTVSPropertyOp14
 70
     1
102
RTVSPropertyOp15
 70
     1
102
RTVSPropertyOp16
 70
     1
102
RTVSPropertyOp17
 70
     1
102
RTVSPropertyOp18
 70
     1
102
RTVSPropertyOp19
 70
     1
102
RTVSPropertyOp20
 70
     1
102
RTVSPropertyOp21
 70
     1
102
RTVSPropertyOp22
 70
     1
102
RTVSPropertyOp23
 70
     1
102
RTVSPropertyOp24
 70
     1
102
RTVSPropertyOp25
 70
     1
102
RTVSPropertyOp26
 70
     1
102
RTVSPropertyOp27
 70
     1
102
RTVSPropertyOp28
 70
     1
102
RTVSPropertyOp29
 70
     1
102
RTVSPropertyOp30
 70
     1
102
RTVSPropertyOp31
 70
     1
102
RTVSPropertyOp32
 70
     1
102
RTVSPropertyOp33
 70
     1
102
RTVSPropertyOp34
 70
     1
102
RTVSPropertyOp35
 70
     1
102
RTVSPropertyOp36
 70
     1
102
RTVSPropertyOp37
 70
     1
102
RTVSPropertyOp38
 70
     1
102
RTVSPropertyOp39
 70
     1
102
RTVSPropertyOp40
 70
     1
102
RTVSPropertyOp41
 70
     1
102
RTVSPropertyOp42
 70
     1
102
RTVSPropertyOp43
 70
     1
102
RTVSPropertyOp44
 70
     1
102
RTVSPropertyOp45
 70
     1
102
RTVSPropertyOp46
 70
     1
102
RTVSPropertyOp47
 70
     1
102
RTVSPropertyOp48
 70
     1
102
RTVSPropertyOp49
 70
     1
102
RTVSPropertyOp50
 70
     1
102
RTVSPropertyOp51
 70
     0
102
RTVSPropertyOp52
 70
     0
102
RTVSPropertyOp53
 70
     1
102
RTVSPropertyOp54
 70
     1
102
RTVSPropertyOp55
 70
     1
102
RTVSPropertyOp56
 70
     1
102
RTVSPropertyOp57
 70
     1
102
RTVSPropertyOp58
 70
     1
102
RTVSPropertyOp59
 70
     1
102
RTVSPropertyOp60
 70
     1
102
RTVSPropertyOp61
 70
     1
102
RTVSPropertyOp62
 70
     1
  0
XRECORD
  5
384
102
{ACAD_REACTORS
330
383
102
}
330
383
100
AcDbXrecord
280
     1
102
RTVSPost2010Prop28
280
     0
102
RTVSPost2010PropOp28
 70
     1
102
RTVSPost2010Prop29
280
     1
102
RTVSPost2010PropOp29
 70
     1
102
RTVSPost2010Prop30
280
     1
102
RTVSPost2010PropOp30
 70
     1
102
RTVSPost2010Prop31
280
     0
102
RTVSPost2010PropOp31
 70
     1
102
RTVSPost2010Prop32
280
     0
102
RTVSPost2010PropOp32
 70
     1
102
RTVSPost2010Prop33
280
     0
102
RTVSPost2010PropOp33
 70
     1
102
RTVSPost2010Prop34
280
     0
102
RTVSPost2010PropOp34
 70
     1
102
RTVSPost2010Prop35
280
     0
102
RTVSPost2010PropOp35
 70
     1
102
RTVSPost2010Prop36
280
     0
102
RTVSPost2010PropOp36
 70
     1
102
RTVSPost2010Prop37
 90
       50
102
RTVSPost2010PropOp37
 70
     1
102
RTVSPost2010Prop38
140
0.0
102
RTVSPost2010PropOp38
 70
     1
102
RTVSPost2010Prop39
140
1.0
102
RTVSPost2010PropOp39
 70
     1
102
RTVSPost2010Prop40
 90
        0
102
RTVSPost2010PropOp40
 70
     1
102
RTVSPost2010Prop41ColorIndex
 90
       18
102
RTVSPost2010Prop41ColorRGB
 90
        0
102
RTVSPost2010PropOp41
 70
     1
102
RTVSPost2010Prop42
 90
       50
102
RTVSPost2010PropOp42
 70
     1
102
RTVSPost2010Prop43
 90
        3
102
RTVSPost2010PropOp43
 70
     1
102
RTVSPost2010Prop44ColorIndex
 90
        5
102
RTVSPost2010Prop44ColorRGB
 90
      255
102
RTVSPost2010PropOp44
 70
     1
102
RTVSPost2010Prop45
280
     0
102
RTVSPost2010PropOp45
 70
     1
102
RTVSPost2010Prop46
 90
       50
102
RTVSPost2010PropOp46
 70
     1
102
RTVSPost2010Prop47
 90
       50
102
RTVSPost2010PropOp47
 70
     1
102
RTVSPost2010Prop48
 90
       50
102
RTVSPost2010PropOp48
 70
     1
102
RTVSPost2010Prop49
280
     0
102
RTVSPost2010PropOp49
 70
     1
102
RTVSPost2010Prop50
 90
       50
102
RTVSPost2010PropOp50
 70
     1
102
RTVSPost2010Prop51ColorIndex
 90
      256
102
RTVSPost2010Prop51ColorRGB
 90
-16777216
102
RTVSPost2010PropOp51
 70
     0
102
RTVSPost2010Prop52
140
1.0
102
RTVSPost2010PropOp52
 70
     0
102
RTVSPost2010Prop53
 90
        2
102
RTVSPost2010PropOp53
 70
     1
102
RTVSPost2010Prop54
  1
strokes_ogs.tif
102
RTVSPost2010PropOp54
 70
     1
102
RTVSPost2010Prop55
280
     0
102
RTVSPost2010PropOp55
 70
     1
102
RTVSPost2010Prop56
140
1.0
102
RTVSPost2010PropOp56
 70
     1
102
RTVSPost2010Prop57
140
1.0
102
RTVSPost2010PropOp57
 70
     1
102
RTVSPropertyOp0
 70
     1
102
RTVSPropertyOp1
 70
     1
102
RTVSPropertyOp2
 70
     1
102
RTVSPropertyOp3
 70
     1
102
RTVSPropertyOp4
 70
     1
102
RTVSPropertyOp5
 70
     1
102
RTVSPropertyOp6
 70
     1
102
RTVSPropertyOp7
 70
     1
102
RTVSPropertyOp8
 70
     1
102
RTVSPropertyOp9
 70
     1
102
RTVSPropertyOp10
 70
     1
102
RTVSPropertyOp11
 70
     1
102
RTVSPropertyOp12
 70
     1
102
RTVSPropertyOp13
 70
     1
102
RTVSPropertyOp14
 70
     1
102
RTVSPropertyOp15
 70
     1
102
RTVSPropertyOp16
 70
     1
102
RTVSPropertyOp17
 70
     1
102
RTVSPropertyOp18
 70
     1
102
RTVSPropertyOp19
 70
     1
102
RTVSPropertyOp20
 70
     1
102
RTVSPropertyOp21
 70
     1
102
RTVSPropertyOp22
 70
     1
102
RTVSPropertyOp23
 70
     1
102
RTVSPropertyOp24
 70
     1
102
RTVSPropertyOp25
 70
     1
102
RTVSPropertyOp26
 70
     1
102
RTVSPropertyOp27
 70
     1
102
RTVSPropertyOp28
 70
     1
102
RTVSPropertyOp29
 70
     1
102
RTVSPropertyOp30
 70
     1
102
RTVSPropertyOp31
 70
     1
102
RTVSPropertyOp32
 70
     1
102
RTVSPropertyOp33
 70
     1
102
RTVSPropertyOp34
 70
     1
102
RTVSPropertyOp35
 70
     1
102
RTVSPropertyOp36
 70
     1
102
RTVSPropertyOp37
 70
     1
102
RTVSPropertyOp38
 70
     1
102
RTVSPropertyOp39
 70
     1
102
RTVSPropertyOp40
 70
     1
102
RTVSPropertyOp41
 70
     1
102
RTVSPropertyOp42
 70
     1
102
RTVSPropertyOp43
 70
     1
102
RTVSPropertyOp44
 70
     1
102
RTVSPropertyOp45
 70
     1
102
RTVSPropertyOp46
 70
     1
102
RTVSPropertyOp47
 70
     1
102
RTVSPropertyOp48
 70
     1
102
RTVSPropertyOp49
 70
     1
102
RTVSPropertyOp50
 70
     1
102
RTVSPropertyOp51
 70
     0
102
RTVSPropertyOp52
 70
     0
102
RTVSPropertyOp53
 70
     1
102
RTVSPropertyOp54
 70
     1
102
RTVSPropertyOp55
 70
     1
102
RTVSPropertyOp56
 70
     1
102
RTVSPropertyOp57
 70
     1
102
RTVSPropertyOp58
 70
     1
102
RTVSPropertyOp59
 70
     1
102
RTVSPropertyOp60
 70
     1
102
RTVSPropertyOp61
 70
     1
102
RTVSPropertyOp62
 70
     1
  0
XRECORD
  5
378
102
{ACAD_REACTORS
330
377
102
}
330
377
100
AcDbXrecord
280
     1
102
RTVSPost2010Prop28
280
     0
102
RTVSPost2010PropOp28
 70
     1
102
RTVSPost2010Prop29
280
     1
102
RTVSPost2010PropOp29
 70
     1
102
RTVSPost2010Prop30
280
     1
102
RTVSPost2010PropOp30
 70
     1
102
RTVSPost2010Prop31
280
     0
102
RTVSPost2010PropOp31
 70
     1
102
RTVSPost2010Prop32
280
     0
102
RTVSPost2010PropOp32
 70
     1
102
RTVSPost2010Prop33
280
     0
102
RTVSPost2010PropOp33
 70
     1
102
RTVSPost2010Prop34
280
     0
102
RTVSPost2010PropOp34
 70
     1
102
RTVSPost2010Prop35
280
     0
102
RTVSPost2010PropOp35
 70
     1
102
RTVSPost2010Prop36
280
     0
102
RTVSPost2010PropOp36
 70
     1
102
RTVSPost2010Prop37
 90
       50
102
RTVSPost2010PropOp37
 70
     1
102
RTVSPost2010Prop38
140
0.0
102
RTVSPost2010PropOp38
 70
     1
102
RTVSPost2010Prop39
140
1.0
102
RTVSPost2010PropOp39
 70
     1
102
RTVSPost2010Prop40
 90
        0
102
RTVSPost2010PropOp40
 70
     1
102
RTVSPost2010Prop41ColorIndex
 90
       18
102
RTVSPost2010Prop41ColorRGB
 90
        0
102
RTVSPost2010PropOp41
 70
     1
102
RTVSPost2010Prop42
 90
       50
102
RTVSPost2010PropOp42
 70
     1
102
RTVSPost2010Prop43
 90
        3
102
RTVSPost2010PropOp43
 70
     1
102
RTVSPost2010Prop44ColorIndex
 90
        5
102
RTVSPost2010Prop44ColorRGB
 90
      255
102
RTVSPost2010PropOp44
 70
     1
102
RTVSPost2010Prop45
280
     0
102
RTVSPost2010PropOp45
 70
     1
102
RTVSPost2010Prop46
 90
       50
102
RTVSPost2010PropOp46
 70
     1
102
RTVSPost2010Prop47
 90
       50
102
RTVSPost2010PropOp47
 70
     1
102
RTVSPost2010Prop48
 90
       50
102
RTVSPost2010PropOp48
 70
     1
102
RTVSPost2010Prop49
280
     0
102
RTVSPost2010PropOp49
 70
     1
102
RTVSPost2010Prop50
 90
       50
102
RTVSPost2010PropOp50
 70
     1
102
RTVSPost2010Prop51ColorIndex
 90
      256
102
RTVSPost2010Prop51ColorRGB
 90
-16777216
102
RTVSPost2010PropOp51
 70
     0
102
RTVSPost2010Prop52
140
1.0
102
RTVSPost2010PropOp52
 70
     0
102
RTVSPost2010Prop53
 90
        2
102
RTVSPost2010PropOp53
 70
     1
102
RTVSPost2010Prop54
  1
strokes_ogs.tif
102
RTVSPost2010PropOp54
 70
     1
102
RTVSPost2010Prop55
280
     0
102
RTVSPost2010PropOp55
 70
     1
102
RTVSPost2010Prop56
140
1.0
102
RTVSPost2010PropOp56
 70
     1
102
RTVSPost2010Prop57
140
1.0
102
RTVSPost2010PropOp57
 70
     1
102
RTVSPropertyOp0
 70
     1
102
RTVSPropertyOp1
 70
     1
102
RTVSPropertyOp2
 70
     1
102
RTVSPropertyOp3
 70
     1
102
RTVSPropertyOp4
 70
     1
102
RTVSPropertyOp5
 70
     1
102
RTVSPropertyOp6
 70
     1
102
RTVSPropertyOp7
 70
     1
102
RTVSPropertyOp8
 70
     1
102
RTVSPropertyOp9
 70
     1
102
RTVSPropertyOp10
 70
     1
102
RTVSPropertyOp11
 70
     1
102
RTVSPropertyOp12
 70
     1
102
RTVSPropertyOp13
 70
     1
102
RTVSPropertyOp14
 70
     1
102
RTVSPropertyOp15
 70
     1
102
RTVSPropertyOp16
 70
     1
102
RTVSPropertyOp17
 70
     1
102
RTVSPropertyOp18
 70
     1
102
RTVSPropertyOp19
 70
     1
102
RTVSPropertyOp20
 70
     1
102
RTVSPropertyOp21
 70
     1
102
RTVSPropertyOp22
 70
     1
102
RTVSPropertyOp23
 70
     1
102
RTVSPropertyOp24
 70
     1
102
RTVSPropertyOp25
 70
     1
102
RTVSPropertyOp26
 70
     1
102
RTVSPropertyOp27
 70
     1
102
RTVSPropertyOp28
 70
     1
102
RTVSPropertyOp29
 70
     1
102
RTVSPropertyOp30
 70
     1
102
RTVSPropertyOp31
 70
     1
102
RTVSPropertyOp32
 70
     1
102
RTVSPropertyOp33
 70
     1
102
RTVSPropertyOp34
 70
     1
102
RTVSPropertyOp35
 70
     1
102
RTVSPropertyOp36
 70
     1
102
RTVSPropertyOp37
 70
     1
102
RTVSPropertyOp38
 70
     1
102
RTVSPropertyOp39
 70
     1
102
RTVSPropertyOp40
 70
     1
102
RTVSPropertyOp41
 70
     1
102
RTVSPropertyOp42
 70
     1
102
RTVSPropertyOp43
 70
     1
102
RTVSPropertyOp44
 70
     1
102
RTVSPropertyOp45
 70
     1
102
RTVSPropertyOp46
 70
     1
102
RTVSPropertyOp47
 70
     1
102
RTVSPropertyOp48
 70
     1
102
RTVSPropertyOp49
 70
     1
102
RTVSPropertyOp50
 70
     1
102
RTVSPropertyOp51
 70
     0
102
RTVSPropertyOp52
 70
     0
102
RTVSPropertyOp53
 70
     1
102
RTVSPropertyOp54
 70
     1
102
RTVSPropertyOp55
 70
     1
102
RTVSPropertyOp56
 70
     1
102
RTVSPropertyOp57
 70
     1
102
RTVSPropertyOp58
 70
     1
102
RTVSPropertyOp59
 70
     1
102
RTVSPropertyOp60
 70
     1
102
RTVSPropertyOp61
 70
     1
102
RTVSPropertyOp62
 70
     1
  0
XRECORD
  5
37A
102
{ACAD_REACTORS
330
379
102
}
330
379
100
AcDbXrecord
280
     1
102
RTVSPost2010Prop28
280
     0
102
RTVSPost2010PropOp28
 70
     1
102
RTVSPost2010Prop29
280
     1
102
RTVSPost2010PropOp29
 70
     1
102
RTVSPost2010Prop30
280
     1
102
RTVSPost2010PropOp30
 70
     1
102
RTVSPost2010Prop31
280
     0
102
RTVSPost2010PropOp31
 70
     1
102
RTVSPost2010Prop32
280
     0
102
RTVSPost2010PropOp32
 70
     1
102
RTVSPost2010Prop33
280
     0
102
RTVSPost2010PropOp33
 70
     1
102
RTVSPost2010Prop34
280
     0
102
RTVSPost2010PropOp34
 70
     1
102
RTVSPost2010Prop35
280
     0
102
RTVSPost2010PropOp35
 70
     1
102
RTVSPost2010Prop36
280
     0
102
RTVSPost2010PropOp36
 70
     1
102
RTVSPost2010Prop37
 90
       50
102
RTVSPost2010PropOp37
 70
     1
102
RTVSPost2010Prop38
140
0.0
102
RTVSPost2010PropOp38
 70
     1
102
RTVSPost2010Prop39
140
1.0
102
RTVSPost2010PropOp39
 70
     1
102
RTVSPost2010Prop40
 90
        0
102
RTVSPost2010PropOp40
 70
     1
102
RTVSPost2010Prop41ColorIndex
 90
       18
102
RTVSPost2010Prop41ColorRGB
 90
        0
102
RTVSPost2010PropOp41
 70
     1
102
RTVSPost2010Prop42
 90
       50
102
RTVSPost2010PropOp42
 70
     1
102
RTVSPost2010Prop43
 90
        3
102
RTVSPost2010PropOp43
 70
     1
102
RTVSPost2010Prop44ColorIndex
 90
        5
102
RTVSPost2010Prop44ColorRGB
 90
      255
102
RTVSPost2010PropOp44
 70
     1
102
RTVSPost2010Prop45
280
     0
102
RTVSPost2010PropOp45
 70
     1
102
RTVSPost2010Prop46
 90
       50
102
RTVSPost2010PropOp46
 70
     1
102
RTVSPost2010Prop47
 90
       50
102
RTVSPost2010PropOp47
 70
     1
102
RTVSPost2010Prop48
 90
       50
102
RTVSPost2010PropOp48
 70
     1
102
RTVSPost2010Prop49
280
     0
102
RTVSPost2010PropOp49
 70
     1
102
RTVSPost2010Prop50
 90
       50
102
RTVSPost2010PropOp50
 70
     1
102
RTVSPost2010Prop51ColorIndex
 90
      256
102
RTVSPost2010Prop51ColorRGB
 90
-16777216
102
RTVSPost2010PropOp51
 70
     0
102
RTVSPost2010Prop52
140
1.0
102
RTVSPost2010PropOp52
 70
     0
102
RTVSPost2010Prop53
 90
        2
102
RTVSPost2010PropOp53
 70
     1
102
RTVSPost2010Prop54
  1
strokes_ogs.tif
102
RTVSPost2010PropOp54
 70
     1
102
RTVSPost2010Prop55
280
     0
102
RTVSPost2010PropOp55
 70
     1
102
RTVSPost2010Prop56
140
1.0
102
RTVSPost2010PropOp56
 70
     1
102
RTVSPost2010Prop57
140
1.0
102
RTVSPost2010PropOp57
 70
     1
102
RTVSPropertyOp0
 70
     1
102
RTVSPropertyOp1
 70
     1
102
RTVSPropertyOp2
 70
     1
102
RTVSPropertyOp3
 70
     1
102
RTVSPropertyOp4
 70
     1
102
RTVSPropertyOp5
 70
     1
102
RTVSPropertyOp6
 70
     1
102
RTVSPropertyOp7
 70
     1
102
RTVSPropertyOp8
 70
     1
102
RTVSPropertyOp9
 70
     1
102
RTVSPropertyOp10
 70
     1
102
RTVSPropertyOp11
 70
     1
102
RTVSPropertyOp12
 70
     1
102
RTVSPropertyOp13
 70
     1
102
RTVSPropertyOp14
 70
     1
102
RTVSPropertyOp15
 70
     1
102
RTVSPropertyOp16
 70
     1
102
RTVSPropertyOp17
 70
     1
102
RTVSPropertyOp18
 70
     1
102
RTVSPropertyOp19
 70
     1
102
RTVSPropertyOp20
 70
     1
102
RTVSPropertyOp21
 70
     1
102
RTVSPropertyOp22
 70
     1
102
RTVSPropertyOp23
 70
     1
102
RTVSPropertyOp24
 70
     1
102
RTVSPropertyOp25
 70
     1
102
RTVSPropertyOp26
 70
     1
102
RTVSPropertyOp27
 70
     1
102
RTVSPropertyOp28
 70
     1
102
RTVSPropertyOp29
 70
     1
102
RTVSPropertyOp30
 70
     1
102
RTVSPropertyOp31
 70
     1
102
RTVSPropertyOp32
 70
     1
102
RTVSPropertyOp33
 70
     1
102
RTVSPropertyOp34
 70
     1
102
RTVSPropertyOp35
 70
     1
102
RTVSPropertyOp36
 70
     1
102
RTVSPropertyOp37
 70
     1
102
RTVSPropertyOp38
 70
     1
102
RTVSPropertyOp39
 70
     1
102
RTVSPropertyOp40
 70
     1
102
RTVSPropertyOp41
 70
     1
102
RTVSPropertyOp42
 70
     1
102
RTVSPropertyOp43
 70
     1
102
RTVSPropertyOp44
 70
     1
102
RTVSPropertyOp45
 70
     1
102
RTVSPropertyOp46
 70
     1
102
RTVSPropertyOp47
 70
     1
102
RTVSPropertyOp48
 70
     1
102
RTVSPropertyOp49
 70
     1
102
RTVSPropertyOp50
 70
     1
102
RTVSPropertyOp51
 70
     0
102
RTVSPropertyOp52
 70
     0
102
RTVSPropertyOp53
 70
     1
102
RTVSPropertyOp54
 70
     1
102
RTVSPropertyOp55
 70
     1
102
RTVSPropertyOp56
 70
     1
102
RTVSPropertyOp57
 70
     1
102
RTVSPropertyOp58
 70
     1
102
RTVSPropertyOp59
 70
     1
102
RTVSPropertyOp60
 70
     1
102
RTVSPropertyOp61
 70
     1
102
RTVSPropertyOp62
 70
     1
  0
XRECORD
  5
38A
102
{ACAD_REACTORS
330
389
102
}
330
389
100
AcDbXrecord
280
     1
102
RTVSPost2010Prop28
280
     0
102
RTVSPost2010PropOp28
 70
     0
102
RTVSPost2010Prop29
280
     1
102
RTVSPost2010PropOp29
 70
     0
102
RTVSPost2010Prop30
280
     1
102
RTVSPost2010PropOp30
 70
     0
102
RTVSPost2010Prop31
280
     0
102
RTVSPost2010PropOp31
 70
     0
102
RTVSPost2010Prop32
280
     0
102
RTVSPost2010PropOp32
 70
     0
102
RTVSPost2010Prop33
280
     0
102
RTVSPost2010PropOp33
 70
     0
102
RTVSPost2010Prop34
280
     0
102
RTVSPost2010PropOp34
 70
     0
102
RTVSPost2010Prop35
280
     0
102
RTVSPost2010PropOp35
 70
     0
102
RTVSPost2010Prop36
280
     0
102
RTVSPost2010PropOp36
 70
     0
102
RTVSPost2010Prop37
 90
       50
102
RTVSPost2010PropOp37
 70
     0
102
RTVSPost2010Prop38
140
0.0
102
RTVSPost2010PropOp38
 70
     0
102
RTVSPost2010Prop39
140
1.0
102
RTVSPost2010PropOp39
 70
     0
102
RTVSPost2010Prop40
 90
        0
102
RTVSPost2010PropOp40
 70
     0
102
RTVSPost2010Prop41ColorIndex
 90
       18
102
RTVSPost2010Prop41ColorRGB
 90
        0
102
RTVSPost2010PropOp41
 70
     0
102
RTVSPost2010Prop42
 90
       50
102
RTVSPost2010PropOp42
 70
     0
102
RTVSPost2010Prop43
 90
        3
102
RTVSPost2010PropOp43
 70
     0
102
RTVSPost2010Prop44ColorIndex
 90
        5
102
RTVSPost2010Prop44ColorRGB
 90
      255
102
RTVSPost2010PropOp44
 70
     0
102
RTVSPost2010Prop45
280
     0
102
RTVSPost2010PropOp45
 70
     0
102
RTVSPost2010Prop46
 90
       50
102
RTVSPost2010PropOp46
 70
     0
102
RTVSPost2010Prop47
 90
       50
102
RTVSPost2010PropOp47
 70
     0
102
RTVSPost2010Prop48
 90
       50
102
RTVSPost2010PropOp48
 70
     0
102
RTVSPost2010Prop49
280
     0
102
RTVSPost2010PropOp49
 70
     0
102
RTVSPost2010Prop50
 90
       50
102
RTVSPost2010PropOp50
 70
     0
102
RTVSPost2010Prop51ColorIndex
 90
      256
102
RTVSPost2010Prop51ColorRGB
 90
-16777216
102
RTVSPost2010PropOp51
 70
     0
102
RTVSPost2010Prop52
140
1.0
102
RTVSPost2010PropOp52
 70
     0
102
RTVSPost2010Prop53
 90
        2
102
RTVSPost2010PropOp53
 70
     0
102
RTVSPost2010Prop54
  1
strokes_ogs.tif
102
RTVSPost2010PropOp54
 70
     0
102
RTVSPost2010Prop55
280
     0
102
RTVSPost2010PropOp55
 70
     0
102
RTVSPost2010Prop56
140
1.0
102
RTVSPost2010PropOp56
 70
     0
102
RTVSPost2010Prop57
140
1.0
102
RTVSPost2010PropOp57
 70
     0
102
RTVSPropertyOp0
 70
     0
102
RTVSPropertyOp1
 70
     0
102
RTVSPropertyOp2
 70
     0
102
RTVSPropertyOp3
 70
     0
102
RTVSPropertyOp4
 70
     0
102
RTVSPropertyOp5
 70
     0
102
RTVSPropertyOp6
 70
     0
102
RTVSPropertyOp7
 70
     0
102
RTVSPropertyOp8
 70
     0
102
RTVSPropertyOp9
 70
     0
102
RTVSPropertyOp10
 70
     0
102
RTVSPropertyOp11
 70
     0
102
RTVSPropertyOp12
 70
     0
102
RTVSPropertyOp13
 70
     0
102
RTVSPropertyOp14
 70
     2
102
RTVSPropertyOp15
 70
     0
102
RTVSPropertyOp16
 70
     0
102
RTVSPropertyOp17
 70
     0
102
RTVSPropertyOp18
 70
     0
102
RTVSPropertyOp19
 70
     0
102
RTVSPropertyOp20
 70
     0
102
RTVSPropertyOp21
 70
     0
102
RTVSPropertyOp22
 70
     0
102
RTVSPropertyOp23
 70
     0
102
RTVSPropertyOp24
 70
     0
102
RTVSPropertyOp25
 70
     0
102
RTVSPropertyOp26
 70
     0
102
RTVSPropertyOp27
 70
     0
102
RTVSPropertyOp28
 70
     0
102
RTVSPropertyOp29
 70
     0
102
RTVSPropertyOp30
 70
     0
102
RTVSPropertyOp31
 70
     0
102
RTVSPropertyOp32
 70
     0
102
RTVSPropertyOp33
 70
     0
102
RTVSPropertyOp34
 70
     0
102
RTVSPropertyOp35
 70
     0
102
RTVSPropertyOp36
 70
     0
102
RTVSPropertyOp37
 70
     0
102
RTVSPropertyOp38
 70
     0
102
RTVSPropertyOp39
 70
     0
102
RTVSPropertyOp40
 70
     0
102
RTVSPropertyOp41
 70
     0
102
RTVSPropertyOp42
 70
     0
102
RTVSPropertyOp43
 70
     0
102
RTVSPropertyOp44
 70
     0
102
RTVSPropertyOp45
 70
     0
102
RTVSPropertyOp46
 70
     0
102
RTVSPropertyOp47
 70
     0
102
RTVSPropertyOp48
 70
     0
102
RTVSPropertyOp49
 70
     0
102
RTVSPropertyOp50
 70
     0
102
RTVSPropertyOp51
 70
     0
102
RTVSPropertyOp52
 70
     0
102
RTVSPropertyOp53
 70
     0
102
RTVSPropertyOp54
 70
     0
102
RTVSPropertyOp55
 70
     0
102
RTVSPropertyOp56
 70
     0
102
RTVSPropertyOp57
 70
     0
102
RTVSPropertyOp58
 70
     1
102
RTVSPropertyOp59
 70
     1
102
RTVSPropertyOp60
 70
     1
102
RTVSPropertyOp61
 70
     1
102
RTVSPropertyOp62
 70
     1
  0
XRECORD
  5
382
102
{ACAD_REACTORS
330
381
102
}
330
381
100
AcDbXrecord
280
     1
102
RTVSPost2010Prop28
280
     0
102
RTVSPost2010PropOp28
 70
     1
102
RTVSPost2010Prop29
280
     1
102
RTVSPost2010PropOp29
 70
     1
102
RTVSPost2010Prop30
280
     1
102
RTVSPost2010PropOp30
 70
     1
102
RTVSPost2010Prop31
280
     0
102
RTVSPost2010PropOp31
 70
     1
102
RTVSPost2010Prop32
280
     0
102
RTVSPost2010PropOp32
 70
     1
102
RTVSPost2010Prop33
280
     0
102
RTVSPost2010PropOp33
 70
     1
102
RTVSPost2010Prop34
280
     0
102
RTVSPost2010PropOp34
 70
     1
102
RTVSPost2010Prop35
280
     0
102
RTVSPost2010PropOp35
 70
     1
102
RTVSPost2010Prop36
280
     0
102
RTVSPost2010PropOp36
 70
     1
102
RTVSPost2010Prop37
 90
       50
102
RTVSPost2010PropOp37
 70
     1
102
RTVSPost2010Prop38
140
0.0
102
RTVSPost2010PropOp38
 70
     1
102
RTVSPost2010Prop39
140
1.0
102
RTVSPost2010PropOp39
 70
     1
102
RTVSPost2010Prop40
 90
        0
102
RTVSPost2010PropOp40
 70
     1
102
RTVSPost2010Prop41ColorIndex
 90
       18
102
RTVSPost2010Prop41ColorRGB
 90
        0
102
RTVSPost2010PropOp41
 70
     1
102
RTVSPost2010Prop42
 90
       50
102
RTVSPost2010PropOp42
 70
     1
102
RTVSPost2010Prop43
 90
        3
102
RTVSPost2010PropOp43
 70
     1
102
RTVSPost2010Prop44ColorIndex
 90
        5
102
RTVSPost2010Prop44ColorRGB
 90
      255
102
RTVSPost2010PropOp44
 70
     1
102
RTVSPost2010Prop45
280
     0
102
RTVSPost2010PropOp45
 70
     1
102
RTVSPost2010Prop46
 90
       50
102
RTVSPost2010PropOp46
 70
     1
102
RTVSPost2010Prop47
 90
       50
102
RTVSPost2010PropOp47
 70
     1
102
RTVSPost2010Prop48
 90
       50
102
RTVSPost2010PropOp48
 70
     1
102
RTVSPost2010Prop49
280
     0
102
RTVSPost2010PropOp49
 70
     1
102
RTVSPost2010Prop50
 90
       50
102
RTVSPost2010PropOp50
 70
     1
102
RTVSPost2010Prop51ColorIndex
 90
      256
102
RTVSPost2010Prop51ColorRGB
 90
-16777216
102
RTVSPost2010PropOp51
 70
     0
102
RTVSPost2010Prop52
140
1.0
102
RTVSPost2010PropOp52
 70
     0
102
RTVSPost2010Prop53
 90
        2
102
RTVSPost2010PropOp53
 70
     1
102
RTVSPost2010Prop54
  1
strokes_ogs.tif
102
RTVSPost2010PropOp54
 70
     1
102
RTVSPost2010Prop55
280
     0
102
RTVSPost2010PropOp55
 70
     1
102
RTVSPost2010Prop56
140
1.0
102
RTVSPost2010PropOp56
 70
     1
102
RTVSPost2010Prop57
140
1.0
102
RTVSPost2010PropOp57
 70
     1
102
RTVSPropertyOp0
 70
     1
102
RTVSPropertyOp1
 70
     1
102
RTVSPropertyOp2
 70
     1
102
RTVSPropertyOp3
 70
     1
102
RTVSPropertyOp4
 70
     1
102
RTVSPropertyOp5
 70
     1
102
RTVSPropertyOp6
 70
     1
102
RTVSPropertyOp7
 70
     1
102
RTVSPropertyOp8
 70
     1
102
RTVSPropertyOp9
 70
     1
102
RTVSPropertyOp10
 70
     1
102
RTVSPropertyOp11
 70
     1
102
RTVSPropertyOp12
 70
     1
102
RTVSPropertyOp13
 70
     1
102
RTVSPropertyOp14
 70
     1
102
RTVSPropertyOp15
 70
     1
102
RTVSPropertyOp16
 70
     1
102
RTVSPropertyOp17
 70
     1
102
RTVSPropertyOp18
 70
     1
102
RTVSPropertyOp19
 70
     1
102
RTVSPropertyOp20
 70
     1
102
RTVSPropertyOp21
 70
     1
102
RTVSPropertyOp22
 70
     1
102
RTVSPropertyOp23
 70
     1
102
RTVSPropertyOp24
 70
     1
102
RTVSPropertyOp25
 70
     1
102
RTVSPropertyOp26
 70
     1
102
RTVSPropertyOp27
 70
     1
102
RTVSPropertyOp28
 70
     1
102
RTVSPropertyOp29
 70
     1
102
RTVSPropertyOp30
 70
     1
102
RTVSPropertyOp31
 70
     1
102
RTVSPropertyOp32
 70
     1
102
RTVSPropertyOp33
 70
     1
102
RTVSPropertyOp34
 70
     1
102
RTVSPropertyOp35
 70
     1
102
RTVSPropertyOp36
 70
     1
102
RTVSPropertyOp37
 70
     1
102
RTVSPropertyOp38
 70
     1
102
RTVSPropertyOp39
 70
     1
102
RTVSPropertyOp40
 70
     1
102
RTVSPropertyOp41
 70
     1
102
RTVSPropertyOp42
 70
     1
102
RTVSPropertyOp43
 70
     1
102
RTVSPropertyOp44
 70
     1
102
RTVSPropertyOp45
 70
     1
102
RTVSPropertyOp46
 70
     1
102
RTVSPropertyOp47
 70
     1
102
RTVSPropertyOp48
 70
     1
102
RTVSPropertyOp49
 70
     1
102
RTVSPropertyOp50
 70
     1
102
RTVSPropertyOp51
 70
     0
102
RTVSPropertyOp52
 70
     0
102
RTVSPropertyOp53
 70
     1
102
RTVSPropertyOp54
 70
     1
102
RTVSPropertyOp55
 70
     1
102
RTVSPropertyOp56
 70
     1
102
RTVSPropertyOp57
 70
     1
102
RTVSPropertyOp58
 70
     1
102
RTVSPropertyOp59
 70
     1
102
RTVSPropertyOp60
 70
     1
102
RTVSPropertyOp61
 70
     1
102
RTVSPropertyOp62
 70
     1
  0
XRECORD
  5
366
102
{ACAD_REACTORS
330
365
102
}
330
365
100
AcDbXrecord
280
     1
102
RTVSPost2010Prop28
280
     0
102
RTVSPost2010PropOp28
 70
     1
102
RTVSPost2010Prop29
280
     1
102
RTVSPost2010PropOp29
 70
     1
102
RTVSPost2010Prop30
280
     1
102
RTVSPost2010PropOp30
 70
     1
102
RTVSPost2010Prop31
280
     0
102
RTVSPost2010PropOp31
 70
     1
102
RTVSPost2010Prop32
280
     0
102
RTVSPost2010PropOp32
 70
     1
102
RTVSPost2010Prop33
280
     0
102
RTVSPost2010PropOp33
 70
     1
102
RTVSPost2010Prop34
280
     0
102
RTVSPost2010PropOp34
 70
     1
102
RTVSPost2010Prop35
280
     0
102
RTVSPost2010PropOp35
 70
     1
102
RTVSPost2010Prop36
280
     0
102
RTVSPost2010PropOp36
 70
     1
102
RTVSPost2010Prop37
 90
       50
102
RTVSPost2010PropOp37
 70
     1
102
RTVSPost2010Prop38
140
0.0
102
RTVSPost2010PropOp38
 70
     1
102
RTVSPost2010Prop39
140
1.0
102
RTVSPost2010PropOp39
 70
     1
102
RTVSPost2010Prop40
 90
        0
102
RTVSPost2010PropOp40
 70
     1
102
RTVSPost2010Prop41ColorIndex
 90
       18
102
RTVSPost2010Prop41ColorRGB
 90
        0
102
RTVSPost2010PropOp41
 70
     1
102
RTVSPost2010Prop42
 90
       50
102
RTVSPost2010PropOp42
 70
     1
102
RTVSPost2010Prop43
 90
        3
102
RTVSPost2010PropOp43
 70
     1
102
RTVSPost2010Prop44ColorIndex
 90
        5
102
RTVSPost2010Prop44ColorRGB
 90
      255
102
RTVSPost2010PropOp44
 70
     1
102
RTVSPost2010Prop45
280
     0
102
RTVSPost2010PropOp45
 70
     1
102
RTVSPost2010Prop46
 90
       50
102
RTVSPost2010PropOp46
 70
     1
102
RTVSPost2010Prop47
 90
       50
102
RTVSPost2010PropOp47
 70
     1
102
RTVSPost2010Prop48
 90
       50
102
RTVSPost2010PropOp48
 70
     1
102
RTVSPost2010Prop49
280
     0
102
RTVSPost2010PropOp49
 70
     1
102
RTVSPost2010Prop50
 90
       50
102
RTVSPost2010PropOp50
 70
     1
102
RTVSPost2010Prop51ColorIndex
 90
      256
102
RTVSPost2010Prop51ColorRGB
 90
-16777216
102
RTVSPost2010PropOp51
 70
     0
102
RTVSPost2010Prop52
140
1.0
102
RTVSPost2010PropOp52
 70
     0
102
RTVSPost2010Prop53
 90
        2
102
RTVSPost2010PropOp53
 70
     1
102
RTVSPost2010Prop54
  1
strokes_ogs.tif
102
RTVSPost2010PropOp54
 70
     1
102
RTVSPost2010Prop55
280
     0
102
RTVSPost2010PropOp55
 70
     1
102
RTVSPost2010Prop56
140
1.0
102
RTVSPost2010PropOp56
 70
     1
102
RTVSPost2010Prop57
140
1.0
102
RTVSPost2010PropOp57
 70
     1
102
RTVSPropertyOp0
 70
     1
102
RTVSPropertyOp1
 70
     1
102
RTVSPropertyOp2
 70
     1
102
RTVSPropertyOp3
 70
     1
102
RTVSPropertyOp4
 70
     1
102
RTVSPropertyOp5
 70
     1
102
RTVSPropertyOp6
 70
     1
102
RTVSPropertyOp7
 70
     1
102
RTVSPropertyOp8
 70
     1
102
RTVSPropertyOp9
 70
     1
102
RTVSPropertyOp10
 70
     1
102
RTVSPropertyOp11
 70
     1
102
RTVSPropertyOp12
 70
     1
102
RTVSPropertyOp13
 70
     1
102
RTVSPropertyOp14
 70
     1
102
RTVSPropertyOp15
 70
     1
102
RTVSPropertyOp16
 70
     1
102
RTVSPropertyOp17
 70
     1
102
RTVSPropertyOp18
 70
     1
102
RTVSPropertyOp19
 70
     1
102
RTVSPropertyOp20
 70
     1
102
RTVSPropertyOp21
 70
     1
102
RTVSPropertyOp22
 70
     1
102
RTVSPropertyOp23
 70
     1
102
RTVSPropertyOp24
 70
     1
102
RTVSPropertyOp25
 70
     1
102
RTVSPropertyOp26
 70
     1
102
RTVSPropertyOp27
 70
     1
102
RTVSPropertyOp28
 70
     1
102
RTVSPropertyOp29
 70
     1
102
RTVSPropertyOp30
 70
     1
102
RTVSPropertyOp31
 70
     1
102
RTVSPropertyOp32
 70
     1
102
RTVSPropertyOp33
 70
     1
102
RTVSPropertyOp34
 70
     1
102
RTVSPropertyOp35
 70
     1
102
RTVSPropertyOp36
 70
     1
102
RTVSPropertyOp37
 70
     1
102
RTVSPropertyOp38
 70
     1
102
RTVSPropertyOp39
 70
     1
102
RTVSPropertyOp40
 70
     1
102
RTVSPropertyOp41
 70
     1
102
RTVSPropertyOp42
 70
     1
102
RTVSPropertyOp43
 70
     1
102
RTVSPropertyOp44
 70
     1
102
RTVSPropertyOp45
 70
     1
102
RTVSPropertyOp46
 70
     1
102
RTVSPropertyOp47
 70
     1
102
RTVSPropertyOp48
 70
     1
102
RTVSPropertyOp49
 70
     1
102
RTVSPropertyOp50
 70
     1
102
RTVSPropertyOp51
 70
     0
102
RTVSPropertyOp52
 70
     0
102
RTVSPropertyOp53
 70
     1
102
RTVSPropertyOp54
 70
     1
102
RTVSPropertyOp55
 70
     1
102
RTVSPropertyOp56
 70
     1
102
RTVSPropertyOp57
 70
     1
102
RTVSPropertyOp58
 70
     1
102
RTVSPropertyOp59
 70
     1
102
RTVSPropertyOp60
 70
     1
102
RTVSPropertyOp61
 70
     1
102
RTVSPropertyOp62
 70
     1
  0
XRECORD
  5
368
102
{ACAD_REACTORS
330
367
102
}
330
367
100
AcDbXrecord
280
     1
102
RTVSPost2010Prop28
280
     0
102
RTVSPost2010PropOp28
 70
     1
102
RTVSPost2010Prop29
280
     1
102
RTVSPost2010PropOp29
 70
     1
102
RTVSPost2010Prop30
280
     1
102
RTVSPost2010PropOp30
 70
     1
102
RTVSPost2010Prop31
280
     0
102
RTVSPost2010PropOp31
 70
     1
102
RTVSPost2010Prop32
280
     0
102
RTVSPost2010PropOp32
 70
     1
102
RTVSPost2010Prop33
280
     0
102
RTVSPost2010PropOp33
 70
     1
102
RTVSPost2010Prop34
280
     0
102
RTVSPost2010PropOp34
 70
     1
102
RTVSPost2010Prop35
280
     0
102
RTVSPost2010PropOp35
 70
     1
102
RTVSPost2010Prop36
280
     0
102
RTVSPost2010PropOp36
 70
     1
102
RTVSPost2010Prop37
 90
       50
102
RTVSPost2010PropOp37
 70
     1
102
RTVSPost2010Prop38
140
0.0
102
RTVSPost2010PropOp38
 70
     1
102
RTVSPost2010Prop39
140
1.0
102
RTVSPost2010PropOp39
 70
     1
102
RTVSPost2010Prop40
 90
        0
102
RTVSPost2010PropOp40
 70
     1
102
RTVSPost2010Prop41ColorIndex
 90
       18
102
RTVSPost2010Prop41ColorRGB
 90
        0
102
RTVSPost2010PropOp41
 70
     1
102
RTVSPost2010Prop42
 90
       50
102
RTVSPost2010PropOp42
 70
     1
102
RTVSPost2010Prop43
 90
        3
102
RTVSPost2010PropOp43
 70
     1
102
RTVSPost2010Prop44ColorIndex
 90
        5
102
RTVSPost2010Prop44ColorRGB
 90
      255
102
RTVSPost2010PropOp44
 70
     1
102
RTVSPost2010Prop45
280
     0
102
RTVSPost2010PropOp45
 70
     1
102
RTVSPost2010Prop46
 90
       50
102
RTVSPost2010PropOp46
 70
     1
102
RTVSPost2010Prop47
 90
       50
102
RTVSPost2010PropOp47
 70
     1
102
RTVSPost2010Prop48
 90
       50
102
RTVSPost2010PropOp48
 70
     1
102
RTVSPost2010Prop49
280
     0
102
RTVSPost2010PropOp49
 70
     1
102
RTVSPost2010Prop50
 90
       50
102
RTVSPost2010PropOp50
 70
     1
102
RTVSPost2010Prop51ColorIndex
 90
      256
102
RTVSPost2010Prop51ColorRGB
 90
-16777216
102
RTVSPost2010PropOp51
 70
     0
102
RTVSPost2010Prop52
140
1.0
102
RTVSPost2010PropOp52
 70
     0
102
RTVSPost2010Prop53
 90
        2
102
RTVSPost2010PropOp53
 70
     1
102
RTVSPost2010Prop54
  1
strokes_ogs.tif
102
RTVSPost2010PropOp54
 70
     1
102
RTVSPost2010Prop55
280
     0
102
RTVSPost2010PropOp55
 70
     1
102
RTVSPost2010Prop56
140
1.0
102
RTVSPost2010PropOp56
 70
     1
102
RTVSPost2010Prop57
140
1.0
102
RTVSPost2010PropOp57
 70
     1
102
RTVSPropertyOp0
 70
     1
102
RTVSPropertyOp1
 70
     1
102
RTVSPropertyOp2
 70
     1
102
RTVSPropertyOp3
 70
     1
102
RTVSPropertyOp4
 70
     1
102
RTVSPropertyOp5
 70
     1
102
RTVSPropertyOp6
 70
     1
102
RTVSPropertyOp7
 70
     1
102
RTVSPropertyOp8
 70
     1
102
RTVSPropertyOp9
 70
     1
102
RTVSPropertyOp10
 70
     1
102
RTVSPropertyOp11
 70
     1
102
RTVSPropertyOp12
 70
     1
102
RTVSPropertyOp13
 70
     1
102
RTVSPropertyOp14
 70
     1
102
RTVSPropertyOp15
 70
     1
102
RTVSPropertyOp16
 70
     1
102
RTVSPropertyOp17
 70
     1
102
RTVSPropertyOp18
 70
     1
102
RTVSPropertyOp19
 70
     1
102
RTVSPropertyOp20
 70
     1
102
RTVSPropertyOp21
 70
     1
102
RTVSPropertyOp22
 70
     1
102
RTVSPropertyOp23
 70
     1
102
RTVSPropertyOp24
 70
     1
102
RTVSPropertyOp25
 70
     1
102
RTVSPropertyOp26
 70
     1
102
RTVSPropertyOp27
 70
     1
102
RTVSPropertyOp28
 70
     1
102
RTVSPropertyOp29
 70
     1
102
RTVSPropertyOp30
 70
     1
102
RTVSPropertyOp31
 70
     1
102
RTVSPropertyOp32
 70
     1
102
RTVSPropertyOp33
 70
     1
102
RTVSPropertyOp34
 70
     1
102
RTVSPropertyOp35
 70
     1
102
RTVSPropertyOp36
 70
     1
102
RTVSPropertyOp37
 70
     1
102
RTVSPropertyOp38
 70
     1
102
RTVSPropertyOp39
 70
     1
102
RTVSPropertyOp40
 70
     1
102
RTVSPropertyOp41
 70
     1
102
RTVSPropertyOp42
 70
     1
102
RTVSPropertyOp43
 70
     1
102
RTVSPropertyOp44
 70
     1
102
RTVSPropertyOp45
 70
     1
102
RTVSPropertyOp46
 70
     1
102
RTVSPropertyOp47
 70
     1
102
RTVSPropertyOp48
 70
     1
102
RTVSPropertyOp49
 70
     1
102
RTVSPropertyOp50
 70
     1
102
RTVSPropertyOp51
 70
     0
102
RTVSPropertyOp52
 70
     0
102
RTVSPropertyOp53
 70
     1
102
RTVSPropertyOp54
 70
     1
102
RTVSPropertyOp55
 70
     1
102
RTVSPropertyOp56
 70
     1
102
RTVSPropertyOp57
 70
     1
102
RTVSPropertyOp58
 70
     1
102
RTVSPropertyOp59
 70
     1
102
RTVSPropertyOp60
 70
     1
102
RTVSPropertyOp61
 70
     1
102
RTVSPropertyOp62
 70
     1
  0
XRECORD
  5
36A
102
{ACAD_REACTORS
330
369
102
}
330
369
100
AcDbXrecord
280
     1
102
RTVSPost2010Prop28
280
     0
102
RTVSPost2010PropOp28
 70
     1
102
RTVSPost2010Prop29
280
     1
102
RTVSPost2010PropOp29
 70
     1
102
RTVSPost2010Prop30
280
     1
102
RTVSPost2010PropOp30
 70
     1
102
RTVSPost2010Prop31
280
     0
102
RTVSPost2010PropOp31
 70
     1
102
RTVSPost2010Prop32
280
     0
102
RTVSPost2010PropOp32
 70
     1
102
RTVSPost2010Prop33
280
     0
102
RTVSPost2010PropOp33
 70
     1
102
RTVSPost2010Prop34
280
     0
102
RTVSPost2010PropOp34
 70
     1
102
RTVSPost2010Prop35
280
     0
102
RTVSPost2010PropOp35
 70
     1
102
RTVSPost2010Prop36
280
     0
102
RTVSPost2010PropOp36
 70
     1
102
RTVSPost2010Prop37
 90
       50
102
RTVSPost2010PropOp37
 70
     1
102
RTVSPost2010Prop38
140
0.0
102
RTVSPost2010PropOp38
 70
     1
102
RTVSPost2010Prop39
140
1.0
102
RTVSPost2010PropOp39
 70
     1
102
RTVSPost2010Prop40
 90
        0
102
RTVSPost2010PropOp40
 70
     1
102
RTVSPost2010Prop41ColorIndex
 90
       18
102
RTVSPost2010Prop41ColorRGB
 90
        0
102
RTVSPost2010PropOp41
 70
     1
102
RTVSPost2010Prop42
 90
       50
102
RTVSPost2010PropOp42
 70
     1
102
RTVSPost2010Prop43
 90
        3
102
RTVSPost2010PropOp43
 70
     1
102
RTVSPost2010Prop44ColorIndex
 90
        5
102
RTVSPost2010Prop44ColorRGB
 90
      255
102
RTVSPost2010PropOp44
 70
     1
102
RTVSPost2010Prop45
280
     0
102
RTVSPost2010PropOp45
 70
     1
102
RTVSPost2010Prop46
 90
       50
102
RTVSPost2010PropOp46
 70
     1
102
RTVSPost2010Prop47
 90
       50
102
RTVSPost2010PropOp47
 70
     1
102
RTVSPost2010Prop48
 90
       50
102
RTVSPost2010PropOp48
 70
     1
102
RTVSPost2010Prop49
280
     0
102
RTVSPost2010PropOp49
 70
     1
102
RTVSPost2010Prop50
 90
       50
102
RTVSPost2010PropOp50
 70
     1
102
RTVSPost2010Prop51ColorIndex
 90
      256
102
RTVSPost2010Prop51ColorRGB
 90
-16777216
102
RTVSPost2010PropOp51
 70
     0
102
RTVSPost2010Prop52
140
1.0
102
RTVSPost2010PropOp52
 70
     0
102
RTVSPost2010Prop53
 90
        2
102
RTVSPost2010PropOp53
 70
     1
102
RTVSPost2010Prop54
  1
strokes_ogs.tif
102
RTVSPost2010PropOp54
 70
     1
102
RTVSPost2010Prop55
280
     0
102
RTVSPost2010PropOp55
 70
     1
102
RTVSPost2010Prop56
140
1.0
102
RTVSPost2010PropOp56
 70
     1
102
RTVSPost2010Prop57
140
1.0
102
RTVSPost2010PropOp57
 70
     1
102
RTVSPropertyOp0
 70
     1
102
RTVSPropertyOp1
 70
     1
102
RTVSPropertyOp2
 70
     1
102
RTVSPropertyOp3
 70
     1
102
RTVSPropertyOp4
 70
     1
102
RTVSPropertyOp5
 70
     1
102
RTVSPropertyOp6
 70
     1
102
RTVSPropertyOp7
 70
     1
102
RTVSPropertyOp8
 70
     1
102
RTVSPropertyOp9
 70
     1
102
RTVSPropertyOp10
 70
     1
102
RTVSPropertyOp11
 70
     1
102
RTVSPropertyOp12
 70
     1
102
RTVSPropertyOp13
 70
     1
102
RTVSPropertyOp14
 70
     1
102
RTVSPropertyOp15
 70
     1
102
RTVSPropertyOp16
 70
     1
102
RTVSPropertyOp17
 70
     1
102
RTVSPropertyOp18
 70
     1
102
RTVSPropertyOp19
 70
     1
102
RTVSPropertyOp20
 70
     1
102
RTVSPropertyOp21
 70
     1
102
RTVSPropertyOp22
 70
     1
102
RTVSPropertyOp23
 70
     1
102
RTVSPropertyOp24
 70
     1
102
RTVSPropertyOp25
 70
     1
102
RTVSPropertyOp26
 70
     1
102
RTVSPropertyOp27
 70
     1
102
RTVSPropertyOp28
 70
     1
102
RTVSPropertyOp29
 70
     1
102
RTVSPropertyOp30
 70
     1
102
RTVSPropertyOp31
 70
     1
102
RTVSPropertyOp32
 70
     1
102
RTVSPropertyOp33
 70
     1
102
RTVSPropertyOp34
 70
     1
102
RTVSPropertyOp35
 70
     1
102
RTVSPropertyOp36
 70
     1
102
RTVSPropertyOp37
 70
     1
102
RTVSPropertyOp38
 70
     1
102
RTVSPropertyOp39
 70
     1
102
RTVSPropertyOp40
 70
     1
102
RTVSPropertyOp41
 70
     1
102
RTVSPropertyOp42
 70
     1
102
RTVSPropertyOp43
 70
     1
102
RTVSPropertyOp44
 70
     1
102
RTVSPropertyOp45
 70
     1
102
RTVSPropertyOp46
 70
     1
102
RTVSPropertyOp47
 70
     1
102
RTVSPropertyOp48
 70
     1
102
RTVSPropertyOp49
 70
     1
102
RTVSPropertyOp50
 70
     1
102
RTVSPropertyOp51
 70
     0
102
RTVSPropertyOp52
 70
     0
102
RTVSPropertyOp53
 70
     1
102
RTVSPropertyOp54
 70
     1
102
RTVSPropertyOp55
 70
     1
102
RTVSPropertyOp56
 70
     1
102
RTVSPropertyOp57
 70
     1
102
RTVSPropertyOp58
 70
     1
102
RTVSPropertyOp59
 70
     1
102
RTVSPropertyOp60
 70
     1
102
RTVSPropertyOp61
 70
     1
102
RTVSPropertyOp62
 70
     1
  0
XRECORD
  5
36C
102
{ACAD_REACTORS
330
36B
102
}
330
36B
100
AcDbXrecord
280
     1
102
RTVSPost2010Prop28
280
     0
102
RTVSPost2010PropOp28
 70
     1
102
RTVSPost2010Prop29
280
     1
102
RTVSPost2010PropOp29
 70
     1
102
RTVSPost2010Prop30
280
     1
102
RTVSPost2010PropOp30
 70
     1
102
RTVSPost2010Prop31
280
     0
102
RTVSPost2010PropOp31
 70
     1
102
RTVSPost2010Prop32
280
     0
102
RTVSPost2010PropOp32
 70
     1
102
RTVSPost2010Prop33
280
     0
102
RTVSPost2010PropOp33
 70
     1
102
RTVSPost2010Prop34
280
     0
102
RTVSPost2010PropOp34
 70
     1
102
RTVSPost2010Prop35
280
     0
102
RTVSPost2010PropOp35
 70
     1
102
RTVSPost2010Prop36
280
     0
102
RTVSPost2010PropOp36
 70
     1
102
RTVSPost2010Prop37
 90
       50
102
RTVSPost2010PropOp37
 70
     1
102
RTVSPost2010Prop38
140
0.0
102
RTVSPost2010PropOp38
 70
     1
102
RTVSPost2010Prop39
140
1.0
102
RTVSPost2010PropOp39
 70
     1
102
RTVSPost2010Prop40
 90
        0
102
RTVSPost2010PropOp40
 70
     1
102
RTVSPost2010Prop41ColorIndex
 90
       18
102
RTVSPost2010Prop41ColorRGB
 90
        0
102
RTVSPost2010PropOp41
 70
     1
102
RTVSPost2010Prop42
 90
       50
102
RTVSPost2010PropOp42
 70
     1
102
RTVSPost2010Prop43
 90
        3
102
RTVSPost2010PropOp43
 70
     1
102
RTVSPost2010Prop44ColorIndex
 90
        5
102
RTVSPost2010Prop44ColorRGB
 90
      255
102
RTVSPost2010PropOp44
 70
     1
102
RTVSPost2010Prop45
280
     0
102
RTVSPost2010PropOp45
 70
     1
102
RTVSPost2010Prop46
 90
       50
102
RTVSPost2010PropOp46
 70
     1
102
RTVSPost2010Prop47
 90
       50
102
RTVSPost2010PropOp47
 70
     1
102
RTVSPost2010Prop48
 90
       50
102
RTVSPost2010PropOp48
 70
     1
102
RTVSPost2010Prop49
280
     0
102
RTVSPost2010PropOp49
 70
     1
102
RTVSPost2010Prop50
 90
       50
102
RTVSPost2010PropOp50
 70
     1
102
RTVSPost2010Prop51ColorIndex
 90
      256
102
RTVSPost2010Prop51ColorRGB
 90
-16777216
102
RTVSPost2010PropOp51
 70
     0
102
RTVSPost2010Prop52
140
1.0
102
RTVSPost2010PropOp52
 70
     0
102
RTVSPost2010Prop53
 90
        2
102
RTVSPost2010PropOp53
 70
     1
102
RTVSPost2010Prop54
  1
strokes_ogs.tif
102
RTVSPost2010PropOp54
 70
     1
102
RTVSPost2010Prop55
280
     0
102
RTVSPost2010PropOp55
 70
     1
102
RTVSPost2010Prop56
140
1.0
102
RTVSPost2010PropOp56
 70
     1
102
RTVSPost2010Prop57
140
1.0
102
RTVSPost2010PropOp57
 70
     1
102
RTVSPropertyOp0
 70
     1
102
RTVSPropertyOp1
 70
     1
102
RTVSPropertyOp2
 70
     1
102
RTVSPropertyOp3
 70
     1
102
RTVSPropertyOp4
 70
     1
102
RTVSPropertyOp5
 70
     1
102
RTVSPropertyOp6
 70
     1
102
RTVSPropertyOp7
 70
     1
102
RTVSPropertyOp8
 70
     1
102
RTVSPropertyOp9
 70
     1
102
RTVSPropertyOp10
 70
     1
102
RTVSPropertyOp11
 70
     1
102
RTVSPropertyOp12
 70
     1
102
RTVSPropertyOp13
 70
     1
102
RTVSPropertyOp14
 70
     1
102
RTVSPropertyOp15
 70
     1
102
RTVSPropertyOp16
 70
     1
102
RTVSPropertyOp17
 70
     1
102
RTVSPropertyOp18
 70
     1
102
RTVSPropertyOp19
 70
     1
102
RTVSPropertyOp20
 70
     1
102
RTVSPropertyOp21
 70
     1
102
RTVSPropertyOp22
 70
     1
102
RTVSPropertyOp23
 70
     1
102
RTVSPropertyOp24
 70
     1
102
RTVSPropertyOp25
 70
     1
102
RTVSPropertyOp26
 70
     1
102
RTVSPropertyOp27
 70
     1
102
RTVSPropertyOp28
 70
     1
102
RTVSPropertyOp29
 70
     1
102
RTVSPropertyOp30
 70
     1
102
RTVSPropertyOp31
 70
     1
102
RTVSPropertyOp32
 70
     1
102
RTVSPropertyOp33
 70
     1
102
RTVSPropertyOp34
 70
     1
102
RTVSPropertyOp35
 70
     1
102
RTVSPropertyOp36
 70
     1
102
RTVSPropertyOp37
 70
     1
102
RTVSPropertyOp38
 70
     1
102
RTVSPropertyOp39
 70
     1
102
RTVSPropertyOp40
 70
     1
102
RTVSPropertyOp41
 70
     1
102
RTVSPropertyOp42
 70
     1
102
RTVSPropertyOp43
 70
     1
102
RTVSPropertyOp44
 70
     1
102
RTVSPropertyOp45
 70
     1
102
RTVSPropertyOp46
 70
     1
102
RTVSPropertyOp47
 70
     1
102
RTVSPropertyOp48
 70
     1
102
RTVSPropertyOp49
 70
     1
102
RTVSPropertyOp50
 70
     1
102
RTVSPropertyOp51
 70
     0
102
RTVSPropertyOp52
 70
     0
102
RTVSPropertyOp53
 70
     1
102
RTVSPropertyOp54
 70
     1
102
RTVSPropertyOp55
 70
     1
102
RTVSPropertyOp56
 70
     1
102
RTVSPropertyOp57
 70
     1
102
RTVSPropertyOp58
 70
     1
102
RTVSPropertyOp59
 70
     1
102
RTVSPropertyOp60
 70
     1
102
RTVSPropertyOp61
 70
     1
102
RTVSPropertyOp62
 70
     1
  0
XRECORD
  5
372
102
{ACAD_REACTORS
330
371
102
}
330
371
100
AcDbXrecord
280
     1
102
RTVSPost2010Prop28
280
     0
102
RTVSPost2010PropOp28
 70
     1
102
RTVSPost2010Prop29
280
     1
102
RTVSPost2010PropOp29
 70
     1
102
RTVSPost2010Prop30
280
     1
102
RTVSPost2010PropOp30
 70
     1
102
RTVSPost2010Prop31
280
     0
102
RTVSPost2010PropOp31
 70
     1
102
RTVSPost2010Prop32
280
     0
102
RTVSPost2010PropOp32
 70
     1
102
RTVSPost2010Prop33
280
     0
102
RTVSPost2010PropOp33
 70
     1
102
RTVSPost2010Prop34
280
     0
102
RTVSPost2010PropOp34
 70
     1
102
RTVSPost2010Prop35
280
     0
102
RTVSPost2010PropOp35
 70
     1
102
RTVSPost2010Prop36
280
     0
102
RTVSPost2010PropOp36
 70
     1
102
RTVSPost2010Prop37
 90
       50
102
RTVSPost2010PropOp37
 70
     1
102
RTVSPost2010Prop38
140
0.0
102
RTVSPost2010PropOp38
 70
     1
102
RTVSPost2010Prop39
140
1.0
102
RTVSPost2010PropOp39
 70
     1
102
RTVSPost2010Prop40
 90
        0
102
RTVSPost2010PropOp40
 70
     1
102
RTVSPost2010Prop41ColorIndex
 90
       18
102
RTVSPost2010Prop41ColorRGB
 90
        0
102
RTVSPost2010PropOp41
 70
     1
102
RTVSPost2010Prop42
 90
       50
102
RTVSPost2010PropOp42
 70
     1
102
RTVSPost2010Prop43
 90
        3
102
RTVSPost2010PropOp43
 70
     1
102
RTVSPost2010Prop44ColorIndex
 90
        5
102
RTVSPost2010Prop44ColorRGB
 90
      255
102
RTVSPost2010PropOp44
 70
     1
102
RTVSPost2010Prop45
280
     0
102
RTVSPost2010PropOp45
 70
     1
102
RTVSPost2010Prop46
 90
       50
102
RTVSPost2010PropOp46
 70
     1
102
RTVSPost2010Prop47
 90
       50
102
RTVSPost2010PropOp47
 70
     1
102
RTVSPost2010Prop48
 90
       50
102
RTVSPost2010PropOp48
 70
     1
102
RTVSPost2010Prop49
280
     0
102
RTVSPost2010PropOp49
 70
     1
102
RTVSPost2010Prop50
 90
       50
102
RTVSPost2010PropOp50
 70
     1
102
RTVSPost2010Prop51ColorIndex
 90
      256
102
RTVSPost2010Prop51ColorRGB
 90
-16777216
102
RTVSPost2010PropOp51
 70
     0
102
RTVSPost2010Prop52
140
1.0
102
RTVSPost2010PropOp52
 70
     0
102
RTVSPost2010Prop53
 90
        2
102
RTVSPost2010PropOp53
 70
     1
102
RTVSPost2010Prop54
  1
strokes_ogs.tif
102
RTVSPost2010PropOp54
 70
     1
102
RTVSPost2010Prop55
280
     0
102
RTVSPost2010PropOp55
 70
     1
102
RTVSPost2010Prop56
140
1.0
102
RTVSPost2010PropOp56
 70
     1
102
RTVSPost2010Prop57
140
1.0
102
RTVSPost2010PropOp57
 70
     1
102
RTVSPropertyOp0
 70
     1
102
RTVSPropertyOp1
 70
     1
102
RTVSPropertyOp2
 70
     1
102
RTVSPropertyOp3
 70
     1
102
RTVSPropertyOp4
 70
     1
102
RTVSPropertyOp5
 70
     1
102
RTVSPropertyOp6
 70
     1
102
RTVSPropertyOp7
 70
     1
102
RTVSPropertyOp8
 70
     1
102
RTVSPropertyOp9
 70
     1
102
RTVSPropertyOp10
 70
     1
102
RTVSPropertyOp11
 70
     1
102
RTVSPropertyOp12
 70
     1
102
RTVSPropertyOp13
 70
     1
102
RTVSPropertyOp14
 70
     1
102
RTVSPropertyOp15
 70
     1
102
RTVSPropertyOp16
 70
     1
102
RTVSPropertyOp17
 70
     1
102
RTVSPropertyOp18
 70
     1
102
RTVSPropertyOp19
 70
     1
102
RTVSPropertyOp20
 70
     1
102
RTVSPropertyOp21
 70
     1
102
RTVSPropertyOp22
 70
     1
102
RTVSPropertyOp23
 70
     1
102
RTVSPropertyOp24
 70
     1
102
RTVSPropertyOp25
 70
     1
102
RTVSPropertyOp26
 70
     1
102
RTVSPropertyOp27
 70
     1
102
RTVSPropertyOp28
 70
     1
102
RTVSPropertyOp29
 70
     1
102
RTVSPropertyOp30
 70
     1
102
RTVSPropertyOp31
 70
     1
102
RTVSPropertyOp32
 70
     1
102
RTVSPropertyOp33
 70
     1
102
RTVSPropertyOp34
 70
     1
102
RTVSPropertyOp35
 70
     1
102
RTVSPropertyOp36
 70
     1
102
RTVSPropertyOp37
 70
     1
102
RTVSPropertyOp38
 70
     1
102
RTVSPropertyOp39
 70
     1
102
RTVSPropertyOp40
 70
     1
102
RTVSPropertyOp41
 70
     1
102
RTVSPropertyOp42
 70
     1
102
RTVSPropertyOp43
 70
     1
102
RTVSPropertyOp44
 70
     1
102
RTVSPropertyOp45
 70
     1
102
RTVSPropertyOp46
 70
     1
102
RTVSPropertyOp47
 70
     1
102
RTVSPropertyOp48
 70
     1
102
RTVSPropertyOp49
 70
     1
102
RTVSPropertyOp50
 70
     1
102
RTVSPropertyOp51
 70
     0
102
RTVSPropertyOp52
 70
     0
102
RTVSPropertyOp53
 70
     1
102
RTVSPropertyOp54
 70
     1
102
RTVSPropertyOp55
 70
     1
102
RTVSPropertyOp56
 70
     1
102
RTVSPropertyOp57
 70
     1
102
RTVSPropertyOp58
 70
     1
102
RTVSPropertyOp59
 70
     1
102
RTVSPropertyOp60
 70
     1
102
RTVSPropertyOp61
 70
     1
102
RTVSPropertyOp62
 70
     1
  0
XRECORD
  5
386
102
{ACAD_REACTORS
330
385
102
}
330
385
100
AcDbXrecord
280
     1
102
RTVSPost2010Prop28
280
     0
102
RTVSPost2010PropOp28
 70
     0
102
RTVSPost2010Prop29
280
     1
102
RTVSPost2010PropOp29
 70
     0
102
RTVSPost2010Prop30
280
     1
102
RTVSPost2010PropOp30
 70
     0
102
RTVSPost2010Prop31
280
     0
102
RTVSPost2010PropOp31
 70
     0
102
RTVSPost2010Prop32
280
     0
102
RTVSPost2010PropOp32
 70
     0
102
RTVSPost2010Prop33
280
     0
102
RTVSPost2010PropOp33
 70
     0
102
RTVSPost2010Prop34
280
     0
102
RTVSPost2010PropOp34
 70
     0
102
RTVSPost2010Prop35
280
     0
102
RTVSPost2010PropOp35
 70
     0
102
RTVSPost2010Prop36
280
     0
102
RTVSPost2010PropOp36
 70
     0
102
RTVSPost2010Prop37
 90
       50
102
RTVSPost2010PropOp37
 70
     0
102
RTVSPost2010Prop38
140
0.0
102
RTVSPost2010PropOp38
 70
     0
102
RTVSPost2010Prop39
140
1.0
102
RTVSPost2010PropOp39
 70
     0
102
RTVSPost2010Prop40
 90
        0
102
RTVSPost2010PropOp40
 70
     0
102
RTVSPost2010Prop41ColorIndex
 90
       18
102
RTVSPost2010Prop41ColorRGB
 90
        0
102
RTVSPost2010PropOp41
 70
     0
102
RTVSPost2010Prop42
 90
       50
102
RTVSPost2010PropOp42
 70
     0
102
RTVSPost2010Prop43
 90
        3
102
RTVSPost2010PropOp43
 70
     0
102
RTVSPost2010Prop44ColorIndex
 90
        5
102
RTVSPost2010Prop44ColorRGB
 90
      255
102
RTVSPost2010PropOp44
 70
     0
102
RTVSPost2010Prop45
280
     0
102
RTVSPost2010PropOp45
 70
     0
102
RTVSPost2010Prop46
 90
       50
102
RTVSPost2010PropOp46
 70
     0
102
RTVSPost2010Prop47
 90
       50
102
RTVSPost2010PropOp47
 70
     0
102
RTVSPost2010Prop48
 90
       50
102
RTVSPost2010PropOp48
 70
     0
102
RTVSPost2010Prop49
280
     0
102
RTVSPost2010PropOp49
 70
     0
102
RTVSPost2010Prop50
 90
       50
102
RTVSPost2010PropOp50
 70
     0
102
RTVSPost2010Prop51ColorIndex
 90
      256
102
RTVSPost2010Prop51ColorRGB
 90
-16777216
102
RTVSPost2010PropOp51
 70
     0
102
RTVSPost2010Prop52
140
1.0
102
RTVSPost2010PropOp52
 70
     0
102
RTVSPost2010Prop53
 90
        2
102
RTVSPost2010PropOp53
 70
     0
102
RTVSPost2010Prop54
  1
strokes_ogs.tif
102
RTVSPost2010PropOp54
 70
     0
102
RTVSPost2010Prop55
280
     0
102
RTVSPost2010PropOp55
 70
     0
102
RTVSPost2010Prop56
140
1.0
102
RTVSPost2010PropOp56
 70
     0
102
RTVSPost2010Prop57
140
1.0
102
RTVSPost2010PropOp57
 70
     0
102
RTVSPropertyOp0
 70
     0
102
RTVSPropertyOp1
 70
     0
102
RTVSPropertyOp2
 70
     0
102
RTVSPropertyOp3
 70
     0
102
RTVSPropertyOp4
 70
     0
102
RTVSPropertyOp5
 70
     0
102
RTVSPropertyOp6
 70
     0
102
RTVSPropertyOp7
 70
     0
102
RTVSPropertyOp8
 70
     0
102
RTVSPropertyOp9
 70
     0
102
RTVSPropertyOp10
 70
     0
102
RTVSPropertyOp11
 70
     0
102
RTVSPropertyOp12
 70
     0
102
RTVSPropertyOp13
 70
     0
102
RTVSPropertyOp14
 70
     2
102
RTVSPropertyOp15
 70
     0
102
RTVSPropertyOp16
 70
     0
102
RTVSPropertyOp17
 70
     0
102
RTVSPropertyOp18
 70
     0
102
RTVSPropertyOp19
 70
     0
102
RTVSPropertyOp20
 70
     0
102
RTVSPropertyOp21
 70
     0
102
RTVSPropertyOp22
 70
     0
102
RTVSPropertyOp23
 70
     0
102
RTVSPropertyOp24
 70
     0
102
RTVSPropertyOp25
 70
     0
102
RTVSPropertyOp26
 70
     0
102
RTVSPropertyOp27
 70
     0
102
RTVSPropertyOp28
 70
     0
102
RTVSPropertyOp29
 70
     0
102
RTVSPropertyOp30
 70
     0
102
RTVSPropertyOp31
 70
     0
102
RTVSPropertyOp32
 70
     0
102
RTVSPropertyOp33
 70
     0
102
RTVSPropertyOp34
 70
     0
102
RTVSPropertyOp35
 70
     0
102
RTVSPropertyOp36
 70
     0
102
RTVSPropertyOp37
 70
     0
102
RTVSPropertyOp38
 70
     0
102
RTVSPropertyOp39
 70
     0
102
RTVSPropertyOp40
 70
     0
102
RTVSPropertyOp41
 70
     0
102
RTVSPropertyOp42
 70
     0
102
RTVSPropertyOp43
 70
     0
102
RTVSPropertyOp44
 70
     0
102
RTVSPropertyOp45
 70
     0
102
RTVSPropertyOp46
 70
     0
102
RTVSPropertyOp47
 70
     0
102
RTVSPropertyOp48
 70
     0
102
RTVSPropertyOp49
 70
     0
102
RTVSPropertyOp50
 70
     0
102
RTVSPropertyOp51
 70
     0
102
RTVSPropertyOp52
 70
     0
102
RTVSPropertyOp53
 70
     0
102
RTVSPropertyOp54
 70
     0
102
RTVSPropertyOp55
 70
     0
102
RTVSPropertyOp56
 70
     0
102
RTVSPropertyOp57
 70
     0
102
RTVSPropertyOp58
 70
     1
102
RTVSPropertyOp59
 70
     1
102
RTVSPropertyOp60
 70
     1
102
RTVSPropertyOp61
 70
     1
102
RTVSPropertyOp62
 70
     1
  0
XRECORD
  5
380
102
{ACAD_REACTORS
330
37F
102
}
330
37F
100
AcDbXrecord
280
     1
102
RTVSPost2010Prop28
280
     0
102
RTVSPost2010PropOp28
 70
     1
102
RTVSPost2010Prop29
280
     1
102
RTVSPost2010PropOp29
 70
     1
102
RTVSPost2010Prop30
280
     1
102
RTVSPost2010PropOp30
 70
     1
102
RTVSPost2010Prop31
280
     0
102
RTVSPost2010PropOp31
 70
     1
102
RTVSPost2010Prop32
280
     0
102
RTVSPost2010PropOp32
 70
     1
102
RTVSPost2010Prop33
280
     0
102
RTVSPost2010PropOp33
 70
     1
102
RTVSPost2010Prop34
280
     0
102
RTVSPost2010PropOp34
 70
     1
102
RTVSPost2010Prop35
280
     0
102
RTVSPost2010PropOp35
 70
     1
102
RTVSPost2010Prop36
280
     0
102
RTVSPost2010PropOp36
 70
     1
102
RTVSPost2010Prop37
 90
       50
102
RTVSPost2010PropOp37
 70
     1
102
RTVSPost2010Prop38
140
0.0
102
RTVSPost2010PropOp38
 70
     1
102
RTVSPost2010Prop39
140
1.0
102
RTVSPost2010PropOp39
 70
     1
102
RTVSPost2010Prop40
 90
        0
102
RTVSPost2010PropOp40
 70
     1
102
RTVSPost2010Prop41ColorIndex
 90
       18
102
RTVSPost2010Prop41ColorRGB
 90
        0
102
RTVSPost2010PropOp41
 70
     1
102
RTVSPost2010Prop42
 90
       50
102
RTVSPost2010PropOp42
 70
     1
102
RTVSPost2010Prop43
 90
        3
102
RTVSPost2010PropOp43
 70
     1
102
RTVSPost2010Prop44ColorIndex
 90
        5
102
RTVSPost2010Prop44ColorRGB
 90
      255
102
RTVSPost2010PropOp44
 70
     1
102
RTVSPost2010Prop45
280
     0
102
RTVSPost2010PropOp45
 70
     1
102
RTVSPost2010Prop46
 90
       50
102
RTVSPost2010PropOp46
 70
     1
102
RTVSPost2010Prop47
 90
       50
102
RTVSPost2010PropOp47
 70
     1
102
RTVSPost2010Prop48
 90
       50
102
RTVSPost2010PropOp48
 70
     1
102
RTVSPost2010Prop49
280
     0
102
RTVSPost2010PropOp49
 70
     1
102
RTVSPost2010Prop50
 90
       50
102
RTVSPost2010PropOp50
 70
     1
102
RTVSPost2010Prop51ColorIndex
 90
      256
102
RTVSPost2010Prop51ColorRGB
 90
-16777216
102
RTVSPost2010PropOp51
 70
     0
102
RTVSPost2010Prop52
140
1.0
102
RTVSPost2010PropOp52
 70
     0
102
RTVSPost2010Prop53
 90
        2
102
RTVSPost2010PropOp53
 70
     1
102
RTVSPost2010Prop54
  1
strokes_ogs.tif
102
RTVSPost2010PropOp54
 70
     1
102
RTVSPost2010Prop55
280
     0
102
RTVSPost2010PropOp55
 70
     1
102
RTVSPost2010Prop56
140
1.0
102
RTVSPost2010PropOp56
 70
     1
102
RTVSPost2010Prop57
140
1.0
102
RTVSPost2010PropOp57
 70
     1
102
RTVSPropertyOp0
 70
     1
102
RTVSPropertyOp1
 70
     1
102
RTVSPropertyOp2
 70
     1
102
RTVSPropertyOp3
 70
     1
102
RTVSPropertyOp4
 70
     1
102
RTVSPropertyOp5
 70
     1
102
RTVSPropertyOp6
 70
     1
102
RTVSPropertyOp7
 70
     1
102
RTVSPropertyOp8
 70
     1
102
RTVSPropertyOp9
 70
     1
102
RTVSPropertyOp10
 70
     1
102
RTVSPropertyOp11
 70
     1
102
RTVSPropertyOp12
 70
     1
102
RTVSPropertyOp13
 70
     1
102
RTVSPropertyOp14
 70
     1
102
RTVSPropertyOp15
 70
     1
102
RTVSPropertyOp16
 70
     1
102
RTVSPropertyOp17
 70
     1
102
RTVSPropertyOp18
 70
     1
102
RTVSPropertyOp19
 70
     1
102
RTVSPropertyOp20
 70
     1
102
RTVSPropertyOp21
 70
     1
102
RTVSPropertyOp22
 70
     1
102
RTVSPropertyOp23
 70
     1
102
RTVSPropertyOp24
 70
     1
102
RTVSPropertyOp25
 70
     1
102
RTVSPropertyOp26
 70
     1
102
RTVSPropertyOp27
 70
     1
102
RTVSPropertyOp28
 70
     1
102
RTVSPropertyOp29
 70
     1
102
RTVSPropertyOp30
 70
     1
102
RTVSPropertyOp31
 70
     1
102
RTVSPropertyOp32
 70
     1
102
RTVSPropertyOp33
 70
     1
102
RTVSPropertyOp34
 70
     1
102
RTVSPropertyOp35
 70
     1
102
RTVSPropertyOp36
 70
     1
102
RTVSPropertyOp37
 70
     1
102
RTVSPropertyOp38
 70
     1
102
RTVSPropertyOp39
 70
     1
102
RTVSPropertyOp40
 70
     1
102
RTVSPropertyOp41
 70
     1
102
RTVSPropertyOp42
 70
     1
102
RTVSPropertyOp43
 70
     1
102
RTVSPropertyOp44
 70
     1
102
RTVSPropertyOp45
 70
     1
102
RTVSPropertyOp46
 70
     1
102
RTVSPropertyOp47
 70
     1
102
RTVSPropertyOp48
 70
     1
102
RTVSPropertyOp49
 70
     1
102
RTVSPropertyOp50
 70
     1
102
RTVSPropertyOp51
 70
     0
102
RTVSPropertyOp52
 70
     0
102
RTVSPropertyOp53
 70
     1
102
RTVSPropertyOp54
 70
     1
102
RTVSPropertyOp55
 70
     1
102
RTVSPropertyOp56
 70
     1
102
RTVSPropertyOp57
 70
     1
102
RTVSPropertyOp58
 70
     1
102
RTVSPropertyOp59
 70
     1
102
RTVSPropertyOp60
 70
     1
102
RTVSPropertyOp61
 70
     1
102
RTVSPropertyOp62
 70
     1
  0
XRECORD
  5
388
102
{ACAD_REACTORS
330
387
102
}
330
387
100
AcDbXrecord
280
     1
102
RTVSPost2010Prop28
280
     0
102
RTVSPost2010PropOp28
 70
     0
102
RTVSPost2010Prop29
280
     1
102
RTVSPost2010PropOp29
 70
     0
102
RTVSPost2010Prop30
280
     1
102
RTVSPost2010PropOp30
 70
     0
102
RTVSPost2010Prop31
280
     0
102
RTVSPost2010PropOp31
 70
     0
102
RTVSPost2010Prop32
280
     0
102
RTVSPost2010PropOp32
 70
     0
102
RTVSPost2010Prop33
280
     0
102
RTVSPost2010PropOp33
 70
     0
102
RTVSPost2010Prop34
280
     0
102
RTVSPost2010PropOp34
 70
     0
102
RTVSPost2010Prop35
280
     0
102
RTVSPost2010PropOp35
 70
     0
102
RTVSPost2010Prop36
280
     0
102
RTVSPost2010PropOp36
 70
     0
102
RTVSPost2010Prop37
 90
       50
102
RTVSPost2010PropOp37
 70
     0
102
RTVSPost2010Prop38
140
0.0
102
RTVSPost2010PropOp38
 70
     0
102
RTVSPost2010Prop39
140
1.0
102
RTVSPost2010PropOp39
 70
     0
102
RTVSPost2010Prop40
 90
        0
102
RTVSPost2010PropOp40
 70
     0
102
RTVSPost2010Prop41ColorIndex
 90
       18
102
RTVSPost2010Prop41ColorRGB
 90
        0
102
RTVSPost2010PropOp41
 70
     0
102
RTVSPost2010Prop42
 90
       50
102
RTVSPost2010PropOp42
 70
     0
102
RTVSPost2010Prop43
 90
        3
102
RTVSPost2010PropOp43
 70
     0
102
RTVSPost2010Prop44ColorIndex
 90
        5
102
RTVSPost2010Prop44ColorRGB
 90
      255
102
RTVSPost2010PropOp44
 70
     0
102
RTVSPost2010Prop45
280
     0
102
RTVSPost2010PropOp45
 70
     0
102
RTVSPost2010Prop46
 90
       50
102
RTVSPost2010PropOp46
 70
     0
102
RTVSPost2010Prop47
 90
       50
102
RTVSPost2010PropOp47
 70
     0
102
RTVSPost2010Prop48
 90
       50
102
RTVSPost2010PropOp48
 70
     0
102
RTVSPost2010Prop49
280
     0
102
RTVSPost2010PropOp49
 70
     0
102
RTVSPost2010Prop50
 90
       50
102
RTVSPost2010PropOp50
 70
     0
102
RTVSPost2010Prop51ColorIndex
 90
      256
102
RTVSPost2010Prop51ColorRGB
 90
-16777216
102
RTVSPost2010PropOp51
 70
     0
102
RTVSPost2010Prop52
140
1.0
102
RTVSPost2010PropOp52
 70
     0
102
RTVSPost2010Prop53
 90
        2
102
RTVSPost2010PropOp53
 70
     0
102
RTVSPost2010Prop54
  1
strokes_ogs.tif
102
RTVSPost2010PropOp54
 70
     0
102
RTVSPost2010Prop55
280
     0
102
RTVSPost2010PropOp55
 70
     0
102
RTVSPost2010Prop56
140
1.0
102
RTVSPost2010PropOp56
 70
     0
102
RTVSPost2010Prop57
140
1.0
102
RTVSPost2010PropOp57
 70
     0
102
RTVSPropertyOp0
 70
     0
102
RTVSPropertyOp1
 70
     0
102
RTVSPropertyOp2
 70
     0
102
RTVSPropertyOp3
 70
     0
102
RTVSPropertyOp4
 70
     0
102
RTVSPropertyOp5
 70
     0
102
RTVSPropertyOp6
 70
     0
102
RTVSPropertyOp7
 70
     0
102
RTVSPropertyOp8
 70
     0
102
RTVSPropertyOp9
 70
     0
102
RTVSPropertyOp10
 70
     0
102
RTVSPropertyOp11
 70
     0
102
RTVSPropertyOp12
 70
     0
102
RTVSPropertyOp13
 70
     0
102
RTVSPropertyOp14
 70
     2
102
RTVSPropertyOp15
 70
     0
102
RTVSPropertyOp16
 70
     0
102
RTVSPropertyOp17
 70
     0
102
RTVSPropertyOp18
 70
     0
102
RTVSPropertyOp19
 70
     0
102
RTVSPropertyOp20
 70
     0
102
RTVSPropertyOp21
 70
     0
102
RTVSPropertyOp22
 70
     0
102
RTVSPropertyOp23
 70
     0
102
RTVSPropertyOp24
 70
     0
102
RTVSPropertyOp25
 70
     0
102
RTVSPropertyOp26
 70
     0
102
RTVSPropertyOp27
 70
     0
102
RTVSPropertyOp28
 70
     0
102
RTVSPropertyOp29
 70
     0
102
RTVSPropertyOp30
 70
     0
102
RTVSPropertyOp31
 70
     0
102
RTVSPropertyOp32
 70
     0
102
RTVSPropertyOp33
 70
     0
102
RTVSPropertyOp34
 70
     0
102
RTVSPropertyOp35
 70
     0
102
RTVSPropertyOp36
 70
     0
102
RTVSPropertyOp37
 70
     0
102
RTVSPropertyOp38
 70
     0
102
RTVSPropertyOp39
 70
     0
102
RTVSPropertyOp40
 70
     0
102
RTVSPropertyOp41
 70
     0
102
RTVSPropertyOp42
 70
     0
102
RTVSPropertyOp43
 70
     0
102
RTVSPropertyOp44
 70
     0
102
RTVSPropertyOp45
 70
     0
102
RTVSPropertyOp46
 70
     0
102
RTVSPropertyOp47
 70
     0
102
RTVSPropertyOp48
 70
     0
102
RTVSPropertyOp49
 70
     0
102
RTVSPropertyOp50
 70
     0
102
RTVSPropertyOp51
 70
     0
102
RTVSPropertyOp52
 70
     0
102
RTVSPropertyOp53
 70
     0
102
RTVSPropertyOp54
 70
     0
102
RTVSPropertyOp55
 70
     0
102
RTVSPropertyOp56
 70
     0
102
RTVSPropertyOp57
 70
     0
102
RTVSPropertyOp58
 70
     1
102
RTVSPropertyOp59
 70
     1
102
RTVSPropertyOp60
 70
     1
102
RTVSPropertyOp61
 70
     1
102
RTVSPropertyOp62
 70
     1
  0
XRECORD
  5
376
102
{ACAD_REACTORS
330
375
102
}
330
375
100
AcDbXrecord
280
     1
102
RTVSPost2010Prop28
280
     0
102
RTVSPost2010PropOp28
 70
     1
102
RTVSPost2010Prop29
280
     1
102
RTVSPost2010PropOp29
 70
     1
102
RTVSPost2010Prop30
280
     1
102
RTVSPost2010PropOp30
 70
     1
102
RTVSPost2010Prop31
280
     0
102
RTVSPost2010PropOp31
 70
     1
102
RTVSPost2010Prop32
280
     0
102
RTVSPost2010PropOp32
 70
     1
102
RTVSPost2010Prop33
280
     0
102
RTVSPost2010PropOp33
 70
     1
102
RTVSPost2010Prop34
280
     0
102
RTVSPost2010PropOp34
 70
     1
102
RTVSPost2010Prop35
280
     0
102
RTVSPost2010PropOp35
 70
     1
102
RTVSPost2010Prop36
280
     0
102
RTVSPost2010PropOp36
 70
     1
102
RTVSPost2010Prop37
 90
       50
102
RTVSPost2010PropOp37
 70
     1
102
RTVSPost2010Prop38
140
0.0
102
RTVSPost2010PropOp38
 70
     1
102
RTVSPost2010Prop39
140
1.0
102
RTVSPost2010PropOp39
 70
     1
102
RTVSPost2010Prop40
 90
        0
102
RTVSPost2010PropOp40
 70
     1
102
RTVSPost2010Prop41ColorIndex
 90
       18
102
RTVSPost2010Prop41ColorRGB
 90
        0
102
RTVSPost2010PropOp41
 70
     1
102
RTVSPost2010Prop42
 90
       50
102
RTVSPost2010PropOp42
 70
     1
102
RTVSPost2010Prop43
 90
        3
102
RTVSPost2010PropOp43
 70
     1
102
RTVSPost2010Prop44ColorIndex
 90
        5
102
RTVSPost2010Prop44ColorRGB
 90
      255
102
RTVSPost2010PropOp44
 70
     1
102
RTVSPost2010Prop45
280
     0
102
RTVSPost2010PropOp45
 70
     1
102
RTVSPost2010Prop46
 90
       50
102
RTVSPost2010PropOp46
 70
     1
102
RTVSPost2010Prop47
 90
       50
102
RTVSPost2010PropOp47
 70
     1
102
RTVSPost2010Prop48
 90
       50
102
RTVSPost2010PropOp48
 70
     1
102
RTVSPost2010Prop49
280
     0
102
RTVSPost2010PropOp49
 70
     1
102
RTVSPost2010Prop50
 90
       50
102
RTVSPost2010PropOp50
 70
     1
102
RTVSPost2010Prop51ColorIndex
 90
      256
102
RTVSPost2010Prop51ColorRGB
 90
-16777216
102
RTVSPost2010PropOp51
 70
     0
102
RTVSPost2010Prop52
140
1.0
102
RTVSPost2010PropOp52
 70
     0
102
RTVSPost2010Prop53
 90
        2
102
RTVSPost2010PropOp53
 70
     1
102
RTVSPost2010Prop54
  1
strokes_ogs.tif
102
RTVSPost2010PropOp54
 70
     1
102
RTVSPost2010Prop55
280
     0
102
RTVSPost2010PropOp55
 70
     1
102
RTVSPost2010Prop56
140
1.0
102
RTVSPost2010PropOp56
 70
     1
102
RTVSPost2010Prop57
140
1.0
102
RTVSPost2010PropOp57
 70
     1
102
RTVSPropertyOp0
 70
     1
102
RTVSPropertyOp1
 70
     1
102
RTVSPropertyOp2
 70
     1
102
RTVSPropertyOp3
 70
     1
102
RTVSPropertyOp4
 70
     1
102
RTVSPropertyOp5
 70
     1
102
RTVSPropertyOp6
 70
     1
102
RTVSPropertyOp7
 70
     1
102
RTVSPropertyOp8
 70
     1
102
RTVSPropertyOp9
 70
     1
102
RTVSPropertyOp10
 70
     1
102
RTVSPropertyOp11
 70
     1
102
RTVSPropertyOp12
 70
     1
102
RTVSPropertyOp13
 70
     1
102
RTVSPropertyOp14
 70
     1
102
RTVSPropertyOp15
 70
     1
102
RTVSPropertyOp16
 70
     1
102
RTVSPropertyOp17
 70
     1
102
RTVSPropertyOp18
 70
     1
102
RTVSPropertyOp19
 70
     1
102
RTVSPropertyOp20
 70
     1
102
RTVSPropertyOp21
 70
     1
102
RTVSPropertyOp22
 70
     1
102
RTVSPropertyOp23
 70
     1
102
RTVSPropertyOp24
 70
     1
102
RTVSPropertyOp25
 70
     1
102
RTVSPropertyOp26
 70
     1
102
RTVSPropertyOp27
 70
     1
102
RTVSPropertyOp28
 70
     1
102
RTVSPropertyOp29
 70
     1
102
RTVSPropertyOp30
 70
     1
102
RTVSPropertyOp31
 70
     1
102
RTVSPropertyOp32
 70
     1
102
RTVSPropertyOp33
 70
     1
102
RTVSPropertyOp34
 70
     1
102
RTVSPropertyOp35
 70
     1
102
RTVSPropertyOp36
 70
     1
102
RTVSPropertyOp37
 70
     1
102
RTVSPropertyOp38
 70
     1
102
RTVSPropertyOp39
 70
     1
102
RTVSPropertyOp40
 70
     1
102
RTVSPropertyOp41
 70
     1
102
RTVSPropertyOp42
 70
     1
102
RTVSPropertyOp43
 70
     1
102
RTVSPropertyOp44
 70
     1
102
RTVSPropertyOp45
 70
     1
102
RTVSPropertyOp46
 70
     1
102
RTVSPropertyOp47
 70
     1
102
RTVSPropertyOp48
 70
     1
102
RTVSPropertyOp49
 70
     1
102
RTVSPropertyOp50
 70
     1
102
RTVSPropertyOp51
 70
     0
102
RTVSPropertyOp52
 70
     0
102
RTVSPropertyOp53
 70
     1
102
RTVSPropertyOp54
 70
     1
102
RTVSPropertyOp55
 70
     1
102
RTVSPropertyOp56
 70
     1
102
RTVSPropertyOp57
 70
     1
102
RTVSPropertyOp58
 70
     1
102
RTVSPropertyOp59
 70
     1
102
RTVSPropertyOp60
 70
     1
102
RTVSPropertyOp61
 70
     1
102
RTVSPropertyOp62
 70
     1
  0
XRECORD
  5
394
102
{ACAD_REACTORS
330
393
102
}
330
393
100
AcDbXrecord
280
     1
102
RTVSPost2010Prop28
280
     0
102
RTVSPost2010PropOp28
 70
     1
102
RTVSPost2010Prop29
280
     1
102
RTVSPost2010PropOp29
 70
     1
102
RTVSPost2010Prop30
280
     1
102
RTVSPost2010PropOp30
 70
     1
102
RTVSPost2010Prop31
280
     0
102
RTVSPost2010PropOp31
 70
     1
102
RTVSPost2010Prop32
280
     0
102
RTVSPost2010PropOp32
 70
     1
102
RTVSPost2010Prop33
280
     0
102
RTVSPost2010PropOp33
 70
     1
102
RTVSPost2010Prop34
280
     0
102
RTVSPost2010PropOp34
 70
     1
102
RTVSPost2010Prop35
280
     0
102
RTVSPost2010PropOp35
 70
     1
102
RTVSPost2010Prop36
280
     0
102
RTVSPost2010PropOp36
 70
     1
102
RTVSPost2010Prop37
 90
       50
102
RTVSPost2010PropOp37
 70
     1
102
RTVSPost2010Prop38
140
0.0
102
RTVSPost2010PropOp38
 70
     1
102
RTVSPost2010Prop39
140
1.0
102
RTVSPost2010PropOp39
 70
     1
102
RTVSPost2010Prop40
 90
        0
102
RTVSPost2010PropOp40
 70
     1
102
RTVSPost2010Prop41ColorIndex
 90
       18
102
RTVSPost2010Prop41ColorRGB
 90
        0
102
RTVSPost2010PropOp41
 70
     1
102
RTVSPost2010Prop42
 90
       50
102
RTVSPost2010PropOp42
 70
     1
102
RTVSPost2010Prop43
 90
        3
102
RTVSPost2010PropOp43
 70
     1
102
RTVSPost2010Prop44ColorIndex
 90
        5
102
RTVSPost2010Prop44ColorRGB
 90
      255
102
RTVSPost2010PropOp44
 70
     1
102
RTVSPost2010Prop45
280
     0
102
RTVSPost2010PropOp45
 70
     1
102
RTVSPost2010Prop46
 90
       50
102
RTVSPost2010PropOp46
 70
     1
102
RTVSPost2010Prop47
 90
       50
102
RTVSPost2010PropOp47
 70
     1
102
RTVSPost2010Prop48
 90
       50
102
RTVSPost2010PropOp48
 70
     1
102
RTVSPost2010Prop49
280
     0
102
RTVSPost2010PropOp49
 70
     1
102
RTVSPost2010Prop50
 90
       50
102
RTVSPost2010PropOp50
 70
     1
102
RTVSPost2010Prop51ColorIndex
 90
      256
102
RTVSPost2010Prop51ColorRGB
 90
-16777216
102
RTVSPost2010PropOp51
 70
     0
102
RTVSPost2010Prop52
140
1.0
102
RTVSPost2010PropOp52
 70
     0
102
RTVSPost2010Prop53
 90
        2
102
RTVSPost2010PropOp53
 70
     1
102
RTVSPost2010Prop54
  1
strokes_ogs.tif
102
RTVSPost2010PropOp54
 70
     1
102
RTVSPost2010Prop55
280
     0
102
RTVSPost2010PropOp55
 70
     1
102
RTVSPost2010Prop56
140
1.0
102
RTVSPost2010PropOp56
 70
     1
102
RTVSPost2010Prop57
140
1.0
102
RTVSPost2010PropOp57
 70
     1
102
RTVSPropertyOp0
 70
     1
102
RTVSPropertyOp1
 70
     1
102
RTVSPropertyOp2
 70
     1
102
RTVSPropertyOp3
 70
     1
102
RTVSPropertyOp4
 70
     1
102
RTVSPropertyOp5
 70
     1
102
RTVSPropertyOp6
 70
     1
102
RTVSPropertyOp7
 70
     1
102
RTVSPropertyOp8
 70
     1
102
RTVSPropertyOp9
 70
     1
102
RTVSPropertyOp10
 70
     1
102
RTVSPropertyOp11
 70
     1
102
RTVSPropertyOp12
 70
     1
102
RTVSPropertyOp13
 70
     1
102
RTVSPropertyOp14
 70
     1
102
RTVSPropertyOp15
 70
     1
102
RTVSPropertyOp16
 70
     1
102
RTVSPropertyOp17
 70
     1
102
RTVSPropertyOp18
 70
     1
102
RTVSPropertyOp19
 70
     1
102
RTVSPropertyOp20
 70
     1
102
RTVSPropertyOp21
 70
     1
102
RTVSPropertyOp22
 70
     1
102
RTVSPropertyOp23
 70
     1
102
RTVSPropertyOp24
 70
     1
102
RTVSPropertyOp25
 70
     1
102
RTVSPropertyOp26
 70
     1
102
RTVSPropertyOp27
 70
     1
102
RTVSPropertyOp28
 70
     1
102
RTVSPropertyOp29
 70
     1
102
RTVSPropertyOp30
 70
     1
102
RTVSPropertyOp31
 70
     1
102
RTVSPropertyOp32
 70
     1
102
RTVSPropertyOp33
 70
     1
102
RTVSPropertyOp34
 70
     1
102
RTVSPropertyOp35
 70
     1
102
RTVSPropertyOp36
 70
     1
102
RTVSPropertyOp37
 70
     1
102
RTVSPropertyOp38
 70
     1
102
RTVSPropertyOp39
 70
     1
102
RTVSPropertyOp40
 70
     1
102
RTVSPropertyOp41
 70
     1
102
RTVSPropertyOp42
 70
     1
102
RTVSPropertyOp43
 70
     1
102
RTVSPropertyOp44
 70
     1
102
RTVSPropertyOp45
 70
     1
102
RTVSPropertyOp46
 70
     1
102
RTVSPropertyOp47
 70
     1
102
RTVSPropertyOp48
 70
     1
102
RTVSPropertyOp49
 70
     1
102
RTVSPropertyOp50
 70
     1
102
RTVSPropertyOp51
 70
     0
102
RTVSPropertyOp52
 70
     0
102
RTVSPropertyOp53
 70
     1
102
RTVSPropertyOp54
 70
     1
102
RTVSPropertyOp55
 70
     1
102
RTVSPropertyOp56
 70
     1
102
RTVSPropertyOp57
 70
     1
102
RTVSPropertyOp58
 70
     1
102
RTVSPropertyOp59
 70
     1
102
RTVSPropertyOp60
 70
     1
102
RTVSPropertyOp61
 70
     1
102
RTVSPropertyOp62
 70
     1
  0
XRECORD
  5
392
102
{ACAD_REACTORS
330
391
102
}
330
391
100
AcDbXrecord
280
     1
102
RTVSPost2010Prop28
280
     0
102
RTVSPost2010PropOp28
 70
     1
102
RTVSPost2010Prop29
280
     1
102
RTVSPost2010PropOp29
 70
     1
102
RTVSPost2010Prop30
280
     1
102
RTVSPost2010PropOp30
 70
     1
102
RTVSPost2010Prop31
280
     0
102
RTVSPost2010PropOp31
 70
     1
102
RTVSPost2010Prop32
280
     0
102
RTVSPost2010PropOp32
 70
     1
102
RTVSPost2010Prop33
280
     0
102
RTVSPost2010PropOp33
 70
     1
102
RTVSPost2010Prop34
280
     0
102
RTVSPost2010PropOp34
 70
     1
102
RTVSPost2010Prop35
280
     0
102
RTVSPost2010PropOp35
 70
     1
102
RTVSPost2010Prop36
280
     0
102
RTVSPost2010PropOp36
 70
     1
102
RTVSPost2010Prop37
 90
       50
102
RTVSPost2010PropOp37
 70
     1
102
RTVSPost2010Prop38
140
0.0
102
RTVSPost2010PropOp38
 70
     1
102
RTVSPost2010Prop39
140
1.0
102
RTVSPost2010PropOp39
 70
     1
102
RTVSPost2010Prop40
 90
        0
102
RTVSPost2010PropOp40
 70
     1
102
RTVSPost2010Prop41ColorIndex
 90
       18
102
RTVSPost2010Prop41ColorRGB
 90
        0
102
RTVSPost2010PropOp41
 70
     1
102
RTVSPost2010Prop42
 90
       50
102
RTVSPost2010PropOp42
 70
     1
102
RTVSPost2010Prop43
 90
        3
102
RTVSPost2010PropOp43
 70
     1
102
RTVSPost2010Prop44ColorIndex
 90
        5
102
RTVSPost2010Prop44ColorRGB
 90
      255
102
RTVSPost2010PropOp44
 70
     1
102
RTVSPost2010Prop45
280
     0
102
RTVSPost2010PropOp45
 70
     1
102
RTVSPost2010Prop46
 90
       50
102
RTVSPost2010PropOp46
 70
     1
102
RTVSPost2010Prop47
 90
       50
102
RTVSPost2010PropOp47
 70
     1
102
RTVSPost2010Prop48
 90
       50
102
RTVSPost2010PropOp48
 70
     1
102
RTVSPost2010Prop49
280
     0
102
RTVSPost2010PropOp49
 70
     1
102
RTVSPost2010Prop50
 90
       50
102
RTVSPost2010PropOp50
 70
     1
102
RTVSPost2010Prop51ColorIndex
 90
      256
102
RTVSPost2010Prop51ColorRGB
 90
-16777216
102
RTVSPost2010PropOp51
 70
     0
102
RTVSPost2010Prop52
140
1.0
102
RTVSPost2010PropOp52
 70
     0
102
RTVSPost2010Prop53
 90
        2
102
RTVSPost2010PropOp53
 70
     1
102
RTVSPost2010Prop54
  1
strokes_ogs.tif
102
RTVSPost2010PropOp54
 70
     1
102
RTVSPost2010Prop55
280
     0
102
RTVSPost2010PropOp55
 70
     1
102
RTVSPost2010Prop56
140
1.0
102
RTVSPost2010PropOp56
 70
     1
102
RTVSPost2010Prop57
140
1.0
102
RTVSPost2010PropOp57
 70
     1
102
RTVSPropertyOp0
 70
     1
102
RTVSPropertyOp1
 70
     1
102
RTVSPropertyOp2
 70
     1
102
RTVSPropertyOp3
 70
     1
102
RTVSPropertyOp4
 70
     1
102
RTVSPropertyOp5
 70
     1
102
RTVSPropertyOp6
 70
     1
102
RTVSPropertyOp7
 70
     1
102
RTVSPropertyOp8
 70
     1
102
RTVSPropertyOp9
 70
     1
102
RTVSPropertyOp10
 70
     1
102
RTVSPropertyOp11
 70
     1
102
RTVSPropertyOp12
 70
     1
102
RTVSPropertyOp13
 70
     1
102
RTVSPropertyOp14
 70
     1
102
RTVSPropertyOp15
 70
     1
102
RTVSPropertyOp16
 70
     1
102
RTVSPropertyOp17
 70
     1
102
RTVSPropertyOp18
 70
     1
102
RTVSPropertyOp19
 70
     1
102
RTVSPropertyOp20
 70
     1
102
RTVSPropertyOp21
 70
     1
102
RTVSPropertyOp22
 70
     1
102
RTVSPropertyOp23
 70
     1
102
RTVSPropertyOp24
 70
     1
102
RTVSPropertyOp25
 70
     1
102
RTVSPropertyOp26
 70
     1
102
RTVSPropertyOp27
 70
     1
102
RTVSPropertyOp28
 70
     1
102
RTVSPropertyOp29
 70
     1
102
RTVSPropertyOp30
 70
     1
102
RTVSPropertyOp31
 70
     1
102
RTVSPropertyOp32
 70
     1
102
RTVSPropertyOp33
 70
     1
102
RTVSPropertyOp34
 70
     1
102
RTVSPropertyOp35
 70
     1
102
RTVSPropertyOp36
 70
     1
102
RTVSPropertyOp37
 70
     1
102
RTVSPropertyOp38
 70
     1
102
RTVSPropertyOp39
 70
     1
102
RTVSPropertyOp40
 70
     1
102
RTVSPropertyOp41
 70
     1
102
RTVSPropertyOp42
 70
     1
102
RTVSPropertyOp43
 70
     1
102
RTVSPropertyOp44
 70
     1
102
RTVSPropertyOp45
 70
     1
102
RTVSPropertyOp46
 70
     1
102
RTVSPropertyOp47
 70
     1
102
RTVSPropertyOp48
 70
     1
102
RTVSPropertyOp49
 70
     1
102
RTVSPropertyOp50
 70
     1
102
RTVSPropertyOp51
 70
     0
102
RTVSPropertyOp52
 70
     0
102
RTVSPropertyOp53
 70
     1
102
RTVSPropertyOp54
 70
     1
102
RTVSPropertyOp55
 70
     1
102
RTVSPropertyOp56
 70
     1
102
RTVSPropertyOp57
 70
     1
102
RTVSPropertyOp58
 70
     1
102
RTVSPropertyOp59
 70
     1
102
RTVSPropertyOp60
 70
     1
102
RTVSPropertyOp61
 70
     1
102
RTVSPropertyOp62
 70
     1
  0
XRECORD
  5
38C
102
{ACAD_REACTORS
330
38B
102
}
330
38B
100
AcDbXrecord
280
     1
102
RTVSPost2010Prop28
280
     0
102
RTVSPost2010PropOp28
 70
     1
102
RTVSPost2010Prop29
280
     1
102
RTVSPost2010PropOp29
 70
     1
102
RTVSPost2010Prop30
280
     1
102
RTVSPost2010PropOp30
 70
     1
102
RTVSPost2010Prop31
280
     0
102
RTVSPost2010PropOp31
 70
     1
102
RTVSPost2010Prop32
280
     0
102
RTVSPost2010PropOp32
 70
     1
102
RTVSPost2010Prop33
280
     0
102
RTVSPost2010PropOp33
 70
     1
102
RTVSPost2010Prop34
280
     0
102
RTVSPost2010PropOp34
 70
     1
102
RTVSPost2010Prop35
280
     0
102
RTVSPost2010PropOp35
 70
     1
102
RTVSPost2010Prop36
280
     0
102
RTVSPost2010PropOp36
 70
     1
102
RTVSPost2010Prop37
 90
       50
102
RTVSPost2010PropOp37
 70
     1
102
RTVSPost2010Prop38
140
0.0
102
RTVSPost2010PropOp38
 70
     1
102
RTVSPost2010Prop39
140
1.0
102
RTVSPost2010PropOp39
 70
     1
102
RTVSPost2010Prop40
 90
        0
102
RTVSPost2010PropOp40
 70
     1
102
RTVSPost2010Prop41ColorIndex
 90
       18
102
RTVSPost2010Prop41ColorRGB
 90
        0
102
RTVSPost2010PropOp41
 70
     1
102
RTVSPost2010Prop42
 90
       50
102
RTVSPost2010PropOp42
 70
     1
102
RTVSPost2010Prop43
 90
        3
102
RTVSPost2010PropOp43
 70
     1
102
RTVSPost2010Prop44ColorIndex
 90
        5
102
RTVSPost2010Prop44ColorRGB
 90
      255
102
RTVSPost2010PropOp44
 70
     1
102
RTVSPost2010Prop45
280
     0
102
RTVSPost2010PropOp45
 70
     1
102
RTVSPost2010Prop46
 90
       50
102
RTVSPost2010PropOp46
 70
     1
102
RTVSPost2010Prop47
 90
       50
102
RTVSPost2010PropOp47
 70
     1
102
RTVSPost2010Prop48
 90
       50
102
RTVSPost2010PropOp48
 70
     1
102
RTVSPost2010Prop49
280
     0
102
RTVSPost2010PropOp49
 70
     1
102
RTVSPost2010Prop50
 90
       50
102
RTVSPost2010PropOp50
 70
     1
102
RTVSPost2010Prop51ColorIndex
 90
      256
102
RTVSPost2010Prop51ColorRGB
 90
-16777216
102
RTVSPost2010PropOp51
 70
     0
102
RTVSPost2010Prop52
140
1.0
102
RTVSPost2010PropOp52
 70
     0
102
RTVSPost2010Prop53
 90
        2
102
RTVSPost2010PropOp53
 70
     1
102
RTVSPost2010Prop54
  1
strokes_ogs.tif
102
RTVSPost2010PropOp54
 70
     1
102
RTVSPost2010Prop55
280
     0
102
RTVSPost2010PropOp55
 70
     1
102
RTVSPost2010Prop56
140
1.0
102
RTVSPost2010PropOp56
 70
     1
102
RTVSPost2010Prop57
140
1.0
102
RTVSPost2010PropOp57
 70
     1
102
RTVSPropertyOp0
 70
     1
102
RTVSPropertyOp1
 70
     1
102
RTVSPropertyOp2
 70
     1
102
RTVSPropertyOp3
 70
     1
102
RTVSPropertyOp4
 70
     1
102
RTVSPropertyOp5
 70
     1
102
RTVSPropertyOp6
 70
     1
102
RTVSPropertyOp7
 70
     1
102
RTVSPropertyOp8
 70
     1
102
RTVSPropertyOp9
 70
     1
102
RTVSPropertyOp10
 70
     1
102
RTVSPropertyOp11
 70
     1
102
RTVSPropertyOp12
 70
     1
102
RTVSPropertyOp13
 70
     1
102
RTVSPropertyOp14
 70
     1
102
RTVSPropertyOp15
 70
     1
102
RTVSPropertyOp16
 70
     1
102
RTVSPropertyOp17
 70
     1
102
RTVSPropertyOp18
 70
     1
102
RTVSPropertyOp19
 70
     1
102
RTVSPropertyOp20
 70
     1
102
RTVSPropertyOp21
 70
     1
102
RTVSPropertyOp22
 70
     1
102
RTVSPropertyOp23
 70
     1
102
RTVSPropertyOp24
 70
     1
102
RTVSPropertyOp25
 70
     1
102
RTVSPropertyOp26
 70
     1
102
RTVSPropertyOp27
 70
     1
102
RTVSPropertyOp28
 70
     1
102
RTVSPropertyOp29
 70
     1
102
RTVSPropertyOp30
 70
     1
102
RTVSPropertyOp31
 70
     1
102
RTVSPropertyOp32
 70
     1
102
RTVSPropertyOp33
 70
     1
102
RTVSPropertyOp34
 70
     1
102
RTVSPropertyOp35
 70
     1
102
RTVSPropertyOp36
 70
     1
102
RTVSPropertyOp37
 70
     1
102
RTVSPropertyOp38
 70
     1
102
RTVSPropertyOp39
 70
     1
102
RTVSPropertyOp40
 70
     1
102
RTVSPropertyOp41
 70
     1
102
RTVSPropertyOp42
 70
     1
102
RTVSPropertyOp43
 70
     1
102
RTVSPropertyOp44
 70
     1
102
RTVSPropertyOp45
 70
     1
102
RTVSPropertyOp46
 70
     1
102
RTVSPropertyOp47
 70
     1
102
RTVSPropertyOp48
 70
     1
102
RTVSPropertyOp49
 70
     1
102
RTVSPropertyOp50
 70
     1
102
RTVSPropertyOp51
 70
     0
102
RTVSPropertyOp52
 70
     0
102
RTVSPropertyOp53
 70
     1
102
RTVSPropertyOp54
 70
     1
102
RTVSPropertyOp55
 70
     1
102
RTVSPropertyOp56
 70
     1
102
RTVSPropertyOp57
 70
     1
102
RTVSPropertyOp58
 70
     1
102
RTVSPropertyOp59
 70
     1
102
RTVSPropertyOp60
 70
     1
102
RTVSPropertyOp61
 70
     1
102
RTVSPropertyOp62
 70
     1
  0
XRECORD
  5
38E
102
{ACAD_REACTORS
330
38D
102
}
330
38D
100
AcDbXrecord
280
     1
102
RTVSPost2010Prop28
280
     0
102
RTVSPost2010PropOp28
 70
     1
102
RTVSPost2010Prop29
280
     1
102
RTVSPost2010PropOp29
 70
     1
102
RTVSPost2010Prop30
280
     1
102
RTVSPost2010PropOp30
 70
     1
102
RTVSPost2010Prop31
280
     0
102
RTVSPost2010PropOp31
 70
     1
102
RTVSPost2010Prop32
280
     0
102
RTVSPost2010PropOp32
 70
     1
102
RTVSPost2010Prop33
280
     0
102
RTVSPost2010PropOp33
 70
     1
102
RTVSPost2010Prop34
280
     0
102
RTVSPost2010PropOp34
 70
     1
102
RTVSPost2010Prop35
280
     0
102
RTVSPost2010PropOp35
 70
     1
102
RTVSPost2010Prop36
280
     0
102
RTVSPost2010PropOp36
 70
     1
102
RTVSPost2010Prop37
 90
       50
102
RTVSPost2010PropOp37
 70
     1
102
RTVSPost2010Prop38
140
0.0
102
RTVSPost2010PropOp38
 70
     1
102
RTVSPost2010Prop39
140
1.0
102
RTVSPost2010PropOp39
 70
     1
102
RTVSPost2010Prop40
 90
        0
102
RTVSPost2010PropOp40
 70
     1
102
RTVSPost2010Prop41ColorIndex
 90
       18
102
RTVSPost2010Prop41ColorRGB
 90
        0
102
RTVSPost2010PropOp41
 70
     1
102
RTVSPost2010Prop42
 90
       50
102
RTVSPost2010PropOp42
 70
     1
102
RTVSPost2010Prop43
 90
        3
102
RTVSPost2010PropOp43
 70
     1
102
RTVSPost2010Prop44ColorIndex
 90
        5
102
RTVSPost2010Prop44ColorRGB
 90
      255
102
RTVSPost2010PropOp44
 70
     1
102
RTVSPost2010Prop45
280
     0
102
RTVSPost2010PropOp45
 70
     1
102
RTVSPost2010Prop46
 90
       50
102
RTVSPost2010PropOp46
 70
     1
102
RTVSPost2010Prop47
 90
       50
102
RTVSPost2010PropOp47
 70
     1
102
RTVSPost2010Prop48
 90
       50
102
RTVSPost2010PropOp48
 70
     1
102
RTVSPost2010Prop49
280
     0
102
RTVSPost2010PropOp49
 70
     1
102
RTVSPost2010Prop50
 90
       50
102
RTVSPost2010PropOp50
 70
     1
102
RTVSPost2010Prop51ColorIndex
 90
      256
102
RTVSPost2010Prop51ColorRGB
 90
-16777216
102
RTVSPost2010PropOp51
 70
     0
102
RTVSPost2010Prop52
140
1.0
102
RTVSPost2010PropOp52
 70
     0
102
RTVSPost2010Prop53
 90
        2
102
RTVSPost2010PropOp53
 70
     1
102
RTVSPost2010Prop54
  1
strokes_ogs.tif
102
RTVSPost2010PropOp54
 70
     1
102
RTVSPost2010Prop55
280
     0
102
RTVSPost2010PropOp55
 70
     1
102
RTVSPost2010Prop56
140
1.0
102
RTVSPost2010PropOp56
 70
     1
102
RTVSPost2010Prop57
140
1.0
102
RTVSPost2010PropOp57
 70
     1
102
RTVSPropertyOp0
 70
     1
102
RTVSPropertyOp1
 70
     1
102
RTVSPropertyOp2
 70
     1
102
RTVSPropertyOp3
 70
     1
102
RTVSPropertyOp4
 70
     1
102
RTVSPropertyOp5
 70
     1
102
RTVSPropertyOp6
 70
     1
102
RTVSPropertyOp7
 70
     1
102
RTVSPropertyOp8
 70
     1
102
RTVSPropertyOp9
 70
     1
102
RTVSPropertyOp10
 70
     1
102
RTVSPropertyOp11
 70
     1
102
RTVSPropertyOp12
 70
     1
102
RTVSPropertyOp13
 70
     1
102
RTVSPropertyOp14
 70
     1
102
RTVSPropertyOp15
 70
     1
102
RTVSPropertyOp16
 70
     1
102
RTVSPropertyOp17
 70
     1
102
RTVSPropertyOp18
 70
     1
102
RTVSPropertyOp19
 70
     1
102
RTVSPropertyOp20
 70
     1
102
RTVSPropertyOp21
 70
     1
102
RTVSPropertyOp22
 70
     1
102
RTVSPropertyOp23
 70
     1
102
RTVSPropertyOp24
 70
     1
102
RTVSPropertyOp25
 70
     1
102
RTVSPropertyOp26
 70
     1
102
RTVSPropertyOp27
 70
     1
102
RTVSPropertyOp28
 70
     1
102
RTVSPropertyOp29
 70
     1
102
RTVSPropertyOp30
 70
     1
102
RTVSPropertyOp31
 70
     1
102
RTVSPropertyOp32
 70
     1
102
RTVSPropertyOp33
 70
     1
102
RTVSPropertyOp34
 70
     1
102
RTVSPropertyOp35
 70
     1
102
RTVSPropertyOp36
 70
     1
102
RTVSPropertyOp37
 70
     1
102
RTVSPropertyOp38
 70
     1
102
RTVSPropertyOp39
 70
     1
102
RTVSPropertyOp40
 70
     1
102
RTVSPropertyOp41
 70
     1
102
RTVSPropertyOp42
 70
     1
102
RTVSPropertyOp43
 70
     1
102
RTVSPropertyOp44
 70
     1
102
RTVSPropertyOp45
 70
     1
102
RTVSPropertyOp46
 70
     1
102
RTVSPropertyOp47
 70
     1
102
RTVSPropertyOp48
 70
     1
102
RTVSPropertyOp49
 70
     1
102
RTVSPropertyOp50
 70
     1
102
RTVSPropertyOp51
 70
     0
102
RTVSPropertyOp52
 70
     0
102
RTVSPropertyOp53
 70
     1
102
RTVSPropertyOp54
 70
     1
102
RTVSPropertyOp55
 70
     1
102
RTVSPropertyOp56
 70
     1
102
RTVSPropertyOp57
 70
     1
102
RTVSPropertyOp58
 70
     1
102
RTVSPropertyOp59
 70
     1
102
RTVSPropertyOp60
 70
     1
102
RTVSPropertyOp61
 70
     1
102
RTVSPropertyOp62
 70
     1
  0
XRECORD
  5
37E
102
{ACAD_REACTORS
330
37D
102
}
330
37D
100
AcDbXrecord
280
     1
102
RTVSPost2010Prop28
280
     0
102
RTVSPost2010PropOp28
 70
     1
102
RTVSPost2010Prop29
280
     1
102
RTVSPost2010PropOp29
 70
     1
102
RTVSPost2010Prop30
280
     1
102
RTVSPost2010PropOp30
 70
     1
102
RTVSPost2010Prop31
280
     0
102
RTVSPost2010PropOp31
 70
     1
102
RTVSPost2010Prop32
280
     0
102
RTVSPost2010PropOp32
 70
     1
102
RTVSPost2010Prop33
280
     0
102
RTVSPost2010PropOp33
 70
     1
102
RTVSPost2010Prop34
280
     0
102
RTVSPost2010PropOp34
 70
     1
102
RTVSPost2010Prop35
280
     0
102
RTVSPost2010PropOp35
 70
     1
102
RTVSPost2010Prop36
280
     0
102
RTVSPost2010PropOp36
 70
     1
102
RTVSPost2010Prop37
 90
       50
102
RTVSPost2010PropOp37
 70
     1
102
RTVSPost2010Prop38
140
0.0
102
RTVSPost2010PropOp38
 70
     1
102
RTVSPost2010Prop39
140
1.0
102
RTVSPost2010PropOp39
 70
     1
102
RTVSPost2010Prop40
 90
        0
102
RTVSPost2010PropOp40
 70
     1
102
RTVSPost2010Prop41ColorIndex
 90
       18
102
RTVSPost2010Prop41ColorRGB
 90
        0
102
RTVSPost2010PropOp41
 70
     1
102
RTVSPost2010Prop42
 90
       50
102
RTVSPost2010PropOp42
 70
     1
102
RTVSPost2010Prop43
 90
        3
102
RTVSPost2010PropOp43
 70
     1
102
RTVSPost2010Prop44ColorIndex
 90
        5
102
RTVSPost2010Prop44ColorRGB
 90
      255
102
RTVSPost2010PropOp44
 70
     1
102
RTVSPost2010Prop45
280
     0
102
RTVSPost2010PropOp45
 70
     1
102
RTVSPost2010Prop46
 90
       50
102
RTVSPost2010PropOp46
 70
     1
102
RTVSPost2010Prop47
 90
       50
102
RTVSPost2010PropOp47
 70
     1
102
RTVSPost2010Prop48
 90
       50
102
RTVSPost2010PropOp48
 70
     1
102
RTVSPost2010Prop49
280
     0
102
RTVSPost2010PropOp49
 70
     1
102
RTVSPost2010Prop50
 90
       50
102
RTVSPost2010PropOp50
 70
     1
102
RTVSPost2010Prop51ColorIndex
 90
      256
102
RTVSPost2010Prop51ColorRGB
 90
-16777216
102
RTVSPost2010PropOp51
 70
     0
102
RTVSPost2010Prop52
140
1.0
102
RTVSPost2010PropOp52
 70
     0
102
RTVSPost2010Prop53
 90
        2
102
RTVSPost2010PropOp53
 70
     1
102
RTVSPost2010Prop54
  1
strokes_ogs.tif
102
RTVSPost2010PropOp54
 70
     1
102
RTVSPost2010Prop55
280
     0
102
RTVSPost2010PropOp55
 70
     1
102
RTVSPost2010Prop56
140
1.0
102
RTVSPost2010PropOp56
 70
     1
102
RTVSPost2010Prop57
140
1.0
102
RTVSPost2010PropOp57
 70
     1
102
RTVSPropertyOp0
 70
     1
102
RTVSPropertyOp1
 70
     1
102
RTVSPropertyOp2
 70
     1
102
RTVSPropertyOp3
 70
     1
102
RTVSPropertyOp4
 70
     1
102
RTVSPropertyOp5
 70
     1
102
RTVSPropertyOp6
 70
     1
102
RTVSPropertyOp7
 70
     1
102
RTVSPropertyOp8
 70
     1
102
RTVSPropertyOp9
 70
     1
102
RTVSPropertyOp10
 70
     1
102
RTVSPropertyOp11
 70
     1
102
RTVSPropertyOp12
 70
     1
102
RTVSPropertyOp13
 70
     1
102
RTVSPropertyOp14
 70
     1
102
RTVSPropertyOp15
 70
     1
102
RTVSPropertyOp16
 70
     1
102
RTVSPropertyOp17
 70
     1
102
RTVSPropertyOp18
 70
     1
102
RTVSPropertyOp19
 70
     1
102
RTVSPropertyOp20
 70
     1
102
RTVSPropertyOp21
 70
     1
102
RTVSPropertyOp22
 70
     1
102
RTVSPropertyOp23
 70
     1
102
RTVSPropertyOp24
 70
     1
102
RTVSPropertyOp25
 70
     1
102
RTVSPropertyOp26
 70
     1
102
RTVSPropertyOp27
 70
     1
102
RTVSPropertyOp28
 70
     1
102
RTVSPropertyOp29
 70
     1
102
RTVSPropertyOp30
 70
     1
102
RTVSPropertyOp31
 70
     1
102
RTVSPropertyOp32
 70
     1
102
RTVSPropertyOp33
 70
     1
102
RTVSPropertyOp34
 70
     1
102
RTVSPropertyOp35
 70
     1
102
RTVSPropertyOp36
 70
     1
102
RTVSPropertyOp37
 70
     1
102
RTVSPropertyOp38
 70
     1
102
RTVSPropertyOp39
 70
     1
102
RTVSPropertyOp40
 70
     1
102
RTVSPropertyOp41
 70
     1
102
RTVSPropertyOp42
 70
     1
102
RTVSPropertyOp43
 70
     1
102
RTVSPropertyOp44
 70
     1
102
RTVSPropertyOp45
 70
     1
102
RTVSPropertyOp46
 70
     1
102
RTVSPropertyOp47
 70
     1
102
RTVSPropertyOp48
 70
     1
102
RTVSPropertyOp49
 70
     1
102
RTVSPropertyOp50
 70
     1
102
RTVSPropertyOp51
 70
     0
102
RTVSPropertyOp52
 70
     0
102
RTVSPropertyOp53
 70
     1
102
RTVSPropertyOp54
 70
     1
102
RTVSPropertyOp55
 70
     1
102
RTVSPropertyOp56
 70
     1
102
RTVSPropertyOp57
 70
     1
102
RTVSPropertyOp58
 70
     1
102
RTVSPropertyOp59
 70
     1
102
RTVSPropertyOp60
 70
     1
102
RTVSPropertyOp61
 70
     1
102
RTVSPropertyOp62
 70
     1
  0
XRECORD
  5
370
102
{ACAD_REACTORS
330
36F
102
}
330
36F
100
AcDbXrecord
280
     1
102
RTVSPost2010Prop28
280
     0
102
RTVSPost2010PropOp28
 70
     1
102
RTVSPost2010Prop29
280
     1
102
RTVSPost2010PropOp29
 70
     1
102
RTVSPost2010Prop30
280
     1
102
RTVSPost2010PropOp30
 70
     1
102
RTVSPost2010Prop31
280
     0
102
RTVSPost2010PropOp31
 70
     1
102
RTVSPost2010Prop32
280
     0
102
RTVSPost2010PropOp32
 70
     1
102
RTVSPost2010Prop33
280
     0
102
RTVSPost2010PropOp33
 70
     1
102
RTVSPost2010Prop34
280
     0
102
RTVSPost2010PropOp34
 70
     1
102
RTVSPost2010Prop35
280
     0
102
RTVSPost2010PropOp35
 70
     1
102
RTVSPost2010Prop36
280
     0
102
RTVSPost2010PropOp36
 70
     1
102
RTVSPost2010Prop37
 90
       50
102
RTVSPost2010PropOp37
 70
     1
102
RTVSPost2010Prop38
140
0.0
102
RTVSPost2010PropOp38
 70
     1
102
RTVSPost2010Prop39
140
1.0
102
RTVSPost2010PropOp39
 70
     1
102
RTVSPost2010Prop40
 90
        0
102
RTVSPost2010PropOp40
 70
     1
102
RTVSPost2010Prop41ColorIndex
 90
       18
102
RTVSPost2010Prop41ColorRGB
 90
        0
102
RTVSPost2010PropOp41
 70
     1
102
RTVSPost2010Prop42
 90
       50
102
RTVSPost2010PropOp42
 70
     1
102
RTVSPost2010Prop43
 90
        3
102
RTVSPost2010PropOp43
 70
     1
102
RTVSPost2010Prop44ColorIndex
 90
        5
102
RTVSPost2010Prop44ColorRGB
 90
      255
102
RTVSPost2010PropOp44
 70
     1
102
RTVSPost2010Prop45
280
     0
102
RTVSPost2010PropOp45
 70
     1
102
RTVSPost2010Prop46
 90
       50
102
RTVSPost2010PropOp46
 70
     1
102
RTVSPost2010Prop47
 90
       50
102
RTVSPost2010PropOp47
 70
     1
102
RTVSPost2010Prop48
 90
       50
102
RTVSPost2010PropOp48
 70
     1
102
RTVSPost2010Prop49
280
     0
102
RTVSPost2010PropOp49
 70
     1
102
RTVSPost2010Prop50
 90
       50
102
RTVSPost2010PropOp50
 70
     1
102
RTVSPost2010Prop51ColorIndex
 90
      256
102
RTVSPost2010Prop51ColorRGB
 90
-16777216
102
RTVSPost2010PropOp51
 70
     0
102
RTVSPost2010Prop52
140
1.0
102
RTVSPost2010PropOp52
 70
     0
102
RTVSPost2010Prop53
 90
        2
102
RTVSPost2010PropOp53
 70
     1
102
RTVSPost2010Prop54
  1
strokes_ogs.tif
102
RTVSPost2010PropOp54
 70
     1
102
RTVSPost2010Prop55
280
     0
102
RTVSPost2010PropOp55
 70
     1
102
RTVSPost2010Prop56
140
1.0
102
RTVSPost2010PropOp56
 70
     1
102
RTVSPost2010Prop57
140
1.0
102
RTVSPost2010PropOp57
 70
     1
102
RTVSPropertyOp0
 70
     1
102
RTVSPropertyOp1
 70
     1
102
RTVSPropertyOp2
 70
     1
102
RTVSPropertyOp3
 70
     1
102
RTVSPropertyOp4
 70
     1
102
RTVSPropertyOp5
 70
     1
102
RTVSPropertyOp6
 70
     1
102
RTVSPropertyOp7
 70
     1
102
RTVSPropertyOp8
 70
     1
102
RTVSPropertyOp9
 70
     1
102
RTVSPropertyOp10
 70
     1
102
RTVSPropertyOp11
 70
     1
102
RTVSPropertyOp12
 70
     1
102
RTVSPropertyOp13
 70
     1
102
RTVSPropertyOp14
 70
     1
102
RTVSPropertyOp15
 70
     1
102
RTVSPropertyOp16
 70
     1
102
RTVSPropertyOp17
 70
     1
102
RTVSPropertyOp18
 70
     1
102
RTVSPropertyOp19
 70
     1
102
RTVSPropertyOp20
 70
     1
102
RTVSPropertyOp21
 70
     1
102
RTVSPropertyOp22
 70
     1
102
RTVSPropertyOp23
 70
     1
102
RTVSPropertyOp24
 70
     1
102
RTVSPropertyOp25
 70
     1
102
RTVSPropertyOp26
 70
     1
102
RTVSPropertyOp27
 70
     1
102
RTVSPropertyOp28
 70
     1
102
RTVSPropertyOp29
 70
     1
102
RTVSPropertyOp30
 70
     1
102
RTVSPropertyOp31
 70
     1
102
RTVSPropertyOp32
 70
     1
102
RTVSPropertyOp33
 70
     1
102
RTVSPropertyOp34
 70
     1
102
RTVSPropertyOp35
 70
     1
102
RTVSPropertyOp36
 70
     1
102
RTVSPropertyOp37
 70
     1
102
RTVSPropertyOp38
 70
     1
102
RTVSPropertyOp39
 70
     1
102
RTVSPropertyOp40
 70
     1
102
RTVSPropertyOp41
 70
     1
102
RTVSPropertyOp42
 70
     1
102
RTVSPropertyOp43
 70
     1
102
RTVSPropertyOp44
 70
     1
102
RTVSPropertyOp45
 70
     1
102
RTVSPropertyOp46
 70
     1
102
RTVSPropertyOp47
 70
     1
102
RTVSPropertyOp48
 70
     1
102
RTVSPropertyOp49
 70
     1
102
RTVSPropertyOp50
 70
     1
102
RTVSPropertyOp51
 70
     0
102
RTVSPropertyOp52
 70
     0
102
RTVSPropertyOp53
 70
     1
102
RTVSPropertyOp54
 70
     1
102
RTVSPropertyOp55
 70
     1
102
RTVSPropertyOp56
 70
     1
102
RTVSPropertyOp57
 70
     1
102
RTVSPropertyOp58
 70
     1
102
RTVSPropertyOp59
 70
     1
102
RTVSPropertyOp60
 70
     1
102
RTVSPropertyOp61
 70
     1
102
RTVSPropertyOp62
 70
     1
  0
XRECORD
  5
390
102
{ACAD_REACTORS
330
38F
102
}
330
38F
100
AcDbXrecord
280
     1
102
RTVSPost2010Prop28
280
     0
102
RTVSPost2010PropOp28
 70
     1
102
RTVSPost2010Prop29
280
     1
102
RTVSPost2010PropOp29
 70
     1
102
RTVSPost2010Prop30
280
     1
102
RTVSPost2010PropOp30
 70
     1
102
RTVSPost2010Prop31
280
     0
102
RTVSPost2010PropOp31
 70
     1
102
RTVSPost2010Prop32
280
     0
102
RTVSPost2010PropOp32
 70
     1
102
RTVSPost2010Prop33
280
     0
102
RTVSPost2010PropOp33
 70
     1
102
RTVSPost2010Prop34
280
     0
102
RTVSPost2010PropOp34
 70
     1
102
RTVSPost2010Prop35
280
     0
102
RTVSPost2010PropOp35
 70
     1
102
RTVSPost2010Prop36
280
     0
102
RTVSPost2010PropOp36
 70
     1
102
RTVSPost2010Prop37
 90
       50
102
RTVSPost2010PropOp37
 70
     1
102
RTVSPost2010Prop38
140
0.0
102
RTVSPost2010PropOp38
 70
     1
102
RTVSPost2010Prop39
140
1.0
102
RTVSPost2010PropOp39
 70
     1
102
RTVSPost2010Prop40
 90
        0
102
RTVSPost2010PropOp40
 70
     1
102
RTVSPost2010Prop41ColorIndex
 90
       18
102
RTVSPost2010Prop41ColorRGB
 90
        0
102
RTVSPost2010PropOp41
 70
     1
102
RTVSPost2010Prop42
 90
       50
102
RTVSPost2010PropOp42
 70
     1
102
RTVSPost2010Prop43
 90
        3
102
RTVSPost2010PropOp43
 70
     1
102
RTVSPost2010Prop44ColorIndex
 90
        5
102
RTVSPost2010Prop44ColorRGB
 90
      255
102
RTVSPost2010PropOp44
 70
     1
102
RTVSPost2010Prop45
280
     0
102
RTVSPost2010PropOp45
 70
     1
102
RTVSPost2010Prop46
 90
       50
102
RTVSPost2010PropOp46
 70
     1
102
RTVSPost2010Prop47
 90
       50
102
RTVSPost2010PropOp47
 70
     1
102
RTVSPost2010Prop48
 90
       50
102
RTVSPost2010PropOp48
 70
     1
102
RTVSPost2010Prop49
280
     0
102
RTVSPost2010PropOp49
 70
     1
102
RTVSPost2010Prop50
 90
       50
102
RTVSPost2010PropOp50
 70
     1
102
RTVSPost2010Prop51ColorIndex
 90
      256
102
RTVSPost2010Prop51ColorRGB
 90
-16777216
102
RTVSPost2010PropOp51
 70
     0
102
RTVSPost2010Prop52
140
1.0
102
RTVSPost2010PropOp52
 70
     0
102
RTVSPost2010Prop53
 90
        2
102
RTVSPost2010PropOp53
 70
     1
102
RTVSPost2010Prop54
  1
strokes_ogs.tif
102
RTVSPost2010PropOp54
 70
     1
102
RTVSPost2010Prop55
280
     0
102
RTVSPost2010PropOp55
 70
     1
102
RTVSPost2010Prop56
140
1.0
102
RTVSPost2010PropOp56
 70
     1
102
RTVSPost2010Prop57
140
1.0
102
RTVSPost2010PropOp57
 70
     1
102
RTVSPropertyOp0
 70
     1
102
RTVSPropertyOp1
 70
     1
102
RTVSPropertyOp2
 70
     1
102
RTVSPropertyOp3
 70
     1
102
RTVSPropertyOp4
 70
     1
102
RTVSPropertyOp5
 70
     1
102
RTVSPropertyOp6
 70
     1
102
RTVSPropertyOp7
 70
     1
102
RTVSPropertyOp8
 70
     1
102
RTVSPropertyOp9
 70
     1
102
RTVSPropertyOp10
 70
     1
102
RTVSPropertyOp11
 70
     1
102
RTVSPropertyOp12
 70
     1
102
RTVSPropertyOp13
 70
     1
102
RTVSPropertyOp14
 70
     1
102
RTVSPropertyOp15
 70
     1
102
RTVSPropertyOp16
 70
     1
102
RTVSPropertyOp17
 70
     1
102
RTVSPropertyOp18
 70
     1
102
RTVSPropertyOp19
 70
     1
102
RTVSPropertyOp20
 70
     1
102
RTVSPropertyOp21
 70
     1
102
RTVSPropertyOp22
 70
     1
102
RTVSPropertyOp23
 70
     1
102
RTVSPropertyOp24
 70
     1
102
RTVSPropertyOp25
 70
     1
102
RTVSPropertyOp26
 70
     1
102
RTVSPropertyOp27
 70
     1
102
RTVSPropertyOp28
 70
     1
102
RTVSPropertyOp29
 70
     1
102
RTVSPropertyOp30
 70
     1
102
RTVSPropertyOp31
 70
     1
102
RTVSPropertyOp32
 70
     1
102
RTVSPropertyOp33
 70
     1
102
RTVSPropertyOp34
 70
     1
102
RTVSPropertyOp35
 70
     1
102
RTVSPropertyOp36
 70
     1
102
RTVSPropertyOp37
 70
     1
102
RTVSPropertyOp38
 70
     1
102
RTVSPropertyOp39
 70
     1
102
RTVSPropertyOp40
 70
     1
102
RTVSPropertyOp41
 70
     1
102
RTVSPropertyOp42
 70
     1
102
RTVSPropertyOp43
 70
     1
102
RTVSPropertyOp44
 70
     1
102
RTVSPropertyOp45
 70
     1
102
RTVSPropertyOp46
 70
     1
102
RTVSPropertyOp47
 70
     1
102
RTVSPropertyOp48
 70
     1
102
RTVSPropertyOp49
 70
     1
102
RTVSPropertyOp50
 70
     1
102
RTVSPropertyOp51
 70
     0
102
RTVSPropertyOp52
 70
     0
102
RTVSPropertyOp53
 70
     1
102
RTVSPropertyOp54
 70
     1
102
RTVSPropertyOp55
 70
     1
102
RTVSPropertyOp56
 70
     1
102
RTVSPropertyOp57
 70
     1
102
RTVSPropertyOp58
 70
     1
102
RTVSPropertyOp59
 70
     1
102
RTVSPropertyOp60
 70
     1
102
RTVSPropertyOp61
 70
     1
102
RTVSPropertyOp62
 70
     1
  0
ENDSEC
  0
EOF
