  0
SECTION
  2
HEADER
  9
$ACADVER
  1
AC1018
  9
$ACADMAINTVER
 70
   104
  9
$DWGCODEPAGE
  3
ANSI_1250
  9
$LASTSAVEDBY
  1
wq7085
  9
$INSBASE
 10
0.0
 20
0.0
 30
0.0
  9
$EXTMIN
 10
186.4339033333333
 20
122.034924
 30
0.0
  9
$EXTMAX
 10
360.655032
 20
345.2288016666667
 30
0.0
  9
$LIMMIN
 10
-0.5
 20
-0.5
  9
$LIMMAX
 10
5.0
 20
5.0
  9
$ORTHOMODE
 70
     0
  9
$REGENMODE
 70
     1
  9
$FILLMODE
 70
     1
  9
$QTEXTMODE
 70
     0
  9
$MIRRTEXT
 70
     1
  9
$LTSCALE
 40
1.0
  9
$ATTMODE
 70
     1
  9
$TEXTSIZE
 40
0.2
  9
$TRACEWID
 40
0.05
  9
$TEXTSTYLE
  7
Standard
  9
$CLAYER
  8
0
  9
$CELTYPE
  6
ByLayer
  9
$CECOLOR
 62
   256
  9
$CELTSCALE
 40
1.0
  9
$DISPSILH
 70
     0
  9
$DIMSCALE
 40
1.0
  9
$DIMASZ
 40
0.18
  9
$DIMEXO
 40
0.0625
  9
$DIMDLI
 40
0.38
  9
$DIMRND
 40
0.0
  9
$DIMDLE
 40
0.0
  9
$DIMEXE
 40
0.18
  9
$DIMTP
 40
0.0
  9
$DIMTM
 40
0.0
  9
$DIMTXT
 40
0.18
  9
$DIMCEN
 40
0.09
  9
$DIMTSZ
 40
0.0
  9
$DIMTOL
 70
     0
  9
$DIMLIM
 70
     0
  9
$DIMTIH
 70
     1
  9
$DIMTOH
 70
     1
  9
$DIMSE1
 70
     0
  9
$DIMSE2
 70
     0
  9
$DIMTAD
 70
     0
  9
$DIMZIN
 70
     0
  9
$DIMBLK
  1

  9
$DIMASO
 70
     1
  9
$DIMSHO
 70
     1
  9
$DIMPOST
  1

  9
$DIMAPOST
  1

  9
$DIMALT
 70
     0
  9
$DIMALTD
 70
     2
  9
$DIMALTF
 40
25.4
  9
$DIMLFAC
 40
1.0
  9
$DIMTOFL
 70
     0
  9
$DIMTVP
 40
0.0
  9
$DIMTIX
 70
     0
  9
$DIMSOXD
 70
     0
  9
$DIMSAH
 70
     0
  9
$DIMBLK1
  1

  9
$DIMBLK2
  1

  9
$DIMSTYLE
  2
Standard
  9
$DIMCLRD
 70
     0
  9
$DIMCLRE
 70
     0
  9
$DIMCLRT
 70
     0
  9
$DIMTFAC
 40
1.0
  9
$DIMGAP
 40
0.09
  9
$DIMJUST
 70
     0
  9
$DIMSD1
 70
     0
  9
$DIMSD2
 70
     0
  9
$DIMTOLJ
 70
     1
  9
$DIMTZIN
 70
     0
  9
$DIMALTZ
 70
     0
  9
$DIMALTTZ
 70
     0
  9
$DIMUPT
 70
     0
  9
$DIMDEC
 70
     4
  9
$DIMTDEC
 70
     4
  9
$DIMALTU
 70
     2
  9
$DIMALTTD
 70
     2
  9
$DIMTXSTY
  7
Standard
  9
$DIMAUNIT
 70
     0
  9
$DIMADEC
 70
     0
  9
$DIMALTRND
 40
0.0
  9
$DIMAZIN
 70
     0
  9
$DIMDSEP
 70
    46
  9
$DIMATFIT
 70
     3
  9
$DIMFRAC
 70
     0
  9
$DIMLDRBLK
  1

  9
$DIMLUNIT
 70
     2
  9
$DIMLWD
 70
    -2
  9
$DIMLWE
 70
    -2
  9
$DIMTMOVE
 70
     0
  9
$LUNITS
 70
     2
  9
$LUPREC
 70
     4
  9
$SKETCHINC
 40
0.1
  9
$FILLETRAD
 40
0.5
  9
$AUNITS
 70
     0
  9
$AUPREC
 70
     0
  9
$MENU
  1
.
  9
$ELEVATION
 40
0.0
  9
$PELEVATION
 40
0.0
  9
$THICKNESS
 40
0.0
  9
$LIMCHECK
 70
     0
  9
$CHAMFERA
 40
0.0
  9
$CHAMFERB
 40
0.0
  9
$CHAMFERC
 40
0.0
  9
$CHAMFERD
 40
0.0
  9
$SKPOLY
 70
     0
  9
$TDCREATE
 40
2458949.565601852
  9
$TDUCREATE
 40
2458949.482272894
  9
$TDUPDATE
 40
2458949.567743056
  9
$TDUUPDATE
 40
2458949.484409722
  9
$TDINDWG
 40
0.0015277894
  9
$TDUSRTIMER
 40
0.0015277894
  9
$USRTIMER
 70
     1
  9
$ANGBASE
 50
0.0
  9
$ANGDIR
 70
     0
  9
$PDMODE
 70
     0
  9
$PDSIZE
 40
0.0
  9
$PLINEWID
 40
0.0
  9
$SPLFRAME
 70
     0
  9
$SPLINETYPE
 70
     6
  9
$SPLINESEGS
 70
     8
  9
$HANDSEED
  5
398
  9
$SURFTAB1
 70
     6
  9
$SURFTAB2
 70
     6
  9
$SURFTYPE
 70
     6
  9
$SURFU
 70
     6
  9
$SURFV
 70
     6
  9
$UCSBASE
  2

  9
$UCSNAME
  2

  9
$UCSORG
 10
274.404842
 20
288.907994
 30
0.0
  9
$UCSXDIR
 10
1.0
 20
0.0
 30
0.0
  9
$UCSYDIR
 10
0.0
 20
1.0
 30
0.0
  9
$UCSORTHOREF
  2

  9
$UCSORTHOVIEW
 70
     0
  9
$UCSORGTOP
 10
0.0
 20
0.0
 30
0.0
  9
$UCSORGBOTTOM
 10
0.0
 20
0.0
 30
0.0
  9
$UCSORGLEFT
 10
0.0
 20
0.0
 30
0.0
  9
$UCSORGRIGHT
 10
0.0
 20
0.0
 30
0.0
  9
$UCSORGFRONT
 10
0.0
 20
0.0
 30
0.0
  9
$UCSORGBACK
 10
0.0
 20
0.0
 30
0.0
  9
$PUCSBASE
  2

  9
$PUCSNAME
  2

  9
$PUCSORG
 10
0.0
 20
0.0
 30
0.0
  9
$PUCSXDIR
 10
1.0
 20
0.0
 30
0.0
  9
$PUCSYDIR
 10
0.0
 20
1.0
 30
0.0
  9
$PUCSORTHOREF
  2

  9
$PUCSORTHOVIEW
 70
     0
  9
$PUCSORGTOP
 10
0.0
 20
0.0
 30
0.0
  9
$PUCSORGBOTTOM
 10
0.0
 20
0.0
 30
0.0
  9
$PUCSORGLEFT
 10
0.0
 20
0.0
 30
0.0
  9
$PUCSORGRIGHT
 10
0.0
 20
0.0
 30
0.0
  9
$PUCSORGFRONT
 10
0.0
 20
0.0
 30
0.0
  9
$PUCSORGBACK
 10
0.0
 20
0.0
 30
0.0
  9
$USERI1
 70
     0
  9
$USERI2
 70
     0
  9
$USERI3
 70
     0
  9
$USERI4
 70
     0
  9
$USERI5
 70
     0
  9
$USERR1
 40
0.0
  9
$USERR2
 40
0.0
  9
$USERR3
 40
0.0
  9
$USERR4
 40
0.0
  9
$USERR5
 40
0.0
  9
$WORLDVIEW
 70
     1
  9
$SHADEDGE
 70
     3
  9
$SHADEDIF
 70
    70
  9
$TILEMODE
 70
     1
  9
$MAXACTVP
 70
    64
  9
$PINSBASE
 10
0.0
 20
0.0
 30
0.0
  9
$PLIMCHECK
 70
     0
  9
$PEXTMIN
 10
-0.5
 20
-0.5
 30
-0.5
  9
$PEXTMAX
 10
5.0
 20
5.0
 30
5.0
  9
$PLIMMIN
 10
-0.5
 20
-0.5
  9
$PLIMMAX
 10
5.0
 20
5.0
  9
$UNITMODE
 70
     0
  9
$VISRETAIN
 70
     1
  9
$PLINEGEN
 70
     0
  9
$PSLTSCALE
 70
     1
  9
$TREEDEPTH
 70
  3020
  9
$CMLSTYLE
  2
Standard
  9
$CMLJUST
 70
     0
  9
$CMLSCALE
 40
1.0
  9
$PROXYGRAPHICS
 70
     1
  9
$MEASUREMENT
 70
     1
  9
$CELWEIGHT
370
    13
  9
$ENDCAPS
280
     0
  9
$JOINSTYLE
280
     0
  9
$LWDISPLAY
290
     0
  9
$INSUNITS
 70
     4
  9
$HYPERLINKBASE
  1

  9
$STYLESHEET
  1

  9
$XEDIT
290
     1
  9
$CEPSNTYPE
380
     0
  9
$PSTYLEMODE
290
     1
  9
$FINGERPRINTGUID
  2
{084679F8-4176-4D25-8007-D158CE1DA4F8}
  9
$VERSIONGUID
  2
{2883A351-20F1-FE48-B6AA-3EC0778EA3FB}
  9
$EXTNAMES
290
     1
  9
$PSVPSCALE
 40
0.0
  9
$OLESTARTUP
290
     0
  9
$SORTENTS
280
   127
  9
$INDEXCTL
280
     0
  9
$HIDETEXT
280
     1
  9
$XCLIPFRAME
290
     0
  9
$HALOGAP
280
     0
  9
$OBSCOLOR
 70
   257
  9
$OBSLTYPE
280
     0
  9
$INTERSECTIONDISPLAY
280
     0
  9
$INTERSECTIONCOLOR
 70
   257
  9
$DIMASSOC
280
     2
  9
$PROJECTNAME
  1

  0
ENDSEC
  0
SECTION
  2
CLASSES
  0
CLASS
  1
ACDBDICTIONARYWDFLT
  2
AcDbDictionaryWithDefault
  3
ObjectDBX Classes
 90
        0
 91
        1
280
     0
281
     0
  0
CLASS
  1
VISUALSTYLE
  2
AcDbVisualStyle
  3
ObjectDBX Classes
 90
     4095
 91
       24
280
     0
281
     0
  0
CLASS
  1
MATERIAL
  2
AcDbMaterial
  3
ObjectDBX Classes
 90
     1153
 91
        3
280
     0
281
     0
  0
CLASS
  1
SCALE
  2
AcDbScale
  3
ObjectDBX Classes
 90
     1153
 91
       33
280
     0
281
     0
  0
CLASS
  1
TABLESTYLE
  2
AcDbTableStyle
  3
ObjectDBX Classes
 90
     4095
 91
        1
280
     0
281
     0
  0
CLASS
  1
MLEADERSTYLE
  2
AcDbMLeaderStyle
  3
ACDB_MLEADERSTYLE_CLASS
 90
     4095
 91
        1
280
     0
281
     0
  0
CLASS
  1
SUN
  2
AcDbSun
  3
SCENEOE
 90
     1153
 91
        0
280
     0
281
     0
  0
CLASS
  1
DIMASSOC
  2
AcDbDimAssoc
  3
"AcDbDimAssoc|Product Desc:     AcDim ARX App For Dimension|Company:          Autodesk, Inc.|WEB Address:      www.autodesk.com"
 90
        0
 91
        7
280
     0
281
     0
  0
CLASS
  1
DICTIONARYVAR
  2
AcDbDictionaryVar
  3
ObjectDBX Classes
 90
        0
 91
        8
280
     0
281
     0
  0
CLASS
  1
CELLSTYLEMAP
  2
AcDbCellStyleMap
  3
ObjectDBX Classes
 90
     1152
 91
        2
280
     0
281
     0
  0
CLASS
  1
ACDBSECTIONVIEWSTYLE
  2
AcDbSectionViewStyle
  3
ObjectDBX Classes
 90
     1025
 91
        1
280
     0
281
     0
  0
CLASS
  1
ACDBDETAILVIEWSTYLE
  2
AcDbDetailViewStyle
  3
ObjectDBX Classes
 90
     1025
 91
        1
280
     0
281
     0
  0
CLASS
  1
SORTENTSTABLE
  2
AcDbSortentsTable
  3
ObjectDBX Classes
 90
        0
 91
        1
280
     0
281
     0
  0
ENDSEC
  0
SECTION
  2
TABLES
  0
TABLE
  2
VPORT
  5
8
330
0
100
AcDbSymbolTable
 70
    16
  0
VPORT
  5
29
330
8
100
AcDbSymbolTableRecord
100
AcDbViewportTableRecord
  2
*Active
 70
     0
 10
0.0
 20
0.0
 11
1.0
 21
1.0
 12
279.9083049919403
 22
290.9141986115415
 13
0.0
 23
0.0
 14
0.5
 24
0.5
 15
0.5
 25
0.5
 16
0.0
 26
0.0
 36
1.0
 17
0.0
 27
0.0
 37
0.0
 40
130.5917964734572
 41
2.283154121863799
 42
50.0
 43
359.847148
 44
-359.847148
 50
0.0
 51
0.0
 71
     0
 72
   100
 73
     1
 74
     3
 75
     0
 76
     0
 77
     0
 78
     0
281
     0
 65
     1
110
274.404842
120
288.907994
130
0.0
111
1.0
121
0.0
131
0.0
112
0.0
122
1.0
132
0.0
 79
     0
146
0.0
1001
ACAD_NAV_VCDISPLAY
1070
     3
  0
VPORT
  5
29C
330
8
100
AcDbSymbolTableRecord
100
AcDbViewportTableRecord
  2
L1
 70
     0
 10
0.0
 20
0.0
 11
1.0
 21
1.0
 12
273.04026
 22
233.522403
 13
0.0
 23
0.0
 14
0.5
 24
0.5
 15
0.5
 25
0.5
 16
0.0
 26
0.0
 36
1.0
 17
0.0
 27
0.0
 37
0.0
 40
207.433333
 41
0.085602
 42
50.0
 43
359.847148
 44
-359.847148
 50
0.0
 51
0.0
 71
     0
 72
   100
 73
     1
 74
     3
 75
     0
 76
     0
 77
     0
 78
     0
281
     0
 65
     1
110
0.0
120
0.0
130
0.0
111
1.0
121
0.0
131
0.0
112
0.0
122
1.0
132
0.0
 79
     0
146
0.0
  0
VPORT
  5
29D
330
8
100
AcDbSymbolTableRecord
100
AcDbViewportTableRecord
  2
L2
 70
     0
 10
0.0
 20
0.0
 11
0.5
 21
1.0
 12
0.0
 22
0.0
 13
0.0
 23
0.0
 14
0.5
 24
0.5
 15
0.5
 25
0.5
 16
0.0
 26
-1.0
 36
0.0
 17
0.0
 27
0.0
 37
0.0
 40
1319.143726
 41
0.013461
 42
50.0
 43
679.601336
 44
-679.601336
 50
0.0
 51
0.0
 71
     0
 72
   100
 73
     1
 74
     3
 75
     0
 76
     0
 77
     0
 78
     0
281
     0
 65
     1
110
0.0
120
0.0
130
0.0
111
1.0
121
0.0
131
0.0
112
0.0
122
1.0
132
0.0
 79
     0
146
0.0
  0
VPORT
  5
29E
330
8
100
AcDbSymbolTableRecord
100
AcDbViewportTableRecord
  2
L2
 70
     0
 10
0.5
 20
0.0
 11
1.0
 21
1.0
 12
0.0
 22
0.0
 13
0.0
 23
0.0
 14
0.5
 24
0.5
 15
0.5
 25
0.5
 16
1.0
 26
0.0
 36
0.0
 17
0.0
 27
0.0
 37
0.0
 40
1319.143726
 41
0.013461
 42
50.0
 43
667.6767099999999
 44
-667.6767099999999
 50
0.0
 51
0.0
 71
     0
 72
   100
 73
     1
 74
     3
 75
     0
 76
     0
 77
     0
 78
     0
281
     0
 65
     1
110
0.0
120
0.0
130
0.0
111
1.0
121
0.0
131
0.0
112
0.0
122
1.0
132
0.0
 79
     0
146
0.0
  0
VPORT
  5
29F
330
8
100
AcDbSymbolTableRecord
100
AcDbViewportTableRecord
  2
L3
 70
     0
 10
0.0
 20
0.5
 11
1.0
 21
1.0
 12
273.04026
 22
233.522403
 13
0.0
 23
0.0
 14
0.5
 24
0.5
 15
0.5
 25
0.5
 16
0.0
 26
0.0
 36
1.0
 17
0.0
 27
0.0
 37
0.0
 40
207.433333
 41
0.085602
 42
50.0
 43
359.847148
 44
-359.847148
 50
0.0
 51
0.0
 71
     0
 72
   100
 73
     1
 74
     3
 75
     0
 76
     0
 77
     0
 78
     0
281
     0
 65
     1
110
0.0
120
0.0
130
0.0
111
1.0
121
0.0
131
0.0
112
0.0
122
1.0
132
0.0
 79
     0
146
0.0
  0
VPORT
  5
2A0
330
8
100
AcDbSymbolTableRecord
100
AcDbViewportTableRecord
  2
L3
 70
     0
 10
0.0
 20
0.0
 11
1.0
 21
0.5
 12
0.0
 22
0.0
 13
0.0
 23
0.0
 14
0.5
 24
0.5
 15
0.5
 25
0.5
 16
0.0
 26
-1.0
 36
0.0
 17
0.0
 27
0.0
 37
0.0
 40
1319.143726
 41
0.013461
 42
50.0
 43
679.601336
 44
-679.601336
 50
0.0
 51
0.0
 71
     0
 72
   100
 73
     1
 74
     3
 75
     0
 76
     0
 77
     0
 78
     0
281
     0
 65
     1
110
0.0
120
0.0
130
0.0
111
1.0
121
0.0
131
0.0
112
0.0
122
1.0
132
0.0
 79
     0
146
0.0
  0
VPORT
  5
2A1
330
8
100
AcDbSymbolTableRecord
100
AcDbViewportTableRecord
  2
L4
 70
     0
 10
0.0
 20
0.5
 11
0.5
 21
1.0
 12
273.04026
 22
233.522403
 13
0.0
 23
0.0
 14
0.5
 24
0.5
 15
0.5
 25
0.5
 16
0.0
 26
0.0
 36
1.0
 17
0.0
 27
0.0
 37
0.0
 40
207.433333
 41
0.085602
 42
50.0
 43
359.847148
 44
-359.847148
 50
0.0
 51
0.0
 71
     0
 72
   100
 73
     1
 74
     3
 75
     0
 76
     0
 77
     0
 78
     0
281
     0
 65
     1
110
0.0
120
0.0
130
0.0
111
1.0
121
0.0
131
0.0
112
0.0
122
1.0
132
0.0
 79
     0
146
0.0
  0
VPORT
  5
2A2
330
8
100
AcDbSymbolTableRecord
100
AcDbViewportTableRecord
  2
L4
 70
     0
 10
0.0
 20
0.0
 11
0.5
 21
0.5
 12
0.0
 22
0.0
 13
0.0
 23
0.0
 14
0.5
 24
0.5
 15
0.5
 25
0.5
 16
0.0
 26
-1.0
 36
0.0
 17
0.0
 27
0.0
 37
0.0
 40
1319.143726
 41
0.013461
 42
50.0
 43
679.601336
 44
-679.601336
 50
0.0
 51
0.0
 71
     0
 72
   100
 73
     1
 74
     3
 75
     0
 76
     0
 77
     0
 78
     0
281
     0
 65
     1
110
0.0
120
0.0
130
0.0
111
1.0
121
0.0
131
0.0
112
0.0
122
1.0
132
0.0
 79
     0
146
0.0
  0
VPORT
  5
2A3
330
8
100
AcDbSymbolTableRecord
100
AcDbViewportTableRecord
  2
L4
 70
     0
 10
0.5
 20
0.0
 11
1.0
 21
0.5
 12
0.0
 22
0.0
 13
0.0
 23
0.0
 14
0.5
 24
0.5
 15
0.5
 25
0.5
 16
1.0
 26
0.0
 36
0.0
 17
0.0
 27
0.0
 37
0.0
 40
1319.143726
 41
0.013461
 42
50.0
 43
667.6767099999999
 44
-667.6767099999999
 50
0.0
 51
0.0
 71
     0
 72
   100
 73
     1
 74
     3
 75
     0
 76
     0
 77
     0
 78
     0
281
     0
 65
     1
110
0.0
120
0.0
130
0.0
111
1.0
121
0.0
131
0.0
112
0.0
122
1.0
132
0.0
 79
     0
146
0.0
  0
VPORT
  5
2A4
330
8
100
AcDbSymbolTableRecord
100
AcDbViewportTableRecord
  2
L4
 70
     0
 10
0.5
 20
0.5
 11
1.0
 21
1.0
 12
0.0
 22
0.0
 13
0.0
 23
0.0
 14
0.5
 24
0.5
 15
0.5
 25
0.5
 16
0.5773502691896259
 26
-0.5773502691896259
 36
0.5773502691896259
 17
0.0
 27
0.0
 37
0.0
 40
1295.484074
 41
0.013707
 42
50.0
 43
674.79345
 44
-674.79345
 50
0.0
 51
0.0
 71
     0
 72
   100
 73
     1
 74
     3
 75
     0
 76
     0
 77
     0
 78
     0
281
     0
 65
     1
110
0.0
120
0.0
130
0.0
111
1.0
121
0.0
131
0.0
112
0.0
122
1.0
132
0.0
 79
     0
146
0.0
  0
VPORT
  5
2A5
330
8
100
AcDbSymbolTableRecord
100
AcDbViewportTableRecord
  2
L6
 70
     0
 10
0.0
 20
0.5
 11
0.333333
 21
1.0
 12
0.0
 22
0.0
 13
0.0
 23
0.0
 14
0.5
 24
0.5
 15
0.5
 25
0.5
 16
0.7188730927569434
 26
-0.5850486126764433
 36
0.3754192287502549
 17
0.0
 27
0.0
 37
0.0
 40
1367.187154
 41
0.012988
 42
50.0
 43
707.8776949999999
 44
-707.8776949999999
 50
0.0
 51
0.0
 71
     0
 72
   100
 73
     1
 74
     3
 75
     0
 76
     0
 77
     0
 78
     0
281
     0
 65
     1
110
0.0
120
0.0
130
0.0
111
1.0
121
0.0
131
0.0
112
0.0
122
1.0
132
0.0
 79
     0
146
0.0
  0
VPORT
  5
2A6
330
8
100
AcDbSymbolTableRecord
100
AcDbViewportTableRecord
  2
L6
 70
     0
 10
0.0
 20
0.0
 11
0.333333
 21
0.5
 12
0.0
 22
0.0
 13
0.0
 23
0.0
 14
0.5
 24
0.5
 15
0.5
 25
0.5
 16
-1.0
 26
0.0
 36
0.0
 17
0.0
 27
0.0
 37
0.0
 40
1319.143726
 41
0.013461
 42
50.0
 43
667.6767099999999
 44
-667.6767099999999
 50
0.0
 51
0.0
 71
     0
 72
   100
 73
     1
 74
     3
 75
     0
 76
     0
 77
     0
 78
     0
281
     0
 65
     1
110
0.0
120
0.0
130
0.0
111
1.0
121
0.0
131
0.0
112
0.0
122
1.0
132
0.0
 79
     0
146
0.0
  0
VPORT
  5
2A7
330
8
100
AcDbSymbolTableRecord
100
AcDbViewportTableRecord
  2
L6
 70
     0
 10
0.333333
 20
0.5
 11
0.666667
 21
1.0
 12
273.04026
 22
233.522403
 13
0.0
 23
0.0
 14
0.5
 24
0.5
 15
0.5
 25
0.5
 16
0.0
 26
0.0
 36
1.0
 17
0.0
 27
0.0
 37
0.0
 40
207.433333
 41
0.085602
 42
50.0
 43
359.847148
 44
-359.847148
 50
0.0
 51
0.0
 71
     0
 72
   100
 73
     1
 74
     3
 75
     0
 76
     0
 77
     0
 78
     0
281
     0
 65
     1
110
0.0
120
0.0
130
0.0
111
1.0
121
0.0
131
0.0
112
0.0
122
1.0
132
0.0
 79
     0
146
0.0
  0
VPORT
  5
2A8
330
8
100
AcDbSymbolTableRecord
100
AcDbViewportTableRecord
  2
L6
 70
     0
 10
0.333333
 20
0.0
 11
0.666667
 21
0.5
 12
0.0
 22
0.0
 13
0.0
 23
0.0
 14
0.5
 24
0.5
 15
0.5
 25
0.5
 16
0.0
 26
-1.0
 36
0.0
 17
0.0
 27
0.0
 37
0.0
 40
1319.143726
 41
0.013461
 42
50.0
 43
679.601336
 44
-679.601336
 50
0.0
 51
0.0
 71
     0
 72
   100
 73
     1
 74
     3
 75
     0
 76
     0
 77
     0
 78
     0
281
     0
 65
     1
110
0.0
120
0.0
130
0.0
111
1.0
121
0.0
131
0.0
112
0.0
122
1.0
132
0.0
 79
     0
146
0.0
  0
VPORT
  5
2A9
330
8
100
AcDbSymbolTableRecord
100
AcDbViewportTableRecord
  2
L6
 70
     0
 10
0.666667
 20
0.5
 11
1.0
 21
1.0
 12
0.0
 22
0.0
 13
0.0
 23
0.0
 14
0.5
 24
0.5
 15
0.5
 25
0.5
 16
0.5773502691896259
 26
-0.5773502691896259
 36
0.5773502691896259
 17
0.0
 27
0.0
 37
0.0
 40
1295.484074
 41
0.013707
 42
50.0
 43
674.79345
 44
-674.79345
 50
0.0
 51
0.0
 71
     0
 72
   100
 73
     1
 74
     3
 75
     0
 76
     0
 77
     0
 78
     0
281
     0
 65
     1
110
0.0
120
0.0
130
0.0
111
1.0
121
0.0
131
0.0
112
0.0
122
1.0
132
0.0
 79
     0
146
0.0
  0
VPORT
  5
2AA
330
8
100
AcDbSymbolTableRecord
100
AcDbViewportTableRecord
  2
L6
 70
     0
 10
0.666667
 20
0.0
 11
1.0
 21
0.5
 12
0.0
 22
0.0
 13
0.0
 23
0.0
 14
0.5
 24
0.5
 15
0.5
 25
0.5
 16
1.0
 26
0.0
 36
0.0
 17
0.0
 27
0.0
 37
0.0
 40
1319.143726
 41
0.013461
 42
50.0
 43
667.6767099999999
 44
-667.6767099999999
 50
0.0
 51
0.0
 71
     0
 72
   100
 73
     1
 74
     3
 75
     0
 76
     0
 77
     0
 78
     0
281
     0
 65
     1
110
0.0
120
0.0
130
0.0
111
1.0
121
0.0
131
0.0
112
0.0
122
1.0
132
0.0
 79
     0
146
0.0
  0
ENDTAB
  0
TABLE
  2
LTYPE
  5
5
330
0
100
AcDbSymbolTable
 70
     7
  0
LTYPE
  5
14
330
5
100
AcDbSymbolTableRecord
100
AcDbLinetypeTableRecord
  2
ByBlock
 70
     0
  3

 72
    65
 73
     0
 40
0.0
  0
LTYPE
  5
15
330
5
100
AcDbSymbolTableRecord
100
AcDbLinetypeTableRecord
  2
ByLayer
 70
     0
  3

 72
    65
 73
     0
 40
0.0
  0
LTYPE
  5
16
330
5
100
AcDbSymbolTableRecord
100
AcDbLinetypeTableRecord
  2
Continuous
 70
     0
  3
Solid line
 72
    65
 73
     0
 40
0.0
  0
LTYPE
  5
6E
330
5
100
AcDbSymbolTableRecord
100
AcDbLinetypeTableRecord
  2
CENTER
 70
     0
  3
____ _ ____ _ ____ _ ____
 72
    65
 73
     4
 40
47.4
 49
22.0
 74
     4
 75
     0
340
0
 46
0.0
 50
0.0
 44
0.0
 45
0.0
 49
-8.5
 74
     4
 75
     0
340
0
 46
0.0
 50
0.0
 44
0.0
 45
0.0
 49
8.5
 74
     4
 75
     0
340
0
 46
0.0
 50
0.0
 44
0.0
 45
0.0
 49
-8.5
 74
     4
 75
     0
340
0
 46
0.0
 50
0.0
 44
0.0
 45
0.0
  0
LTYPE
  5
6F
330
5
100
AcDbSymbolTableRecord
100
AcDbLinetypeTableRecord
  2
DASHDOT
 70
     0
  3
_._._._._._._._._._._._._._._._.
 72
    65
 73
     4
 40
70.0
 49
31.0
 74
     4
 75
     0
340
0
 46
0.0
 50
0.0
 44
0.0
 45
0.0
 49
-13.0
 74
     4
 75
     0
340
0
 46
0.0
 50
0.0
 44
0.0
 45
0.0
 49
13.0
 74
     4
 75
     0
340
0
 46
0.0
 50
0.0
 44
0.0
 45
0.0
 49
-13.0
 74
     4
 75
     0
340
0
 46
0.0
 50
0.0
 44
0.0
 45
0.0
  0
LTYPE
  5
70
330
5
100
AcDbSymbolTableRecord
100
AcDbLinetypeTableRecord
  2
DASHED
 70
     0
  3
__ __ __ __ __ __ __ __ __
 72
    65
 73
     2
 40
25.72
 49
12.86
 74
     4
 75
     0
340
0
 46
0.0
 50
0.0
 44
0.0
 45
0.0
 49
-12.86
 74
     4
 75
     0
340
0
 46
0.0
 50
0.0
 44
0.0
 45
0.0
  0
LTYPE
  5
71
330
5
100
AcDbSymbolTableRecord
100
AcDbLinetypeTableRecord
  2
DOT
 70
     0
  3
.........................
 72
    65
 73
     2
 40
10.0
 49
0.0
 74
     4
 75
     0
340
0
 46
0.0
 50
0.0
 44
0.0
 45
0.0
 49
-10.0
 74
     4
 75
     0
340
0
 46
0.0
 50
0.0
 44
0.0
 45
0.0
  0
LTYPE
  5
72
330
5
100
AcDbSymbolTableRecord
100
AcDbLinetypeTableRecord
  2
PHANTOM
 70
     0
  3
____ _ _ ____ _ _ _____ _ _ ____
 72
    65
 73
     6
 40
50.5
 49
18.0
 74
     4
 75
     0
340
0
 46
0.0
 50
0.0
 44
0.0
 45
0.0
 49
-6.5
 74
     4
 75
     0
340
0
 46
0.0
 50
0.0
 44
0.0
 45
0.0
 49
6.5
 74
     4
 75
     0
340
0
 46
0.0
 50
0.0
 44
0.0
 45
0.0
 49
-6.5
 74
     4
 75
     0
340
0
 46
0.0
 50
0.0
 44
0.0
 45
0.0
 49
6.5
 74
     4
 75
     0
340
0
 46
0.0
 50
0.0
 44
0.0
 45
0.0
 49
-6.5
 74
     4
 75
     0
340
0
 46
0.0
 50
0.0
 44
0.0
 45
0.0
  0
LTYPE
  5
33A
330
5
100
AcDbSymbolTableRecord
100
AcDbLinetypeTableRecord
  2
CENTER2
 70
     0
  3
Center (.5x) ___ _ ___ _ ___ _ ___ _ ___ _ ___
 72
    65
 73
     4
 40
1.125
 49
0.75
 74
     0
 49
-0.125
 74
     0
 49
0.125
 74
     0
 49
-0.125
 74
     0
  0
ENDTAB
  0
TABLE
  2
LAYER
  5
2
330
0
100
AcDbSymbolTable
 70
    22
  0
LAYER
  5
10
102
{ACAD_XDICTIONARY
360
345
102
}
330
2
100
AcDbSymbolTableRecord
100
AcDbLayerTableRecord
  2
0
 70
     0
 62
     7
  6
Continuous
370
    -3
390
F
  0
LAYER
  5
1F6
330
2
100
AcDbSymbolTableRecord
100
AcDbLayerTableRecord
  2
Defpoints
 70
     0
 62
     7
  6
Continuous
290
     0
370
    -3
390
F
  0
LAYER
  5
337
102
{ACAD_XDICTIONARY
360
347
102
}
330
2
100
AcDbSymbolTableRecord
100
AcDbLayerTableRecord
  2
1
 70
     0
 62
     4
  6
Continuous
370
    -3
390
F
  0
LAYER
  5
338
102
{ACAD_XDICTIONARY
360
349
102
}
330
2
100
AcDbSymbolTableRecord
100
AcDbLayerTableRecord
  2
2
 70
     0
 62
     7
  6
Continuous
370
    -3
390
F
  0
LAYER
  5
339
102
{ACAD_XDICTIONARY
360
34B
102
}
330
2
100
AcDbSymbolTableRecord
100
AcDbLayerTableRecord
  2
4
 70
     0
 62
     2
  6
CENTER2
370
    -3
390
F
  0
LAYER
  5
33B
102
{ACAD_XDICTIONARY
360
34D
102
}
330
2
100
AcDbSymbolTableRecord
100
AcDbLayerTableRecord
  2
SK1
 70
     0
 62
     4
  6
Continuous
370
    -3
390
F
  0
LAYER
  5
33C
102
{ACAD_XDICTIONARY
360
34F
102
}
330
2
100
AcDbSymbolTableRecord
100
AcDbLayerTableRecord
  2
SK2
 70
     0
 62
     7
  6
Continuous
370
    -3
390
F
  0
LAYER
  5
33E
102
{ACAD_XDICTIONARY
360
351
102
}
330
2
100
AcDbSymbolTableRecord
100
AcDbLayerTableRecord
  2
SK4
 70
     0
 62
     2
  6
CENTER2
370
    -3
390
F
  0
LAYER
  5
33F
102
{ACAD_XDICTIONARY
360
353
102
}
330
2
100
AcDbSymbolTableRecord
100
AcDbLayerTableRecord
  2
SK6
 70
     0
 62
     5
  6
Continuous
370
    -3
390
F
  0
LAYER
  5
340
102
{ACAD_XDICTIONARY
360
355
102
}
330
2
100
AcDbSymbolTableRecord
100
AcDbLayerTableRecord
  2
CUT
 70
     0
 62
     1
  6
Continuous
370
    -3
390
F
  0
LAYER
  5
341
102
{ACAD_XDICTIONARY
360
357
102
}
330
2
100
AcDbSymbolTableRecord
100
AcDbLayerTableRecord
  2
NOCUT
 70
     0
 62
     7
  6
Continuous
370
    -3
390
F
  0
LAYER
  5
342
102
{ACAD_XDICTIONARY
360
359
102
}
330
2
100
AcDbSymbolTableRecord
100
AcDbLayerTableRecord
  2
80
 70
     0
 62
     6
  6
Continuous
370
    -3
390
F
  0
LAYER
  5
343
102
{ACAD_XDICTIONARY
360
35B
102
}
330
2
100
AcDbSymbolTableRecord
100
AcDbLayerTableRecord
  2
81
 70
     0
 62
     3
  6
Continuous
370
    -3
390
F
  0
ENDTAB
  0
TABLE
  2
STYLE
  5
3
330
0
100
AcDbSymbolTable
 70
     3
  0
STYLE
  5
11
330
3
100
AcDbSymbolTableRecord
100
AcDbTextStyleTableRecord
  2
Standard
 70
     0
 40
0.0
 41
1.0
 50
0.0
 71
     0
 42
0.2
  3
txt
  4

  0
STYLE
  5
1EF
330
3
100
AcDbSymbolTableRecord
100
AcDbTextStyleTableRecord
  2
cesky
 70
     0
 40
0.0
 41
1.0
 50
0.0
 71
     0
 42
0.2
  3
simplex.shx
  4

  0
STYLE
  5
1F0
330
3
100
AcDbSymbolTableRecord
100
AcDbTextStyleTableRecord
  2
DWGDirectTextStyle
 70
     0
 40
0.0
 41
1.0
 50
0.0
 71
     0
 42
0.2
  3
simplex
  4

  0
ENDTAB
  0
TABLE
  2
VIEW
  5
6
330
0
100
AcDbSymbolTable
 70
     0
  0
ENDTAB
  0
TABLE
  2
UCS
  5
7
330
0
100
AcDbSymbolTable
 70
     0
  0
ENDTAB
  0
TABLE
  2
APPID
  5
9
330
0
100
AcDbSymbolTable
 70
     7
  0
APPID
  5
12
330
9
100
AcDbSymbolTableRecord
100
AcDbRegAppTableRecord
  2
ACAD
 70
     0
  0
APPID
  5
1F2
330
9
100
AcDbSymbolTableRecord
100
AcDbRegAppTableRecord
  2
ACAD_DSTYLE_DIMBREAK
 70
     0
  0
APPID
  5
2AB
330
9
100
AcDbSymbolTableRecord
100
AcDbRegAppTableRecord
  2
ACAD_DSTYLE_DIM_LINETYPE
 70
     0
  0
APPID
  5
2AC
330
9
100
AcDbSymbolTableRecord
100
AcDbRegAppTableRecord
  2
ACAD_DSTYLE_DIM_EXT1_LINETYPE
 70
     0
  0
APPID
  5
2AD
330
9
100
AcDbSymbolTableRecord
100
AcDbRegAppTableRecord
  2
ACAD_DSTYLE_DIM_EXT2_LINETYPE
 70
     0
  0
APPID
  5
2ED
330
9
100
AcDbSymbolTableRecord
100
AcDbRegAppTableRecord
  2
ACAD_MLEADERVER
 70
     0
  0
APPID
  5
360
330
9
100
AcDbSymbolTableRecord
100
AcDbRegAppTableRecord
  2
ACAD_NAV_VCDISPLAY
 70
     0
  0
ENDTAB
  0
TABLE
  2
DIMSTYLE
  5
A
330
0
100
AcDbSymbolTable
 70
     1
100
AcDbDimStyleTable
 71
     0
  0
DIMSTYLE
105
27
330
A
100
AcDbSymbolTableRecord
100
AcDbDimStyleTableRecord
  2
Standard
 70
     0
340
11
1001
ACAD_DSTYLE_DIMBREAK
1070
   391
1040
6.349999999999999
  0
ENDTAB
  0
TABLE
  2
BLOCK_RECORD
  5
1
330
0
100
AcDbSymbolTable
 70
    16
  0
BLOCK_RECORD
  5
1F
102
{ACAD_XDICTIONARY
360
2FD
102
}
330
1
100
AcDbSymbolTableRecord
100
AcDbBlockTableRecord
  2
*Model_Space
340
22
  0
BLOCK_RECORD
  5
1B
330
1
100
AcDbSymbolTableRecord
100
AcDbBlockTableRecord
  2
*Paper_Space
340
1E
  0
BLOCK_RECORD
  5
23
330
1
100
AcDbSymbolTableRecord
100
AcDbBlockTableRecord
  2
*Paper_Space0
340
26
  0
BLOCK_RECORD
  5
1E9
330
1
100
AcDbSymbolTableRecord
100
AcDbBlockTableRecord
  2
ASSORTED_DRAFT1
340
0
  0
BLOCK_RECORD
  5
1F7
330
1
100
AcDbSymbolTableRecord
100
AcDbBlockTableRecord
  2
*D2
340
0
  0
BLOCK_RECORD
  5
203
330
1
100
AcDbSymbolTableRecord
100
AcDbBlockTableRecord
  2
_U0
340
0
  0
BLOCK_RECORD
  5
20F
330
1
100
AcDbSymbolTableRecord
100
AcDbBlockTableRecord
  2
*D4
340
0
  0
BLOCK_RECORD
  5
21B
330
1
100
AcDbSymbolTableRecord
100
AcDbBlockTableRecord
  2
_U1
340
0
  0
BLOCK_RECORD
  5
227
330
1
100
AcDbSymbolTableRecord
100
AcDbBlockTableRecord
  2
*D6
340
0
  0
BLOCK_RECORD
  5
233
330
1
100
AcDbSymbolTableRecord
100
AcDbBlockTableRecord
  2
_U2
340
0
  0
BLOCK_RECORD
  5
23F
330
1
100
AcDbSymbolTableRecord
100
AcDbBlockTableRecord
  2
*D8
340
0
  0
BLOCK_RECORD
  5
24B
330
1
100
AcDbSymbolTableRecord
100
AcDbBlockTableRecord
  2
_U3
340
0
  0
BLOCK_RECORD
  5
257
330
1
100
AcDbSymbolTableRecord
100
AcDbBlockTableRecord
  2
*D10
340
0
  0
BLOCK_RECORD
  5
262
330
1
100
AcDbSymbolTableRecord
100
AcDbBlockTableRecord
  2
_U4
340
0
  0
BLOCK_RECORD
  5
26D
330
1
100
AcDbSymbolTableRecord
100
AcDbBlockTableRecord
  2
*D12
340
0
  0
BLOCK_RECORD
  5
279
330
1
100
AcDbSymbolTableRecord
100
AcDbBlockTableRecord
  2
_U5
340
0
  0
BLOCK_RECORD
  5
286
330
1
100
AcDbSymbolTableRecord
100
AcDbBlockTableRecord
  2
*D14
340
0
  0
BLOCK_RECORD
  5
292
330
1
100
AcDbSymbolTableRecord
100
AcDbBlockTableRecord
  2
_U6
340
0
  0
ENDTAB
  0
ENDSEC
  0
SECTION
  2
BLOCKS
  0
BLOCK
  5
20
330
1F
100
AcDbEntity
  8
0
100
AcDbBlockBegin
  2
*Model_Space
 70
     0
 10
0.0
 20
0.0
 30
0.0
  3
*Model_Space
  1

  0
ENDBLK
  5
21
330
1F
100
AcDbEntity
  8
0
100
AcDbBlockEnd
  0
BLOCK
  5
1C
330
1B
100
AcDbEntity
 67
     1
  8
0
100
AcDbBlockBegin
  2
*Paper_Space
 70
     0
 10
0.0
 20
0.0
 30
0.0
  3
*Paper_Space
  1

  0
ENDBLK
  5
1D
330
1B
100
AcDbEntity
 67
     1
  8
0
100
AcDbBlockEnd
  0
BLOCK
  5
24
330
23
100
AcDbEntity
 67
     1
  8
0
100
AcDbBlockBegin
  2
*Paper_Space0
 70
     0
 10
0.0
 20
0.0
 30
0.0
  3
*Paper_Space0
  1

  0
ENDBLK
  5
25
330
23
100
AcDbEntity
 67
     1
  8
0
100
AcDbBlockEnd
  0
BLOCK
  5
1EC
330
1E9
100
AcDbEntity
  8
0
100
AcDbBlockBegin
  2
ASSORTED_DRAFT1
 70
     0
 10
0.0
 20
0.0
 30
0.0
  3
ASSORTED_DRAFT1
  1

  0
SOLID
  5
1EA
330
1E9
100
AcDbEntity
  8
0
 62
   254
370
    13
100
AcDbTrace
 10
270.185042
 20
161.239017
 30
0.0
 11
265.185046
 21
160.130544
 31
0.0
 12
265.1850379999999
 22
162.34749
 32
0.0
 13
270.185042
 23
161.239017
 33
0.0
  0
ENDBLK
  5
1ED
330
1E9
100
AcDbEntity
  8
0
100
AcDbBlockEnd
  0
BLOCK
  5
1F8
330
1F7
100
AcDbEntity
  8
0
100
AcDbBlockBegin
  2
*D2
 70
     1
 10
0.0
 20
0.0
 30
0.0
  3
*D2
  1

  0
LINE
  5
1FA
330
1F7
100
AcDbEntity
  8
0
 62
   254
370
    -2
100
AcDbLine
 10
345.404842
 20
302.407994
 30
0.0
 11
345.404842
 21
341.687968
 31
0.0
  0
LINE
  5
1FB
330
1F7
100
AcDbEntity
  8
0
 62
   254
370
    -2
100
AcDbLine
 10
218.404842
 20
299.407994
 30
0.0
 11
218.404842
 21
341.687968
 31
0.0
  0
LINE
  5
1FC
330
1F7
100
AcDbEntity
  8
0
 62
   254
370
    -2
100
AcDbLine
 10
341.904842
 20
340.687968
 30
0.0
 11
221.904842
 21
340.687968
 31
0.0
  0
SOLID
  5
1FD
330
1F7
100
AcDbEntity
  8
0
 62
   254
100
AcDbTrace
 10
341.904842
 20
340.104634
 30
0.0
 11
341.904842
 21
341.271301
 31
0.0
 12
345.404842
 22
340.687968
 32
0.0
 13
345.404842
 23
340.687968
 33
0.0
  0
SOLID
  5
1FE
330
1F7
100
AcDbEntity
  8
0
 62
   254
100
AcDbTrace
 10
221.904842
 20
341.271301
 30
0.0
 11
221.904842
 21
340.104634
 31
0.0
 12
218.404842
 22
340.687968
 32
0.0
 13
218.404842
 23
340.687968
 33
0.0
  0
MTEXT
  5
1FF
330
1F7
100
AcDbEntity
  8
0
 62
   254
370
    13
100
AcDbMText
 10
281.904842
 20
345.937968
 30
0.0
 40
3.5
 41
0.0
 71
     5
 72
     1
  1
\A1;127
  7
cesky
 73
     1
 44
1.0
  0
POINT
  5
200
330
1F7
100
AcDbEntity
  8
Defpoints
 62
     0
100
AcDbPoint
 10
345.404842
 20
302.407994
 30
0.0
  0
POINT
  5
201
330
1F7
100
AcDbEntity
  8
Defpoints
 62
     0
100
AcDbPoint
 10
218.404842
 20
299.407994
 30
0.0
  0
POINT
  5
202
330
1F7
100
AcDbEntity
  8
Defpoints
 62
     0
100
AcDbPoint
 10
218.404842
 20
340.687968
 30
0.0
  0
ENDBLK
  5
1F9
330
1F7
100
AcDbEntity
  8
0
100
AcDbBlockEnd
  0
BLOCK
  5
20A
330
203
100
AcDbEntity
  8
0
100
AcDbBlockBegin
  2
_U0
 70
     0
 10
0.0
 20
0.0
 30
0.0
  3
_U0
  1

  0
ENDBLK
  5
20B
330
203
100
AcDbEntity
  8
0
100
AcDbBlockEnd
  0
BLOCK
  5
210
330
20F
100
AcDbEntity
  8
0
100
AcDbBlockBegin
  2
*D4
 70
     1
 10
0.0
 20
0.0
 30
0.0
  3
*D4
  1

  0
LINE
  5
212
330
20F
100
AcDbEntity
  8
0
 62
   254
370
    -2
100
AcDbLine
 10
274.404842
 20
288.907994
 30
0.0
 11
274.404842
 21
328.5109970000001
 31
0.0
  0
LINE
  5
213
330
20F
100
AcDbEntity
  8
0
 62
   254
370
    -2
100
AcDbLine
 10
218.404842
 20
294.157994
 30
0.0
 11
218.404842
 21
328.5109970000001
 31
0.0
  0
LINE
  5
214
330
20F
100
AcDbEntity
  8
0
 62
   254
370
    -2
100
AcDbLine
 10
270.904842
 20
327.510997
 30
0.0
 11
221.904842
 21
327.510997
 31
0.0
  0
SOLID
  5
215
330
20F
100
AcDbEntity
  8
0
 62
   254
100
AcDbTrace
 10
270.904842
 20
326.927663
 30
0.0
 11
270.904842
 21
328.09433
 31
0.0
 12
274.404842
 22
327.510997
 32
0.0
 13
274.404842
 23
327.510997
 33
0.0
  0
SOLID
  5
216
330
20F
100
AcDbEntity
  8
0
 62
   254
100
AcDbTrace
 10
221.904842
 20
328.09433
 30
0.0
 11
221.904842
 21
326.927663
 31
0.0
 12
218.404842
 22
327.510997
 32
0.0
 13
218.404842
 23
327.510997
 33
0.0
  0
MTEXT
  5
217
330
20F
100
AcDbEntity
  8
0
 62
   254
370
    13
100
AcDbMText
 10
246.404842
 20
332.7609970000001
 30
0.0
 40
3.5
 41
0.0
 71
     5
 72
     1
  1
\A1;56
  7
cesky
 73
     1
 44
1.0
  0
POINT
  5
218
330
20F
100
AcDbEntity
  8
Defpoints
 62
     0
100
AcDbPoint
 10
274.404842
 20
288.907994
 30
0.0
  0
POINT
  5
219
330
20F
100
AcDbEntity
  8
Defpoints
 62
     0
100
AcDbPoint
 10
218.404842
 20
294.157994
 30
0.0
  0
POINT
  5
21A
330
20F
100
AcDbEntity
  8
Defpoints
 62
     0
100
AcDbPoint
 10
218.404842
 20
327.510997
 30
0.0
  0
ENDBLK
  5
211
330
20F
100
AcDbEntity
  8
0
100
AcDbBlockEnd
  0
BLOCK
  5
222
330
21B
100
AcDbEntity
  8
0
100
AcDbBlockBegin
  2
_U1
 70
     0
 10
0.0
 20
0.0
 30
0.0
  3
_U1
  1

  0
ENDBLK
  5
223
330
21B
100
AcDbEntity
  8
0
100
AcDbBlockEnd
  0
BLOCK
  5
228
330
227
100
AcDbEntity
  8
0
100
AcDbBlockBegin
  2
*D6
 70
     1
 10
0.0
 20
0.0
 30
0.0
  3
*D6
  1

  0
LINE
  5
22A
330
227
100
AcDbEntity
  8
0
 62
   254
370
    -2
100
AcDbLine
 10
345.404842
 20
300.407994
 30
0.0
 11
345.404842
 21
317.637587
 31
0.0
  0
LINE
  5
22B
330
227
100
AcDbEntity
  8
0
 62
   254
370
    -2
100
AcDbLine
 10
290.861894
 20
300.140398
 30
0.0
 11
290.861894
 21
317.637587
 31
0.0
  0
LINE
  5
22C
330
227
100
AcDbEntity
  8
0
 62
   254
370
    -2
100
AcDbLine
 10
341.904842
 20
316.637587
 30
0.0
 11
294.361894
 21
316.637587
 31
0.0
  0
SOLID
  5
22D
330
227
100
AcDbEntity
  8
0
 62
   254
100
AcDbTrace
 10
341.904842
 20
316.054254
 30
0.0
 11
341.904842
 21
317.220921
 31
0.0
 12
345.404842
 22
316.637587
 32
0.0
 13
345.404842
 23
316.637587
 33
0.0
  0
SOLID
  5
22E
330
227
100
AcDbEntity
  8
0
 62
   254
100
AcDbTrace
 10
294.361894
 20
317.220921
 30
0.0
 11
294.361894
 21
316.054254
 31
0.0
 12
290.861894
 22
316.637587
 32
0.0
 13
290.861894
 23
316.637587
 33
0.0
  0
MTEXT
  5
22F
330
227
100
AcDbEntity
  8
0
 62
   254
370
    13
100
AcDbMText
 10
318.133368
 20
321.887587
 30
0.0
 40
3.5
 41
0.0
 71
     5
 72
     1
  1
\A1;54.5
  7
cesky
 73
     1
 44
1.0
  0
POINT
  5
230
330
227
100
AcDbEntity
  8
Defpoints
 62
     0
100
AcDbPoint
 10
345.404842
 20
300.407994
 30
0.0
  0
POINT
  5
231
330
227
100
AcDbEntity
  8
Defpoints
 62
     0
100
AcDbPoint
 10
290.861894
 20
300.140398
 30
0.0
  0
POINT
  5
232
330
227
100
AcDbEntity
  8
Defpoints
 62
     0
100
AcDbPoint
 10
290.861894
 20
316.637587
 30
0.0
  0
ENDBLK
  5
229
330
227
100
AcDbEntity
  8
0
100
AcDbBlockEnd
  0
BLOCK
  5
23A
330
233
100
AcDbEntity
  8
0
100
AcDbBlockBegin
  2
_U2
 70
     0
 10
0.0
 20
0.0
 30
0.0
  3
_U2
  1

  0
ENDBLK
  5
23B
330
233
100
AcDbEntity
  8
0
100
AcDbBlockEnd
  0
BLOCK
  5
240
330
23F
100
AcDbEntity
  8
0
100
AcDbBlockBegin
  2
*D8
 70
     1
 10
0.0
 20
0.0
 30
0.0
  3
*D8
  1

  0
LINE
  5
242
330
23F
100
AcDbEntity
  8
0
 62
   254
370
    -2
100
AcDbLine
 10
345.404842
 20
300.407994
 30
0.0
 11
345.404842
 21
328.5109970000001
 31
0.0
  0
LINE
  5
243
330
23F
100
AcDbEntity
  8
0
 62
   254
370
    -2
100
AcDbLine
 10
274.404842
 20
288.907994
 30
0.0
 11
274.404842
 21
328.5109970000001
 31
0.0
  0
LINE
  5
244
330
23F
100
AcDbEntity
  8
0
 62
   254
370
    -2
100
AcDbLine
 10
341.904842
 20
327.510997
 30
0.0
 11
277.904842
 21
327.510997
 31
0.0
  0
SOLID
  5
245
330
23F
100
AcDbEntity
  8
0
 62
   254
100
AcDbTrace
 10
341.904842
 20
326.927663
 30
0.0
 11
341.904842
 21
328.09433
 31
0.0
 12
345.404842
 22
327.510997
 32
0.0
 13
345.404842
 23
327.510997
 33
0.0
  0
SOLID
  5
246
330
23F
100
AcDbEntity
  8
0
 62
   254
100
AcDbTrace
 10
277.904842
 20
328.09433
 30
0.0
 11
277.904842
 21
326.927663
 31
0.0
 12
274.404842
 22
327.510997
 32
0.0
 13
274.404842
 23
327.510997
 33
0.0
  0
MTEXT
  5
247
330
23F
100
AcDbEntity
  8
0
 62
   254
370
    13
100
AcDbMText
 10
309.904842
 20
332.7609970000001
 30
0.0
 40
3.5
 41
0.0
 71
     5
 72
     1
  1
\A1;71
  7
cesky
 73
     1
 44
1.0
  0
POINT
  5
248
330
23F
100
AcDbEntity
  8
Defpoints
 62
     0
100
AcDbPoint
 10
345.404842
 20
300.407994
 30
0.0
  0
POINT
  5
249
330
23F
100
AcDbEntity
  8
Defpoints
 62
     0
100
AcDbPoint
 10
274.404842
 20
288.907994
 30
0.0
  0
POINT
  5
24A
330
23F
100
AcDbEntity
  8
Defpoints
 62
     0
100
AcDbPoint
 10
274.404842
 20
327.510997
 30
0.0
  0
ENDBLK
  5
241
330
23F
100
AcDbEntity
  8
0
100
AcDbBlockEnd
  0
BLOCK
  5
252
330
24B
100
AcDbEntity
  8
0
100
AcDbBlockBegin
  2
_U3
 70
     0
 10
0.0
 20
0.0
 30
0.0
  3
_U3
  1

  0
ENDBLK
  5
253
330
24B
100
AcDbEntity
  8
0
100
AcDbBlockEnd
  0
BLOCK
  5
258
330
257
100
AcDbEntity
  8
0
100
AcDbBlockBegin
  2
*D10
 70
     1
 10
0.0
 20
0.0
 30
0.0
  3
*D10
  1

  0
LINE
  5
25A
330
257
100
AcDbEntity
  8
0
 62
   254
370
    -2
100
AcDbLine
 10
292.532259
 20
288.907994
 30
0.0
 11
360.655032
 21
288.907994
 31
0.0
  0
LINE
  5
25B
330
257
100
AcDbEntity
  8
0
 62
   254
370
    -2
100
AcDbLine
 10
330.83929
 20
300.407994
 30
0.0
 11
360.655032
 21
300.407994
 31
0.0
  0
LINE
  5
25C
330
257
100
AcDbEntity
  8
0
 62
   254
370
    -2
100
AcDbLine
 10
359.655032
 20
303.907994
 30
0.0
 11
359.655032
 21
307.407994
 31
0.0
  0
SOLID
  5
25D
330
257
100
AcDbEntity
  8
0
 62
   254
100
AcDbTrace
 10
359.071699
 20
303.907994
 30
0.0
 11
360.238365
 21
303.907994
 31
0.0
 12
359.655032
 22
300.407994
 32
0.0
 13
359.655032
 23
300.407994
 33
0.0
  0
MTEXT
  5
25E
330
257
100
AcDbEntity
  8
0
 62
   254
370
    13
100
AcDbMText
 10
354.405032
 20
275.57466
 30
0.0
 40
3.5
 41
0.0
 71
     5
 72
     1
  1
\A1;23
  7
cesky
 11
0.0
 21
1.0
 31
0.0
 73
     1
 44
1.0
  0
POINT
  5
25F
330
257
100
AcDbEntity
  8
Defpoints
 62
     0
100
AcDbPoint
 10
292.532259
 20
288.907994
 30
0.0
  0
POINT
  5
260
330
257
100
AcDbEntity
  8
Defpoints
 62
     0
100
AcDbPoint
 10
330.83929
 20
300.407994
 30
0.0
  0
POINT
  5
261
330
257
100
AcDbEntity
  8
Defpoints
 62
     0
100
AcDbPoint
 10
359.655032
 20
300.407994
 30
0.0
  0
ENDBLK
  5
259
330
257
100
AcDbEntity
  8
0
100
AcDbBlockEnd
  0
BLOCK
  5
268
330
262
100
AcDbEntity
  8
0
100
AcDbBlockBegin
  2
_U4
 70
     0
 10
0.0
 20
0.0
 30
0.0
  3
_U4
  1

  0
ENDBLK
  5
269
330
262
100
AcDbEntity
  8
0
100
AcDbBlockEnd
  0
BLOCK
  5
26E
330
26D
100
AcDbEntity
  8
0
100
AcDbBlockBegin
  2
*D12
 70
     1
 10
0.0
 20
0.0
 30
0.0
  3
*D12
  1

  0
LINE
  5
270
330
26D
100
AcDbEntity
  8
0
 62
    95
370
    -2
100
AcDbLine
 10
220.404842
 20
301.407994
 30
0.0
 11
203.427812
 21
301.407994
 31
0.0
  0
LINE
  5
271
330
26D
100
AcDbEntity
  8
0
 62
    95
370
    -2
100
AcDbLine
 10
220.404842
 20
276.407994
 30
0.0
 11
203.427812
 21
276.407994
 31
0.0
  0
LINE
  5
272
330
26D
100
AcDbEntity
  8
0
 62
    95
370
    -2
100
AcDbLine
 10
204.427812
 20
297.907994
 30
0.0
 11
204.427812
 21
279.907994
 31
0.0
  0
SOLID
  5
273
330
26D
100
AcDbEntity
  8
0
 62
    95
100
AcDbTrace
 10
205.011145
 20
297.907994
 30
0.0
 11
203.844479
 21
297.907994
 31
0.0
 12
204.427812
 22
301.407994
 32
0.0
 13
204.427812
 23
301.407994
 33
0.0
  0
SOLID
  5
274
330
26D
100
AcDbEntity
  8
0
 62
    95
100
AcDbTrace
 10
203.844479
 20
279.907994
 30
0.0
 11
205.011145
 21
279.907994
 31
0.0
 12
204.427812
 22
276.407994
 32
0.0
 13
204.427812
 23
276.407994
 33
0.0
  0
MTEXT
  5
275
330
26D
100
AcDbEntity
  8
0
 62
    95
370
    13
100
AcDbMText
 10
199.177812
 20
288.907994
 30
0.0
 40
3.5
 41
0.0
 71
     5
 72
     1
  1
\A1;25
  7
cesky
 11
0.0
 21
1.0
 31
0.0
 73
     1
 44
1.0
  0
POINT
  5
276
330
26D
100
AcDbEntity
  8
Defpoints
 62
     0
100
AcDbPoint
 10
220.404842
 20
301.407994
 30
0.0
  0
POINT
  5
277
330
26D
100
AcDbEntity
  8
Defpoints
 62
     0
100
AcDbPoint
 10
220.404842
 20
276.407994
 30
0.0
  0
POINT
  5
278
330
26D
100
AcDbEntity
  8
Defpoints
 62
     0
100
AcDbPoint
 10
204.427812
 20
276.407994
 30
0.0
  0
ENDBLK
  5
26F
330
26D
100
AcDbEntity
  8
0
100
AcDbBlockEnd
  0
BLOCK
  5
281
330
279
100
AcDbEntity
  8
0
100
AcDbBlockBegin
  2
_U5
 70
     0
 10
0.0
 20
0.0
 30
0.0
  3
_U5
  1

  0
ENDBLK
  5
282
330
279
100
AcDbEntity
  8
0
100
AcDbBlockEnd
  0
BLOCK
  5
287
330
286
100
AcDbEntity
  8
0
100
AcDbBlockBegin
  2
*D14
 70
     1
 10
0.0
 20
0.0
 30
0.0
  3
*D14
  1

  0
LINE
  5
289
330
286
100
AcDbEntity
  8
0
 62
    95
370
    -2
100
AcDbLine
 10
277.154842
 20
306.407994
 30
0.0
 11
190.287987
 21
306.407994
 31
0.0
  0
LINE
  5
28A
330
286
100
AcDbEntity
  8
0
 62
    95
370
    -2
100
AcDbLine
 10
277.154842
 20
271.407994
 30
0.0
 11
190.287987
 21
271.407994
 31
0.0
  0
LINE
  5
28B
330
286
100
AcDbEntity
  8
0
 62
    95
370
    -2
100
AcDbLine
 10
191.287987
 20
302.907994
 30
0.0
 11
191.287987
 21
274.907994
 31
0.0
  0
SOLID
  5
28C
330
286
100
AcDbEntity
  8
0
 62
    95
100
AcDbTrace
 10
191.87132
 20
302.907994
 30
0.0
 11
190.704653
 21
302.907994
 31
0.0
 12
191.287987
 22
306.407994
 32
0.0
 13
191.287987
 23
306.407994
 33
0.0
  0
SOLID
  5
28D
330
286
100
AcDbEntity
  8
0
 62
    95
100
AcDbTrace
 10
190.704653
 20
274.907994
 30
0.0
 11
191.87132
 21
274.907994
 31
0.0
 12
191.287987
 22
271.407994
 32
0.0
 13
191.287987
 23
271.407994
 33
0.0
  0
MTEXT
  5
28E
330
286
100
AcDbEntity
  8
0
 62
    95
370
    13
100
AcDbMText
 10
186.037987
 20
288.907994
 30
0.0
 40
3.5
 41
0.0
 71
     5
 72
     1
  1
\A1;35
  7
cesky
 11
0.0
 21
1.0
 31
0.0
 73
     1
 44
1.0
  0
POINT
  5
28F
330
286
100
AcDbEntity
  8
Defpoints
 62
     0
100
AcDbPoint
 10
277.154842
 20
306.407994
 30
0.0
  0
POINT
  5
290
330
286
100
AcDbEntity
  8
Defpoints
 62
     0
100
AcDbPoint
 10
277.154842
 20
271.407994
 30
0.0
  0
POINT
  5
291
330
286
100
AcDbEntity
  8
Defpoints
 62
     0
100
AcDbPoint
 10
191.287987
 20
271.407994
 30
0.0
  0
ENDBLK
  5
288
330
286
100
AcDbEntity
  8
0
100
AcDbBlockEnd
  0
BLOCK
  5
29A
330
292
100
AcDbEntity
  8
0
100
AcDbBlockBegin
  2
_U6
 70
     0
 10
0.0
 20
0.0
 30
0.0
  3
_U6
  1

  0
ENDBLK
  5
29B
330
292
100
AcDbEntity
  8
0
100
AcDbBlockEnd
  0
ENDSEC
  0
SECTION
  2
ENTITIES
  0
POINT
  5
73
102
{ACAD_REACTORS
330
344
102
}
330
1F
100
AcDbEntity
  8
80
100
AcDbPoint
 10
274.404842
 20
288.907994
 30
0.0
  0
POINT
  5
76
330
1F
100
AcDbEntity
  8
SK4
 60
     1
100
AcDbPoint
 10
220.404842
 20
288.907994
 30
0.0
  0
POINT
  5
78
330
1F
100
AcDbEntity
  8
SK4
 60
     1
100
AcDbPoint
 10
274.404842
 20
288.907994
 30
0.0
  0
POINT
  5
79
330
1F
100
AcDbEntity
  8
4
 60
     1
100
AcDbPoint
 10
292.532259
 20
288.907994
 30
0.0
  0
POINT
  5
7A
330
1F
100
AcDbEntity
  8
4
 60
     1
100
AcDbPoint
 10
344.495556
 20
288.907994
 30
0.0
  0
POINT
  5
7B
330
1F
100
AcDbEntity
  8
SK6
 60
     1
100
AcDbPoint
 10
274.404842
 20
288.907994
 30
0.0
  0
POINT
  5
7C
330
1F
100
AcDbEntity
  8
SK6
 60
     1
100
AcDbPoint
 10
290.861894
 20
300.140398
 30
0.0
  0
LINE
  5
7D
330
1F
100
AcDbEntity
  8
1
100
AcDbLine
 10
340.287517
 20
296.956468
 30
0.0
 11
340.312275
 21
297.049162
 31
0.0
  0
LINE
  5
7F
330
1F
100
AcDbEntity
  8
1
100
AcDbLine
 10
339.710141
 20
296.097896
 30
0.0
 11
339.686091
 21
296.007853
 31
0.0
  0
LINE
  5
80
330
1F
100
AcDbEntity
  8
1
100
AcDbLine
 10
339.796544
 20
296.083116
 30
0.0
 11
339.771959
 21
295.9910680000001
 31
0.0
  0
LINE
  5
81
330
1F
100
AcDbEntity
  8
1
100
AcDbLine
 10
341.977086
 20
295.502335
 30
0.0
 11
342.001114
 21
295.592298
 31
0.0
  0
LINE
  5
82
330
1F
100
AcDbEntity
  8
1
100
AcDbLine
 10
341.887211
 20
295.5231
 30
0.0
 11
341.911807
 21
295.615191
 31
0.0
  0
LINE
  5
83
330
1F
100
AcDbEntity
  8
1
100
AcDbLine
 10
340.944179
 20
294.905783
 30
0.0
 11
340.968647
 21
294.997392
 31
0.0
  0
LINE
  5
84
330
1F
100
AcDbEntity
  8
1
100
AcDbLine
 10
334.45645
 20
291.645935
 30
0.0
 11
334.462689
 21
291.463558
 31
0.0
  0
LINE
  5
86
330
1F
100
AcDbEntity
  8
1
100
AcDbLine
 10
334.492338
 20
290.596987
 30
0.0
 11
334.527269
 21
289.576048
 31
0.0
  0
LINE
  5
87
330
1F
100
AcDbEntity
  8
1
100
AcDbLine
 10
342.97936
 20
291.535311
 30
0.0
 11
338.106056
 21
291.322949
 31
0.0
  0
LINE
  5
88
330
1F
100
AcDbEntity
  8
1
100
AcDbLine
 10
285.904842
 20
299.844964
 30
0.0
 11
285.904842
 21
285.445878
 31
0.0
  0
LINE
  5
89
330
1F
100
AcDbEntity
  8
1
100
AcDbLine
 10
341.5014549999999
 20
295.139019
 30
0.0
 11
341.500078
 21
295.1338620000001
 31
0.0
  0
LINE
  5
8A
330
1F
100
AcDbEntity
  8
1
100
AcDbLine
 10
340.388667
 20
295.118809
 30
0.0
 11
340.364247
 21
295.027377
 31
0.0
  0
LINE
  5
8B
330
1F
100
AcDbEntity
  8
1
100
AcDbLine
 10
274.904842
 20
271.407994
 30
0.0
 11
279.404842
 21
271.407994
 31
0.0
  0
LINE
  5
8C
330
1F
100
AcDbEntity
  8
80
100
AcDbLine
 10
274.404842
 20
287.90842
 30
0.0
 11
274.404842
 21
289.907567
 31
0.0
  0
LINE
  5
8D
330
1F
100
AcDbEntity
  8
81
100
AcDbLine
 10
343.404842
 20
300.407994
 30
0.0
 11
347.404842
 21
300.407994
 31
0.0
  0
LINE
  5
8E
330
1F
100
AcDbEntity
  8
SK1
100
AcDbLine
 10
220.404842
 20
276.407994
 30
0.0
 11
274.404842
 21
276.407994
 31
0.0
  0
LINE
  5
8F
330
1F
100
AcDbEntity
  8
81
100
AcDbLine
 10
345.404842
 20
302.407994
 30
0.0
 11
345.404842
 21
298.407994
 31
0.0
  0
LINE
  5
90
330
1F
100
AcDbEntity
  8
1
100
AcDbLine
 10
337.095523
 20
299.907994
 30
0.0
 11
332.472109
 21
299.907994
 31
0.0
  0
LINE
  5
91
330
1F
100
AcDbEntity
  8
1
100
AcDbLine
 10
296.70295
 20
299.907994
 30
0.0
 11
292.532259
 21
299.907994
 31
0.0
  0
LINE
  5
92
330
1F
100
AcDbEntity
  8
1
100
AcDbLine
 10
341.5282509999999
 20
295.040359
 30
0.0
 11
341.524379
 21
295.036405
 31
0.0
  0
LINE
  5
93
330
1F
100
AcDbEntity
  8
1
100
AcDbLine
 10
341.528034
 20
295.245323
 30
0.0
 11
341.52858
 21
295.247288
 31
0.0
  0
LINE
  5
96
330
1F
100
AcDbEntity
  8
1
100
AcDbLine
 10
337.150296
 20
299.788211
 30
0.0
 11
337.145336
 21
299.902418
 31
0.0
  0
LINE
  5
97
330
1F
100
AcDbEntity
  8
SK1
100
AcDbLine
 10
220.404842
 20
301.407994
 30
0.0
 11
220.404842
 21
276.407994
 31
0.0
  0
LINE
  5
98
330
1F
100
AcDbEntity
  8
SK1
100
AcDbLine
 10
218.404842
 20
299.407994
 30
0.0
 11
218.404842
 21
278.407994
 31
0.0
  0
LINE
  5
99
330
1F
100
AcDbEntity
  8
SK1
100
AcDbLine
 10
218.404842
 20
278.407994
 30
0.0
 11
220.404842
 21
276.407994
 31
0.0
  0
LINE
  5
9A
330
1F
100
AcDbEntity
  8
SK1
100
AcDbLine
 10
220.404842
 20
301.407994
 30
0.0
 11
218.404842
 21
299.407994
 31
0.0
  0
LINE
  5
9B
330
1F
100
AcDbEntity
  8
1
100
AcDbLine
 10
339.963097
 20
295.484084
 30
0.0
 11
339.987911
 21
295.576988
 31
0.0
  0
LINE
  5
9C
330
1F
100
AcDbEntity
  8
1
100
AcDbLine
 10
344.439979
 20
291.558694
 30
0.0
 11
338.113506
 21
291.283008
 31
0.0
  0
LINE
  5
9D
330
1F
100
AcDbEntity
  8
1
100
AcDbLine
 10
344.439979
 20
291.558694
 30
0.0
 11
343.160614
 21
289.426994
 31
0.0
  0
LINE
  5
9E
330
1F
100
AcDbEntity
  8
1
100
AcDbLine
 10
344.564101
 20
292.182948
 30
0.0
 11
338.586158
 21
291.922449
 31
0.0
  0
LINE
  5
9F
330
1F
100
AcDbEntity
  8
1
100
AcDbLine
 10
338.580927
 20
291.9028649999999
 30
0.0
 11
338.586158
 21
291.922449
 31
0.0
  0
LINE
  5
A0
330
1F
100
AcDbEntity
  8
1
100
AcDbLine
 10
336.923198
 20
299.396471
 30
0.0
 11
336.904687
 21
299.822668
 31
0.0
  0
LINE
  5
A1
330
1F
100
AcDbEntity
  8
1
100
AcDbLine
 10
336.959608
 20
293.390715
 30
0.0
 11
336.954377
 21
293.371131
 31
0.0
  0
LINE
  5
A2
330
1F
100
AcDbEntity
  8
1
100
AcDbLine
 10
336.959608
 20
293.390715
 30
0.0
 11
336.680239
 21
299.823155
 31
0.0
  0
LINE
  5
A3
330
1F
100
AcDbEntity
  8
1
100
AcDbLine
 10
336.675954
 20
299.781796
 30
0.0
 11
336.954377
 21
293.371131
 31
0.0
  0
LINE
  5
A4
330
1F
100
AcDbEntity
  8
1
100
AcDbLine
 10
344.564101
 20
292.182948
 30
0.0
 11
344.56218
 21
292.3924129999999
 31
0.0
  0
LINE
  5
A5
330
1F
100
AcDbEntity
  8
1
100
AcDbLine
 10
344.564101
 20
292.182948
 30
0.0
 11
344.522141
 21
292.161763
 31
0.0
  0
LINE
  5
A6
330
1F
100
AcDbEntity
  8
1
100
AcDbLine
 10
344.349735
 20
281.593757
 30
0.0
 11
344.307644
 21
281.594431
 31
0.0
  0
LINE
  5
A7
330
1F
100
AcDbEntity
  8
1
100
AcDbLine
 10
344.127377
 20
282.1667109999999
 30
0.0
 11
343.991965
 21
282.168877
 31
0.0
  0
LINE
  5
A8
330
1F
100
AcDbEntity
  8
1
100
AcDbLine
 10
343.8767279999999
 20
284.939494
 30
0.0
 11
344.243868
 21
284.939494
 31
0.0
  0
LINE
  5
A9
330
1F
100
AcDbEntity
  8
1
100
AcDbLine
 10
344.28603
 20
289.509353
 30
0.0
 11
344.421672
 21
289.506985
 31
0.0
  0
LINE
  5
AA
330
1F
100
AcDbEntity
  8
1
100
AcDbLine
 10
344.66268
 20
290.072187
 30
0.0
 11
344.704842
 21
290.071452
 31
0.0
  0
LINE
  5
AB
330
1F
100
AcDbEntity
  8
1
100
AcDbLine
 10
344.439979
 20
291.558694
 30
0.0
 11
344.457333
 21
291.567455
 31
0.0
  0
LINE
  5
AC
330
1F
100
AcDbEntity
  8
1
100
AcDbLine
 10
337.189973
 20
292.816019
 30
0.0
 11
336.90355
 21
299.196465
 31
0.0
  0
LINE
  5
AE
330
1F
100
AcDbEntity
  8
1
100
AcDbLine
 10
338.399071
 20
298.552662
 30
0.0
 11
343.3933
 21
298.7702930000001
 31
0.0
  0
LINE
  5
AF
330
1F
100
AcDbEntity
  8
1
100
AcDbLine
 10
338.622832
 20
293.568076
 30
0.0
 11
338.399071
 21
298.552662
 31
0.0
  0
LINE
  5
B0
330
1F
100
AcDbEntity
  8
1
100
AcDbLine
 10
343.617062
 20
293.785707
 30
0.0
 11
338.622832
 21
293.568076
 31
0.0
  0
LINE
  5
B1
330
1F
100
AcDbEntity
  8
1
100
AcDbLine
 10
343.3933
 20
298.7702930000001
 30
0.0
 11
343.617062
 21
293.785707
 31
0.0
  0
LINE
  5
B2
330
1F
100
AcDbEntity
  8
1
100
AcDbLine
 10
337.636687
 20
299.995954
 30
0.0
 11
344.029477
 21
300.274531
 31
0.0
  0
LINE
  5
B3
330
1F
100
AcDbEntity
  8
1
100
AcDbLine
 10
344.83139
 20
299.541934
 30
0.0
 11
345.117813
 21
293.161488
 31
0.0
  0
LINE
  5
B4
330
1F
100
AcDbEntity
  8
1
100
AcDbLine
 10
344.384676
 20
292.361999
 30
0.0
 11
337.991886
 21
292.0834220000001
 31
0.0
  0
LINE
  5
B5
330
1F
100
AcDbEntity
  8
SK1
100
AcDbLine
 10
274.404842
 20
301.407994
 30
0.0
 11
220.404842
 21
301.407994
 31
0.0
  0
LINE
  5
B6
330
1F
100
AcDbEntity
  8
1
100
AcDbLine
 10
274.904842
 20
271.407994
 30
0.0
 11
274.404842
 21
271.907994
 31
0.0
  0
LINE
  5
B7
330
1F
100
AcDbEntity
  8
1
100
AcDbLine
 10
274.404842
 20
305.907994
 30
0.0
 11
274.904842
 21
306.407994
 31
0.0
  0
LINE
  5
B8
330
1F
100
AcDbEntity
  8
1
100
AcDbLine
 10
279.404842
 20
306.407994
 30
0.0
 11
274.904842
 21
306.407994
 31
0.0
  0
LINE
  5
BB
330
1F
100
AcDbEntity
  8
80
100
AcDbLine
 10
275.404416
 20
288.907994
 30
0.0
 11
273.405268
 21
288.907994
 31
0.0
  0
LINE
  5
BC
330
1F
100
AcDbEntity
  8
1
100
AcDbLine
 10
345.404842
 20
288.22381
 30
0.0
 11
345.323222
 21
283.547809
 31
0.0
  0
LINE
  5
BD
330
1F
100
AcDbEntity
  8
1
100
AcDbLine
 10
341.528034
 20
295.24532
 30
0.0
 11
341.503183
 21
295.152277
 31
0.0
  0
LINE
  5
BE
330
1F
100
AcDbEntity
  8
1
100
AcDbLine
 10
340.284413
 20
296.938054
 30
0.0
 11
340.309264
 21
297.031098
 31
0.0
  0
LINE
  5
BF
330
1F
100
AcDbEntity
  8
1
100
AcDbLine
 10
341.849312
 20
296.699151
 30
0.0
 11
341.824498
 21
296.606247
 31
0.0
  0
LINE
  5
C0
330
1F
100
AcDbEntity
  8
1
100
AcDbLine
 10
345.323222
 20
283.547809
 30
0.0
 11
344.715638
 21
282.53662
 31
0.0
  0
LINE
  5
C1
330
1F
100
AcDbEntity
  8
1
100
AcDbLine
 10
344.801122
 20
283.697519
 30
0.0
 11
345.323222
 21
283.547809
 31
0.0
  0
LINE
  5
C2
330
1F
100
AcDbEntity
  8
1
100
AcDbLine
 10
344.877836
 20
288.092412
 30
0.0
 11
345.404842
 21
288.22381
 31
0.0
  0
LINE
  5
C3
330
1F
100
AcDbEntity
  8
1
100
AcDbLine
 10
344.819673
 20
289.279483
 30
0.0
 11
345.404842
 21
288.22381
 31
0.0
  0
LINE
  5
C4
330
1F
100
AcDbEntity
  8
1
100
AcDbLine
 10
344.428971
 20
288.902186
 30
0.0
 11
344.819673
 21
289.279483
 31
0.0
  0
LINE
  5
C5
330
1F
100
AcDbEntity
  8
1
100
AcDbLine
 10
344.427616
 20
289.515055
 30
0.0
 11
344.819673
 21
289.279483
 31
0.0
  0
LINE
  5
C6
330
1F
100
AcDbEntity
  8
1
100
AcDbLine
 10
344.338341
 20
282.927322
 30
0.0
 11
344.715638
 21
282.53662
 31
0.0
  0
LINE
  5
C7
330
1F
100
AcDbEntity
  8
1
100
AcDbLine
 10
344.715638
 20
282.53662
 30
0.0
 11
344.050531
 21
282.167945
 31
0.0
  0
LINE
  5
C8
330
1F
100
AcDbEntity
  8
1
100
AcDbLine
 10
344.801122
 20
283.697519
 30
0.0
 11
344.338341
 21
282.927322
 31
0.0
  0
LINE
  5
C9
330
1F
100
AcDbEntity
  8
1
100
AcDbLine
 10
344.428971
 20
288.902186
 30
0.0
 11
344.877836
 21
288.092412
 31
0.0
  0
LINE
  5
CA
330
1F
100
AcDbEntity
  8
1
100
AcDbLine
 10
344.877836
 20
288.092412
 30
0.0
 11
344.291699
 21
287.946272
 31
0.0
  0
LINE
  5
CB
330
1F
100
AcDbEntity
  8
1
100
AcDbLine
 10
344.801122
 20
283.697519
 30
0.0
 11
344.220443
 21
283.864026
 31
0.0
  0
LINE
  5
CC
330
1F
100
AcDbEntity
  8
1
100
AcDbLine
 10
344.877836
 20
288.092412
 30
0.0
 11
344.801122
 21
283.697519
 31
0.0
  0
LINE
  5
CD
330
1F
100
AcDbEntity
  8
1
100
AcDbLine
 10
344.338341
 20
282.927322
 30
0.0
 11
344.060809
 21
283.214715
 31
0.0
  0
LINE
  5
CE
330
1F
100
AcDbEntity
  8
1
100
AcDbLine
 10
344.338341
 20
282.927322
 30
0.0
 11
344.011041
 21
282.745896
 31
0.0
  0
LINE
  5
CF
330
1F
100
AcDbEntity
  8
1
100
AcDbLine
 10
344.428971
 20
288.902186
 30
0.0
 11
344.243864
 21
288.723431
 31
0.0
  0
LINE
  5
D0
330
1F
100
AcDbEntity
  8
1
100
AcDbLine
 10
344.243858
 20
289.013413
 30
0.0
 11
344.428971
 21
288.902186
 31
0.0
  0
LINE
  5
D1
330
1F
100
AcDbEntity
  8
1
100
AcDbLine
 10
344.110255
 20
283.680642
 30
0.0
 11
344.220443
 21
283.864026
 31
0.0
  0
LINE
  5
D2
330
1F
100
AcDbEntity
  8
1
100
AcDbLine
 10
344.220443
 20
283.864026
 30
0.0
 11
344.238301
 21
284.887075
 31
0.0
  0
LINE
  5
D3
330
1F
100
AcDbEntity
  8
1
100
AcDbLine
 10
344.243869
 20
285.206064
 30
0.0
 11
344.291699
 21
287.946272
 31
0.0
  0
LINE
  5
D4
330
1F
100
AcDbEntity
  8
1
100
AcDbLine
 10
344.291699
 20
287.946272
 30
0.0
 11
344.243867
 21
288.032564
 31
0.0
  0
LINE
  5
D5
330
1F
100
AcDbEntity
  8
1
100
AcDbLine
 10
343.981665
 20
282.469081
 30
0.0
 11
344.243868
 21
284.939494
 31
0.0
  0
LINE
  5
D6
330
1F
100
AcDbEntity
  8
1
100
AcDbLine
 10
344.243868
 20
284.939494
 30
0.0
 11
344.243868
 21
289.2100430000001
 31
0.0
  0
LINE
  5
D7
330
1F
100
AcDbEntity
  8
1
100
AcDbLine
 10
344.332926
 20
281.832631
 30
0.0
 11
344.127377
 21
282.1667109999999
 31
0.0
  0
LINE
  5
D8
330
1F
100
AcDbEntity
  8
1
100
AcDbLine
 10
344.332926
 20
281.832631
 30
0.0
 11
344.307644
 21
281.594431
 31
0.0
  0
LINE
  5
D9
330
1F
100
AcDbEntity
  8
1
100
AcDbLine
 10
344.421672
 20
289.506985
 30
0.0
 11
344.66268
 21
289.833577
 31
0.0
  0
LINE
  5
DA
330
1F
100
AcDbEntity
  8
1
100
AcDbLine
 10
344.66268
 20
290.072187
 30
0.0
 11
344.66268
 21
289.833577
 31
0.0
  0
LINE
  5
DB
330
1F
100
AcDbEntity
  8
1
100
AcDbLine
 10
343.958539
 20
277.907994
 30
0.0
 11
344.349735
 21
281.593757
 31
0.0
  0
LINE
  5
DC
330
1F
100
AcDbEntity
  8
1
100
AcDbLine
 10
343.958539
 20
277.907994
 30
0.0
 11
333.283494
 21
277.907994
 31
0.0
  0
LINE
  5
DD
330
1F
100
AcDbEntity
  8
1
100
AcDbLine
 10
344.704842
 20
292.449844
 30
0.0
 11
344.704842
 21
290.071452
 31
0.0
  0
LINE
  5
DE
330
1F
100
AcDbEntity
  8
1
100
AcDbLine
 10
274.904842
 20
271.407994
 30
0.0
 11
274.904842
 21
288.907994
 31
0.0
  0
LINE
  5
DF
330
1F
100
AcDbEntity
  8
1
100
AcDbLine
 10
274.904842
 20
288.907994
 30
0.0
 11
274.904842
 21
306.407994
 31
0.0
  0
LINE
  5
E0
330
1F
100
AcDbEntity
  8
1
100
AcDbLine
 10
279.404842
 20
271.407994
 30
0.0
 11
279.404842
 21
273.230125
 31
0.0
  0
LINE
  5
E1
330
1F
100
AcDbEntity
  8
1
100
AcDbLine
 10
279.404842
 20
306.407994
 30
0.0
 11
279.404842
 21
280.020421
 31
0.0
  0
LINE
  5
E2
330
1F
100
AcDbEntity
  8
1
100
AcDbLine
 10
342.925463
 20
295.5137029999999
 30
0.0
 11
342.940112
 21
295.56855
 31
0.0
  0
LINE
  5
E3
330
1F
100
AcDbEntity
  8
1
100
AcDbLine
 10
279.404842
 20
271.407994
 30
0.0
 11
281.21855
 21
273.221702
 31
0.0
  0
LINE
  5
E4
330
1F
100
AcDbEntity
  8
1
100
AcDbLine
 10
281.21855
 20
304.594285
 30
0.0
 11
279.404842
 21
306.407994
 31
0.0
  0
LINE
  5
E5
330
1F
100
AcDbEntity
  8
1
100
AcDbLine
 10
274.404842
 20
305.907994
 30
0.0
 11
274.404842
 21
288.907994
 31
0.0
  0
LINE
  5
E6
330
1F
100
AcDbEntity
  8
1
100
AcDbLine
 10
274.404842
 20
288.907994
 30
0.0
 11
274.404842
 21
271.907994
 31
0.0
  0
LINE
  5
E7
330
1F
100
AcDbEntity
  8
1
100
AcDbLine
 10
343.263007
 20
284.939494
 30
0.0
 11
343.547914
 21
284.939494
 31
0.0
  0
LINE
  5
E8
330
1F
100
AcDbEntity
  8
1
100
AcDbLine
 10
338.580927
 20
291.9028649999999
 30
0.0
 11
344.522141
 21
292.161763
 31
0.0
  0
LINE
  5
E9
330
1F
100
AcDbEntity
  8
1
100
AcDbLine
 10
344.522689
 20
292.1019970000001
 30
0.0
 11
344.522141
 21
292.161763
 31
0.0
  0
LINE
  5
11E
330
1F
100
AcDbEntity
  8
NOCUT
100
AcDbLine
 10
274.404842
 20
301.407994
 30
0.0
 11
274.404842
 21
305.907994
 31
0.0
  0
LINE
  5
11F
330
1F
100
AcDbEntity
  8
NOCUT
100
AcDbLine
 10
274.404842
 20
305.907994
 30
0.0
 11
274.904842
 21
306.407994
 31
0.0
  0
LINE
  5
120
330
1F
100
AcDbEntity
  8
NOCUT
100
AcDbLine
 10
344.704842
 20
288.907994
 30
0.0
 11
218.404842
 21
288.907994
 31
0.0
  0
LINE
  5
121
330
1F
100
AcDbEntity
  8
NOCUT
100
AcDbLine
 10
344.704842
 20
292.688634
 30
0.0
 11
344.704842
 21
288.907994
 31
0.0
  0
LINE
  5
122
330
1F
100
AcDbEntity
  8
NOCUT
100
AcDbLine
 10
218.404842
 20
299.407994
 30
0.0
 11
220.404842
 21
301.407994
 31
0.0
  0
LINE
  5
123
330
1F
100
AcDbEntity
  8
NOCUT
100
AcDbLine
 10
279.404842
 20
306.407994
 30
0.0
 11
281.21855
 21
304.594285
 31
0.0
  0
LINE
  5
124
330
1F
100
AcDbEntity
  8
NOCUT
100
AcDbLine
 10
292.532259
 20
299.907994
 30
0.0
 11
344.387182
 21
299.907994
 31
0.0
  0
LINE
  5
125
330
1F
100
AcDbEntity
  8
NOCUT
100
AcDbLine
 10
344.387182
 20
299.907994
 30
0.0
 11
344.704842
 21
292.688634
 31
0.0
  0
LINE
  5
126
330
1F
100
AcDbEntity
  8
NOCUT
100
AcDbLine
 10
274.404842
 20
301.407994
 30
0.0
 11
220.404842
 21
301.407994
 31
0.0
  0
LINE
  5
127
330
1F
100
AcDbEntity
  8
NOCUT
100
AcDbLine
 10
218.404842
 20
299.407994
 30
0.0
 11
218.404842
 21
288.907994
 31
0.0
  0
LINE
  5
128
330
1F
100
AcDbEntity
  8
NOCUT
100
AcDbLine
 10
279.404842
 20
306.407994
 30
0.0
 11
274.904842
 21
306.407994
 31
0.0
  0
ARC
  5
131
330
1F
100
AcDbEntity
  8
1
100
AcDbCircle
 10
341.278336
 20
286.082145
 30
0.0
 40
1.25
100
AcDbArc
 50
75.0
 51
345.0
  0
CIRCLE
  5
132
330
1F
100
AcDbEntity
  8
1
100
AcDbCircle
 10
341.278336
 20
286.082145
 30
0.0
 40
0.8499999999999991
  0
ARC
  5
133
330
1F
100
AcDbEntity
  8
1
100
AcDbCircle
 10
292.532259
 20
261.907994
 30
0.0
 40
16.0
100
AcDbArc
 50
101.137936
 51
135.0
  0
ARC
  5
134
330
1F
100
AcDbEntity
  8
1
100
AcDbCircle
 10
292.532259
 20
315.907994
 30
0.0
 40
16.0
100
AcDbArc
 50
225.0
 51
270.0
  0
ARC
  5
143
330
1F
100
AcDbEntity
  8
NOCUT
100
AcDbCircle
 10
292.532259
 20
315.907994
 30
0.0
 40
16.0
100
AcDbArc
 50
225.0
 51
270.0
  0
ELLIPSE
  5
144
330
1F
100
AcDbEntity
  8
1
100
AcDbEllipse
 10
337.5493140000001
 20
303.884416
 30
0.0
 11
-12.1732727756235
 21
3.251373545174991
 31
0.0
210
0.0
220
0.0
230
1.0
 40
0.9977149999999999
 41
1.579451963452909
 42
1.875432128371008
  0
ELLIPSE
  5
145
330
1F
100
AcDbEntity
  8
1
100
AcDbEllipse
 10
340.18789
 20
296.9638339999999
 30
0.0
 11
-0.0965221760105445
 21
0.0257802199447827
 31
0.0
210
0.0
220
0.0
230
1.0
 40
0.9977149999999999
 41
3.121459149686738
 42
3.970394302097584
  0
ELLIPSE
  5
146
330
1F
100
AcDbEntity
  8
1
100
AcDbEllipse
 10
340.356261
 20
297.070964
 30
0.0
 11
-0.0965221760105447
 21
0.0257802199447827
 31
0.0
210
0.0
220
0.0
230
1.0
 40
0.9977149999999999
 41
5.739453027678207
 42
7.111986955687171
  0
ELLIPSE
  5
147
330
1F
100
AcDbEntity
  8
1
100
AcDbEllipse
 10
340.672593
 20
296.742825
 30
0.0
 11
-0.5371411886095508
 21
0.1434656630849622
 31
0.0
210
0.0
220
0.0
230
1.0
 40
0.9977149999999999
 41
4.819329454508387
 42
5.739453027678243
  0
ELLIPSE
  5
148
330
1F
100
AcDbEntity
  8
1
100
AcDbEllipse
 10
340.742308
 20
297.192487
 30
0.0
 11
-0.0965221760105445
 21
0.0257802199447827
 31
0.0
210
0.0
220
0.0
230
1.0
 40
0.9977149999999999
 41
3.446795526499167
 42
4.819329454508456
  0
ELLIPSE
  5
149
330
1F
100
AcDbEntity
  8
1
100
AcDbEllipse
 10
340.941889
 20
297.201184
 30
0.0
 11
-0.0965221760105445
 21
0.0257802199447827
 31
0.0
210
0.0
220
0.0
230
0.9999999999999996
 40
0.9977149999999999
 41
0.3052028729094718
 42
1.154138025320124
  0
ELLIPSE
  5
14A
330
1F
100
AcDbEntity
  8
1
100
AcDbEllipse
 10
341.227582
 20
297.555557
 30
0.0
 11
-0.5371411886095507
 21
0.1434656630849622
 31
0.0
210
0.0
220
0.0
230
1.0
 40
0.9977149999999999
 41
1.154138025320281
 42
2.074261598490092
  0
ELLIPSE
  5
14B
330
1F
100
AcDbEntity
  8
1
100
AcDbEllipse
 10
341.337317
 20
297.113715
 30
0.0
 11
-0.0965221760105445
 21
0.0257802199447827
 31
0.0
210
0.0
220
0.0
230
1.0
 40
0.9977149999999999
 41
2.074261598490116
 42
2.923196750901001
  0
ELLIPSE
  5
14C
330
1F
100
AcDbEntity
  8
1
100
AcDbEllipse
 10
341.5146299999999
 20
297.021649
 30
0.0
 11
-0.0965221760105447
 21
0.0257802199447827
 31
0.0
210
0.0
220
0.0
230
1.0
 40
0.9977149999999999
 41
4.692255476481771
 42
6.064789404490747
  0
ELLIPSE
  5
14D
330
1F
100
AcDbEntity
  8
1
100
AcDbEllipse
 10
341.388367
 20
296.584495
 30
0.0
 11
-0.5371411886095508
 21
0.1434656630849622
 31
0.0
210
0.0
220
0.0
230
1.0
 40
0.9977149999999999
 41
3.77213190331179
 42
4.692255476481606
  0
ELLIPSE
  5
14E
330
1F
100
AcDbEntity
  8
1
100
AcDbEllipse
 10
341.813486
 20
296.748626
 30
0.0
 11
-0.0965221760105445
 21
0.0257802199447827
 31
0.0
210
0.0
220
0.0
230
1.0
 40
0.9977149999999999
 41
2.399597975302643
 42
3.772131903311796
  0
ELLIPSE
  5
14F
330
1F
100
AcDbEntity
  8
1
100
AcDbEllipse
 10
341.92102
 20
296.580467
 30
0.0
 11
-0.0965221760105445
 21
0.0257802199447827
 31
0.0
210
0.0
220
0.0
230
0.9999999999999996
 40
0.9977149999999999
 41
5.541190628892356
 42
6.390125781303307
  0
ELLIPSE
  5
150
330
1F
100
AcDbEntity
  8
1
100
AcDbEllipse
 10
342.371655
 20
296.5103759999999
 30
0.0
 11
-0.5371411886095507
 21
0.1434656630849622
 31
0.0
210
0.0
220
0.0
230
1.0
 40
0.9977149999999999
 41
0.106940474123692
 42
1.027064047293527
  0
ELLIPSE
  5
151
330
1F
100
AcDbEntity
  8
1
100
AcDbEllipse
 10
342.043225
 20
296.195046
 30
0.0
 11
-0.0965221760105445
 21
0.0257802199447827
 31
0.0
210
0.0
220
0.0
230
1.0
 40
0.9977149999999999
 41
1.027064047293482
 42
1.875999199704476
  0
ELLIPSE
  5
152
330
1F
100
AcDbEntity
  8
1
100
AcDbEllipse
 10
342.052167
 20
295.9958509999999
 30
0.0
 11
-0.0965221760105447
 21
0.0257802199447827
 31
0.0
210
0.0
220
0.0
230
1.0
 40
0.9977149999999999
 41
3.645057925285076
 42
5.017591853294292
  0
ELLIPSE
  5
153
330
1F
100
AcDbEntity
  8
1
100
AcDbEllipse
 10
341.609572
 20
295.886836
 30
0.0
 11
-0.5371411886095508
 21
0.1434656630849622
 31
0.0
210
0.0
220
0.0
230
1.0
 40
0.9977149999999999
 41
2.724934352115175
 42
3.645057925285036
  0
ELLIPSE
  5
154
330
1F
100
AcDbEntity
  8
1
100
AcDbEllipse
 10
341.964975
 20
295.601305
 30
0.0
 11
-0.0965221760105445
 21
0.0257802199447827
 31
0.0
210
0.0
220
0.0
230
1.0
 40
0.9977149999999999
 41
1.352400424106167
 42
2.72493435211529
  0
ELLIPSE
  5
155
330
1F
100
AcDbEntity
  8
1
100
AcDbEllipse
 10
341.872929
 20
295.424448
 30
0.0
 11
-0.0965221760105445
 21
0.0257802199447827
 31
0.0
210
0.0
220
0.0
230
0.9999999999999996
 40
0.9977149999999999
 41
4.493993077695768
 42
5.342928230106494
  0
ELLIPSE
  5
156
330
1F
100
AcDbEntity
  8
1
100
AcDbEllipse
 10
342.037871
 20
294.999985
 30
0.0
 11
-0.5371411886095507
 21
0.1434656630849622
 31
0.0
210
0.0
220
0.0
230
1.0
 40
0.9977149999999999
 41
5.342928230106648
 42
6.263051803276519
  0
ELLIPSE
  5
157
330
1F
100
AcDbEntity
  8
1
100
AcDbEllipse
 10
341.599705
 20
295.1264959999999
 30
0.0
 11
-0.0965221760105445
 21
0.0257802199447827
 31
0.0
210
0.0
220
0.0
230
1.0
 40
0.9977149999999999
 41
6.263051803276492
 42
7.111986955687406
  0
ELLIPSE
  5
158
330
1F
100
AcDbEntity
  8
1
100
AcDbEllipse
 10
341.431334
 20
295.019367
 30
0.0
 11
-0.0965221760105447
 21
0.0257802199447827
 31
0.0
210
0.0
220
0.0
230
1.0
 40
0.9977149999999999
 41
2.597860374088475
 42
3.970394302097483
  0
ELLIPSE
  5
159
330
1F
100
AcDbEntity
  8
1
100
AcDbEllipse
 10
341.115003
 20
295.347506
 30
0.0
 11
-0.5371411886095508
 21
0.1434656630849622
 31
0.0
210
0.0
220
0.0
230
1.0
 40
0.9977149999999999
 41
1.677736800918594
 42
2.59786037408846
  0
ELLIPSE
  5
15A
330
1F
100
AcDbEntity
  8
1
100
AcDbEllipse
 10
341.045287
 20
294.897844
 30
0.0
 11
-0.0965221760105445
 21
0.0257802199447827
 31
0.0
210
0.0
220
0.0
230
1.0
 40
0.9977149999999999
 41
0.3052028729094756
 42
1.677736800918508
  0
ELLIPSE
  5
15B
330
1F
100
AcDbEntity
  8
1
100
AcDbEllipse
 10
340.845707
 20
294.889147
 30
0.0
 11
-0.0965221760105445
 21
0.0257802199447827
 31
0.0
210
0.0
220
0.0
230
0.9999999999999996
 40
0.9977149999999999
 41
3.4467955264992
 42
4.295730678910032
  0
ELLIPSE
  5
15C
330
1F
100
AcDbEntity
  8
1
100
AcDbEllipse
 10
340.560014
 20
294.534774
 30
0.0
 11
-0.5371411886095507
 21
0.1434656630849622
 31
0.0
210
0.0
220
0.0
230
1.0
 40
0.9977149999999999
 41
4.295730678910032
 42
5.215854252079891
  0
ELLIPSE
  5
15D
330
1F
100
AcDbEntity
  8
1
100
AcDbEllipse
 10
340.893798
 20
296.045165
 30
0.0
 11
1.449199139955179
 21
-0.3870682791874981
 31
0.0
210
0.0
220
0.0
230
1.0
 40
0.9977149999999999
 41
0.0
 42
6.283185307179585
  0
ELLIPSE
  5
15E
330
1F
100
AcDbEntity
  8
1
100
AcDbEllipse
 10
340.896584
 20
296.0555990000001
 30
0.0
 11
2.02887879593725
 21
-0.5418955908624974
 31
0.0
210
0.0
220
0.0
230
1.0
 40
0.9977149999999998
 41
0.0
 42
6.283185307179585
  0
ELLIPSE
  5
15F
330
1F
100
AcDbEntity
  8
1
100
AcDbEllipse
 10
337.601367
 20
288.907993
 30
0.0
 11
0.4635404576594329
 21
-10.99999607553634
 31
0.0
210
0.0
220
0.0
230
1.0
 40
0.020196
 41
3.021031045562031
 42
3.108899859045676
  0
ELLIPSE
  5
160
330
1F
100
AcDbEntity
  8
1
100
AcDbEllipse
 10
297.002725
 20
270.977479
 30
0.0
 11
-20.96031875575288
 21
4.411137329960105
 31
0.0
210
0.0
220
0.0
230
1.0
 40
0.6740610000000001
 41
6.085407276223957
 42
6.186462810580235
  0
ELLIPSE
  5
161
330
1F
100
AcDbEntity
  8
1
100
AcDbEllipse
 10
280.553658
 20
288.907993
 30
0.0
 11
234.0469761088127
 21
10.72733462150845
 31
0.0
210
0.0
220
0.0
230
1.0
 40
0.0104
 41
4.960710711926143
 42
4.982707132890242
  0
ELLIPSE
  5
162
330
1F
100
AcDbEntity
  8
1
100
AcDbEllipse
 10
337.834633
 20
292.724734
 30
0.0
 11
-1.062746035967131
 21
0.283850071404166
 31
0.0
210
0.0
220
0.0
230
1.0
 40
0.9977149999999998
 41
2.583509943738838
 42
2.815847662453748
  0
ELLIPSE
  5
163
330
1F
100
AcDbEntity
  8
1
100
AcDbEllipse
 10
337.888335
 20
292.925798
 30
0.0
 11
-1.06274603596713
 21
0.2838500714041656
 31
0.0
210
0.0
220
0.0
230
0.9999999999999998
 40
0.9977149999999998
 41
0.1041410942339736
 42
1.875999615090904
  0
ELLIPSE
  5
164
330
1F
100
AcDbEntity
  8
1
100
AcDbEllipse
 10
337.888335
 20
292.925798
 30
0.0
 11
-1.06274603596713
 21
0.2838500714041656
 31
0.0
210
0.0
220
0.0
230
0.9999999999999998
 40
0.9977149999999998
 41
1.875999615090904
 42
2.566757373474154
  0
ELLIPSE
  5
165
330
1F
100
AcDbEntity
  8
1
100
AcDbEllipse
 10
337.834633
 20
292.724734
 30
0.0
 11
-1.062746035967131
 21
0.283850071404166
 31
0.0
210
0.0
220
0.0
230
1.0
 40
0.9977149999999998
 41
5.638610566998331
 42
5.892812182635316
  0
ELLIPSE
  5
166
330
1F
100
AcDbEntity
  8
1
100
AcDbEllipse
 10
337.829402
 20
292.70515
 30
0.0
 11
1.062746035967131
 21
-0.2838500714041654
 31
0.0
210
0.0
220
0.0
230
1.0
 40
0.9977149999999998
 41
2.751219529045531
 42
4.347216513210535
  0
ELLIPSE
  5
167
330
1F
100
AcDbEntity
  8
1
100
AcDbEllipse
 10
337.167604
 20
288.907989
 30
0.0
 11
0.4635406506960165
 21
-11.00000037127737
 31
0.0
210
0.0
220
0.0
230
1.0
 40
0.020196
 41
3.265019711449267
 42
3.292362688732147
  0
ELLIPSE
  5
168
330
1F
100
AcDbEntity
  8
1
100
AcDbEllipse
 10
344.452754
 20
292.06669
 30
0.0
 11
0.0003729802237834
 21
0.5004811191546117
 31
0.0
210
0.0
220
0.0
230
0.9999999999999998
 40
0.140033
 41
3.212303616811486
 42
4.783099943609938
  0
ELLIPSE
  5
169
330
1F
100
AcDbEntity
  8
1
100
AcDbEllipse
 10
313.253609
 20
288.907994
 30
0.0
 11
71.4631768341862
 21
-8.132810017240242
 31
0.0
210
0.0
220
0.0
230
0.9999999999999996
 40
0.103642
 41
4.430021001327617
 42
4.507733398462718
  0
ELLIPSE
  5
16A
330
1F
100
AcDbEntity
  8
1
100
AcDbEllipse
 10
341.030733
 20
296.254049
 30
0.0
 11
2.024293893218509
 21
-0.540671003877413
 31
0.0
210
0.0
220
0.0
230
0.9999999999999998
 40
0.9977149999999999
 41
2.26830551697978
 42
2.728745374265056
  0
ELLIPSE
  5
16B
330
1F
100
AcDbEntity
  8
1
100
AcDbEllipse
 10
341.030733
 20
296.254049
 30
0.0
 11
2.024293893218509
 21
-0.540671003877413
 31
0.0
210
0.0
220
0.0
230
0.9999999999999998
 40
0.9977149999999999
 41
5.91294578168234
 42
6.283185307179585
  0
ELLIPSE
  5
16C
330
1F
100
AcDbEntity
  8
1
100
AcDbEllipse
 10
341.030733
 20
296.254049
 30
0.0
 11
2.024293893218509
 21
-0.540671003877413
 31
0.0
210
0.0
220
0.0
230
0.9999999999999998
 40
0.9977149999999999
 41
0.0
 42
0.873340249577242
  0
ELLIPSE
  5
16D
330
1F
100
AcDbEntity
  8
1
100
AcDbEllipse
 10
338.105412
 20
292.964499
 30
0.0
 11
0.9539746242305048
 21
1.042276062985576
 31
0.0
210
0.0
220
0.0
230
1.0
 40
0.022111
 41
0.9735594950322735
 42
1.528370527956126
  0
ELLIPSE
  5
16E
330
1F
100
AcDbEntity
  8
1
100
AcDbEllipse
 10
337.834501
 20
298.999403
 30
0.0
 11
1.042958970376789
 21
-0.9545996758375244
 31
0.0
210
0.0
220
0.0
230
1.0
 40
0.042396
 41
1.038063823939075
 42
1.592874856963786
  0
ELLIPSE
  5
16F
330
1F
100
AcDbEntity
  8
1
100
AcDbEllipse
 10
343.88108
 20
299.2628919999999
 30
0.0
 11
0.9539746232499744
 21
1.042276061930702
 31
0.0
210
0.0
220
0.0
230
0.9999999999999998
 40
0.022111
 41
1.528370527553714
 42
2.083181561032846
  0
ELLIPSE
  5
170
330
1F
100
AcDbEntity
  8
1
100
AcDbEllipse
 10
344.151991
 20
293.227989
 30
0.0
 11
1.04295897053187
 21
-0.954599675975961
 31
0.0
210
0.0
220
0.0
230
0.9999999999999998
 40
0.042396
 41
1.592874856913676
 42
2.147685889858256
  0
ELLIPSE
  5
171
330
1F
100
AcDbEntity
  8
1
100
AcDbEllipse
 10
341.0080660000001
 20
296.169184
 30
0.0
 11
-2.173798709932769
 21
0.580602418781249
 31
0.0
210
0.0
220
0.0
230
1.0
 40
0.9977149999999999
 41
0.0
 42
6.283185307179585
  0
ELLIPSE
  5
172
330
1F
100
AcDbEntity
  8
1
100
AcDbEllipse
 10
341.010943
 20
296.179956
 30
0.0
 11
2.081762203440895
 21
-0.5560202815110444
 31
0.0
210
0.0
220
0.0
230
1.0
 40
0.9977149999999999
 41
0.0
 42
6.283185307179585
  0
ELLIPSE
  5
173
330
1F
100
AcDbEntity
  8
1
100
AcDbEllipse
 10
340.911234
 20
296.1104460000001
 30
0.0
 11
-2.02887879593725
 21
0.5418955908624989
 31
0.0
210
0.0
220
0.0
230
1.0
 40
0.9977149999999998
 41
3.141668525145671
 42
6.283162874960766
  0
ELLIPSE
  5
174
330
1F
100
AcDbEntity
  8
1
100
AcDbEllipse
 10
340.450278
 20
294.976616
 30
0.0
 11
-0.0965221760105445
 21
0.0257802199447827
 31
0.0
210
0.0
220
0.0
230
1.0
 40
0.9977149999999999
 41
5.215854252079927
 42
6.064789404490812
  0
ELLIPSE
  5
175
330
1F
100
AcDbEntity
  8
1
100
AcDbEllipse
 10
340.272965
 20
295.0686819999999
 30
0.0
 11
-0.0965221760105447
 21
0.0257802199447827
 31
0.0
210
0.0
220
0.0
230
1.0
 40
0.9977149999999999
 41
1.550662822891978
 42
2.92319675090092
  0
ELLIPSE
  5
176
330
1F
100
AcDbEntity
  8
1
100
AcDbEllipse
 10
340.399228
 20
295.505835
 30
0.0
 11
-0.5371411886095508
 21
0.1434656630849622
 31
0.0
210
0.0
220
0.0
230
1.0
 40
0.9977149999999999
 41
0.6305392497219668
 42
1.55066282289185
  0
ELLIPSE
  5
177
330
1F
100
AcDbEntity
  8
1
100
AcDbEllipse
 10
339.97411
 20
295.341704
 30
0.0
 11
-0.0965221760105445
 21
0.0257802199447827
 31
0.0
210
0.0
220
0.0
230
1.0
 40
0.9977149999999999
 41
5.541190628892533
 42
6.913724556901562
  0
ELLIPSE
  5
178
330
1F
100
AcDbEntity
  8
1
100
AcDbEllipse
 10
339.866575
 20
295.509864
 30
0.0
 11
-0.0965221760105445
 21
0.0257802199447827
 31
0.0
210
0.0
220
0.0
230
0.9999999999999996
 40
0.9977149999999999
 41
2.399597975302564
 42
3.248533127713583
  0
ELLIPSE
  5
179
330
1F
100
AcDbEntity
  8
1
100
AcDbEllipse
 10
339.415941
 20
295.579954
 30
0.0
 11
-0.5371411886095507
 21
0.1434656630849622
 31
0.0
210
0.0
220
0.0
230
1.0
 40
0.9977149999999999
 41
3.248533127713481
 42
4.168656700883306
  0
ELLIPSE
  5
17A
330
1F
100
AcDbEntity
  8
1
100
AcDbEllipse
 10
339.744371
 20
295.895285
 30
0.0
 11
-0.0965221760105445
 21
0.0257802199447827
 31
0.0
210
0.0
220
0.0
230
1.0
 40
0.9977149999999999
 41
4.168656700883158
 42
5.017591853294177
  0
ELLIPSE
  5
17B
330
1F
100
AcDbEntity
  8
1
100
AcDbEllipse
 10
339.735429
 20
296.09448
 30
0.0
 11
-0.0965221760105447
 21
0.0257802199447827
 31
0.0
210
0.0
220
0.0
230
1.0
 40
0.9977149999999999
 41
0.5034652716952179
 42
1.875999199704283
  0
ELLIPSE
  5
17C
330
1F
100
AcDbEntity
  8
1
100
AcDbEllipse
 10
340.178023
 20
296.203494
 30
0.0
 11
-0.5371411886095508
 21
0.1434656630849622
 31
0.0
210
0.0
220
0.0
230
1.0
 40
0.9977149999999999
 41
5.866527005704978
 42
6.786650578874822
  0
ELLIPSE
  5
17D
330
1F
100
AcDbEntity
  8
1
100
AcDbEllipse
 10
339.82262
 20
296.489025
 30
0.0
 11
-0.0965221760105445
 21
0.0257802199447827
 31
0.0
210
0.0
220
0.0
230
1.0
 40
0.9977149999999999
 41
4.493993077695752
 42
5.866527005704996
  0
ELLIPSE
  5
17E
330
1F
100
AcDbEntity
  8
1
100
AcDbEllipse
 10
339.914666
 20
296.665882
 30
0.0
 11
-0.0965221760105445
 21
0.0257802199447827
 31
0.0
210
0.0
220
0.0
230
0.9999999999999996
 40
0.9977149999999999
 41
1.352400424106012
 42
2.201335576516815
  0
ELLIPSE
  5
17F
330
1F
100
AcDbEntity
  8
1
100
AcDbEllipse
 10
339.749725
 20
297.090346
 30
0.0
 11
-0.5371411886095507
 21
0.1434656630849622
 31
0.0
210
0.0
220
0.0
230
1.0
 40
0.9977149999999999
 41
2.201335576516845
 42
3.121459149686726
  0
ELLIPSE
  5
180
330
1F
100
AcDbEntity
  8
1
100
AcDbEllipse
 10
345.126047
 20
288.907994
 30
0.0
 11
1.190626463624669
 21
10.99875595732872
 31
0.0
210
0.0
220
0.0
230
0.9999999999999998
 40
0.138944
 41
1.954932354999529
 42
3.156632395651062
  0
ELLIPSE
  5
181
330
1F
100
AcDbEntity
  8
1
100
AcDbEllipse
 10
344.704842
 20
288.907994
 30
0.0
 11
0.0
 21
10.99999999970392
 31
0.0
210
0.0
220
0.0
230
1.0
 40
0.140541
 41
1.523596929572816
 42
1.939892612948039
  0
ELLIPSE
  5
182
330
1F
100
AcDbEntity
  8
1
100
AcDbEllipse
 10
297.904842
 20
281.378706
 30
0.0
 11
-1.348189520917754
 21
-5.846570363528317
 31
0.0
210
0.0
220
0.0
230
0.9999999999999998
 40
0.205081
 41
4.405418255428721
 42
5.357883795924355
  0
ELLIPSE
  5
183
330
1F
100
AcDbEntity
  8
1
100
AcDbEllipse
 10
344.023756
 20
282.4684069999999
 30
0.0
 11
0.0323262014608717
 21
0.29949668550386
 31
0.0
210
0.0
220
0.0
230
1.0
 40
0.139171
 41
1.58356817924268
 42
3.154364506043292
  0
ELLIPSE
  5
184
330
1F
100
AcDbEntity
  8
1
100
AcDbEllipse
 10
344.28603
 20
289.2093069999999
 30
0.0
 11
0.0001054973293698
 21
-0.3000466005998875
 31
0.0
210
0.0
220
0.0
230
1.0
 40
0.140519
 41
3.13909047597003
 42
4.709886802762968
  0
ELLIPSE
  5
185
330
1F
100
AcDbEntity
  8
1
100
AcDbEllipse
 10
337.829402
 20
292.70515
 30
0.0
 11
1.062746035967131
 21
-0.2838500714041654
 31
0.0
210
0.0
220
0.0
230
1.0
 40
0.9977149999999998
 41
5.636696925084113
 42
5.72510259732863
  0
ELLIPSE
  5
186
330
1F
100
AcDbEntity
  8
1
100
AcDbEllipse
 10
337.472467
 20
288.907994
 30
0.0
 11
0.3846530381577669
 21
-10.99986529392005
 31
0.0
210
0.0
220
0.0
230
1.0
 40
0.141526
 41
3.104801947572735
 42
3.261278269452088
  0
ELLIPSE
  5
187
330
1F
100
AcDbEntity
  8
1
100
AcDbEllipse
 10
338.818532
 20
288.907994
 30
0.0
 11
18.86928000143007
 21
-10.85220596922857
 31
0.0
210
0.0
220
0.0
230
1.0
 40
0.09524
 41
3.724494346546651
 42
4.362488518371629
  0
SPLINE
  5
18D
330
1F
100
AcDbEntity
  8
1
100
AcDbSpline
210
0.0
220
0.0
230
1.0
 70
     8
 71
     3
 72
    20
 73
    16
 74
     0
 42
0.000000001
 43
0.0000000001
 40
0.0
 40
0.0
 40
0.0
 40
0.0
 40
0.1250000000000021
 40
0.1250000000000021
 40
0.2500000000000042
 40
0.2500000000000042
 40
0.3750000000000062
 40
0.3750000000000062
 40
0.5000000000000082
 40
0.5000000000000082
 40
0.6250000000000103
 40
0.6250000000000103
 40
0.7500000000000123
 40
0.7500000000000123
 40
1.0
 40
1.0
 40
1.0
 40
1.0
 10
341.0537652772734
 20
294.8882611657138
 30
0.0
 10
341.0478801922303
 20
294.8892147831236
 30
0.0
 10
341.0421813186186
 20
294.890685629744
 30
0.0
 10
341.0311364028959
 20
294.8946055490321
 30
0.0
 10
341.0257404577218
 20
294.8970863933841
 30
0.0
 10
341.0155922565563
 20
294.902894139676
 30
0.0
 10
341.0108486092225
 20
294.9062012040537
 30
0.0
 10
341.0019901193847
 20
294.9135804330138
 30
0.0
 10
340.9978424981638
 20
294.9176938182286
 30
0.0
 10
340.9903674663754
 20
294.9265087684211
 30
0.0
 10
340.9870597823387
 20
294.9311708157777
 30
0.0
 10
340.9812598966683
 20
294.9409761219944
 30
0.0
 10
340.9787581086726
 20
294.946145515468
 30
0.0
 10
340.9725804323733
 20
294.9622269099034
 30
0.0
 10
340.9703164408337
 20
294.9733286088728
 30
0.0
 10
340.9698846432054
 20
294.9848040086329
 30
0.0
  0
SPLINE
  5
18E
330
1F
100
AcDbEntity
  8
1
100
AcDbSpline
210
0.0
220
0.0
230
1.0
 70
     8
 71
     3
 72
    21
 73
    17
 74
     0
 42
0.000000001
 43
0.0000000001
 40
0.0
 40
0.0
 40
0.0
 40
0.0
 40
0.250000000000184
 40
0.250000000000184
 40
0.3125000000001776
 40
0.3125000000001776
 40
0.3750000000001713
 40
0.3750000000001713
 40
0.5000000000001588
 40
0.6250000000001462
 40
0.6250000000001462
 40
0.6875000000001135
 40
0.6875000000001135
 40
0.7500000000000809
 40
0.7500000000000809
 40
1.0
 40
1.0
 40
1.0
 40
1.0
 10
340.2690556378421
 20
295.0618386318609
 30
0.0
 10
340.2278026950098
 20
295.0734652745783
 30
0.0
 10
340.1884635524737
 20
295.0896923985391
 30
0.0
 10
340.1416853322959
 20
295.1157203555256
 30
0.0
 10
340.1324325026562
 20
295.1212302240111
 30
0.0
 10
340.1143782270378
 20
295.1327103058453
 30
0.0
 10
340.1055538569182
 20
295.138691762864
 30
0.0
 10
340.0796779956574
 20
295.1573471570505
 30
0.0
 10
340.0467656663364
 20
295.184112483362
 30
0.0
 10
340.0170094984837
 20
295.2146349054481
 30
0.0
 10
339.9959154672268
 20
295.2389828002096
 30
0.0
 10
339.9891040855612
 20
295.2473277222517
 30
0.0
 10
339.9760666985547
 20
295.2642839723937
 30
0.0
 10
339.9698182346177
 20
295.2729206639927
 30
0.0
 10
339.9399027956992
 20
295.3168826732999
 30
0.0
 10
339.9201642189672
 20
295.3545130434835
 30
0.0
 10
339.9047328393783
 20
295.3946698016281
 30
0.0
  0
SPLINE
  5
190
330
1F
100
AcDbEntity
  8
1
100
AcDbSpline
210
0.0
220
0.0
230
1.0
 70
     8
 71
     3
 72
   110
 73
   106
 74
     0
 42
0.000000001
 43
0.0000000001
 40
0.0
 40
0.0
 40
0.0
 40
0.0
 40
0.0156249999999987
 40
0.0156249999999987
 40
0.0312499999999974
 40
0.0312499999999974
 40
0.0468749999999961
 40
0.0468749999999961
 40
0.0624999999999949
 40
0.0781249999999936
 40
0.0781249999999936
 40
0.0937499999999923
 40
0.0937499999999923
 40
0.109374999999991
 40
0.109374999999991
 40
0.1249999999999897
 40
0.1249999999999897
 40
0.1562499999999884
 40
0.1562499999999884
 40
0.1874999999999871
 40
0.1874999999999871
 40
0.2031249999999862
 40
0.2031249999999862
 40
0.2187499999999853
 40
0.2343749999999845
 40
0.2343749999999845
 40
0.2499999999999836
 40
0.2499999999999836
 40
0.2656249999999827
 40
0.2656249999999827
 40
0.2812499999999818
 40
0.2812499999999818
 40
0.3124999999999804
 40
0.3124999999999804
 40
0.3281249999999799
 40
0.3281249999999799
 40
0.3437499999999794
 40
0.3437499999999794
 40
0.3593749999999789
 40
0.3593749999999789
 40
0.3749999999999784
 40
0.3906249999999779
 40
0.3906249999999779
 40
0.4062499999999775
 40
0.4062499999999775
 40
0.4218749999999769
 40
0.4218749999999769
 40
0.4374999999999764
 40
0.4374999999999764
 40
0.468749999999975
 40
0.468749999999975
 40
0.484374999999975
 40
0.484374999999975
 40
0.499999999999975
 40
0.499999999999975
 40
0.5312499999999745
 40
0.5312499999999745
 40
0.5468749999999745
 40
0.5468749999999745
 40
0.5624999999999746
 40
0.5624999999999746
 40
0.5781249999999746
 40
0.5781249999999746
 40
0.5937499999999747
 40
0.6093749999999747
 40
0.6093749999999747
 40
0.6249999999999747
 40
0.6249999999999747
 40
0.6562499999999759
 40
0.6562499999999759
 40
0.6874999999999769
 40
0.6874999999999769
 40
0.7031249999999782
 40
0.7031249999999782
 40
0.7187499999999793
 40
0.7187499999999793
 40
0.7343749999999805
 40
0.7343749999999805
 40
0.7499999999999816
 40
0.7656249999999827
 40
0.7656249999999827
 40
0.781249999999984
 40
0.781249999999984
 40
0.7968749999999849
 40
0.7968749999999849
 40
0.8124999999999861
 40
0.8124999999999861
 40
0.8437499999999886
 40
0.8437499999999886
 40
0.8593749999999896
 40
0.8593749999999896
 40
0.8749999999999907
 40
0.8749999999999907
 40
0.8906249999999921
 40
0.8906249999999921
 40
0.9062499999999932
 40
0.9218749999999944
 40
0.9218749999999944
 40
0.9374999999999953
 40
0.9374999999999953
 40
0.9531249999999968
 40
0.9531249999999968
 40
0.9687499999999978
 40
0.9687499999999978
 40
1.0
 40
1.0
 40
1.0
 40
1.0
 10
343.5479140079689
 20
284.9394935137007
 30
0.0
 10
343.5433408481741
 20
284.9142137560569
 30
0.0
 10
343.5388317300154
 20
284.8884182561948
 30
0.0
 10
343.5300041288061
 20
284.8361592867499
 30
0.0
 10
343.5256770361302
 20
284.809649033797
 30
0.0
 10
343.5171962605917
 20
284.7558670179719
 30
0.0
 10
343.5130352547649
 20
284.7285446641795
 30
0.0
 10
343.5049282068543
 20
284.6733988616705
 30
0.0
 10
343.497041738158
 20
284.6177988863701
 30
0.0
 10
343.4895929766209
 20
284.5612976716527
 30
0.0
 10
343.4823642046113
 20
284.5043434983093
 30
0.0
 10
343.4788683318657
 20
284.4757035637556
 30
0.0
 10
343.4721446872561
 20
284.4183743100444
 30
0.0
 10
343.4689116762371
 20
284.3896440368496
 30
0.0
 10
343.4627026553954
 20
284.3320525144546
 30
0.0
 10
343.459719313772
 20
284.3031133259186
 30
0.0
 10
343.4512348071136
 20
284.2168895515833
 30
0.0
 10
343.4461830816851
 20
284.160097137687
 30
0.0
 10
343.4372421546448
 20
284.0478392103443
 30
0.0
 10
343.4333530915757
 20
283.9923738550303
 30
0.0
 10
343.4284015460632
 20
283.9101825896793
 30
0.0
 10
343.4268954416536
 20
283.8828853349611
 30
0.0
 10
343.424208433784
 20
283.8291233426339
 30
0.0
 10
343.4218414615207
 20
283.7761341350439
 30
0.0
 10
343.4201077929575
 20
283.7246741555265
 30
0.0
 10
343.4186914176069
 20
283.6739803387334
 30
0.0
 10
343.4181444505937
 20
283.6490985492941
 30
0.0
 10
343.417371865569
 20
283.6003967017957
 30
0.0
 10
343.4171455866141
 20
283.5765533644077
 30
0.0
 10
343.4170117934275
 20
283.5298778578635
 30
0.0
 10
343.4171049341666
 20
283.5070099846245
 30
0.0
 10
343.4178609403021
 20
283.4403022856963
 30
0.0
 10
343.4189958951447
 20
283.3982947609749
 30
0.0
 10
343.4216390130023
 20
283.3389574652036
 30
0.0
 10
343.4226752064341
 20
283.319848684406
 30
0.0
 10
343.4250482017868
 20
283.2830772643681
 30
0.0
 10
343.4263858490783
 20
283.2653951787904
 30
0.0
 10
343.4293629379933
 20
283.2314359061388
 30
0.0
 10
343.4310054357463
 20
283.2151348485353
 30
0.0
 10
343.4345760308343
 20
283.184110523267
 30
0.0
 10
343.4384321469608
 20
283.1546463369879
 30
0.0
 10
343.4428558035095
 20
283.1282832950083
 30
0.0
 10
343.4475649692587
 20
283.1034803273334
 30
0.0
 10
343.4500568313234
 20
283.0918911940408
 30
0.0
 10
343.455296416618
 20
283.0704056525939
 30
0.0
 10
343.4580465872266
 20
283.0604961049432
 30
0.0
 10
343.4638081435429
 20
283.0423463903044
 30
0.0
 10
343.4668262904334
 20
283.0340921276774
 30
0.0
 10
343.4762149404447
 20
283.0120062855076
 30
0.0
 10
343.4829190022089
 20
283.0008126430159
 30
0.0
 10
343.4936354884793
 20
282.989261632033
 30
0.0
 10
343.4973180507244
 20
282.9862871914357
 30
0.0
 10
343.5049068670276
 20
282.9821130437388
 30
0.0
 10
343.5088219484669
 20
282.9809137275167
 30
0.0
 10
343.5208366760673
 20
282.98004534909
 30
0.0
 10
343.5291960375157
 20
282.9830752403628
 30
0.0
 10
343.5422646878145
 20
282.9930879451938
 30
0.0
 10
343.5467071448225
 20
282.9973414819235
 30
0.0
 10
343.5557084556555
 20
283.0076285939467
 30
0.0
 10
343.5602746931961
 20
283.0136671320996
 30
0.0
 10
343.5695389588932
 20
283.0275427205659
 30
0.0
 10
343.5742419951438
 20
283.0353890529655
 30
0.0
 10
343.5837599496773
 20
283.0528704115354
 30
0.0
 10
343.5933605197067
 20
283.0720832211737
 30
0.0
 10
343.6031259594873
 20
283.0947513620918
 30
0.0
 10
343.6129747026828
 20
283.1191653714505
 30
0.0
 10
343.6179458257523
 20
283.1322621064089
 30
0.0
 10
343.6328799479945
 20
283.1739182776415
 30
0.0
 10
343.6428993119483
 20
283.2049190430936
 30
0.0
 10
343.6630429607854
 20
283.2734258756495
 30
0.0
 10
343.6730639516745
 20
283.3105782670068
 30
0.0
 10
343.6880188263611
 20
283.3706759241753
 30
0.0
 10
343.6929962718942
 20
283.3914646388148
 30
0.0
 10
343.7028533797734
 20
283.434214028533
 30
0.0
 10
343.7077413030631
 20
283.4562061253133
 30
0.0
 10
343.7174357908674
 20
283.5014266038968
 30
0.0
 10
343.7222465285212
 20
283.5246759243759
 30
0.0
 10
343.7317675013596
 20
283.5723382421393
 30
0.0
 10
343.7411522167176
 20
283.6209822096367
 30
0.0
 10
343.7502662114953
 20
283.6715765492171
 30
0.0
 10
343.7592439715246
 20
283.7231523747622
 30
0.0
 10
343.7636654213052
 20
283.7494395717031
 30
0.0
 10
343.7723050912893
 20
283.8026017361531
 30
0.0
 10
343.7765319242086
 20
283.8295249373071
 30
0.0
 10
343.7847998509117
 20
283.8840546026046
 30
0.0
 10
343.7888472261589
 20
283.9117060021025
 30
0.0
 10
343.8006614568311
 20
283.9953683073209
 30
0.0
 10
343.8080758193634
 20
284.0518852698191
 30
0.0
 10
343.8185084072071
 20
284.1377678565585
 30
0.0
 10
343.8218659488434
 20
284.1665456819578
 30
0.0
 10
343.8283026386304
 20
284.2240521823903
 30
0.0
 10
343.8313878323622
 20
284.2528299559132
 30
0.0
 10
343.8372928927781
 20
284.3104343699494
 30
0.0
 10
343.8401175009182
 20
284.3393135828587
 30
0.0
 10
343.845470800596
 20
284.3968126834688
 30
0.0
 10
343.8505288911316
 20
284.4540461034177
 30
0.0
 10
343.8550027947574
 20
284.5107537701218
 30
0.0
 10
343.8591839403632
 20
284.5671979621122
 30
0.0
 10
343.8611214478539
 20
284.5952021004582
 30
0.0
 10
343.8646814718413
 20
284.6505944999012
 30
0.0
 10
343.8663061840683
 20
284.6780122069257
 30
0.0
 10
343.8692462725942
 20
284.7322929015521
 30
0.0
 10
343.8705631177366
 20
284.759196176438
 30
0.0
 10
343.8740262881399
 20
284.838583618523
 30
0.0
 10
343.875694898899
 20
284.8898591781077
 30
0.0
 10
343.8767275780463
 20
284.9394935136968
 30
0.0
  0
SPLINE
  5
191
330
1F
100
AcDbEntity
  8
1
100
AcDbSpline
210
0.0
220
0.0
230
1.0
 70
     8
 71
     3
 72
    56
 73
    52
 74
     0
 42
0.000000001
 43
0.0000000001
 40
0.0
 40
0.0
 40
0.0
 40
0.0
 40
0.0624999999999955
 40
0.0624999999999955
 40
0.0937499999999937
 40
0.0937499999999937
 40
0.124999999999992
 40
0.124999999999992
 40
0.1562499999999901
 40
0.1562499999999901
 40
0.1874999999999884
 40
0.2187499999999866
 40
0.2187499999999866
 40
0.2499999999999848
 40
0.2499999999999848
 40
0.3124999999999822
 40
0.3124999999999822
 40
0.3749999999999796
 40
0.3749999999999796
 40
0.4062499999999793
 40
0.4062499999999793
 40
0.4374999999999788
 40
0.4687499999999785
 40
0.4687499999999785
 40
0.499999999999978
 40
0.499999999999978
 40
0.5312499999999777
 40
0.5312499999999777
 40
0.5624999999999774
 40
0.5624999999999774
 40
0.6249999999999777
 40
0.6249999999999777
 40
0.6562499999999783
 40
0.6562499999999783
 40
0.6874999999999789
 40
0.6874999999999789
 40
0.7187499999999796
 40
0.7187499999999796
 40
0.7499999999999803
 40
0.7499999999999803
 40
0.812499999999984
 40
0.812499999999984
 40
0.8437499999999866
 40
0.8437499999999866
 40
0.8749999999999891
 40
0.8749999999999891
 40
0.906249999999992
 40
0.906249999999992
 40
0.9374999999999944
 40
0.9374999999999944
 40
1.0
 40
1.0
 40
1.0
 40
1.0
 10
343.8767275780467
 20
284.9394935136973
 30
0.0
 10
343.8725184441555
 20
284.9903824187661
 30
0.0
 10
343.86785913392
 20
285.0394118198365
 30
0.0
 10
343.8601790707702
 20
285.1101012643009
 30
0.0
 10
343.8575090419017
 20
285.1331285313289
 30
0.0
 10
343.8519887756111
 20
285.1777830523433
 30
0.0
 10
343.8491331475682
 20
285.1994608265058
 30
0.0
 10
343.843231165043
 20
285.2415191932948
 30
0.0
 10
343.8401801830242
 20
285.2619283278821
 30
0.0
 10
343.8339077647958
 20
285.3012956148197
 30
0.0
 10
343.8274758994059
 20
285.3391512241763
 30
0.0
 10
343.8207273469785
 20
285.3740044050744
 30
0.0
 10
343.8138195215272
 20
285.4073475593449
 30
0.0
 10
343.8102835105113
 20
285.4232702947673
 30
0.0
 10
343.79950860539
 20
285.468434946001
 30
0.0
 10
343.7920803970659
 20
285.4952030307014
 30
0.0
 10
343.7767300415921
 20
285.5419588542685
 30
0.0
 10
343.7688882004683
 20
285.5617024177682
 30
0.0
 10
343.7568750946215
 20
285.5858586283198
 30
0.0
 10
343.7528218860427
 20
285.5930067406529
 30
0.0
 10
343.744680490578
 20
285.6053708572147
 30
0.0
 10
343.7364982894019
 20
285.615821960776
 30
0.0
 10
343.72823440245
 20
285.6224435526058
 30
0.0
 10
343.7199290959632
 20
285.6271233547785
 30
0.0
 10
343.7157666527253
 20
285.6284835262289
 30
0.0
 10
343.7074559317808
 20
285.6292348891765
 30
0.0
 10
343.703302503442
 20
285.6286292139042
 30
0.0
 10
343.6949995406546
 20
285.6254401038216
 30
0.0
 10
343.6908423407916
 20
285.62284882111
 30
0.0
 10
343.6784461785531
 20
285.6121133815852
 30
0.0
 10
343.6702814802596
 20
285.60103992749
 30
0.0
 10
343.6581858510289
 20
285.578464256218
 30
0.0
 10
343.6541905967656
 20
285.5699596678173
 30
0.0
 10
343.6463060582806
 20
285.551063915577
 30
0.0
 10
343.6424116815907
 20
285.5406634883637
 30
0.0
 10
343.6347194305841
 20
285.5179432657573
 30
0.0
 10
343.6309149618251
 20
285.5055978632611
 30
0.0
 10
343.6234532324058
 20
285.4791286282645
 30
0.0
 10
343.6197925342363
 20
285.4649989423961
 30
0.0
 10
343.6090210086323
 20
285.4199237958509
 30
0.0
 10
343.6021025886049
 20
285.3861775548318
 30
0.0
 10
343.592300261198
 20
285.3308483133229
 30
0.0
 10
343.5891232786048
 20
285.3116003060175
 30
0.0
 10
343.5829514332702
 20
285.2714837591134
 30
0.0
 10
343.5799552590449
 20
285.2505989424478
 30
0.0
 10
343.5741916635685
 20
285.2075222754439
 30
0.0
 10
343.5714182379338
 20
285.1852938396869
 30
0.0
 10
343.5660879542145
 20
285.1394578885962
 30
0.0
 10
343.5635269212524
 20
285.1158079038972
 30
0.0
 10
343.5562043961078
 20
285.0430819163928
 30
0.0
 10
343.5518141669383
 20
284.9923890446829
 30
0.0
 10
343.5479140079689
 20
284.9394935137007
 30
0.0
  0
SPLINE
  5
192
330
1F
100
AcDbEntity
  8
1
100
AcDbSpline
210
0.0
220
0.0
230
1.0
 70
     8
 71
     3
 72
     8
 73
     4
 74
     0
 42
0.000000001
 43
0.0000000001
 40
0.0
 40
0.0
 40
0.0
 40
0.0
 40
1.0
 40
1.0
 40
1.0
 40
1.0
 10
296.8885820232665
 20
299.9078218082242
 30
0.0
 10
296.8259641531862
 20
299.9079249164596
 30
0.0
 10
296.7639185297385
 20
299.9079916141154
 30
0.0
 10
296.7024231234968
 20
299.9079948864285
 30
0.0
  0
SPLINE
  5
193
330
1F
100
AcDbEntity
  8
1
100
AcDbSpline
210
0.0
220
0.0
230
1.0
 70
     8
 71
     3
 72
    29
 73
    25
 74
     0
 42
0.000000001
 43
0.0000000001
 40
0.0
 40
0.0
 40
0.0
 40
0.0
 40
0.1250000000000004
 40
0.1250000000000004
 40
0.2500000000000007
 40
0.2500000000000007
 40
0.3750000000000007
 40
0.3750000000000007
 40
0.4062500000000008
 40
0.4062500000000008
 40
0.4375000000000011
 40
0.5000000000000015
 40
0.5000000000000015
 40
0.6250000000000019
 40
0.6250000000000019
 40
0.7500000000000025
 40
0.7500000000000025
 40
0.7812500000000019
 40
0.7812500000000019
 40
0.8125000000000014
 40
0.8125000000000014
 40
0.8750000000000012
 40
0.8750000000000012
 40
1.0
 40
1.0
 40
1.0
 40
1.0
 10
279.4048419452957
 20
280.0204213208307
 30
0.0
 10
279.2119856461742
 20
279.926325938242
 30
0.0
 10
279.0262360354596
 20
279.8251334983001
 30
0.0
 10
278.668748601181
 20
279.6093446371531
 30
0.0
 10
278.4970103209361
 20
279.4947473369339
 30
0.0
 10
278.1678538741766
 20
279.2524848920013
 30
0.0
 10
278.0104318006919
 20
279.1248216719251
 30
0.0
 10
277.8231516990013
 20
278.956996939124
 30
0.0
 10
277.7861332872159
 20
278.9229794742902
 30
0.0
 10
277.7135210648733
 20
278.854544707958
 30
0.0
 10
277.6065862653125
 20
278.7511599938209
 30
0.0
 10
277.5055669819881
 20
278.6456427090337
 30
0.0
 10
277.3113910041534
 20
278.4319078477298
 30
0.0
 10
277.1923986519519
 20
278.2858271608362
 30
0.0
 10
276.9757911302609
 20
277.9870045910654
 30
0.0
 10
276.8781700258416
 20
277.8342632518533
 30
0.0
 10
276.7703355457004
 20
277.6393015447129
 30
0.0
 10
276.7494806925067
 20
277.6001066402283
 30
0.0
 10
276.7092265301939
 20
277.5213115065984
 30
0.0
 10
276.6899135888165
 20
277.4818794249327
 30
0.0
 10
276.6344531048833
 20
277.3635825172259
 30
0.0
 10
276.6007619240341
 20
277.2846782263354
 30
0.0
 10
276.5095292055478
 20
277.0479426820804
 30
0.0
 10
276.4617952118161
 20
276.8900932772272
 30
0.0
 10
276.4275178783125
 20
276.7324164162166
 30
0.0
  0
SPLINE
  5
194
330
1F
100
AcDbEntity
  8
1
100
AcDbSpline
210
0.0
220
0.0
230
1.0
 70
     8
 71
     3
 72
    24
 73
    20
 74
     0
 42
0.000000001
 43
0.0000000001
 40
0.0
 40
0.0
 40
0.0
 40
0.0
 40
0.1250000000000004
 40
0.2500000000000007
 40
0.2500000000000007
 40
0.3750000000000011
 40
0.3750000000000011
 40
0.5000000000000015
 40
0.5000000000000015
 40
0.6250000000000018
 40
0.6250000000000018
 40
0.6562500000000019
 40
0.6562500000000019
 40
0.6875000000000022
 40
0.7500000000000018
 40
0.7500000000000018
 40
0.875000000000001
 40
0.875000000000001
 40
1.0
 40
1.0
 40
1.0
 40
1.0
 10
281.2185504442805
 20
281.6400863258337
 30
0.0
 10
281.4428156338559
 20
281.819935888201
 30
0.0
 10
281.9035855585929
 20
282.1630413467885
 30
0.0
 10
282.3889512367801
 20
282.4731857945783
 30
0.0
 10
282.8868602115355
 20
282.766650062448
 30
0.0
 10
283.1420856150448
 20
282.9050436346479
 30
0.0
 10
283.6655263458266
 20
283.1646099474228
 30
0.0
 10
283.9337405083096
 20
283.2857853049733
 30
0.0
 10
284.4838353576969
 20
283.5099713165504
 30
0.0
 10
284.7657143802207
 20
283.6129860083892
 30
0.0
 10
285.1271976988609
 20
283.729498019067
 30
0.0
 10
285.1998882343011
 20
283.7521642257586
 30
0.0
 10
285.3456538672676
 20
283.7960854972505
 30
0.0
 10
285.5650552325308
 20
283.8599075222048
 30
0.0
 10
285.7867183474557
 20
283.9175110382388
 30
0.0
 10
286.2330740089011
 20
284.0242830894528
 30
0.0
 10
286.534682478849
 20
284.0842322102817
 30
0.0
 10
287.1460877466878
 20
284.1805546130977
 30
0.0
 10
287.4558858037084
 20
284.2169275932642
 30
0.0
 10
287.7698471485406
 20
284.2407280267559
 30
0.0
  0
SPLINE
  5
195
330
1F
100
AcDbEntity
  8
1
100
AcDbSpline
210
0.0
220
0.0
230
1.0
 70
     8
 71
     3
 72
    12
 73
     8
 74
     0
 42
0.000000001
 43
0.0000000001
 40
0.0
 40
0.0
 40
0.0
 40
0.0
 40
0.4999999999999997
 40
0.4999999999999997
 40
0.7499999999999999
 40
0.7499999999999999
 40
1.0
 40
1.0
 40
1.0
 40
1.0
 10
281.2185504442805
 20
281.6400863258337
 30
0.0
 10
280.9105196630039
 20
281.3930609122457
 30
0.0
 10
280.6050799242042
 20
281.1362471683275
 30
0.0
 10
280.1514368660382
 20
280.7327175220542
 30
0.0
 10
280.0009753914297
 20
280.5951479795866
 30
0.0
 10
279.7016679200951
 20
280.3131482831885
 30
0.0
 10
279.5528217483331
 20
280.1687198959441
 30
0.0
 10
279.4048419452957
 20
280.0204213208307
 30
0.0
  0
SPLINE
  5
196
330
1F
100
AcDbEntity
  8
1
100
AcDbSpline
210
0.0
220
0.0
230
1.0
 70
     8
 71
     3
 72
    14
 73
    10
 74
     0
 42
0.000000001
 43
0.0000000001
 40
0.0
 40
0.0
 40
0.0
 40
0.0
 40
0.25
 40
0.25
 40
0.5
 40
0.5
 40
0.75
 40
0.75
 40
1.0
 40
1.0
 40
1.0
 40
1.0
 10
338.5070934610405
 20
291.8398580537165
 30
0.0
 10
338.4766975775747
 20
291.8161598957518
 30
0.0
 10
338.4453608955644
 20
291.794215762081
 30
0.0
 10
338.3808424081892
 20
291.7537099147948
 30
0.0
 10
338.3476604807807
 20
291.735148754892
 30
0.0
 10
338.2794184942088
 20
291.7014210090338
 30
0.0
 10
338.2443492541852
 20
291.6862506677251
 30
0.0
 10
338.1722674400928
 20
291.6594618669914
 30
0.0
 10
338.1356239362703
 20
291.647979816907
 30
0.0
 10
338.0983488784005
 20
291.6384347240909
 30
0.0
  0
SPLINE
  5
197
330
1F
100
AcDbEntity
  8
1
100
AcDbSpline
210
0.0
220
0.0
230
1.0
 70
     8
 71
     3
 72
    18
 73
    14
 74
     0
 42
0.000000001
 43
0.0000000001
 40
0.0
 40
0.0
 40
0.0
 40
0.0
 40
0.2499999999999978
 40
0.2499999999999978
 40
0.3124999999999983
 40
0.3124999999999983
 40
0.3749999999999989
 40
0.3749999999999989
 40
0.5
 40
0.5
 40
0.7499999999999977
 40
0.7499999999999977
 40
1.0
 40
1.0
 40
1.0
 40
1.0
 10
333.6748676345702
 20
291.8657225599777
 30
0.0
 10
334.0309667780605
 20
291.7533244086767
 30
0.0
 10
334.3918035269697
 20
291.6564791941089
 30
0.0
 10
334.8487931883959
 20
291.5550337373466
 30
0.0
 10
334.9404888773515
 20
291.5357269477287
 30
0.0
 10
335.1244786157878
 20
291.4990893397948
 30
0.0
 10
335.2167686040054
 20
291.4817614938364
 30
0.0
 10
335.4936667705676
 20
291.4329042777797
 30
0.0
 10
335.6785922616065
 20
291.4044400387264
 30
0.0
 10
336.2343382824503
 20
291.3312530858227
 30
0.0
 10
336.6061264224267
 20
291.2987126061042
 30
0.0
 10
337.352275549809
 20
291.2660904470649
 30
0.0
 10
337.726636446291
 20
291.2660073514983
 30
0.0
 10
338.1023110151058
 20
291.2825176055023
 30
0.0
  0
SPLINE
  5
198
330
1F
100
AcDbEntity
  8
1
100
AcDbSpline
210
0.0
220
0.0
230
1.0
 70
     8
 71
     3
 72
     8
 73
     4
 74
     0
 42
0.000000001
 43
0.0000000001
 40
0.0
 40
0.0
 40
0.0
 40
0.0
 40
1.0
 40
1.0
 40
1.0
 40
1.0
 10
338.1023110151058
 20
291.2825176055023
 30
0.0
 10
338.106041653994
 20
291.2826815606933
 30
0.0
 10
338.1097731925703
 20
291.2828448623396
 30
0.0
 10
338.1135056321368
 20
291.2830075094954
 30
0.0
  0
SPLINE
  5
199
330
1F
100
AcDbEntity
  8
1
100
AcDbSpline
210
0.0
220
0.0
230
1.0
 70
     8
 71
     3
 72
    29
 73
    25
 74
     0
 42
0.000000001
 43
0.0000000001
 40
0.0
 40
0.0
 40
0.0
 40
0.0
 40
0.1250000000000069
 40
0.1250000000000069
 40
0.2500000000000138
 40
0.2500000000000138
 40
0.2812500000000142
 40
0.2812500000000142
 40
0.3125000000000145
 40
0.3750000000000153
 40
0.3750000000000153
 40
0.5000000000000167
 40
0.5000000000000167
 40
0.5312500000000151
 40
0.5312500000000151
 40
0.5625000000000133
 40
0.5625000000000133
 40
0.6250000000000126
 40
0.6250000000000126
 40
0.7500000000000085
 40
0.7500000000000085
 40
0.8750000000000042
 40
0.8750000000000042
 40
1.0
 40
1.0
 40
1.0
 40
1.0
 10
331.3791211462369
 20
290.9399534321748
 30
0.0
 10
331.6316829532449
 20
290.7827793221989
 30
0.0
 10
331.889791712458
 20
290.6356131337209
 30
0.0
 10
332.4168927290222
 20
290.3612742926534
 30
0.0
 10
332.6858846668629
 20
290.2341005091315
 30
0.0
 10
333.0288959973827
 20
290.0877681895918
 30
0.0
 10
333.0978726273522
 20
290.0591203069936
 30
0.0
 10
333.23623379653
 20
290.003203152156
 30
0.0
 10
333.4444447330297
 20
289.9213687506144
 30
0.0
 10
333.6546497398634
 20
289.8456279608408
 30
0.0
 10
334.0776936436828
 20
289.7022212258118
 30
0.0
 10
334.3632307846418
 20
289.6173718232109
 30
0.0
 10
334.7245135802206
 20
289.5247557085829
 30
0.0
 10
334.796988519968
 20
289.5069056584447
 30
0.0
 10
334.9423758403339
 20
289.4725555744657
 30
0.0
 10
335.0152070999933
 20
289.4560753992807
 30
0.0
 10
335.2337961628801
 20
289.4087755803589
 30
0.0
 10
335.3797788936324
 20
289.3800649229165
 30
0.0
 10
335.8184855690964
 20
289.3022806752817
 30
0.0
 10
336.1119667710098
 20
289.2615417897375
 30
0.0
 10
336.7009179349165
 20
289.2019809763038
 30
0.0
 10
336.9963879001236
 20
289.1831590510336
 30
0.0
 10
337.5893245241539
 20
289.1675326701276
 30
0.0
 10
337.8867910764622
 20
289.1707270582307
 30
0.0
 10
338.1852802654387
 20
289.1851968700616
 30
0.0
  0
SPLINE
  5
19A
330
1F
100
AcDbEntity
  8
1
100
AcDbSpline
210
0.0
220
0.0
230
1.0
 70
     8
 71
     3
 72
    76
 73
    72
 74
     0
 42
0.000000001
 43
0.0000000001
 40
0.0
 40
0.0
 40
0.0
 40
0.0
 40
0.0625000000000046
 40
0.0625000000000046
 40
0.1250000000000092
 40
0.1250000000000092
 40
0.1875000000000139
 40
0.1875000000000139
 40
0.203125000000015
 40
0.203125000000015
 40
0.2187500000000161
 40
0.2187500000000161
 40
0.2500000000000184
 40
0.2500000000000184
 40
0.2812500000000208
 40
0.2812500000000208
 40
0.2968750000000219
 40
0.2968750000000219
 40
0.312500000000023
 40
0.312500000000023
 40
0.3437500000000253
 40
0.3437500000000253
 40
0.3750000000000275
 40
0.3750000000000275
 40
0.3906250000000283
 40
0.3906250000000283
 40
0.4062500000000292
 40
0.4062500000000292
 40
0.4375000000000304
 40
0.4375000000000304
 40
0.4453125000000306
 40
0.4453125000000306
 40
0.453125000000031
 40
0.468750000000031
 40
0.468750000000031
 40
0.4843750000000311
 40
0.4843750000000311
 40
0.4921875000000315
 40
0.4921875000000315
 40
0.5000000000000316
 40
0.5156250000000319
 40
0.5156250000000319
 40
0.5234375000000315
 40
0.5234375000000315
 40
0.5312500000000309
 40
0.5312500000000309
 40
0.5625000000000289
 40
0.5625000000000289
 40
0.5937500000000268
 40
0.5937500000000268
 40
0.6093750000000259
 40
0.6093750000000259
 40
0.6250000000000249
 40
0.6250000000000249
 40
0.656250000000023
 40
0.656250000000023
 40
0.6875000000000212
 40
0.6875000000000212
 40
0.7187500000000192
 40
0.7187500000000192
 40
0.7500000000000173
 40
0.7500000000000173
 40
0.8125000000000115
 40
0.8125000000000115
 40
0.8437500000000095
 40
0.8437500000000095
 40
0.8750000000000078
 40
0.8750000000000078
 40
0.9375000000000039
 40
0.9375000000000039
 40
1.0
 40
1.0
 40
1.0
 40
1.0
 10
333.6748676345702
 20
291.8657225599777
 30
0.0
 10
333.8159671246378
 20
291.7911973267695
 30
0.0
 10
333.9549975811158
 20
291.7194475073735
 30
0.0
 10
334.2275079446708
 20
291.5809493300031
 30
0.0
 10
334.36099838729
 20
291.5142028166978
 30
0.0
 10
334.6204385212592
 20
291.385054711727
 30
0.0
 10
334.7463937963637
 20
291.3226557551786
 30
0.0
 10
334.8973510872359
 20
291.2468497185094
 30
0.0
 10
334.927213741832
 20
291.2317976158342
 30
0.0
 10
334.9862174692846
 20
291.2018959412612
 30
0.0
 10
335.0153780028105
 20
291.1870364054997
 30
0.0
 10
335.1015259373621
 20
291.1428081111767
 30
0.0
 10
335.1570922346799
 20
291.1138389347627
 30
0.0
 10
335.2637711469081
 20
291.0568027905434
 30
0.0
 10
335.3148885055758
 20
291.0287358831259
 30
0.0
 10
335.3874762961065
 20
290.9872054376358
 30
0.0
 10
335.4109882546409
 20
290.9734568422193
 30
0.0
 10
335.4564767944223
 20
290.9461303660216
 30
0.0
 10
335.4784615482701
 20
290.9325458871078
 30
0.0
 10
335.5414326337116
 20
290.8922648755907
 30
0.0
 10
335.5795951410642
 20
290.865961612248
 30
0.0
 10
335.6463108178732
 20
290.8143876769292
 30
0.0
 10
335.6748898904409
 20
290.7891144887741
 30
0.0
 10
335.7082193518677
 20
290.751990723031
 30
0.0
 10
335.7177282326727
 20
290.7397479928357
 30
0.0
 10
335.7329480092901
 20
290.7155464378029
 30
0.0
 10
335.7385695512572
 20
290.7037181461377
 30
0.0
 10
335.7486944665832
 20
290.6692290125413
 30
0.0
 10
335.7465643563299
 20
290.6474983756855
 30
0.0
 10
335.7294890471548
 20
290.6224234974607
 30
0.0
 10
335.7253583116398
 20
290.617538095705
 30
0.0
 10
335.7157018697561
 20
290.6081148612152
 30
0.0
 10
335.6991012047032
 20
290.594465276562
 30
0.0
 10
335.6760790421692
 20
290.5823122863688
 30
0.0
 10
335.6395491311559
 20
290.5675347727133
 30
0.0
 10
335.6183760553262
 20
290.5608571207732
 30
0.0
 10
335.5821159654593
 20
290.5520109374511
 30
0.0
 10
335.5692775501678
 20
290.5492606856911
 30
0.0
 10
335.5425104230136
 20
290.5442336356965
 30
0.0
 10
335.5005931052667
 20
290.5373691771354
 30
0.0
 10
335.4536801122364
 20
290.5324839658121
 30
0.0
 10
335.4038011985614
 20
290.5288667568902
 30
0.0
 10
335.3866801392138
 20
290.5278724977413
 30
0.0
 10
335.3515044893392
 20
290.5262998097949
 30
0.0
 10
335.3334074955642
 20
290.525720728312
 30
0.0
 10
335.2412750258303
 20
290.5238581185652
 30
0.0
 10
335.1627640824541
 20
290.5256342444174
 30
0.0
 10
334.999285000186
 20
290.5345511407565
 30
0.0
 10
334.9142927856231
 20
290.5417024629294
 30
0.0
 10
334.7834332297503
 20
290.5559308313668
 30
0.0
 10
334.7391881071591
 20
290.5612690478135
 30
0.0
 10
334.6504853344829
 20
290.572947341812
 30
0.0
 10
334.6059388444043
 20
290.5792957535447
 30
0.0
 10
334.4718577536782
 20
290.5997534323148
 30
0.0
 10
334.3818882007178
 20
290.6152698503813
 30
0.0
 10
334.2013327692219
 20
290.6496172723211
 30
0.0
 10
334.1107437238012
 20
290.6684507698549
 30
0.0
 10
333.9293086399315
 20
290.709141189859
 30
0.0
 10
333.8384609206963
 20
290.7309994028348
 30
0.0
 10
333.6567589484986
 20
290.7775359708607
 30
0.0
 10
333.5659037243713
 20
290.802215052336
 30
0.0
 10
333.2935965790547
 20
290.880267072911
 30
0.0
 10
333.1124188175129
 20
290.9376396375138
 30
0.0
 10
332.841869072173
 20
291.0311992330907
 30
0.0
 10
332.7518789475062
 20
291.063644580694
 30
0.0
 10
332.5728972630121
 20
291.1307928451372
 30
0.0
 10
332.4838359350634
 20
291.1655192472106
 30
0.0
 10
332.2179831233228
 20
291.2730881417721
 30
0.0
 10
332.042525409104
 20
291.3493134060324
 30
0.0
 10
331.6952975038969
 20
291.5106352465485
 30
0.0
 10
331.5235248699062
 20
291.595734744606
 30
0.0
 10
331.3536193680884
 20
291.6853128866715
 30
0.0
  0
SPLINE
  5
19B
330
1F
100
AcDbEntity
  8
1
100
AcDbSpline
210
0.0
220
0.0
230
1.0
 70
     8
 71
     3
 72
    38
 73
    34
 74
     0
 42
0.000000001
 43
0.0000000001
 40
0.0
 40
0.0
 40
0.0
 40
0.0
 40
0.1250000000000076
 40
0.1250000000000076
 40
0.2500000000000152
 40
0.2500000000000152
 40
0.3125000000000192
 40
0.3125000000000192
 40
0.3750000000000231
 40
0.3750000000000231
 40
0.4375000000000271
 40
0.4375000000000271
 40
0.5000000000000311
 40
0.5000000000000311
 40
0.5312500000000331
 40
0.5312500000000331
 40
0.5625000000000351
 40
0.5625000000000351
 40
0.5937500000000372
 40
0.5937500000000372
 40
0.6250000000000392
 40
0.6250000000000392
 40
0.6562500000000413
 40
0.6562500000000413
 40
0.6875000000000432
 40
0.6875000000000432
 40
0.7500000000000346
 40
0.7500000000000346
 40
0.8125000000000259
 40
0.8125000000000259
 40
0.8750000000000172
 40
0.8750000000000172
 40
1.0
 40
1.0
 40
1.0
 40
1.0
 10
333.1721823665806
 20
292.0637109475907
 30
0.0
 10
333.138222141206
 20
292.0778860087634
 30
0.0
 10
333.1056762201606
 20
292.0933438065413
 30
0.0
 10
333.0441395796875
 20
292.1274805059312
 30
0.0
 10
333.0151247419642
 20
292.1461374023554
 30
0.0
 10
332.9753487413869
 20
292.1775215637403
 30
0.0
 10
332.9627211123282
 20
292.1885555332068
 30
0.0
 10
332.9390917879361
 20
292.2121006153826
 30
0.0
 10
332.9280666797596
 20
292.2246642347765
 30
0.0
 10
332.9087899718818
 20
292.2510060611045
 30
0.0
 10
332.9004398989604
 20
292.2648723139657
 30
0.0
 10
332.8872717116145
 20
292.2942910552954
 30
0.0
 10
332.8825983749542
 20
292.3095161633901
 30
0.0
 10
332.8791773210708
 20
292.3333239216871
 30
0.0
 10
332.8786389363808
 20
292.3414225494128
 30
0.0
 10
332.8789576873762
 20
292.3579971214077
 30
0.0
 10
332.8798194467508
 20
292.3663443500042
 30
0.0
 10
332.8829882589096
 20
292.3829726857211
 30
0.0
 10
332.8852955096784
 20
292.3912832749818
 30
0.0
 10
332.8914223816429
 20
292.4078968913524
 30
0.0
 10
332.8952765099456
 20
292.4162425060147
 30
0.0
 10
332.9042620107701
 20
292.4324113812889
 30
0.0
 10
332.909407189126
 20
292.4402943510667
 30
0.0
 10
332.9209129599681
 20
292.4556848510198
 30
0.0
 10
332.9273071087398
 20
292.4632268261553
 30
0.0
 10
332.9479852937367
 20
292.4850829034328
 30
0.0
 10
332.9634595049819
 20
292.4983756626
 30
0.0
 10
332.996926326187
 20
292.5230553877583
 30
0.0
 10
333.0150511217855
 20
292.5344885488746
 30
0.0
 10
333.052195839024
 20
292.5552336882876
 30
0.0
 10
333.0713286891101
 20
292.5646409538471
 30
0.0
 10
333.1299944745869
 20
292.5906814465289
 30
0.0
 10
333.1709299411067
 20
292.6052022267624
 30
0.0
 10
333.2123622850099
 20
292.6176545312462
 30
0.0
  0
SPLINE
  5
19C
330
1F
100
AcDbEntity
  8
1
100
AcDbSpline
210
0.0
220
0.0
230
1.0
 70
     8
 71
     3
 72
    16
 73
    12
 74
     0
 42
0.000000001
 43
0.0000000001
 40
0.0
 40
0.0
 40
0.0
 40
0.0
 40
0.25
 40
0.5
 40
0.5
 40
0.75
 40
0.75
 40
0.8125
 40
0.8125
 40
0.875
 40
1.0
 40
1.0
 40
1.0
 40
1.0
 10
296.1359999753176
 20
278.0823051866759
 30
0.0
 10
296.275992780784
 20
278.0931949563295
 30
0.0
 10
296.5598262726933
 20
278.1133778457139
 30
0.0
 10
296.8514103976031
 20
278.1290562691686
 30
0.0
 10
297.1469796156385
 20
278.1419293882266
 30
0.0
 10
297.2967562020157
 20
278.1469634368884
 30
0.0
 10
297.4865940909689
 20
278.1512157444083
 30
0.0
 10
297.5247510968944
 20
278.1519653159263
 30
0.0
 10
297.601006617982
 20
278.1532494917172
 30
0.0
 10
297.7152567091368
 20
278.1548538843584
 30
0.0
 10
297.8291115342994
 20
278.1554923098553
 30
0.0
 10
297.9048419452957
 20
278.1554923098553
 30
0.0
  0
SPLINE
  5
19D
330
1F
100
AcDbEntity
  8
1
100
AcDbSpline
210
0.0
220
0.0
230
1.0
 70
     8
 71
     3
 72
    30
 73
    26
 74
     0
 42
0.000000001
 43
0.0000000001
 40
0.0
 40
0.0
 40
0.0
 40
0.0
 40
0.0639492689610507
 40
0.0639492689610507
 40
0.1490447899645909
 40
0.1490447899645909
 40
0.234140310968131
 40
0.234140310968131
 40
0.3192358319716712
 40
0.3192358319716712
 40
0.4043313529752113
 40
0.4043313529752113
 40
0.4468791134769813
 40
0.4468791134769813
 40
0.4894268739787514
 40
0.4894268739787514
 40
0.5745223949822929
 40
0.5745223949822929
 40
0.6596179159858342
 40
0.6596179159858342
 40
0.7447134369893757
 40
0.7447134369893757
 40
0.829808957992917
 40
0.829808957992917
 40
1.0
 40
1.0
 40
1.0
 40
1.0
 10
312.5653928259318
 20
279.9852236239315
 30
0.0
 10
312.2593000229193
 20
279.9165718149146
 30
0.0
 10
311.953376691014
 20
279.8491340686719
 30
0.0
 10
311.2403130830312
 20
279.6955472773943
 30
0.0
 10
310.833136304259
 20
279.6105869635856
 30
0.0
 10
310.0183139680576
 20
279.4474541115482
 30
0.0
 10
309.6106028397827
 20
279.3692693635012
 30
0.0
 10
308.7937533598425
 20
279.2204692573006
 30
0.0
 10
308.3846133989983
 20
279.1498535875974
 30
0.0
 10
307.5641948216963
 20
279.0165689652387
 30
0.0
 10
307.1529154090833
 20
278.9538980263412
 30
0.0
 10
306.5339764108434
 20
278.8658378407856
 30
0.0
 10
306.3273280593775
 20
278.8374726000106
 30
0.0
 10
305.9133072472977
 20
278.7826856336665
 30
0.0
 10
305.7059436934508
 20
278.7562654983019
 30
0.0
 10
305.0832120200947
 20
278.6799043041453
 30
0.0
 10
304.6670348578652
 20
278.632845304727
 30
0.0
 10
303.8324467897989
 20
278.5458192758696
 30
0.0
 10
303.4140365394343
 20
278.5058491978657
 30
0.0
 10
302.5748972594139
 20
278.4322642743339
 30
0.0
 10
302.1541689620138
 20
278.3986471166428
 30
0.0
 10
301.3103895676825
 20
278.3369877297235
 30
0.0
 10
300.8873391594012
 20
278.3089439449281
 30
0.0
 10
299.6147866377225
 20
278.2320260704975
 30
0.0
 10
298.7618727787975
 20
278.1903275277505
 30
0.0
 10
297.9048419452957
 20
278.1554923098553
 30
0.0
  0
SPLINE
  5
19E
330
1F
100
AcDbEntity
  8
1
100
AcDbSpline
210
0.0
220
0.0
230
1.0
 70
     8
 71
     3
 72
    14
 73
    10
 74
     0
 42
0.000000001
 43
0.0000000001
 40
0.0
 40
0.0
 40
0.0
 40
0.0
 40
0.25
 40
0.25
 40
0.5
 40
0.5
 40
0.75
 40
0.75
 40
1.0
 40
1.0
 40
1.0
 40
1.0
 10
292.5322589432653
 20
277.9617577793136
 30
0.0
 10
292.8313893267393
 20
277.969426553247
 30
0.0
 10
293.1307389333646
 20
277.9778213437022
 30
0.0
 10
293.7299157327889
 20
277.9959247259583
 30
0.0
 10
294.0297430726835
 20
278.0056351096807
 30
0.0
 10
294.6300520769805
 20
278.0261366640328
 30
0.0
 10
294.930534638203
 20
278.0369287443458
 30
0.0
 10
295.5324536922306
 20
278.0592191757848
 30
0.0
 10
295.8338915529076
 20
278.070717277183
 30
0.0
 10
296.135999975318
 20
278.0823051866759
 30
0.0
  0
SPLINE
  5
19F
330
1F
100
AcDbEntity
  8
1
100
AcDbSpline
210
0.0
220
0.0
230
1.0
 70
     8
 71
     3
 72
    25
 73
    21
 74
     0
 42
0.000000001
 43
0.0000000001
 40
0.0
 40
0.0
 40
0.0
 40
0.0
 40
0.1250000000000268
 40
0.2500000000000535
 40
0.2500000000000535
 40
0.3125000000000669
 40
0.3125000000000669
 40
0.3750000000000803
 40
0.3750000000000803
 40
0.5000000000000642
 40
0.5000000000000642
 40
0.6250000000000481
 40
0.6250000000000481
 40
0.6875000000000401
 40
0.6875000000000401
 40
0.7500000000000321
 40
0.7500000000000321
 40
0.8750000000000159
 40
0.8750000000000159
 40
1.0
 40
1.0
 40
1.0
 40
1.0
 10
338.0983488784005
 20
291.6384347240909
 30
0.0
 10
338.0592064254218
 20
291.628411443965
 30
0.0
 10
337.9804850947444
 20
291.6128729134968
 30
0.0
 10
337.9009067255367
 20
291.6061550382902
 30
0.0
 10
337.8408978468798
 20
291.6044580929762
 30
0.0
 10
337.8208406080578
 20
291.6044504213066
 30
0.0
 10
337.7806157788029
 20
291.6055697644704
 30
0.0
 10
337.760382191418
 20
291.6067033506847
 30
0.0
 10
337.7000705386832
 20
291.6117950190847
 30
0.0
 10
337.6604335733333
 20
291.6174149505143
 30
0.0
 10
337.5822133022816
 20
291.6329189724987
 30
0.0
 10
337.5436299481922
 20
291.6428031595168
 30
0.0
 10
337.4864956964369
 20
291.6608116420529
 30
0.0
 10
337.4675745866803
 20
291.6673461091447
 30
0.0
 10
337.4299736137791
 20
291.6814917848702
 30
0.0
 10
337.4112537407505
 20
291.6891233383722
 30
0.0
 10
337.3560786172034
 20
291.7133776729751
 30
0.0
 10
337.3204264592259
 20
291.7314127039997
 30
0.0
 10
337.2512795778836
 20
291.7710719976445
 30
0.0
 10
337.2177851943429
 20
291.7926966178153
 30
0.0
 10
337.1853567688286
 20
291.816113374901
 30
0.0
  0
SPLINE
  5
1A0
330
1F
100
AcDbEntity
  8
1
100
AcDbSpline
210
0.0
220
0.0
230
1.0
 70
    12
 71
     2
 72
     6
 73
     3
 74
     0
 42
0.000000001
 43
0.0000000001
 40
0.0
 40
0.0
 40
0.0
 40
1.0
 40
1.0
 40
1.0
 10
336.680238921399
 20
299.8231549775066
 30
0.0
 41
0.4999990607633671
 10
336.7924642652986
 20
299.8229119633828
 30
0.0
 41
0.500000939236633
 10
336.9046872416249
 20
299.8226682558719
 30
0.0
 41
0.4999990607633671
  0
SPLINE
  5
1A1
330
1F
100
AcDbEntity
  8
1
100
AcDbSpline
210
0.0
220
0.0
230
1.0
 70
     8
 71
     3
 72
    14
 73
    10
 74
     0
 42
0.000000001
 43
0.0000000001
 40
0.0
 40
0.0
 40
0.0
 40
0.0
 40
0.5
 40
0.5
 40
0.75
 40
0.75
 40
0.875
 40
0.875
 40
1.0
 40
1.0
 40
1.0
 40
1.0
 10
297.9048419452957
 20
299.906007059925
 30
0.0
 10
297.7329126116448
 20
299.906007059925
 30
0.0
 10
297.5622685429923
 20
299.9062641004505
 30
0.0
 10
297.3081860621739
 20
299.9068412686873
 30
0.0
 10
297.2238067039725
 20
299.9070619729042
 30
0.0
 10
297.0977119674554
 20
299.9073781880122
 30
0.0
 10
297.0557594910817
 20
299.9074808865637
 30
0.0
 10
296.9720137325245
 20
299.907668422934
 30
0.0
 10
296.9301602202696
 20
299.907753344469
 30
0.0
 10
296.8885820232665
 20
299.9078218082242
 30
0.0
  0
SPLINE
  5
1A2
330
1F
100
AcDbEntity
  8
1
100
AcDbSpline
210
0.0
220
0.0
230
1.0
 70
     8
 71
     3
 72
    10
 73
     6
 74
     0
 42
0.000000001
 43
0.0000000001
 40
0.0
 40
0.0
 40
0.0
 40
0.0
 40
0.5
 40
0.5
 40
1.0
 40
1.0
 40
1.0
 40
1.0
 10
336.3445574416543
 20
296.1905900912184
 30
0.0
 10
336.2742968959915
 20
296.788121571341
 30
0.0
 10
336.211895715213
 20
297.3865361024024
 30
0.0
 10
336.098579052163
 20
298.5843692060615
 30
0.0
 10
336.0476847557205
 20
299.1837847560219
 30
0.0
 10
336.001107331698
 20
299.7835740218318
 30
0.0
  0
SPLINE
  5
1A3
330
1F
100
AcDbEntity
  8
1
100
AcDbSpline
210
0.0
220
0.0
230
1.0
 70
    12
 71
     2
 72
     6
 73
     3
 74
     0
 42
0.000000001
 43
0.0000000001
 40
0.0
 40
0.0
 40
0.0
 40
1.0
 40
1.0
 40
1.0
 10
336.0011073316982
 20
299.783574021832
 30
0.0
 41
0.4999997267829186
 10
336.3385461674864
 20
299.7826882650747
 30
0.0
 41
0.5000002732170814
 10
336.6759538587787
 20
299.7817962388898
 30
0.0
 41
0.4999997267829186
  0
SPLINE
  5
1A4
330
1F
100
AcDbEntity
  8
1
100
AcDbSpline
210
0.0
220
0.0
230
1.0
 70
    28
 71
     4
 72
    13
 73
     8
 74
     0
 42
0.000000001
 43
0.0000000001
 40
0.0
 40
0.0
 40
0.0
 40
0.0
 40
0.0
 40
0.1169590961318433
 40
0.1169590961318433
 40
0.1169590961318433
 40
1.0
 40
1.0
 40
1.0
 40
1.0
 40
1.0
 10
297.9048419452957
 20
283.3116503098511
 30
0.0
 41
1.000982358855134
 10
297.9048419452957
 20
283.1664031503578
 30
0.0
 41
1.001240582735069
 10
297.9048419452957
 20
283.0204917185799
 30
0.0
 41
1.001443757133169
 10
297.9048419452957
 20
282.8743447447491
 30
0.0
 41
1.00156323924462
 10
297.9048419452957
 20
281.6266262358098
 30
0.0
 41
1.00156323924462
 10
297.9048419452957
 20
280.3707049887479
 30
0.0
 41
0.9947524643812426
 10
297.9048419452957
 20
279.1617170660791
 30
0.0
 41
0.9965337270629596
 10
297.9048419452957
 20
278.1554923098554
 30
0.0
 41
0.9990871633900219
  0
SPLINE
  5
1A5
330
1F
100
AcDbEntity
  8
1
100
AcDbSpline
210
0.0
220
0.0
230
1.0
 70
     9
 71
     3
 72
   121
 73
   117
 74
     0
 42
0.000000001
 43
0.0000000001
 40
0.0
 40
0.0
 40
0.0
 40
0.0
 40
0.0312499999999904
 40
0.0312499999999904
 40
0.0468749999999856
 40
0.0468749999999856
 40
0.0546874999999832
 40
0.0546874999999832
 40
0.0624999999999808
 40
0.0624999999999808
 40
0.0937499999999656
 40
0.0937499999999656
 40
0.1015624999999619
 40
0.1015624999999619
 40
0.1093749999999582
 40
0.1093749999999582
 40
0.1249999999999461
 40
0.1249999999999461
 40
0.1562499999999222
 40
0.1562499999999222
 40
0.1874999999998982
 40
0.1874999999998982
 40
0.203124999999885
 40
0.203124999999885
 40
0.2109374999998784
 40
0.2109374999998784
 40
0.2187499999998719
 40
0.2187499999998719
 40
0.2499999999998456
 40
0.2499999999998456
 40
0.257812499999839
 40
0.257812499999839
 40
0.2656249999998324
 40
0.2656249999998324
 40
0.2812499999998195
 40
0.2812499999998195
 40
0.3124999999997937
 40
0.3124999999997937
 40
0.3281249999997811
 40
0.3281249999997811
 40
0.3437499999997685
 40
0.3437499999997685
 40
0.3749999999997431
 40
0.3749999999997431
 40
0.3828124999997402
 40
0.3828124999997402
 40
0.3906249999997372
 40
0.4062499999997311
 40
0.4218749999997251
 40
0.4218749999997251
 40
0.429687499999722
 40
0.429687499999722
 40
0.437499999999719
 40
0.437499999999719
 40
0.4687499999997243
 40
0.4687499999997243
 40
0.48437499999973
 40
0.48437499999973
 40
0.4921874999997361
 40
0.4921874999997361
 40
0.499999999999742
 40
0.499999999999742
 40
0.5312499999997598
 40
0.5312499999997598
 40
0.5390624999997657
 40
0.5390624999997657
 40
0.5468749999997717
 40
0.5624999999997776
 40
0.5781249999997833
 40
0.5781249999997833
 40
0.5937499999997892
 40
0.5937499999997892
 40
0.6249999999997959
 40
0.6249999999997959
 40
0.632812499999801
 40
0.632812499999801
 40
0.6406249999998059
 40
0.6406249999998059
 40
0.6562499999998157
 40
0.6562499999998157
 40
0.6874999999998353
 40
0.6874999999998353
 40
0.6953124999998389
 40
0.6953124999998389
 40
0.7031249999998427
 40
0.7187499999998505
 40
0.7343749999998584
 40
0.7343749999998584
 40
0.7421874999998625
 40
0.7421874999998625
 40
0.7499999999998666
 40
0.7499999999998666
 40
0.7812499999998836
 40
0.7812499999998836
 40
0.7968749999998912
 40
0.7968749999998912
 40
0.8124999999998991
 40
0.8124999999998991
 40
0.8437499999999122
 40
0.8437499999999122
 40
0.8593749999999189
 40
0.8593749999999189
 40
0.8749999999999257
 40
0.8749999999999257
 40
0.9062499999999435
 40
0.9062499999999435
 40
0.92187499999995
 40
0.92187499999995
 40
0.9374999999999559
 40
0.9531249999999623
 40
0.9531249999999623
 40
0.9609374999999655
 40
0.9609374999999655
 40
0.9687499999999687
 40
0.9687499999999687
 40
1.0
 40
1.0
 40
1.0
 40
1.0
 10
341.2962249652845
 20
287.1069886193043
 30
0.0
 10
341.3651756377438
 20
287.1057850808396
 30
0.0
 10
341.4328119946627
 20
287.0977148007522
 30
0.0
 10
341.5323765328045
 20
287.0757460674779
 30
0.0
 10
341.5652472525838
 20
287.0667666050163
 30
0.0
 10
341.614065348007
 20
287.0507541789808
 30
0.0
 10
341.6303027450442
 20
287.0449734185939
 30
0.0
 10
341.6623363675007
 20
287.0326516509871
 30
0.0
 10
341.6781320831635
 20
287.0261143747008
 30
0.0
 10
341.7560272807091
 20
286.9915855570009
 30
0.0
 10
341.8149081652332
 20
286.9581197352327
 30
0.0
 10
341.8842401737677
 20
286.9090630910047
 30
0.0
 10
341.8978911607283
 20
286.8988872529802
 30
0.0
 10
341.9247549225038
 20
286.8777951154992
 30
0.0
 10
341.937968042118
 20
286.8668743704049
 30
0.0
 10
341.9765046640788
 20
286.8333735240732
 30
0.0
 10
342.0008834483102
 20
286.809939034628
 30
0.0
 10
342.0702009955115
 20
286.7364468290974
 30
0.0
 10
342.1113564837789
 20
286.6832299534607
 30
0.0
 10
342.1833015660689
 20
286.5682146137248
 30
0.0
 10
342.2129489889232
 20
286.5082292000492
 30
0.0
 10
342.2483699242962
 20
286.4149594779316
 30
0.0
 10
342.258663217462
 20
286.3833071727455
 30
0.0
 10
342.2718040836947
 20
286.3349793737673
 30
0.0
 10
342.2758078311631
 20
286.318694192445
 30
0.0
 10
342.2830000592041
 20
286.285997210368
 30
0.0
 10
342.2861793927332
 20
286.2696359841077
 30
0.0
 10
342.3000411155343
 20
286.1877692003081
 30
0.0
 10
342.3046746024283
 20
286.1220846885969
 30
0.0
 10
342.3025918587456
 20
286.0397568349823
 30
0.0
 10
342.3017781287135
 20
286.0232799688432
 30
0.0
 10
342.2993472659024
 20
285.9903033204598
 30
0.0
 10
342.2977250314344
 20
285.9737646464193
 30
0.0
 10
342.2916691381132
 20
285.9244095474279
 30
0.0
 10
342.2860725868815
 20
285.891969759595
 30
0.0
 10
342.2647621841081
 20
285.7959890689398
 30
0.0
 10
342.2445698540065
 20
285.7337755310577
 30
0.0
 10
342.205141993212
 20
285.6431208350076
 30
0.0
 10
342.1903993495114
 20
285.6132608446607
 30
0.0
 10
342.1583938452087
 20
285.5556375368706
 30
0.0
 10
342.1410803993414
 20
285.5277317784952
 30
0.0
 10
342.0852540105614
 20
285.4466815191769
 30
0.0
 10
342.0428963048618
 20
285.3961767571035
 30
0.0
 10
341.9830898062123
 20
285.3376802467097
 30
0.0
 10
341.9708103708317
 20
285.3262457201087
 30
0.0
 10
341.9458260295855
 20
285.3040941965817
 30
0.0
 10
341.9076210784705
 20
285.2718593047986
 30
0.0
 10
341.8403469217377
 20
285.2230224433471
 30
0.0
 10
341.7826657193946
 20
285.1891664750411
 30
0.0
 10
341.7379036221915
 20
285.1657899016333
 30
0.0
 10
341.722732254745
 20
285.1583342471355
 30
0.0
 10
341.6918731601839
 20
285.1441144313263
 30
0.0
 10
341.6761671687754
 20
285.1373460533396
 30
0.0
 10
341.5972947739879
 20
285.1056642153275
 30
0.0
 10
341.5323820827745
 20
285.0868095624409
 30
0.0
 10
341.432291009036
 20
285.0682046309517
 30
0.0
 10
341.3984704870649
 20
285.0636274686607
 30
0.0
 10
341.3470237081518
 20
285.0593039838848
 30
0.0
 10
341.3298035762827
 20
285.0582942117707
 30
0.0
 10
341.295543195031
 20
285.0571458565948
 30
0.0
 10
341.2784560015815
 20
285.0570029888463
 30
0.0
 10
341.1932315644884
 20
285.0584104344538
 30
0.0
 10
341.1257228694625
 20
285.0662631750927
 30
0.0
 10
341.0421819601132
 20
285.0845733178927
 30
0.0
 10
341.0254675145954
 20
285.0886783653845
 30
0.0
 10
340.9924351504767
 20
285.0976752364455
 30
0.0
 10
340.943458596199
 20
285.1123507225827
 30
0.0
 10
340.8646060663382
 20
285.1425443105386
 30
0.0
 10
340.8044011154651
 20
285.1726678843318
 30
0.0
 10
340.7456359888794
 20
285.205792588092
 30
0.0
 10
340.7168739868997
 20
285.2239423382889
 30
0.0
 10
340.634473512656
 20
285.2817881515543
 30
0.0
 10
340.5841461413914
 20
285.3250923071175
 30
0.0
 10
340.5267601583301
 20
285.3849836418289
 30
0.0
 10
340.5155617620682
 20
285.3972526932965
 30
0.0
 10
340.4937271828305
 20
285.4223791403841
 30
0.0
 10
340.4830696725678
 20
285.4352658125149
 30
0.0
 10
340.452236200816
 20
285.4744533923756
 30
0.0
 10
340.433119122819
 20
285.5013584945135
 30
0.0
 10
340.3799255281182
 20
285.5843478352878
 30
0.0
 10
340.3499673738431
 20
285.6426851607312
 30
0.0
 10
340.3194974674497
 20
285.7194792912539
 30
0.0
 10
340.3137480074154
 20
285.7350608777018
 30
0.0
 10
340.3030676306883
 20
285.7663121922342
 30
0.0
 10
340.2882359802375
 20
285.8134191556103
 30
0.0
 10
340.2693369242021
 20
285.8930635382683
 30
0.0
 10
340.2603523983667
 20
285.9579829044387
 30
0.0
 10
340.2559523367963
 20
286.0071333564442
 30
0.0
 10
340.2548760487904
 20
286.023593777495
 30
0.0
 10
340.2535191372494
 20
286.0566715473684
 30
0.0
 10
340.2532394046111
 20
286.0733334754452
 30
0.0
 10
340.2538722786986
 20
286.1564240810512
 30
0.0
 10
340.2607788777678
 20
286.2220231872409
 30
0.0
 10
340.2805592539203
 20
286.3191195512536
 30
0.0
 10
340.2887335346733
 20
286.3512662446674
 30
0.0
 10
340.3083468646822
 20
286.4151019590611
 30
0.0
 10
340.3198533658798
 20
286.4469153104192
 30
0.0
 10
340.3586442783093
 20
286.539615743256
 30
0.0
 10
340.3902853827851
 20
286.5983728481362
 30
0.0
 10
340.4464334426163
 20
286.6818846115436
 30
0.0
 10
340.4666068064108
 20
286.7089460222358
 30
0.0
 10
340.5099973120407
 20
286.7614383528358
 30
0.0
 10
340.5328976701239
 20
286.7864785430966
 30
0.0
 10
340.6048424512948
 20
286.8577672389384
 30
0.0
 10
340.6572138303225
 20
286.9003588226695
 30
0.0
 10
340.7425373520514
 20
286.9566189347335
 30
0.0
 10
340.772248402695
 20
286.9741446373606
 30
0.0
 10
340.8326769613211
 20
287.0058202911623
 30
0.0
 10
340.8943657735436
 20
287.0343205013782
 30
0.0
 10
340.9585293972804
 20
287.0565724837928
 30
0.0
 10
341.007590893596
 20
287.0708874532224
 30
0.0
 10
341.0241014760339
 20
287.0752627235654
 30
0.0
 10
341.057441558636
 20
287.0832062689198
 30
0.0
 10
341.0743111773367
 20
287.0867814882216
 30
0.0
 10
341.1589237078252
 20
287.1024905160809
 30
0.0
 10
341.2272742928248
 20
287.1081921577689
 30
0.0
 10
341.2962249652844
 20
287.1069886193043
 30
0.0
  0
SPLINE
  5
1A6
330
1F
100
AcDbEntity
  8
1
100
AcDbSpline
210
0.0
220
0.0
230
1.0
 70
     8
 71
     3
 72
    36
 73
    32
 74
     0
 42
0.000000001
 43
0.0000000001
 40
0.0
 40
0.0
 40
0.0
 40
0.0
 40
0.124999999999994
 40
0.124999999999994
 40
0.1874999999999905
 40
0.1874999999999905
 40
0.2187499999999829
 40
0.2187499999999829
 40
0.2499999999999753
 40
0.2499999999999753
 40
0.3749999999999767
 40
0.3749999999999767
 40
0.4062499999999873
 40
0.4062499999999873
 40
0.4374999999999979
 40
0.4374999999999979
 40
0.5000000000000192
 40
0.5000000000000192
 40
0.6250000000000361
 40
0.6250000000000361
 40
0.6562500000000331
 40
0.6562500000000331
 40
0.6875000000000301
 40
0.7500000000000238
 40
0.8125000000000175
 40
0.8125000000000175
 40
0.8437500000000145
 40
0.8437500000000145
 40
0.8750000000000117
 40
0.8750000000000117
 40
1.0
 40
1.0
 40
1.0
 40
1.0
 10
337.1899727151525
 20
292.8160193320765
 30
0.0
 10
337.192238911238
 20
292.7655367889514
 30
0.0
 10
337.1996676873349
 20
292.7161669075607
 30
0.0
 10
337.2180239450337
 20
292.6436666828207
 30
0.0
 10
337.2253552591585
 20
292.6197612777902
 30
0.0
 10
337.2381924776543
 20
292.5842997883614
 30
0.0
 10
337.2427927576116
 20
292.5725137606343
 30
0.0
 10
337.2525371945679
 20
292.5492655630035
 30
0.0
 10
337.2576788644308
 20
292.5378034372733
 30
0.0
 10
337.2847030727606
 20
292.481283800083
 30
0.0
 10
337.3104936661045
 20
292.4385755053694
 30
0.0
 10
337.3478589251303
 20
292.3882720985642
 30
0.0
 10
337.3555907713056
 20
292.3783669841252
 30
0.0
 10
337.3715797908764
 20
292.3588725408596
 30
0.0
 10
337.3798432795748
 20
292.3492790717526
 30
0.0
 10
337.4051610665804
 20
292.3212743079836
 30
0.0
 10
337.4228234736055
 20
292.3035323571602
 30
0.0
 10
337.4781000487593
 20
292.2530164427437
 30
0.0
 10
337.5179803743918
 20
292.2229249591193
 30
0.0
 10
337.5717602661459
 20
292.1899619865044
 30
0.0
 10
337.5827175458288
 20
292.1836050553262
 30
0.0
 10
337.6047907491872
 20
292.1715013572681
 30
0.0
 10
337.638227124084
 20
292.1542059977351
 30
0.0
 10
337.6955615087459
 20
292.1296134944359
 30
0.0
 10
337.7431374295552
 20
292.114439465158
 30
0.0
 10
337.7794776973165
 20
292.1047929820528
 30
0.0
 10
337.7917010571201
 20
292.1018670631692
 30
0.0
 10
337.8163733495768
 20
292.096609386045
 30
0.0
 10
337.8288353988997
 20
292.0942771364235
 30
0.0
 10
337.8911194697459
 20
292.0842343336429
 30
0.0
 10
337.9413125367711
 20
292.0812185869615
 30
0.0
 10
337.9918860710317
 20
292.0834224113934
 30
0.0
  0
SPLINE
  5
1A7
330
1F
100
AcDbEntity
  8
1
100
AcDbSpline
210
0.0
220
0.0
230
1.0
 70
     8
 71
     3
 72
    36
 73
    32
 74
     0
 42
0.000000001
 43
0.0000000001
 40
0.0
 40
0.0
 40
0.0
 40
0.0
 40
0.1249999999998863
 40
0.1249999999998863
 40
0.1874999999998316
 40
0.1874999999998316
 40
0.2187499999998122
 40
0.2187499999998122
 40
0.2499999999997927
 40
0.2499999999997927
 40
0.3749999999997523
 40
0.3749999999997523
 40
0.4062499999997542
 40
0.4062499999997542
 40
0.4374999999997561
 40
0.4374999999997561
 40
0.4999999999997601
 40
0.4999999999997601
 40
0.6249999999997421
 40
0.6249999999997421
 40
0.6562499999997606
 40
0.6562499999997606
 40
0.6874999999997792
 40
0.7499999999998164
 40
0.8124999999998536
 40
0.8124999999998536
 40
0.8437499999998722
 40
0.8437499999998722
 40
0.8749999999998909
 40
0.8749999999998909
 40
1.0
 40
1.0
 40
1.0
 40
1.0
 10
344.8313903887458
 20
299.5419335805883
 30
0.0
 10
344.8291241926603
 20
299.5924161237134
 30
0.0
 10
344.8216954165637
 20
299.6417860051042
 30
0.0
 10
344.8033391588647
 20
299.714286229844
 30
0.0
 10
344.7960078447398
 20
299.7381916348745
 30
0.0
 10
344.783170626244
 20
299.7736531243033
 30
0.0
 10
344.7785703462869
 20
299.7854391520305
 30
0.0
 10
344.7688259093305
 20
299.8086873496612
 30
0.0
 10
344.7636842394676
 20
299.8201494753914
 30
0.0
 10
344.7366600311377
 20
299.8766691125817
 30
0.0
 10
344.7108694377938
 20
299.9193774072953
 30
0.0
 10
344.673504178768
 20
299.9696808141006
 30
0.0
 10
344.6657723325927
 20
299.9795859285396
 30
0.0
 10
344.6497833130222
 20
299.9990803718052
 30
0.0
 10
344.6415198243237
 20
300.0086738409121
 30
0.0
 10
344.616202037318
 20
300.0366786046812
 30
0.0
 10
344.5985396302929
 20
300.0544205555046
 30
0.0
 10
344.5432630551392
 20
300.104936469921
 30
0.0
 10
344.5033827295066
 20
300.1350279535454
 30
0.0
 10
344.4496028377525
 20
300.1679909261605
 30
0.0
 10
344.4386455580696
 20
300.1743478573385
 30
0.0
 10
344.4165723547113
 20
300.1864515553966
 30
0.0
 10
344.3831359798144
 20
300.2037469149295
 30
0.0
 10
344.3258015951524
 20
300.2283394182289
 30
0.0
 10
344.2782256743432
 20
300.2435134475068
 30
0.0
 10
344.2418854065819
 20
300.253159930612
 30
0.0
 10
344.2296620467784
 20
300.2560858494955
 30
0.0
 10
344.2049897543216
 20
300.2613435266198
 30
0.0
 10
344.1925277049986
 20
300.2636757762413
 30
0.0
 10
344.1302436341524
 20
300.2737185790219
 30
0.0
 10
344.0800505671273
 20
300.2767343257033
 30
0.0
 10
344.0294770328666
 20
300.2745305012714
 30
0.0
  0
SPLINE
  5
1A8
330
1F
100
AcDbEntity
  8
1
100
AcDbSpline
210
0.0
220
0.0
230
1.0
 70
     8
 71
     3
 72
    36
 73
    32
 74
     0
 42
0.000000001
 43
0.0000000001
 40
0.0
 40
0.0
 40
0.0
 40
0.0
 40
0.1250000000000453
 40
0.1250000000000453
 40
0.1875000000000512
 40
0.1875000000000512
 40
0.2187500000000703
 40
0.2187500000000703
 40
0.2500000000000893
 40
0.2500000000000893
 40
0.3750000000000722
 40
0.3750000000000722
 40
0.4062500000000674
 40
0.4062500000000674
 40
0.4375000000000624
 40
0.4375000000000624
 40
0.5000000000000525
 40
0.5000000000000525
 40
0.6250000000000361
 40
0.6250000000000361
 40
0.6562500000000374
 40
0.6562500000000374
 40
0.6875000000000388
 40
0.7500000000000301
 40
0.8125000000000213
 40
0.8125000000000213
 40
0.8437500000000168
 40
0.8437500000000168
 40
0.8750000000000124
 40
0.8750000000000124
 40
1.0
 40
1.0
 40
1.0
 40
1.0
 10
337.6366870751281
 20
299.9959542280769
 30
0.0
 10
337.5861068629447
 20
299.9937501126437
 30
0.0
 10
337.5366474117841
 20
299.9863923732968
 30
0.0
 10
337.4640241486163
 20
299.9681551840732
 30
0.0
 10
337.4400796330978
 20
299.9608656630045
 30
0.0
 10
337.404562365
 20
299.9480943265733
 30
0.0
 10
337.3927581792784
 20
299.9435166041921
 30
0.0
 10
337.3694749292866
 20
299.9338179901713
 30
0.0
 10
337.3579959064402
 20
299.9286995806913
 30
0.0
 10
337.3013948556886
 20
299.9017933781937
 30
0.0
 10
337.25863116832
 20
299.8761025908752
 30
0.0
 10
337.2082704902898
 20
299.8388687284034
 30
0.0
 10
337.1983545257901
 20
299.831163496654
 30
0.0
 10
337.1788396088382
 20
299.8152283861862
 30
0.0
 10
337.169236515088
 20
299.8069922093968
 30
0.0
 10
337.1412050193408
 20
299.7817565176982
 30
0.0
 10
337.1234479841962
 20
299.7641493349363
 30
0.0
 10
337.0728948103076
 20
299.7090398754868
 30
0.0
 10
337.0427890640304
 20
299.6692728695895
 30
0.0
 10
337.0098219832581
 20
299.6156371041459
 30
0.0
 10
337.0034649281083
 20
299.6047087795882
 30
0.0
 10
336.9913623748317
 20
299.5826931046103
 30
0.0
 10
336.9740708132974
 20
299.5493426877885
 30
0.0
 10
336.9494950195257
 20
299.4921498675977
 30
0.0
 10
336.934344992359
 20
299.4446855436944
 30
0.0
 10
336.9247208101757
 20
299.40842825964
 30
0.0
 10
336.9218030254269
 20
299.3962324484666
 30
0.0
 10
336.9165630538693
 20
299.3716150222232
 30
0.0
 10
336.9142403896678
 20
299.3591803170239
 30
0.0
 10
336.9042486982318
 20
299.2970310685777
 30
0.0
 10
336.9012842242953
 20
299.2469408587755
 30
0.0
 10
336.903550121183
 20
299.1964649806783
 30
0.0
  0
SPLINE
  5
1A9
330
1F
100
AcDbEntity
  8
1
100
AcDbSpline
210
0.0
220
0.0
230
1.0
 70
     8
 71
     3
 72
    36
 73
    32
 74
     0
 42
0.000000001
 43
0.0000000001
 40
0.0
 40
0.0
 40
0.0
 40
0.0
 40
0.1249999999999711
 40
0.1249999999999711
 40
0.1874999999999734
 40
0.1874999999999734
 40
0.218749999999991
 40
0.218749999999991
 40
0.2500000000000086
 40
0.2500000000000086
 40
0.3749999999999862
 40
0.3749999999999862
 40
0.4062499999999806
 40
0.4062499999999806
 40
0.4374999999999748
 40
0.4374999999999748
 40
0.4999999999999634
 40
0.4999999999999634
 40
0.6249999999999405
 40
0.6249999999999405
 40
0.6562499999999393
 40
0.6562499999999393
 40
0.687499999999938
 40
0.7499999999999489
 40
0.8124999999999596
 40
0.8124999999999596
 40
0.8437499999999641
 40
0.8437499999999641
 40
0.8749999999999683
 40
0.8749999999999683
 40
1.0
 40
1.0
 40
1.0
 40
1.0
 10
344.3846760287702
 20
292.3619986845878
 30
0.0
 10
344.4352562409537
 20
292.3642028000212
 30
0.0
 10
344.4847156921142
 20
292.371560539368
 30
0.0
 10
344.5573389552821
 20
292.3897977285916
 30
0.0
 10
344.5812834708005
 20
292.3970872496602
 30
0.0
 10
344.6168007388983
 20
292.4098585860914
 30
0.0
 10
344.6286049246201
 20
292.4144363084727
 30
0.0
 10
344.6518881746117
 20
292.4241349224935
 30
0.0
 10
344.6633671974581
 20
292.4292533319735
 30
0.0
 10
344.7199682482097
 20
292.4561595344712
 30
0.0
 10
344.7627319355784
 20
292.4818503217895
 30
0.0
 10
344.8130926136085
 20
292.5190841842615
 30
0.0
 10
344.8230085781082
 20
292.5267894160108
 30
0.0
 10
344.8425234950602
 20
292.5427245264785
 30
0.0
 10
344.8521265888103
 20
292.5509607032678
 30
0.0
 10
344.8801580845576
 20
292.5761963949666
 30
0.0
 10
344.8979151197022
 20
292.5938035777284
 30
0.0
 10
344.9484682935908
 20
292.6489130371779
 30
0.0
 10
344.978574039868
 20
292.6886800430754
 30
0.0
 10
345.0115411206403
 20
292.7423158085188
 30
0.0
 10
345.01789817579
 20
292.7532441330766
 30
0.0
 10
345.0300007290667
 20
292.7752598080545
 30
0.0
 10
345.047292290601
 20
292.8086102248763
 30
0.0
 10
345.0718680843728
 20
292.8658030450669
 30
0.0
 10
345.0870181115393
 20
292.9132673689704
 30
0.0
 10
345.0966422937227
 20
292.9495246530248
 30
0.0
 10
345.0995600784716
 20
292.9617204641981
 30
0.0
 10
345.104800050029
 20
292.9863378904415
 30
0.0
 10
345.1071227142305
 20
292.9987725956408
 30
0.0
 10
345.1171144056667
 20
293.0609218440872
 30
0.0
 10
345.1200788796031
 20
293.1110120538893
 30
0.0
 10
345.1178129827153
 20
293.1614879319866
 30
0.0
  0
SPLINE
  5
1AE
330
1F
100
AcDbEntity
  8
1
100
AcDbSpline
210
0.0
220
0.0
230
1.0
 70
     8
 71
     3
 72
    14
 73
    10
 74
     0
 42
0.000000001
 43
0.0000000001
 40
0.0
 40
0.0
 40
0.0
 40
0.0
 40
0.25
 40
0.25
 40
0.5
 40
0.5
 40
0.75
 40
0.75
 40
1.0
 40
1.0
 40
1.0
 40
1.0
 10
340.9331506832245
 20
295.0598537637819
 30
0.0
 10
340.9388084023512
 20
295.0551742076564
 30
0.0
 10
340.943918384885
 20
295.0498804304066
 30
0.0
 10
340.9527604317847
 20
295.03852777207
 30
0.0
 10
340.9565185046513
 20
295.0324657482251
 30
0.0
 10
340.9627525708735
 20
295.0195918830753
 30
0.0
 10
340.9652052814224
 20
295.0127767260078
 30
0.0
 10
340.968615761311
 20
294.9990085060171
 30
0.0
 10
340.9696146005125
 20
294.9919806294656
 30
0.0
 10
340.9698846432054
 20
294.9848040086329
 30
0.0
  0
SPLINE
  5
1AF
330
1F
100
AcDbEntity
  8
1
100
AcDbSpline
210
0.0
220
0.0
230
1.0
 70
     8
 71
     3
 72
     8
 73
     4
 74
     0
 42
0.000000001
 43
0.0000000001
 40
0.0
 40
0.0
 40
0.0
 40
0.0
 40
1.0
 40
1.0
 40
1.0
 40
1.0
 10
339.9047328393783
 20
295.3946698016281
 30
0.0
 10
339.9031273561541
 20
295.3988477172297
 30
0.0
 10
339.9018203946601
 20
295.4030843304199
 30
0.0
 10
339.9007998814411
 20
295.4073771893795
 30
0.0
  0
SPLINE
  5
1B0
330
1F
100
AcDbEntity
  8
1
100
AcDbSpline
210
0.0
220
0.0
230
1.0
 70
     8
 71
     3
 72
     8
 73
     4
 74
     0
 42
0.000000001
 43
0.0000000001
 40
0.0
 40
0.0
 40
0.0
 40
0.0
 40
1.0
 40
1.0
 40
1.0
 40
1.0
 10
339.9901516495554
 20
295.5875874524689
 30
0.0
 10
339.9895903313737
 20
295.5840061003431
 30
0.0
 10
339.9888376552655
 20
295.5804621342123
 30
0.0
 10
339.9879084768746
 20
295.5769841632062
 30
0.0
  0
SPLINE
  5
1B1
330
1F
100
AcDbEntity
  8
1
100
AcDbSpline
210
0.0
220
0.0
230
1.0
 70
     8
 71
     3
 72
    21
 73
    17
 74
     0
 42
0.000000001
 43
0.0000000001
 40
0.0
 40
0.0
 40
0.0
 40
0.0
 40
0.2500000000000141
 40
0.2500000000000141
 40
0.3125000000000165
 40
0.3125000000000165
 40
0.375000000000019
 40
0.375000000000019
 40
0.5000000000000194
 40
0.6250000000000197
 40
0.6250000000000197
 40
0.6875000000000147
 40
0.6875000000000147
 40
0.7500000000000098
 40
0.7500000000000098
 40
1.0
 40
1.0
 40
1.0
 40
1.0
 10
339.8411771089131
 20
296.0574384431526
 30
0.0
 10
339.8706950303917
 20
296.0276363554407
 30
0.0
 10
339.8964531418713
 20
295.9947201799226
 30
0.0
 10
339.9238888477979
 20
295.9495021923054
 30
0.0
 10
339.9291347240527
 20
295.9402523924992
 30
0.0
 10
339.9391289311754
 20
295.9213250667162
 30
0.0
 10
339.9438861483924
 20
295.9116226543201
 30
0.0
 10
339.9571885588706
 20
295.8822957960991
 30
0.0
 10
339.972491182501
 20
295.842362791578
 30
0.0
 10
339.9830349779847
 20
295.8008032316088
 30
0.0
 10
339.9891270893546
 20
295.7690139768672
 30
0.0
 10
339.9908590491329
 20
295.7582751859159
 30
0.0
 10
339.9936767257358
 20
295.7367901371213
 30
0.0
 10
339.9947625092388
 20
295.7260650568703
 30
0.0
 10
339.9986297023228
 20
295.6725217193883
 30
0.0
 10
339.9967908266136
 20
295.6299470831496
 30
0.0
 10
339.9901516495554
 20
295.5875874524689
 30
0.0
  0
SPLINE
  5
1B2
330
1F
100
AcDbEntity
  8
1
100
AcDbSpline
210
0.0
220
0.0
230
1.0
 70
     8
 71
     3
 72
    22
 73
    18
 74
     0
 42
0.000000001
 43
0.0000000001
 40
0.0
 40
0.0
 40
0.0
 40
0.0
 40
0.125
 40
0.125
 40
0.25
 40
0.25
 40
0.375
 40
0.375
 40
0.5
 40
0.5
 40
0.625
 40
0.625
 40
0.75
 40
0.75
 40
0.875
 40
0.875
 40
1.0
 40
1.0
 40
1.0
 40
1.0
 10
339.7642875544762
 20
296.0861907211902
 30
0.0
 10
339.7586402122214
 20
296.0858126938668
 30
0.0
 10
339.7529911308125
 20
296.0859105852144
 30
0.0
 10
339.7418861642749
 20
296.0870259466669
 30
0.0
 10
339.7364028324275
 20
296.0880406647303
 30
0.0
 10
339.725579503557
 20
296.0910103668977
 30
0.0
 10
339.7202443506897
 20
296.0929753117198
 30
0.0
 10
339.7100923318101
 20
296.097739303709
 30
0.0
 10
339.7052268675847
 20
296.1005489002033
 30
0.0
 10
339.6959373106359
 20
296.1070600900475
 30
0.0
 10
339.6915380463472
 20
296.110757242183
 30
0.0
 10
339.6835169912985
 20
296.1188080646002
 30
0.0
 10
339.6798527278274
 20
296.1231889073881
 30
0.0
 10
339.6732584227391
 20
296.1327016006537
 30
0.0
 10
339.6703845828373
 20
296.1377654507117
 30
0.0
 10
339.6656002972938
 20
296.1482907086415
 30
0.0
 10
339.6636673867046
 20
296.1537830097661
 30
0.0
 10
339.6622237597725
 20
296.1595194921276
 30
0.0
  0
SPLINE
  5
1B3
330
1F
100
AcDbEntity
  8
1
100
AcDbSpline
210
0.0
220
0.0
230
1.0
 70
     8
 71
     3
 72
    12
 73
     8
 74
     0
 42
0.000000001
 43
0.0000000001
 40
0.0
 40
0.0
 40
0.0
 40
0.0
 40
0.669903901868839
 40
0.669903901868839
 40
0.8373798773360444
 40
0.8373798773360444
 40
1.0
 40
1.0
 40
1.0
 40
1.0
 10
339.6622237597725
 20
296.1595194921276
 30
0.0
 10
339.651839429942
 20
296.2007832865227
 30
0.0
 10
339.6463562525404
 20
296.2427382503963
 30
0.0
 10
339.6456284648619
 20
296.2960361567372
 30
0.0
 10
339.6457955096669
 20
296.3067615848615
 30
0.0
 10
339.6467349738215
 20
296.3277495571579
 30
0.0
 10
339.6474881406666
 20
296.3380404682663
 30
0.0
 10
339.6485265308719
 20
296.3482835079044
 30
0.0
  0
SPLINE
  5
1B4
330
1F
100
AcDbEntity
  8
1
100
AcDbSpline
210
0.0
220
0.0
230
1.0
 70
     8
 71
     3
 72
    14
 73
    10
 74
     0
 42
0.000000001
 43
0.0000000001
 40
0.0
 40
0.0
 40
0.0
 40
0.0
 40
0.2558990432406061
 40
0.2558990432406061
 40
0.5117980864812123
 40
0.5117980864812123
 40
0.7676971297218184
 40
0.7676971297218184
 40
1.0
 40
1.0
 40
1.0
 40
1.0
 10
340.2964636169538
 20
297.1087074284214
 30
0.0
 10
340.3002908121912
 20
297.1029593002248
 30
0.0
 10
340.303486438263
 20
297.0968175860123
 30
0.0
 10
340.3084783568432
 20
297.0840365563166
 30
0.0
 10
340.3102673584029
 20
297.0774475323022
 30
0.0
 10
340.3124164069252
 20
297.0638648020427
 30
0.0
 10
340.3127571843072
 20
297.0568369401262
 30
0.0
 10
340.3119403352101
 20
297.0436196594501
 30
0.0
 10
340.3109353184921
 20
297.0373507621339
 30
0.0
 10
340.309265012909
 20
297.031101616609
 30
0.0
  0
SPLINE
  5
1B5
330
1F
100
AcDbEntity
  8
1
100
AcDbSpline
210
0.0
220
0.0
230
1.0
 70
     8
 71
     3
 72
    12
 73
     8
 74
     0
 42
0.000000001
 43
0.0000000001
 40
0.0
 40
0.0
 40
0.0
 40
0.0
 40
0.4963660695152054
 40
0.4963660695152054
 40
0.9927321390304108
 40
0.9927321390304108
 40
1.0
 40
1.0
 40
1.0
 40
1.0
 10
340.2964636169532
 20
297.1087074284227
 30
0.0
 10
340.293404327607
 20
297.1133022259864
 30
0.0
 10
340.2907570684933
 20
297.118135891271
 30
0.0
 10
340.2863528914281
 20
297.1280996744352
 30
0.0
 10
340.284580419336
 20
297.1332515447927
 30
0.0
 10
340.2832308260388
 20
297.1386557525281
 30
0.0
 10
340.2832114474956
 20
297.1387337771935
 30
0.0
 10
340.2831921662801
 20
297.1388118386816
 30
0.0
  0
SPLINE
  5
1B6
330
1F
100
AcDbEntity
  8
1
100
AcDbSpline
210
0.0
220
0.0
230
1.0
 70
     8
 71
     3
 72
    10
 73
     6
 74
     0
 42
0.000000001
 43
0.0000000001
 40
0.0
 40
0.0
 40
0.0
 40
0.0
 40
0.1654923177726876
 40
0.1654923177726876
 40
1.0
 40
1.0
 40
1.0
 40
1.0
 10
342.1446622980907
 20
295.7573212241925
 30
0.0
 10
342.1413545600045
 20
295.7495733976282
 30
0.0
 10
342.1378789153341
 20
295.7419256014862
 30
0.0
 10
342.115877134935
 20
295.6963091541368
 30
0.0
 10
342.0933601524094
 20
295.6607185015926
 30
0.0
 10
342.0665799606001
 20
295.6276768383824
 30
0.0
  0
SPLINE
  5
1B7
330
1F
100
AcDbEntity
  8
1
100
AcDbSpline
210
0.0
220
0.0
230
1.0
 70
     8
 71
     3
 72
    20
 73
    16
 74
     0
 42
0.000000001
 43
0.0000000001
 40
0.0
 40
0.0
 40
0.0
 40
0.0
 40
0.1250000000000334
 40
0.1250000000000334
 40
0.2500000000000668
 40
0.2500000000000668
 40
0.3750000000001001
 40
0.3750000000001001
 40
0.5000000000001337
 40
0.5000000000001337
 40
0.6250000000001672
 40
0.6250000000001672
 40
0.7500000000002006
 40
0.7500000000002006
 40
1.0
 40
1.0
 40
1.0
 40
1.0
 10
342.0665799606001
 20
295.6276768383824
 30
0.0
 10
342.0628523645814
 20
295.6230776938688
 30
0.0
 10
342.0587793804207
 20
295.6189014262148
 30
0.0
 10
342.0499807460607
 20
295.6113493844397
 30
0.0
 10
342.0452033205391
 20
295.6079466243445
 30
0.0
 10
342.0352548882484
 20
295.6021271593863
 30
0.0
 10
342.0301035025427
 20
295.5997068975277
 30
0.0
 10
342.0194656935737
 20
295.5957971724234
 30
0.0
 10
342.0139276625878
 20
295.5943002676132
 30
0.0
 10
342.0027654340534
 20
295.5923138054375
 30
0.0
 10
341.9971825318855
 20
295.5918207704963
 30
0.0
 10
341.9860152254833
 20
295.5917832318083
 30
0.0
 10
341.9804030430811
 20
295.5922438792019
 30
0.0
 10
341.9637490744036
 20
295.5950628190487
 30
0.0
 10
341.9532464901855
 20
295.5987371968872
 30
0.0
 10
341.9433398668864
 20
295.6041851996775
 30
0.0
  0
SPLINE
  5
1B8
330
1F
100
AcDbEntity
  8
1
100
AcDbSpline
210
0.0
220
0.0
230
1.0
 70
     8
 71
     3
 72
    14
 73
    10
 74
     0
 42
0.000000001
 43
0.0000000001
 40
0.0
 40
0.0
 40
0.0
 40
0.0
 40
0.25
 40
0.25
 40
0.5
 40
0.5
 40
0.75
 40
0.75
 40
1.0
 40
1.0
 40
1.0
 40
1.0
 10
341.8616569365389
 20
295.6105090934192
 30
0.0
 10
341.8684301405892
 20
295.6130250568473
 30
0.0
 10
341.8754479799327
 20
295.6147558559717
 30
0.0
 10
341.889440722957
 20
295.6166383087095
 30
0.0
 10
341.8964323299525
 20
295.6168110385473
 30
0.0
 10
341.9104105417778
 20
295.6156679040898
 30
0.0
 10
341.9173866093997
 20
295.6143305108308
 30
0.0
 10
341.9307116921262
 20
295.6102940343796
 30
0.0
 10
341.9371442429392
 20
295.6075923925762
 30
0.0
 10
341.9433398668864
 20
295.6041851996775
 30
0.0
  0
SPLINE
  5
1B9
330
1F
100
AcDbEntity
  8
1
100
AcDbSpline
210
0.0
220
0.0
230
1.0
 70
     8
 71
     3
 72
    21
 73
    17
 74
     0
 42
0.000000001
 43
0.0000000001
 40
0.0
 40
0.0
 40
0.0
 40
0.0
 40
0.2499999999998512
 40
0.2499999999998512
 40
0.3124999999998129
 40
0.3124999999998129
 40
0.3749999999997746
 40
0.3749999999997746
 40
0.499999999999745
 40
0.6249999999997154
 40
0.6249999999997154
 40
0.6874999999997307
 40
0.6874999999997307
 40
0.7499999999997461
 40
0.7499999999997461
 40
1.0
 40
1.0
 40
1.0
 40
1.0
 10
341.5285804205284
 20
295.2472876084314
 30
0.0
 10
341.5404651450614
 20
295.2884835549539
 30
0.0
 10
341.5567726876903
 20
295.3278210739356
 30
0.0
 10
341.5828280292183
 20
295.3746608259567
 30
0.0
 10
341.5883263379102
 20
295.383910592794
 30
0.0
 10
341.599916653704
 20
295.4021668215152
 30
0.0
 10
341.6060258089777
 20
295.4111933664162
 30
0.0
 10
341.6249844735132
 20
295.4374999228623
 30
0.0
 10
341.6520859838105
 20
295.4707694414016
 30
0.0
 10
341.6827508389354
 20
295.5005054149424
 30
0.0
 10
341.7071097092825
 20
295.5214601443639
 30
0.0
 10
341.7154877154707
 20
295.5282430571431
 30
0.0
 10
341.7325463342927
 20
295.5412264823917
 30
0.0
 10
341.7412089488907
 20
295.5474168731264
 30
0.0
 10
341.7851703125655
 20
295.5769151763004
 30
0.0
 10
341.8223855688286
 20
295.595921414649
 30
0.0
 10
341.8616569365389
 20
295.6105090934192
 30
0.0
  0
SPLINE
  5
1BA
330
1F
100
AcDbEntity
  8
1
100
AcDbSpline
210
0.0
220
0.0
230
1.0
 70
     8
 71
     3
 72
     8
 73
     4
 74
     0
 42
0.000000001
 43
0.0000000001
 40
0.0
 40
0.0
 40
0.0
 40
0.0
 40
1.0
 40
1.0
 40
1.0
 40
1.0
 10
341.9093394300818
 20
296.769795925892
 30
0.0
 10
341.9040316055421
 20
296.7644764020175
 30
0.0
 10
341.8981301360751
 20
296.7598309453766
 30
0.0
 10
341.8916406219886
 20
296.7558548971455
 30
0.0
  0
SPLINE
  5
1BB
330
1F
100
AcDbEntity
  8
1
100
AcDbSpline
210
0.0
220
0.0
230
1.0
 70
     8
 71
     3
 72
    14
 73
    10
 74
     0
 42
0.000000001
 43
0.0000000001
 40
0.0
 40
0.0
 40
0.0
 40
0.0
 40
0.1452533127780239
 40
0.1452533127780239
 40
0.4301688751853493
 40
0.4301688751853493
 40
0.7150844375926746
 40
0.7150844375926746
 40
1.0
 40
1.0
 40
1.0
 40
1.0
 10
341.8493150166771
 20
296.6991557805767
 30
0.0
 10
341.8502476194444
 20
296.702646592575
 30
0.0
 10
341.8513694365436
 20
296.7060597028614
 30
0.0
 10
341.8552038575297
 20
296.7158470249937
 30
0.0
 10
341.8583988469367
 20
296.7219379230614
 30
0.0
 10
341.8660611365782
 20
296.7333650967499
 30
0.0
 10
341.8705418402274
 20
296.7386814758911
 30
0.0
 10
341.8803700554946
 20
296.7480895671032
 30
0.0
 10
341.8857596937471
 20
296.752251722236
 30
0.0
 10
341.8916406219886
 20
296.7558548971455
 30
0.0
  0
SPLINE
  5
1BC
330
1F
100
AcDbEntity
  8
1
100
AcDbSpline
210
0.0
220
0.0
230
1.0
 70
     8
 71
     3
 72
    21
 73
    17
 74
     0
 42
0.000000001
 43
0.0000000001
 40
0.0
 40
0.0
 40
0.0
 40
0.0
 40
0.2499999999998999
 40
0.2499999999998999
 40
0.3124999999998573
 40
0.3124999999998573
 40
0.3749999999998149
 40
0.3749999999998149
 40
0.4999999999998046
 40
0.624999999999794
 40
0.624999999999794
 40
0.6874999999998284
 40
0.6874999999998284
 40
0.7499999999998628
 40
0.7499999999998628
 40
1.0
 40
1.0
 40
1.0
 40
1.0
 10
341.5243794007745
 20
295.0364046140299
 30
0.0
 10
341.4934401585981
 20
295.0065031370785
 30
0.0
 10
341.459531615274
 20
294.980578841833
 30
0.0
 10
341.4134369885635
 20
294.9531432381046
 30
0.0
 10
341.4040093143145
 20
294.9478984721612
 30
0.0
 10
341.3849884012245
 20
294.9380320086722
 30
0.0
 10
341.3753739109428
 20
294.9333961258898
 30
0.0
 10
341.3462239931882
 20
294.9203642573052
 30
0.0
 10
341.3065422125453
 20
294.9053181933352
 30
0.0
 10
341.2652409420321
 20
294.8948998890009
 30
0.0
 10
341.2336374325638
 20
294.8888796044407
 30
0.0
 10
341.2230181569545
 20
294.8871787819219
 30
0.0
 10
341.201848628997
 20
294.8844187155773
 30
0.0
 10
341.1912651799852
 20
294.8833527731121
 30
0.0
 10
341.1383546004336
 20
294.8795653252188
 30
0.0
 10
341.0960469397234
 20
294.8814098578513
 30
0.0
 10
341.0537652772734
 20
294.8882611657138
 30
0.0
  0
SPLINE
  5
1BD
330
1F
100
AcDbEntity
  8
1
100
AcDbSpline
210
0.0
220
0.0
230
1.0
 70
     8
 71
     3
 72
    21
 73
    17
 74
     0
 42
0.000000001
 43
0.0000000001
 40
0.0
 40
0.0
 40
0.0
 40
0.0
 40
0.2500000000001157
 40
0.2500000000001157
 40
0.3125000000001646
 40
0.3125000000001646
 40
0.3750000000002136
 40
0.3750000000002136
 40
0.5000000000002313
 40
0.6250000000002489
 40
0.6250000000002489
 40
0.6875000000002191
 40
0.6875000000002191
 40
0.7500000000001892
 40
0.7500000000001892
 40
1.0
 40
1.0
 40
1.0
 40
1.0
 10
340.4510996265717
 20
295.1664832694777
 30
0.0
 10
340.4923308072445
 20
295.1772369840145
 30
0.0
 10
340.5342596746895
 20
295.1831466985721
 30
0.0
 10
340.5876325299068
 20
295.1843249594267
 30
0.0
 10
340.598355740919
 20
295.1842461197082
 30
0.0
 10
340.6199039815155
 20
295.1834384535757
 30
0.0
 10
340.6307549065601
 20
295.1827048566935
 30
0.0
 10
340.6629789354042
 20
295.1795468693029
 30
0.0
 10
340.7053584531987
 20
295.1727918099542
 30
0.0
 10
340.7465916908969
 20
295.1610595603204
 30
0.0
 10
340.7770795388538
 20
295.1503621002146
 30
0.0
 10
340.7872049716044
 20
295.1464635593108
 30
0.0
 10
340.80711759001
 20
295.1380986373094
 30
0.0
 10
340.8168869949301
 20
295.1336428565546
 30
0.0
 10
340.8648339241129
 20
295.1100419045713
 30
0.0
 10
340.9003472772001
 20
295.0869857892782
 30
0.0
 10
340.9331506832245
 20
295.0598537637819
 30
0.0
  0
SPLINE
  5
1BE
330
1F
100
AcDbEntity
  8
1
100
AcDbSpline
210
0.0
220
0.0
230
1.0
 70
     8
 71
     3
 72
    14
 73
    10
 74
     0
 42
0.000000001
 43
0.0000000001
 40
0.0
 40
0.0
 40
0.0
 40
0.0
 40
0.25
 40
0.25
 40
0.5
 40
0.5
 40
0.75
 40
0.75
 40
1.0
 40
1.0
 40
1.0
 40
1.0
 10
340.38600933583
 20
295.1139569988697
 30
0.0
 10
340.3892917326261
 20
295.1203450539518
 30
0.0
 10
340.3932317769322
 20
295.1263833215805
 30
0.0
 10
340.4022347204392
 20
295.1374888193959
 30
0.0
 10
340.4072559554552
 20
295.1425228633368
 30
0.0
 10
340.4183511931473
 20
295.1515436438819
 30
0.0
 10
340.4244652967325
 20
295.1555315062203
 30
0.0
 10
340.4372580194071
 20
295.1620456493722
 30
0.0
 10
340.443993517428
 20
295.1646298889061
 30
0.0
 10
340.4510996265717
 20
295.1664832694777
 30
0.0
  0
SPLINE
  5
1BF
330
1F
100
AcDbEntity
  8
1
100
AcDbSpline
210
0.0
220
0.0
230
1.0
 70
     8
 71
     3
 72
    22
 73
    18
 74
     0
 42
0.000000001
 43
0.0000000001
 40
0.0
 40
0.0
 40
0.0
 40
0.0
 40
0.125
 40
0.125
 40
0.25
 40
0.25
 40
0.375
 40
0.375
 40
0.5
 40
0.5
 40
0.625
 40
0.625
 40
0.75
 40
0.75
 40
0.875
 40
0.875
 40
1.0
 40
1.0
 40
1.0
 40
1.0
 10
340.3860093358295
 20
295.1139569988687
 30
0.0
 10
340.3833855378004
 20
295.1088506795006
 30
0.0
 10
340.3803485246434
 20
295.1039816942514
 30
0.0
 10
340.3735782581978
 20
295.094872535849
 30
0.0
 10
340.3698330829012
 20
295.0906071824489
 30
0.0
 10
340.3616022878671
 20
295.0826724247086
 30
0.0
 10
340.3571108222719
 20
295.0790124542839
 30
0.0
 10
340.3476751169967
 20
295.0725615464295
 30
0.0
 10
340.3426963334005
 20
295.0697336066845
 30
0.0
 10
340.3321951062119
 20
295.0649088056498
 30
0.0
 10
340.3266898608242
 20
295.0629314783183
 30
0.0
 10
340.315514981496
 20
295.0599822815439
 30
0.0
 10
340.3097996529061
 20
295.0589870961208
 30
0.0
 10
340.2980996288153
 20
295.0580119202767
 30
0.0
 10
340.2922038650986
 20
295.0580467901233
 30
0.0
 10
340.2805685966998
 20
295.0591539852127
 30
0.0
 10
340.274790764517
 20
295.0602222558108
 30
0.0
 10
340.2690556378421
 20
295.0618386318609
 30
0.0
  0
SPLINE
  5
1C0
330
1F
100
AcDbEntity
  8
1
100
AcDbSpline
210
0.0
220
0.0
230
1.0
 70
     8
 71
     3
 72
    14
 73
    10
 74
     0
 42
0.000000001
 43
0.0000000001
 40
0.0
 40
0.0
 40
0.0
 40
0.0
 40
0.25
 40
0.25
 40
0.5
 40
0.5
 40
0.75
 40
0.75
 40
1.0
 40
1.0
 40
1.0
 40
1.0
 10
339.7642875544763
 20
296.0861907211902
 30
0.0
 10
339.7713521742829
 20
296.0866636196257
 30
0.0
 10
339.7784435413487
 20
296.0863934762
 30
0.0
 10
339.792350936874
 20
296.0843922862352
 30
0.0
 10
339.7991190562705
 20
296.0826798226732
 30
0.0
 10
339.8122825806023
 20
296.0778139489633
 30
0.0
 10
339.8186980482192
 20
296.0746270536428
 30
0.0
 10
339.8305626853255
 20
296.0670171396532
 30
0.0
 10
339.8360894531209
 20
296.0625750773251
 30
0.0
 10
339.8411771089131
 20
296.0574384431526
 30
0.0
  0
SPLINE
  5
1C1
330
1F
100
AcDbEntity
  8
1
100
AcDbSpline
210
0.0
220
0.0
230
1.0
 70
     8
 71
     3
 72
     8
 73
     4
 74
     0
 42
0.000000001
 43
0.0000000001
 40
0.0
 40
0.0
 40
0.0
 40
0.0
 40
1.0
 40
1.0
 40
1.0
 40
1.0
 10
333.6748676345702
 20
291.8657225599777
 30
0.0
 10
333.5072262819261
 20
291.927871599967
 30
0.0
 10
333.3395929679022
 20
291.993833451534
 30
0.0
 10
333.172182366576
 20
292.0637109475924
 30
0.0
  0
SPLINE
  5
1C2
330
1F
100
AcDbEntity
  8
1
100
AcDbSpline
210
0.0
220
0.0
230
1.0
 70
     8
 71
     3
 72
    42
 73
    38
 74
     0
 42
0.000000001
 43
0.0000000001
 40
0.0
 40
0.0
 40
0.0
 40
0.0
 40
0.1249999999999978
 40
0.1249999999999978
 40
0.2499999999999954
 40
0.2499999999999954
 40
0.2812499999999949
 40
0.2812499999999949
 40
0.3124999999999944
 40
0.3749999999999971
 40
0.3749999999999971
 40
0.5000000000000025
 40
0.5000000000000025
 40
0.5625000000000067
 40
0.5625000000000067
 40
0.5937500000000088
 40
0.5937500000000088
 40
0.6250000000000109
 40
0.6250000000000109
 40
0.6875000000000129
 40
0.6875000000000129
 40
0.750000000000015
 40
0.750000000000015
 40
0.7656250000000147
 40
0.7656250000000147
 40
0.7812500000000146
 40
0.7812500000000146
 40
0.8125000000000124
 40
0.8125000000000124
 40
0.8750000000000083
 40
0.8750000000000083
 40
0.9375000000000042
 40
0.9375000000000042
 40
0.9531250000000031
 40
0.9531250000000031
 40
0.9687500000000019
 40
1.0
 40
1.0
 40
1.0
 40
1.0
 10
333.2123622850101
 20
292.6176545312454
 30
0.0
 10
333.4182559577582
 20
292.6795349479154
 30
0.0
 10
333.6208252304027
 20
292.7498547528705
 30
0.0
 10
334.0179187193649
 20
292.9109177029364
 30
0.0
 10
334.2124523433559
 20
293.0016369655398
 30
0.0
 10
334.4494582294784
 20
293.1306768462715
 30
0.0
 10
334.4965523774578
 20
293.1572767618416
 30
0.0
 10
334.589449178668
 20
293.2117476559172
 30
0.0
 10
334.7270974593948
 20
293.2954894667533
 30
0.0
 10
334.8595247598595
 20
293.3854938830325
 30
0.0
 10
335.1170047702769
 20
293.5743485928711
 30
0.0
 10
335.2788811984145
 20
293.7119792130673
 30
0.0
 10
335.5046645714918
 20
293.9388542799213
 30
0.0
 10
335.5770761420504
 20
294.0178973636132
 30
0.0
 10
335.680953333826
 20
294.1421478519137
 30
0.0
 10
335.7148712542004
 20
294.1846308110617
 30
0.0
 10
335.7803836047265
 20
294.2707529861391
 30
0.0
 10
335.8120284922538
 20
294.3144417747461
 30
0.0
 10
335.9035689425061
 20
294.4474253314412
 30
0.0
 10
335.9600805866068
 20
294.5386314760948
 30
0.0
 10
336.0635388334998
 20
294.7264464945554
 30
0.0
 10
336.1104908530297
 20
294.8230523087662
 30
0.0
 10
336.1626282686636
 20
294.9475107597588
 30
0.0
 10
336.1727269052118
 20
294.9725881960445
 30
0.0
 10
336.1922465752071
 20
295.0231258067466
 30
0.0
 10
336.2016815831138
 20
295.0486265030681
 30
0.0
 10
336.2288170122588
 20
295.1253781220076
 30
0.0
 10
336.24534304186
 20
295.1768435791483
 30
0.0
 10
336.2901523067508
 20
295.3321475588835
 30
0.0
 10
336.3136852082869
 20
295.4368901707219
 30
0.0
 10
336.3472577006368
 20
295.6489434575541
 30
0.0
 10
336.3573035292239
 20
295.7562529453673
 30
0.0
 10
336.3605088473201
 20
295.8921696828832
 30
0.0
 10
336.3606782301709
 20
295.9194076461248
 30
0.0
 10
336.3600601041003
 20
295.9737725860638
 30
0.0
 10
336.3576998131369
 20
296.0552493585902
 30
0.0
 10
336.351001272677
 20
296.1365122994294
 30
0.0
 10
336.3445574416543
 20
296.1905900912184
 30
0.0
  0
SPLINE
  5
1C3
330
1F
100
AcDbEntity
  8
1
100
AcDbSpline
210
0.0
220
0.0
230
1.0
 70
    12
 71
     3
 72
     9
 73
     5
 74
     0
 42
0.000000001
 43
0.0000000001
 40
0.0
 40
0.0
 40
0.0
 40
0.0
 40
0.3365945560145264
 40
1.0
 40
1.0
 40
1.0
 40
1.0
 10
323.7281795214845
 20
296.1809690276978
 30
0.0
 41
1.001555714837019
 10
325.1565313977908
 20
296.1142917353749
 30
0.0
 41
1.001501059942869
 10
329.4045729727124
 20
295.7896956661504
 30
0.0
 41
1.001261338003601
 10
333.6444241974925
 20
295.5045536745398
 30
0.0
 41
1.001693403184172
 10
336.3445574416543
 20
296.1905900912184
 30
0.0
 41
1.001573708335711
  0
SPLINE
  5
1C4
330
1F
100
AcDbEntity
  8
1
100
AcDbSpline
210
0.0
220
0.0
230
1.0
 70
     8
 71
     3
 72
    15
 73
    11
 74
     0
 42
0.000000001
 43
0.0000000001
 40
0.0
 40
0.0
 40
0.0
 40
0.0
 40
0.2500000000000004
 40
0.5000000000000009
 40
0.7500000000000014
 40
0.7500000000000014
 40
0.812500000000001
 40
0.812500000000001
 40
0.8750000000000007
 40
1.0
 40
1.0
 40
1.0
 40
1.0
 10
287.7698471485406
 20
284.2407280267559
 30
0.0
 10
288.1557288128581
 20
284.2699805160778
 30
0.0
 10
288.9334114959775
 20
284.3058154361665
 30
0.0
 10
290.1172676546784
 20
284.2931888734295
 30
0.0
 10
290.9179286579123
 20
284.2410209776943
 30
0.0
 10
291.4219198505529
 20
284.1947126977884
 30
0.0
 10
291.5229452919766
 20
284.1847594056394
 30
0.0
 10
291.7248752946299
 20
284.1635299296872
 30
0.0
 10
292.0277326527631
 20
284.1296897256223
 30
0.0
 10
292.3304779592326
 20
284.0899085205553
 30
0.0
 10
292.5322589432653
 20
284.0607780483249
 30
0.0
  0
SPLINE
  5
1C5
330
1F
100
AcDbEntity
  8
1
100
AcDbSpline
210
0.0
220
0.0
230
1.0
 70
     8
 71
     3
 72
    12
 73
     8
 74
     0
 42
0.000000001
 43
0.0000000001
 40
0.0
 40
0.0
 40
0.0
 40
0.0
 40
0.25
 40
0.25
 40
0.5
 40
0.5
 40
1.0
 40
1.0
 40
1.0
 40
1.0
 10
279.4048419452957
 20
273.2301252235742
 30
0.0
 10
279.5536748165769
 20
273.3076520695463
 30
0.0
 10
279.7033051494192
 20
273.3888967247524
 30
0.0
 10
280.0038168022585
 20
273.5577102271846
 30
0.0
 10
280.1546982928135
 20
273.645280643773
 30
0.0
 10
280.60874109719
 20
273.9161279151697
 30
0.0
 10
280.9132883744756
 20
274.1074667801896
 30
0.0
 10
281.2185504442805
 20
274.3069667351474
 30
0.0
  0
SPLINE
  5
1C6
330
1F
100
AcDbEntity
  8
1
100
AcDbSpline
210
0.0
220
0.0
230
1.0
 70
     8
 71
     3
 72
    37
 73
    33
 74
     0
 42
0.000000001
 43
0.0000000001
 40
0.0
 40
0.0
 40
0.0
 40
0.0
 40
0.0625000000000004
 40
0.0625000000000004
 40
0.1250000000000007
 40
0.1250000000000007
 40
0.2500000000000025
 40
0.2500000000000025
 40
0.2656250000000029
 40
0.2656250000000029
 40
0.2812500000000033
 40
0.3125000000000038
 40
0.3125000000000038
 40
0.3750000000000041
 40
0.3750000000000041
 40
0.5000000000000039
 40
0.5000000000000039
 40
0.5156250000000036
 40
0.5156250000000036
 40
0.5312500000000032
 40
0.5625000000000029
 40
0.5625000000000029
 40
0.6250000000000027
 40
0.6250000000000027
 40
0.7500000000000022
 40
0.7500000000000022
 40
0.7812500000000019
 40
0.7812500000000019
 40
0.8125000000000017
 40
0.8750000000000012
 40
0.8750000000000012
 40
1.0
 40
1.0
 40
1.0
 40
1.0
 10
276.4275178783125
 20
276.7324164162164
 30
0.0
 10
276.4066751672071
 20
276.6272411948941
 30
0.0
 10
276.39209098275
 20
276.5235292337763
 30
0.0
 10
276.3749803414882
 20
276.3189978865784
 30
0.0
 10
276.3724548980355
 20
276.218178541938
 30
0.0
 10
276.3826063618446
 20
275.9200232819483
 30
0.0
 10
276.4129170598608
 20
275.7269861564674
 30
0.0
 10
276.4737330065667
 20
275.5162184241384
 30
0.0
 10
276.4808650555852
 20
275.4928872598896
 30
0.0
 10
276.4958051953394
 20
275.4466177827334
 30
0.0
 10
276.5192525244196
 20
275.3777202712772
 30
0.0
 10
276.5457658993895
 20
275.3103152459014
 30
0.0
 10
276.6027795161597
 20
275.1774284944312
 30
0.0
 10
276.6460987440478
 20
275.0913998261399
 30
0.0
 10
276.7914029526621
 20
274.8405458404582
 30
0.0
 10
276.9086605753079
 20
274.6829314961114
 30
0.0
 10
277.0628842486585
 20
274.5154280014077
 30
0.0
 10
277.0803480946623
 20
274.4969365753186
 30
0.0
 10
277.115791099448
 20
274.4603344324427
 30
0.0
 10
277.1697384736808
 20
274.405988684487
 30
0.0
 10
277.2259990253981
 20
274.353275485822
 30
0.0
 10
277.3415243396632
 20
274.2499295532547
 30
0.0
 10
277.4225426938738
 20
274.1838035071209
 30
0.0
 10
277.6771271935731
 20
273.9930803526805
 30
0.0
 10
277.8621698920224
 20
273.8761081401571
 30
0.0
 10
278.1119437820834
 20
273.7409805268601
 30
0.0
 10
278.1628488604808
 20
273.7145005952215
 30
0.0
 10
278.2664196802427
 20
273.6626699179798
 30
0.0
 10
278.4239454065225
 20
273.5868525126391
 30
0.0
 10
278.587845997845
 20
273.5165531403591
 30
0.0
 10
278.9239163352366
 20
273.3827221014534
 30
0.0
 10
279.1589514470715
 20
273.3024939547016
 30
0.0
 10
279.4048419452957
 20
273.2301252235742
 30
0.0
  0
SPLINE
  5
1C7
330
1F
100
AcDbEntity
  8
1
100
AcDbSpline
210
0.0
220
0.0
230
1.0
 70
     8
 71
     3
 72
    56
 73
    52
 74
     0
 42
0.000000001
 43
0.0000000001
 40
0.0
 40
0.0
 40
0.0
 40
0.0
 40
0.0625000000000014
 40
0.0625000000000014
 40
0.1250000000000027
 40
0.1250000000000027
 40
0.1875000000000041
 40
0.1875000000000041
 40
0.2187500000000049
 40
0.2187500000000049
 40
0.2500000000000058
 40
0.2500000000000058
 40
0.2812500000000066
 40
0.2812500000000066
 40
0.3125000000000074
 40
0.3125000000000074
 40
0.3437500000000082
 40
0.3437500000000082
 40
0.3750000000000089
 40
0.3750000000000089
 40
0.43750000000001
 40
0.43750000000001
 40
0.4687500000000108
 40
0.4687500000000108
 40
0.5000000000000112
 40
0.5000000000000112
 40
0.5312500000000118
 40
0.5312500000000118
 40
0.5625000000000124
 40
0.5625000000000124
 40
0.5781250000000124
 40
0.5781250000000124
 40
0.5937500000000125
 40
0.5937500000000125
 40
0.6250000000000119
 40
0.6250000000000119
 40
0.6875000000000109
 40
0.6875000000000109
 40
0.7187500000000102
 40
0.7187500000000102
 40
0.7500000000000094
 40
0.7500000000000094
 40
0.8125000000000072
 40
0.8125000000000072
 40
0.8437500000000063
 40
0.8437500000000063
 40
0.8750000000000053
 40
0.8750000000000053
 40
0.9375000000000028
 40
0.9375000000000028
 40
1.0
 40
1.0
 40
1.0
 40
1.0
 10
297.9048419452957
 20
283.3088133695735
 30
0.0
 10
298.6669590837574
 20
283.178662969796
 30
0.0
 10
299.4256569760338
 20
283.0404571427188
 30
0.0
 10
300.9355381884127
 20
282.7480235813615
 30
0.0
 10
301.6867128349289
 20
282.5937733265694
 30
0.0
 10
303.1811594000291
 20
282.2706926314881
 30
0.0
 10
303.9244198760165
 20
282.1018407576166
 30
0.0
 10
305.0335464310219
 20
281.8402689267365
 30
0.0
 10
305.4023004927467
 20
281.751714524503
 30
0.0
 10
306.1380136979787
 20
281.5725583467577
 30
0.0
 10
306.5049726328857
 20
281.4819568884287
 30
0.0
 10
307.2372775147088
 20
281.2995452161645
 30
0.0
 10
307.6026234442541
 20
281.2077359500104
 30
0.0
 10
308.3319558478016
 20
281.0238875259754
 30
0.0
 10
308.6959425594665
 20
280.9318499843466
 30
0.0
 10
309.4228785800404
 20
280.7486256798469
 30
0.0
 10
309.7858284062542
 20
280.6574410915443
 30
0.0
 10
310.5110699480232
 20
280.4770477135767
 30
0.0
 10
310.8734623349522
 20
280.3878177930496
 30
0.0
 10
311.9590347167326
 20
280.1250370967579
 30
0.0
 10
312.6808987551324
 20
279.9564155453769
 30
0.0
 10
313.7638520074119
 20
279.7185554470262
 30
0.0
 10
314.1248584974964
 20
279.6417535090815
 30
0.0
 10
314.8474759637929
 20
279.4938372422031
 30
0.0
 10
315.2090881656807
 20
279.4227228102955
 30
0.0
 10
315.9333731642351
 20
279.2865692265393
 30
0.0
 10
316.2960453765601
 20
279.2215274514949
 30
0.0
 10
317.022799173048
 20
279.0976331918102
 30
0.0
 10
317.3868796625878
 20
279.0387779532066
 30
0.0
 10
317.9342590527822
 20
278.9550814378517
 30
0.0
 10
318.1169281029152
 20
278.9279457799189
 30
0.0
 10
318.482714435282
 20
278.8751812929935
 30
0.0
 10
318.6658323169646
 20
278.8495525996361
 30
0.0
 10
319.2157857674578
 20
278.7747627274939
 30
0.0
 10
319.5832187574416
 20
278.727691163365
 30
0.0
 10
320.6874054144073
 20
278.5937920450819
 30
0.0
 10
321.4260259163206
 20
278.5142175490604
 30
0.0
 10
322.5362183478677
 20
278.4067344282321
 30
0.0
 10
322.9066654792438
 20
278.3729041798525
 30
0.0
 10
323.6481298547056
 20
278.3089658924217
 30
0.0
 10
324.0192091186144
 20
278.2788540609045
 30
0.0
 10
325.132225254269
 20
278.1938795355965
 30
0.0
 10
325.8741389605672
 20
278.1443208484577
 30
0.0
 10
326.9860422788379
 20
278.0800866686941
 30
0.0
 10
327.3565161900752
 20
278.0603686724024
 30
0.0
 10
328.0970299922353
 20
278.0243429303336
 30
0.0
 10
328.4670470966207
 20
278.0080311771461
 30
0.0
 10
329.5768856559035
 20
277.9645561800572
 30
0.0
 10
330.3165294451583
 20
277.9429305887938
 30
0.0
 10
331.7979280798033
 20
277.9146611955427
 30
0.0
 10
332.5396864623399
 20
277.9079935137005
 30
0.0
 10
333.2834943268348
 20
277.9079935137005
 30
0.0
  0
SPLINE
  5
1C8
330
1F
100
AcDbEntity
  8
1
100
AcDbSpline
210
0.0
220
0.0
230
1.0
 70
     8
 71
     3
 72
    46
 73
    42
 74
     0
 42
0.000000001
 43
0.0000000001
 40
0.0
 40
0.0
 40
0.0
 40
0.0
 40
0.0625000000000002
 40
0.0625000000000002
 40
0.1250000000000003
 40
0.1250000000000003
 40
0.1875000000000004
 40
0.1875000000000004
 40
0.2500000000000006
 40
0.2500000000000006
 40
0.2812500000000004
 40
0.2812500000000004
 40
0.3125000000000004
 40
0.3125000000000004
 40
0.3750000000000002
 40
0.3750000000000002
 40
0.4375
 40
0.4375
 40
0.4999999999999999
 40
0.4999999999999999
 40
0.5624999999999996
 40
0.5624999999999996
 40
0.6249999999999995
 40
0.6249999999999995
 40
0.6562499999999997
 40
0.6562499999999997
 40
0.6875
 40
0.6875
 40
0.7499999999999997
 40
0.7499999999999997
 40
0.7812499999999996
 40
0.7812499999999996
 40
0.8124999999999994
 40
0.8124999999999994
 40
0.8437499999999992
 40
0.8437499999999992
 40
0.8749999999999991
 40
0.8749999999999991
 40
0.9374999999999996
 40
0.9374999999999996
 40
1.0
 40
1.0
 40
1.0
 40
1.0
 10
297.9048419452957
 20
299.906007059925
 30
0.0
 10
298.4356168944842
 20
299.904125189282
 30
0.0
 10
298.9649677046829
 20
299.9008042438932
 30
0.0
 10
300.0206117584972
 20
299.8902143111171
 30
0.0
 10
300.5469035502798
 20
299.8829448400446
 30
0.0
 10
301.5962791401705
 20
299.8631763884191
 30
0.0
 10
302.1193611067281
 20
299.850675149088
 30
0.0
 10
303.1622771558848
 20
299.818987115559
 30
0.0
 10
303.6821092792061
 20
299.7997955489859
 30
0.0
 10
304.4595180888969
 20
299.7648481691074
 30
0.0
 10
304.7183054927567
 20
299.7521696759683
 30
0.0
 10
305.2346527749418
 20
299.7246051302991
 30
0.0
 10
305.492267129849
 20
299.7097167034248
 30
0.0
 10
306.2635312364977
 20
299.6614975952305
 30
0.0
 10
306.7755906775048
 20
299.6245962427805
 30
0.0
 10
307.7962705359492
 20
299.5403424704597
 30
0.0
 10
308.3048921789337
 20
299.4929818545183
 30
0.0
 10
309.3198396496913
 20
299.3874920186383
 30
0.0
 10
309.8261690908988
 20
299.3293579096295
 30
0.0
 10
310.8379540298439
 20
299.2028513880766
 30
0.0
 10
311.3434778680865
 20
299.1344692743972
 30
0.0
 10
312.3544027131229
 20
298.9890359576446
 30
0.0
 10
312.8599068744699
 20
298.9119820552052
 30
0.0
 10
313.6194364881169
 20
298.7915588480887
 30
0.0
 10
313.872854597635
 20
298.7506544489193
 30
0.0
 10
314.3800640276487
 20
298.6672667951127
 30
0.0
 10
314.6338380818029
 20
298.6247626836767
 30
0.0
 10
315.3953972470227
 20
298.4945391413198
 30
0.0
 10
315.9033951492709
 20
298.4040883699387
 30
0.0
 10
316.6651985682062
 20
298.2620976152466
 30
0.0
 10
316.9191070813383
 20
298.2137195769476
 30
0.0
 10
317.4268334664748
 20
298.1147853713943
 30
0.0
 10
317.6806582466213
 20
298.0642278573867
 30
0.0
 10
318.1880035802016
 20
297.9609354058897
 30
0.0
 10
318.4415434002463
 20
297.9081853284117
 30
0.0
 10
318.948417506212
 20
297.8005450202512
 30
0.0
 10
319.2017636881364
 20
297.7456733007459
 30
0.0
 10
319.9617223223809
 20
297.5782007535835
 30
0.0
 10
320.4682672043583
 20
297.4627576265025
 30
0.0
 10
321.4818248165726
 20
297.2254692093604
 30
0.0
 10
321.9888320221025
 20
297.1036200607634
 30
0.0
 10
322.4962301974203
 20
296.9789428689907
 30
0.0
  0
SPLINE
  5
1C9
330
1F
100
AcDbEntity
  8
1
100
AcDbSpline
210
0.0
220
0.0
230
1.0
 70
     8
 71
     3
 72
    42
 73
    38
 74
     0
 42
0.000000001
 43
0.0000000001
 40
0.0
 40
0.0
 40
0.0
 40
0.0
 40
0.0560836771655834
 40
0.0560836771655834
 40
0.1121673543311667
 40
0.1121673543311667
 40
0.1682510314967501
 40
0.1682510314967501
 40
0.2243347086623334
 40
0.2243347086623334
 40
0.2523765472451246
 40
0.2523765472451246
 40
0.2804183858279158
 40
0.2804183858279158
 40
0.3365020629934983
 40
0.3365020629934983
 40
0.3925857401590808
 40
0.3925857401590808
 40
0.4486694173246633
 40
0.4486694173246633
 40
0.5608367716558282
 40
0.5608367716558282
 40
0.6169204488214112
 40
0.6169204488214112
 40
0.6730041259869941
 40
0.6730041259869941
 40
0.729087803152577
 40
0.729087803152577
 40
0.7851714803181601
 40
0.7851714803181601
 40
0.8412551574837429
 40
0.8412551574837429
 40
0.8973388346493258
 40
0.8973388346493258
 40
0.9534225118149088
 40
0.9534225118149088
 40
1.0
 40
1.0
 40
1.0
 40
1.0
 10
336.001107331698
 20
299.783574021832
 30
0.0
 10
335.6395375347288
 20
299.814510367514
 30
0.0
 10
335.2737221986976
 20
299.8382859859357
 30
0.0
 10
334.5331582384882
 20
299.8744817449543
 30
0.0
 10
334.1584091062323
 20
299.8869100342239
 30
0.0
 10
333.4000966424664
 20
299.9032016424889
 30
0.0
 10
333.0165331471119
 20
299.9070714079485
 30
0.0
 10
332.2412853892484
 20
299.908622104024
 30
0.0
 10
331.8496019233162
 20
299.9063075646425
 30
0.0
 10
331.2569316130372
 20
299.8995413208277
 30
0.0
 10
331.0585216833964
 20
299.8967318893772
 30
0.0
 10
330.6602026912102
 20
299.8901654535016
 30
0.0
 10
330.4602135446023
 20
299.8864066230715
 30
0.0
 10
329.8592989795492
 20
299.8739034494415
 30
0.0
 10
329.4572043320302
 20
299.8639545508674
 30
0.0
 10
328.6514220368946
 20
299.8412180765937
 30
0.0
 10
328.2477483055016
 20
299.8284244004875
 30
0.0
 10
327.4403228548912
 20
299.7996515506113
 30
0.0
 10
327.0365079869465
 20
299.7836800368129
 30
0.0
 10
325.825185346295
 20
299.7308245056336
 30
0.0
 10
325.0178230298535
 20
299.6890391145111
 30
0.0
 10
323.8084900814608
 20
299.6148770639134
 30
0.0
 10
323.4056586372919
 20
299.5882317810721
 30
0.0
 10
322.6007347216772
 20
299.53070214536
 30
0.0
 10
322.1986238661545
 20
299.4998161431336
 30
0.0
 10
321.3958227984727
 20
299.4333843862221
 30
0.0
 10
320.9950713540264
 20
299.3978364007201
 30
0.0
 10
320.1950900096842
 20
299.321513261031
 30
0.0
 10
319.7958583527995
 20
299.280741204135
 30
0.0
 10
318.9992036505253
 20
299.1932300085734
 30
0.0
 10
318.6017880753032
 20
299.1464847364077
 30
0.0
 10
317.8091330039947
 20
299.0460395537247
 30
0.0
 10
317.4138520421343
 20
298.992374760377
 30
0.0
 10
316.6250110591519
 20
298.8779961174696
 30
0.0
 10
316.2314539832374
 20
298.8172769845135
 30
0.0
 10
315.5122199624251
 20
298.6997178864009
 30
0.0
 10
315.1863358351377
 20
298.6439597300407
 30
0.0
 10
314.8607412741207
 20
298.5859062263681
 30
0.0
  0
SPLINE
  5
1CA
330
1F
100
AcDbEntity
  8
1
100
AcDbSpline
210
0.0
220
0.0
230
1.0
 70
     8
 71
     3
 72
    33
 73
    29
 74
     0
 42
0.000000001
 43
0.0000000001
 40
0.0
 40
0.0
 40
0.0
 40
0.0
 40
0.0625000000000001
 40
0.0625000000000001
 40
0.1250000000000002
 40
0.1250000000000002
 40
0.1875000000000003
 40
0.1875000000000003
 40
0.2500000000000004
 40
0.2500000000000004
 40
0.3125000000000005
 40
0.3125000000000005
 40
0.3437500000000006
 40
0.3437500000000006
 40
0.3593750000000004
 40
0.3593750000000004
 40
0.3750000000000002
 40
0.4375000000000003
 40
0.4375000000000003
 40
0.5000000000000005
 40
0.5000000000000005
 40
0.6250000000000004
 40
0.6250000000000004
 40
0.7500000000000001
 40
0.7500000000000001
 40
0.875
 40
0.875
 40
1.0
 40
1.0
 40
1.0
 40
1.0
 10
292.5322589432653
 20
277.9617577793136
 30
0.0
 10
292.2470084658014
 20
277.9544448430592
 30
0.0
 10
291.9655214664458
 20
277.9395691812853
 30
0.0
 10
291.4091475456616
 20
277.8967751008454
 30
0.0
 10
291.134262139473
 20
277.8688548903841
 30
0.0
 10
290.5903616981056
 20
277.8016620617314
 30
0.0
 10
290.3213476007758
 20
277.762387954429
 30
0.0
 10
289.7886168778877
 20
277.6738381656517
 30
0.0
 10
289.5249008686445
 20
277.6245610937526
 30
0.0
 10
289.0023278116507
 20
277.5170592455174
 30
0.0
 10
288.7434712137284
 20
277.4588331139071
 30
0.0
 10
288.3585908528592
 20
277.3653815915568
 30
0.0
 10
288.2308657111898
 20
277.333210491101
 30
0.0
 10
288.0401080664929
 20
277.2834824116255
 30
0.0
 10
287.9766332638121
 20
277.2666534592765
 30
0.0
 10
287.8502199681432
 20
277.2325852977943
 30
0.0
 10
287.53539865682
 20
277.146354495183
 30
0.0
 10
287.2264914548383
 20
277.0549850868559
 30
0.0
 10
286.7393120376776
 20
276.9028196569986
 30
0.0
 10
286.4992599158397
 20
276.8237479572271
 30
0.0
 10
285.7892359968209
 20
276.5782305332769
 30
0.0
 10
285.3293472039386
 20
276.4035180278588
 30
0.0
 10
284.4354601523066
 20
276.034334792817
 30
0.0
 10
284.0014827722395
 20
275.8398427385841
 30
0.0
 10
283.1597886819427
 20
275.4324493250143
 30
0.0
 10
282.7520817433028
 20
275.2195379009712
 30
0.0
 10
281.964183528905
 20
274.7762145318258
 30
0.0
 10
281.5839941782682
 20
274.5457976141907
 30
0.0
 10
281.2185504442807
 20
274.3069667351473
 30
0.0
  0
SPLINE
  5
1CC
330
1F
100
AcDbEntity
  8
1
100
AcDbSpline
210
0.0
220
0.0
230
1.0
 70
     8
 71
     3
 72
    32
 73
    28
 74
     0
 42
0.000000001
 43
0.0000000001
 40
0.0
 40
0.0
 40
0.0
 40
0.0
 40
0.0625000000000007
 40
0.0625000000000007
 40
0.1250000000000014
 40
0.1250000000000014
 40
0.1875000000000021
 40
0.1875000000000021
 40
0.2500000000000027
 40
0.2500000000000027
 40
0.3125000000000036
 40
0.3125000000000036
 40
0.3750000000000042
 40
0.3750000000000042
 40
0.4062500000000047
 40
0.4062500000000047
 40
0.4375000000000048
 40
0.4375000000000048
 40
0.5000000000000036
 40
0.5000000000000036
 40
0.6250000000000028
 40
0.6250000000000028
 40
0.7500000000000018
 40
0.7500000000000018
 40
0.8750000000000008
 40
0.8750000000000008
 40
1.0
 40
1.0
 40
1.0
 40
1.0
 10
331.3536193680887
 20
291.6853128866726
 30
0.0
 10
331.1672657001056
 20
291.783562885445
 30
0.0
 10
330.9806796156525
 20
291.8834469082166
 30
0.0
 10
330.6071478633127
 20
292.0857430360516
 30
0.0
 10
330.4202015447681
 20
292.1881597156186
 30
0.0
 10
330.0460148824988
 20
292.3950602440939
 30
0.0
 10
329.8587742041415
 20
292.4995464456657
 30
0.0
 10
329.4840409188693
 20
292.7102900542216
 30
0.0
 10
329.2965481266721
 20
292.8165487638495
 30
0.0
 10
328.9213365172177
 20
293.0306552717478
 30
0.0
 10
328.7336175929231
 20
293.1385038225528
 30
0.0
 10
328.3579675826536
 20
293.3556925451238
 30
0.0
 10
328.1700364317742
 20
293.4650331732047
 30
0.0
 10
327.8879837811979
 20
293.6301403542404
 30
0.0
 10
327.7939401709446
 20
293.6853592987556
 30
0.0
 10
327.6058011190975
 20
293.7961615924889
 30
0.0
 10
327.5117811569715
 20
293.85170066462
 30
0.0
 10
327.2303181764928
 20
294.0184603608935
 30
0.0
 10
327.0432897444277
 20
294.129930422299
 30
0.0
 10
326.4840016926506
 20
294.4652103848639
 30
0.0
 10
326.1135349110818
 20
294.6898879319497
 30
0.0
 10
325.3772692976267
 20
295.141502085336
 30
0.0
 10
325.0114706413148
 20
295.3684387766056
 30
0.0
 10
324.284566172731
 20
295.8245832660107
 30
0.0
 10
323.9234596841433
 20
296.053790736842
 30
0.0
 10
323.206110646402
 20
296.5145595871681
 30
0.0
 10
322.849866352809
 20
296.7461201224395
 30
0.0
 10
322.496230197439
 20
296.9789428689784
 30
0.0
  0
LINE
  5
1E7
330
1F
100
AcDbEntity
  8
SK4
100
AcDbLine
 10
214.904842
 20
288.907994
 30
0.0
 11
277.404842
 21
288.907994
 31
0.0
  0
LINE
  5
1E8
330
1F
100
AcDbEntity
  8
4
100
AcDbLine
 10
269.532259
 20
288.907994
 30
0.0
 11
349.295556
 21
288.907994
 31
0.0
  0
MTEXT
  5
1EE
330
1F
100
AcDbEntity
  8
SK6
100
AcDbMText
 10
258.520787
 20
241.27662
 30
0.0
 40
3.5
 41
0.0
 71
     7
 72
     5
  1
\W0.7022;802D-23-46-S25
  7
cesky
 73
     2
 44
0.8433729999999998
  0
MTEXT
  5
2FF
330
1F
100
AcDbEntity
  8
2
100
AcDbMText
 10
278.827842
 20
340.562135
 30
0.0
 40
3.5
 41
0.0
 71
     7
 72
     5
  1
\W0.7809;127
  7
cesky
 73
     2
 44
0.8433729999999998
  0
LINE
  5
300
330
1F
100
AcDbEntity
  8
2
100
AcDbLine
 10
345.404842
 20
302.407994
 30
0.0
 11
345.404842
 21
341.687968
 31
0.0
  0
LINE
  5
301
330
1F
100
AcDbEntity
  8
2
100
AcDbLine
 10
218.404842
 20
299.407994
 30
0.0
 11
218.404842
 21
341.687968
 31
0.0
  0
LINE
  5
302
330
1F
100
AcDbEntity
  8
2
100
AcDbLine
 10
345.404842
 20
340.687968
 30
0.0
 11
218.404842
 21
340.687968
 31
0.0
  0
SOLID
  5
303
330
1F
100
AcDbEntity
  8
2
100
AcDbTrace
 10
345.404842
 20
340.687968
 30
0.0
 11
341.904844
 21
340.070823
 31
0.0
 12
341.90484
 22
341.305112
 32
0.0
 13
341.90484
 23
341.305112
 33
0.0
  0
SOLID
  5
304
330
1F
100
AcDbEntity
  8
2
100
AcDbTrace
 10
218.404842
 20
340.687968
 30
0.0
 11
221.90484
 21
341.305112
 31
0.0
 12
221.904844
 22
340.070823
 32
0.0
 13
221.904844
 23
340.070823
 33
0.0
  0
MTEXT
  5
305
330
1F
100
AcDbEntity
  8
2
100
AcDbMText
 10
244.590342
 20
327.385163
 30
0.0
 40
3.5
 41
0.0
 71
     7
 72
     5
  1
\W0.7259;56
  7
cesky
 73
     2
 44
0.8433729999999998
  0
LINE
  5
306
330
1F
100
AcDbEntity
  8
2
100
AcDbLine
 10
274.404842
 20
288.907994
 30
0.0
 11
274.404842
 21
328.5109970000001
 31
0.0
  0
LINE
  5
307
330
1F
100
AcDbEntity
  8
2
100
AcDbLine
 10
218.404842
 20
299.407994
 30
0.0
 11
218.404842
 21
328.5109970000001
 31
0.0
  0
LINE
  5
308
330
1F
100
AcDbEntity
  8
2
100
AcDbLine
 10
274.404842
 20
327.510997
 30
0.0
 11
218.404842
 21
327.510997
 31
0.0
  0
SOLID
  5
309
330
1F
100
AcDbEntity
  8
2
100
AcDbTrace
 10
274.404842
 20
327.510997
 30
0.0
 11
270.904844
 21
326.893852
 31
0.0
 12
270.90484
 22
328.128141
 32
0.0
 13
270.90484
 23
328.128141
 33
0.0
  0
SOLID
  5
30A
330
1F
100
AcDbEntity
  8
2
100
AcDbTrace
 10
218.404842
 20
327.510997
 30
0.0
 11
221.90484
 21
328.128141
 31
0.0
 12
221.904844
 22
326.893852
 32
0.0
 13
221.904844
 23
326.893852
 33
0.0
  0
MTEXT
  5
30B
330
1F
100
AcDbEntity
  8
2
100
AcDbMText
 10
313.793868
 20
316.511754
 30
0.0
 40
3.5
 41
0.0
 71
     7
 72
     5
  1
\W0.8459;54,5
  7
cesky
 73
     2
 44
0.8433729999999998
  0
LINE
  5
30C
330
1F
100
AcDbEntity
  8
2
100
AcDbLine
 10
345.404842
 20
302.407994
 30
0.0
 11
345.404842
 21
317.637587
 31
0.0
  0
LINE
  5
30D
330
1F
100
AcDbEntity
  8
2
100
AcDbLine
 10
290.861894
 20
300.140398
 30
0.0
 11
290.861894
 21
317.637587
 31
0.0
  0
LINE
  5
30E
330
1F
100
AcDbEntity
  8
2
100
AcDbLine
 10
345.404842
 20
316.637587
 30
0.0
 11
290.861894
 21
316.637587
 31
0.0
  0
SOLID
  5
30F
330
1F
100
AcDbEntity
  8
2
100
AcDbTrace
 10
345.404842
 20
316.637587
 30
0.0
 11
341.904844
 21
316.020443
 31
0.0
 12
341.90484
 22
317.254732
 32
0.0
 13
341.90484
 23
317.254732
 33
0.0
  0
SOLID
  5
310
330
1F
100
AcDbEntity
  8
2
100
AcDbTrace
 10
290.861894
 20
316.637587
 30
0.0
 11
294.361892
 21
317.254732
 31
0.0
 12
294.361896
 22
316.020443
 32
0.0
 13
294.361896
 23
316.020443
 33
0.0
  0
MTEXT
  5
311
330
1F
100
AcDbEntity
  8
2
100
AcDbMText
 10
308.090342
 20
327.385163
 30
0.0
 40
3.5
 41
0.0
 71
     7
 72
     5
  1
\W0.9581;71
  7
cesky
 73
     2
 44
0.8433729999999998
  0
LINE
  5
312
330
1F
100
AcDbEntity
  8
2
100
AcDbLine
 10
345.404842
 20
300.407994
 30
0.0
 11
345.404842
 21
328.5109970000001
 31
0.0
  0
LINE
  5
313
330
1F
100
AcDbEntity
  8
2
100
AcDbLine
 10
274.404842
 20
289.907567
 30
0.0
 11
274.404842
 21
328.5109970000001
 31
0.0
  0
LINE
  5
314
330
1F
100
AcDbEntity
  8
2
100
AcDbLine
 10
345.404842
 20
327.510997
 30
0.0
 11
274.404842
 21
327.510997
 31
0.0
  0
SOLID
  5
315
330
1F
100
AcDbEntity
  8
2
100
AcDbTrace
 10
345.404842
 20
327.510997
 30
0.0
 11
341.904844
 21
326.893852
 31
0.0
 12
341.90484
 22
328.128141
 32
0.0
 13
341.90484
 23
328.128141
 33
0.0
  0
SOLID
  5
316
330
1F
100
AcDbEntity
  8
2
100
AcDbTrace
 10
274.404842
 20
327.510997
 30
0.0
 11
277.90484
 21
328.128141
 31
0.0
 12
277.904844
 22
326.893852
 32
0.0
 13
277.904844
 23
326.893852
 33
0.0
  0
MTEXT
  5
317
330
1F
100
AcDbEntity
  8
2
100
AcDbMText
 10
359.467615
 20
287.685295
 30
0.0
 40
3.5
 41
0.0
 71
     7
 72
     5
  1
\W0.7045;23
  7
cesky
 11
0.0000000000000001
 21
1.0
 31
0.0
 73
     2
 44
0.8433729999999998
  0
MTEXT
  5
318
330
1F
100
AcDbEntity
  8
2
100
AcDbMText
 10
359.467615
 20
280.9477950000001
 30
0.0
 40
3.5
 41
0.0
 71
     7
 72
     5
  1
\W3.0115;\H2.63;%%c\H3.50;
  7
cesky
 11
0.0000000000000001
 21
1.0
 31
0.0
 73
     2
 44
0.8433729999999998
  0
LINE
  5
319
330
1F
100
AcDbEntity
  8
2
100
AcDbLine
 10
347.404842
 20
300.407994
 30
0.0
 11
360.655032
 21
300.407994
 31
0.0
  0
LINE
  5
31A
330
1F
100
AcDbEntity
  8
2
100
AcDbLine
 10
359.655032
 20
300.407994
 30
0.0
 11
359.655032
 21
280.790295
 31
0.0
  0
SOLID
  5
31B
330
1F
100
AcDbEntity
  8
2
100
AcDbTrace
 10
359.655032
 20
300.407994
 30
0.0
 11
360.272176
 21
296.907996
 31
0.0
 12
359.037887
 22
296.9079910000001
 32
0.0
 13
359.037887
 23
296.9079910000001
 33
0.0
  0
MTEXT
  5
31C
330
1F
100
AcDbEntity
  8
SK2
100
AcDbMText
 10
204.240395
 20
290.434244
 30
0.0
 40
3.5
 41
0.0
 71
     7
 72
     5
  1
\W0.7045;25
  7
cesky
 11
0.0000000000000001
 21
1.0
 31
0.0
 73
     2
 44
0.8433729999999998
  0
MTEXT
  5
31D
330
1F
100
AcDbEntity
  8
SK2
100
AcDbMText
 10
204.240395
 20
283.696744
 30
0.0
 40
3.5
 41
0.0
 71
     7
 72
     5
  1
\W3.0115;\H2.63;%%c\H3.50;
  7
cesky
 11
0.0000000000000001
 21
1.0
 31
0.0
 73
     2
 44
0.8433729999999998
  0
LINE
  5
31E
330
1F
100
AcDbEntity
  8
SK2
100
AcDbLine
 10
220.404842
 20
301.407994
 30
0.0
 11
203.427812
 21
301.407994
 31
0.0
  0
LINE
  5
31F
330
1F
100
AcDbEntity
  8
SK2
100
AcDbLine
 10
220.404842
 20
276.407994
 30
0.0
 11
203.427812
 21
276.407994
 31
0.0
  0
LINE
  5
320
330
1F
100
AcDbEntity
  8
SK2
100
AcDbLine
 10
204.427812
 20
301.407994
 30
0.0
 11
204.427812
 21
276.407994
 31
0.0
  0
SOLID
  5
321
330
1F
100
AcDbEntity
  8
SK2
100
AcDbTrace
 10
204.427812
 20
301.407994
 30
0.0
 11
205.044956
 21
297.9079959999999
 31
0.0
 12
203.810668
 22
297.907991
 32
0.0
 13
203.810668
 23
297.907991
 33
0.0
  0
SOLID
  5
322
330
1F
100
AcDbEntity
  8
SK2
100
AcDbTrace
 10
204.427812
 20
276.407994
 30
0.0
 11
203.810668
 21
279.9079910000001
 31
0.0
 12
205.044956
 22
279.907996
 32
0.0
 13
205.044956
 23
279.907996
 33
0.0
  0
MTEXT
  5
323
330
1F
100
AcDbEntity
  8
SK2
100
AcDbMText
 10
191.10057
 20
290.434244
 30
0.0
 40
3.5
 41
0.0
 71
     7
 72
     5
  1
\W0.7045;35
  7
cesky
 11
0.0000000000000001
 21
1.0
 31
0.0
 73
     2
 44
0.8433729999999998
  0
MTEXT
  5
324
330
1F
100
AcDbEntity
  8
SK2
100
AcDbMText
 10
191.10057
 20
283.696744
 30
0.0
 40
3.5
 41
0.0
 71
     7
 72
     5
  1
\W3.0115;\H2.63;%%c\H3.50;
  7
cesky
 11
0.0000000000000001
 21
1.0
 31
0.0
 73
     2
 44
0.8433729999999998
  0
LINE
  5
325
330
1F
100
AcDbEntity
  8
SK2
100
AcDbLine
 10
274.904842
 20
306.407994
 30
0.0
 11
190.287987
 21
306.407994
 31
0.0
  0
LINE
  5
326
330
1F
100
AcDbEntity
  8
SK2
100
AcDbLine
 10
274.904842
 20
271.407994
 30
0.0
 11
190.287987
 21
271.407994
 31
0.0
  0
LINE
  5
327
330
1F
100
AcDbEntity
  8
SK2
100
AcDbLine
 10
191.287987
 20
306.407994
 30
0.0
 11
191.287987
 21
271.407994
 31
0.0
  0
SOLID
  5
328
330
1F
100
AcDbEntity
  8
SK2
100
AcDbTrace
 10
191.287987
 20
306.407994
 30
0.0
 11
191.905131
 21
302.907996
 31
0.0
 12
190.670842
 22
302.907991
 32
0.0
 13
190.670842
 23
302.907991
 33
0.0
  0
SOLID
  5
329
330
1F
100
AcDbEntity
  8
SK2
100
AcDbTrace
 10
191.287987
 20
271.407994
 30
0.0
 11
190.670842
 21
274.907991
 31
0.0
 12
191.905131
 22
274.9079959999999
 32
0.0
 13
191.905131
 23
274.9079959999999
 33
0.0
  0
LINE
  5
32A
330
1F
100
AcDbEntity
  8
CUT
100
AcDbLine
 10
345.0553941367714
 20
294.7147792808627
 30
0.0
 11
344.8313903887458
 21
299.6750818221575
 31
0.0
  0
LINE
  5
32B
330
1F
100
AcDbEntity
  8
CUT
100
AcDbLine
 10
344.0294770328667
 20
300.4042250510514
 30
0.0
 11
337.6366870751281
 21
300.1096633889452
 31
0.0
  0
LINE
  5
32E
330
1F
100
AcDbEntity
  8
CUT
100
AcDbLine
 10
345.4048419452957
 20
289.5994465551304
 30
0.0
 11
345.3232220537611
 21
294.2691103710316
 31
0.0
  0
LINE
  5
32F
330
1F
100
AcDbEntity
  8
CUT
100
AcDbLine
 10
345.3232220537611
 20
294.2691103710316
 30
0.0
 11
345.0553941367714
 21
294.7147792808627
 31
0.0
  0
LINE
  5
330
330
1F
100
AcDbEntity
  8
CUT
100
AcDbLine
 10
336.90355
 20
288.907994
 30
0.0
 11
345.404842
 21
288.907994
 31
0.0
  0
LINE
  5
331
330
1F
100
AcDbEntity
  8
CUT
100
AcDbLine
 10
336.90355
 20
299.309151
 30
0.0
 11
336.90355
 21
288.907994
 31
0.0
  0
LINE
  5
332
330
1F
100
AcDbEntity
  8
CUT
100
AcDbLine
 10
345.404842
 20
288.907994
 30
0.0
 11
345.404842
 21
289.599447
 31
0.0
  0
ARC
  5
333
330
1F
100
AcDbEntity
  8
CUT
100
AcDbCircle
 10
344.0558828257781
 20
299.628122129029
 30
0.0
 40
0.776928048791439
100
AcDbArc
 50
3.465228468793109
 51
89.18784161434507
  0
ARC
  5
334
330
1F
100
AcDbEntity
  8
CUT
100
AcDbCircle
 10
344.0624811536738
 20
299.6886151543436
 30
0.0
 40
0.7163705718804546
100
AcDbArc
 50
89.64695261105074
 51
92.64062554105294
  0
ARC
  5
335
330
1F
100
AcDbEntity
  8
CUT
100
AcDbCircle
 10
337.6827265508727
 20
299.3304476296795
 30
0.0
 40
0.7805746811258758
100
AcDbArc
 50
93.38135422299876
 51
174.6859179100925
  0
ARC
  5
336
330
1F
100
AcDbEntity
  8
CUT
100
AcDbCircle
 10
337.6190161117063
 20
299.3410079182096
 30
0.0
 40
0.7161748925259982
100
AcDbArc
 50
175.0550790089623
 51
182.5495117406725
  0
ENDSEC
  0
SECTION
  2
OBJECTS
  0
DICTIONARY
  5
C
330
0
100
AcDbDictionary
281
     1
  3
ACAD_CIP_PREVIOUS_PRODUCT_INFO
350
2FC
  3
ACAD_COLOR
350
2F7
  3
ACAD_DETAILVIEWSTYLE
350
2F3
  3
ACAD_GROUP
350
D
  3
ACAD_LAYOUT
350
1A
  3
ACAD_MATERIAL
350
43
  3
ACAD_MLEADERSTYLE
350
6B
  3
ACAD_MLINESTYLE
350
17
  3
ACAD_PLOTSETTINGS
350
19
  3
ACAD_PLOTSTYLENAME
350
E
  3
ACAD_SCALELIST
350
47
  3
ACAD_SECTIONVIEWSTYLE
350
2F4
  3
ACAD_TABLESTYLE
350
69
  3
ACAD_VISUALSTYLE
350
2A
  3
ACDB_RECOMPOSE_DATA
350
362
  3
AcDbVariableDictionary
350
2B0
  0
DICTIONARY
  5
345
330
10
100
AcDbDictionary
280
     1
281
     1
  3
ADSK_XREC_LAYER_RECONCILED
360
346
  0
DICTIONARY
  5
347
330
337
100
AcDbDictionary
280
     1
281
     1
  3
ADSK_XREC_LAYER_RECONCILED
360
348
  0
DICTIONARY
  5
349
330
338
100
AcDbDictionary
280
     1
281
     1
  3
ADSK_XREC_LAYER_RECONCILED
360
34A
  0
DICTIONARY
  5
34B
330
339
100
AcDbDictionary
280
     1
281
     1
  3
ADSK_XREC_LAYER_RECONCILED
360
34C
  0
DICTIONARY
  5
34D
330
33B
100
AcDbDictionary
280
     1
281
     1
  3
ADSK_XREC_LAYER_RECONCILED
360
34E
  0
DICTIONARY
  5
34F
330
33C
100
AcDbDictionary
280
     1
281
     1
  3
ADSK_XREC_LAYER_RECONCILED
360
350
  0
DICTIONARY
  5
351
330
33E
100
AcDbDictionary
280
     1
281
     1
  3
ADSK_XREC_LAYER_RECONCILED
360
352
  0
DICTIONARY
  5
353
330
33F
100
AcDbDictionary
280
     1
281
     1
  3
ADSK_XREC_LAYER_RECONCILED
360
354
  0
DICTIONARY
  5
355
330
340
100
AcDbDictionary
280
     1
281
     1
  3
ADSK_XREC_LAYER_RECONCILED
360
356
  0
DICTIONARY
  5
357
330
341
100
AcDbDictionary
280
     1
281
     1
  3
ADSK_XREC_LAYER_RECONCILED
360
358
  0
DICTIONARY
  5
359
330
342
100
AcDbDictionary
280
     1
281
     1
  3
ADSK_XREC_LAYER_RECONCILED
360
35A
  0
DICTIONARY
  5
35B
330
343
100
AcDbDictionary
280
     1
281
     1
  3
ADSK_XREC_LAYER_RECONCILED
360
35C
  0
DICTIONARY
  5
2FD
330
1F
100
AcDbDictionary
280
     1
281
     1
  3
ACAD_SORTENTS
360
2FE
  0
XRECORD
  5
2FC
102
{ACAD_REACTORS
330
C
102
}
330
C
100
AcDbXrecord
280
     1
300
ACD
300
2019
300
87084ACD_2019_0F
  0
DICTIONARY
  5
2F7
102
{ACAD_REACTORS
330
C
102
}
330
C
100
AcDbDictionary
281
     1
  0
DICTIONARY
  5
2F3
102
{ACAD_REACTORS
330
C
102
}
330
C
100
AcDbDictionary
281
     1
  3
Metric50
350
2F9
  0
DICTIONARY
  5
D
102
{ACAD_REACTORS
330
C
102
}
330
C
100
AcDbDictionary
281
     1
  3
NULOVY_BOD
350
344
  0
DICTIONARY
  5
1A
102
{ACAD_REACTORS
330
C
102
}
330
C
100
AcDbDictionary
281
     1
  3
Layout1
350
1E
  3
Layout2
350
26
  3
Model
350
22
  0
DICTIONARY
  5
43
102
{ACAD_REACTORS
330
C
102
}
330
C
100
AcDbDictionary
281
     1
  3
ByBlock
350
45
  3
ByLayer
350
44
  3
Global
350
46
  0
DICTIONARY
  5
6B
102
{ACAD_REACTORS
330
C
102
}
330
C
100
AcDbDictionary
281
     1
  3
Standard
350
6C
  0
DICTIONARY
  5
17
102
{ACAD_REACTORS
330
C
102
}
330
C
100
AcDbDictionary
281
     1
  3
Standard
350
18
  0
DICTIONARY
  5
19
102
{ACAD_REACTORS
330
C
102
}
330
C
100
AcDbDictionary
281
     1
  0
ACDBDICTIONARYWDFLT
  5
E
102
{ACAD_REACTORS
330
C
102
}
330
C
100
AcDbDictionary
281
     1
  3
Normal
350
F
100
AcDbDictionaryWithDefault
340
F
  0
DICTIONARY
  5
47
102
{ACAD_REACTORS
330
C
102
}
330
C
100
AcDbDictionary
281
     1
  3
A0
350
48
  3
A1
350
49
  3
A2
350
4A
  3
A3
350
4B
  3
A4
350
4C
  3
A5
350
4D
  3
A6
350
4E
  3
A7
350
4F
  3
A8
350
50
  3
A9
350
51
  3
B0
350
52
  3
B1
350
53
  3
B2
350
54
  3
B3
350
55
  3
B4
350
56
  3
B5
350
57
  3
B6
350
58
  3
B7
350
59
  3
B8
350
5A
  3
B9
350
5B
  3
C0
350
5C
  3
C1
350
5D
  3
C2
350
5E
  3
C3
350
5F
  3
C4
350
60
  3
C5
350
61
  3
C6
350
62
  3
C7
350
63
  3
C8
350
64
  3
C9
350
65
  3
D0
350
66
  3
D1
350
67
  3
D2
350
68
  0
DICTIONARY
  5
2F4
102
{ACAD_REACTORS
330
C
102
}
330
C
100
AcDbDictionary
281
     1
  3
Metric50
350
2F8
  0
DICTIONARY
  5
69
102
{ACAD_REACTORS
330
C
102
}
330
C
100
AcDbDictionary
281
     1
  3
Standard
350
6A
  0
DICTIONARY
  5
2A
102
{ACAD_REACTORS
330
C
102
}
330
C
100
AcDbDictionary
281
     1
  3
2dWireframe
350
2F
  3
Basic
350
32
  3
Brighten
350
36
  3
ColorChange
350
3A
  3
Conceptual
350
34
  3
Dim
350
35
  3
EdgeColorOff
350
3D
  3
Facepattern
350
39
  3
Flat
350
2B
  3
FlatWithEdges
350
2C
  3
Gouraud
350
2D
  3
GouraudWithEdges
350
2E
  3
Hidden
350
31
  3
JitterOff
350
3B
  3
Linepattern
350
38
  3
OverhangOff
350
3C
  3
Realistic
350
33
  3
Shaded
350
42
  3
Shaded with edges
350
41
  3
Shades of Gray
350
3E
  3
Sketchy
350
3F
  3
Thicken
350
37
  3
Wireframe
350
30
  3
X-Ray
350
40
  0
XRECORD
  5
362
102
{ACAD_REACTORS
330
C
102
}
330
C
100
AcDbXrecord
280
     1
 90
        1
330
6A
  0
DICTIONARY
  5
2B0
102
{ACAD_REACTORS
330
C
102
}
330
C
100
AcDbDictionary
281
     1
  3
CANNOSCALE
350
2B1
  3
CMLEADERSTYLE
350
2F2
  3
CTABLESTYLE
350
2F1
  3
CVIEWDETAILSTYLE
350
35D
  3
CVIEWSECTIONSTYLE
350
35E
  3
MSLTSCALE
350
2B2
  3
XCLIPFRAME
350
35F
  0
XRECORD
  5
346
102
{ACAD_REACTORS
330
345
102
}
330
345
100
AcDbXrecord
280
     1
290
     1
  0
XRECORD
  5
348
102
{ACAD_REACTORS
330
347
102
}
330
347
100
AcDbXrecord
280
     1
290
     1
  0
XRECORD
  5
34A
102
{ACAD_REACTORS
330
349
102
}
330
349
100
AcDbXrecord
280
     1
290
     1
  0
XRECORD
  5
34C
102
{ACAD_REACTORS
330
34B
102
}
330
34B
100
AcDbXrecord
280
     1
290
     1
  0
XRECORD
  5
34E
102
{ACAD_REACTORS
330
34D
102
}
330
34D
100
AcDbXrecord
280
     1
290
     1
  0
XRECORD
  5
350
102
{ACAD_REACTORS
330
34F
102
}
330
34F
100
AcDbXrecord
280
     1
290
     1
  0
XRECORD
  5
352
102
{ACAD_REACTORS
330
351
102
}
330
351
100
AcDbXrecord
280
     1
290
     1
  0
XRECORD
  5
354
102
{ACAD_REACTORS
330
353
102
}
330
353
100
AcDbXrecord
280
     1
290
     1
  0
XRECORD
  5
356
102
{ACAD_REACTORS
330
355
102
}
330
355
100
AcDbXrecord
280
     1
290
     1
  0
XRECORD
  5
358
102
{ACAD_REACTORS
330
357
102
}
330
357
100
AcDbXrecord
280
     1
290
     1
  0
XRECORD
  5
35A
102
{ACAD_REACTORS
330
359
102
}
330
359
100
AcDbXrecord
280
     1
290
     1
  0
XRECORD
  5
35C
102
{ACAD_REACTORS
330
35B
102
}
330
35B
100
AcDbXrecord
280
     1
290
     1
  0
SORTENTSTABLE
  5
2FE
102
{ACAD_REACTORS
330
2FD
102
}
330
2FD
100
AcDbSortentsTable
330
1F
331
2FF
  5
26A
331
300
  5
283
331
301
  5
2FF
331
302
  5
300
331
303
  5
301
331
304
  5
302
331
305
  5
303
331
306
  5
304
331
307
  5
305
331
308
  5
306
331
309
  5
307
331
30A
  5
308
331
30B
  5
309
331
30C
  5
30A
331
30D
  5
30B
331
30E
  5
30C
331
30F
  5
30D
331
310
  5
30E
331
311
  5
30F
331
312
  5
310
331
313
  5
311
331
314
  5
312
331
315
  5
313
331
316
  5
314
331
317
  5
315
331
318
  5
316
331
319
  5
317
331
31A
  5
318
331
31B
  5
319
331
32E
  5
332
331
32F
  5
333
331
330
  5
334
331
331
  5
335
331
332
  5
336
331
333
  5
32E
331
334
  5
32F
331
335
  5
330
331
336
  5
331
  0
ACDBDETAILVIEWSTYLE
  5
2F9
102
{ACAD_XDICTIONARY
360
396
102
}
102
{ACAD_REACTORS
330
2F3
102
}
330
2F3
100
AcDbModelDocViewStyle
 70
     0
  3
Metric50
290
     0
100
AcDbDetailViewStyle
 70
     0
 71
     0
 90
        3
 71
     1
340
11
 62
   256
 40
5.0
340
0
 62
   256
 40
5.0
300

 40
0.0
280
     1
 71
     2
340
16
 90
       25
 62
   256
 71
     3
340
11
 62
   256
 40
5.0
 90
        0
 40
15.0
 90
        1
300
%<\AcVar ViewDetailId>% (%<\AcVar ViewScale \f "%sn">%)
 71
     4
340
16
 90
       25
 62
   256
340
16
 90
       25
 62
   256
280
     0
  0
GROUP
  5
344
102
{ACAD_REACTORS
330
D
102
}
330
D
100
AcDbGroup
300

 70
     0
 71
     1
340
73
  0
LAYOUT
  5
1E
102
{ACAD_REACTORS
330
1A
102
}
330
1A
100
AcDbPlotSettings
  1

  2
none_device
  4

  6

 40
0.0
 41
0.0
 42
0.0
 43
0.0
 44
0.0
 45
0.0
 46
0.0
 47
0.0
 48
0.0
 49
0.0
140
0.0
141
0.0
142
1.0
143
1.0
 70
   688
 72
     0
 73
     0
 74
     5
  7

 75
    16
147
1.0
 76
     0
 77
     2
 78
   300
148
0.0
149
0.0
100
AcDbLayout
  1
Layout1
 70
     1
 71
     1
 10
-0.5
 20
-0.5
 11
5.0
 21
5.0
 12
0.0
 22
0.0
 32
0.0
 14
-0.5
 24
-0.5
 34
-0.5
 15
5.0
 25
5.0
 35
5.0
146
0.0
 13
0.0
 23
0.0
 33
0.0
 16
1.0
 26
0.0
 36
0.0
 17
0.0
 27
1.0
 37
0.0
 76
     0
330
1B
  0
LAYOUT
  5
26
102
{ACAD_REACTORS
330
1A
102
}
330
1A
100
AcDbPlotSettings
  1

  2
none_device
  4

  6

 40
0.0
 41
0.0
 42
0.0
 43
0.0
 44
0.0
 45
0.0
 46
0.0
 47
0.0
 48
0.0
 49
0.0
140
0.0
141
0.0
142
1.0
143
1.0
 70
   688
 72
     0
 73
     0
 74
     5
  7

 75
    16
147
1.0
 76
     0
 77
     2
 78
   300
148
0.0
149
0.0
100
AcDbLayout
  1
Layout2
 70
     1
 71
     2
 10
0.0
 20
0.0
 11
0.0
 21
0.0
 12
0.0
 22
0.0
 32
0.0
 14
0.0
 24
0.0
 34
0.0
 15
0.0
 25
0.0
 35
0.0
146
0.0
 13
0.0
 23
0.0
 33
0.0
 16
1.0
 26
0.0
 36
0.0
 17
0.0
 27
1.0
 37
0.0
 76
     0
330
23
  0
LAYOUT
  5
22
102
{ACAD_REACTORS
330
1A
102
}
330
1A
100
AcDbPlotSettings
  1

  2
none_device
  4
Letter_(8.50_x_11.00_Inches)
  6

 40
6.349999999999999
 41
6.349999999999999
 42
6.350005
 43
6.350005
 44
215.9
 45
279.4
 46
0.0
 47
0.0
 48
0.0
 49
0.0
140
0.0
141
0.0
142
1.0
143
1.0
 70
  1712
 72
     0
 73
     0
 74
     0
  7

 75
     0
147
1.0
 76
     0
 77
     2
 78
   300
148
0.0
149
0.0
100
AcDbLayout
  1
Model
 70
     1
 71
     0
 10
-0.5
 20
-0.5
 11
5.0
 21
5.0
 12
0.0
 22
0.0
 32
0.0
 14
-0.5
 24
-0.5
 34
-0.5
 15
5.0
 25
5.0
 35
5.0
146
0.0
 13
0.0
 23
0.0
 33
0.0
 16
1.0
 26
0.0
 36
0.0
 17
0.0
 27
1.0
 37
0.0
 76
     0
330
1F
331
29
  0
MATERIAL
  5
45
102
{ACAD_XDICTIONARY
360
2E6
102
}
102
{ACAD_REACTORS
330
43
102
}
330
43
100
AcDbMaterial
  1
ByBlock
  0
MATERIAL
  5
44
102
{ACAD_XDICTIONARY
360
2E4
102
}
102
{ACAD_REACTORS
330
43
102
}
330
43
100
AcDbMaterial
  1
ByLayer
  0
MATERIAL
  5
46
102
{ACAD_XDICTIONARY
360
2E8
102
}
102
{ACAD_REACTORS
330
43
102
}
330
43
100
AcDbMaterial
  1
Global
  0
MLEADERSTYLE
  5
6C
102
{ACAD_REACTORS
330
6B
102
}
330
6B
100
AcDbMLeaderStyle
170
     2
171
     1
172
     0
 90
        2
 40
0.0
 41
0.0
173
     1
 91
-1056964608
340
14
 92
       -2
290
     1
 42
0.09
291
     1
 43
0.36
  3
Standard
 44
0.18
300

342
11
174
     1
178
     6
175
     1
176
     0
 93
-1056964608
 45
0.18
292
     0
297
     0
 46
0.18
 94
-1056964608
 47
1.0
 49
1.0
140
1.0
293
     1
141
0.0
294
     1
177
     0
142
1.0
295
     0
296
     0
143
0.125
1001
ACAD_MLEADERVER
1070
     2
  0
MLINESTYLE
  5
18
102
{ACAD_REACTORS
330
17
102
}
330
17
100
AcDbMlineStyle
  2
STANDARD
 70
     0
  3

 62
   256
 51
90.0
 52
90.0
 71
     2
 49
0.5
 62
   256
  6
BYLAYER
 49
-0.5
 62
   256
  6
BYLAYER
  0
ACDBPLACEHOLDER
  5
F
102
{ACAD_REACTORS
330
E
102
}
330
E
  0
SCALE
  5
48
102
{ACAD_REACTORS
330
47
102
}
330
47
100
AcDbScale
 70
     0
300
1:1
140
1.0
141
1.0
290
     1
  0
SCALE
  5
49
102
{ACAD_REACTORS
330
47
102
}
330
47
100
AcDbScale
 70
     0
300
1:2
140
1.0
141
2.0
290
     0
  0
SCALE
  5
4A
102
{ACAD_REACTORS
330
47
102
}
330
47
100
AcDbScale
 70
     0
300
1:4
140
1.0
141
4.0
290
     0
  0
SCALE
  5
4B
102
{ACAD_REACTORS
330
47
102
}
330
47
100
AcDbScale
 70
     0
300
1:5
140
1.0
141
5.0
290
     0
  0
SCALE
  5
4C
102
{ACAD_REACTORS
330
47
102
}
330
47
100
AcDbScale
 70
     0
300
1:8
140
1.0
141
8.0
290
     0
  0
SCALE
  5
4D
102
{ACAD_REACTORS
330
47
102
}
330
47
100
AcDbScale
 70
     0
300
1:10
140
1.0
141
10.0
290
     0
  0
SCALE
  5
4E
102
{ACAD_REACTORS
330
47
102
}
330
47
100
AcDbScale
 70
     0
300
1:16
140
1.0
141
16.0
290
     0
  0
SCALE
  5
4F
102
{ACAD_REACTORS
330
47
102
}
330
47
100
AcDbScale
 70
     0
300
1:20
140
1.0
141
20.0
290
     0
  0
SCALE
  5
50
102
{ACAD_REACTORS
330
47
102
}
330
47
100
AcDbScale
 70
     0
300
1:30
140
1.0
141
30.0
290
     0
  0
SCALE
  5
51
102
{ACAD_REACTORS
330
47
102
}
330
47
100
AcDbScale
 70
     0
300
1:40
140
1.0
141
40.0
290
     0
  0
SCALE
  5
52
102
{ACAD_REACTORS
330
47
102
}
330
47
100
AcDbScale
 70
     0
300
1:50
140
1.0
141
50.0
290
     0
  0
SCALE
  5
53
102
{ACAD_REACTORS
330
47
102
}
330
47
100
AcDbScale
 70
     0
300
1:100
140
1.0
141
100.0
290
     0
  0
SCALE
  5
54
102
{ACAD_REACTORS
330
47
102
}
330
47
100
AcDbScale
 70
     0
300
2:1
140
2.0
141
1.0
290
     0
  0
SCALE
  5
55
102
{ACAD_REACTORS
330
47
102
}
330
47
100
AcDbScale
 70
     0
300
4:1
140
4.0
141
1.0
290
     0
  0
SCALE
  5
56
102
{ACAD_REACTORS
330
47
102
}
330
47
100
AcDbScale
 70
     0
300
8:1
140
8.0
141
1.0
290
     0
  0
SCALE
  5
57
102
{ACAD_REACTORS
330
47
102
}
330
47
100
AcDbScale
 70
     0
300
10:1
140
10.0
141
1.0
290
     0
  0
SCALE
  5
58
102
{ACAD_REACTORS
330
47
102
}
330
47
100
AcDbScale
 70
     0
300
100:1
140
100.0
141
1.0
290
     0
  0
SCALE
  5
59
102
{ACAD_REACTORS
330
47
102
}
330
47
100
AcDbScale
 70
     0
300
1/128" = 1'-0"
140
0.007812
141
12.0
290
     0
  0
SCALE
  5
5A
102
{ACAD_REACTORS
330
47
102
}
330
47
100
AcDbScale
 70
     0
300
1/64" = 1'-0"
140
0.015625
141
12.0
290
     0
  0
SCALE
  5
5B
102
{ACAD_REACTORS
330
47
102
}
330
47
100
AcDbScale
 70
     0
300
1/32" = 1'-0"
140
0.03125
141
12.0
290
     0
  0
SCALE
  5
5C
102
{ACAD_REACTORS
330
47
102
}
330
47
100
AcDbScale
 70
     0
300
1/16" = 1'-0"
140
0.0625
141
12.0
290
     0
  0
SCALE
  5
5D
102
{ACAD_REACTORS
330
47
102
}
330
47
100
AcDbScale
 70
     0
300
3/32" = 1'-0"
140
0.09375
141
12.0
290
     0
  0
SCALE
  5
5E
102
{ACAD_REACTORS
330
47
102
}
330
47
100
AcDbScale
 70
     0
300
1/8" = 1'-0"
140
0.125
141
12.0
290
     0
  0
SCALE
  5
5F
102
{ACAD_REACTORS
330
47
102
}
330
47
100
AcDbScale
 70
     0
300
3/16" = 1'-0"
140
0.1875
141
12.0
290
     0
  0
SCALE
  5
60
102
{ACAD_REACTORS
330
47
102
}
330
47
100
AcDbScale
 70
     0
300
1/4" = 1'-0"
140
0.25
141
12.0
290
     0
  0
SCALE
  5
61
102
{ACAD_REACTORS
330
47
102
}
330
47
100
AcDbScale
 70
     0
300
3/8" = 1'-0"
140
0.375
141
12.0
290
     0
  0
SCALE
  5
62
102
{ACAD_REACTORS
330
47
102
}
330
47
100
AcDbScale
 70
     0
300
1/2" = 1'-0"
140
0.5
141
12.0
290
     0
  0
SCALE
  5
63
102
{ACAD_REACTORS
330
47
102
}
330
47
100
AcDbScale
 70
     0
300
3/4" = 1'-0"
140
0.75
141
12.0
290
     0
  0
SCALE
  5
64
102
{ACAD_REACTORS
330
47
102
}
330
47
100
AcDbScale
 70
     0
300
1" = 1'-0"
140
1.0
141
12.0
290
     0
  0
SCALE
  5
65
102
{ACAD_REACTORS
330
47
102
}
330
47
100
AcDbScale
 70
     0
300
1-1/2" = 1'-0"
140
1.5
141
12.0
290
     0
  0
SCALE
  5
66
102
{ACAD_REACTORS
330
47
102
}
330
47
100
AcDbScale
 70
     0
300
3" = 1'-0"
140
3.0
141
12.0
290
     0
  0
SCALE
  5
67
102
{ACAD_REACTORS
330
47
102
}
330
47
100
AcDbScale
 70
     0
300
6" = 1'-0"
140
6.0
141
12.0
290
     0
  0
SCALE
  5
68
102
{ACAD_REACTORS
330
47
102
}
330
47
100
AcDbScale
 70
     0
300
1'-0" = 1'-0"
140
12.0
141
12.0
290
     0
  0
ACDBSECTIONVIEWSTYLE
  5
2F8
102
{ACAD_XDICTIONARY
360
394
102
}
102
{ACAD_REACTORS
330
2F4
102
}
330
2F4
100
AcDbModelDocViewStyle
 70
     0
  3
Metric50
290
     0
100
AcDbSectionViewStyle
 70
     0
 71
     0
 90
      102
 71
     1
340
11
 62
   256
 40
5.0
340
0
340
0
 62
   256
 40
5.0
300
I, O, Q, S, X, Z
 40
10.0
 90
        0
 40
2.5
 90
        0
 71
     2
340
16
 90
       25
 62
   256
340
16
 90
       50
 62
   256
 40
5.0
 40
2.5
 40
5.0
 71
     3
340
11
 62
   256
 40
5.0
 90
        0
 40
15.0
 90
        1
300
%<\AcVar ViewSectionStartId>%-%<\AcVar ViewSectionEndId>% (%<\AcVar ViewScale \f "%sn">%)
 71
     4
 62
   256
 62
   257
300
ANSI31
 40
1.0
 90
        0
290
     0
290
     0
 90
        6
 40
0.0
 40
1.570796326794896
 40
0.2617993877991494
 40
1.308996938995747
 40
-0.2617993877991494
 40
1.832595714594046
  0
TABLESTYLE
  5
6A
102
{ACAD_XDICTIONARY
360
2EA
102
}
102
{ACAD_REACTORS
330
69
102
}
330
69
100
AcDbTableStyle
  3
Standard
 70
     0
 71
     0
 40
0.06
 41
0.06
280
     0
281
     0
  7
Standard
140
0.18
170
     2
 62
     0
 63
     7
283
     0
274
    -2
284
     1
 64
     0
275
    -2
285
     1
 65
     0
276
    -2
286
     1
 66
     0
277
    -2
287
     1
 67
     0
278
    -2
288
     1
 68
     0
279
    -2
289
     1
 69
     0
  7
Standard
140
0.25
170
     5
 62
     0
 63
     7
283
     0
274
    -2
284
     1
 64
     0
275
    -2
285
     1
 65
     0
276
    -2
286
     1
 66
     0
277
    -2
287
     1
 67
     0
278
    -2
288
     1
 68
     0
279
    -2
289
     1
 69
     0
  7
Standard
140
0.18
170
     5
 62
     0
 63
     7
283
     0
274
    -2
284
     1
 64
     0
275
    -2
285
     1
 65
     0
276
    -2
286
     1
 66
     0
277
    -2
287
     1
 67
     0
278
    -2
288
     1
 68
     0
279
    -2
289
     1
 69
     0
  0
VISUALSTYLE
  5
2F
102
{ACAD_XDICTIONARY
360
36B
102
}
102
{ACAD_REACTORS
330
2A
102
}
330
2A
100
AcDbVisualStyle
  2

 70
     4
 71
     0
 72
     2
 73
     0
 90
        0
 40
-0.6
 41
-30.0
 62
     5
 63
     7
421
 16777215
 74
     1
 91
        4
 64
     7
 65
   257
 75
     1
175
     1
 42
1.0
 92
        0
 66
   257
 43
1.0
 76
     1
 77
     6
 78
     2
 67
     7
 79
     5
170
     0
171
     0
290
     0
174
     0
 93
        1
 44
0.0
173
     0
291
     0
 45
0.0
1001
ACAD
1000
AcDbSavedByObjectVersion
1070
     0
  0
VISUALSTYLE
  5
32
102
{ACAD_XDICTIONARY
360
371
102
}
102
{ACAD_REACTORS
330
2A
102
}
330
2A
100
AcDbVisualStyle
  2

 70
     7
 71
     1
 72
     0
 73
     1
 90
        0
 40
-0.6
 41
-30.0
 62
     5
 63
     7
421
 16777215
 74
     0
 91
        4
 64
     7
 65
   257
 75
     1
175
     1
 42
1.0
 92
        8
 66
     7
 43
1.0
 76
     1
 77
     6
 78
     2
 67
     7
 79
     5
170
     0
171
     0
290
     0
174
     0
 93
        1
 44
0.0
173
     0
291
     1
 45
0.0
1001
ACAD
1000
AcDbSavedByObjectVersion
1070
     0
  0
VISUALSTYLE
  5
36
102
{ACAD_XDICTIONARY
360
379
102
}
102
{ACAD_REACTORS
330
2A
102
}
330
2A
100
AcDbVisualStyle
  2

 70
    12
 71
     2
 72
     2
 73
     0
 90
        0
 40
-0.6
 41
-30.0
 62
     5
 63
     7
421
 16777215
 74
     1
 91
        4
 64
     7
 65
   257
 75
     1
175
     1
 42
1.0
 92
        8
 66
     7
 43
1.0
 76
     1
 77
     6
 78
     2
 67
     7
 79
     5
170
     0
171
     0
290
     0
174
     0
 93
        1
 44
50.0
173
     0
291
     1
 45
0.0
1001
ACAD
1000
AcDbSavedByObjectVersion
1070
     0
  0
VISUALSTYLE
  5
3A
102
{ACAD_XDICTIONARY
360
381
102
}
102
{ACAD_REACTORS
330
2A
102
}
330
2A
100
AcDbVisualStyle
  2

 70
    16
 71
     2
 72
     2
 73
     3
 90
        0
 40
-0.6
 41
-30.0
 62
     5
 63
     8
421
  8421504
 74
     1
 91
        4
 64
     7
 65
   257
 75
     1
175
     1
 42
1.0
 92
        8
 66
     8
424
  8421504
 43
1.0
 76
     1
 77
     6
 78
     2
 67
     7
 79
     5
170
     0
171
     0
290
     0
174
     0
 93
        1
 44
0.0
173
     0
291
     1
 45
0.0
1001
ACAD
1000
AcDbSavedByObjectVersion
1070
     0
  0
VISUALSTYLE
  5
34
102
{ACAD_XDICTIONARY
360
375
102
}
102
{ACAD_REACTORS
330
2A
102
}
330
2A
100
AcDbVisualStyle
  2

 70
     9
 71
     3
 72
     2
 73
     0
 90
        0
 40
-0.6
 41
-30.0
 62
     5
 63
     7
421
 16777215
 74
     2
 91
        2
 64
     7
 65
   257
 75
     1
175
     1
 42
179.0
 92
        8
 66
     7
 43
1.0
 76
     1
 77
     6
 78
     2
 67
     7
 79
     3
170
     0
171
     0
290
     0
174
     0
 93
        1
 44
0.0
173
     0
291
     0
 45
0.0
1001
ACAD
1000
AcDbSavedByObjectVersion
1070
     0
  0
VISUALSTYLE
  5
35
102
{ACAD_XDICTIONARY
360
377
102
}
102
{ACAD_REACTORS
330
2A
102
}
330
2A
100
AcDbVisualStyle
  2

 70
    11
 71
     2
 72
     2
 73
     0
 90
        0
 40
-0.6
 41
-30.0
 62
     5
 63
     7
421
 16777215
 74
     1
 91
        4
 64
     7
 65
   257
 75
     1
175
     1
 42
1.0
 92
        8
 66
     7
 43
1.0
 76
     1
 77
     6
 78
     2
 67
     7
 79
     5
170
     0
171
     0
290
     0
174
     0
 93
        1
 44
-50.0
173
     0
291
     1
 45
0.0
1001
ACAD
1000
AcDbSavedByObjectVersion
1070
     0
  0
VISUALSTYLE
  5
3D
102
{ACAD_XDICTIONARY
360
387
102
}
102
{ACAD_REACTORS
330
2A
102
}
330
2A
100
AcDbVisualStyle
  2

 70
    22
 71
     2
 72
     2
 73
     0
 90
        0
 40
-0.6
 41
-30.0
 62
     5
 63
     7
421
 16777215
 74
     1
 91
        4
 64
     7
 65
   257
 75
     1
175
     1
 42
1.0
 92
        8
 66
     7
 43
1.0
 76
     1
 77
     6
 78
     2
 67
     7
 79
     5
170
     0
171
     0
290
     0
174
     0
 93
        1
 44
0.0
173
     0
291
     1
 45
0.0
1001
ACAD
1000
AcDbSavedByObjectVersion
1070
     0
  0
VISUALSTYLE
  5
39
102
{ACAD_XDICTIONARY
360
37F
102
}
102
{ACAD_REACTORS
330
2A
102
}
330
2A
100
AcDbVisualStyle
  2

 70
    15
 71
     2
 72
     2
 73
     0
 90
        0
 40
-0.6
 41
-30.0
 62
     5
 63
     7
421
 16777215
 74
     1
 91
        4
 64
     7
 65
   257
 75
     1
175
     1
 42
1.0
 92
        8
 66
     7
 43
1.0
 76
     1
 77
     6
 78
     2
 67
     7
 79
     5
170
     0
171
     0
290
     0
174
     0
 93
        1
 44
0.0
173
     0
291
     1
 45
0.0
1001
ACAD
1000
AcDbSavedByObjectVersion
1070
     0
  0
VISUALSTYLE
  5
2B
102
{ACAD_XDICTIONARY
360
363
102
}
102
{ACAD_REACTORS
330
2A
102
}
330
2A
100
AcDbVisualStyle
  2

 70
     0
 71
     2
 72
     1
 73
     1
 90
        2
 40
-0.6
 41
30.0
 62
     5
 63
     7
421
 16777215
 74
     0
 91
        0
 64
     7
 65
   257
 75
     1
175
     1
 42
1.0
 92
        8
 66
     7
 43
1.0
 76
     1
 77
     6
 78
     2
 67
     7
 79
     5
170
     0
171
     0
290
     0
174
     0
 93
       13
 44
0.0
173
     0
291
     1
 45
0.0
1001
ACAD
1000
AcDbSavedByObjectVersion
1070
     0
  0
VISUALSTYLE
  5
2C
102
{ACAD_XDICTIONARY
360
365
102
}
102
{ACAD_REACTORS
330
2A
102
}
330
2A
100
AcDbVisualStyle
  2

 70
     1
 71
     2
 72
     1
 73
     1
 90
        2
 40
-0.6
 41
30.0
 62
     5
 63
     7
421
 16777215
 74
     1
 91
        0
 64
     7
 65
   257
 75
     1
175
     1
 42
1.0
 92
        0
 66
   257
 43
1.0
 76
     1
 77
     6
 78
     2
 67
     7
 79
     5
170
     0
171
     0
290
     0
174
     0
 93
       13
 44
0.0
173
     0
291
     1
 45
0.0
1001
ACAD
1000
AcDbSavedByObjectVersion
1070
     0
  0
VISUALSTYLE
  5
2D
102
{ACAD_XDICTIONARY
360
367
102
}
102
{ACAD_REACTORS
330
2A
102
}
330
2A
100
AcDbVisualStyle
  2

 70
     2
 71
     2
 72
     2
 73
     1
 90
        2
 40
-0.6
 41
30.0
 62
     5
 63
     7
421
 16777215
 74
     0
 91
        0
 64
     7
 65
   257
 75
     1
175
     1
 42
1.0
 92
        0
 66
     7
 43
1.0
 76
     1
 77
     6
 78
     2
 67
     7
 79
     5
170
     0
171
     0
290
     0
174
     0
 93
       13
 44
0.0
173
     0
291
     1
 45
0.0
1001
ACAD
1000
AcDbSavedByObjectVersion
1070
     0
  0
VISUALSTYLE
  5
2E
102
{ACAD_XDICTIONARY
360
369
102
}
102
{ACAD_REACTORS
330
2A
102
}
330
2A
100
AcDbVisualStyle
  2

 70
     3
 71
     2
 72
     2
 73
     1
 90
        2
 40
-0.6
 41
30.0
 62
     5
 63
     7
421
 16777215
 74
     1
 91
        0
 64
     7
 65
   257
 75
     1
175
     1
 42
1.0
 92
        0
 66
   257
 43
1.0
 76
     1
 77
     6
 78
     2
 67
     7
 79
     5
170
     0
171
     0
290
     0
174
     0
 93
       13
 44
0.0
173
     0
291
     1
 45
0.0
1001
ACAD
1000
AcDbSavedByObjectVersion
1070
     0
  0
VISUALSTYLE
  5
31
102
{ACAD_XDICTIONARY
360
36F
102
}
102
{ACAD_REACTORS
330
2A
102
}
330
2A
100
AcDbVisualStyle
  2

 70
     6
 71
     1
 72
     2
 73
     2
 90
        0
 40
-0.6
 41
-30.0
 62
     5
 63
     7
421
 16777215
 74
     2
 91
        2
 64
     7
 65
   257
 75
     2
175
     1
 42
40.0
 92
        0
 66
   257
 43
1.0
 76
     1
 77
     6
 78
     2
 67
     7
 79
     3
170
     0
171
     0
290
     0
174
     0
 93
        1
 44
0.0
173
     0
291
     0
 45
0.0
1001
ACAD
1000
AcDbSavedByObjectVersion
1070
     0
  0
VISUALSTYLE
  5
3B
102
{ACAD_XDICTIONARY
360
383
102
}
102
{ACAD_REACTORS
330
2A
102
}
330
2A
100
AcDbVisualStyle
  2

 70
    20
 71
     2
 72
     2
 73
     0
 90
        0
 40
-0.6
 41
-30.0
 62
     5
 63
     7
421
 16777215
 74
     1
 91
        4
 64
     7
 65
   257
 75
     1
175
     1
 42
1.0
 92
       10
 66
     7
 43
1.0
 76
     1
 77
     6
 78
     2
 67
     7
 79
     5
170
     0
171
     0
290
     0
174
     0
 93
        1
 44
0.0
173
     0
291
     1
 45
0.0
1001
ACAD
1000
AcDbSavedByObjectVersion
1070
     0
  0
VISUALSTYLE
  5
38
102
{ACAD_XDICTIONARY
360
37D
102
}
102
{ACAD_REACTORS
330
2A
102
}
330
2A
100
AcDbVisualStyle
  2

 70
    14
 71
     2
 72
     2
 73
     0
 90
        0
 40
-0.6
 41
-30.0
 62
     5
 63
     7
421
 16777215
 74
     1
 91
        4
 64
     7
 65
   257
 75
     7
175
     7
 42
1.0
 92
        8
 66
     7
 43
1.0
 76
     1
 77
     6
 78
     2
 67
     7
 79
     5
170
     0
171
     0
290
     0
174
     0
 93
        1
 44
0.0
173
     0
291
     1
 45
0.0
1001
ACAD
1000
AcDbSavedByObjectVersion
1070
     0
  0
VISUALSTYLE
  5
3C
102
{ACAD_XDICTIONARY
360
385
102
}
102
{ACAD_REACTORS
330
2A
102
}
330
2A
100
AcDbVisualStyle
  2

 70
    21
 71
     2
 72
     2
 73
     0
 90
        0
 40
-0.6
 41
-30.0
 62
     5
 63
     7
421
 16777215
 74
     1
 91
        4
 64
     7
 65
   257
 75
     1
175
     1
 42
1.0
 92
        9
 66
     7
 43
1.0
 76
     1
 77
     6
 78
     2
 67
     7
 79
     5
170
     0
171
     0
290
     0
174
     0
 93
        1
 44
0.0
173
     0
291
     1
 45
0.0
1001
ACAD
1000
AcDbSavedByObjectVersion
1070
     0
  0
VISUALSTYLE
  5
33
102
{ACAD_XDICTIONARY
360
373
102
}
102
{ACAD_REACTORS
330
2A
102
}
330
2A
100
AcDbVisualStyle
  2

 70
     8
 71
     2
 72
     3
 73
     0
 90
        2
 40
-0.6
 41
30.0
 62
     5
 63
     7
421
 16777215
 74
     0
 91
        0
 64
     7
 65
   257
 75
     1
175
     1
 42
1.0
 92
        8
 66
   257
 43
1.0
 76
     1
 77
     6
 78
     2
 67
     7
 79
     3
170
     0
171
     0
290
     0
174
     0
 93
       13
 44
0.0
173
     0
291
     0
 45
0.0
1001
ACAD
1000
AcDbSavedByObjectVersion
1070
     0
  0
VISUALSTYLE
  5
42
102
{ACAD_XDICTIONARY
360
391
102
}
102
{ACAD_REACTORS
330
2A
102
}
330
2A
100
AcDbVisualStyle
  2

 70
    27
 71
     2
 72
     2
 73
     1
 90
        2
 40
-0.6
 41
30.0
 62
     5
 63
     7
421
 16777215
 74
     0
 91
        4
 64
     7
 65
   257
 75
     1
175
     1
 42
1.0
 92
        8
 66
   257
 43
1.0
 76
     1
 77
     6
 78
     2
 67
     8
425
  7895160
 79
     3
170
     0
171
     0
290
     0
174
     0
 93
        5
 44
0.0
173
     0
291
     0
 45
0.0
1001
ACAD
1000
AcDbSavedByObjectVersion
1070
     0
  0
VISUALSTYLE
  5
41
102
{ACAD_XDICTIONARY
360
38F
102
}
102
{ACAD_REACTORS
330
2A
102
}
330
2A
100
AcDbVisualStyle
  2

 70
    26
 71
     2
 72
     2
 73
     1
 90
        2
 40
-0.6
 41
30.0
 62
     5
 63
     7
421
 16777215
 74
     1
 91
       10
 64
     7
 65
   257
 75
     2
175
     1
 42
1.0
 92
        8
 66
   257
 43
1.0
 76
     1
 77
     6
 78
     2
 67
     7
 79
     3
170
     0
171
     0
290
     0
174
     0
 93
        5
 44
0.0
173
     0
291
     0
 45
0.0
1001
ACAD
1000
AcDbSavedByObjectVersion
1070
     0
  0
VISUALSTYLE
  5
3E
102
{ACAD_XDICTIONARY
360
389
102
}
102
{ACAD_REACTORS
330
2A
102
}
330
2A
100
AcDbVisualStyle
  2

 70
    23
 71
     2
 72
     2
 73
     3
 90
        0
 40
-0.6
 41
-30.0
 62
     5
 63
     7
421
 16777215
 74
     2
 91
        2
 64
     7
 65
     7
 75
     1
175
     1
 42
40.0
 92
        8
 66
     7
 43
1.0
 76
     1
 77
     6
 78
     2
 67
     7
 79
     3
170
     0
171
     0
290
     0
174
     0
 93
        1
 44
0.0
173
     0
291
     0
 45
0.0
1001
ACAD
1000
AcDbSavedByObjectVersion
1070
     0
  0
VISUALSTYLE
  5
3F
102
{ACAD_XDICTIONARY
360
38B
102
}
102
{ACAD_REACTORS
330
2A
102
}
330
2A
100
AcDbVisualStyle
  2

 70
    24
 71
     1
 72
     2
 73
     2
 90
        0
 40
-0.6
 41
-30.0
 62
     5
 63
     7
421
 16777215
 74
     2
 91
        2
 64
     7
 65
     7
 75
     1
175
     1
 42
40.0
 92
       11
 66
     7
 43
1.0
 76
     1
 77
     6
 78
     2
 67
     7
 79
     6
170
     0
171
     0
290
     0
174
     0
 93
        1
 44
0.0
173
     0
291
     0
 45
0.0
1001
ACAD
1000
AcDbSavedByObjectVersion
1070
     0
  0
VISUALSTYLE
  5
37
102
{ACAD_XDICTIONARY
360
37B
102
}
102
{ACAD_REACTORS
330
2A
102
}
330
2A
100
AcDbVisualStyle
  2

 70
    13
 71
     2
 72
     2
 73
     0
 90
        0
 40
-0.6
 41
-30.0
 62
     5
 63
     7
421
 16777215
 74
     1
 91
        4
 64
     7
 65
   257
 75
     1
175
     1
 42
1.0
 92
       12
 66
     7
 43
1.0
 76
     1
 77
     6
 78
     2
 67
     7
 79
     5
170
     0
171
     0
290
     0
174
     0
 93
        1
 44
0.0
173
     0
291
     1
 45
0.0
1001
ACAD
1000
AcDbSavedByObjectVersion
1070
     0
  0
VISUALSTYLE
  5
30
102
{ACAD_XDICTIONARY
360
36D
102
}
102
{ACAD_REACTORS
330
2A
102
}
330
2A
100
AcDbVisualStyle
  2

 70
     5
 71
     0
 72
     2
 73
     0
 90
        0
 40
-0.6
 41
-30.0
 62
     5
 63
     7
421
 16777215
 74
     1
 91
        4
 64
     7
 65
   257
 75
     1
175
     1
 42
1.0
 92
        0
 66
   257
 43
1.0
 76
     1
 77
     6
 78
     2
 67
     7
 79
     3
170
     0
171
     0
290
     0
174
     0
 93
        1
 44
0.0
173
     0
291
     0
 45
0.0
1001
ACAD
1000
AcDbSavedByObjectVersion
1070
     0
  0
VISUALSTYLE
  5
40
102
{ACAD_XDICTIONARY
360
38D
102
}
102
{ACAD_REACTORS
330
2A
102
}
330
2A
100
AcDbVisualStyle
  2

 70
    25
 71
     2
 72
     2
 73
     1
 90
        1
 40
0.5
 41
-30.0
 62
     5
 63
     7
421
 16777215
 74
     1
 91
        0
 64
     7
 65
   257
 75
     1
175
     1
 42
1.0
 92
        8
 66
     7
 43
1.0
 76
     1
 77
     6
 78
     2
 67
     7
 79
     3
170
     0
171
     0
290
     0
174
     0
 93
       13
 44
0.0
173
     0
291
     0
 45
0.0
1001
ACAD
1000
AcDbSavedByObjectVersion
1070
     0
  0
DICTIONARYVAR
  5
2B1
102
{ACAD_REACTORS
330
2B0
102
}
330
2B0
100
DictionaryVariables
280
     0
  1
1:1
  0
DICTIONARYVAR
  5
2F2
102
{ACAD_REACTORS
330
2B0
102
}
330
2B0
100
DictionaryVariables
280
     0
  1
STANDARD
  0
DICTIONARYVAR
  5
2F1
102
{ACAD_REACTORS
330
2B0
102
}
330
2B0
100
DictionaryVariables
280
     0
  1
STANDARD
  0
DICTIONARYVAR
  5
35D
102
{ACAD_REACTORS
330
2B0
102
}
330
2B0
100
DictionaryVariables
280
     0
  1
Metric50
  0
DICTIONARYVAR
  5
35E
102
{ACAD_REACTORS
330
2B0
102
}
330
2B0
100
DictionaryVariables
280
     0
  1
Metric50
  0
DICTIONARYVAR
  5
2B2
102
{ACAD_REACTORS
330
2B0
102
}
330
2B0
100
DictionaryVariables
280
     0
  1
1
  0
DICTIONARYVAR
  5
35F
102
{ACAD_REACTORS
330
2B0
102
}
330
2B0
100
DictionaryVariables
280
     0
  1
2
  0
DICTIONARY
  5
396
330
2F9
100
AcDbDictionary
280
     1
281
     1
  3
ACAD_XREC_ROUNDTRIP
360
397
  0
DICTIONARY
  5
2E6
330
45
100
AcDbDictionary
280
     1
281
     1
  3
ACAD_XREC_ROUNDTRIP
360
2E7
  0
DICTIONARY
  5
2E4
330
44
100
AcDbDictionary
280
     1
281
     1
  3
ACAD_XREC_ROUNDTRIP
360
2E5
  0
DICTIONARY
  5
2E8
330
46
100
AcDbDictionary
280
     1
281
     1
  3
ACAD_XREC_ROUNDTRIP
360
2E9
  0
DICTIONARY
  5
394
330
2F8
100
AcDbDictionary
280
     1
281
     1
  3
ACAD_XREC_ROUNDTRIP
360
395
  0
DICTIONARY
  5
2EA
330
6A
100
AcDbDictionary
280
     1
281
     1
  3
ACAD_ROUNDTRIP_2008_TABLESTYLE_CELLSTYLEMAP
360
361
  3
ACAD_XREC_ROUNDTRIP
360
393
  0
DICTIONARY
  5
36B
330
2F
100
AcDbDictionary
280
     1
281
     1
  3
ACAD_XREC_ROUNDTRIP
360
36C
  0
DICTIONARY
  5
371
330
32
100
AcDbDictionary
280
     1
281
     1
  3
ACAD_XREC_ROUNDTRIP
360
372
  0
DICTIONARY
  5
379
330
36
100
AcDbDictionary
280
     1
281
     1
  3
ACAD_XREC_ROUNDTRIP
360
37A
  0
DICTIONARY
  5
381
330
3A
100
AcDbDictionary
280
     1
281
     1
  3
ACAD_XREC_ROUNDTRIP
360
382
  0
DICTIONARY
  5
375
330
34
100
AcDbDictionary
280
     1
281
     1
  3
ACAD_XREC_ROUNDTRIP
360
376
  0
DICTIONARY
  5
377
330
35
100
AcDbDictionary
280
     1
281
     1
  3
ACAD_XREC_ROUNDTRIP
360
378
  0
DICTIONARY
  5
387
330
3D
100
AcDbDictionary
280
     1
281
     1
  3
ACAD_XREC_ROUNDTRIP
360
388
  0
DICTIONARY
  5
37F
330
39
100
AcDbDictionary
280
     1
281
     1
  3
ACAD_XREC_ROUNDTRIP
360
380
  0
DICTIONARY
  5
363
330
2B
100
AcDbDictionary
280
     1
281
     1
  3
ACAD_XREC_ROUNDTRIP
360
364
  0
DICTIONARY
  5
365
330
2C
100
AcDbDictionary
280
     1
281
     1
  3
ACAD_XREC_ROUNDTRIP
360
366
  0
DICTIONARY
  5
367
330
2D
100
AcDbDictionary
280
     1
281
     1
  3
ACAD_XREC_ROUNDTRIP
360
368
  0
DICTIONARY
  5
369
330
2E
100
AcDbDictionary
280
     1
281
     1
  3
ACAD_XREC_ROUNDTRIP
360
36A
  0
DICTIONARY
  5
36F
330
31
100
AcDbDictionary
280
     1
281
     1
  3
ACAD_XREC_ROUNDTRIP
360
370
  0
DICTIONARY
  5
383
330
3B
100
AcDbDictionary
280
     1
281
     1
  3
ACAD_XREC_ROUNDTRIP
360
384
  0
DICTIONARY
  5
37D
330
38
100
AcDbDictionary
280
     1
281
     1
  3
ACAD_XREC_ROUNDTRIP
360
37E
  0
DICTIONARY
  5
385
330
3C
100
AcDbDictionary
280
     1
281
     1
  3
ACAD_XREC_ROUNDTRIP
360
386
  0
DICTIONARY
  5
373
330
33
100
AcDbDictionary
280
     1
281
     1
  3
ACAD_XREC_ROUNDTRIP
360
374
  0
DICTIONARY
  5
391
330
42
100
AcDbDictionary
280
     1
281
     1
  3
ACAD_XREC_ROUNDTRIP
360
392
  0
DICTIONARY
  5
38F
330
41
100
AcDbDictionary
280
     1
281
     1
  3
ACAD_XREC_ROUNDTRIP
360
390
  0
DICTIONARY
  5
389
330
3E
100
AcDbDictionary
280
     1
281
     1
  3
ACAD_XREC_ROUNDTRIP
360
38A
  0
DICTIONARY
  5
38B
330
3F
100
AcDbDictionary
280
     1
281
     1
  3
ACAD_XREC_ROUNDTRIP
360
38C
  0
DICTIONARY
  5
37B
330
37
100
AcDbDictionary
280
     1
281
     1
  3
ACAD_XREC_ROUNDTRIP
360
37C
  0
DICTIONARY
  5
36D
330
30
100
AcDbDictionary
280
     1
281
     1
  3
ACAD_XREC_ROUNDTRIP
360
36E
  0
DICTIONARY
  5
38D
330
40
100
AcDbDictionary
280
     1
281
     1
  3
ACAD_XREC_ROUNDTRIP
360
38E
  0
XRECORD
  5
397
102
{ACAD_REACTORS
330
396
102
}
330
396
100
AcDbXrecord
280
     1
102
DISPLAYNAME
  1
Metric50
102
FLAGS
 90
        0
  0
XRECORD
  5
2E7
102
{ACAD_REACTORS
330
2E6
102
}
330
2E6
100
AcDbXrecord
280
     1
102
MATERIAL
148
0.0
149
0.0
149
0.0
 93
        0
 94
      127
282
     0
 72
     1
 77
     1
171
     1
175
     1
179
     1
273
     0
  0
XRECORD
  5
2E5
102
{ACAD_REACTORS
330
2E4
102
}
330
2E4
100
AcDbXrecord
280
     1
102
MATERIAL
148
0.0
149
0.0
149
0.0
 93
        0
 94
      127
282
     0
 72
     1
 77
     1
171
     1
175
     1
179
     1
273
     0
  0
XRECORD
  5
2E9
102
{ACAD_REACTORS
330
2E8
102
}
330
2E8
100
AcDbXrecord
280
     1
102
MATERIAL
148
0.0
149
0.0
149
0.0
 93
        0
 94
      127
282
     0
 72
     1
 77
     1
171
     1
175
     1
179
     1
273
     0
  0
XRECORD
  5
395
102
{ACAD_REACTORS
330
394
102
}
330
394
100
AcDbXrecord
280
     1
102
DISPLAYNAME
  1
Metric50
102
FLAGS
 90
        0
  0
CELLSTYLEMAP
  5
361
102
{ACAD_REACTORS
330
2EA
102
}
330
2EA
100
AcDbCellStyleMap
 90
        3
300
CELLSTYLE
  1
TABLEFORMAT_BEGIN
 90
        5
170
     1
 91
        0
 92
    32768
 62
   257
 93
        1
300
CONTENTFORMAT
  1
CONTENTFORMAT_BEGIN
 90
        0
 91
        0
 92
        4
 93
        0
300

 40
0.0
140
1.0
 94
        5
 62
     0
340
11
144
0.25
309
CONTENTFORMAT_END
171
     1
301
MARGIN
  1
CELLMARGIN_BEGIN
 40
0.06
 40
0.06
 40
0.06
 40
0.06
 40
0.18
 40
0.18
309
CELLMARGIN_END
 94
        6
 95
        1
302
GRIDFORMAT
  1
GRIDFORMAT_BEGIN
 90
        0
 91
        1
 62
     0
 92
       -2
340
14
 93
        0
 40
0.045
309
GRIDFORMAT_END
 95
        2
302
GRIDFORMAT
  1
GRIDFORMAT_BEGIN
 90
        0
 91
        1
 62
     0
 92
       -2
340
14
 93
        0
 40
0.045
309
GRIDFORMAT_END
 95
        4
302
GRIDFORMAT
  1
GRIDFORMAT_BEGIN
 90
        0
 91
        1
 62
     0
 92
       -2
340
14
 93
        0
 40
0.045
309
GRIDFORMAT_END
 95
        8
302
GRIDFORMAT
  1
GRIDFORMAT_BEGIN
 90
        0
 91
        1
 62
     0
 92
       -2
340
14
 93
        0
 40
0.045
309
GRIDFORMAT_END
 95
       16
302
GRIDFORMAT
  1
GRIDFORMAT_BEGIN
 90
        0
 91
        1
 62
     0
 92
       -2
340
14
 93
        0
 40
0.045
309
GRIDFORMAT_END
 95
       32
302
GRIDFORMAT
  1
GRIDFORMAT_BEGIN
 90
        0
 91
        1
 62
     0
 92
       -2
340
14
 93
        0
 40
0.045
309
GRIDFORMAT_END
309
TABLEFORMAT_END
  1
CELLSTYLE_BEGIN
 90
        1
 91
        1
300
_TITLE
309
CELLSTYLE_END
300
CELLSTYLE
  1
TABLEFORMAT_BEGIN
 90
        5
170
     1
 91
        0
 92
        0
 62
   257
 93
        1
300
CONTENTFORMAT
  1
CONTENTFORMAT_BEGIN
 90
        0
 91
        0
 92
        4
 93
        0
300

 40
0.0
140
1.0
 94
        5
 62
     0
340
11
144
0.18
309
CONTENTFORMAT_END
171
     1
301
MARGIN
  1
CELLMARGIN_BEGIN
 40
0.06
 40
0.06
 40
0.06
 40
0.06
 40
0.18
 40
0.18
309
CELLMARGIN_END
 94
        6
 95
        1
302
GRIDFORMAT
  1
GRIDFORMAT_BEGIN
 90
        0
 91
        1
 62
     0
 92
       -2
340
14
 93
        0
 40
0.045
309
GRIDFORMAT_END
 95
        2
302
GRIDFORMAT
  1
GRIDFORMAT_BEGIN
 90
        0
 91
        1
 62
     0
 92
       -2
340
14
 93
        0
 40
0.045
309
GRIDFORMAT_END
 95
        4
302
GRIDFORMAT
  1
GRIDFORMAT_BEGIN
 90
        0
 91
        1
 62
     0
 92
       -2
340
14
 93
        0
 40
0.045
309
GRIDFORMAT_END
 95
        8
302
GRIDFORMAT
  1
GRIDFORMAT_BEGIN
 90
        0
 91
        1
 62
     0
 92
       -2
340
14
 93
        0
 40
0.045
309
GRIDFORMAT_END
 95
       16
302
GRIDFORMAT
  1
GRIDFORMAT_BEGIN
 90
        0
 91
        1
 62
     0
 92
       -2
340
14
 93
        0
 40
0.045
309
GRIDFORMAT_END
 95
       32
302
GRIDFORMAT
  1
GRIDFORMAT_BEGIN
 90
        0
 91
        1
 62
     0
 92
       -2
340
14
 93
        0
 40
0.045
309
GRIDFORMAT_END
309
TABLEFORMAT_END
  1
CELLSTYLE_BEGIN
 90
        2
 91
        1
300
_HEADER
309
CELLSTYLE_END
300
CELLSTYLE
  1
TABLEFORMAT_BEGIN
 90
        5
170
     1
 91
        0
 92
        0
 62
   257
 93
        1
300
CONTENTFORMAT
  1
CONTENTFORMAT_BEGIN
 90
        0
 91
        0
 92
        4
 93
        0
300

 40
0.0
140
1.0
 94
        2
 62
     0
340
11
144
0.18
309
CONTENTFORMAT_END
171
     1
301
MARGIN
  1
CELLMARGIN_BEGIN
 40
0.06
 40
0.06
 40
0.06
 40
0.06
 40
0.18
 40
0.18
309
CELLMARGIN_END
 94
        6
 95
        1
302
GRIDFORMAT
  1
GRIDFORMAT_BEGIN
 90
        0
 91
        1
 62
     0
 92
       -2
340
14
 93
        0
 40
0.045
309
GRIDFORMAT_END
 95
        2
302
GRIDFORMAT
  1
GRIDFORMAT_BEGIN
 90
        0
 91
        1
 62
     0
 92
       -2
340
14
 93
        0
 40
0.045
309
GRIDFORMAT_END
 95
        4
302
GRIDFORMAT
  1
GRIDFORMAT_BEGIN
 90
        0
 91
        1
 62
     0
 92
       -2
340
14
 93
        0
 40
0.045
309
GRIDFORMAT_END
 95
        8
302
GRIDFORMAT
  1
GRIDFORMAT_BEGIN
 90
        0
 91
        1
 62
     0
 92
       -2
340
14
 93
        0
 40
0.045
309
GRIDFORMAT_END
 95
       16
302
GRIDFORMAT
  1
GRIDFORMAT_BEGIN
 90
        0
 91
        1
 62
     0
 92
       -2
340
14
 93
        0
 40
0.045
309
GRIDFORMAT_END
 95
       32
302
GRIDFORMAT
  1
GRIDFORMAT_BEGIN
 90
        0
 91
        1
 62
     0
 92
       -2
340
14
 93
        0
 40
0.045
309
GRIDFORMAT_END
309
TABLEFORMAT_END
  1
CELLSTYLE_BEGIN
 90
        3
 91
        2
300
_DATA
309
CELLSTYLE_END
  0
XRECORD
  5
393
102
{ACAD_REACTORS
330
2EA
102
}
330
2EA
100
AcDbXrecord
280
     1
102
ACAD_ROUNDTRIP_PRE2007_TABLESTYLE
 90
        4
 91
        0
  1

 92
        4
 93
        0
  2

 94
        4
 95
        0
  3

  0
XRECORD
  5
36C
102
{ACAD_REACTORS
330
36B
102
}
330
36B
100
AcDbXrecord
280
     1
102
RTVSPost2010Prop28
280
     1
102
RTVSPost2010PropOp28
 70
     1
102
RTVSPost2010Prop29
280
     1
102
RTVSPost2010PropOp29
 70
     1
102
RTVSPost2010Prop30
280
     0
102
RTVSPost2010PropOp30
 70
     1
102
RTVSPost2010Prop31
280
     0
102
RTVSPost2010PropOp31
 70
     1
102
RTVSPost2010Prop32
280
     0
102
RTVSPost2010PropOp32
 70
     1
102
RTVSPost2010Prop33
280
     0
102
RTVSPost2010PropOp33
 70
     1
102
RTVSPost2010Prop34
280
     0
102
RTVSPost2010PropOp34
 70
     1
102
RTVSPost2010Prop35
280
     0
102
RTVSPost2010PropOp35
 70
     1
102
RTVSPost2010Prop36
280
     0
102
RTVSPost2010PropOp36
 70
     1
102
RTVSPost2010Prop37
 90
       50
102
RTVSPost2010PropOp37
 70
     1
102
RTVSPost2010Prop38
140
0.0
102
RTVSPost2010PropOp38
 70
     1
102
RTVSPost2010Prop39
140
1.0
102
RTVSPost2010PropOp39
 70
     1
102
RTVSPost2010Prop40
 90
        0
102
RTVSPost2010PropOp40
 70
     1
102
RTVSPost2010Prop41ColorIndex
 90
       18
102
RTVSPost2010Prop41ColorRGB
 90
        0
102
RTVSPost2010PropOp41
 70
     1
102
RTVSPost2010Prop42
 90
       50
102
RTVSPost2010PropOp42
 70
     1
102
RTVSPost2010Prop43
 90
        3
102
RTVSPost2010PropOp43
 70
     1
102
RTVSPost2010Prop44ColorIndex
 90
        5
102
RTVSPost2010Prop44ColorRGB
 90
      255
102
RTVSPost2010PropOp44
 70
     1
102
RTVSPost2010Prop45
280
     0
102
RTVSPost2010PropOp45
 70
     1
102
RTVSPost2010Prop46
 90
       50
102
RTVSPost2010PropOp46
 70
     1
102
RTVSPost2010Prop47
 90
       50
102
RTVSPost2010PropOp47
 70
     1
102
RTVSPost2010Prop48
 90
       50
102
RTVSPost2010PropOp48
 70
     1
102
RTVSPost2010Prop49
280
     0
102
RTVSPost2010PropOp49
 70
     1
102
RTVSPost2010Prop50
 90
       50
102
RTVSPost2010PropOp50
 70
     1
102
RTVSPost2010Prop51ColorIndex
 90
      256
102
RTVSPost2010Prop51ColorRGB
 90
-16777216
102
RTVSPost2010PropOp51
 70
     0
102
RTVSPost2010Prop52
140
1.0
102
RTVSPost2010PropOp52
 70
     0
102
RTVSPost2010Prop53
 90
        2
102
RTVSPost2010PropOp53
 70
     1
102
RTVSPost2010Prop54
  1
strokes_ogs.tif
102
RTVSPost2010PropOp54
 70
     1
102
RTVSPost2010Prop55
280
     0
102
RTVSPost2010PropOp55
 70
     1
102
RTVSPost2010Prop56
140
1.0
102
RTVSPost2010PropOp56
 70
     1
102
RTVSPost2010Prop57
140
1.0
102
RTVSPost2010PropOp57
 70
     1
102
RTVSPropertyOp0
 70
     1
102
RTVSPropertyOp1
 70
     1
102
RTVSPropertyOp2
 70
     1
102
RTVSPropertyOp3
 70
     1
102
RTVSPropertyOp4
 70
     1
102
RTVSPropertyOp5
 70
     1
102
RTVSPropertyOp6
 70
     1
102
RTVSPropertyOp7
 70
     1
102
RTVSPropertyOp8
 70
     1
102
RTVSPropertyOp9
 70
     1
102
RTVSPropertyOp10
 70
     1
102
RTVSPropertyOp11
 70
     1
102
RTVSPropertyOp12
 70
     1
102
RTVSPropertyOp13
 70
     1
102
RTVSPropertyOp14
 70
     1
102
RTVSPropertyOp15
 70
     1
102
RTVSPropertyOp16
 70
     1
102
RTVSPropertyOp17
 70
     1
102
RTVSPropertyOp18
 70
     1
102
RTVSPropertyOp19
 70
     1
102
RTVSPropertyOp20
 70
     1
102
RTVSPropertyOp21
 70
     1
102
RTVSPropertyOp22
 70
     1
102
RTVSPropertyOp23
 70
     1
102
RTVSPropertyOp24
 70
     1
102
RTVSPropertyOp25
 70
     1
102
RTVSPropertyOp26
 70
     1
102
RTVSPropertyOp27
 70
     1
102
RTVSPropertyOp28
 70
     1
102
RTVSPropertyOp29
 70
     1
102
RTVSPropertyOp30
 70
     1
102
RTVSPropertyOp31
 70
     1
102
RTVSPropertyOp32
 70
     1
102
RTVSPropertyOp33
 70
     1
102
RTVSPropertyOp34
 70
     1
102
RTVSPropertyOp35
 70
     1
102
RTVSPropertyOp36
 70
     1
102
RTVSPropertyOp37
 70
     1
102
RTVSPropertyOp38
 70
     1
102
RTVSPropertyOp39
 70
     1
102
RTVSPropertyOp40
 70
     1
102
RTVSPropertyOp41
 70
     1
102
RTVSPropertyOp42
 70
     1
102
RTVSPropertyOp43
 70
     1
102
RTVSPropertyOp44
 70
     1
102
RTVSPropertyOp45
 70
     1
102
RTVSPropertyOp46
 70
     1
102
RTVSPropertyOp47
 70
     1
102
RTVSPropertyOp48
 70
     1
102
RTVSPropertyOp49
 70
     1
102
RTVSPropertyOp50
 70
     1
102
RTVSPropertyOp51
 70
     0
102
RTVSPropertyOp52
 70
     0
102
RTVSPropertyOp53
 70
     1
102
RTVSPropertyOp54
 70
     1
102
RTVSPropertyOp55
 70
     1
102
RTVSPropertyOp56
 70
     1
102
RTVSPropertyOp57
 70
     1
102
RTVSPropertyOp58
 70
     1
102
RTVSPropertyOp59
 70
     1
102
RTVSPropertyOp60
 70
     1
102
RTVSPropertyOp61
 70
     1
102
RTVSPropertyOp62
 70
     1
  0
XRECORD
  5
372
102
{ACAD_REACTORS
330
371
102
}
330
371
100
AcDbXrecord
280
     1
102
RTVSPost2010Prop28
280
     0
102
RTVSPost2010PropOp28
 70
     1
102
RTVSPost2010Prop29
280
     1
102
RTVSPost2010PropOp29
 70
     1
102
RTVSPost2010Prop30
280
     1
102
RTVSPost2010PropOp30
 70
     1
102
RTVSPost2010Prop31
280
     0
102
RTVSPost2010PropOp31
 70
     1
102
RTVSPost2010Prop32
280
     0
102
RTVSPost2010PropOp32
 70
     1
102
RTVSPost2010Prop33
280
     0
102
RTVSPost2010PropOp33
 70
     1
102
RTVSPost2010Prop34
280
     0
102
RTVSPost2010PropOp34
 70
     1
102
RTVSPost2010Prop35
280
     0
102
RTVSPost2010PropOp35
 70
     1
102
RTVSPost2010Prop36
280
     0
102
RTVSPost2010PropOp36
 70
     1
102
RTVSPost2010Prop37
 90
       50
102
RTVSPost2010PropOp37
 70
     1
102
RTVSPost2010Prop38
140
0.0
102
RTVSPost2010PropOp38
 70
     1
102
RTVSPost2010Prop39
140
1.0
102
RTVSPost2010PropOp39
 70
     1
102
RTVSPost2010Prop40
 90
        0
102
RTVSPost2010PropOp40
 70
     1
102
RTVSPost2010Prop41ColorIndex
 90
       18
102
RTVSPost2010Prop41ColorRGB
 90
        0
102
RTVSPost2010PropOp41
 70
     1
102
RTVSPost2010Prop42
 90
       50
102
RTVSPost2010PropOp42
 70
     1
102
RTVSPost2010Prop43
 90
        3
102
RTVSPost2010PropOp43
 70
     1
102
RTVSPost2010Prop44ColorIndex
 90
        5
102
RTVSPost2010Prop44ColorRGB
 90
      255
102
RTVSPost2010PropOp44
 70
     1
102
RTVSPost2010Prop45
280
     0
102
RTVSPost2010PropOp45
 70
     1
102
RTVSPost2010Prop46
 90
       50
102
RTVSPost2010PropOp46
 70
     1
102
RTVSPost2010Prop47
 90
       50
102
RTVSPost2010PropOp47
 70
     1
102
RTVSPost2010Prop48
 90
       50
102
RTVSPost2010PropOp48
 70
     1
102
RTVSPost2010Prop49
280
     0
102
RTVSPost2010PropOp49
 70
     1
102
RTVSPost2010Prop50
 90
       50
102
RTVSPost2010PropOp50
 70
     1
102
RTVSPost2010Prop51ColorIndex
 90
      256
102
RTVSPost2010Prop51ColorRGB
 90
-16777216
102
RTVSPost2010PropOp51
 70
     0
102
RTVSPost2010Prop52
140
1.0
102
RTVSPost2010PropOp52
 70
     0
102
RTVSPost2010Prop53
 90
        2
102
RTVSPost2010PropOp53
 70
     1
102
RTVSPost2010Prop54
  1
strokes_ogs.tif
102
RTVSPost2010PropOp54
 70
     1
102
RTVSPost2010Prop55
280
     0
102
RTVSPost2010PropOp55
 70
     1
102
RTVSPost2010Prop56
140
1.0
102
RTVSPost2010PropOp56
 70
     1
102
RTVSPost2010Prop57
140
1.0
102
RTVSPost2010PropOp57
 70
     1
102
RTVSPropertyOp0
 70
     1
102
RTVSPropertyOp1
 70
     1
102
RTVSPropertyOp2
 70
     1
102
RTVSPropertyOp3
 70
     1
102
RTVSPropertyOp4
 70
     1
102
RTVSPropertyOp5
 70
     1
102
RTVSPropertyOp6
 70
     1
102
RTVSPropertyOp7
 70
     1
102
RTVSPropertyOp8
 70
     1
102
RTVSPropertyOp9
 70
     1
102
RTVSPropertyOp10
 70
     1
102
RTVSPropertyOp11
 70
     1
102
RTVSPropertyOp12
 70
     1
102
RTVSPropertyOp13
 70
     1
102
RTVSPropertyOp14
 70
     1
102
RTVSPropertyOp15
 70
     1
102
RTVSPropertyOp16
 70
     1
102
RTVSPropertyOp17
 70
     1
102
RTVSPropertyOp18
 70
     1
102
RTVSPropertyOp19
 70
     1
102
RTVSPropertyOp20
 70
     1
102
RTVSPropertyOp21
 70
     1
102
RTVSPropertyOp22
 70
     1
102
RTVSPropertyOp23
 70
     1
102
RTVSPropertyOp24
 70
     1
102
RTVSPropertyOp25
 70
     1
102
RTVSPropertyOp26
 70
     1
102
RTVSPropertyOp27
 70
     1
102
RTVSPropertyOp28
 70
     1
102
RTVSPropertyOp29
 70
     1
102
RTVSPropertyOp30
 70
     1
102
RTVSPropertyOp31
 70
     1
102
RTVSPropertyOp32
 70
     1
102
RTVSPropertyOp33
 70
     1
102
RTVSPropertyOp34
 70
     1
102
RTVSPropertyOp35
 70
     1
102
RTVSPropertyOp36
 70
     1
102
RTVSPropertyOp37
 70
     1
102
RTVSPropertyOp38
 70
     1
102
RTVSPropertyOp39
 70
     1
102
RTVSPropertyOp40
 70
     1
102
RTVSPropertyOp41
 70
     1
102
RTVSPropertyOp42
 70
     1
102
RTVSPropertyOp43
 70
     1
102
RTVSPropertyOp44
 70
     1
102
RTVSPropertyOp45
 70
     1
102
RTVSPropertyOp46
 70
     1
102
RTVSPropertyOp47
 70
     1
102
RTVSPropertyOp48
 70
     1
102
RTVSPropertyOp49
 70
     1
102
RTVSPropertyOp50
 70
     1
102
RTVSPropertyOp51
 70
     0
102
RTVSPropertyOp52
 70
     0
102
RTVSPropertyOp53
 70
     1
102
RTVSPropertyOp54
 70
     1
102
RTVSPropertyOp55
 70
     1
102
RTVSPropertyOp56
 70
     1
102
RTVSPropertyOp57
 70
     1
102
RTVSPropertyOp58
 70
     1
102
RTVSPropertyOp59
 70
     1
102
RTVSPropertyOp60
 70
     1
102
RTVSPropertyOp61
 70
     1
102
RTVSPropertyOp62
 70
     1
  0
XRECORD
  5
37A
102
{ACAD_REACTORS
330
379
102
}
330
379
100
AcDbXrecord
280
     1
102
RTVSPost2010Prop28
280
     0
102
RTVSPost2010PropOp28
 70
     1
102
RTVSPost2010Prop29
280
     1
102
RTVSPost2010PropOp29
 70
     1
102
RTVSPost2010Prop30
280
     1
102
RTVSPost2010PropOp30
 70
     1
102
RTVSPost2010Prop31
280
     0
102
RTVSPost2010PropOp31
 70
     1
102
RTVSPost2010Prop32
280
     0
102
RTVSPost2010PropOp32
 70
     1
102
RTVSPost2010Prop33
280
     0
102
RTVSPost2010PropOp33
 70
     1
102
RTVSPost2010Prop34
280
     0
102
RTVSPost2010PropOp34
 70
     1
102
RTVSPost2010Prop35
280
     0
102
RTVSPost2010PropOp35
 70
     1
102
RTVSPost2010Prop36
280
     0
102
RTVSPost2010PropOp36
 70
     1
102
RTVSPost2010Prop37
 90
       50
102
RTVSPost2010PropOp37
 70
     1
102
RTVSPost2010Prop38
140
0.0
102
RTVSPost2010PropOp38
 70
     1
102
RTVSPost2010Prop39
140
1.0
102
RTVSPost2010PropOp39
 70
     1
102
RTVSPost2010Prop40
 90
        0
102
RTVSPost2010PropOp40
 70
     1
102
RTVSPost2010Prop41ColorIndex
 90
       18
102
RTVSPost2010Prop41ColorRGB
 90
        0
102
RTVSPost2010PropOp41
 70
     1
102
RTVSPost2010Prop42
 90
       50
102
RTVSPost2010PropOp42
 70
     1
102
RTVSPost2010Prop43
 90
        3
102
RTVSPost2010PropOp43
 70
     1
102
RTVSPost2010Prop44ColorIndex
 90
        5
102
RTVSPost2010Prop44ColorRGB
 90
      255
102
RTVSPost2010PropOp44
 70
     1
102
RTVSPost2010Prop45
280
     0
102
RTVSPost2010PropOp45
 70
     1
102
RTVSPost2010Prop46
 90
       50
102
RTVSPost2010PropOp46
 70
     1
102
RTVSPost2010Prop47
 90
       50
102
RTVSPost2010PropOp47
 70
     1
102
RTVSPost2010Prop48
 90
       50
102
RTVSPost2010PropOp48
 70
     1
102
RTVSPost2010Prop49
280
     0
102
RTVSPost2010PropOp49
 70
     1
102
RTVSPost2010Prop50
 90
       50
102
RTVSPost2010PropOp50
 70
     1
102
RTVSPost2010Prop51ColorIndex
 90
      256
102
RTVSPost2010Prop51ColorRGB
 90
-16777216
102
RTVSPost2010PropOp51
 70
     0
102
RTVSPost2010Prop52
140
1.0
102
RTVSPost2010PropOp52
 70
     0
102
RTVSPost2010Prop53
 90
        2
102
RTVSPost2010PropOp53
 70
     1
102
RTVSPost2010Prop54
  1
strokes_ogs.tif
102
RTVSPost2010PropOp54
 70
     1
102
RTVSPost2010Prop55
280
     0
102
RTVSPost2010PropOp55
 70
     1
102
RTVSPost2010Prop56
140
1.0
102
RTVSPost2010PropOp56
 70
     1
102
RTVSPost2010Prop57
140
1.0
102
RTVSPost2010PropOp57
 70
     1
102
RTVSPropertyOp0
 70
     1
102
RTVSPropertyOp1
 70
     1
102
RTVSPropertyOp2
 70
     1
102
RTVSPropertyOp3
 70
     1
102
RTVSPropertyOp4
 70
     1
102
RTVSPropertyOp5
 70
     1
102
RTVSPropertyOp6
 70
     1
102
RTVSPropertyOp7
 70
     1
102
RTVSPropertyOp8
 70
     1
102
RTVSPropertyOp9
 70
     1
102
RTVSPropertyOp10
 70
     1
102
RTVSPropertyOp11
 70
     1
102
RTVSPropertyOp12
 70
     1
102
RTVSPropertyOp13
 70
     1
102
RTVSPropertyOp14
 70
     1
102
RTVSPropertyOp15
 70
     1
102
RTVSPropertyOp16
 70
     1
102
RTVSPropertyOp17
 70
     1
102
RTVSPropertyOp18
 70
     1
102
RTVSPropertyOp19
 70
     1
102
RTVSPropertyOp20
 70
     1
102
RTVSPropertyOp21
 70
     1
102
RTVSPropertyOp22
 70
     1
102
RTVSPropertyOp23
 70
     1
102
RTVSPropertyOp24
 70
     1
102
RTVSPropertyOp25
 70
     1
102
RTVSPropertyOp26
 70
     1
102
RTVSPropertyOp27
 70
     1
102
RTVSPropertyOp28
 70
     1
102
RTVSPropertyOp29
 70
     1
102
RTVSPropertyOp30
 70
     1
102
RTVSPropertyOp31
 70
     1
102
RTVSPropertyOp32
 70
     1
102
RTVSPropertyOp33
 70
     1
102
RTVSPropertyOp34
 70
     1
102
RTVSPropertyOp35
 70
     1
102
RTVSPropertyOp36
 70
     1
102
RTVSPropertyOp37
 70
     1
102
RTVSPropertyOp38
 70
     1
102
RTVSPropertyOp39
 70
     1
102
RTVSPropertyOp40
 70
     1
102
RTVSPropertyOp41
 70
     1
102
RTVSPropertyOp42
 70
     1
102
RTVSPropertyOp43
 70
     1
102
RTVSPropertyOp44
 70
     1
102
RTVSPropertyOp45
 70
     1
102
RTVSPropertyOp46
 70
     1
102
RTVSPropertyOp47
 70
     1
102
RTVSPropertyOp48
 70
     1
102
RTVSPropertyOp49
 70
     1
102
RTVSPropertyOp50
 70
     1
102
RTVSPropertyOp51
 70
     0
102
RTVSPropertyOp52
 70
     0
102
RTVSPropertyOp53
 70
     1
102
RTVSPropertyOp54
 70
     1
102
RTVSPropertyOp55
 70
     1
102
RTVSPropertyOp56
 70
     1
102
RTVSPropertyOp57
 70
     1
102
RTVSPropertyOp58
 70
     1
102
RTVSPropertyOp59
 70
     1
102
RTVSPropertyOp60
 70
     1
102
RTVSPropertyOp61
 70
     1
102
RTVSPropertyOp62
 70
     1
  0
XRECORD
  5
382
102
{ACAD_REACTORS
330
381
102
}
330
381
100
AcDbXrecord
280
     1
102
RTVSPost2010Prop28
280
     0
102
RTVSPost2010PropOp28
 70
     1
102
RTVSPost2010Prop29
280
     1
102
RTVSPost2010PropOp29
 70
     1
102
RTVSPost2010Prop30
280
     1
102
RTVSPost2010PropOp30
 70
     1
102
RTVSPost2010Prop31
280
     0
102
RTVSPost2010PropOp31
 70
     1
102
RTVSPost2010Prop32
280
     0
102
RTVSPost2010PropOp32
 70
     1
102
RTVSPost2010Prop33
280
     0
102
RTVSPost2010PropOp33
 70
     1
102
RTVSPost2010Prop34
280
     0
102
RTVSPost2010PropOp34
 70
     1
102
RTVSPost2010Prop35
280
     0
102
RTVSPost2010PropOp35
 70
     1
102
RTVSPost2010Prop36
280
     0
102
RTVSPost2010PropOp36
 70
     1
102
RTVSPost2010Prop37
 90
       50
102
RTVSPost2010PropOp37
 70
     1
102
RTVSPost2010Prop38
140
0.0
102
RTVSPost2010PropOp38
 70
     1
102
RTVSPost2010Prop39
140
1.0
102
RTVSPost2010PropOp39
 70
     1
102
RTVSPost2010Prop40
 90
        0
102
RTVSPost2010PropOp40
 70
     1
102
RTVSPost2010Prop41ColorIndex
 90
       18
102
RTVSPost2010Prop41ColorRGB
 90
        0
102
RTVSPost2010PropOp41
 70
     1
102
RTVSPost2010Prop42
 90
       50
102
RTVSPost2010PropOp42
 70
     1
102
RTVSPost2010Prop43
 90
        3
102
RTVSPost2010PropOp43
 70
     1
102
RTVSPost2010Prop44ColorIndex
 90
        5
102
RTVSPost2010Prop44ColorRGB
 90
      255
102
RTVSPost2010PropOp44
 70
     1
102
RTVSPost2010Prop45
280
     0
102
RTVSPost2010PropOp45
 70
     1
102
RTVSPost2010Prop46
 90
       50
102
RTVSPost2010PropOp46
 70
     1
102
RTVSPost2010Prop47
 90
       50
102
RTVSPost2010PropOp47
 70
     1
102
RTVSPost2010Prop48
 90
       50
102
RTVSPost2010PropOp48
 70
     1
102
RTVSPost2010Prop49
280
     0
102
RTVSPost2010PropOp49
 70
     1
102
RTVSPost2010Prop50
 90
       50
102
RTVSPost2010PropOp50
 70
     1
102
RTVSPost2010Prop51ColorIndex
 90
      256
102
RTVSPost2010Prop51ColorRGB
 90
-16777216
102
RTVSPost2010PropOp51
 70
     0
102
RTVSPost2010Prop52
140
1.0
102
RTVSPost2010PropOp52
 70
     0
102
RTVSPost2010Prop53
 90
        2
102
RTVSPost2010PropOp53
 70
     1
102
RTVSPost2010Prop54
  1
strokes_ogs.tif
102
RTVSPost2010PropOp54
 70
     1
102
RTVSPost2010Prop55
280
     0
102
RTVSPost2010PropOp55
 70
     1
102
RTVSPost2010Prop56
140
1.0
102
RTVSPost2010PropOp56
 70
     1
102
RTVSPost2010Prop57
140
1.0
102
RTVSPost2010PropOp57
 70
     1
102
RTVSPropertyOp0
 70
     1
102
RTVSPropertyOp1
 70
     1
102
RTVSPropertyOp2
 70
     1
102
RTVSPropertyOp3
 70
     1
102
RTVSPropertyOp4
 70
     1
102
RTVSPropertyOp5
 70
     1
102
RTVSPropertyOp6
 70
     1
102
RTVSPropertyOp7
 70
     1
102
RTVSPropertyOp8
 70
     1
102
RTVSPropertyOp9
 70
     1
102
RTVSPropertyOp10
 70
     1
102
RTVSPropertyOp11
 70
     1
102
RTVSPropertyOp12
 70
     1
102
RTVSPropertyOp13
 70
     1
102
RTVSPropertyOp14
 70
     1
102
RTVSPropertyOp15
 70
     1
102
RTVSPropertyOp16
 70
     1
102
RTVSPropertyOp17
 70
     1
102
RTVSPropertyOp18
 70
     1
102
RTVSPropertyOp19
 70
     1
102
RTVSPropertyOp20
 70
     1
102
RTVSPropertyOp21
 70
     1
102
RTVSPropertyOp22
 70
     1
102
RTVSPropertyOp23
 70
     1
102
RTVSPropertyOp24
 70
     1
102
RTVSPropertyOp25
 70
     1
102
RTVSPropertyOp26
 70
     1
102
RTVSPropertyOp27
 70
     1
102
RTVSPropertyOp28
 70
     1
102
RTVSPropertyOp29
 70
     1
102
RTVSPropertyOp30
 70
     1
102
RTVSPropertyOp31
 70
     1
102
RTVSPropertyOp32
 70
     1
102
RTVSPropertyOp33
 70
     1
102
RTVSPropertyOp34
 70
     1
102
RTVSPropertyOp35
 70
     1
102
RTVSPropertyOp36
 70
     1
102
RTVSPropertyOp37
 70
     1
102
RTVSPropertyOp38
 70
     1
102
RTVSPropertyOp39
 70
     1
102
RTVSPropertyOp40
 70
     1
102
RTVSPropertyOp41
 70
     1
102
RTVSPropertyOp42
 70
     1
102
RTVSPropertyOp43
 70
     1
102
RTVSPropertyOp44
 70
     1
102
RTVSPropertyOp45
 70
     1
102
RTVSPropertyOp46
 70
     1
102
RTVSPropertyOp47
 70
     1
102
RTVSPropertyOp48
 70
     1
102
RTVSPropertyOp49
 70
     1
102
RTVSPropertyOp50
 70
     1
102
RTVSPropertyOp51
 70
     0
102
RTVSPropertyOp52
 70
     0
102
RTVSPropertyOp53
 70
     1
102
RTVSPropertyOp54
 70
     1
102
RTVSPropertyOp55
 70
     1
102
RTVSPropertyOp56
 70
     1
102
RTVSPropertyOp57
 70
     1
102
RTVSPropertyOp58
 70
     1
102
RTVSPropertyOp59
 70
     1
102
RTVSPropertyOp60
 70
     1
102
RTVSPropertyOp61
 70
     1
102
RTVSPropertyOp62
 70
     1
  0
XRECORD
  5
376
102
{ACAD_REACTORS
330
375
102
}
330
375
100
AcDbXrecord
280
     1
102
RTVSPost2010Prop28
280
     0
102
RTVSPost2010PropOp28
 70
     1
102
RTVSPost2010Prop29
280
     1
102
RTVSPost2010PropOp29
 70
     1
102
RTVSPost2010Prop30
280
     1
102
RTVSPost2010PropOp30
 70
     1
102
RTVSPost2010Prop31
280
     0
102
RTVSPost2010PropOp31
 70
     1
102
RTVSPost2010Prop32
280
     0
102
RTVSPost2010PropOp32
 70
     1
102
RTVSPost2010Prop33
280
     0
102
RTVSPost2010PropOp33
 70
     1
102
RTVSPost2010Prop34
280
     0
102
RTVSPost2010PropOp34
 70
     1
102
RTVSPost2010Prop35
280
     0
102
RTVSPost2010PropOp35
 70
     1
102
RTVSPost2010Prop36
280
     0
102
RTVSPost2010PropOp36
 70
     1
102
RTVSPost2010Prop37
 90
       50
102
RTVSPost2010PropOp37
 70
     1
102
RTVSPost2010Prop38
140
0.0
102
RTVSPost2010PropOp38
 70
     1
102
RTVSPost2010Prop39
140
1.0
102
RTVSPost2010PropOp39
 70
     1
102
RTVSPost2010Prop40
 90
        0
102
RTVSPost2010PropOp40
 70
     1
102
RTVSPost2010Prop41ColorIndex
 90
       18
102
RTVSPost2010Prop41ColorRGB
 90
        0
102
RTVSPost2010PropOp41
 70
     1
102
RTVSPost2010Prop42
 90
       50
102
RTVSPost2010PropOp42
 70
     1
102
RTVSPost2010Prop43
 90
        3
102
RTVSPost2010PropOp43
 70
     1
102
RTVSPost2010Prop44ColorIndex
 90
        5
102
RTVSPost2010Prop44ColorRGB
 90
      255
102
RTVSPost2010PropOp44
 70
     1
102
RTVSPost2010Prop45
280
     0
102
RTVSPost2010PropOp45
 70
     1
102
RTVSPost2010Prop46
 90
       50
102
RTVSPost2010PropOp46
 70
     1
102
RTVSPost2010Prop47
 90
       50
102
RTVSPost2010PropOp47
 70
     1
102
RTVSPost2010Prop48
 90
       50
102
RTVSPost2010PropOp48
 70
     1
102
RTVSPost2010Prop49
280
     0
102
RTVSPost2010PropOp49
 70
     1
102
RTVSPost2010Prop50
 90
       50
102
RTVSPost2010PropOp50
 70
     1
102
RTVSPost2010Prop51ColorIndex
 90
      256
102
RTVSPost2010Prop51ColorRGB
 90
-16777216
102
RTVSPost2010PropOp51
 70
     0
102
RTVSPost2010Prop52
140
1.0
102
RTVSPost2010PropOp52
 70
     0
102
RTVSPost2010Prop53
 90
        2
102
RTVSPost2010PropOp53
 70
     1
102
RTVSPost2010Prop54
  1
strokes_ogs.tif
102
RTVSPost2010PropOp54
 70
     1
102
RTVSPost2010Prop55
280
     0
102
RTVSPost2010PropOp55
 70
     1
102
RTVSPost2010Prop56
140
1.0
102
RTVSPost2010PropOp56
 70
     1
102
RTVSPost2010Prop57
140
1.0
102
RTVSPost2010PropOp57
 70
     1
102
RTVSPropertyOp0
 70
     1
102
RTVSPropertyOp1
 70
     1
102
RTVSPropertyOp2
 70
     1
102
RTVSPropertyOp3
 70
     1
102
RTVSPropertyOp4
 70
     1
102
RTVSPropertyOp5
 70
     1
102
RTVSPropertyOp6
 70
     1
102
RTVSPropertyOp7
 70
     1
102
RTVSPropertyOp8
 70
     1
102
RTVSPropertyOp9
 70
     1
102
RTVSPropertyOp10
 70
     1
102
RTVSPropertyOp11
 70
     1
102
RTVSPropertyOp12
 70
     1
102
RTVSPropertyOp13
 70
     1
102
RTVSPropertyOp14
 70
     1
102
RTVSPropertyOp15
 70
     1
102
RTVSPropertyOp16
 70
     1
102
RTVSPropertyOp17
 70
     1
102
RTVSPropertyOp18
 70
     1
102
RTVSPropertyOp19
 70
     1
102
RTVSPropertyOp20
 70
     1
102
RTVSPropertyOp21
 70
     1
102
RTVSPropertyOp22
 70
     1
102
RTVSPropertyOp23
 70
     1
102
RTVSPropertyOp24
 70
     1
102
RTVSPropertyOp25
 70
     1
102
RTVSPropertyOp26
 70
     1
102
RTVSPropertyOp27
 70
     1
102
RTVSPropertyOp28
 70
     1
102
RTVSPropertyOp29
 70
     1
102
RTVSPropertyOp30
 70
     1
102
RTVSPropertyOp31
 70
     1
102
RTVSPropertyOp32
 70
     1
102
RTVSPropertyOp33
 70
     1
102
RTVSPropertyOp34
 70
     1
102
RTVSPropertyOp35
 70
     1
102
RTVSPropertyOp36
 70
     1
102
RTVSPropertyOp37
 70
     1
102
RTVSPropertyOp38
 70
     1
102
RTVSPropertyOp39
 70
     1
102
RTVSPropertyOp40
 70
     1
102
RTVSPropertyOp41
 70
     1
102
RTVSPropertyOp42
 70
     1
102
RTVSPropertyOp43
 70
     1
102
RTVSPropertyOp44
 70
     1
102
RTVSPropertyOp45
 70
     1
102
RTVSPropertyOp46
 70
     1
102
RTVSPropertyOp47
 70
     1
102
RTVSPropertyOp48
 70
     1
102
RTVSPropertyOp49
 70
     1
102
RTVSPropertyOp50
 70
     1
102
RTVSPropertyOp51
 70
     0
102
RTVSPropertyOp52
 70
     0
102
RTVSPropertyOp53
 70
     1
102
RTVSPropertyOp54
 70
     1
102
RTVSPropertyOp55
 70
     1
102
RTVSPropertyOp56
 70
     1
102
RTVSPropertyOp57
 70
     1
102
RTVSPropertyOp58
 70
     1
102
RTVSPropertyOp59
 70
     1
102
RTVSPropertyOp60
 70
     1
102
RTVSPropertyOp61
 70
     1
102
RTVSPropertyOp62
 70
     1
  0
XRECORD
  5
378
102
{ACAD_REACTORS
330
377
102
}
330
377
100
AcDbXrecord
280
     1
102
RTVSPost2010Prop28
280
     0
102
RTVSPost2010PropOp28
 70
     1
102
RTVSPost2010Prop29
280
     1
102
RTVSPost2010PropOp29
 70
     1
102
RTVSPost2010Prop30
280
     1
102
RTVSPost2010PropOp30
 70
     1
102
RTVSPost2010Prop31
280
     0
102
RTVSPost2010PropOp31
 70
     1
102
RTVSPost2010Prop32
280
     0
102
RTVSPost2010PropOp32
 70
     1
102
RTVSPost2010Prop33
280
     0
102
RTVSPost2010PropOp33
 70
     1
102
RTVSPost2010Prop34
280
     0
102
RTVSPost2010PropOp34
 70
     1
102
RTVSPost2010Prop35
280
     0
102
RTVSPost2010PropOp35
 70
     1
102
RTVSPost2010Prop36
280
     0
102
RTVSPost2010PropOp36
 70
     1
102
RTVSPost2010Prop37
 90
       50
102
RTVSPost2010PropOp37
 70
     1
102
RTVSPost2010Prop38
140
0.0
102
RTVSPost2010PropOp38
 70
     1
102
RTVSPost2010Prop39
140
1.0
102
RTVSPost2010PropOp39
 70
     1
102
RTVSPost2010Prop40
 90
        0
102
RTVSPost2010PropOp40
 70
     1
102
RTVSPost2010Prop41ColorIndex
 90
       18
102
RTVSPost2010Prop41ColorRGB
 90
        0
102
RTVSPost2010PropOp41
 70
     1
102
RTVSPost2010Prop42
 90
       50
102
RTVSPost2010PropOp42
 70
     1
102
RTVSPost2010Prop43
 90
        3
102
RTVSPost2010PropOp43
 70
     1
102
RTVSPost2010Prop44ColorIndex
 90
        5
102
RTVSPost2010Prop44ColorRGB
 90
      255
102
RTVSPost2010PropOp44
 70
     1
102
RTVSPost2010Prop45
280
     0
102
RTVSPost2010PropOp45
 70
     1
102
RTVSPost2010Prop46
 90
       50
102
RTVSPost2010PropOp46
 70
     1
102
RTVSPost2010Prop47
 90
       50
102
RTVSPost2010PropOp47
 70
     1
102
RTVSPost2010Prop48
 90
       50
102
RTVSPost2010PropOp48
 70
     1
102
RTVSPost2010Prop49
280
     0
102
RTVSPost2010PropOp49
 70
     1
102
RTVSPost2010Prop50
 90
       50
102
RTVSPost2010PropOp50
 70
     1
102
RTVSPost2010Prop51ColorIndex
 90
      256
102
RTVSPost2010Prop51ColorRGB
 90
-16777216
102
RTVSPost2010PropOp51
 70
     0
102
RTVSPost2010Prop52
140
1.0
102
RTVSPost2010PropOp52
 70
     0
102
RTVSPost2010Prop53
 90
        2
102
RTVSPost2010PropOp53
 70
     1
102
RTVSPost2010Prop54
  1
strokes_ogs.tif
102
RTVSPost2010PropOp54
 70
     1
102
RTVSPost2010Prop55
280
     0
102
RTVSPost2010PropOp55
 70
     1
102
RTVSPost2010Prop56
140
1.0
102
RTVSPost2010PropOp56
 70
     1
102
RTVSPost2010Prop57
140
1.0
102
RTVSPost2010PropOp57
 70
     1
102
RTVSPropertyOp0
 70
     1
102
RTVSPropertyOp1
 70
     1
102
RTVSPropertyOp2
 70
     1
102
RTVSPropertyOp3
 70
     1
102
RTVSPropertyOp4
 70
     1
102
RTVSPropertyOp5
 70
     1
102
RTVSPropertyOp6
 70
     1
102
RTVSPropertyOp7
 70
     1
102
RTVSPropertyOp8
 70
     1
102
RTVSPropertyOp9
 70
     1
102
RTVSPropertyOp10
 70
     1
102
RTVSPropertyOp11
 70
     1
102
RTVSPropertyOp12
 70
     1
102
RTVSPropertyOp13
 70
     1
102
RTVSPropertyOp14
 70
     1
102
RTVSPropertyOp15
 70
     1
102
RTVSPropertyOp16
 70
     1
102
RTVSPropertyOp17
 70
     1
102
RTVSPropertyOp18
 70
     1
102
RTVSPropertyOp19
 70
     1
102
RTVSPropertyOp20
 70
     1
102
RTVSPropertyOp21
 70
     1
102
RTVSPropertyOp22
 70
     1
102
RTVSPropertyOp23
 70
     1
102
RTVSPropertyOp24
 70
     1
102
RTVSPropertyOp25
 70
     1
102
RTVSPropertyOp26
 70
     1
102
RTVSPropertyOp27
 70
     1
102
RTVSPropertyOp28
 70
     1
102
RTVSPropertyOp29
 70
     1
102
RTVSPropertyOp30
 70
     1
102
RTVSPropertyOp31
 70
     1
102
RTVSPropertyOp32
 70
     1
102
RTVSPropertyOp33
 70
     1
102
RTVSPropertyOp34
 70
     1
102
RTVSPropertyOp35
 70
     1
102
RTVSPropertyOp36
 70
     1
102
RTVSPropertyOp37
 70
     1
102
RTVSPropertyOp38
 70
     1
102
RTVSPropertyOp39
 70
     1
102
RTVSPropertyOp40
 70
     1
102
RTVSPropertyOp41
 70
     1
102
RTVSPropertyOp42
 70
     1
102
RTVSPropertyOp43
 70
     1
102
RTVSPropertyOp44
 70
     1
102
RTVSPropertyOp45
 70
     1
102
RTVSPropertyOp46
 70
     1
102
RTVSPropertyOp47
 70
     1
102
RTVSPropertyOp48
 70
     1
102
RTVSPropertyOp49
 70
     1
102
RTVSPropertyOp50
 70
     1
102
RTVSPropertyOp51
 70
     0
102
RTVSPropertyOp52
 70
     0
102
RTVSPropertyOp53
 70
     1
102
RTVSPropertyOp54
 70
     1
102
RTVSPropertyOp55
 70
     1
102
RTVSPropertyOp56
 70
     1
102
RTVSPropertyOp57
 70
     1
102
RTVSPropertyOp58
 70
     1
102
RTVSPropertyOp59
 70
     1
102
RTVSPropertyOp60
 70
     1
102
RTVSPropertyOp61
 70
     1
102
RTVSPropertyOp62
 70
     1
  0
XRECORD
  5
388
102
{ACAD_REACTORS
330
387
102
}
330
387
100
AcDbXrecord
280
     1
102
RTVSPost2010Prop28
280
     0
102
RTVSPost2010PropOp28
 70
     0
102
RTVSPost2010Prop29
280
     1
102
RTVSPost2010PropOp29
 70
     0
102
RTVSPost2010Prop30
280
     1
102
RTVSPost2010PropOp30
 70
     0
102
RTVSPost2010Prop31
280
     0
102
RTVSPost2010PropOp31
 70
     0
102
RTVSPost2010Prop32
280
     0
102
RTVSPost2010PropOp32
 70
     0
102
RTVSPost2010Prop33
280
     0
102
RTVSPost2010PropOp33
 70
     0
102
RTVSPost2010Prop34
280
     0
102
RTVSPost2010PropOp34
 70
     0
102
RTVSPost2010Prop35
280
     0
102
RTVSPost2010PropOp35
 70
     0
102
RTVSPost2010Prop36
280
     0
102
RTVSPost2010PropOp36
 70
     0
102
RTVSPost2010Prop37
 90
       50
102
RTVSPost2010PropOp37
 70
     0
102
RTVSPost2010Prop38
140
0.0
102
RTVSPost2010PropOp38
 70
     0
102
RTVSPost2010Prop39
140
1.0
102
RTVSPost2010PropOp39
 70
     0
102
RTVSPost2010Prop40
 90
        0
102
RTVSPost2010PropOp40
 70
     0
102
RTVSPost2010Prop41ColorIndex
 90
       18
102
RTVSPost2010Prop41ColorRGB
 90
        0
102
RTVSPost2010PropOp41
 70
     0
102
RTVSPost2010Prop42
 90
       50
102
RTVSPost2010PropOp42
 70
     0
102
RTVSPost2010Prop43
 90
        3
102
RTVSPost2010PropOp43
 70
     0
102
RTVSPost2010Prop44ColorIndex
 90
        5
102
RTVSPost2010Prop44ColorRGB
 90
      255
102
RTVSPost2010PropOp44
 70
     0
102
RTVSPost2010Prop45
280
     0
102
RTVSPost2010PropOp45
 70
     0
102
RTVSPost2010Prop46
 90
       50
102
RTVSPost2010PropOp46
 70
     0
102
RTVSPost2010Prop47
 90
       50
102
RTVSPost2010PropOp47
 70
     0
102
RTVSPost2010Prop48
 90
       50
102
RTVSPost2010PropOp48
 70
     0
102
RTVSPost2010Prop49
280
     0
102
RTVSPost2010PropOp49
 70
     0
102
RTVSPost2010Prop50
 90
       50
102
RTVSPost2010PropOp50
 70
     0
102
RTVSPost2010Prop51ColorIndex
 90
      256
102
RTVSPost2010Prop51ColorRGB
 90
-16777216
102
RTVSPost2010PropOp51
 70
     0
102
RTVSPost2010Prop52
140
1.0
102
RTVSPost2010PropOp52
 70
     0
102
RTVSPost2010Prop53
 90
        2
102
RTVSPost2010PropOp53
 70
     0
102
RTVSPost2010Prop54
  1
strokes_ogs.tif
102
RTVSPost2010PropOp54
 70
     0
102
RTVSPost2010Prop55
280
     0
102
RTVSPost2010PropOp55
 70
     0
102
RTVSPost2010Prop56
140
1.0
102
RTVSPost2010PropOp56
 70
     0
102
RTVSPost2010Prop57
140
1.0
102
RTVSPost2010PropOp57
 70
     0
102
RTVSPropertyOp0
 70
     0
102
RTVSPropertyOp1
 70
     0
102
RTVSPropertyOp2
 70
     0
102
RTVSPropertyOp3
 70
     0
102
RTVSPropertyOp4
 70
     0
102
RTVSPropertyOp5
 70
     0
102
RTVSPropertyOp6
 70
     0
102
RTVSPropertyOp7
 70
     0
102
RTVSPropertyOp8
 70
     0
102
RTVSPropertyOp9
 70
     0
102
RTVSPropertyOp10
 70
     0
102
RTVSPropertyOp11
 70
     0
102
RTVSPropertyOp12
 70
     0
102
RTVSPropertyOp13
 70
     0
102
RTVSPropertyOp14
 70
     2
102
RTVSPropertyOp15
 70
     0
102
RTVSPropertyOp16
 70
     0
102
RTVSPropertyOp17
 70
     0
102
RTVSPropertyOp18
 70
     0
102
RTVSPropertyOp19
 70
     0
102
RTVSPropertyOp20
 70
     0
102
RTVSPropertyOp21
 70
     0
102
RTVSPropertyOp22
 70
     0
102
RTVSPropertyOp23
 70
     0
102
RTVSPropertyOp24
 70
     0
102
RTVSPropertyOp25
 70
     0
102
RTVSPropertyOp26
 70
     0
102
RTVSPropertyOp27
 70
     0
102
RTVSPropertyOp28
 70
     0
102
RTVSPropertyOp29
 70
     0
102
RTVSPropertyOp30
 70
     0
102
RTVSPropertyOp31
 70
     0
102
RTVSPropertyOp32
 70
     0
102
RTVSPropertyOp33
 70
     0
102
RTVSPropertyOp34
 70
     0
102
RTVSPropertyOp35
 70
     0
102
RTVSPropertyOp36
 70
     0
102
RTVSPropertyOp37
 70
     0
102
RTVSPropertyOp38
 70
     0
102
RTVSPropertyOp39
 70
     0
102
RTVSPropertyOp40
 70
     0
102
RTVSPropertyOp41
 70
     0
102
RTVSPropertyOp42
 70
     0
102
RTVSPropertyOp43
 70
     0
102
RTVSPropertyOp44
 70
     0
102
RTVSPropertyOp45
 70
     0
102
RTVSPropertyOp46
 70
     0
102
RTVSPropertyOp47
 70
     0
102
RTVSPropertyOp48
 70
     0
102
RTVSPropertyOp49
 70
     0
102
RTVSPropertyOp50
 70
     0
102
RTVSPropertyOp51
 70
     0
102
RTVSPropertyOp52
 70
     0
102
RTVSPropertyOp53
 70
     0
102
RTVSPropertyOp54
 70
     0
102
RTVSPropertyOp55
 70
     0
102
RTVSPropertyOp56
 70
     0
102
RTVSPropertyOp57
 70
     0
102
RTVSPropertyOp58
 70
     1
102
RTVSPropertyOp59
 70
     1
102
RTVSPropertyOp60
 70
     1
102
RTVSPropertyOp61
 70
     1
102
RTVSPropertyOp62
 70
     1
  0
XRECORD
  5
380
102
{ACAD_REACTORS
330
37F
102
}
330
37F
100
AcDbXrecord
280
     1
102
RTVSPost2010Prop28
280
     0
102
RTVSPost2010PropOp28
 70
     1
102
RTVSPost2010Prop29
280
     1
102
RTVSPost2010PropOp29
 70
     1
102
RTVSPost2010Prop30
280
     1
102
RTVSPost2010PropOp30
 70
     1
102
RTVSPost2010Prop31
280
     0
102
RTVSPost2010PropOp31
 70
     1
102
RTVSPost2010Prop32
280
     0
102
RTVSPost2010PropOp32
 70
     1
102
RTVSPost2010Prop33
280
     0
102
RTVSPost2010PropOp33
 70
     1
102
RTVSPost2010Prop34
280
     0
102
RTVSPost2010PropOp34
 70
     1
102
RTVSPost2010Prop35
280
     0
102
RTVSPost2010PropOp35
 70
     1
102
RTVSPost2010Prop36
280
     0
102
RTVSPost2010PropOp36
 70
     1
102
RTVSPost2010Prop37
 90
       50
102
RTVSPost2010PropOp37
 70
     1
102
RTVSPost2010Prop38
140
0.0
102
RTVSPost2010PropOp38
 70
     1
102
RTVSPost2010Prop39
140
1.0
102
RTVSPost2010PropOp39
 70
     1
102
RTVSPost2010Prop40
 90
        0
102
RTVSPost2010PropOp40
 70
     1
102
RTVSPost2010Prop41ColorIndex
 90
       18
102
RTVSPost2010Prop41ColorRGB
 90
        0
102
RTVSPost2010PropOp41
 70
     1
102
RTVSPost2010Prop42
 90
       50
102
RTVSPost2010PropOp42
 70
     1
102
RTVSPost2010Prop43
 90
        3
102
RTVSPost2010PropOp43
 70
     1
102
RTVSPost2010Prop44ColorIndex
 90
        5
102
RTVSPost2010Prop44ColorRGB
 90
      255
102
RTVSPost2010PropOp44
 70
     1
102
RTVSPost2010Prop45
280
     0
102
RTVSPost2010PropOp45
 70
     1
102
RTVSPost2010Prop46
 90
       50
102
RTVSPost2010PropOp46
 70
     1
102
RTVSPost2010Prop47
 90
       50
102
RTVSPost2010PropOp47
 70
     1
102
RTVSPost2010Prop48
 90
       50
102
RTVSPost2010PropOp48
 70
     1
102
RTVSPost2010Prop49
280
     0
102
RTVSPost2010PropOp49
 70
     1
102
RTVSPost2010Prop50
 90
       50
102
RTVSPost2010PropOp50
 70
     1
102
RTVSPost2010Prop51ColorIndex
 90
      256
102
RTVSPost2010Prop51ColorRGB
 90
-16777216
102
RTVSPost2010PropOp51
 70
     0
102
RTVSPost2010Prop52
140
1.0
102
RTVSPost2010PropOp52
 70
     0
102
RTVSPost2010Prop53
 90
        2
102
RTVSPost2010PropOp53
 70
     1
102
RTVSPost2010Prop54
  1
strokes_ogs.tif
102
RTVSPost2010PropOp54
 70
     1
102
RTVSPost2010Prop55
280
     0
102
RTVSPost2010PropOp55
 70
     1
102
RTVSPost2010Prop56
140
1.0
102
RTVSPost2010PropOp56
 70
     1
102
RTVSPost2010Prop57
140
1.0
102
RTVSPost2010PropOp57
 70
     1
102
RTVSPropertyOp0
 70
     1
102
RTVSPropertyOp1
 70
     1
102
RTVSPropertyOp2
 70
     1
102
RTVSPropertyOp3
 70
     1
102
RTVSPropertyOp4
 70
     1
102
RTVSPropertyOp5
 70
     1
102
RTVSPropertyOp6
 70
     1
102
RTVSPropertyOp7
 70
     1
102
RTVSPropertyOp8
 70
     1
102
RTVSPropertyOp9
 70
     1
102
RTVSPropertyOp10
 70
     1
102
RTVSPropertyOp11
 70
     1
102
RTVSPropertyOp12
 70
     1
102
RTVSPropertyOp13
 70
     1
102
RTVSPropertyOp14
 70
     1
102
RTVSPropertyOp15
 70
     1
102
RTVSPropertyOp16
 70
     1
102
RTVSPropertyOp17
 70
     1
102
RTVSPropertyOp18
 70
     1
102
RTVSPropertyOp19
 70
     1
102
RTVSPropertyOp20
 70
     1
102
RTVSPropertyOp21
 70
     1
102
RTVSPropertyOp22
 70
     1
102
RTVSPropertyOp23
 70
     1
102
RTVSPropertyOp24
 70
     1
102
RTVSPropertyOp25
 70
     1
102
RTVSPropertyOp26
 70
     1
102
RTVSPropertyOp27
 70
     1
102
RTVSPropertyOp28
 70
     1
102
RTVSPropertyOp29
 70
     1
102
RTVSPropertyOp30
 70
     1
102
RTVSPropertyOp31
 70
     1
102
RTVSPropertyOp32
 70
     1
102
RTVSPropertyOp33
 70
     1
102
RTVSPropertyOp34
 70
     1
102
RTVSPropertyOp35
 70
     1
102
RTVSPropertyOp36
 70
     1
102
RTVSPropertyOp37
 70
     1
102
RTVSPropertyOp38
 70
     1
102
RTVSPropertyOp39
 70
     1
102
RTVSPropertyOp40
 70
     1
102
RTVSPropertyOp41
 70
     1
102
RTVSPropertyOp42
 70
     1
102
RTVSPropertyOp43
 70
     1
102
RTVSPropertyOp44
 70
     1
102
RTVSPropertyOp45
 70
     1
102
RTVSPropertyOp46
 70
     1
102
RTVSPropertyOp47
 70
     1
102
RTVSPropertyOp48
 70
     1
102
RTVSPropertyOp49
 70
     1
102
RTVSPropertyOp50
 70
     1
102
RTVSPropertyOp51
 70
     0
102
RTVSPropertyOp52
 70
     0
102
RTVSPropertyOp53
 70
     1
102
RTVSPropertyOp54
 70
     1
102
RTVSPropertyOp55
 70
     1
102
RTVSPropertyOp56
 70
     1
102
RTVSPropertyOp57
 70
     1
102
RTVSPropertyOp58
 70
     1
102
RTVSPropertyOp59
 70
     1
102
RTVSPropertyOp60
 70
     1
102
RTVSPropertyOp61
 70
     1
102
RTVSPropertyOp62
 70
     1
  0
XRECORD
  5
364
102
{ACAD_REACTORS
330
363
102
}
330
363
100
AcDbXrecord
280
     1
102
RTVSPost2010Prop28
280
     0
102
RTVSPost2010PropOp28
 70
     1
102
RTVSPost2010Prop29
280
     1
102
RTVSPost2010PropOp29
 70
     1
102
RTVSPost2010Prop30
280
     1
102
RTVSPost2010PropOp30
 70
     1
102
RTVSPost2010Prop31
280
     0
102
RTVSPost2010PropOp31
 70
     1
102
RTVSPost2010Prop32
280
     0
102
RTVSPost2010PropOp32
 70
     1
102
RTVSPost2010Prop33
280
     0
102
RTVSPost2010PropOp33
 70
     1
102
RTVSPost2010Prop34
280
     0
102
RTVSPost2010PropOp34
 70
     1
102
RTVSPost2010Prop35
280
     0
102
RTVSPost2010PropOp35
 70
     1
102
RTVSPost2010Prop36
280
     0
102
RTVSPost2010PropOp36
 70
     1
102
RTVSPost2010Prop37
 90
       50
102
RTVSPost2010PropOp37
 70
     1
102
RTVSPost2010Prop38
140
0.0
102
RTVSPost2010PropOp38
 70
     1
102
RTVSPost2010Prop39
140
1.0
102
RTVSPost2010PropOp39
 70
     1
102
RTVSPost2010Prop40
 90
        0
102
RTVSPost2010PropOp40
 70
     1
102
RTVSPost2010Prop41ColorIndex
 90
       18
102
RTVSPost2010Prop41ColorRGB
 90
        0
102
RTVSPost2010PropOp41
 70
     1
102
RTVSPost2010Prop42
 90
       50
102
RTVSPost2010PropOp42
 70
     1
102
RTVSPost2010Prop43
 90
        3
102
RTVSPost2010PropOp43
 70
     1
102
RTVSPost2010Prop44ColorIndex
 90
        5
102
RTVSPost2010Prop44ColorRGB
 90
      255
102
RTVSPost2010PropOp44
 70
     1
102
RTVSPost2010Prop45
280
     0
102
RTVSPost2010PropOp45
 70
     1
102
RTVSPost2010Prop46
 90
       50
102
RTVSPost2010PropOp46
 70
     1
102
RTVSPost2010Prop47
 90
       50
102
RTVSPost2010PropOp47
 70
     1
102
RTVSPost2010Prop48
 90
       50
102
RTVSPost2010PropOp48
 70
     1
102
RTVSPost2010Prop49
280
     0
102
RTVSPost2010PropOp49
 70
     1
102
RTVSPost2010Prop50
 90
       50
102
RTVSPost2010PropOp50
 70
     1
102
RTVSPost2010Prop51ColorIndex
 90
      256
102
RTVSPost2010Prop51ColorRGB
 90
-16777216
102
RTVSPost2010PropOp51
 70
     0
102
RTVSPost2010Prop52
140
1.0
102
RTVSPost2010PropOp52
 70
     0
102
RTVSPost2010Prop53
 90
        2
102
RTVSPost2010PropOp53
 70
     1
102
RTVSPost2010Prop54
  1
strokes_ogs.tif
102
RTVSPost2010PropOp54
 70
     1
102
RTVSPost2010Prop55
280
     0
102
RTVSPost2010PropOp55
 70
     1
102
RTVSPost2010Prop56
140
1.0
102
RTVSPost2010PropOp56
 70
     1
102
RTVSPost2010Prop57
140
1.0
102
RTVSPost2010PropOp57
 70
     1
102
RTVSPropertyOp0
 70
     1
102
RTVSPropertyOp1
 70
     1
102
RTVSPropertyOp2
 70
     1
102
RTVSPropertyOp3
 70
     1
102
RTVSPropertyOp4
 70
     1
102
RTVSPropertyOp5
 70
     1
102
RTVSPropertyOp6
 70
     1
102
RTVSPropertyOp7
 70
     1
102
RTVSPropertyOp8
 70
     1
102
RTVSPropertyOp9
 70
     1
102
RTVSPropertyOp10
 70
     1
102
RTVSPropertyOp11
 70
     1
102
RTVSPropertyOp12
 70
     1
102
RTVSPropertyOp13
 70
     1
102
RTVSPropertyOp14
 70
     1
102
RTVSPropertyOp15
 70
     1
102
RTVSPropertyOp16
 70
     1
102
RTVSPropertyOp17
 70
     1
102
RTVSPropertyOp18
 70
     1
102
RTVSPropertyOp19
 70
     1
102
RTVSPropertyOp20
 70
     1
102
RTVSPropertyOp21
 70
     1
102
RTVSPropertyOp22
 70
     1
102
RTVSPropertyOp23
 70
     1
102
RTVSPropertyOp24
 70
     1
102
RTVSPropertyOp25
 70
     1
102
RTVSPropertyOp26
 70
     1
102
RTVSPropertyOp27
 70
     1
102
RTVSPropertyOp28
 70
     1
102
RTVSPropertyOp29
 70
     1
102
RTVSPropertyOp30
 70
     1
102
RTVSPropertyOp31
 70
     1
102
RTVSPropertyOp32
 70
     1
102
RTVSPropertyOp33
 70
     1
102
RTVSPropertyOp34
 70
     1
102
RTVSPropertyOp35
 70
     1
102
RTVSPropertyOp36
 70
     1
102
RTVSPropertyOp37
 70
     1
102
RTVSPropertyOp38
 70
     1
102
RTVSPropertyOp39
 70
     1
102
RTVSPropertyOp40
 70
     1
102
RTVSPropertyOp41
 70
     1
102
RTVSPropertyOp42
 70
     1
102
RTVSPropertyOp43
 70
     1
102
RTVSPropertyOp44
 70
     1
102
RTVSPropertyOp45
 70
     1
102
RTVSPropertyOp46
 70
     1
102
RTVSPropertyOp47
 70
     1
102
RTVSPropertyOp48
 70
     1
102
RTVSPropertyOp49
 70
     1
102
RTVSPropertyOp50
 70
     1
102
RTVSPropertyOp51
 70
     0
102
RTVSPropertyOp52
 70
     0
102
RTVSPropertyOp53
 70
     1
102
RTVSPropertyOp54
 70
     1
102
RTVSPropertyOp55
 70
     1
102
RTVSPropertyOp56
 70
     1
102
RTVSPropertyOp57
 70
     1
102
RTVSPropertyOp58
 70
     1
102
RTVSPropertyOp59
 70
     1
102
RTVSPropertyOp60
 70
     1
102
RTVSPropertyOp61
 70
     1
102
RTVSPropertyOp62
 70
     1
  0
XRECORD
  5
366
102
{ACAD_REACTORS
330
365
102
}
330
365
100
AcDbXrecord
280
     1
102
RTVSPost2010Prop28
280
     0
102
RTVSPost2010PropOp28
 70
     1
102
RTVSPost2010Prop29
280
     1
102
RTVSPost2010PropOp29
 70
     1
102
RTVSPost2010Prop30
280
     1
102
RTVSPost2010PropOp30
 70
     1
102
RTVSPost2010Prop31
280
     0
102
RTVSPost2010PropOp31
 70
     1
102
RTVSPost2010Prop32
280
     0
102
RTVSPost2010PropOp32
 70
     1
102
RTVSPost2010Prop33
280
     0
102
RTVSPost2010PropOp33
 70
     1
102
RTVSPost2010Prop34
280
     0
102
RTVSPost2010PropOp34
 70
     1
102
RTVSPost2010Prop35
280
     0
102
RTVSPost2010PropOp35
 70
     1
102
RTVSPost2010Prop36
280
     0
102
RTVSPost2010PropOp36
 70
     1
102
RTVSPost2010Prop37
 90
       50
102
RTVSPost2010PropOp37
 70
     1
102
RTVSPost2010Prop38
140
0.0
102
RTVSPost2010PropOp38
 70
     1
102
RTVSPost2010Prop39
140
1.0
102
RTVSPost2010PropOp39
 70
     1
102
RTVSPost2010Prop40
 90
        0
102
RTVSPost2010PropOp40
 70
     1
102
RTVSPost2010Prop41ColorIndex
 90
       18
102
RTVSPost2010Prop41ColorRGB
 90
        0
102
RTVSPost2010PropOp41
 70
     1
102
RTVSPost2010Prop42
 90
       50
102
RTVSPost2010PropOp42
 70
     1
102
RTVSPost2010Prop43
 90
        3
102
RTVSPost2010PropOp43
 70
     1
102
RTVSPost2010Prop44ColorIndex
 90
        5
102
RTVSPost2010Prop44ColorRGB
 90
      255
102
RTVSPost2010PropOp44
 70
     1
102
RTVSPost2010Prop45
280
     0
102
RTVSPost2010PropOp45
 70
     1
102
RTVSPost2010Prop46
 90
       50
102
RTVSPost2010PropOp46
 70
     1
102
RTVSPost2010Prop47
 90
       50
102
RTVSPost2010PropOp47
 70
     1
102
RTVSPost2010Prop48
 90
       50
102
RTVSPost2010PropOp48
 70
     1
102
RTVSPost2010Prop49
280
     0
102
RTVSPost2010PropOp49
 70
     1
102
RTVSPost2010Prop50
 90
       50
102
RTVSPost2010PropOp50
 70
     1
102
RTVSPost2010Prop51ColorIndex
 90
      256
102
RTVSPost2010Prop51ColorRGB
 90
-16777216
102
RTVSPost2010PropOp51
 70
     0
102
RTVSPost2010Prop52
140
1.0
102
RTVSPost2010PropOp52
 70
     0
102
RTVSPost2010Prop53
 90
        2
102
RTVSPost2010PropOp53
 70
     1
102
RTVSPost2010Prop54
  1
strokes_ogs.tif
102
RTVSPost2010PropOp54
 70
     1
102
RTVSPost2010Prop55
280
     0
102
RTVSPost2010PropOp55
 70
     1
102
RTVSPost2010Prop56
140
1.0
102
RTVSPost2010PropOp56
 70
     1
102
RTVSPost2010Prop57
140
1.0
102
RTVSPost2010PropOp57
 70
     1
102
RTVSPropertyOp0
 70
     1
102
RTVSPropertyOp1
 70
     1
102
RTVSPropertyOp2
 70
     1
102
RTVSPropertyOp3
 70
     1
102
RTVSPropertyOp4
 70
     1
102
RTVSPropertyOp5
 70
     1
102
RTVSPropertyOp6
 70
     1
102
RTVSPropertyOp7
 70
     1
102
RTVSPropertyOp8
 70
     1
102
RTVSPropertyOp9
 70
     1
102
RTVSPropertyOp10
 70
     1
102
RTVSPropertyOp11
 70
     1
102
RTVSPropertyOp12
 70
     1
102
RTVSPropertyOp13
 70
     1
102
RTVSPropertyOp14
 70
     1
102
RTVSPropertyOp15
 70
     1
102
RTVSPropertyOp16
 70
     1
102
RTVSPropertyOp17
 70
     1
102
RTVSPropertyOp18
 70
     1
102
RTVSPropertyOp19
 70
     1
102
RTVSPropertyOp20
 70
     1
102
RTVSPropertyOp21
 70
     1
102
RTVSPropertyOp22
 70
     1
102
RTVSPropertyOp23
 70
     1
102
RTVSPropertyOp24
 70
     1
102
RTVSPropertyOp25
 70
     1
102
RTVSPropertyOp26
 70
     1
102
RTVSPropertyOp27
 70
     1
102
RTVSPropertyOp28
 70
     1
102
RTVSPropertyOp29
 70
     1
102
RTVSPropertyOp30
 70
     1
102
RTVSPropertyOp31
 70
     1
102
RTVSPropertyOp32
 70
     1
102
RTVSPropertyOp33
 70
     1
102
RTVSPropertyOp34
 70
     1
102
RTVSPropertyOp35
 70
     1
102
RTVSPropertyOp36
 70
     1
102
RTVSPropertyOp37
 70
     1
102
RTVSPropertyOp38
 70
     1
102
RTVSPropertyOp39
 70
     1
102
RTVSPropertyOp40
 70
     1
102
RTVSPropertyOp41
 70
     1
102
RTVSPropertyOp42
 70
     1
102
RTVSPropertyOp43
 70
     1
102
RTVSPropertyOp44
 70
     1
102
RTVSPropertyOp45
 70
     1
102
RTVSPropertyOp46
 70
     1
102
RTVSPropertyOp47
 70
     1
102
RTVSPropertyOp48
 70
     1
102
RTVSPropertyOp49
 70
     1
102
RTVSPropertyOp50
 70
     1
102
RTVSPropertyOp51
 70
     0
102
RTVSPropertyOp52
 70
     0
102
RTVSPropertyOp53
 70
     1
102
RTVSPropertyOp54
 70
     1
102
RTVSPropertyOp55
 70
     1
102
RTVSPropertyOp56
 70
     1
102
RTVSPropertyOp57
 70
     1
102
RTVSPropertyOp58
 70
     1
102
RTVSPropertyOp59
 70
     1
102
RTVSPropertyOp60
 70
     1
102
RTVSPropertyOp61
 70
     1
102
RTVSPropertyOp62
 70
     1
  0
XRECORD
  5
368
102
{ACAD_REACTORS
330
367
102
}
330
367
100
AcDbXrecord
280
     1
102
RTVSPost2010Prop28
280
     0
102
RTVSPost2010PropOp28
 70
     1
102
RTVSPost2010Prop29
280
     1
102
RTVSPost2010PropOp29
 70
     1
102
RTVSPost2010Prop30
280
     1
102
RTVSPost2010PropOp30
 70
     1
102
RTVSPost2010Prop31
280
     0
102
RTVSPost2010PropOp31
 70
     1
102
RTVSPost2010Prop32
280
     0
102
RTVSPost2010PropOp32
 70
     1
102
RTVSPost2010Prop33
280
     0
102
RTVSPost2010PropOp33
 70
     1
102
RTVSPost2010Prop34
280
     0
102
RTVSPost2010PropOp34
 70
     1
102
RTVSPost2010Prop35
280
     0
102
RTVSPost2010PropOp35
 70
     1
102
RTVSPost2010Prop36
280
     0
102
RTVSPost2010PropOp36
 70
     1
102
RTVSPost2010Prop37
 90
       50
102
RTVSPost2010PropOp37
 70
     1
102
RTVSPost2010Prop38
140
0.0
102
RTVSPost2010PropOp38
 70
     1
102
RTVSPost2010Prop39
140
1.0
102
RTVSPost2010PropOp39
 70
     1
102
RTVSPost2010Prop40
 90
        0
102
RTVSPost2010PropOp40
 70
     1
102
RTVSPost2010Prop41ColorIndex
 90
       18
102
RTVSPost2010Prop41ColorRGB
 90
        0
102
RTVSPost2010PropOp41
 70
     1
102
RTVSPost2010Prop42
 90
       50
102
RTVSPost2010PropOp42
 70
     1
102
RTVSPost2010Prop43
 90
        3
102
RTVSPost2010PropOp43
 70
     1
102
RTVSPost2010Prop44ColorIndex
 90
        5
102
RTVSPost2010Prop44ColorRGB
 90
      255
102
RTVSPost2010PropOp44
 70
     1
102
RTVSPost2010Prop45
280
     0
102
RTVSPost2010PropOp45
 70
     1
102
RTVSPost2010Prop46
 90
       50
102
RTVSPost2010PropOp46
 70
     1
102
RTVSPost2010Prop47
 90
       50
102
RTVSPost2010PropOp47
 70
     1
102
RTVSPost2010Prop48
 90
       50
102
RTVSPost2010PropOp48
 70
     1
102
RTVSPost2010Prop49
280
     0
102
RTVSPost2010PropOp49
 70
     1
102
RTVSPost2010Prop50
 90
       50
102
RTVSPost2010PropOp50
 70
     1
102
RTVSPost2010Prop51ColorIndex
 90
      256
102
RTVSPost2010Prop51ColorRGB
 90
-16777216
102
RTVSPost2010PropOp51
 70
     0
102
RTVSPost2010Prop52
140
1.0
102
RTVSPost2010PropOp52
 70
     0
102
RTVSPost2010Prop53
 90
        2
102
RTVSPost2010PropOp53
 70
     1
102
RTVSPost2010Prop54
  1
strokes_ogs.tif
102
RTVSPost2010PropOp54
 70
     1
102
RTVSPost2010Prop55
280
     0
102
RTVSPost2010PropOp55
 70
     1
102
RTVSPost2010Prop56
140
1.0
102
RTVSPost2010PropOp56
 70
     1
102
RTVSPost2010Prop57
140
1.0
102
RTVSPost2010PropOp57
 70
     1
102
RTVSPropertyOp0
 70
     1
102
RTVSPropertyOp1
 70
     1
102
RTVSPropertyOp2
 70
     1
102
RTVSPropertyOp3
 70
     1
102
RTVSPropertyOp4
 70
     1
102
RTVSPropertyOp5
 70
     1
102
RTVSPropertyOp6
 70
     1
102
RTVSPropertyOp7
 70
     1
102
RTVSPropertyOp8
 70
     1
102
RTVSPropertyOp9
 70
     1
102
RTVSPropertyOp10
 70
     1
102
RTVSPropertyOp11
 70
     1
102
RTVSPropertyOp12
 70
     1
102
RTVSPropertyOp13
 70
     1
102
RTVSPropertyOp14
 70
     1
102
RTVSPropertyOp15
 70
     1
102
RTVSPropertyOp16
 70
     1
102
RTVSPropertyOp17
 70
     1
102
RTVSPropertyOp18
 70
     1
102
RTVSPropertyOp19
 70
     1
102
RTVSPropertyOp20
 70
     1
102
RTVSPropertyOp21
 70
     1
102
RTVSPropertyOp22
 70
     1
102
RTVSPropertyOp23
 70
     1
102
RTVSPropertyOp24
 70
     1
102
RTVSPropertyOp25
 70
     1
102
RTVSPropertyOp26
 70
     1
102
RTVSPropertyOp27
 70
     1
102
RTVSPropertyOp28
 70
     1
102
RTVSPropertyOp29
 70
     1
102
RTVSPropertyOp30
 70
     1
102
RTVSPropertyOp31
 70
     1
102
RTVSPropertyOp32
 70
     1
102
RTVSPropertyOp33
 70
     1
102
RTVSPropertyOp34
 70
     1
102
RTVSPropertyOp35
 70
     1
102
RTVSPropertyOp36
 70
     1
102
RTVSPropertyOp37
 70
     1
102
RTVSPropertyOp38
 70
     1
102
RTVSPropertyOp39
 70
     1
102
RTVSPropertyOp40
 70
     1
102
RTVSPropertyOp41
 70
     1
102
RTVSPropertyOp42
 70
     1
102
RTVSPropertyOp43
 70
     1
102
RTVSPropertyOp44
 70
     1
102
RTVSPropertyOp45
 70
     1
102
RTVSPropertyOp46
 70
     1
102
RTVSPropertyOp47
 70
     1
102
RTVSPropertyOp48
 70
     1
102
RTVSPropertyOp49
 70
     1
102
RTVSPropertyOp50
 70
     1
102
RTVSPropertyOp51
 70
     0
102
RTVSPropertyOp52
 70
     0
102
RTVSPropertyOp53
 70
     1
102
RTVSPropertyOp54
 70
     1
102
RTVSPropertyOp55
 70
     1
102
RTVSPropertyOp56
 70
     1
102
RTVSPropertyOp57
 70
     1
102
RTVSPropertyOp58
 70
     1
102
RTVSPropertyOp59
 70
     1
102
RTVSPropertyOp60
 70
     1
102
RTVSPropertyOp61
 70
     1
102
RTVSPropertyOp62
 70
     1
  0
XRECORD
  5
36A
102
{ACAD_REACTORS
330
369
102
}
330
369
100
AcDbXrecord
280
     1
102
RTVSPost2010Prop28
280
     0
102
RTVSPost2010PropOp28
 70
     1
102
RTVSPost2010Prop29
280
     1
102
RTVSPost2010PropOp29
 70
     1
102
RTVSPost2010Prop30
280
     1
102
RTVSPost2010PropOp30
 70
     1
102
RTVSPost2010Prop31
280
     0
102
RTVSPost2010PropOp31
 70
     1
102
RTVSPost2010Prop32
280
     0
102
RTVSPost2010PropOp32
 70
     1
102
RTVSPost2010Prop33
280
     0
102
RTVSPost2010PropOp33
 70
     1
102
RTVSPost2010Prop34
280
     0
102
RTVSPost2010PropOp34
 70
     1
102
RTVSPost2010Prop35
280
     0
102
RTVSPost2010PropOp35
 70
     1
102
RTVSPost2010Prop36
280
     0
102
RTVSPost2010PropOp36
 70
     1
102
RTVSPost2010Prop37
 90
       50
102
RTVSPost2010PropOp37
 70
     1
102
RTVSPost2010Prop38
140
0.0
102
RTVSPost2010PropOp38
 70
     1
102
RTVSPost2010Prop39
140
1.0
102
RTVSPost2010PropOp39
 70
     1
102
RTVSPost2010Prop40
 90
        0
102
RTVSPost2010PropOp40
 70
     1
102
RTVSPost2010Prop41ColorIndex
 90
       18
102
RTVSPost2010Prop41ColorRGB
 90
        0
102
RTVSPost2010PropOp41
 70
     1
102
RTVSPost2010Prop42
 90
       50
102
RTVSPost2010PropOp42
 70
     1
102
RTVSPost2010Prop43
 90
        3
102
RTVSPost2010PropOp43
 70
     1
102
RTVSPost2010Prop44ColorIndex
 90
        5
102
RTVSPost2010Prop44ColorRGB
 90
      255
102
RTVSPost2010PropOp44
 70
     1
102
RTVSPost2010Prop45
280
     0
102
RTVSPost2010PropOp45
 70
     1
102
RTVSPost2010Prop46
 90
       50
102
RTVSPost2010PropOp46
 70
     1
102
RTVSPost2010Prop47
 90
       50
102
RTVSPost2010PropOp47
 70
     1
102
RTVSPost2010Prop48
 90
       50
102
RTVSPost2010PropOp48
 70
     1
102
RTVSPost2010Prop49
280
     0
102
RTVSPost2010PropOp49
 70
     1
102
RTVSPost2010Prop50
 90
       50
102
RTVSPost2010PropOp50
 70
     1
102
RTVSPost2010Prop51ColorIndex
 90
      256
102
RTVSPost2010Prop51ColorRGB
 90
-16777216
102
RTVSPost2010PropOp51
 70
     0
102
RTVSPost2010Prop52
140
1.0
102
RTVSPost2010PropOp52
 70
     0
102
RTVSPost2010Prop53
 90
        2
102
RTVSPost2010PropOp53
 70
     1
102
RTVSPost2010Prop54
  1
strokes_ogs.tif
102
RTVSPost2010PropOp54
 70
     1
102
RTVSPost2010Prop55
280
     0
102
RTVSPost2010PropOp55
 70
     1
102
RTVSPost2010Prop56
140
1.0
102
RTVSPost2010PropOp56
 70
     1
102
RTVSPost2010Prop57
140
1.0
102
RTVSPost2010PropOp57
 70
     1
102
RTVSPropertyOp0
 70
     1
102
RTVSPropertyOp1
 70
     1
102
RTVSPropertyOp2
 70
     1
102
RTVSPropertyOp3
 70
     1
102
RTVSPropertyOp4
 70
     1
102
RTVSPropertyOp5
 70
     1
102
RTVSPropertyOp6
 70
     1
102
RTVSPropertyOp7
 70
     1
102
RTVSPropertyOp8
 70
     1
102
RTVSPropertyOp9
 70
     1
102
RTVSPropertyOp10
 70
     1
102
RTVSPropertyOp11
 70
     1
102
RTVSPropertyOp12
 70
     1
102
RTVSPropertyOp13
 70
     1
102
RTVSPropertyOp14
 70
     1
102
RTVSPropertyOp15
 70
     1
102
RTVSPropertyOp16
 70
     1
102
RTVSPropertyOp17
 70
     1
102
RTVSPropertyOp18
 70
     1
102
RTVSPropertyOp19
 70
     1
102
RTVSPropertyOp20
 70
     1
102
RTVSPropertyOp21
 70
     1
102
RTVSPropertyOp22
 70
     1
102
RTVSPropertyOp23
 70
     1
102
RTVSPropertyOp24
 70
     1
102
RTVSPropertyOp25
 70
     1
102
RTVSPropertyOp26
 70
     1
102
RTVSPropertyOp27
 70
     1
102
RTVSPropertyOp28
 70
     1
102
RTVSPropertyOp29
 70
     1
102
RTVSPropertyOp30
 70
     1
102
RTVSPropertyOp31
 70
     1
102
RTVSPropertyOp32
 70
     1
102
RTVSPropertyOp33
 70
     1
102
RTVSPropertyOp34
 70
     1
102
RTVSPropertyOp35
 70
     1
102
RTVSPropertyOp36
 70
     1
102
RTVSPropertyOp37
 70
     1
102
RTVSPropertyOp38
 70
     1
102
RTVSPropertyOp39
 70
     1
102
RTVSPropertyOp40
 70
     1
102
RTVSPropertyOp41
 70
     1
102
RTVSPropertyOp42
 70
     1
102
RTVSPropertyOp43
 70
     1
102
RTVSPropertyOp44
 70
     1
102
RTVSPropertyOp45
 70
     1
102
RTVSPropertyOp46
 70
     1
102
RTVSPropertyOp47
 70
     1
102
RTVSPropertyOp48
 70
     1
102
RTVSPropertyOp49
 70
     1
102
RTVSPropertyOp50
 70
     1
102
RTVSPropertyOp51
 70
     0
102
RTVSPropertyOp52
 70
     0
102
RTVSPropertyOp53
 70
     1
102
RTVSPropertyOp54
 70
     1
102
RTVSPropertyOp55
 70
     1
102
RTVSPropertyOp56
 70
     1
102
RTVSPropertyOp57
 70
     1
102
RTVSPropertyOp58
 70
     1
102
RTVSPropertyOp59
 70
     1
102
RTVSPropertyOp60
 70
     1
102
RTVSPropertyOp61
 70
     1
102
RTVSPropertyOp62
 70
     1
  0
XRECORD
  5
370
102
{ACAD_REACTORS
330
36F
102
}
330
36F
100
AcDbXrecord
280
     1
102
RTVSPost2010Prop28
280
     0
102
RTVSPost2010PropOp28
 70
     1
102
RTVSPost2010Prop29
280
     1
102
RTVSPost2010PropOp29
 70
     1
102
RTVSPost2010Prop30
280
     1
102
RTVSPost2010PropOp30
 70
     1
102
RTVSPost2010Prop31
280
     0
102
RTVSPost2010PropOp31
 70
     1
102
RTVSPost2010Prop32
280
     0
102
RTVSPost2010PropOp32
 70
     1
102
RTVSPost2010Prop33
280
     0
102
RTVSPost2010PropOp33
 70
     1
102
RTVSPost2010Prop34
280
     0
102
RTVSPost2010PropOp34
 70
     1
102
RTVSPost2010Prop35
280
     0
102
RTVSPost2010PropOp35
 70
     1
102
RTVSPost2010Prop36
280
     0
102
RTVSPost2010PropOp36
 70
     1
102
RTVSPost2010Prop37
 90
       50
102
RTVSPost2010PropOp37
 70
     1
102
RTVSPost2010Prop38
140
0.0
102
RTVSPost2010PropOp38
 70
     1
102
RTVSPost2010Prop39
140
1.0
102
RTVSPost2010PropOp39
 70
     1
102
RTVSPost2010Prop40
 90
        0
102
RTVSPost2010PropOp40
 70
     1
102
RTVSPost2010Prop41ColorIndex
 90
       18
102
RTVSPost2010Prop41ColorRGB
 90
        0
102
RTVSPost2010PropOp41
 70
     1
102
RTVSPost2010Prop42
 90
       50
102
RTVSPost2010PropOp42
 70
     1
102
RTVSPost2010Prop43
 90
        3
102
RTVSPost2010PropOp43
 70
     1
102
RTVSPost2010Prop44ColorIndex
 90
        5
102
RTVSPost2010Prop44ColorRGB
 90
      255
102
RTVSPost2010PropOp44
 70
     1
102
RTVSPost2010Prop45
280
     0
102
RTVSPost2010PropOp45
 70
     1
102
RTVSPost2010Prop46
 90
       50
102
RTVSPost2010PropOp46
 70
     1
102
RTVSPost2010Prop47
 90
       50
102
RTVSPost2010PropOp47
 70
     1
102
RTVSPost2010Prop48
 90
       50
102
RTVSPost2010PropOp48
 70
     1
102
RTVSPost2010Prop49
280
     0
102
RTVSPost2010PropOp49
 70
     1
102
RTVSPost2010Prop50
 90
       50
102
RTVSPost2010PropOp50
 70
     1
102
RTVSPost2010Prop51ColorIndex
 90
      256
102
RTVSPost2010Prop51ColorRGB
 90
-16777216
102
RTVSPost2010PropOp51
 70
     0
102
RTVSPost2010Prop52
140
1.0
102
RTVSPost2010PropOp52
 70
     0
102
RTVSPost2010Prop53
 90
        2
102
RTVSPost2010PropOp53
 70
     1
102
RTVSPost2010Prop54
  1
strokes_ogs.tif
102
RTVSPost2010PropOp54
 70
     1
102
RTVSPost2010Prop55
280
     0
102
RTVSPost2010PropOp55
 70
     1
102
RTVSPost2010Prop56
140
1.0
102
RTVSPost2010PropOp56
 70
     1
102
RTVSPost2010Prop57
140
1.0
102
RTVSPost2010PropOp57
 70
     1
102
RTVSPropertyOp0
 70
     1
102
RTVSPropertyOp1
 70
     1
102
RTVSPropertyOp2
 70
     1
102
RTVSPropertyOp3
 70
     1
102
RTVSPropertyOp4
 70
     1
102
RTVSPropertyOp5
 70
     1
102
RTVSPropertyOp6
 70
     1
102
RTVSPropertyOp7
 70
     1
102
RTVSPropertyOp8
 70
     1
102
RTVSPropertyOp9
 70
     1
102
RTVSPropertyOp10
 70
     1
102
RTVSPropertyOp11
 70
     1
102
RTVSPropertyOp12
 70
     1
102
RTVSPropertyOp13
 70
     1
102
RTVSPropertyOp14
 70
     1
102
RTVSPropertyOp15
 70
     1
102
RTVSPropertyOp16
 70
     1
102
RTVSPropertyOp17
 70
     1
102
RTVSPropertyOp18
 70
     1
102
RTVSPropertyOp19
 70
     1
102
RTVSPropertyOp20
 70
     1
102
RTVSPropertyOp21
 70
     1
102
RTVSPropertyOp22
 70
     1
102
RTVSPropertyOp23
 70
     1
102
RTVSPropertyOp24
 70
     1
102
RTVSPropertyOp25
 70
     1
102
RTVSPropertyOp26
 70
     1
102
RTVSPropertyOp27
 70
     1
102
RTVSPropertyOp28
 70
     1
102
RTVSPropertyOp29
 70
     1
102
RTVSPropertyOp30
 70
     1
102
RTVSPropertyOp31
 70
     1
102
RTVSPropertyOp32
 70
     1
102
RTVSPropertyOp33
 70
     1
102
RTVSPropertyOp34
 70
     1
102
RTVSPropertyOp35
 70
     1
102
RTVSPropertyOp36
 70
     1
102
RTVSPropertyOp37
 70
     1
102
RTVSPropertyOp38
 70
     1
102
RTVSPropertyOp39
 70
     1
102
RTVSPropertyOp40
 70
     1
102
RTVSPropertyOp41
 70
     1
102
RTVSPropertyOp42
 70
     1
102
RTVSPropertyOp43
 70
     1
102
RTVSPropertyOp44
 70
     1
102
RTVSPropertyOp45
 70
     1
102
RTVSPropertyOp46
 70
     1
102
RTVSPropertyOp47
 70
     1
102
RTVSPropertyOp48
 70
     1
102
RTVSPropertyOp49
 70
     1
102
RTVSPropertyOp50
 70
     1
102
RTVSPropertyOp51
 70
     0
102
RTVSPropertyOp52
 70
     0
102
RTVSPropertyOp53
 70
     1
102
RTVSPropertyOp54
 70
     1
102
RTVSPropertyOp55
 70
     1
102
RTVSPropertyOp56
 70
     1
102
RTVSPropertyOp57
 70
     1
102
RTVSPropertyOp58
 70
     1
102
RTVSPropertyOp59
 70
     1
102
RTVSPropertyOp60
 70
     1
102
RTVSPropertyOp61
 70
     1
102
RTVSPropertyOp62
 70
     1
  0
XRECORD
  5
384
102
{ACAD_REACTORS
330
383
102
}
330
383
100
AcDbXrecord
280
     1
102
RTVSPost2010Prop28
280
     0
102
RTVSPost2010PropOp28
 70
     0
102
RTVSPost2010Prop29
280
     1
102
RTVSPost2010PropOp29
 70
     0
102
RTVSPost2010Prop30
280
     1
102
RTVSPost2010PropOp30
 70
     0
102
RTVSPost2010Prop31
280
     0
102
RTVSPost2010PropOp31
 70
     0
102
RTVSPost2010Prop32
280
     0
102
RTVSPost2010PropOp32
 70
     0
102
RTVSPost2010Prop33
280
     0
102
RTVSPost2010PropOp33
 70
     0
102
RTVSPost2010Prop34
280
     0
102
RTVSPost2010PropOp34
 70
     0
102
RTVSPost2010Prop35
280
     0
102
RTVSPost2010PropOp35
 70
     0
102
RTVSPost2010Prop36
280
     0
102
RTVSPost2010PropOp36
 70
     0
102
RTVSPost2010Prop37
 90
       50
102
RTVSPost2010PropOp37
 70
     0
102
RTVSPost2010Prop38
140
0.0
102
RTVSPost2010PropOp38
 70
     0
102
RTVSPost2010Prop39
140
1.0
102
RTVSPost2010PropOp39
 70
     0
102
RTVSPost2010Prop40
 90
        0
102
RTVSPost2010PropOp40
 70
     0
102
RTVSPost2010Prop41ColorIndex
 90
       18
102
RTVSPost2010Prop41ColorRGB
 90
        0
102
RTVSPost2010PropOp41
 70
     0
102
RTVSPost2010Prop42
 90
       50
102
RTVSPost2010PropOp42
 70
     0
102
RTVSPost2010Prop43
 90
        3
102
RTVSPost2010PropOp43
 70
     0
102
RTVSPost2010Prop44ColorIndex
 90
        5
102
RTVSPost2010Prop44ColorRGB
 90
      255
102
RTVSPost2010PropOp44
 70
     0
102
RTVSPost2010Prop45
280
     0
102
RTVSPost2010PropOp45
 70
     0
102
RTVSPost2010Prop46
 90
       50
102
RTVSPost2010PropOp46
 70
     0
102
RTVSPost2010Prop47
 90
       50
102
RTVSPost2010PropOp47
 70
     0
102
RTVSPost2010Prop48
 90
       50
102
RTVSPost2010PropOp48
 70
     0
102
RTVSPost2010Prop49
280
     0
102
RTVSPost2010PropOp49
 70
     0
102
RTVSPost2010Prop50
 90
       50
102
RTVSPost2010PropOp50
 70
     0
102
RTVSPost2010Prop51ColorIndex
 90
      256
102
RTVSPost2010Prop51ColorRGB
 90
-16777216
102
RTVSPost2010PropOp51
 70
     0
102
RTVSPost2010Prop52
140
1.0
102
RTVSPost2010PropOp52
 70
     0
102
RTVSPost2010Prop53
 90
        2
102
RTVSPost2010PropOp53
 70
     0
102
RTVSPost2010Prop54
  1
strokes_ogs.tif
102
RTVSPost2010PropOp54
 70
     0
102
RTVSPost2010Prop55
280
     0
102
RTVSPost2010PropOp55
 70
     0
102
RTVSPost2010Prop56
140
1.0
102
RTVSPost2010PropOp56
 70
     0
102
RTVSPost2010Prop57
140
1.0
102
RTVSPost2010PropOp57
 70
     0
102
RTVSPropertyOp0
 70
     0
102
RTVSPropertyOp1
 70
     0
102
RTVSPropertyOp2
 70
     0
102
RTVSPropertyOp3
 70
     0
102
RTVSPropertyOp4
 70
     0
102
RTVSPropertyOp5
 70
     0
102
RTVSPropertyOp6
 70
     0
102
RTVSPropertyOp7
 70
     0
102
RTVSPropertyOp8
 70
     0
102
RTVSPropertyOp9
 70
     0
102
RTVSPropertyOp10
 70
     0
102
RTVSPropertyOp11
 70
     0
102
RTVSPropertyOp12
 70
     0
102
RTVSPropertyOp13
 70
     0
102
RTVSPropertyOp14
 70
     2
102
RTVSPropertyOp15
 70
     0
102
RTVSPropertyOp16
 70
     0
102
RTVSPropertyOp17
 70
     0
102
RTVSPropertyOp18
 70
     0
102
RTVSPropertyOp19
 70
     0
102
RTVSPropertyOp20
 70
     0
102
RTVSPropertyOp21
 70
     0
102
RTVSPropertyOp22
 70
     0
102
RTVSPropertyOp23
 70
     0
102
RTVSPropertyOp24
 70
     0
102
RTVSPropertyOp25
 70
     0
102
RTVSPropertyOp26
 70
     0
102
RTVSPropertyOp27
 70
     0
102
RTVSPropertyOp28
 70
     0
102
RTVSPropertyOp29
 70
     0
102
RTVSPropertyOp30
 70
     0
102
RTVSPropertyOp31
 70
     0
102
RTVSPropertyOp32
 70
     0
102
RTVSPropertyOp33
 70
     0
102
RTVSPropertyOp34
 70
     0
102
RTVSPropertyOp35
 70
     0
102
RTVSPropertyOp36
 70
     0
102
RTVSPropertyOp37
 70
     0
102
RTVSPropertyOp38
 70
     0
102
RTVSPropertyOp39
 70
     0
102
RTVSPropertyOp40
 70
     0
102
RTVSPropertyOp41
 70
     0
102
RTVSPropertyOp42
 70
     0
102
RTVSPropertyOp43
 70
     0
102
RTVSPropertyOp44
 70
     0
102
RTVSPropertyOp45
 70
     0
102
RTVSPropertyOp46
 70
     0
102
RTVSPropertyOp47
 70
     0
102
RTVSPropertyOp48
 70
     0
102
RTVSPropertyOp49
 70
     0
102
RTVSPropertyOp50
 70
     0
102
RTVSPropertyOp51
 70
     0
102
RTVSPropertyOp52
 70
     0
102
RTVSPropertyOp53
 70
     0
102
RTVSPropertyOp54
 70
     0
102
RTVSPropertyOp55
 70
     0
102
RTVSPropertyOp56
 70
     0
102
RTVSPropertyOp57
 70
     0
102
RTVSPropertyOp58
 70
     1
102
RTVSPropertyOp59
 70
     1
102
RTVSPropertyOp60
 70
     1
102
RTVSPropertyOp61
 70
     1
102
RTVSPropertyOp62
 70
     1
  0
XRECORD
  5
37E
102
{ACAD_REACTORS
330
37D
102
}
330
37D
100
AcDbXrecord
280
     1
102
RTVSPost2010Prop28
280
     0
102
RTVSPost2010PropOp28
 70
     1
102
RTVSPost2010Prop29
280
     1
102
RTVSPost2010PropOp29
 70
     1
102
RTVSPost2010Prop30
280
     1
102
RTVSPost2010PropOp30
 70
     1
102
RTVSPost2010Prop31
280
     0
102
RTVSPost2010PropOp31
 70
     1
102
RTVSPost2010Prop32
280
     0
102
RTVSPost2010PropOp32
 70
     1
102
RTVSPost2010Prop33
280
     0
102
RTVSPost2010PropOp33
 70
     1
102
RTVSPost2010Prop34
280
     0
102
RTVSPost2010PropOp34
 70
     1
102
RTVSPost2010Prop35
280
     0
102
RTVSPost2010PropOp35
 70
     1
102
RTVSPost2010Prop36
280
     0
102
RTVSPost2010PropOp36
 70
     1
102
RTVSPost2010Prop37
 90
       50
102
RTVSPost2010PropOp37
 70
     1
102
RTVSPost2010Prop38
140
0.0
102
RTVSPost2010PropOp38
 70
     1
102
RTVSPost2010Prop39
140
1.0
102
RTVSPost2010PropOp39
 70
     1
102
RTVSPost2010Prop40
 90
        0
102
RTVSPost2010PropOp40
 70
     1
102
RTVSPost2010Prop41ColorIndex
 90
       18
102
RTVSPost2010Prop41ColorRGB
 90
        0
102
RTVSPost2010PropOp41
 70
     1
102
RTVSPost2010Prop42
 90
       50
102
RTVSPost2010PropOp42
 70
     1
102
RTVSPost2010Prop43
 90
        3
102
RTVSPost2010PropOp43
 70
     1
102
RTVSPost2010Prop44ColorIndex
 90
        5
102
RTVSPost2010Prop44ColorRGB
 90
      255
102
RTVSPost2010PropOp44
 70
     1
102
RTVSPost2010Prop45
280
     0
102
RTVSPost2010PropOp45
 70
     1
102
RTVSPost2010Prop46
 90
       50
102
RTVSPost2010PropOp46
 70
     1
102
RTVSPost2010Prop47
 90
       50
102
RTVSPost2010PropOp47
 70
     1
102
RTVSPost2010Prop48
 90
       50
102
RTVSPost2010PropOp48
 70
     1
102
RTVSPost2010Prop49
280
     0
102
RTVSPost2010PropOp49
 70
     1
102
RTVSPost2010Prop50
 90
       50
102
RTVSPost2010PropOp50
 70
     1
102
RTVSPost2010Prop51ColorIndex
 90
      256
102
RTVSPost2010Prop51ColorRGB
 90
-16777216
102
RTVSPost2010PropOp51
 70
     0
102
RTVSPost2010Prop52
140
1.0
102
RTVSPost2010PropOp52
 70
     0
102
RTVSPost2010Prop53
 90
        2
102
RTVSPost2010PropOp53
 70
     1
102
RTVSPost2010Prop54
  1
strokes_ogs.tif
102
RTVSPost2010PropOp54
 70
     1
102
RTVSPost2010Prop55
280
     0
102
RTVSPost2010PropOp55
 70
     1
102
RTVSPost2010Prop56
140
1.0
102
RTVSPost2010PropOp56
 70
     1
102
RTVSPost2010Prop57
140
1.0
102
RTVSPost2010PropOp57
 70
     1
102
RTVSPropertyOp0
 70
     1
102
RTVSPropertyOp1
 70
     1
102
RTVSPropertyOp2
 70
     1
102
RTVSPropertyOp3
 70
     1
102
RTVSPropertyOp4
 70
     1
102
RTVSPropertyOp5
 70
     1
102
RTVSPropertyOp6
 70
     1
102
RTVSPropertyOp7
 70
     1
102
RTVSPropertyOp8
 70
     1
102
RTVSPropertyOp9
 70
     1
102
RTVSPropertyOp10
 70
     1
102
RTVSPropertyOp11
 70
     1
102
RTVSPropertyOp12
 70
     1
102
RTVSPropertyOp13
 70
     1
102
RTVSPropertyOp14
 70
     1
102
RTVSPropertyOp15
 70
     1
102
RTVSPropertyOp16
 70
     1
102
RTVSPropertyOp17
 70
     1
102
RTVSPropertyOp18
 70
     1
102
RTVSPropertyOp19
 70
     1
102
RTVSPropertyOp20
 70
     1
102
RTVSPropertyOp21
 70
     1
102
RTVSPropertyOp22
 70
     1
102
RTVSPropertyOp23
 70
     1
102
RTVSPropertyOp24
 70
     1
102
RTVSPropertyOp25
 70
     1
102
RTVSPropertyOp26
 70
     1
102
RTVSPropertyOp27
 70
     1
102
RTVSPropertyOp28
 70
     1
102
RTVSPropertyOp29
 70
     1
102
RTVSPropertyOp30
 70
     1
102
RTVSPropertyOp31
 70
     1
102
RTVSPropertyOp32
 70
     1
102
RTVSPropertyOp33
 70
     1
102
RTVSPropertyOp34
 70
     1
102
RTVSPropertyOp35
 70
     1
102
RTVSPropertyOp36
 70
     1
102
RTVSPropertyOp37
 70
     1
102
RTVSPropertyOp38
 70
     1
102
RTVSPropertyOp39
 70
     1
102
RTVSPropertyOp40
 70
     1
102
RTVSPropertyOp41
 70
     1
102
RTVSPropertyOp42
 70
     1
102
RTVSPropertyOp43
 70
     1
102
RTVSPropertyOp44
 70
     1
102
RTVSPropertyOp45
 70
     1
102
RTVSPropertyOp46
 70
     1
102
RTVSPropertyOp47
 70
     1
102
RTVSPropertyOp48
 70
     1
102
RTVSPropertyOp49
 70
     1
102
RTVSPropertyOp50
 70
     1
102
RTVSPropertyOp51
 70
     0
102
RTVSPropertyOp52
 70
     0
102
RTVSPropertyOp53
 70
     1
102
RTVSPropertyOp54
 70
     1
102
RTVSPropertyOp55
 70
     1
102
RTVSPropertyOp56
 70
     1
102
RTVSPropertyOp57
 70
     1
102
RTVSPropertyOp58
 70
     1
102
RTVSPropertyOp59
 70
     1
102
RTVSPropertyOp60
 70
     1
102
RTVSPropertyOp61
 70
     1
102
RTVSPropertyOp62
 70
     1
  0
XRECORD
  5
386
102
{ACAD_REACTORS
330
385
102
}
330
385
100
AcDbXrecord
280
     1
102
RTVSPost2010Prop28
280
     0
102
RTVSPost2010PropOp28
 70
     0
102
RTVSPost2010Prop29
280
     1
102
RTVSPost2010PropOp29
 70
     0
102
RTVSPost2010Prop30
280
     1
102
RTVSPost2010PropOp30
 70
     0
102
RTVSPost2010Prop31
280
     0
102
RTVSPost2010PropOp31
 70
     0
102
RTVSPost2010Prop32
280
     0
102
RTVSPost2010PropOp32
 70
     0
102
RTVSPost2010Prop33
280
     0
102
RTVSPost2010PropOp33
 70
     0
102
RTVSPost2010Prop34
280
     0
102
RTVSPost2010PropOp34
 70
     0
102
RTVSPost2010Prop35
280
     0
102
RTVSPost2010PropOp35
 70
     0
102
RTVSPost2010Prop36
280
     0
102
RTVSPost2010PropOp36
 70
     0
102
RTVSPost2010Prop37
 90
       50
102
RTVSPost2010PropOp37
 70
     0
102
RTVSPost2010Prop38
140
0.0
102
RTVSPost2010PropOp38
 70
     0
102
RTVSPost2010Prop39
140
1.0
102
RTVSPost2010PropOp39
 70
     0
102
RTVSPost2010Prop40
 90
        0
102
RTVSPost2010PropOp40
 70
     0
102
RTVSPost2010Prop41ColorIndex
 90
       18
102
RTVSPost2010Prop41ColorRGB
 90
        0
102
RTVSPost2010PropOp41
 70
     0
102
RTVSPost2010Prop42
 90
       50
102
RTVSPost2010PropOp42
 70
     0
102
RTVSPost2010Prop43
 90
        3
102
RTVSPost2010PropOp43
 70
     0
102
RTVSPost2010Prop44ColorIndex
 90
        5
102
RTVSPost2010Prop44ColorRGB
 90
      255
102
RTVSPost2010PropOp44
 70
     0
102
RTVSPost2010Prop45
280
     0
102
RTVSPost2010PropOp45
 70
     0
102
RTVSPost2010Prop46
 90
       50
102
RTVSPost2010PropOp46
 70
     0
102
RTVSPost2010Prop47
 90
       50
102
RTVSPost2010PropOp47
 70
     0
102
RTVSPost2010Prop48
 90
       50
102
RTVSPost2010PropOp48
 70
     0
102
RTVSPost2010Prop49
280
     0
102
RTVSPost2010PropOp49
 70
     0
102
RTVSPost2010Prop50
 90
       50
102
RTVSPost2010PropOp50
 70
     0
102
RTVSPost2010Prop51ColorIndex
 90
      256
102
RTVSPost2010Prop51ColorRGB
 90
-16777216
102
RTVSPost2010PropOp51
 70
     0
102
RTVSPost2010Prop52
140
1.0
102
RTVSPost2010PropOp52
 70
     0
102
RTVSPost2010Prop53
 90
        2
102
RTVSPost2010PropOp53
 70
     0
102
RTVSPost2010Prop54
  1
strokes_ogs.tif
102
RTVSPost2010PropOp54
 70
     0
102
RTVSPost2010Prop55
280
     0
102
RTVSPost2010PropOp55
 70
     0
102
RTVSPost2010Prop56
140
1.0
102
RTVSPost2010PropOp56
 70
     0
102
RTVSPost2010Prop57
140
1.0
102
RTVSPost2010PropOp57
 70
     0
102
RTVSPropertyOp0
 70
     0
102
RTVSPropertyOp1
 70
     0
102
RTVSPropertyOp2
 70
     0
102
RTVSPropertyOp3
 70
     0
102
RTVSPropertyOp4
 70
     0
102
RTVSPropertyOp5
 70
     0
102
RTVSPropertyOp6
 70
     0
102
RTVSPropertyOp7
 70
     0
102
RTVSPropertyOp8
 70
     0
102
RTVSPropertyOp9
 70
     0
102
RTVSPropertyOp10
 70
     0
102
RTVSPropertyOp11
 70
     0
102
RTVSPropertyOp12
 70
     0
102
RTVSPropertyOp13
 70
     0
102
RTVSPropertyOp14
 70
     2
102
RTVSPropertyOp15
 70
     0
102
RTVSPropertyOp16
 70
     0
102
RTVSPropertyOp17
 70
     0
102
RTVSPropertyOp18
 70
     0
102
RTVSPropertyOp19
 70
     0
102
RTVSPropertyOp20
 70
     0
102
RTVSPropertyOp21
 70
     0
102
RTVSPropertyOp22
 70
     0
102
RTVSPropertyOp23
 70
     0
102
RTVSPropertyOp24
 70
     0
102
RTVSPropertyOp25
 70
     0
102
RTVSPropertyOp26
 70
     0
102
RTVSPropertyOp27
 70
     0
102
RTVSPropertyOp28
 70
     0
102
RTVSPropertyOp29
 70
     0
102
RTVSPropertyOp30
 70
     0
102
RTVSPropertyOp31
 70
     0
102
RTVSPropertyOp32
 70
     0
102
RTVSPropertyOp33
 70
     0
102
RTVSPropertyOp34
 70
     0
102
RTVSPropertyOp35
 70
     0
102
RTVSPropertyOp36
 70
     0
102
RTVSPropertyOp37
 70
     0
102
RTVSPropertyOp38
 70
     0
102
RTVSPropertyOp39
 70
     0
102
RTVSPropertyOp40
 70
     0
102
RTVSPropertyOp41
 70
     0
102
RTVSPropertyOp42
 70
     0
102
RTVSPropertyOp43
 70
     0
102
RTVSPropertyOp44
 70
     0
102
RTVSPropertyOp45
 70
     0
102
RTVSPropertyOp46
 70
     0
102
RTVSPropertyOp47
 70
     0
102
RTVSPropertyOp48
 70
     0
102
RTVSPropertyOp49
 70
     0
102
RTVSPropertyOp50
 70
     0
102
RTVSPropertyOp51
 70
     0
102
RTVSPropertyOp52
 70
     0
102
RTVSPropertyOp53
 70
     0
102
RTVSPropertyOp54
 70
     0
102
RTVSPropertyOp55
 70
     0
102
RTVSPropertyOp56
 70
     0
102
RTVSPropertyOp57
 70
     0
102
RTVSPropertyOp58
 70
     1
102
RTVSPropertyOp59
 70
     1
102
RTVSPropertyOp60
 70
     1
102
RTVSPropertyOp61
 70
     1
102
RTVSPropertyOp62
 70
     1
  0
XRECORD
  5
374
102
{ACAD_REACTORS
330
373
102
}
330
373
100
AcDbXrecord
280
     1
102
RTVSPost2010Prop28
280
     0
102
RTVSPost2010PropOp28
 70
     1
102
RTVSPost2010Prop29
280
     1
102
RTVSPost2010PropOp29
 70
     1
102
RTVSPost2010Prop30
280
     1
102
RTVSPost2010PropOp30
 70
     1
102
RTVSPost2010Prop31
280
     0
102
RTVSPost2010PropOp31
 70
     1
102
RTVSPost2010Prop32
280
     0
102
RTVSPost2010PropOp32
 70
     1
102
RTVSPost2010Prop33
280
     0
102
RTVSPost2010PropOp33
 70
     1
102
RTVSPost2010Prop34
280
     0
102
RTVSPost2010PropOp34
 70
     1
102
RTVSPost2010Prop35
280
     0
102
RTVSPost2010PropOp35
 70
     1
102
RTVSPost2010Prop36
280
     0
102
RTVSPost2010PropOp36
 70
     1
102
RTVSPost2010Prop37
 90
       50
102
RTVSPost2010PropOp37
 70
     1
102
RTVSPost2010Prop38
140
0.0
102
RTVSPost2010PropOp38
 70
     1
102
RTVSPost2010Prop39
140
1.0
102
RTVSPost2010PropOp39
 70
     1
102
RTVSPost2010Prop40
 90
        0
102
RTVSPost2010PropOp40
 70
     1
102
RTVSPost2010Prop41ColorIndex
 90
       18
102
RTVSPost2010Prop41ColorRGB
 90
        0
102
RTVSPost2010PropOp41
 70
     1
102
RTVSPost2010Prop42
 90
       50
102
RTVSPost2010PropOp42
 70
     1
102
RTVSPost2010Prop43
 90
        3
102
RTVSPost2010PropOp43
 70
     1
102
RTVSPost2010Prop44ColorIndex
 90
        5
102
RTVSPost2010Prop44ColorRGB
 90
      255
102
RTVSPost2010PropOp44
 70
     1
102
RTVSPost2010Prop45
280
     0
102
RTVSPost2010PropOp45
 70
     1
102
RTVSPost2010Prop46
 90
       50
102
RTVSPost2010PropOp46
 70
     1
102
RTVSPost2010Prop47
 90
       50
102
RTVSPost2010PropOp47
 70
     1
102
RTVSPost2010Prop48
 90
       50
102
RTVSPost2010PropOp48
 70
     1
102
RTVSPost2010Prop49
280
     0
102
RTVSPost2010PropOp49
 70
     1
102
RTVSPost2010Prop50
 90
       50
102
RTVSPost2010PropOp50
 70
     1
102
RTVSPost2010Prop51ColorIndex
 90
      256
102
RTVSPost2010Prop51ColorRGB
 90
-16777216
102
RTVSPost2010PropOp51
 70
     0
102
RTVSPost2010Prop52
140
1.0
102
RTVSPost2010PropOp52
 70
     0
102
RTVSPost2010Prop53
 90
        2
102
RTVSPost2010PropOp53
 70
     1
102
RTVSPost2010Prop54
  1
strokes_ogs.tif
102
RTVSPost2010PropOp54
 70
     1
102
RTVSPost2010Prop55
280
     0
102
RTVSPost2010PropOp55
 70
     1
102
RTVSPost2010Prop56
140
1.0
102
RTVSPost2010PropOp56
 70
     1
102
RTVSPost2010Prop57
140
1.0
102
RTVSPost2010PropOp57
 70
     1
102
RTVSPropertyOp0
 70
     1
102
RTVSPropertyOp1
 70
     1
102
RTVSPropertyOp2
 70
     1
102
RTVSPropertyOp3
 70
     1
102
RTVSPropertyOp4
 70
     1
102
RTVSPropertyOp5
 70
     1
102
RTVSPropertyOp6
 70
     1
102
RTVSPropertyOp7
 70
     1
102
RTVSPropertyOp8
 70
     1
102
RTVSPropertyOp9
 70
     1
102
RTVSPropertyOp10
 70
     1
102
RTVSPropertyOp11
 70
     1
102
RTVSPropertyOp12
 70
     1
102
RTVSPropertyOp13
 70
     1
102
RTVSPropertyOp14
 70
     1
102
RTVSPropertyOp15
 70
     1
102
RTVSPropertyOp16
 70
     1
102
RTVSPropertyOp17
 70
     1
102
RTVSPropertyOp18
 70
     1
102
RTVSPropertyOp19
 70
     1
102
RTVSPropertyOp20
 70
     1
102
RTVSPropertyOp21
 70
     1
102
RTVSPropertyOp22
 70
     1
102
RTVSPropertyOp23
 70
     1
102
RTVSPropertyOp24
 70
     1
102
RTVSPropertyOp25
 70
     1
102
RTVSPropertyOp26
 70
     1
102
RTVSPropertyOp27
 70
     1
102
RTVSPropertyOp28
 70
     1
102
RTVSPropertyOp29
 70
     1
102
RTVSPropertyOp30
 70
     1
102
RTVSPropertyOp31
 70
     1
102
RTVSPropertyOp32
 70
     1
102
RTVSPropertyOp33
 70
     1
102
RTVSPropertyOp34
 70
     1
102
RTVSPropertyOp35
 70
     1
102
RTVSPropertyOp36
 70
     1
102
RTVSPropertyOp37
 70
     1
102
RTVSPropertyOp38
 70
     1
102
RTVSPropertyOp39
 70
     1
102
RTVSPropertyOp40
 70
     1
102
RTVSPropertyOp41
 70
     1
102
RTVSPropertyOp42
 70
     1
102
RTVSPropertyOp43
 70
     1
102
RTVSPropertyOp44
 70
     1
102
RTVSPropertyOp45
 70
     1
102
RTVSPropertyOp46
 70
     1
102
RTVSPropertyOp47
 70
     1
102
RTVSPropertyOp48
 70
     1
102
RTVSPropertyOp49
 70
     1
102
RTVSPropertyOp50
 70
     1
102
RTVSPropertyOp51
 70
     0
102
RTVSPropertyOp52
 70
     0
102
RTVSPropertyOp53
 70
     1
102
RTVSPropertyOp54
 70
     1
102
RTVSPropertyOp55
 70
     1
102
RTVSPropertyOp56
 70
     1
102
RTVSPropertyOp57
 70
     1
102
RTVSPropertyOp58
 70
     1
102
RTVSPropertyOp59
 70
     1
102
RTVSPropertyOp60
 70
     1
102
RTVSPropertyOp61
 70
     1
102
RTVSPropertyOp62
 70
     1
  0
XRECORD
  5
392
102
{ACAD_REACTORS
330
391
102
}
330
391
100
AcDbXrecord
280
     1
102
RTVSPost2010Prop28
280
     0
102
RTVSPost2010PropOp28
 70
     1
102
RTVSPost2010Prop29
280
     1
102
RTVSPost2010PropOp29
 70
     1
102
RTVSPost2010Prop30
280
     1
102
RTVSPost2010PropOp30
 70
     1
102
RTVSPost2010Prop31
280
     0
102
RTVSPost2010PropOp31
 70
     1
102
RTVSPost2010Prop32
280
     0
102
RTVSPost2010PropOp32
 70
     1
102
RTVSPost2010Prop33
280
     0
102
RTVSPost2010PropOp33
 70
     1
102
RTVSPost2010Prop34
280
     0
102
RTVSPost2010PropOp34
 70
     1
102
RTVSPost2010Prop35
280
     0
102
RTVSPost2010PropOp35
 70
     1
102
RTVSPost2010Prop36
280
     0
102
RTVSPost2010PropOp36
 70
     1
102
RTVSPost2010Prop37
 90
       50
102
RTVSPost2010PropOp37
 70
     1
102
RTVSPost2010Prop38
140
0.0
102
RTVSPost2010PropOp38
 70
     1
102
RTVSPost2010Prop39
140
1.0
102
RTVSPost2010PropOp39
 70
     1
102
RTVSPost2010Prop40
 90
        0
102
RTVSPost2010PropOp40
 70
     1
102
RTVSPost2010Prop41ColorIndex
 90
       18
102
RTVSPost2010Prop41ColorRGB
 90
        0
102
RTVSPost2010PropOp41
 70
     1
102
RTVSPost2010Prop42
 90
       50
102
RTVSPost2010PropOp42
 70
     1
102
RTVSPost2010Prop43
 90
        3
102
RTVSPost2010PropOp43
 70
     1
102
RTVSPost2010Prop44ColorIndex
 90
        5
102
RTVSPost2010Prop44ColorRGB
 90
      255
102
RTVSPost2010PropOp44
 70
     1
102
RTVSPost2010Prop45
280
     0
102
RTVSPost2010PropOp45
 70
     1
102
RTVSPost2010Prop46
 90
       50
102
RTVSPost2010PropOp46
 70
     1
102
RTVSPost2010Prop47
 90
       50
102
RTVSPost2010PropOp47
 70
     1
102
RTVSPost2010Prop48
 90
       50
102
RTVSPost2010PropOp48
 70
     1
102
RTVSPost2010Prop49
280
     0
102
RTVSPost2010PropOp49
 70
     1
102
RTVSPost2010Prop50
 90
       50
102
RTVSPost2010PropOp50
 70
     1
102
RTVSPost2010Prop51ColorIndex
 90
      256
102
RTVSPost2010Prop51ColorRGB
 90
-16777216
102
RTVSPost2010PropOp51
 70
     0
102
RTVSPost2010Prop52
140
1.0
102
RTVSPost2010PropOp52
 70
     0
102
RTVSPost2010Prop53
 90
        2
102
RTVSPost2010PropOp53
 70
     1
102
RTVSPost2010Prop54
  1
strokes_ogs.tif
102
RTVSPost2010PropOp54
 70
     1
102
RTVSPost2010Prop55
280
     0
102
RTVSPost2010PropOp55
 70
     1
102
RTVSPost2010Prop56
140
1.0
102
RTVSPost2010PropOp56
 70
     1
102
RTVSPost2010Prop57
140
1.0
102
RTVSPost2010PropOp57
 70
     1
102
RTVSPropertyOp0
 70
     1
102
RTVSPropertyOp1
 70
     1
102
RTVSPropertyOp2
 70
     1
102
RTVSPropertyOp3
 70
     1
102
RTVSPropertyOp4
 70
     1
102
RTVSPropertyOp5
 70
     1
102
RTVSPropertyOp6
 70
     1
102
RTVSPropertyOp7
 70
     1
102
RTVSPropertyOp8
 70
     1
102
RTVSPropertyOp9
 70
     1
102
RTVSPropertyOp10
 70
     1
102
RTVSPropertyOp11
 70
     1
102
RTVSPropertyOp12
 70
     1
102
RTVSPropertyOp13
 70
     1
102
RTVSPropertyOp14
 70
     1
102
RTVSPropertyOp15
 70
     1
102
RTVSPropertyOp16
 70
     1
102
RTVSPropertyOp17
 70
     1
102
RTVSPropertyOp18
 70
     1
102
RTVSPropertyOp19
 70
     1
102
RTVSPropertyOp20
 70
     1
102
RTVSPropertyOp21
 70
     1
102
RTVSPropertyOp22
 70
     1
102
RTVSPropertyOp23
 70
     1
102
RTVSPropertyOp24
 70
     1
102
RTVSPropertyOp25
 70
     1
102
RTVSPropertyOp26
 70
     1
102
RTVSPropertyOp27
 70
     1
102
RTVSPropertyOp28
 70
     1
102
RTVSPropertyOp29
 70
     1
102
RTVSPropertyOp30
 70
     1
102
RTVSPropertyOp31
 70
     1
102
RTVSPropertyOp32
 70
     1
102
RTVSPropertyOp33
 70
     1
102
RTVSPropertyOp34
 70
     1
102
RTVSPropertyOp35
 70
     1
102
RTVSPropertyOp36
 70
     1
102
RTVSPropertyOp37
 70
     1
102
RTVSPropertyOp38
 70
     1
102
RTVSPropertyOp39
 70
     1
102
RTVSPropertyOp40
 70
     1
102
RTVSPropertyOp41
 70
     1
102
RTVSPropertyOp42
 70
     1
102
RTVSPropertyOp43
 70
     1
102
RTVSPropertyOp44
 70
     1
102
RTVSPropertyOp45
 70
     1
102
RTVSPropertyOp46
 70
     1
102
RTVSPropertyOp47
 70
     1
102
RTVSPropertyOp48
 70
     1
102
RTVSPropertyOp49
 70
     1
102
RTVSPropertyOp50
 70
     1
102
RTVSPropertyOp51
 70
     0
102
RTVSPropertyOp52
 70
     0
102
RTVSPropertyOp53
 70
     1
102
RTVSPropertyOp54
 70
     1
102
RTVSPropertyOp55
 70
     1
102
RTVSPropertyOp56
 70
     1
102
RTVSPropertyOp57
 70
     1
102
RTVSPropertyOp58
 70
     1
102
RTVSPropertyOp59
 70
     1
102
RTVSPropertyOp60
 70
     1
102
RTVSPropertyOp61
 70
     1
102
RTVSPropertyOp62
 70
     1
  0
XRECORD
  5
390
102
{ACAD_REACTORS
330
38F
102
}
330
38F
100
AcDbXrecord
280
     1
102
RTVSPost2010Prop28
280
     0
102
RTVSPost2010PropOp28
 70
     1
102
RTVSPost2010Prop29
280
     1
102
RTVSPost2010PropOp29
 70
     1
102
RTVSPost2010Prop30
280
     1
102
RTVSPost2010PropOp30
 70
     1
102
RTVSPost2010Prop31
280
     0
102
RTVSPost2010PropOp31
 70
     1
102
RTVSPost2010Prop32
280
     0
102
RTVSPost2010PropOp32
 70
     1
102
RTVSPost2010Prop33
280
     0
102
RTVSPost2010PropOp33
 70
     1
102
RTVSPost2010Prop34
280
     0
102
RTVSPost2010PropOp34
 70
     1
102
RTVSPost2010Prop35
280
     0
102
RTVSPost2010PropOp35
 70
     1
102
RTVSPost2010Prop36
280
     0
102
RTVSPost2010PropOp36
 70
     1
102
RTVSPost2010Prop37
 90
       50
102
RTVSPost2010PropOp37
 70
     1
102
RTVSPost2010Prop38
140
0.0
102
RTVSPost2010PropOp38
 70
     1
102
RTVSPost2010Prop39
140
1.0
102
RTVSPost2010PropOp39
 70
     1
102
RTVSPost2010Prop40
 90
        0
102
RTVSPost2010PropOp40
 70
     1
102
RTVSPost2010Prop41ColorIndex
 90
       18
102
RTVSPost2010Prop41ColorRGB
 90
        0
102
RTVSPost2010PropOp41
 70
     1
102
RTVSPost2010Prop42
 90
       50
102
RTVSPost2010PropOp42
 70
     1
102
RTVSPost2010Prop43
 90
        3
102
RTVSPost2010PropOp43
 70
     1
102
RTVSPost2010Prop44ColorIndex
 90
        5
102
RTVSPost2010Prop44ColorRGB
 90
      255
102
RTVSPost2010PropOp44
 70
     1
102
RTVSPost2010Prop45
280
     0
102
RTVSPost2010PropOp45
 70
     1
102
RTVSPost2010Prop46
 90
       50
102
RTVSPost2010PropOp46
 70
     1
102
RTVSPost2010Prop47
 90
       50
102
RTVSPost2010PropOp47
 70
     1
102
RTVSPost2010Prop48
 90
       50
102
RTVSPost2010PropOp48
 70
     1
102
RTVSPost2010Prop49
280
     0
102
RTVSPost2010PropOp49
 70
     1
102
RTVSPost2010Prop50
 90
       50
102
RTVSPost2010PropOp50
 70
     1
102
RTVSPost2010Prop51ColorIndex
 90
      256
102
RTVSPost2010Prop51ColorRGB
 90
-16777216
102
RTVSPost2010PropOp51
 70
     0
102
RTVSPost2010Prop52
140
1.0
102
RTVSPost2010PropOp52
 70
     0
102
RTVSPost2010Prop53
 90
        2
102
RTVSPost2010PropOp53
 70
     1
102
RTVSPost2010Prop54
  1
strokes_ogs.tif
102
RTVSPost2010PropOp54
 70
     1
102
RTVSPost2010Prop55
280
     0
102
RTVSPost2010PropOp55
 70
     1
102
RTVSPost2010Prop56
140
1.0
102
RTVSPost2010PropOp56
 70
     1
102
RTVSPost2010Prop57
140
1.0
102
RTVSPost2010PropOp57
 70
     1
102
RTVSPropertyOp0
 70
     1
102
RTVSPropertyOp1
 70
     1
102
RTVSPropertyOp2
 70
     1
102
RTVSPropertyOp3
 70
     1
102
RTVSPropertyOp4
 70
     1
102
RTVSPropertyOp5
 70
     1
102
RTVSPropertyOp6
 70
     1
102
RTVSPropertyOp7
 70
     1
102
RTVSPropertyOp8
 70
     1
102
RTVSPropertyOp9
 70
     1
102
RTVSPropertyOp10
 70
     1
102
RTVSPropertyOp11
 70
     1
102
RTVSPropertyOp12
 70
     1
102
RTVSPropertyOp13
 70
     1
102
RTVSPropertyOp14
 70
     1
102
RTVSPropertyOp15
 70
     1
102
RTVSPropertyOp16
 70
     1
102
RTVSPropertyOp17
 70
     1
102
RTVSPropertyOp18
 70
     1
102
RTVSPropertyOp19
 70
     1
102
RTVSPropertyOp20
 70
     1
102
RTVSPropertyOp21
 70
     1
102
RTVSPropertyOp22
 70
     1
102
RTVSPropertyOp23
 70
     1
102
RTVSPropertyOp24
 70
     1
102
RTVSPropertyOp25
 70
     1
102
RTVSPropertyOp26
 70
     1
102
RTVSPropertyOp27
 70
     1
102
RTVSPropertyOp28
 70
     1
102
RTVSPropertyOp29
 70
     1
102
RTVSPropertyOp30
 70
     1
102
RTVSPropertyOp31
 70
     1
102
RTVSPropertyOp32
 70
     1
102
RTVSPropertyOp33
 70
     1
102
RTVSPropertyOp34
 70
     1
102
RTVSPropertyOp35
 70
     1
102
RTVSPropertyOp36
 70
     1
102
RTVSPropertyOp37
 70
     1
102
RTVSPropertyOp38
 70
     1
102
RTVSPropertyOp39
 70
     1
102
RTVSPropertyOp40
 70
     1
102
RTVSPropertyOp41
 70
     1
102
RTVSPropertyOp42
 70
     1
102
RTVSPropertyOp43
 70
     1
102
RTVSPropertyOp44
 70
     1
102
RTVSPropertyOp45
 70
     1
102
RTVSPropertyOp46
 70
     1
102
RTVSPropertyOp47
 70
     1
102
RTVSPropertyOp48
 70
     1
102
RTVSPropertyOp49
 70
     1
102
RTVSPropertyOp50
 70
     1
102
RTVSPropertyOp51
 70
     0
102
RTVSPropertyOp52
 70
     0
102
RTVSPropertyOp53
 70
     1
102
RTVSPropertyOp54
 70
     1
102
RTVSPropertyOp55
 70
     1
102
RTVSPropertyOp56
 70
     1
102
RTVSPropertyOp57
 70
     1
102
RTVSPropertyOp58
 70
     1
102
RTVSPropertyOp59
 70
     1
102
RTVSPropertyOp60
 70
     1
102
RTVSPropertyOp61
 70
     1
102
RTVSPropertyOp62
 70
     1
  0
XRECORD
  5
38A
102
{ACAD_REACTORS
330
389
102
}
330
389
100
AcDbXrecord
280
     1
102
RTVSPost2010Prop28
280
     0
102
RTVSPost2010PropOp28
 70
     1
102
RTVSPost2010Prop29
280
     1
102
RTVSPost2010PropOp29
 70
     1
102
RTVSPost2010Prop30
280
     1
102
RTVSPost2010PropOp30
 70
     1
102
RTVSPost2010Prop31
280
     0
102
RTVSPost2010PropOp31
 70
     1
102
RTVSPost2010Prop32
280
     0
102
RTVSPost2010PropOp32
 70
     1
102
RTVSPost2010Prop33
280
     0
102
RTVSPost2010PropOp33
 70
     1
102
RTVSPost2010Prop34
280
     0
102
RTVSPost2010PropOp34
 70
     1
102
RTVSPost2010Prop35
280
     0
102
RTVSPost2010PropOp35
 70
     1
102
RTVSPost2010Prop36
280
     0
102
RTVSPost2010PropOp36
 70
     1
102
RTVSPost2010Prop37
 90
       50
102
RTVSPost2010PropOp37
 70
     1
102
RTVSPost2010Prop38
140
0.0
102
RTVSPost2010PropOp38
 70
     1
102
RTVSPost2010Prop39
140
1.0
102
RTVSPost2010PropOp39
 70
     1
102
RTVSPost2010Prop40
 90
        0
102
RTVSPost2010PropOp40
 70
     1
102
RTVSPost2010Prop41ColorIndex
 90
       18
102
RTVSPost2010Prop41ColorRGB
 90
        0
102
RTVSPost2010PropOp41
 70
     1
102
RTVSPost2010Prop42
 90
       50
102
RTVSPost2010PropOp42
 70
     1
102
RTVSPost2010Prop43
 90
        3
102
RTVSPost2010PropOp43
 70
     1
102
RTVSPost2010Prop44ColorIndex
 90
        5
102
RTVSPost2010Prop44ColorRGB
 90
      255
102
RTVSPost2010PropOp44
 70
     1
102
RTVSPost2010Prop45
280
     0
102
RTVSPost2010PropOp45
 70
     1
102
RTVSPost2010Prop46
 90
       50
102
RTVSPost2010PropOp46
 70
     1
102
RTVSPost2010Prop47
 90
       50
102
RTVSPost2010PropOp47
 70
     1
102
RTVSPost2010Prop48
 90
       50
102
RTVSPost2010PropOp48
 70
     1
102
RTVSPost2010Prop49
280
     0
102
RTVSPost2010PropOp49
 70
     1
102
RTVSPost2010Prop50
 90
       50
102
RTVSPost2010PropOp50
 70
     1
102
RTVSPost2010Prop51ColorIndex
 90
      256
102
RTVSPost2010Prop51ColorRGB
 90
-16777216
102
RTVSPost2010PropOp51
 70
     0
102
RTVSPost2010Prop52
140
1.0
102
RTVSPost2010PropOp52
 70
     0
102
RTVSPost2010Prop53
 90
        2
102
RTVSPost2010PropOp53
 70
     1
102
RTVSPost2010Prop54
  1
strokes_ogs.tif
102
RTVSPost2010PropOp54
 70
     1
102
RTVSPost2010Prop55
280
     0
102
RTVSPost2010PropOp55
 70
     1
102
RTVSPost2010Prop56
140
1.0
102
RTVSPost2010PropOp56
 70
     1
102
RTVSPost2010Prop57
140
1.0
102
RTVSPost2010PropOp57
 70
     1
102
RTVSPropertyOp0
 70
     1
102
RTVSPropertyOp1
 70
     1
102
RTVSPropertyOp2
 70
     1
102
RTVSPropertyOp3
 70
     1
102
RTVSPropertyOp4
 70
     1
102
RTVSPropertyOp5
 70
     1
102
RTVSPropertyOp6
 70
     1
102
RTVSPropertyOp7
 70
     1
102
RTVSPropertyOp8
 70
     1
102
RTVSPropertyOp9
 70
     1
102
RTVSPropertyOp10
 70
     1
102
RTVSPropertyOp11
 70
     1
102
RTVSPropertyOp12
 70
     1
102
RTVSPropertyOp13
 70
     1
102
RTVSPropertyOp14
 70
     1
102
RTVSPropertyOp15
 70
     1
102
RTVSPropertyOp16
 70
     1
102
RTVSPropertyOp17
 70
     1
102
RTVSPropertyOp18
 70
     1
102
RTVSPropertyOp19
 70
     1
102
RTVSPropertyOp20
 70
     1
102
RTVSPropertyOp21
 70
     1
102
RTVSPropertyOp22
 70
     1
102
RTVSPropertyOp23
 70
     1
102
RTVSPropertyOp24
 70
     1
102
RTVSPropertyOp25
 70
     1
102
RTVSPropertyOp26
 70
     1
102
RTVSPropertyOp27
 70
     1
102
RTVSPropertyOp28
 70
     1
102
RTVSPropertyOp29
 70
     1
102
RTVSPropertyOp30
 70
     1
102
RTVSPropertyOp31
 70
     1
102
RTVSPropertyOp32
 70
     1
102
RTVSPropertyOp33
 70
     1
102
RTVSPropertyOp34
 70
     1
102
RTVSPropertyOp35
 70
     1
102
RTVSPropertyOp36
 70
     1
102
RTVSPropertyOp37
 70
     1
102
RTVSPropertyOp38
 70
     1
102
RTVSPropertyOp39
 70
     1
102
RTVSPropertyOp40
 70
     1
102
RTVSPropertyOp41
 70
     1
102
RTVSPropertyOp42
 70
     1
102
RTVSPropertyOp43
 70
     1
102
RTVSPropertyOp44
 70
     1
102
RTVSPropertyOp45
 70
     1
102
RTVSPropertyOp46
 70
     1
102
RTVSPropertyOp47
 70
     1
102
RTVSPropertyOp48
 70
     1
102
RTVSPropertyOp49
 70
     1
102
RTVSPropertyOp50
 70
     1
102
RTVSPropertyOp51
 70
     0
102
RTVSPropertyOp52
 70
     0
102
RTVSPropertyOp53
 70
     1
102
RTVSPropertyOp54
 70
     1
102
RTVSPropertyOp55
 70
     1
102
RTVSPropertyOp56
 70
     1
102
RTVSPropertyOp57
 70
     1
102
RTVSPropertyOp58
 70
     1
102
RTVSPropertyOp59
 70
     1
102
RTVSPropertyOp60
 70
     1
102
RTVSPropertyOp61
 70
     1
102
RTVSPropertyOp62
 70
     1
  0
XRECORD
  5
38C
102
{ACAD_REACTORS
330
38B
102
}
330
38B
100
AcDbXrecord
280
     1
102
RTVSPost2010Prop28
280
     0
102
RTVSPost2010PropOp28
 70
     1
102
RTVSPost2010Prop29
280
     1
102
RTVSPost2010PropOp29
 70
     1
102
RTVSPost2010Prop30
280
     1
102
RTVSPost2010PropOp30
 70
     1
102
RTVSPost2010Prop31
280
     0
102
RTVSPost2010PropOp31
 70
     1
102
RTVSPost2010Prop32
280
     0
102
RTVSPost2010PropOp32
 70
     1
102
RTVSPost2010Prop33
280
     0
102
RTVSPost2010PropOp33
 70
     1
102
RTVSPost2010Prop34
280
     0
102
RTVSPost2010PropOp34
 70
     1
102
RTVSPost2010Prop35
280
     0
102
RTVSPost2010PropOp35
 70
     1
102
RTVSPost2010Prop36
280
     0
102
RTVSPost2010PropOp36
 70
     1
102
RTVSPost2010Prop37
 90
       50
102
RTVSPost2010PropOp37
 70
     1
102
RTVSPost2010Prop38
140
0.0
102
RTVSPost2010PropOp38
 70
     1
102
RTVSPost2010Prop39
140
1.0
102
RTVSPost2010PropOp39
 70
     1
102
RTVSPost2010Prop40
 90
        0
102
RTVSPost2010PropOp40
 70
     1
102
RTVSPost2010Prop41ColorIndex
 90
       18
102
RTVSPost2010Prop41ColorRGB
 90
        0
102
RTVSPost2010PropOp41
 70
     1
102
RTVSPost2010Prop42
 90
       50
102
RTVSPost2010PropOp42
 70
     1
102
RTVSPost2010Prop43
 90
        3
102
RTVSPost2010PropOp43
 70
     1
102
RTVSPost2010Prop44ColorIndex
 90
        5
102
RTVSPost2010Prop44ColorRGB
 90
      255
102
RTVSPost2010PropOp44
 70
     1
102
RTVSPost2010Prop45
280
     0
102
RTVSPost2010PropOp45
 70
     1
102
RTVSPost2010Prop46
 90
       50
102
RTVSPost2010PropOp46
 70
     1
102
RTVSPost2010Prop47
 90
       50
102
RTVSPost2010PropOp47
 70
     1
102
RTVSPost2010Prop48
 90
       50
102
RTVSPost2010PropOp48
 70
     1
102
RTVSPost2010Prop49
280
     0
102
RTVSPost2010PropOp49
 70
     1
102
RTVSPost2010Prop50
 90
       50
102
RTVSPost2010PropOp50
 70
     1
102
RTVSPost2010Prop51ColorIndex
 90
      256
102
RTVSPost2010Prop51ColorRGB
 90
-16777216
102
RTVSPost2010PropOp51
 70
     0
102
RTVSPost2010Prop52
140
1.0
102
RTVSPost2010PropOp52
 70
     0
102
RTVSPost2010Prop53
 90
        2
102
RTVSPost2010PropOp53
 70
     1
102
RTVSPost2010Prop54
  1
strokes_ogs.tif
102
RTVSPost2010PropOp54
 70
     1
102
RTVSPost2010Prop55
280
     0
102
RTVSPost2010PropOp55
 70
     1
102
RTVSPost2010Prop56
140
1.0
102
RTVSPost2010PropOp56
 70
     1
102
RTVSPost2010Prop57
140
1.0
102
RTVSPost2010PropOp57
 70
     1
102
RTVSPropertyOp0
 70
     1
102
RTVSPropertyOp1
 70
     1
102
RTVSPropertyOp2
 70
     1
102
RTVSPropertyOp3
 70
     1
102
RTVSPropertyOp4
 70
     1
102
RTVSPropertyOp5
 70
     1
102
RTVSPropertyOp6
 70
     1
102
RTVSPropertyOp7
 70
     1
102
RTVSPropertyOp8
 70
     1
102
RTVSPropertyOp9
 70
     1
102
RTVSPropertyOp10
 70
     1
102
RTVSPropertyOp11
 70
     1
102
RTVSPropertyOp12
 70
     1
102
RTVSPropertyOp13
 70
     1
102
RTVSPropertyOp14
 70
     1
102
RTVSPropertyOp15
 70
     1
102
RTVSPropertyOp16
 70
     1
102
RTVSPropertyOp17
 70
     1
102
RTVSPropertyOp18
 70
     1
102
RTVSPropertyOp19
 70
     1
102
RTVSPropertyOp20
 70
     1
102
RTVSPropertyOp21
 70
     1
102
RTVSPropertyOp22
 70
     1
102
RTVSPropertyOp23
 70
     1
102
RTVSPropertyOp24
 70
     1
102
RTVSPropertyOp25
 70
     1
102
RTVSPropertyOp26
 70
     1
102
RTVSPropertyOp27
 70
     1
102
RTVSPropertyOp28
 70
     1
102
RTVSPropertyOp29
 70
     1
102
RTVSPropertyOp30
 70
     1
102
RTVSPropertyOp31
 70
     1
102
RTVSPropertyOp32
 70
     1
102
RTVSPropertyOp33
 70
     1
102
RTVSPropertyOp34
 70
     1
102
RTVSPropertyOp35
 70
     1
102
RTVSPropertyOp36
 70
     1
102
RTVSPropertyOp37
 70
     1
102
RTVSPropertyOp38
 70
     1
102
RTVSPropertyOp39
 70
     1
102
RTVSPropertyOp40
 70
     1
102
RTVSPropertyOp41
 70
     1
102
RTVSPropertyOp42
 70
     1
102
RTVSPropertyOp43
 70
     1
102
RTVSPropertyOp44
 70
     1
102
RTVSPropertyOp45
 70
     1
102
RTVSPropertyOp46
 70
     1
102
RTVSPropertyOp47
 70
     1
102
RTVSPropertyOp48
 70
     1
102
RTVSPropertyOp49
 70
     1
102
RTVSPropertyOp50
 70
     1
102
RTVSPropertyOp51
 70
     0
102
RTVSPropertyOp52
 70
     0
102
RTVSPropertyOp53
 70
     1
102
RTVSPropertyOp54
 70
     1
102
RTVSPropertyOp55
 70
     1
102
RTVSPropertyOp56
 70
     1
102
RTVSPropertyOp57
 70
     1
102
RTVSPropertyOp58
 70
     1
102
RTVSPropertyOp59
 70
     1
102
RTVSPropertyOp60
 70
     1
102
RTVSPropertyOp61
 70
     1
102
RTVSPropertyOp62
 70
     1
  0
XRECORD
  5
37C
102
{ACAD_REACTORS
330
37B
102
}
330
37B
100
AcDbXrecord
280
     1
102
RTVSPost2010Prop28
280
     0
102
RTVSPost2010PropOp28
 70
     1
102
RTVSPost2010Prop29
280
     1
102
RTVSPost2010PropOp29
 70
     1
102
RTVSPost2010Prop30
280
     1
102
RTVSPost2010PropOp30
 70
     1
102
RTVSPost2010Prop31
280
     0
102
RTVSPost2010PropOp31
 70
     1
102
RTVSPost2010Prop32
280
     0
102
RTVSPost2010PropOp32
 70
     1
102
RTVSPost2010Prop33
280
     0
102
RTVSPost2010PropOp33
 70
     1
102
RTVSPost2010Prop34
280
     0
102
RTVSPost2010PropOp34
 70
     1
102
RTVSPost2010Prop35
280
     0
102
RTVSPost2010PropOp35
 70
     1
102
RTVSPost2010Prop36
280
     0
102
RTVSPost2010PropOp36
 70
     1
102
RTVSPost2010Prop37
 90
       50
102
RTVSPost2010PropOp37
 70
     1
102
RTVSPost2010Prop38
140
0.0
102
RTVSPost2010PropOp38
 70
     1
102
RTVSPost2010Prop39
140
1.0
102
RTVSPost2010PropOp39
 70
     1
102
RTVSPost2010Prop40
 90
        0
102
RTVSPost2010PropOp40
 70
     1
102
RTVSPost2010Prop41ColorIndex
 90
       18
102
RTVSPost2010Prop41ColorRGB
 90
        0
102
RTVSPost2010PropOp41
 70
     1
102
RTVSPost2010Prop42
 90
       50
102
RTVSPost2010PropOp42
 70
     1
102
RTVSPost2010Prop43
 90
        3
102
RTVSPost2010PropOp43
 70
     1
102
RTVSPost2010Prop44ColorIndex
 90
        5
102
RTVSPost2010Prop44ColorRGB
 90
      255
102
RTVSPost2010PropOp44
 70
     1
102
RTVSPost2010Prop45
280
     0
102
RTVSPost2010PropOp45
 70
     1
102
RTVSPost2010Prop46
 90
       50
102
RTVSPost2010PropOp46
 70
     1
102
RTVSPost2010Prop47
 90
       50
102
RTVSPost2010PropOp47
 70
     1
102
RTVSPost2010Prop48
 90
       50
102
RTVSPost2010PropOp48
 70
     1
102
RTVSPost2010Prop49
280
     0
102
RTVSPost2010PropOp49
 70
     1
102
RTVSPost2010Prop50
 90
       50
102
RTVSPost2010PropOp50
 70
     1
102
RTVSPost2010Prop51ColorIndex
 90
      256
102
RTVSPost2010Prop51ColorRGB
 90
-16777216
102
RTVSPost2010PropOp51
 70
     0
102
RTVSPost2010Prop52
140
1.0
102
RTVSPost2010PropOp52
 70
     0
102
RTVSPost2010Prop53
 90
        2
102
RTVSPost2010PropOp53
 70
     1
102
RTVSPost2010Prop54
  1
strokes_ogs.tif
102
RTVSPost2010PropOp54
 70
     1
102
RTVSPost2010Prop55
280
     0
102
RTVSPost2010PropOp55
 70
     1
102
RTVSPost2010Prop56
140
1.0
102
RTVSPost2010PropOp56
 70
     1
102
RTVSPost2010Prop57
140
1.0
102
RTVSPost2010PropOp57
 70
     1
102
RTVSPropertyOp0
 70
     1
102
RTVSPropertyOp1
 70
     1
102
RTVSPropertyOp2
 70
     1
102
RTVSPropertyOp3
 70
     1
102
RTVSPropertyOp4
 70
     1
102
RTVSPropertyOp5
 70
     1
102
RTVSPropertyOp6
 70
     1
102
RTVSPropertyOp7
 70
     1
102
RTVSPropertyOp8
 70
     1
102
RTVSPropertyOp9
 70
     1
102
RTVSPropertyOp10
 70
     1
102
RTVSPropertyOp11
 70
     1
102
RTVSPropertyOp12
 70
     1
102
RTVSPropertyOp13
 70
     1
102
RTVSPropertyOp14
 70
     1
102
RTVSPropertyOp15
 70
     1
102
RTVSPropertyOp16
 70
     1
102
RTVSPropertyOp17
 70
     1
102
RTVSPropertyOp18
 70
     1
102
RTVSPropertyOp19
 70
     1
102
RTVSPropertyOp20
 70
     1
102
RTVSPropertyOp21
 70
     1
102
RTVSPropertyOp22
 70
     1
102
RTVSPropertyOp23
 70
     1
102
RTVSPropertyOp24
 70
     1
102
RTVSPropertyOp25
 70
     1
102
RTVSPropertyOp26
 70
     1
102
RTVSPropertyOp27
 70
     1
102
RTVSPropertyOp28
 70
     1
102
RTVSPropertyOp29
 70
     1
102
RTVSPropertyOp30
 70
     1
102
RTVSPropertyOp31
 70
     1
102
RTVSPropertyOp32
 70
     1
102
RTVSPropertyOp33
 70
     1
102
RTVSPropertyOp34
 70
     1
102
RTVSPropertyOp35
 70
     1
102
RTVSPropertyOp36
 70
     1
102
RTVSPropertyOp37
 70
     1
102
RTVSPropertyOp38
 70
     1
102
RTVSPropertyOp39
 70
     1
102
RTVSPropertyOp40
 70
     1
102
RTVSPropertyOp41
 70
     1
102
RTVSPropertyOp42
 70
     1
102
RTVSPropertyOp43
 70
     1
102
RTVSPropertyOp44
 70
     1
102
RTVSPropertyOp45
 70
     1
102
RTVSPropertyOp46
 70
     1
102
RTVSPropertyOp47
 70
     1
102
RTVSPropertyOp48
 70
     1
102
RTVSPropertyOp49
 70
     1
102
RTVSPropertyOp50
 70
     1
102
RTVSPropertyOp51
 70
     0
102
RTVSPropertyOp52
 70
     0
102
RTVSPropertyOp53
 70
     1
102
RTVSPropertyOp54
 70
     1
102
RTVSPropertyOp55
 70
     1
102
RTVSPropertyOp56
 70
     1
102
RTVSPropertyOp57
 70
     1
102
RTVSPropertyOp58
 70
     1
102
RTVSPropertyOp59
 70
     1
102
RTVSPropertyOp60
 70
     1
102
RTVSPropertyOp61
 70
     1
102
RTVSPropertyOp62
 70
     1
  0
XRECORD
  5
36E
102
{ACAD_REACTORS
330
36D
102
}
330
36D
100
AcDbXrecord
280
     1
102
RTVSPost2010Prop28
280
     0
102
RTVSPost2010PropOp28
 70
     1
102
RTVSPost2010Prop29
280
     1
102
RTVSPost2010PropOp29
 70
     1
102
RTVSPost2010Prop30
280
     1
102
RTVSPost2010PropOp30
 70
     1
102
RTVSPost2010Prop31
280
     0
102
RTVSPost2010PropOp31
 70
     1
102
RTVSPost2010Prop32
280
     0
102
RTVSPost2010PropOp32
 70
     1
102
RTVSPost2010Prop33
280
     0
102
RTVSPost2010PropOp33
 70
     1
102
RTVSPost2010Prop34
280
     0
102
RTVSPost2010PropOp34
 70
     1
102
RTVSPost2010Prop35
280
     0
102
RTVSPost2010PropOp35
 70
     1
102
RTVSPost2010Prop36
280
     0
102
RTVSPost2010PropOp36
 70
     1
102
RTVSPost2010Prop37
 90
       50
102
RTVSPost2010PropOp37
 70
     1
102
RTVSPost2010Prop38
140
0.0
102
RTVSPost2010PropOp38
 70
     1
102
RTVSPost2010Prop39
140
1.0
102
RTVSPost2010PropOp39
 70
     1
102
RTVSPost2010Prop40
 90
        0
102
RTVSPost2010PropOp40
 70
     1
102
RTVSPost2010Prop41ColorIndex
 90
       18
102
RTVSPost2010Prop41ColorRGB
 90
        0
102
RTVSPost2010PropOp41
 70
     1
102
RTVSPost2010Prop42
 90
       50
102
RTVSPost2010PropOp42
 70
     1
102
RTVSPost2010Prop43
 90
        3
102
RTVSPost2010PropOp43
 70
     1
102
RTVSPost2010Prop44ColorIndex
 90
        5
102
RTVSPost2010Prop44ColorRGB
 90
      255
102
RTVSPost2010PropOp44
 70
     1
102
RTVSPost2010Prop45
280
     0
102
RTVSPost2010PropOp45
 70
     1
102
RTVSPost2010Prop46
 90
       50
102
RTVSPost2010PropOp46
 70
     1
102
RTVSPost2010Prop47
 90
       50
102
RTVSPost2010PropOp47
 70
     1
102
RTVSPost2010Prop48
 90
       50
102
RTVSPost2010PropOp48
 70
     1
102
RTVSPost2010Prop49
280
     0
102
RTVSPost2010PropOp49
 70
     1
102
RTVSPost2010Prop50
 90
       50
102
RTVSPost2010PropOp50
 70
     1
102
RTVSPost2010Prop51ColorIndex
 90
      256
102
RTVSPost2010Prop51ColorRGB
 90
-16777216
102
RTVSPost2010PropOp51
 70
     0
102
RTVSPost2010Prop52
140
1.0
102
RTVSPost2010PropOp52
 70
     0
102
RTVSPost2010Prop53
 90
        2
102
RTVSPost2010PropOp53
 70
     1
102
RTVSPost2010Prop54
  1
strokes_ogs.tif
102
RTVSPost2010PropOp54
 70
     1
102
RTVSPost2010Prop55
280
     0
102
RTVSPost2010PropOp55
 70
     1
102
RTVSPost2010Prop56
140
1.0
102
RTVSPost2010PropOp56
 70
     1
102
RTVSPost2010Prop57
140
1.0
102
RTVSPost2010PropOp57
 70
     1
102
RTVSPropertyOp0
 70
     1
102
RTVSPropertyOp1
 70
     1
102
RTVSPropertyOp2
 70
     1
102
RTVSPropertyOp3
 70
     1
102
RTVSPropertyOp4
 70
     1
102
RTVSPropertyOp5
 70
     1
102
RTVSPropertyOp6
 70
     1
102
RTVSPropertyOp7
 70
     1
102
RTVSPropertyOp8
 70
     1
102
RTVSPropertyOp9
 70
     1
102
RTVSPropertyOp10
 70
     1
102
RTVSPropertyOp11
 70
     1
102
RTVSPropertyOp12
 70
     1
102
RTVSPropertyOp13
 70
     1
102
RTVSPropertyOp14
 70
     1
102
RTVSPropertyOp15
 70
     1
102
RTVSPropertyOp16
 70
     1
102
RTVSPropertyOp17
 70
     1
102
RTVSPropertyOp18
 70
     1
102
RTVSPropertyOp19
 70
     1
102
RTVSPropertyOp20
 70
     1
102
RTVSPropertyOp21
 70
     1
102
RTVSPropertyOp22
 70
     1
102
RTVSPropertyOp23
 70
     1
102
RTVSPropertyOp24
 70
     1
102
RTVSPropertyOp25
 70
     1
102
RTVSPropertyOp26
 70
     1
102
RTVSPropertyOp27
 70
     1
102
RTVSPropertyOp28
 70
     1
102
RTVSPropertyOp29
 70
     1
102
RTVSPropertyOp30
 70
     1
102
RTVSPropertyOp31
 70
     1
102
RTVSPropertyOp32
 70
     1
102
RTVSPropertyOp33
 70
     1
102
RTVSPropertyOp34
 70
     1
102
RTVSPropertyOp35
 70
     1
102
RTVSPropertyOp36
 70
     1
102
RTVSPropertyOp37
 70
     1
102
RTVSPropertyOp38
 70
     1
102
RTVSPropertyOp39
 70
     1
102
RTVSPropertyOp40
 70
     1
102
RTVSPropertyOp41
 70
     1
102
RTVSPropertyOp42
 70
     1
102
RTVSPropertyOp43
 70
     1
102
RTVSPropertyOp44
 70
     1
102
RTVSPropertyOp45
 70
     1
102
RTVSPropertyOp46
 70
     1
102
RTVSPropertyOp47
 70
     1
102
RTVSPropertyOp48
 70
     1
102
RTVSPropertyOp49
 70
     1
102
RTVSPropertyOp50
 70
     1
102
RTVSPropertyOp51
 70
     0
102
RTVSPropertyOp52
 70
     0
102
RTVSPropertyOp53
 70
     1
102
RTVSPropertyOp54
 70
     1
102
RTVSPropertyOp55
 70
     1
102
RTVSPropertyOp56
 70
     1
102
RTVSPropertyOp57
 70
     1
102
RTVSPropertyOp58
 70
     1
102
RTVSPropertyOp59
 70
     1
102
RTVSPropertyOp60
 70
     1
102
RTVSPropertyOp61
 70
     1
102
RTVSPropertyOp62
 70
     1
  0
XRECORD
  5
38E
102
{ACAD_REACTORS
330
38D
102
}
330
38D
100
AcDbXrecord
280
     1
102
RTVSPost2010Prop28
280
     0
102
RTVSPost2010PropOp28
 70
     1
102
RTVSPost2010Prop29
280
     1
102
RTVSPost2010PropOp29
 70
     1
102
RTVSPost2010Prop30
280
     1
102
RTVSPost2010PropOp30
 70
     1
102
RTVSPost2010Prop31
280
     0
102
RTVSPost2010PropOp31
 70
     1
102
RTVSPost2010Prop32
280
     0
102
RTVSPost2010PropOp32
 70
     1
102
RTVSPost2010Prop33
280
     0
102
RTVSPost2010PropOp33
 70
     1
102
RTVSPost2010Prop34
280
     0
102
RTVSPost2010PropOp34
 70
     1
102
RTVSPost2010Prop35
280
     0
102
RTVSPost2010PropOp35
 70
     1
102
RTVSPost2010Prop36
280
     0
102
RTVSPost2010PropOp36
 70
     1
102
RTVSPost2010Prop37
 90
       50
102
RTVSPost2010PropOp37
 70
     1
102
RTVSPost2010Prop38
140
0.0
102
RTVSPost2010PropOp38
 70
     1
102
RTVSPost2010Prop39
140
1.0
102
RTVSPost2010PropOp39
 70
     1
102
RTVSPost2010Prop40
 90
        0
102
RTVSPost2010PropOp40
 70
     1
102
RTVSPost2010Prop41ColorIndex
 90
       18
102
RTVSPost2010Prop41ColorRGB
 90
        0
102
RTVSPost2010PropOp41
 70
     1
102
RTVSPost2010Prop42
 90
       50
102
RTVSPost2010PropOp42
 70
     1
102
RTVSPost2010Prop43
 90
        3
102
RTVSPost2010PropOp43
 70
     1
102
RTVSPost2010Prop44ColorIndex
 90
        5
102
RTVSPost2010Prop44ColorRGB
 90
      255
102
RTVSPost2010PropOp44
 70
     1
102
RTVSPost2010Prop45
280
     0
102
RTVSPost2010PropOp45
 70
     1
102
RTVSPost2010Prop46
 90
       50
102
RTVSPost2010PropOp46
 70
     1
102
RTVSPost2010Prop47
 90
       50
102
RTVSPost2010PropOp47
 70
     1
102
RTVSPost2010Prop48
 90
       50
102
RTVSPost2010PropOp48
 70
     1
102
RTVSPost2010Prop49
280
     0
102
RTVSPost2010PropOp49
 70
     1
102
RTVSPost2010Prop50
 90
       50
102
RTVSPost2010PropOp50
 70
     1
102
RTVSPost2010Prop51ColorIndex
 90
      256
102
RTVSPost2010Prop51ColorRGB
 90
-16777216
102
RTVSPost2010PropOp51
 70
     0
102
RTVSPost2010Prop52
140
1.0
102
RTVSPost2010PropOp52
 70
     0
102
RTVSPost2010Prop53
 90
        2
102
RTVSPost2010PropOp53
 70
     1
102
RTVSPost2010Prop54
  1
strokes_ogs.tif
102
RTVSPost2010PropOp54
 70
     1
102
RTVSPost2010Prop55
280
     0
102
RTVSPost2010PropOp55
 70
     1
102
RTVSPost2010Prop56
140
1.0
102
RTVSPost2010PropOp56
 70
     1
102
RTVSPost2010Prop57
140
1.0
102
RTVSPost2010PropOp57
 70
     1
102
RTVSPropertyOp0
 70
     1
102
RTVSPropertyOp1
 70
     1
102
RTVSPropertyOp2
 70
     1
102
RTVSPropertyOp3
 70
     1
102
RTVSPropertyOp4
 70
     1
102
RTVSPropertyOp5
 70
     1
102
RTVSPropertyOp6
 70
     1
102
RTVSPropertyOp7
 70
     1
102
RTVSPropertyOp8
 70
     1
102
RTVSPropertyOp9
 70
     1
102
RTVSPropertyOp10
 70
     1
102
RTVSPropertyOp11
 70
     1
102
RTVSPropertyOp12
 70
     1
102
RTVSPropertyOp13
 70
     1
102
RTVSPropertyOp14
 70
     1
102
RTVSPropertyOp15
 70
     1
102
RTVSPropertyOp16
 70
     1
102
RTVSPropertyOp17
 70
     1
102
RTVSPropertyOp18
 70
     1
102
RTVSPropertyOp19
 70
     1
102
RTVSPropertyOp20
 70
     1
102
RTVSPropertyOp21
 70
     1
102
RTVSPropertyOp22
 70
     1
102
RTVSPropertyOp23
 70
     1
102
RTVSPropertyOp24
 70
     1
102
RTVSPropertyOp25
 70
     1
102
RTVSPropertyOp26
 70
     1
102
RTVSPropertyOp27
 70
     1
102
RTVSPropertyOp28
 70
     1
102
RTVSPropertyOp29
 70
     1
102
RTVSPropertyOp30
 70
     1
102
RTVSPropertyOp31
 70
     1
102
RTVSPropertyOp32
 70
     1
102
RTVSPropertyOp33
 70
     1
102
RTVSPropertyOp34
 70
     1
102
RTVSPropertyOp35
 70
     1
102
RTVSPropertyOp36
 70
     1
102
RTVSPropertyOp37
 70
     1
102
RTVSPropertyOp38
 70
     1
102
RTVSPropertyOp39
 70
     1
102
RTVSPropertyOp40
 70
     1
102
RTVSPropertyOp41
 70
     1
102
RTVSPropertyOp42
 70
     1
102
RTVSPropertyOp43
 70
     1
102
RTVSPropertyOp44
 70
     1
102
RTVSPropertyOp45
 70
     1
102
RTVSPropertyOp46
 70
     1
102
RTVSPropertyOp47
 70
     1
102
RTVSPropertyOp48
 70
     1
102
RTVSPropertyOp49
 70
     1
102
RTVSPropertyOp50
 70
     1
102
RTVSPropertyOp51
 70
     0
102
RTVSPropertyOp52
 70
     0
102
RTVSPropertyOp53
 70
     1
102
RTVSPropertyOp54
 70
     1
102
RTVSPropertyOp55
 70
     1
102
RTVSPropertyOp56
 70
     1
102
RTVSPropertyOp57
 70
     1
102
RTVSPropertyOp58
 70
     1
102
RTVSPropertyOp59
 70
     1
102
RTVSPropertyOp60
 70
     1
102
RTVSPropertyOp61
 70
     1
102
RTVSPropertyOp62
 70
     1
  0
ENDSEC
  0
EOF
