  0
SECTION
  2
HEADER
  9
$ACADVER
  1
AC1018
  9
$ACADMAINTVER
 70
   104
  9
$DWGCODEPAGE
  3
ANSI_1250
  9
$LASTSAVEDBY
  1
wq7085
  9
$INSBASE
 10
0.0
 20
0.0
 30
0.0
  9
$EXTMIN
 10
186.4339033333333
 20
122.034924
 30
0.0
  9
$EXTMAX
 10
353.014384
 20
345.2288016666667
 30
0.0
  9
$LIMMIN
 10
-0.5
 20
-0.5
  9
$LIMMAX
 10
5.0
 20
5.0
  9
$ORTHOMODE
 70
     0
  9
$REGENMODE
 70
     1
  9
$FILLMODE
 70
     1
  9
$QTEXTMODE
 70
     0
  9
$MIRRTEXT
 70
     1
  9
$LTSCALE
 40
1.0
  9
$ATTMODE
 70
     1
  9
$TEXTSIZE
 40
0.2
  9
$TRACEWID
 40
0.05
  9
$TEXTSTYLE
  7
Standard
  9
$CLAYER
  8
0
  9
$CELTYPE
  6
ByLayer
  9
$CECOLOR
 62
   256
  9
$CELTSCALE
 40
1.0
  9
$DISPSILH
 70
     0
  9
$DIMSCALE
 40
1.0
  9
$DIMASZ
 40
0.18
  9
$DIMEXO
 40
0.0625
  9
$DIMDLI
 40
0.38
  9
$DIMRND
 40
0.0
  9
$DIMDLE
 40
0.0
  9
$DIMEXE
 40
0.18
  9
$DIMTP
 40
0.0
  9
$DIMTM
 40
0.0
  9
$DIMTXT
 40
0.18
  9
$DIMCEN
 40
0.09
  9
$DIMTSZ
 40
0.0
  9
$DIMTOL
 70
     0
  9
$DIMLIM
 70
     0
  9
$DIMTIH
 70
     1
  9
$DIMTOH
 70
     1
  9
$DIMSE1
 70
     0
  9
$DIMSE2
 70
     0
  9
$DIMTAD
 70
     0
  9
$DIMZIN
 70
     0
  9
$DIMBLK
  1

  9
$DIMASO
 70
     1
  9
$DIMSHO
 70
     1
  9
$DIMPOST
  1

  9
$DIMAPOST
  1

  9
$DIMALT
 70
     0
  9
$DIMALTD
 70
     2
  9
$DIMALTF
 40
25.4
  9
$DIMLFAC
 40
1.0
  9
$DIMTOFL
 70
     0
  9
$DIMTVP
 40
0.0
  9
$DIMTIX
 70
     0
  9
$DIMSOXD
 70
     0
  9
$DIMSAH
 70
     0
  9
$DIMBLK1
  1

  9
$DIMBLK2
  1

  9
$DIMSTYLE
  2
Standard
  9
$DIMCLRD
 70
     0
  9
$DIMCLRE
 70
     0
  9
$DIMCLRT
 70
     0
  9
$DIMTFAC
 40
1.0
  9
$DIMGAP
 40
0.09
  9
$DIMJUST
 70
     0
  9
$DIMSD1
 70
     0
  9
$DIMSD2
 70
     0
  9
$DIMTOLJ
 70
     1
  9
$DIMTZIN
 70
     0
  9
$DIMALTZ
 70
     0
  9
$DIMALTTZ
 70
     0
  9
$DIMUPT
 70
     0
  9
$DIMDEC
 70
     4
  9
$DIMTDEC
 70
     4
  9
$DIMALTU
 70
     2
  9
$DIMALTTD
 70
     2
  9
$DIMTXSTY
  7
Standard
  9
$DIMAUNIT
 70
     0
  9
$DIMADEC
 70
     0
  9
$DIMALTRND
 40
0.0
  9
$DIMAZIN
 70
     0
  9
$DIMDSEP
 70
    46
  9
$DIMATFIT
 70
     3
  9
$DIMFRAC
 70
     0
  9
$DIMLDRBLK
  1

  9
$DIMLUNIT
 70
     2
  9
$DIMLWD
 70
    -2
  9
$DIMLWE
 70
    -2
  9
$DIMTMOVE
 70
     0
  9
$LUNITS
 70
     2
  9
$LUPREC
 70
     4
  9
$SKETCHINC
 40
0.1
  9
$FILLETRAD
 40
0.5
  9
$AUNITS
 70
     0
  9
$AUPREC
 70
     0
  9
$MENU
  1
.
  9
$ELEVATION
 40
0.0
  9
$PELEVATION
 40
0.0
  9
$THICKNESS
 40
0.0
  9
$LIMCHECK
 70
     0
  9
$CHAMFERA
 40
0.0
  9
$CHAMFERB
 40
0.0
  9
$CHAMFERC
 40
0.0
  9
$CHAMFERD
 40
0.0
  9
$SKPOLY
 70
     0
  9
$TDCREATE
 40
2458949.498796297
  9
$TDUCREATE
 40
2458949.415468796
  9
$TDUPDATE
 40
2458949.499618056
  9
$TDUUPDATE
 40
2458949.416284723
  9
$TDINDWG
 40
0.0003588079
  9
$TDUSRTIMER
 40
0.0003588079
  9
$USRTIMER
 70
     1
  9
$ANGBASE
 50
0.0
  9
$ANGDIR
 70
     0
  9
$PDMODE
 70
     0
  9
$PDSIZE
 40
0.0
  9
$PLINEWID
 40
0.0
  9
$SPLFRAME
 70
     0
  9
$SPLINETYPE
 70
     6
  9
$SPLINESEGS
 70
     8
  9
$HANDSEED
  5
397
  9
$SURFTAB1
 70
     6
  9
$SURFTAB2
 70
     6
  9
$SURFTYPE
 70
     6
  9
$SURFU
 70
     6
  9
$SURFV
 70
     6
  9
$UCSBASE
  2

  9
$UCSNAME
  2

  9
$UCSORG
 10
274.404842
 20
288.907994
 30
0.0
  9
$UCSXDIR
 10
1.0
 20
0.0
 30
0.0
  9
$UCSYDIR
 10
0.0
 20
1.0
 30
0.0
  9
$UCSORTHOREF
  2

  9
$UCSORTHOVIEW
 70
     0
  9
$UCSORGTOP
 10
0.0
 20
0.0
 30
0.0
  9
$UCSORGBOTTOM
 10
0.0
 20
0.0
 30
0.0
  9
$UCSORGLEFT
 10
0.0
 20
0.0
 30
0.0
  9
$UCSORGRIGHT
 10
0.0
 20
0.0
 30
0.0
  9
$UCSORGFRONT
 10
0.0
 20
0.0
 30
0.0
  9
$UCSORGBACK
 10
0.0
 20
0.0
 30
0.0
  9
$PUCSBASE
  2

  9
$PUCSNAME
  2

  9
$PUCSORG
 10
0.0
 20
0.0
 30
0.0
  9
$PUCSXDIR
 10
1.0
 20
0.0
 30
0.0
  9
$PUCSYDIR
 10
0.0
 20
1.0
 30
0.0
  9
$PUCSORTHOREF
  2

  9
$PUCSORTHOVIEW
 70
     0
  9
$PUCSORGTOP
 10
0.0
 20
0.0
 30
0.0
  9
$PUCSORGBOTTOM
 10
0.0
 20
0.0
 30
0.0
  9
$PUCSORGLEFT
 10
0.0
 20
0.0
 30
0.0
  9
$PUCSORGRIGHT
 10
0.0
 20
0.0
 30
0.0
  9
$PUCSORGFRONT
 10
0.0
 20
0.0
 30
0.0
  9
$PUCSORGBACK
 10
0.0
 20
0.0
 30
0.0
  9
$USERI1
 70
     0
  9
$USERI2
 70
     0
  9
$USERI3
 70
     0
  9
$USERI4
 70
     0
  9
$USERI5
 70
     0
  9
$USERR1
 40
0.0
  9
$USERR2
 40
0.0
  9
$USERR3
 40
0.0
  9
$USERR4
 40
0.0
  9
$USERR5
 40
0.0
  9
$WORLDVIEW
 70
     1
  9
$SHADEDGE
 70
     3
  9
$SHADEDIF
 70
    70
  9
$TILEMODE
 70
     1
  9
$MAXACTVP
 70
    64
  9
$PINSBASE
 10
0.0
 20
0.0
 30
0.0
  9
$PLIMCHECK
 70
     0
  9
$PEXTMIN
 10
-0.5
 20
-0.5
 30
-0.5
  9
$PEXTMAX
 10
5.0
 20
5.0
 30
5.0
  9
$PLIMMIN
 10
-0.5
 20
-0.5
  9
$PLIMMAX
 10
5.0
 20
5.0
  9
$UNITMODE
 70
     0
  9
$VISRETAIN
 70
     1
  9
$PLINEGEN
 70
     0
  9
$PSLTSCALE
 70
     1
  9
$TREEDEPTH
 70
  3020
  9
$CMLSTYLE
  2
Standard
  9
$CMLJUST
 70
     0
  9
$CMLSCALE
 40
1.0
  9
$PROXYGRAPHICS
 70
     1
  9
$MEASUREMENT
 70
     1
  9
$CELWEIGHT
370
    13
  9
$ENDCAPS
280
     0
  9
$JOINSTYLE
280
     0
  9
$LWDISPLAY
290
     0
  9
$INSUNITS
 70
     4
  9
$HYPERLINKBASE
  1

  9
$STYLESHEET
  1

  9
$XEDIT
290
     1
  9
$CEPSNTYPE
380
     0
  9
$PSTYLEMODE
290
     1
  9
$FINGERPRINTGUID
  2
{A8FF37F5-A4BA-4943-A691-DCA673025857}
  9
$VERSIONGUID
  2
{86863E5A-67A9-F641-9B0C-5FF47EB0A95D}
  9
$EXTNAMES
290
     1
  9
$PSVPSCALE
 40
0.0
  9
$OLESTARTUP
290
     0
  9
$SORTENTS
280
   127
  9
$INDEXCTL
280
     0
  9
$HIDETEXT
280
     1
  9
$XCLIPFRAME
290
     0
  9
$HALOGAP
280
     0
  9
$OBSCOLOR
 70
   257
  9
$OBSLTYPE
280
     0
  9
$INTERSECTIONDISPLAY
280
     0
  9
$INTERSECTIONCOLOR
 70
   257
  9
$DIMASSOC
280
     2
  9
$PROJECTNAME
  1

  0
ENDSEC
  0
SECTION
  2
CLASSES
  0
CLASS
  1
ACDBDICTIONARYWDFLT
  2
AcDbDictionaryWithDefault
  3
ObjectDBX Classes
 90
        0
 91
        1
280
     0
281
     0
  0
CLASS
  1
VISUALSTYLE
  2
AcDbVisualStyle
  3
ObjectDBX Classes
 90
     4095
 91
       24
280
     0
281
     0
  0
CLASS
  1
MATERIAL
  2
AcDbMaterial
  3
ObjectDBX Classes
 90
     1153
 91
        3
280
     0
281
     0
  0
CLASS
  1
SCALE
  2
AcDbScale
  3
ObjectDBX Classes
 90
     1153
 91
       33
280
     0
281
     0
  0
CLASS
  1
TABLESTYLE
  2
AcDbTableStyle
  3
ObjectDBX Classes
 90
     4095
 91
        1
280
     0
281
     0
  0
CLASS
  1
MLEADERSTYLE
  2
AcDbMLeaderStyle
  3
ACDB_MLEADERSTYLE_CLASS
 90
     4095
 91
        1
280
     0
281
     0
  0
CLASS
  1
SUN
  2
AcDbSun
  3
SCENEOE
 90
     1153
 91
        0
280
     0
281
     0
  0
CLASS
  1
DIMASSOC
  2
AcDbDimAssoc
  3
"AcDbDimAssoc|Product Desc:     AcDim ARX App For Dimension|Company:          Autodesk, Inc.|WEB Address:      www.autodesk.com"
 90
        0
 91
        7
280
     0
281
     0
  0
CLASS
  1
DICTIONARYVAR
  2
AcDbDictionaryVar
  3
ObjectDBX Classes
 90
        0
 91
        8
280
     0
281
     0
  0
CLASS
  1
CELLSTYLEMAP
  2
AcDbCellStyleMap
  3
ObjectDBX Classes
 90
     1152
 91
        2
280
     0
281
     0
  0
CLASS
  1
ACDBSECTIONVIEWSTYLE
  2
AcDbSectionViewStyle
  3
ObjectDBX Classes
 90
     1025
 91
        1
280
     0
281
     0
  0
CLASS
  1
ACDBDETAILVIEWSTYLE
  2
AcDbDetailViewStyle
  3
ObjectDBX Classes
 90
     1025
 91
        1
280
     0
281
     0
  0
CLASS
  1
SORTENTSTABLE
  2
AcDbSortentsTable
  3
ObjectDBX Classes
 90
        0
 91
        1
280
     0
281
     0
  0
ENDSEC
  0
SECTION
  2
TABLES
  0
TABLE
  2
VPORT
  5
8
330
0
100
AcDbSymbolTable
 70
    16
  0
VPORT
  5
29
330
8
100
AcDbSymbolTableRecord
100
AcDbViewportTableRecord
  2
*Active
 70
     0
 10
0.0
 20
0.0
 11
1.0
 21
1.0
 12
277.6770348842083
 22
294.2078908861449
 13
0.0
 23
0.0
 14
0.5
 24
0.5
 15
0.5
 25
0.5
 16
0.0
 26
0.0
 36
1.0
 17
0.0
 27
0.0
 37
0.0
 40
126.1903885746983
 41
2.283154121863799
 42
50.0
 43
354.414215
 44
-354.414215
 50
0.0
 51
0.0
 71
     0
 72
   100
 73
     1
 74
     3
 75
     0
 76
     0
 77
     0
 78
     0
281
     0
 65
     1
110
274.404842
120
288.907994
130
0.0
111
1.0
121
0.0
131
0.0
112
0.0
122
1.0
132
0.0
 79
     0
146
0.0
1001
ACAD_NAV_VCDISPLAY
1070
     3
  0
VPORT
  5
29B
330
8
100
AcDbSymbolTableRecord
100
AcDbViewportTableRecord
  2
L1
 70
     0
 10
0.0
 20
0.0
 11
1.0
 21
1.0
 12
269.219933
 22
233.553972
 13
0.0
 23
0.0
 14
0.5
 24
0.5
 15
0.5
 25
0.5
 16
0.0
 26
0.0
 36
1.0
 17
0.0
 27
0.0
 37
0.0
 40
207.433333
 41
0.085602
 42
50.0
 43
354.414215
 44
-354.414215
 50
0.0
 51
0.0
 71
     0
 72
   100
 73
     1
 74
     3
 75
     0
 76
     0
 77
     0
 78
     0
281
     0
 65
     1
110
0.0
120
0.0
130
0.0
111
1.0
121
0.0
131
0.0
112
0.0
122
1.0
132
0.0
 79
     0
146
0.0
  0
VPORT
  5
29C
330
8
100
AcDbSymbolTableRecord
100
AcDbViewportTableRecord
  2
L2
 70
     0
 10
0.0
 20
0.0
 11
0.5
 21
1.0
 12
0.0
 22
0.0
 13
0.0
 23
0.0
 14
0.5
 24
0.5
 15
0.5
 25
0.5
 16
0.0
 26
-1.0
 36
0.0
 17
0.0
 27
0.0
 37
0.0
 40
1319.143726
 41
0.013461
 42
50.0
 43
679.601336
 44
-679.601336
 50
0.0
 51
0.0
 71
     0
 72
   100
 73
     1
 74
     3
 75
     0
 76
     0
 77
     0
 78
     0
281
     0
 65
     1
110
0.0
120
0.0
130
0.0
111
1.0
121
0.0
131
0.0
112
0.0
122
1.0
132
0.0
 79
     0
146
0.0
  0
VPORT
  5
29D
330
8
100
AcDbSymbolTableRecord
100
AcDbViewportTableRecord
  2
L2
 70
     0
 10
0.5
 20
0.0
 11
1.0
 21
1.0
 12
0.0
 22
0.0
 13
0.0
 23
0.0
 14
0.5
 24
0.5
 15
0.5
 25
0.5
 16
1.0
 26
0.0
 36
0.0
 17
0.0
 27
0.0
 37
0.0
 40
1319.143726
 41
0.013461
 42
50.0
 43
667.6767099999999
 44
-667.6767099999999
 50
0.0
 51
0.0
 71
     0
 72
   100
 73
     1
 74
     3
 75
     0
 76
     0
 77
     0
 78
     0
281
     0
 65
     1
110
0.0
120
0.0
130
0.0
111
1.0
121
0.0
131
0.0
112
0.0
122
1.0
132
0.0
 79
     0
146
0.0
  0
VPORT
  5
29E
330
8
100
AcDbSymbolTableRecord
100
AcDbViewportTableRecord
  2
L3
 70
     0
 10
0.0
 20
0.5
 11
1.0
 21
1.0
 12
269.219933
 22
233.553972
 13
0.0
 23
0.0
 14
0.5
 24
0.5
 15
0.5
 25
0.5
 16
0.0
 26
0.0
 36
1.0
 17
0.0
 27
0.0
 37
0.0
 40
207.433333
 41
0.085602
 42
50.0
 43
354.414215
 44
-354.414215
 50
0.0
 51
0.0
 71
     0
 72
   100
 73
     1
 74
     3
 75
     0
 76
     0
 77
     0
 78
     0
281
     0
 65
     1
110
0.0
120
0.0
130
0.0
111
1.0
121
0.0
131
0.0
112
0.0
122
1.0
132
0.0
 79
     0
146
0.0
  0
VPORT
  5
29F
330
8
100
AcDbSymbolTableRecord
100
AcDbViewportTableRecord
  2
L3
 70
     0
 10
0.0
 20
0.0
 11
1.0
 21
0.5
 12
0.0
 22
0.0
 13
0.0
 23
0.0
 14
0.5
 24
0.5
 15
0.5
 25
0.5
 16
0.0
 26
-1.0
 36
0.0
 17
0.0
 27
0.0
 37
0.0
 40
1319.143726
 41
0.013461
 42
50.0
 43
679.601336
 44
-679.601336
 50
0.0
 51
0.0
 71
     0
 72
   100
 73
     1
 74
     3
 75
     0
 76
     0
 77
     0
 78
     0
281
     0
 65
     1
110
0.0
120
0.0
130
0.0
111
1.0
121
0.0
131
0.0
112
0.0
122
1.0
132
0.0
 79
     0
146
0.0
  0
VPORT
  5
2A0
330
8
100
AcDbSymbolTableRecord
100
AcDbViewportTableRecord
  2
L4
 70
     0
 10
0.0
 20
0.5
 11
0.5
 21
1.0
 12
269.219933
 22
233.553972
 13
0.0
 23
0.0
 14
0.5
 24
0.5
 15
0.5
 25
0.5
 16
0.0
 26
0.0
 36
1.0
 17
0.0
 27
0.0
 37
0.0
 40
207.433333
 41
0.085602
 42
50.0
 43
354.414215
 44
-354.414215
 50
0.0
 51
0.0
 71
     0
 72
   100
 73
     1
 74
     3
 75
     0
 76
     0
 77
     0
 78
     0
281
     0
 65
     1
110
0.0
120
0.0
130
0.0
111
1.0
121
0.0
131
0.0
112
0.0
122
1.0
132
0.0
 79
     0
146
0.0
  0
VPORT
  5
2A1
330
8
100
AcDbSymbolTableRecord
100
AcDbViewportTableRecord
  2
L4
 70
     0
 10
0.0
 20
0.0
 11
0.5
 21
0.5
 12
0.0
 22
0.0
 13
0.0
 23
0.0
 14
0.5
 24
0.5
 15
0.5
 25
0.5
 16
0.0
 26
-1.0
 36
0.0
 17
0.0
 27
0.0
 37
0.0
 40
1319.143726
 41
0.013461
 42
50.0
 43
679.601336
 44
-679.601336
 50
0.0
 51
0.0
 71
     0
 72
   100
 73
     1
 74
     3
 75
     0
 76
     0
 77
     0
 78
     0
281
     0
 65
     1
110
0.0
120
0.0
130
0.0
111
1.0
121
0.0
131
0.0
112
0.0
122
1.0
132
0.0
 79
     0
146
0.0
  0
VPORT
  5
2A2
330
8
100
AcDbSymbolTableRecord
100
AcDbViewportTableRecord
  2
L4
 70
     0
 10
0.5
 20
0.0
 11
1.0
 21
0.5
 12
0.0
 22
0.0
 13
0.0
 23
0.0
 14
0.5
 24
0.5
 15
0.5
 25
0.5
 16
1.0
 26
0.0
 36
0.0
 17
0.0
 27
0.0
 37
0.0
 40
1319.143726
 41
0.013461
 42
50.0
 43
667.6767099999999
 44
-667.6767099999999
 50
0.0
 51
0.0
 71
     0
 72
   100
 73
     1
 74
     3
 75
     0
 76
     0
 77
     0
 78
     0
281
     0
 65
     1
110
0.0
120
0.0
130
0.0
111
1.0
121
0.0
131
0.0
112
0.0
122
1.0
132
0.0
 79
     0
146
0.0
  0
VPORT
  5
2A3
330
8
100
AcDbSymbolTableRecord
100
AcDbViewportTableRecord
  2
L4
 70
     0
 10
0.5
 20
0.5
 11
1.0
 21
1.0
 12
0.0
 22
0.0
 13
0.0
 23
0.0
 14
0.5
 24
0.5
 15
0.5
 25
0.5
 16
0.5773502691896259
 26
-0.5773502691896259
 36
0.5773502691896259
 17
0.0
 27
0.0
 37
0.0
 40
1295.484074
 41
0.013707
 42
50.0
 43
674.79345
 44
-674.79345
 50
0.0
 51
0.0
 71
     0
 72
   100
 73
     1
 74
     3
 75
     0
 76
     0
 77
     0
 78
     0
281
     0
 65
     1
110
0.0
120
0.0
130
0.0
111
1.0
121
0.0
131
0.0
112
0.0
122
1.0
132
0.0
 79
     0
146
0.0
  0
VPORT
  5
2A4
330
8
100
AcDbSymbolTableRecord
100
AcDbViewportTableRecord
  2
L6
 70
     0
 10
0.0
 20
0.5
 11
0.333333
 21
1.0
 12
0.0
 22
0.0
 13
0.0
 23
0.0
 14
0.5
 24
0.5
 15
0.5
 25
0.5
 16
0.7188730927569434
 26
-0.5850486126764433
 36
0.3754192287502549
 17
0.0
 27
0.0
 37
0.0
 40
1367.187154
 41
0.012988
 42
50.0
 43
707.8776949999999
 44
-707.8776949999999
 50
0.0
 51
0.0
 71
     0
 72
   100
 73
     1
 74
     3
 75
     0
 76
     0
 77
     0
 78
     0
281
     0
 65
     1
110
0.0
120
0.0
130
0.0
111
1.0
121
0.0
131
0.0
112
0.0
122
1.0
132
0.0
 79
     0
146
0.0
  0
VPORT
  5
2A5
330
8
100
AcDbSymbolTableRecord
100
AcDbViewportTableRecord
  2
L6
 70
     0
 10
0.0
 20
0.0
 11
0.333333
 21
0.5
 12
0.0
 22
0.0
 13
0.0
 23
0.0
 14
0.5
 24
0.5
 15
0.5
 25
0.5
 16
-1.0
 26
0.0
 36
0.0
 17
0.0
 27
0.0
 37
0.0
 40
1319.143726
 41
0.013461
 42
50.0
 43
667.6767099999999
 44
-667.6767099999999
 50
0.0
 51
0.0
 71
     0
 72
   100
 73
     1
 74
     3
 75
     0
 76
     0
 77
     0
 78
     0
281
     0
 65
     1
110
0.0
120
0.0
130
0.0
111
1.0
121
0.0
131
0.0
112
0.0
122
1.0
132
0.0
 79
     0
146
0.0
  0
VPORT
  5
2A6
330
8
100
AcDbSymbolTableRecord
100
AcDbViewportTableRecord
  2
L6
 70
     0
 10
0.333333
 20
0.5
 11
0.666667
 21
1.0
 12
269.219933
 22
233.553972
 13
0.0
 23
0.0
 14
0.5
 24
0.5
 15
0.5
 25
0.5
 16
0.0
 26
0.0
 36
1.0
 17
0.0
 27
0.0
 37
0.0
 40
207.433333
 41
0.085602
 42
50.0
 43
354.414215
 44
-354.414215
 50
0.0
 51
0.0
 71
     0
 72
   100
 73
     1
 74
     3
 75
     0
 76
     0
 77
     0
 78
     0
281
     0
 65
     1
110
0.0
120
0.0
130
0.0
111
1.0
121
0.0
131
0.0
112
0.0
122
1.0
132
0.0
 79
     0
146
0.0
  0
VPORT
  5
2A7
330
8
100
AcDbSymbolTableRecord
100
AcDbViewportTableRecord
  2
L6
 70
     0
 10
0.333333
 20
0.0
 11
0.666667
 21
0.5
 12
0.0
 22
0.0
 13
0.0
 23
0.0
 14
0.5
 24
0.5
 15
0.5
 25
0.5
 16
0.0
 26
-1.0
 36
0.0
 17
0.0
 27
0.0
 37
0.0
 40
1319.143726
 41
0.013461
 42
50.0
 43
679.601336
 44
-679.601336
 50
0.0
 51
0.0
 71
     0
 72
   100
 73
     1
 74
     3
 75
     0
 76
     0
 77
     0
 78
     0
281
     0
 65
     1
110
0.0
120
0.0
130
0.0
111
1.0
121
0.0
131
0.0
112
0.0
122
1.0
132
0.0
 79
     0
146
0.0
  0
VPORT
  5
2A8
330
8
100
AcDbSymbolTableRecord
100
AcDbViewportTableRecord
  2
L6
 70
     0
 10
0.666667
 20
0.5
 11
1.0
 21
1.0
 12
0.0
 22
0.0
 13
0.0
 23
0.0
 14
0.5
 24
0.5
 15
0.5
 25
0.5
 16
0.5773502691896259
 26
-0.5773502691896259
 36
0.5773502691896259
 17
0.0
 27
0.0
 37
0.0
 40
1295.484074
 41
0.013707
 42
50.0
 43
674.79345
 44
-674.79345
 50
0.0
 51
0.0
 71
     0
 72
   100
 73
     1
 74
     3
 75
     0
 76
     0
 77
     0
 78
     0
281
     0
 65
     1
110
0.0
120
0.0
130
0.0
111
1.0
121
0.0
131
0.0
112
0.0
122
1.0
132
0.0
 79
     0
146
0.0
  0
VPORT
  5
2A9
330
8
100
AcDbSymbolTableRecord
100
AcDbViewportTableRecord
  2
L6
 70
     0
 10
0.666667
 20
0.0
 11
1.0
 21
0.5
 12
0.0
 22
0.0
 13
0.0
 23
0.0
 14
0.5
 24
0.5
 15
0.5
 25
0.5
 16
1.0
 26
0.0
 36
0.0
 17
0.0
 27
0.0
 37
0.0
 40
1319.143726
 41
0.013461
 42
50.0
 43
667.6767099999999
 44
-667.6767099999999
 50
0.0
 51
0.0
 71
     0
 72
   100
 73
     1
 74
     3
 75
     0
 76
     0
 77
     0
 78
     0
281
     0
 65
     1
110
0.0
120
0.0
130
0.0
111
1.0
121
0.0
131
0.0
112
0.0
122
1.0
132
0.0
 79
     0
146
0.0
  0
ENDTAB
  0
TABLE
  2
LTYPE
  5
5
330
0
100
AcDbSymbolTable
 70
     7
  0
LTYPE
  5
14
330
5
100
AcDbSymbolTableRecord
100
AcDbLinetypeTableRecord
  2
ByBlock
 70
     0
  3

 72
    65
 73
     0
 40
0.0
  0
LTYPE
  5
15
330
5
100
AcDbSymbolTableRecord
100
AcDbLinetypeTableRecord
  2
ByLayer
 70
     0
  3

 72
    65
 73
     0
 40
0.0
  0
LTYPE
  5
16
330
5
100
AcDbSymbolTableRecord
100
AcDbLinetypeTableRecord
  2
Continuous
 70
     0
  3
Solid line
 72
    65
 73
     0
 40
0.0
  0
LTYPE
  5
6E
330
5
100
AcDbSymbolTableRecord
100
AcDbLinetypeTableRecord
  2
CENTER
 70
     0
  3
____ _ ____ _ ____ _ ____
 72
    65
 73
     4
 40
47.4
 49
22.0
 74
     4
 75
     0
340
0
 46
0.0
 50
0.0
 44
0.0
 45
0.0
 49
-8.5
 74
     4
 75
     0
340
0
 46
0.0
 50
0.0
 44
0.0
 45
0.0
 49
8.5
 74
     4
 75
     0
340
0
 46
0.0
 50
0.0
 44
0.0
 45
0.0
 49
-8.5
 74
     4
 75
     0
340
0
 46
0.0
 50
0.0
 44
0.0
 45
0.0
  0
LTYPE
  5
6F
330
5
100
AcDbSymbolTableRecord
100
AcDbLinetypeTableRecord
  2
DASHDOT
 70
     0
  3
_._._._._._._._._._._._._._._._.
 72
    65
 73
     4
 40
70.0
 49
31.0
 74
     4
 75
     0
340
0
 46
0.0
 50
0.0
 44
0.0
 45
0.0
 49
-13.0
 74
     4
 75
     0
340
0
 46
0.0
 50
0.0
 44
0.0
 45
0.0
 49
13.0
 74
     4
 75
     0
340
0
 46
0.0
 50
0.0
 44
0.0
 45
0.0
 49
-13.0
 74
     4
 75
     0
340
0
 46
0.0
 50
0.0
 44
0.0
 45
0.0
  0
LTYPE
  5
70
330
5
100
AcDbSymbolTableRecord
100
AcDbLinetypeTableRecord
  2
DASHED
 70
     0
  3
__ __ __ __ __ __ __ __ __
 72
    65
 73
     2
 40
25.72
 49
12.86
 74
     4
 75
     0
340
0
 46
0.0
 50
0.0
 44
0.0
 45
0.0
 49
-12.86
 74
     4
 75
     0
340
0
 46
0.0
 50
0.0
 44
0.0
 45
0.0
  0
LTYPE
  5
71
330
5
100
AcDbSymbolTableRecord
100
AcDbLinetypeTableRecord
  2
DOT
 70
     0
  3
.........................
 72
    65
 73
     2
 40
10.0
 49
0.0
 74
     4
 75
     0
340
0
 46
0.0
 50
0.0
 44
0.0
 45
0.0
 49
-10.0
 74
     4
 75
     0
340
0
 46
0.0
 50
0.0
 44
0.0
 45
0.0
  0
LTYPE
  5
72
330
5
100
AcDbSymbolTableRecord
100
AcDbLinetypeTableRecord
  2
PHANTOM
 70
     0
  3
____ _ _ ____ _ _ _____ _ _ ____
 72
    65
 73
     6
 40
50.5
 49
18.0
 74
     4
 75
     0
340
0
 46
0.0
 50
0.0
 44
0.0
 45
0.0
 49
-6.5
 74
     4
 75
     0
340
0
 46
0.0
 50
0.0
 44
0.0
 45
0.0
 49
6.5
 74
     4
 75
     0
340
0
 46
0.0
 50
0.0
 44
0.0
 45
0.0
 49
-6.5
 74
     4
 75
     0
340
0
 46
0.0
 50
0.0
 44
0.0
 45
0.0
 49
6.5
 74
     4
 75
     0
340
0
 46
0.0
 50
0.0
 44
0.0
 45
0.0
 49
-6.5
 74
     4
 75
     0
340
0
 46
0.0
 50
0.0
 44
0.0
 45
0.0
  0
LTYPE
  5
339
330
5
100
AcDbSymbolTableRecord
100
AcDbLinetypeTableRecord
  2
CENTER2
 70
     0
  3
Center (.5x) ___ _ ___ _ ___ _ ___ _ ___ _ ___
 72
    65
 73
     4
 40
1.125
 49
0.75
 74
     0
 49
-0.125
 74
     0
 49
0.125
 74
     0
 49
-0.125
 74
     0
  0
ENDTAB
  0
TABLE
  2
LAYER
  5
2
330
0
100
AcDbSymbolTable
 70
    22
  0
LAYER
  5
10
102
{ACAD_XDICTIONARY
360
344
102
}
330
2
100
AcDbSymbolTableRecord
100
AcDbLayerTableRecord
  2
0
 70
     0
 62
     7
  6
Continuous
370
    -3
390
F
  0
LAYER
  5
1F5
330
2
100
AcDbSymbolTableRecord
100
AcDbLayerTableRecord
  2
Defpoints
 70
     0
 62
     7
  6
Continuous
290
     0
370
    -3
390
F
  0
LAYER
  5
336
102
{ACAD_XDICTIONARY
360
346
102
}
330
2
100
AcDbSymbolTableRecord
100
AcDbLayerTableRecord
  2
1
 70
     0
 62
     4
  6
Continuous
370
    -3
390
F
  0
LAYER
  5
337
102
{ACAD_XDICTIONARY
360
348
102
}
330
2
100
AcDbSymbolTableRecord
100
AcDbLayerTableRecord
  2
2
 70
     0
 62
     7
  6
Continuous
370
    -3
390
F
  0
LAYER
  5
338
102
{ACAD_XDICTIONARY
360
34A
102
}
330
2
100
AcDbSymbolTableRecord
100
AcDbLayerTableRecord
  2
4
 70
     0
 62
     2
  6
CENTER2
370
    -3
390
F
  0
LAYER
  5
33A
102
{ACAD_XDICTIONARY
360
34C
102
}
330
2
100
AcDbSymbolTableRecord
100
AcDbLayerTableRecord
  2
SK1
 70
     0
 62
     4
  6
Continuous
370
    -3
390
F
  0
LAYER
  5
33B
102
{ACAD_XDICTIONARY
360
34E
102
}
330
2
100
AcDbSymbolTableRecord
100
AcDbLayerTableRecord
  2
SK2
 70
     0
 62
     7
  6
Continuous
370
    -3
390
F
  0
LAYER
  5
33D
102
{ACAD_XDICTIONARY
360
350
102
}
330
2
100
AcDbSymbolTableRecord
100
AcDbLayerTableRecord
  2
SK4
 70
     0
 62
     2
  6
CENTER2
370
    -3
390
F
  0
LAYER
  5
33E
102
{ACAD_XDICTIONARY
360
352
102
}
330
2
100
AcDbSymbolTableRecord
100
AcDbLayerTableRecord
  2
SK6
 70
     0
 62
     5
  6
Continuous
370
    -3
390
F
  0
LAYER
  5
33F
102
{ACAD_XDICTIONARY
360
354
102
}
330
2
100
AcDbSymbolTableRecord
100
AcDbLayerTableRecord
  2
CUT
 70
     0
 62
     1
  6
Continuous
370
    -3
390
F
  0
LAYER
  5
340
102
{ACAD_XDICTIONARY
360
356
102
}
330
2
100
AcDbSymbolTableRecord
100
AcDbLayerTableRecord
  2
NOCUT
 70
     0
 62
     7
  6
Continuous
370
    -3
390
F
  0
LAYER
  5
341
102
{ACAD_XDICTIONARY
360
358
102
}
330
2
100
AcDbSymbolTableRecord
100
AcDbLayerTableRecord
  2
80
 70
     0
 62
     6
  6
Continuous
370
    -3
390
F
  0
LAYER
  5
342
102
{ACAD_XDICTIONARY
360
35A
102
}
330
2
100
AcDbSymbolTableRecord
100
AcDbLayerTableRecord
  2
81
 70
     0
 62
     3
  6
Continuous
370
    -3
390
F
  0
ENDTAB
  0
TABLE
  2
STYLE
  5
3
330
0
100
AcDbSymbolTable
 70
     3
  0
STYLE
  5
11
330
3
100
AcDbSymbolTableRecord
100
AcDbTextStyleTableRecord
  2
Standard
 70
     0
 40
0.0
 41
1.0
 50
0.0
 71
     0
 42
0.2
  3
txt
  4

  0
STYLE
  5
1EE
330
3
100
AcDbSymbolTableRecord
100
AcDbTextStyleTableRecord
  2
cesky
 70
     0
 40
0.0
 41
1.0
 50
0.0
 71
     0
 42
0.2
  3
simplex.shx
  4

  0
STYLE
  5
1EF
330
3
100
AcDbSymbolTableRecord
100
AcDbTextStyleTableRecord
  2
DWGDirectTextStyle
 70
     0
 40
0.0
 41
1.0
 50
0.0
 71
     0
 42
0.2
  3
simplex
  4

  0
ENDTAB
  0
TABLE
  2
VIEW
  5
6
330
0
100
AcDbSymbolTable
 70
     0
  0
ENDTAB
  0
TABLE
  2
UCS
  5
7
330
0
100
AcDbSymbolTable
 70
     0
  0
ENDTAB
  0
TABLE
  2
APPID
  5
9
330
0
100
AcDbSymbolTable
 70
     7
  0
APPID
  5
12
330
9
100
AcDbSymbolTableRecord
100
AcDbRegAppTableRecord
  2
ACAD
 70
     0
  0
APPID
  5
1F1
330
9
100
AcDbSymbolTableRecord
100
AcDbRegAppTableRecord
  2
ACAD_DSTYLE_DIMBREAK
 70
     0
  0
APPID
  5
2AA
330
9
100
AcDbSymbolTableRecord
100
AcDbRegAppTableRecord
  2
ACAD_DSTYLE_DIM_LINETYPE
 70
     0
  0
APPID
  5
2AB
330
9
100
AcDbSymbolTableRecord
100
AcDbRegAppTableRecord
  2
ACAD_DSTYLE_DIM_EXT1_LINETYPE
 70
     0
  0
APPID
  5
2AC
330
9
100
AcDbSymbolTableRecord
100
AcDbRegAppTableRecord
  2
ACAD_DSTYLE_DIM_EXT2_LINETYPE
 70
     0
  0
APPID
  5
2EC
330
9
100
AcDbSymbolTableRecord
100
AcDbRegAppTableRecord
  2
ACAD_MLEADERVER
 70
     0
  0
APPID
  5
35F
330
9
100
AcDbSymbolTableRecord
100
AcDbRegAppTableRecord
  2
ACAD_NAV_VCDISPLAY
 70
     0
  0
ENDTAB
  0
TABLE
  2
DIMSTYLE
  5
A
330
0
100
AcDbSymbolTable
 70
     1
100
AcDbDimStyleTable
 71
     0
  0
DIMSTYLE
105
27
330
A
100
AcDbSymbolTableRecord
100
AcDbDimStyleTableRecord
  2
Standard
 70
     0
340
11
1001
ACAD_DSTYLE_DIMBREAK
1070
   391
1040
6.349999999999999
  0
ENDTAB
  0
TABLE
  2
BLOCK_RECORD
  5
1
330
0
100
AcDbSymbolTable
 70
    16
  0
BLOCK_RECORD
  5
1F
102
{ACAD_XDICTIONARY
360
2FC
102
}
330
1
100
AcDbSymbolTableRecord
100
AcDbBlockTableRecord
  2
*Model_Space
340
22
  0
BLOCK_RECORD
  5
1B
330
1
100
AcDbSymbolTableRecord
100
AcDbBlockTableRecord
  2
*Paper_Space
340
1E
  0
BLOCK_RECORD
  5
23
330
1
100
AcDbSymbolTableRecord
100
AcDbBlockTableRecord
  2
*Paper_Space0
340
26
  0
BLOCK_RECORD
  5
1E8
330
1
100
AcDbSymbolTableRecord
100
AcDbBlockTableRecord
  2
ASSORTED_DRAFT1
340
0
  0
BLOCK_RECORD
  5
1F6
330
1
100
AcDbSymbolTableRecord
100
AcDbBlockTableRecord
  2
*D2
340
0
  0
BLOCK_RECORD
  5
202
330
1
100
AcDbSymbolTableRecord
100
AcDbBlockTableRecord
  2
_U0
340
0
  0
BLOCK_RECORD
  5
20E
330
1
100
AcDbSymbolTableRecord
100
AcDbBlockTableRecord
  2
*D4
340
0
  0
BLOCK_RECORD
  5
219
330
1
100
AcDbSymbolTableRecord
100
AcDbBlockTableRecord
  2
_U1
340
0
  0
BLOCK_RECORD
  5
224
330
1
100
AcDbSymbolTableRecord
100
AcDbBlockTableRecord
  2
*D6
340
0
  0
BLOCK_RECORD
  5
230
330
1
100
AcDbSymbolTableRecord
100
AcDbBlockTableRecord
  2
_U2
340
0
  0
BLOCK_RECORD
  5
23D
330
1
100
AcDbSymbolTableRecord
100
AcDbBlockTableRecord
  2
*D8
340
0
  0
BLOCK_RECORD
  5
249
330
1
100
AcDbSymbolTableRecord
100
AcDbBlockTableRecord
  2
_U3
340
0
  0
BLOCK_RECORD
  5
256
330
1
100
AcDbSymbolTableRecord
100
AcDbBlockTableRecord
  2
*D10
340
0
  0
BLOCK_RECORD
  5
262
330
1
100
AcDbSymbolTableRecord
100
AcDbBlockTableRecord
  2
_U4
340
0
  0
BLOCK_RECORD
  5
26E
330
1
100
AcDbSymbolTableRecord
100
AcDbBlockTableRecord
  2
*D12
340
0
  0
BLOCK_RECORD
  5
27A
330
1
100
AcDbSymbolTableRecord
100
AcDbBlockTableRecord
  2
_U5
340
0
  0
BLOCK_RECORD
  5
286
330
1
100
AcDbSymbolTableRecord
100
AcDbBlockTableRecord
  2
*D14
340
0
  0
BLOCK_RECORD
  5
292
330
1
100
AcDbSymbolTableRecord
100
AcDbBlockTableRecord
  2
_U6
340
0
  0
ENDTAB
  0
ENDSEC
  0
SECTION
  2
BLOCKS
  0
BLOCK
  5
20
330
1F
100
AcDbEntity
  8
0
100
AcDbBlockBegin
  2
*Model_Space
 70
     0
 10
0.0
 20
0.0
 30
0.0
  3
*Model_Space
  1

  0
ENDBLK
  5
21
330
1F
100
AcDbEntity
  8
0
100
AcDbBlockEnd
  0
BLOCK
  5
1C
330
1B
100
AcDbEntity
 67
     1
  8
0
100
AcDbBlockBegin
  2
*Paper_Space
 70
     0
 10
0.0
 20
0.0
 30
0.0
  3
*Paper_Space
  1

  0
ENDBLK
  5
1D
330
1B
100
AcDbEntity
 67
     1
  8
0
100
AcDbBlockEnd
  0
BLOCK
  5
24
330
23
100
AcDbEntity
 67
     1
  8
0
100
AcDbBlockBegin
  2
*Paper_Space0
 70
     0
 10
0.0
 20
0.0
 30
0.0
  3
*Paper_Space0
  1

  0
ENDBLK
  5
25
330
23
100
AcDbEntity
 67
     1
  8
0
100
AcDbBlockEnd
  0
BLOCK
  5
1EB
330
1E8
100
AcDbEntity
  8
0
100
AcDbBlockBegin
  2
ASSORTED_DRAFT1
 70
     0
 10
0.0
 20
0.0
 30
0.0
  3
ASSORTED_DRAFT1
  1

  0
SOLID
  5
1E9
330
1E8
100
AcDbEntity
  8
0
 62
   254
370
    13
100
AcDbTrace
 10
270.185042
 20
161.610138
 30
0.0
 11
265.185046
 21
160.501665
 31
0.0
 12
265.1850379999999
 22
162.718611
 32
0.0
 13
270.185042
 23
161.610138
 33
0.0
  0
ENDBLK
  5
1EC
330
1E8
100
AcDbEntity
  8
0
100
AcDbBlockEnd
  0
BLOCK
  5
1F7
330
1F6
100
AcDbEntity
  8
0
100
AcDbBlockBegin
  2
*D2
 70
     1
 10
0.0
 20
0.0
 30
0.0
  3
*D2
  1

  0
LINE
  5
1F9
330
1F6
100
AcDbEntity
  8
0
 62
   254
370
    -2
100
AcDbLine
 10
339.404842
 20
298.907994
 30
0.0
 11
339.404842
 21
328.5109970000001
 31
0.0
  0
LINE
  5
1FA
330
1F6
100
AcDbEntity
  8
0
 62
   254
370
    -2
100
AcDbLine
 10
274.404842
 20
288.907994
 30
0.0
 11
274.404842
 21
328.5109970000001
 31
0.0
  0
LINE
  5
1FB
330
1F6
100
AcDbEntity
  8
0
 62
   254
370
    -2
100
AcDbLine
 10
335.904842
 20
327.510997
 30
0.0
 11
277.904842
 21
327.510997
 31
0.0
  0
SOLID
  5
1FC
330
1F6
100
AcDbEntity
  8
0
 62
   254
100
AcDbTrace
 10
335.904842
 20
326.927663
 30
0.0
 11
335.904842
 21
328.09433
 31
0.0
 12
339.404842
 22
327.510997
 32
0.0
 13
339.404842
 23
327.510997
 33
0.0
  0
SOLID
  5
1FD
330
1F6
100
AcDbEntity
  8
0
 62
   254
100
AcDbTrace
 10
277.904842
 20
328.09433
 30
0.0
 11
277.904842
 21
326.927663
 31
0.0
 12
274.404842
 22
327.510997
 32
0.0
 13
274.404842
 23
327.510997
 33
0.0
  0
MTEXT
  5
1FE
330
1F6
100
AcDbEntity
  8
0
 62
   254
370
    13
100
AcDbMText
 10
306.904842
 20
332.7609970000001
 30
0.0
 40
3.5
 41
0.0
 71
     5
 72
     1
  1
\A1;65
  7
cesky
 73
     1
 44
1.0
  0
POINT
  5
1FF
330
1F6
100
AcDbEntity
  8
Defpoints
 62
     0
100
AcDbPoint
 10
339.404842
 20
298.907994
 30
0.0
  0
POINT
  5
200
330
1F6
100
AcDbEntity
  8
Defpoints
 62
     0
100
AcDbPoint
 10
274.404842
 20
288.907994
 30
0.0
  0
POINT
  5
201
330
1F6
100
AcDbEntity
  8
Defpoints
 62
     0
100
AcDbPoint
 10
274.404842
 20
327.510997
 30
0.0
  0
ENDBLK
  5
1F8
330
1F6
100
AcDbEntity
  8
0
100
AcDbBlockEnd
  0
BLOCK
  5
209
330
202
100
AcDbEntity
  8
0
100
AcDbBlockBegin
  2
_U0
 70
     0
 10
0.0
 20
0.0
 30
0.0
  3
_U0
  1

  0
ENDBLK
  5
20A
330
202
100
AcDbEntity
  8
0
100
AcDbBlockEnd
  0
BLOCK
  5
20F
330
20E
100
AcDbEntity
  8
0
100
AcDbBlockBegin
  2
*D4
 70
     1
 10
0.0
 20
0.0
 30
0.0
  3
*D4
  1

  0
LINE
  5
211
330
20E
100
AcDbEntity
  8
0
 62
   254
370
    -2
100
AcDbLine
 10
294.032259
 20
288.907994
 30
0.0
 11
353.014384
 21
288.907994
 31
0.0
  0
LINE
  5
212
330
20E
100
AcDbEntity
  8
0
 62
   254
370
    -2
100
AcDbLine
 10
330.83929
 20
298.907994
 30
0.0
 11
353.014384
 21
298.907994
 31
0.0
  0
LINE
  5
213
330
20E
100
AcDbEntity
  8
0
 62
   254
370
    -2
100
AcDbLine
 10
352.014384
 20
302.407994
 30
0.0
 11
352.014384
 21
305.907994
 31
0.0
  0
SOLID
  5
214
330
20E
100
AcDbEntity
  8
0
 62
   254
100
AcDbTrace
 10
351.431051
 20
302.407994
 30
0.0
 11
352.597717
 21
302.407994
 31
0.0
 12
352.014384
 22
298.907994
 32
0.0
 13
352.014384
 23
298.907994
 33
0.0
  0
MTEXT
  5
215
330
20E
100
AcDbEntity
  8
0
 62
   254
370
    13
100
AcDbMText
 10
346.764384
 20
275.57466
 30
0.0
 40
3.5
 41
0.0
 71
     5
 72
     1
  1
\A1;20
  7
cesky
 11
0.0
 21
1.0
 31
0.0
 73
     1
 44
1.0
  0
POINT
  5
216
330
20E
100
AcDbEntity
  8
Defpoints
 62
     0
100
AcDbPoint
 10
294.032259
 20
288.907994
 30
0.0
  0
POINT
  5
217
330
20E
100
AcDbEntity
  8
Defpoints
 62
     0
100
AcDbPoint
 10
330.83929
 20
298.907994
 30
0.0
  0
POINT
  5
218
330
20E
100
AcDbEntity
  8
Defpoints
 62
     0
100
AcDbPoint
 10
352.014384
 20
298.907994
 30
0.0
  0
ENDBLK
  5
210
330
20E
100
AcDbEntity
  8
0
100
AcDbBlockEnd
  0
BLOCK
  5
21F
330
219
100
AcDbEntity
  8
0
100
AcDbBlockBegin
  2
_U1
 70
     0
 10
0.0
 20
0.0
 30
0.0
  3
_U1
  1

  0
ENDBLK
  5
220
330
219
100
AcDbEntity
  8
0
100
AcDbBlockEnd
  0
BLOCK
  5
225
330
224
100
AcDbEntity
  8
0
100
AcDbBlockBegin
  2
*D6
 70
     1
 10
0.0
 20
0.0
 30
0.0
  3
*D6
  1

  0
LINE
  5
227
330
224
100
AcDbEntity
  8
0
 62
    95
370
    -2
100
AcDbLine
 10
220.404842
 20
301.407994
 30
0.0
 11
203.427812
 21
301.407994
 31
0.0
  0
LINE
  5
228
330
224
100
AcDbEntity
  8
0
 62
    95
370
    -2
100
AcDbLine
 10
220.404842
 20
276.407994
 30
0.0
 11
203.427812
 21
276.407994
 31
0.0
  0
LINE
  5
229
330
224
100
AcDbEntity
  8
0
 62
    95
370
    -2
100
AcDbLine
 10
204.427812
 20
297.907994
 30
0.0
 11
204.427812
 21
279.907994
 31
0.0
  0
SOLID
  5
22A
330
224
100
AcDbEntity
  8
0
 62
    95
100
AcDbTrace
 10
205.011145
 20
297.907994
 30
0.0
 11
203.844479
 21
297.907994
 31
0.0
 12
204.427812
 22
301.407994
 32
0.0
 13
204.427812
 23
301.407994
 33
0.0
  0
SOLID
  5
22B
330
224
100
AcDbEntity
  8
0
 62
    95
100
AcDbTrace
 10
203.844479
 20
279.907994
 30
0.0
 11
205.011145
 21
279.907994
 31
0.0
 12
204.427812
 22
276.407994
 32
0.0
 13
204.427812
 23
276.407994
 33
0.0
  0
MTEXT
  5
22C
330
224
100
AcDbEntity
  8
0
 62
    95
370
    13
100
AcDbMText
 10
199.177812
 20
288.907994
 30
0.0
 40
3.5
 41
0.0
 71
     5
 72
     1
  1
\A1;25
  7
cesky
 11
0.0
 21
1.0
 31
0.0
 73
     1
 44
1.0
  0
POINT
  5
22D
330
224
100
AcDbEntity
  8
Defpoints
 62
     0
100
AcDbPoint
 10
220.404842
 20
301.407994
 30
0.0
  0
POINT
  5
22E
330
224
100
AcDbEntity
  8
Defpoints
 62
     0
100
AcDbPoint
 10
220.404842
 20
276.407994
 30
0.0
  0
POINT
  5
22F
330
224
100
AcDbEntity
  8
Defpoints
 62
     0
100
AcDbPoint
 10
204.427812
 20
276.407994
 30
0.0
  0
ENDBLK
  5
226
330
224
100
AcDbEntity
  8
0
100
AcDbBlockEnd
  0
BLOCK
  5
238
330
230
100
AcDbEntity
  8
0
100
AcDbBlockBegin
  2
_U2
 70
     0
 10
0.0
 20
0.0
 30
0.0
  3
_U2
  1

  0
ENDBLK
  5
239
330
230
100
AcDbEntity
  8
0
100
AcDbBlockEnd
  0
BLOCK
  5
23E
330
23D
100
AcDbEntity
  8
0
100
AcDbBlockBegin
  2
*D8
 70
     1
 10
0.0
 20
0.0
 30
0.0
  3
*D8
  1

  0
LINE
  5
240
330
23D
100
AcDbEntity
  8
0
 62
    95
370
    -2
100
AcDbLine
 10
277.154842
 20
306.407994
 30
0.0
 11
190.287987
 21
306.407994
 31
0.0
  0
LINE
  5
241
330
23D
100
AcDbEntity
  8
0
 62
    95
370
    -2
100
AcDbLine
 10
277.154842
 20
271.407994
 30
0.0
 11
190.287987
 21
271.407994
 31
0.0
  0
LINE
  5
242
330
23D
100
AcDbEntity
  8
0
 62
    95
370
    -2
100
AcDbLine
 10
191.287987
 20
302.907994
 30
0.0
 11
191.287987
 21
274.907994
 31
0.0
  0
SOLID
  5
243
330
23D
100
AcDbEntity
  8
0
 62
    95
100
AcDbTrace
 10
191.87132
 20
302.907994
 30
0.0
 11
190.704653
 21
302.907994
 31
0.0
 12
191.287987
 22
306.407994
 32
0.0
 13
191.287987
 23
306.407994
 33
0.0
  0
SOLID
  5
244
330
23D
100
AcDbEntity
  8
0
 62
    95
100
AcDbTrace
 10
190.704653
 20
274.907994
 30
0.0
 11
191.87132
 21
274.907994
 31
0.0
 12
191.287987
 22
271.407994
 32
0.0
 13
191.287987
 23
271.407994
 33
0.0
  0
MTEXT
  5
245
330
23D
100
AcDbEntity
  8
0
 62
    95
370
    13
100
AcDbMText
 10
186.037987
 20
288.907994
 30
0.0
 40
3.5
 41
0.0
 71
     5
 72
     1
  1
\A1;35
  7
cesky
 11
0.0
 21
1.0
 31
0.0
 73
     1
 44
1.0
  0
POINT
  5
246
330
23D
100
AcDbEntity
  8
Defpoints
 62
     0
100
AcDbPoint
 10
277.154842
 20
306.407994
 30
0.0
  0
POINT
  5
247
330
23D
100
AcDbEntity
  8
Defpoints
 62
     0
100
AcDbPoint
 10
277.154842
 20
271.407994
 30
0.0
  0
POINT
  5
248
330
23D
100
AcDbEntity
  8
Defpoints
 62
     0
100
AcDbPoint
 10
191.287987
 20
271.407994
 30
0.0
  0
ENDBLK
  5
23F
330
23D
100
AcDbEntity
  8
0
100
AcDbBlockEnd
  0
BLOCK
  5
251
330
249
100
AcDbEntity
  8
0
100
AcDbBlockBegin
  2
_U3
 70
     0
 10
0.0
 20
0.0
 30
0.0
  3
_U3
  1

  0
ENDBLK
  5
252
330
249
100
AcDbEntity
  8
0
100
AcDbBlockEnd
  0
BLOCK
  5
257
330
256
100
AcDbEntity
  8
0
100
AcDbBlockBegin
  2
*D10
 70
     1
 10
0.0
 20
0.0
 30
0.0
  3
*D10
  1

  0
LINE
  5
259
330
256
100
AcDbEntity
  8
0
 62
   254
370
    -2
100
AcDbLine
 10
339.404842
 20
300.907994
 30
0.0
 11
339.404842
 21
341.687968
 31
0.0
  0
LINE
  5
25A
330
256
100
AcDbEntity
  8
0
 62
   254
370
    -2
100
AcDbLine
 10
218.404842
 20
299.407994
 30
0.0
 11
218.404842
 21
341.687968
 31
0.0
  0
LINE
  5
25B
330
256
100
AcDbEntity
  8
0
 62
   254
370
    -2
100
AcDbLine
 10
335.904842
 20
340.687968
 30
0.0
 11
221.904842
 21
340.687968
 31
0.0
  0
SOLID
  5
25C
330
256
100
AcDbEntity
  8
0
 62
   254
100
AcDbTrace
 10
335.904842
 20
340.104634
 30
0.0
 11
335.904842
 21
341.271301
 31
0.0
 12
339.404842
 22
340.687968
 32
0.0
 13
339.404842
 23
340.687968
 33
0.0
  0
SOLID
  5
25D
330
256
100
AcDbEntity
  8
0
 62
   254
100
AcDbTrace
 10
221.904842
 20
341.271301
 30
0.0
 11
221.904842
 21
340.104634
 31
0.0
 12
218.404842
 22
340.687968
 32
0.0
 13
218.404842
 23
340.687968
 33
0.0
  0
MTEXT
  5
25E
330
256
100
AcDbEntity
  8
0
 62
   254
370
    13
100
AcDbMText
 10
278.904842
 20
345.937968
 30
0.0
 40
3.5
 41
0.0
 71
     5
 72
     1
  1
\A1;121
  7
cesky
 73
     1
 44
1.0
  0
POINT
  5
25F
330
256
100
AcDbEntity
  8
Defpoints
 62
     0
100
AcDbPoint
 10
339.404842
 20
300.907994
 30
0.0
  0
POINT
  5
260
330
256
100
AcDbEntity
  8
Defpoints
 62
     0
100
AcDbPoint
 10
218.404842
 20
299.407994
 30
0.0
  0
POINT
  5
261
330
256
100
AcDbEntity
  8
Defpoints
 62
     0
100
AcDbPoint
 10
218.404842
 20
340.687968
 30
0.0
  0
ENDBLK
  5
258
330
256
100
AcDbEntity
  8
0
100
AcDbBlockEnd
  0
BLOCK
  5
269
330
262
100
AcDbEntity
  8
0
100
AcDbBlockBegin
  2
_U4
 70
     0
 10
0.0
 20
0.0
 30
0.0
  3
_U4
  1

  0
ENDBLK
  5
26A
330
262
100
AcDbEntity
  8
0
100
AcDbBlockEnd
  0
BLOCK
  5
26F
330
26E
100
AcDbEntity
  8
0
100
AcDbBlockBegin
  2
*D12
 70
     1
 10
0.0
 20
0.0
 30
0.0
  3
*D12
  1

  0
LINE
  5
271
330
26E
100
AcDbEntity
  8
0
 62
   254
370
    -2
100
AcDbLine
 10
274.404842
 20
288.907994
 30
0.0
 11
274.404842
 21
328.5109970000001
 31
0.0
  0
LINE
  5
272
330
26E
100
AcDbEntity
  8
0
 62
   254
370
    -2
100
AcDbLine
 10
218.404842
 20
294.157994
 30
0.0
 11
218.404842
 21
328.5109970000001
 31
0.0
  0
LINE
  5
273
330
26E
100
AcDbEntity
  8
0
 62
   254
370
    -2
100
AcDbLine
 10
270.904842
 20
327.510997
 30
0.0
 11
221.904842
 21
327.510997
 31
0.0
  0
SOLID
  5
274
330
26E
100
AcDbEntity
  8
0
 62
   254
100
AcDbTrace
 10
270.904842
 20
326.927663
 30
0.0
 11
270.904842
 21
328.09433
 31
0.0
 12
274.404842
 22
327.510997
 32
0.0
 13
274.404842
 23
327.510997
 33
0.0
  0
SOLID
  5
275
330
26E
100
AcDbEntity
  8
0
 62
   254
100
AcDbTrace
 10
221.904842
 20
328.09433
 30
0.0
 11
221.904842
 21
326.927663
 31
0.0
 12
218.404842
 22
327.510997
 32
0.0
 13
218.404842
 23
327.510997
 33
0.0
  0
MTEXT
  5
276
330
26E
100
AcDbEntity
  8
0
 62
   254
370
    13
100
AcDbMText
 10
246.404842
 20
332.7609970000001
 30
0.0
 40
3.5
 41
0.0
 71
     5
 72
     1
  1
\A1;56
  7
cesky
 73
     1
 44
1.0
  0
POINT
  5
277
330
26E
100
AcDbEntity
  8
Defpoints
 62
     0
100
AcDbPoint
 10
274.404842
 20
288.907994
 30
0.0
  0
POINT
  5
278
330
26E
100
AcDbEntity
  8
Defpoints
 62
     0
100
AcDbPoint
 10
218.404842
 20
294.157994
 30
0.0
  0
POINT
  5
279
330
26E
100
AcDbEntity
  8
Defpoints
 62
     0
100
AcDbPoint
 10
218.404842
 20
327.510997
 30
0.0
  0
ENDBLK
  5
270
330
26E
100
AcDbEntity
  8
0
100
AcDbBlockEnd
  0
BLOCK
  5
281
330
27A
100
AcDbEntity
  8
0
100
AcDbBlockBegin
  2
_U5
 70
     0
 10
0.0
 20
0.0
 30
0.0
  3
_U5
  1

  0
ENDBLK
  5
282
330
27A
100
AcDbEntity
  8
0
100
AcDbBlockEnd
  0
BLOCK
  5
287
330
286
100
AcDbEntity
  8
0
100
AcDbBlockBegin
  2
*D14
 70
     1
 10
0.0
 20
0.0
 30
0.0
  3
*D14
  1

  0
LINE
  5
289
330
286
100
AcDbEntity
  8
0
 62
   254
370
    -2
100
AcDbLine
 10
339.404842
 20
298.907994
 30
0.0
 11
339.404842
 21
317.637587
 31
0.0
  0
LINE
  5
28A
330
286
100
AcDbEntity
  8
0
 62
   254
370
    -2
100
AcDbLine
 10
292.396391
 20
298.706213
 30
0.0
 11
292.396391
 21
317.637587
 31
0.0
  0
LINE
  5
28B
330
286
100
AcDbEntity
  8
0
 62
   254
370
    -2
100
AcDbLine
 10
335.904842
 20
316.637587
 30
0.0
 11
295.896391
 21
316.637587
 31
0.0
  0
SOLID
  5
28C
330
286
100
AcDbEntity
  8
0
 62
   254
100
AcDbTrace
 10
335.904842
 20
316.054254
 30
0.0
 11
335.904842
 21
317.220921
 31
0.0
 12
339.404842
 22
316.637587
 32
0.0
 13
339.404842
 23
316.637587
 33
0.0
  0
SOLID
  5
28D
330
286
100
AcDbEntity
  8
0
 62
   254
100
AcDbTrace
 10
295.896391
 20
317.220921
 30
0.0
 11
295.896391
 21
316.054254
 31
0.0
 12
292.396391
 22
316.637587
 32
0.0
 13
292.396391
 23
316.637587
 33
0.0
  0
MTEXT
  5
28E
330
286
100
AcDbEntity
  8
0
 62
   254
370
    13
100
AcDbMText
 10
315.900617
 20
321.887587
 30
0.0
 40
3.5
 41
0.0
 71
     5
 72
     1
  1
\A1;47
  7
cesky
 73
     1
 44
1.0
  0
POINT
  5
28F
330
286
100
AcDbEntity
  8
Defpoints
 62
     0
100
AcDbPoint
 10
339.404842
 20
298.907994
 30
0.0
  0
POINT
  5
290
330
286
100
AcDbEntity
  8
Defpoints
 62
     0
100
AcDbPoint
 10
292.396391
 20
298.706213
 30
0.0
  0
POINT
  5
291
330
286
100
AcDbEntity
  8
Defpoints
 62
     0
100
AcDbPoint
 10
292.396391
 20
316.637587
 30
0.0
  0
ENDBLK
  5
288
330
286
100
AcDbEntity
  8
0
100
AcDbBlockEnd
  0
BLOCK
  5
299
330
292
100
AcDbEntity
  8
0
100
AcDbBlockBegin
  2
_U6
 70
     0
 10
0.0
 20
0.0
 30
0.0
  3
_U6
  1

  0
ENDBLK
  5
29A
330
292
100
AcDbEntity
  8
0
100
AcDbBlockEnd
  0
ENDSEC
  0
SECTION
  2
ENTITIES
  0
POINT
  5
73
102
{ACAD_REACTORS
330
343
102
}
330
1F
100
AcDbEntity
  8
80
100
AcDbPoint
 10
274.404842
 20
288.907994
 30
0.0
  0
POINT
  5
76
330
1F
100
AcDbEntity
  8
4
 60
     1
100
AcDbPoint
 10
294.032259
 20
288.907994
 30
0.0
  0
POINT
  5
78
330
1F
100
AcDbEntity
  8
4
 60
     1
100
AcDbPoint
 10
338.641585
 20
288.907994
 30
0.0
  0
POINT
  5
79
330
1F
100
AcDbEntity
  8
SK4
 60
     1
100
AcDbPoint
 10
220.404842
 20
288.907994
 30
0.0
  0
POINT
  5
7A
330
1F
100
AcDbEntity
  8
SK4
 60
     1
100
AcDbPoint
 10
274.404842
 20
288.907994
 30
0.0
  0
POINT
  5
7B
330
1F
100
AcDbEntity
  8
SK6
 60
     1
100
AcDbPoint
 10
274.404842
 20
288.907994
 30
0.0
  0
POINT
  5
7C
330
1F
100
AcDbEntity
  8
SK6
 60
     1
100
AcDbPoint
 10
292.396391
 20
298.706213
 30
0.0
  0
LINE
  5
7D
330
1F
100
AcDbEntity
  8
1
100
AcDbLine
 10
338.503129
 20
291.675782
 30
0.0
 11
333.699883
 21
291.4662859999999
 31
0.0
  0
LINE
  5
7F
330
1F
100
AcDbEntity
  8
1
100
AcDbLine
 10
338.503129
 20
291.675782
 30
0.0
 11
337.426746
 21
289.882432
 31
0.0
  0
LINE
  5
80
330
1F
100
AcDbEntity
  8
1
100
AcDbLine
 10
337.496477
 20
285.732994
 30
0.0
 11
337.777073
 21
285.732994
 31
0.0
  0
LINE
  5
81
330
1F
100
AcDbEntity
  8
1
100
AcDbLine
 10
338.620741
 20
292.265285
 30
0.0
 11
334.124676
 21
292.069187
 31
0.0
  0
LINE
  5
82
330
1F
100
AcDbEntity
  8
1
100
AcDbLine
 10
334.1194450000001
 20
292.054307
 30
0.0
 11
334.124676
 21
292.069187
 31
0.0
  0
LINE
  5
83
330
1F
100
AcDbEntity
  8
1
100
AcDbLine
 10
332.517648
 20
298.279484
 30
0.0
 11
332.515115
 21
298.338227
 31
0.0
  0
LINE
  5
84
330
1F
100
AcDbEntity
  8
1
100
AcDbLine
 10
332.497344
 20
293.54531
 30
0.0
 11
332.492113
 21
293.53043
 31
0.0
  0
LINE
  5
85
330
1F
100
AcDbEntity
  8
1
100
AcDbLine
 10
332.497344
 20
293.54531
 30
0.0
 11
332.290668
 21
298.3387009999999
 31
0.0
  0
LINE
  5
86
330
1F
100
AcDbEntity
  8
1
100
AcDbLine
 10
287.404842
 20
298.344921
 30
0.0
 11
287.404842
 21
285.896789
 31
0.0
  0
LINE
  5
87
330
1F
100
AcDbEntity
  8
1
100
AcDbLine
 10
332.865395
 20
298.552912
 30
0.0
 11
338.433012
 21
298.795747
 31
0.0
  0
LINE
  5
89
330
1F
100
AcDbEntity
  8
1
100
AcDbLine
 10
338.837836
 20
298.425488
 30
0.0
 11
339.085755
 21
292.863666
 31
0.0
  0
LINE
  5
8A
330
1F
100
AcDbEntity
  8
1
100
AcDbLine
 10
338.715446
 20
292.459599
 30
0.0
 11
333.147829
 21
292.216765
 31
0.0
  0
LINE
  5
8B
330
1F
100
AcDbEntity
  8
1
100
AcDbLine
 10
330.090626
 20
290.430679
 30
0.0
 11
330.1019609999999
 21
290.099402
 31
0.0
  0
LINE
  5
8C
330
1F
100
AcDbEntity
  8
1
100
AcDbLine
 10
334.845267
 20
295.910084
 30
0.0
 11
334.8275
 21
295.859541
 31
0.0
  0
LINE
  5
8E
330
1F
100
AcDbEntity
  8
1
100
AcDbLine
 10
334.91259
 20
295.841179
 30
0.0
 11
334.89425
 21
295.7890049999999
 31
0.0
  0
LINE
  5
8F
330
1F
100
AcDbEntity
  8
1
100
AcDbLine
 10
336.575869
 20
295.414296
 30
0.0
 11
336.594236
 21
295.466546
 31
0.0
  0
LINE
  5
90
330
1F
100
AcDbEntity
  8
1
100
AcDbLine
 10
334.94663
 20
294.948321
 30
0.0
 11
334.928362
 21
294.89635
 31
0.0
  0
LINE
  5
91
330
1F
100
AcDbEntity
  8
1
100
AcDbLine
 10
334.906023
 20
294.928891
 30
0.0
 11
334.88803
 21
294.877704
 31
0.0
  0
LINE
  5
92
330
1F
100
AcDbEntity
  8
1
100
AcDbLine
 10
336.169757
 20
294.623148
 30
0.0
 11
336.188052
 21
294.6751910000001
 31
0.0
  0
LINE
  5
93
330
1F
100
AcDbEntity
  8
1
100
AcDbLine
 10
336.208378
 20
294.581261
 30
0.0
 11
336.226314
 21
294.632284
 31
0.0
  0
LINE
  5
94
330
1F
100
AcDbEntity
  8
1
100
AcDbLine
 10
337.032336
 20
291.639326
 30
0.0
 11
333.692767
 21
291.493669
 31
0.0
  0
LINE
  5
97
330
1F
100
AcDbEntity
  8
1
100
AcDbLine
 10
334.1194450000001
 20
292.054307
 30
0.0
 11
338.578739
 21
292.248801
 31
0.0
  0
LINE
  5
98
330
1F
100
AcDbEntity
  8
1
100
AcDbLine
 10
332.588029
 20
298.407994
 30
0.0
 11
326.849841
 21
298.407994
 31
0.0
  0
LINE
  5
99
330
1F
100
AcDbEntity
  8
1
100
AcDbLine
 10
338.579032
 20
292.206665
 30
0.0
 11
338.578739
 21
292.248801
 31
0.0
  0
LINE
  5
9A
330
1F
100
AcDbEntity
  8
SK1
100
AcDbLine
 10
218.404842
 20
299.407994
 30
0.0
 11
218.404842
 21
278.407994
 31
0.0
  0
LINE
  5
9B
330
1F
100
AcDbEntity
  8
SK1
100
AcDbLine
 10
218.404842
 20
278.407994
 30
0.0
 11
220.404842
 21
276.407994
 31
0.0
  0
LINE
  5
9C
330
1F
100
AcDbEntity
  8
SK1
100
AcDbLine
 10
220.404842
 20
301.407994
 30
0.0
 11
218.404842
 21
299.407994
 31
0.0
  0
LINE
  5
9D
330
1F
100
AcDbEntity
  8
SK1
100
AcDbLine
 10
220.404842
 20
301.407994
 30
0.0
 11
220.404842
 21
276.407994
 31
0.0
  0
LINE
  5
9E
330
1F
100
AcDbEntity
  8
1
100
AcDbLine
 10
337.344002
 20
294.816227
 30
0.0
 11
337.35142
 21
294.837328
 31
0.0
  0
LINE
  5
9F
330
1F
100
AcDbEntity
  8
1
100
AcDbLine
 10
335.267659
 20
294.576363
 30
0.0
 11
335.285883
 21
294.628206
 31
0.0
  0
LINE
  5
A0
330
1F
100
AcDbEntity
  8
1
100
AcDbLine
 10
335.752304
 20
294.5459879999999
 30
0.0
 11
335.733957
 21
294.493794
 31
0.0
  0
LINE
  5
A1
330
1F
100
AcDbEntity
  8
1
100
AcDbLine
 10
334.901547
 20
295.504116
 30
0.0
 11
334.920497
 21
295.558025
 31
0.0
  0
LINE
  5
A2
330
1F
100
AcDbEntity
  8
1
100
AcDbLine
 10
336.493892
 20
295.315694
 30
0.0
 11
336.474942
 21
295.261784
 31
0.0
  0
LINE
  5
A3
330
1F
100
AcDbEntity
  8
1
100
AcDbLine
 10
335.642532
 20
296.272106
 30
0.0
 11
335.660879
 21
296.324299
 31
0.0
  0
LINE
  5
A4
330
1F
100
AcDbEntity
  8
1
100
AcDbLine
 10
336.122247
 20
296.227704
 30
0.0
 11
336.10883
 21
296.189537
 31
0.0
  0
LINE
  5
A5
330
1F
100
AcDbEntity
  8
80
100
AcDbLine
 10
274.404842
 20
287.90842
 30
0.0
 11
274.404842
 21
289.907567
 31
0.0
  0
LINE
  5
A6
330
1F
100
AcDbEntity
  8
81
100
AcDbLine
 10
339.404842
 20
300.907994
 30
0.0
 11
339.404842
 21
296.907994
 31
0.0
  0
LINE
  5
A7
330
1F
100
AcDbEntity
  8
81
100
AcDbLine
 10
337.404842
 20
298.907994
 30
0.0
 11
341.404842
 21
298.907994
 31
0.0
  0
LINE
  5
A8
330
1F
100
AcDbEntity
  8
SK1
100
AcDbLine
 10
220.404842
 20
276.407994
 30
0.0
 11
274.404842
 21
276.407994
 31
0.0
  0
LINE
  5
A9
330
1F
100
AcDbEntity
  8
1
100
AcDbLine
 10
274.904842
 20
271.407994
 30
0.0
 11
279.404842
 21
271.407994
 31
0.0
  0
LINE
  5
AA
330
1F
100
AcDbEntity
  8
1
100
AcDbLine
 10
274.904842
 20
271.407994
 30
0.0
 11
274.904842
 21
288.907994
 31
0.0
  0
LINE
  5
AB
330
1F
100
AcDbEntity
  8
1
100
AcDbLine
 10
274.904842
 20
288.907994
 30
0.0
 11
274.904842
 21
306.407994
 31
0.0
  0
LINE
  5
AC
330
1F
100
AcDbEntity
  8
1
100
AcDbLine
 10
279.404842
 20
271.407994
 30
0.0
 11
279.404842
 21
272.791194
 31
0.0
  0
LINE
  5
AD
330
1F
100
AcDbEntity
  8
1
100
AcDbLine
 10
279.404842
 20
306.407994
 30
0.0
 11
279.404842
 21
279.140691
 31
0.0
  0
LINE
  5
AE
330
1F
100
AcDbEntity
  8
1
100
AcDbLine
 10
279.404842
 20
271.407994
 30
0.0
 11
282.71855
 21
274.721702
 31
0.0
  0
LINE
  5
AF
330
1F
100
AcDbEntity
  8
1
100
AcDbLine
 10
282.71855
 20
303.094285
 30
0.0
 11
279.404842
 21
306.407994
 31
0.0
  0
LINE
  5
B0
330
1F
100
AcDbEntity
  8
SK1
100
AcDbLine
 10
274.404842
 20
301.407994
 30
0.0
 11
220.404842
 21
301.407994
 31
0.0
  0
LINE
  5
B1
330
1F
100
AcDbEntity
  8
1
100
AcDbLine
 10
274.904842
 20
271.407994
 30
0.0
 11
274.404842
 21
271.907994
 31
0.0
  0
LINE
  5
B2
330
1F
100
AcDbEntity
  8
1
100
AcDbLine
 10
274.404842
 20
305.907994
 30
0.0
 11
274.904842
 21
306.407994
 31
0.0
  0
LINE
  5
B3
330
1F
100
AcDbEntity
  8
1
100
AcDbLine
 10
279.404842
 20
306.407994
 30
0.0
 11
274.904842
 21
306.407994
 31
0.0
  0
LINE
  5
B4
330
1F
100
AcDbEntity
  8
1
100
AcDbLine
 10
339.333191
 20
284.231676
 30
0.0
 11
338.915211
 21
283.53604
 31
0.0
  0
LINE
  5
B5
330
1F
100
AcDbEntity
  8
1
100
AcDbLine
 10
338.965845
 20
284.337011
 30
0.0
 11
339.333191
 21
284.231676
 31
0.0
  0
LINE
  5
B6
330
1F
100
AcDbEntity
  8
1
100
AcDbLine
 10
339.404667
 20
288.32653
 30
0.0
 11
339.333191
 21
284.231676
 31
0.0
  0
LINE
  5
B7
330
1F
100
AcDbEntity
  8
1
100
AcDbLine
 10
338.610015
 20
289.2933339999999
 30
0.0
 11
338.997974
 21
289.060225
 31
0.0
  0
LINE
  5
B8
330
1F
100
AcDbEntity
  8
1
100
AcDbLine
 10
338.723078
 20
288.794761
 30
0.0
 11
338.997974
 21
289.060225
 31
0.0
  0
LINE
  5
B9
330
1F
100
AcDbEntity
  8
1
100
AcDbLine
 10
339.033869
 20
288.23408
 30
0.0
 11
339.404667
 21
288.32653
 31
0.0
  0
LINE
  5
BA
330
1F
100
AcDbEntity
  8
1
100
AcDbLine
 10
338.997974
 20
289.060225
 30
0.0
 11
339.404667
 21
288.32653
 31
0.0
  0
LINE
  5
BB
330
1F
100
AcDbEntity
  8
1
100
AcDbLine
 10
338.6497470000001
 20
283.810936
 30
0.0
 11
338.915211
 21
283.53604
 31
0.0
  0
LINE
  5
BC
330
1F
100
AcDbEntity
  8
1
100
AcDbLine
 10
338.915211
 20
283.53604
 30
0.0
 11
338.311094
 21
283.201173
 31
0.0
  0
LINE
  5
BD
330
1F
100
AcDbEntity
  8
1
100
AcDbLine
 10
338.6497470000001
 20
283.810936
 30
0.0
 11
338.174333
 21
283.54741
 31
0.0
  0
LINE
  5
BE
330
1F
100
AcDbEntity
  8
1
100
AcDbLine
 10
338.407186
 20
288.984568
 30
0.0
 11
338.723078
 21
288.794761
 31
0.0
  0
LINE
  5
BF
330
1F
100
AcDbEntity
  8
1
100
AcDbLine
 10
339.033869
 20
288.23408
 30
0.0
 11
338.965845
 21
284.337011
 31
0.0
  0
LINE
  5
C0
330
1F
100
AcDbEntity
  8
1
100
AcDbLine
 10
338.723078
 20
288.794761
 30
0.0
 11
338.406306
 21
288.488858
 31
0.0
  0
LINE
  5
C1
330
1F
100
AcDbEntity
  8
1
100
AcDbLine
 10
339.033869
 20
288.23408
 30
0.0
 11
338.447733
 21
288.087939
 31
0.0
  0
LINE
  5
C2
330
1F
100
AcDbEntity
  8
1
100
AcDbLine
 10
338.723078
 20
288.794761
 30
0.0
 11
339.033869
 21
288.23408
 31
0.0
  0
LINE
  5
C3
330
1F
100
AcDbEntity
  8
1
100
AcDbLine
 10
338.965845
 20
284.337011
 30
0.0
 11
338.385166
 21
284.503518
 31
0.0
  0
LINE
  5
C4
330
1F
100
AcDbEntity
  8
1
100
AcDbLine
 10
338.6497470000001
 20
283.810936
 30
0.0
 11
338.246608
 21
284.228399
 31
0.0
  0
LINE
  5
C5
330
1F
100
AcDbEntity
  8
1
100
AcDbLine
 10
338.965845
 20
284.337011
 30
0.0
 11
338.6497470000001
 21
283.810936
 31
0.0
  0
LINE
  5
C6
330
1F
100
AcDbEntity
  8
1
100
AcDbLine
 10
338.252348
 20
284.282472
 30
0.0
 11
338.385166
 21
284.503518
 31
0.0
  0
LINE
  5
C7
330
1F
100
AcDbEntity
  8
1
100
AcDbLine
 10
338.385166
 20
284.503518
 30
0.0
 11
338.447733
 21
288.087939
 31
0.0
  0
LINE
  5
C8
330
1F
100
AcDbEntity
  8
1
100
AcDbLine
 10
338.447733
 20
288.087939
 30
0.0
 11
338.4063
 21
288.162686
 31
0.0
  0
LINE
  5
C9
330
1F
100
AcDbEntity
  8
1
100
AcDbLine
 10
332.743005
 20
292.587024
 30
0.0
 11
332.495086
 21
298.148846
 31
0.0
  0
LINE
  5
CA
330
1F
100
AcDbEntity
  8
1
100
AcDbLine
 10
333.701133
 20
297.407321
 30
0.0
 11
337.696566
 21
297.581584
 31
0.0
  0
LINE
  5
CB
330
1F
100
AcDbEntity
  8
1
100
AcDbLine
 10
333.879044
 20
293.4160470000001
 30
0.0
 11
333.701133
 21
297.407321
 31
0.0
  0
LINE
  5
CC
330
1F
100
AcDbEntity
  8
1
100
AcDbLine
 10
337.874477
 20
293.59031
 30
0.0
 11
333.879044
 21
293.4160470000001
 31
0.0
  0
LINE
  5
CD
330
1F
100
AcDbEntity
  8
1
100
AcDbLine
 10
337.696566
 20
297.581584
 30
0.0
 11
337.874477
 21
293.59031
 31
0.0
  0
LINE
  5
CE
330
1F
100
AcDbEntity
  8
1
100
AcDbLine
 10
274.404842
 20
305.907994
 30
0.0
 11
274.404842
 21
288.907994
 31
0.0
  0
LINE
  5
CF
330
1F
100
AcDbEntity
  8
1
100
AcDbLine
 10
274.404842
 20
288.907994
 30
0.0
 11
274.404842
 21
271.907994
 31
0.0
  0
LINE
  5
D0
330
1F
100
AcDbEntity
  8
1
100
AcDbLine
 10
332.286565
 20
298.297665
 30
0.0
 11
332.492113
 21
293.53043
 31
0.0
  0
LINE
  5
D1
330
1F
100
AcDbEntity
  8
1
100
AcDbLine
 10
338.620741
 20
292.265285
 30
0.0
 11
338.619417
 21
292.455408
 31
0.0
  0
LINE
  5
D2
330
1F
100
AcDbEntity
  8
1
100
AcDbLine
 10
338.620741
 20
292.265285
 30
0.0
 11
338.578739
 21
292.248801
 31
0.0
  0
LINE
  5
D3
330
1F
100
AcDbEntity
  8
1
100
AcDbLine
 10
338.441219
 20
282.7781129999999
 30
0.0
 11
338.399129
 21
282.778787
 31
0.0
  0
LINE
  5
D4
330
1F
100
AcDbEntity
  8
1
100
AcDbLine
 10
338.291342
 20
283.233264
 30
0.0
 11
338.183332
 21
283.234992
 31
0.0
  0
LINE
  5
D5
330
1F
100
AcDbEntity
  8
1
100
AcDbLine
 10
338.115409
 20
285.732994
 30
0.0
 11
338.406301
 21
285.732994
 31
0.0
  0
LINE
  5
D6
330
1F
100
AcDbEntity
  8
1
100
AcDbLine
 10
338.448463
 20
289.222922
 30
0.0
 11
338.556656
 21
289.2210330000001
 31
0.0
  0
LINE
  5
D7
330
1F
100
AcDbEntity
  8
1
100
AcDbLine
 10
338.71268
 20
289.671073
 30
0.0
 11
338.754842
 21
289.670337
 31
0.0
  0
LINE
  5
D8
330
1F
100
AcDbEntity
  8
1
100
AcDbLine
 10
338.503129
 20
291.675782
 30
0.0
 11
338.512508
 21
291.679463
 31
0.0
  0
LINE
  5
D9
330
1F
100
AcDbEntity
  8
1
100
AcDbLine
 10
338.173033
 20
283.5351950000001
 30
0.0
 11
338.406301
 21
285.732994
 31
0.0
  0
LINE
  5
DA
330
1F
100
AcDbEntity
  8
1
100
AcDbLine
 10
338.406301
 20
285.732994
 30
0.0
 11
338.406301
 21
288.923612
 31
0.0
  0
LINE
  5
DB
330
1F
100
AcDbEntity
  8
1
100
AcDbLine
 10
338.424411
 20
283.016987
 30
0.0
 11
338.291342
 21
283.233264
 31
0.0
  0
LINE
  5
DC
330
1F
100
AcDbEntity
  8
1
100
AcDbLine
 10
338.424411
 20
283.016987
 30
0.0
 11
338.399129
 21
282.778787
 31
0.0
  0
LINE
  5
DD
330
1F
100
AcDbEntity
  8
1
100
AcDbLine
 10
338.556656
 20
289.2210330000001
 30
0.0
 11
338.71268
 21
289.432462
 31
0.0
  0
LINE
  5
DE
330
1F
100
AcDbEntity
  8
1
100
AcDbLine
 10
338.71268
 20
289.671073
 30
0.0
 11
338.71268
 21
289.432462
 31
0.0
  0
LINE
  5
DF
330
1F
100
AcDbEntity
  8
1
100
AcDbLine
 10
338.083524
 20
279.407994
 30
0.0
 11
338.441219
 21
282.7781129999999
 31
0.0
  0
LINE
  5
E0
330
1F
100
AcDbEntity
  8
1
100
AcDbLine
 10
338.083524
 20
279.407994
 30
0.0
 11
328.707868
 21
279.407994
 31
0.0
  0
LINE
  5
E1
330
1F
100
AcDbEntity
  8
1
100
AcDbLine
 10
338.754842
 20
292.4680850000001
 30
0.0
 11
338.754842
 21
289.670337
 31
0.0
  0
LINE
  5
E4
330
1F
100
AcDbEntity
  8
80
100
AcDbLine
 10
275.404416
 20
288.907994
 30
0.0
 11
273.405268
 21
288.907994
 31
0.0
  0
LINE
  5
117
330
1F
100
AcDbEntity
  8
NOCUT
100
AcDbLine
 10
274.404842
 20
301.407994
 30
0.0
 11
274.404842
 21
305.907994
 31
0.0
  0
LINE
  5
118
330
1F
100
AcDbEntity
  8
NOCUT
100
AcDbLine
 10
274.404842
 20
305.907994
 30
0.0
 11
274.904842
 21
306.407994
 31
0.0
  0
LINE
  5
119
330
1F
100
AcDbEntity
  8
NOCUT
100
AcDbLine
 10
279.404842
 20
306.407994
 30
0.0
 11
282.71855
 21
303.094285
 31
0.0
  0
LINE
  5
11A
330
1F
100
AcDbEntity
  8
NOCUT
100
AcDbLine
 10
294.032259
 20
298.407994
 30
0.0
 11
338.502511
 21
298.407994
 31
0.0
  0
LINE
  5
11B
330
1F
100
AcDbEntity
  8
NOCUT
100
AcDbLine
 10
338.502511
 20
298.407994
 30
0.0
 11
338.754842
 21
292.678321
 31
0.0
  0
LINE
  5
11C
330
1F
100
AcDbEntity
  8
NOCUT
100
AcDbLine
 10
338.754842
 20
292.678321
 30
0.0
 11
338.754842
 21
288.907994
 31
0.0
  0
LINE
  5
11D
330
1F
100
AcDbEntity
  8
NOCUT
100
AcDbLine
 10
218.404842
 20
299.407994
 30
0.0
 11
220.404842
 21
301.407994
 31
0.0
  0
LINE
  5
11E
330
1F
100
AcDbEntity
  8
NOCUT
100
AcDbLine
 10
274.404842
 20
301.407994
 30
0.0
 11
220.404842
 21
301.407994
 31
0.0
  0
LINE
  5
11F
330
1F
100
AcDbEntity
  8
NOCUT
100
AcDbLine
 10
279.404842
 20
306.407994
 30
0.0
 11
274.904842
 21
306.407994
 31
0.0
  0
LINE
  5
120
330
1F
100
AcDbEntity
  8
NOCUT
100
AcDbLine
 10
218.404842
 20
299.407994
 30
0.0
 11
218.404842
 21
288.907994
 31
0.0
  0
LINE
  5
121
330
1F
100
AcDbEntity
  8
NOCUT
100
AcDbLine
 10
338.754842
 20
288.907994
 30
0.0
 11
218.404842
 21
288.907994
 31
0.0
  0
ARC
  5
12A
330
1F
100
AcDbEntity
  8
1
100
AcDbCircle
 10
336.096261
 20
286.441244
 30
0.0
 40
1.1
100
AcDbArc
 50
75.0
 51
345.0
  0
CIRCLE
  5
12B
330
1F
100
AcDbEntity
  8
1
100
AcDbCircle
 10
336.096261
 20
286.441244
 30
0.0
 40
0.7000000000000009
  0
ARC
  5
12C
330
1F
100
AcDbEntity
  8
1
100
AcDbCircle
 10
294.032259
 20
263.407994
 30
0.0
 40
16.0
100
AcDbArc
 50
115.387905
 51
135.0
  0
ARC
  5
12D
330
1F
100
AcDbEntity
  8
1
100
AcDbCircle
 10
294.032259
 20
314.407994
 30
0.0
 40
16.0
100
AcDbArc
 50
225.0
 51
259.479948
  0
ARC
  5
13C
330
1F
100
AcDbEntity
  8
NOCUT
100
AcDbCircle
 10
294.032259
 20
314.407994
 30
0.0
 40
16.0
100
AcDbArc
 50
225.0
 51
270.0
  0
ELLIPSE
  5
13D
330
1F
100
AcDbEntity
  8
1
100
AcDbEllipse
 10
335.563074
 20
296.300036
 30
0.0
 11
-0.0794580284109327
 21
0.0279307948294027
 31
0.0
210
0.0
220
0.0
230
0.9999999999999998
 40
0.9986169999999997
 41
2.68465598375732
 42
3.523684175935143
  0
ELLIPSE
  5
13E
330
1F
100
AcDbEntity
  8
1
100
AcDbEllipse
 10
335.7313299999999
 20
296.307375
 30
0.0
 11
-0.0794580284109328
 21
0.0279307948294028
 31
0.0
210
0.0
220
0.0
230
0.9999999999999998
 40
0.9986169999999997
 41
5.302649861749068
 42
6.665276829524834
  0
ELLIPSE
  5
13F
330
1F
100
AcDbEntity
  8
1
100
AcDbEllipse
 10
335.818247
 20
295.971018
 30
0.0
 11
-0.4075175559138351
 21
0.1432490771699399
 31
0.0
210
0.0
220
0.0
230
0.9999999999999996
 40
0.9986169999999999
 41
4.362712368112735
 42
5.30264986174886
  0
ELLIPSE
  5
140
330
1F
100
AcDbEntity
  8
1
100
AcDbEllipse
 10
336.038828
 20
296.2392910000001
 30
0.0
 11
-0.0794580284109326
 21
0.0279307948294027
 31
0.0
210
0.0
220
0.0
230
0.9999999999999998
 40
0.9986169999999997
 41
3.00008540033678
 42
4.362712368112839
  0
ELLIPSE
  5
141
330
1F
100
AcDbEntity
  8
1
100
AcDbEllipse
 10
336.188288
 20
296.161606
 30
0.0
 11
-0.0794580284109326
 21
0.0279307948294027
 31
0.0
210
0.0
220
0.0
230
0.9999999999999998
 40
0.9986169999999997
 41
6.141678053926514
 42
6.98070624610416
  0
ELLIPSE
  5
142
330
1F
100
AcDbEntity
  8
1
100
AcDbEllipse
 10
336.513694
 20
296.283649
 30
0.0
 11
-0.4075175559138349
 21
0.1432490771699398
 31
0.0
210
0.0
220
0.0
230
0.9999999999999998
 40
0.9986169999999999
 41
0.6975209389246383
 42
1.637458432560753
  0
ELLIPSE
  5
143
330
1F
100
AcDbEntity
  8
1
100
AcDbEllipse
 10
336.420644
 20
295.949089
 30
0.0
 11
-0.0794580284109327
 21
0.0279307948294027
 31
0.0
210
0.0
220
0.0
230
0.9999999999999998
 40
0.9986169999999997
 41
1.637458432560715
 42
2.476486624738525
  0
ELLIPSE
  5
144
330
1F
100
AcDbEntity
  8
1
100
AcDbEllipse
 10
336.51126
 20
295.807196
 30
0.0
 11
-0.0794580284109328
 21
0.0279307948294028
 31
0.0
210
0.0
220
0.0
230
0.9999999999999998
 40
0.9986169999999997
 41
4.255452310552355
 42
5.6180792783283
  0
ELLIPSE
  5
145
330
1F
100
AcDbEntity
  8
1
100
AcDbEllipse
 10
336.263176
 20
295.564079
 30
0.0
 11
-0.4075175559138351
 21
0.1432490771699399
 31
0.0
210
0.0
220
0.0
230
0.9999999999999996
 40
0.9986169999999999
 41
3.315514816916148
 42
4.255452310552268
  0
ELLIPSE
  5
146
330
1F
100
AcDbEntity
  8
1
100
AcDbEllipse
 10
336.606214
 20
295.507191
 30
0.0
 11
-0.0794580284109326
 21
0.0279307948294027
 31
0.0
210
0.0
220
0.0
230
0.9999999999999998
 40
0.9986169999999997
 41
1.952887849140156
 42
3.315514816916163
  0
ELLIPSE
  5
147
330
1F
100
AcDbEntity
  8
1
100
AcDbEllipse
 10
336.613706
 20
295.339111
 30
0.0
 11
-0.0794580284109326
 21
0.0279307948294027
 31
0.0
210
0.0
220
0.0
230
0.9999999999999998
 40
0.9986169999999997
 41
5.094480502730027
 42
5.933508694907687
  0
ELLIPSE
  5
148
330
1F
100
AcDbEntity
  8
1
100
AcDbEllipse
 10
336.88246
 20
295.118535
 30
0.0
 11
-0.4075175559138349
 21
0.1432490771699398
 31
0.0
210
0.0
220
0.0
230
0.9999999999999998
 40
0.9986169999999999
 41
5.933508694907647
 42
6.873446188543749
  0
ELLIPSE
  5
149
330
1F
100
AcDbEntity
  8
1
100
AcDbEllipse
 10
336.545815
 20
295.032003
 30
0.0
 11
-0.0794580284109327
 21
0.0279307948294027
 31
0.0
210
0.0
220
0.0
230
0.9999999999999998
 40
0.9986169999999997
 41
0.590260881364184
 42
1.429289073541776
  0
ELLIPSE
  5
14A
330
1F
100
AcDbEntity
  8
1
100
AcDbEllipse
 10
336.468175
 20
294.882771
 30
0.0
 11
-0.0794580284109328
 21
0.0279307948294028
 31
0.0
210
0.0
220
0.0
230
0.9999999999999998
 40
0.9986169999999997
 41
3.208254759355697
 42
4.570881727131575
  0
ELLIPSE
  5
14B
330
1F
100
AcDbEntity
  8
1
100
AcDbEllipse
 10
336.133173
 20
294.976011
 30
0.0
 11
-0.4075175559138351
 21
0.1432490771699399
 31
0.0
210
0.0
220
0.0
230
0.9999999999999996
 40
0.9986169999999999
 41
2.268317265719562
 42
3.208254759355653
  0
ELLIPSE
  5
14C
330
1F
100
AcDbEntity
  8
1
100
AcDbEllipse
 10
336.25563
 20
294.65085
 30
0.0
 11
-0.0794580284109326
 21
0.0279307948294027
 31
0.0
210
0.0
220
0.0
230
0.9999999999999998
 40
0.9986169999999997
 41
0.905690297943576
 42
2.26831726571953
  0
ELLIPSE
  5
14D
330
1F
100
AcDbEntity
  8
1
100
AcDbEllipse
 10
336.113662
 20
294.560455
 30
0.0
 11
-0.0794580284109326
 21
0.0279307948294027
 31
0.0
210
0.0
220
0.0
230
0.9999999999999998
 40
0.9986169999999997
 41
4.047282951533317
 42
4.886311143711051
  0
ELLIPSE
  5
14E
330
1F
100
AcDbEntity
  8
1
100
AcDbEllipse
 10
336.057011
 20
294.217836
 30
0.0
 11
-0.4075175559138349
 21
0.1432490771699398
 31
0.0
210
0.0
220
0.0
230
0.9999999999999998
 40
0.9986169999999999
 41
4.886311143711054
 42
5.826248637347169
  0
ELLIPSE
  5
14F
330
1F
100
AcDbEntity
  8
1
100
AcDbEllipse
 10
335.813415
 20
294.465863
 30
0.0
 11
-0.0794580284109327
 21
0.0279307948294027
 31
0.0
210
0.0
220
0.0
230
0.9999999999999998
 40
0.9986169999999997
 41
5.826248637347152
 42
6.665276829524858
  0
ELLIPSE
  5
150
330
1F
100
AcDbEntity
  8
1
100
AcDbEllipse
 10
335.645159
 20
294.458525
 30
0.0
 11
-0.0794580284109328
 21
0.0279307948294028
 31
0.0
210
0.0
220
0.0
230
0.9999999999999998
 40
0.9986169999999997
 41
2.161057208159228
 42
3.523684175935041
  0
ELLIPSE
  5
151
330
1F
100
AcDbEntity
  8
1
100
AcDbEllipse
 10
335.558242
 20
294.794882
 30
0.0
 11
-0.4075175559138351
 21
0.1432490771699399
 31
0.0
210
0.0
220
0.0
230
0.9999999999999996
 40
0.9986169999999999
 41
1.221119714522939
 42
2.161057208159053
  0
ELLIPSE
  5
152
330
1F
100
AcDbEntity
  8
1
100
AcDbEllipse
 10
335.337661
 20
294.526609
 30
0.0
 11
-0.0794580284109326
 21
0.0279307948294027
 31
0.0
210
0.0
220
0.0
230
0.9999999999999998
 40
0.9986169999999997
 41
6.141678053926588
 42
7.504305021702581
  0
ELLIPSE
  5
153
330
1F
100
AcDbEntity
  8
1
100
AcDbEllipse
 10
335.188201
 20
294.604294
 30
0.0
 11
-0.0794580284109326
 21
0.0279307948294027
 31
0.0
210
0.0
220
0.0
230
0.9999999999999998
 40
0.9986169999999997
 41
3.00008540033668
 42
3.839113592514281
  0
ELLIPSE
  5
154
330
1F
100
AcDbEntity
  8
1
100
AcDbEllipse
 10
334.862796
 20
294.482251
 30
0.0
 11
-0.4075175559138349
 21
0.1432490771699398
 31
0.0
210
0.0
220
0.0
230
0.9999999999999998
 40
0.9986169999999999
 41
3.839113592514468
 42
4.779051086150561
  0
ELLIPSE
  5
155
330
1F
100
AcDbEntity
  8
1
100
AcDbEllipse
 10
334.955846
 20
294.81681
 30
0.0
 11
-0.0794580284109327
 21
0.0279307948294027
 31
0.0
210
0.0
220
0.0
230
0.9999999999999998
 40
0.9986169999999997
 41
4.779051086150582
 42
5.618079278328286
  0
ELLIPSE
  5
156
330
1F
100
AcDbEntity
  8
1
100
AcDbEllipse
 10
334.865229
 20
294.9587029999999
 30
0.0
 11
-0.0794580284109328
 21
0.0279307948294028
 31
0.0
210
0.0
220
0.0
230
0.9999999999999998
 40
0.9986169999999997
 41
1.1138596569626
 42
2.476486624738625
  0
ELLIPSE
  5
157
330
1F
100
AcDbEntity
  8
1
100
AcDbEllipse
 10
335.113314
 20
295.201821
 30
0.0
 11
-0.4075175559138351
 21
0.1432490771699399
 31
0.0
210
0.0
220
0.0
230
0.9999999999999996
 40
0.9986169999999999
 41
0.1739221633263691
 42
1.113859656962454
  0
ELLIPSE
  5
158
330
1F
100
AcDbEntity
  8
1
100
AcDbEllipse
 10
334.770276
 20
295.258708
 30
0.0
 11
-0.0794580284109326
 21
0.0279307948294027
 31
0.0
210
0.0
220
0.0
230
0.9999999999999998
 40
0.9986169999999997
 41
5.094480502729838
 42
6.457107470505945
  0
ELLIPSE
  5
159
330
1F
100
AcDbEntity
  8
1
100
AcDbEllipse
 10
334.762783
 20
295.426789
 30
0.0
 11
-0.0794580284109326
 21
0.0279307948294027
 31
0.0
210
0.0
220
0.0
230
0.9999999999999998
 40
0.9986169999999997
 41
1.952887849140281
 42
2.791916041317945
  0
ELLIPSE
  5
15A
330
1F
100
AcDbEntity
  8
1
100
AcDbEllipse
 10
334.49403
 20
295.647365
 30
0.0
 11
-0.4075175559138349
 21
0.1432490771699398
 31
0.0
210
0.0
220
0.0
230
0.9999999999999998
 40
0.9986169999999999
 41
2.791916041317858
 42
3.731853534953957
  0
ELLIPSE
  5
15B
330
1F
100
AcDbEntity
  8
1
100
AcDbEllipse
 10
335.688245
 20
295.38295
 30
0.0
 11
1.08492316989428
 21
-0.3813682150186923
 31
0.0
210
0.0
220
0.0
230
0.9999999999999998
 40
0.9986169999999997
 41
0.0
 42
6.283185307179585
  0
ELLIPSE
  5
15C
330
1F
100
AcDbEntity
  8
1
100
AcDbEllipse
 10
335.693032
 20
295.39657
 30
0.0
 11
1.650970041143471
 21
-0.5803429358980104
 31
0.0
210
0.0
220
0.0
230
0.9999999999999998
 40
0.9986169999999999
 41
2.738286252944956
 42
3.141686341718184
  0
ELLIPSE
  5
15D
330
1F
100
AcDbEntity
  8
1
100
AcDbEllipse
 10
335.693032
 20
295.39657
 30
0.0
 11
1.650970041143471
 21
-0.5803429358980104
 31
0.0
210
0.0
220
0.0
230
0.9999999999999998
 40
0.9986169999999999
 41
0.0
 42
2.738285992692068
  0
ELLIPSE
  5
15E
330
1F
100
AcDbEntity
  8
1
100
AcDbEllipse
 10
333.272238
 20
290.446226
 30
0.0
 11
-1.855231172015303
 21
-0.0891966778569723
 31
0.0
210
0.0
220
0.0
230
1.0
 40
0.221493
 41
1.819283941791949
 42
4.457769740029526
  0
ELLIPSE
  5
15F
330
1F
100
AcDbEntity
  8
1
100
AcDbEllipse
 10
272.463981
 20
288.907994
 30
0.0
 11
202.6378382161389
 21
9.26450785584152
 31
0.0
210
0.0
220
0.0
230
1.0
 40
0.010374
 41
5.019220354024535
 42
5.038262275195636
  0
ELLIPSE
  5
160
330
1F
100
AcDbEntity
  8
1
100
AcDbEllipse
 10
333.276044
 20
292.768778
 30
0.0
 11
-1.03775259729018
 21
0.3647869882787542
 31
0.0
210
0.0
220
0.0
230
1.0
 40
0.9986169999999999
 41
2.789742606356782
 42
3.003700138744401
  0
ELLIPSE
  5
161
330
1F
100
AcDbEntity
  8
1
100
AcDbEllipse
 10
333.315798
 20
292.88187
 30
0.0
 11
-1.03775259729018
 21
0.3647869882787542
 31
0.0
210
0.0
220
0.0
230
1.0
 40
0.9986169999999999
 41
0.0617470360453942
 42
1.952887366749438
  0
ELLIPSE
  5
162
330
1F
100
AcDbEntity
  8
1
100
AcDbEllipse
 10
333.315798
 20
292.88187
 30
0.0
 11
-1.03775259729018
 21
0.3647869882787542
 31
0.0
210
0.0
220
0.0
230
1.0
 40
0.9986169999999999
 41
1.952888276015086
 42
2.882603670849408
  0
ELLIPSE
  5
163
330
1F
100
AcDbEntity
  8
1
100
AcDbEllipse
 10
333.276044
 20
292.768778
 30
0.0
 11
-1.03775259729018
 21
0.3647869882787542
 31
0.0
210
0.0
220
0.0
230
1.0
 40
0.9986169999999999
 41
5.608353607745564
 42
5.836666734888786
  0
ELLIPSE
  5
164
330
1F
100
AcDbEntity
  8
1
100
AcDbEllipse
 10
333.139548
 20
304.066496
 30
0.0
 11
11.886984296233
 21
-4.178469138465673
 31
0.0
210
0.0
220
0.0
230
1.0
 40
0.9986169999999999
 41
4.784704674658804
 42
4.974782789751712
  0
ELLIPSE
  5
165
330
1F
100
AcDbEntity
  8
1
100
AcDbEllipse
 10
333.270813
 20
292.753897
 30
0.0
 11
1.037752597290181
 21
-0.3647869882787493
 31
0.0
210
0.0
220
0.0
230
1.0
 40
0.9986169999999999
 41
5.878433066816099
 42
5.93133525994657
  0
ELLIPSE
  5
166
330
1F
100
AcDbEntity
  8
1
100
AcDbEllipse
 10
333.0188
 20
288.907994
 30
0.0
 11
0.3510045438842685
 21
-9.499871200720294
 31
0.0
210
0.0
220
0.0
230
1.0
 40
0.140936
 41
3.233283262360921
 42
3.257652623386483
  0
ELLIPSE
  5
167
330
1F
100
AcDbEntity
  8
1
100
AcDbEllipse
 10
334.688178
 20
288.907994
 30
0.0
 11
16.28680307099378
 21
-9.372436691259027
 31
0.0
210
0.0
220
0.0
230
0.9999999999999998
 40
0.095267
 41
4.041794442354116
 42
4.273120563800306
  0
ELLIPSE
  5
168
330
1F
100
AcDbEntity
  8
1
100
AcDbEllipse
 10
297.002725
 20
270.185783
 30
0.0
 11
-20.87434187478507
 21
4.801556641457753
 31
0.0
210
0.0
220
0.0
230
1.0
 40
0.7344960000000001
 41
6.178370392519429
 42
6.215876536309562
  0
ELLIPSE
  5
169
330
1F
100
AcDbEntity
  8
1
100
AcDbEllipse
 10
335.70045
 20
295.417671
 30
0.0
 11
-1.650970041143468
 21
0.5803429358980181
 31
0.0
210
0.0
220
0.0
230
1.0
 40
0.9986169999999999
 41
3.141587919873801
 42
5.879878490359357
  0
ELLIPSE
  5
16A
330
1F
100
AcDbEntity
  8
1
100
AcDbEllipse
 10
334.830675
 20
295.733897
 30
0.0
 11
-0.0794580284109327
 21
0.0279307948294027
 31
0.0
210
0.0
220
0.0
230
0.9999999999999998
 40
0.9986169999999997
 41
3.731853534953988
 42
4.570881727131665
  0
ELLIPSE
  5
16B
330
1F
100
AcDbEntity
  8
1
100
AcDbEllipse
 10
334.908314
 20
295.883128
 30
0.0
 11
-0.0794580284109328
 21
0.0279307948294028
 31
0.0
210
0.0
220
0.0
230
0.9999999999999998
 40
0.9986169999999997
 41
0.0666621057659683
 42
1.429289073541955
  0
ELLIPSE
  5
16C
330
1F
100
AcDbEntity
  8
1
100
AcDbEllipse
 10
335.243316
 20
295.789889
 30
0.0
 11
-0.4075175559138351
 21
0.1432490771699399
 31
0.0
210
0.0
220
0.0
230
0.9999999999999996
 40
0.9986169999999999
 41
5.409909919309356
 42
6.349847412945447
  0
ELLIPSE
  5
16D
330
1F
100
AcDbEntity
  8
1
100
AcDbEllipse
 10
335.120859
 20
296.115049
 30
0.0
 11
-0.0794580284109326
 21
0.0279307948294027
 31
0.0
210
0.0
220
0.0
230
0.9999999999999998
 40
0.9986169999999997
 41
4.047282951533368
 42
5.409909919309312
  0
ELLIPSE
  5
16E
330
1F
100
AcDbEntity
  8
1
100
AcDbEllipse
 10
335.262827
 20
296.205445
 30
0.0
 11
-0.0794580284109326
 21
0.0279307948294027
 31
0.0
210
0.0
220
0.0
230
0.9999999999999998
 40
0.9986169999999997
 41
0.9056902979435644
 42
1.74471849012134
  0
ELLIPSE
  5
16F
330
1F
100
AcDbEntity
  8
1
100
AcDbEllipse
 10
335.319479
 20
296.548064
 30
0.0
 11
-0.4075175559138349
 21
0.1432490771699398
 31
0.0
210
0.0
220
0.0
230
0.9999999999999998
 40
0.9986169999999999
 41
1.744718490121244
 42
2.684655983757369
  0
ELLIPSE
  5
170
330
1F
100
AcDbEntity
  8
1
100
AcDbEllipse
 10
335.790682
 20
295.507
 30
0.0
 11
1.67902446144406
 21
-0.5902045228659264
 31
0.0
210
0.0
220
0.0
230
0.9999999999999998
 40
0.9986169999999999
 41
5.653880542803982
 42
6.283185307179585
  0
ELLIPSE
  5
171
330
1F
100
AcDbEntity
  8
1
100
AcDbEllipse
 10
335.790682
 20
295.507
 30
0.0
 11
1.67902446144406
 21
-0.5902045228659264
 31
0.0
210
0.0
220
0.0
230
0.9999999999999998
 40
0.9986169999999999
 41
0.0
 42
1.666708275319178
  0
ELLIPSE
  5
172
330
1F
100
AcDbEntity
  8
1
100
AcDbEllipse
 10
335.80001
 20
295.533537
 30
0.0
 11
1.652572938396774
 21
-0.5809063804637762
 31
0.0
210
0.0
220
0.0
230
1.0
 40
0.9986169999999999
 41
5.899022697473665
 42
6.283185307179585
  0
ELLIPSE
  5
173
330
1F
100
AcDbEntity
  8
1
100
AcDbEllipse
 10
335.80001
 20
295.533537
 30
0.0
 11
1.652572938396774
 21
-0.5809063804637762
 31
0.0
210
0.0
220
0.0
230
1.0
 40
0.9986169999999999
 41
0.0
 42
1.474776645973892
  0
ELLIPSE
  5
174
330
1F
100
AcDbEntity
  8
1
100
AcDbEllipse
 10
333.361473
 20
292.825303
 30
0.0
 11
0.9544181515524881
 21
1.042471549172556
 31
0.0
210
0.0
220
0.0
230
1.0
 40
0.014608
 41
0.9817638393954572
 42
1.536574872330124
  0
ELLIPSE
  5
175
330
1F
100
AcDbEntity
  8
1
100
AcDbEllipse
 10
333.136701
 20
297.867844
 30
0.0
 11
1.042970518286589
 21
-0.9548749747484446
 31
0.0
210
0.0
220
0.0
230
0.9999999999999998
 40
0.034202
 41
1.030578139247855
 42
1.58538917226399
  0
ELLIPSE
  5
176
330
1F
100
AcDbEntity
  8
1
100
AcDbEllipse
 10
338.184496
 20
298.088006
 30
0.0
 11
0.9544181510463388
 21
1.042471548622299
 31
0.0
210
0.0
220
0.0
230
1.0
 40
0.014608
 41
1.536574872231313
 42
2.091385905449588
  0
ELLIPSE
  5
177
330
1F
100
AcDbEntity
  8
1
100
AcDbEllipse
 10
338.409268
 20
293.045465
 30
0.0
 11
1.042970518288949
 21
-0.954874974745828
 31
0.0
210
0.0
220
0.0
230
1.0
 40
0.034202
 41
1.585389172190561
 42
2.140200205210319
  0
ELLIPSE
  5
178
330
1F
100
AcDbEntity
  8
1
100
AcDbEllipse
 10
335.787805
 20
295.498816
 30
0.0
 11
-1.768896472653715
 21
0.6217960027478759
 31
0.0
210
0.0
220
0.0
230
0.9999999999999996
 40
0.9986169999999999
 41
0.0
 42
6.283185307179585
  0
ELLIPSE
  5
179
330
1F
100
AcDbEntity
  8
1
100
AcDbEllipse
 10
333.270813
 20
292.753897
 30
0.0
 11
1.037752597290181
 21
-0.3647869882787493
 31
0.0
210
0.0
220
0.0
230
1.0
 40
0.9986169999999999
 41
2.695074081298979
 42
4.235763652100808
  0
ELLIPSE
  5
17A
330
1F
100
AcDbEntity
  8
1
100
AcDbEllipse
 10
332.710666
 20
288.908001
 30
0.0
 11
0.4006764576114614
 21
-9.499989715511144
 31
0.0
210
0.0
220
0.0
230
1.0
 40
0.019519
 41
3.261623670190218
 42
3.293321307106084
  0
ELLIPSE
  5
17B
330
1F
100
AcDbEntity
  8
1
100
AcDbEllipse
 10
276.277229
 20
288.901317
 30
0.0
 11
544.9676493006376
 21
-0.4709220397826248
 31
0.0
210
0.0
220
0.0
230
0.9999999999999998
 40
0.017423
 41
1.46785406079649
 42
1.471291529458274
  0
ELLIPSE
  5
17C
330
1F
100
AcDbEntity
  8
1
100
AcDbEllipse
 10
338.509028
 20
292.179191
 30
0.0
 11
0.0003755628771336
 21
0.5004820718028926
 31
0.0
210
0.0
220
0.0
230
0.9999999999999998
 40
0.140044
 41
3.196620263475866
 42
4.767416590273641
  0
ELLIPSE
  5
17D
330
1F
100
AcDbEntity
  8
1
100
AcDbEllipse
 10
316.407237
 20
288.907994
 30
0.0
 11
61.71818921548894
 21
-6.439651928973601
 31
0.0
210
0.0
220
0.0
230
1.0
 40
0.113165
 41
4.353237059814236
 42
4.419747098234608
  0
ELLIPSE
  5
17E
330
1F
100
AcDbEntity
  8
1
100
AcDbEllipse
 10
339.091827
 20
288.907994
 30
0.0
 11
1.028268309493316
 21
9.498925599507405
 31
0.0
210
0.0
220
0.0
230
0.9999999999999998
 40
0.138944
 41
1.926603535181431
 42
3.15663239565108
  0
ELLIPSE
  5
17F
330
1F
100
AcDbEntity
  8
1
100
AcDbEllipse
 10
338.754842
 20
288.907994
 30
0.0
 11
0.0
 21
9.500000000162733
 31
0.0
210
0.0
220
0.0
230
1.0
 40
0.140541
 41
1.468043111019201
 42
1.911563793114023
  0
ELLIPSE
  5
180
330
1F
100
AcDbEntity
  8
1
100
AcDbEllipse
 10
333.13083
 20
304.041695
 30
0.0
 11
-11.88698429623298
 21
4.178469138465728
 31
0.0
210
0.0
220
0.0
230
0.9999999999999996
 40
0.9986169999999999
 41
1.665732725127541
 42
1.95288784914019
  0
ELLIPSE
  5
181
330
1F
100
AcDbEntity
  8
1
100
AcDbEllipse
 10
297.904842
 20
281.537306
 30
0.0
 11
-1.238591112680389
 21
-5.870765883220789
 31
0.0
210
0.0
220
0.0
230
1.0
 40
0.2234679999999999
 41
4.294005971198453
 42
5.033501431775637
  0
ELLIPSE
  5
182
330
1F
100
AcDbEntity
  8
1
100
AcDbEllipse
 10
338.215123
 20
283.534522
 30
0.0
 11
0.0323262014611519
 21
0.2994966855051547
 31
0.0
210
0.0
220
0.0
230
0.9999999999999998
 40
0.139171
 41
1.583568179247068
 42
3.154364506042806
  0
ELLIPSE
  5
183
330
1F
100
AcDbEntity
  8
1
100
AcDbEllipse
 10
338.448463
 20
288.922876
 30
0.0
 11
0.0001054973293696
 21
-0.3000466005998865
 31
0.0
210
0.0
220
0.0
230
1.0
 40
0.140519
 41
3.1390904759697
 42
4.709886802762974
  0
SPLINE
  5
189
330
1F
100
AcDbEntity
  8
1
100
AcDbSpline
210
0.0
220
0.0
230
1.0
 70
     8
 71
     3
 72
    10
 73
     6
 74
     0
 42
0.000000001
 43
0.0000000001
 40
0.0
 40
0.0
 40
0.0
 40
0.0
 40
0.5
 40
0.5
 40
1.0
 40
1.0
 40
1.0
 40
1.0
 10
333.7204083271234
 20
290.8663642989507
 30
0.0
 10
333.6112008160529
 20
290.8674064229835
 30
0.0
 10
333.5011057985457
 20
290.8683651316106
 30
0.0
 10
333.2792363625533
 20
290.8704213199453
 30
0.0
 10
333.167461510864
 20
290.871517525683
 30
0.0
 10
333.0548419452958
 20
290.8727464014469
 30
0.0
  0
SPLINE
  5
18A
330
1F
100
AcDbEntity
  8
1
100
AcDbSpline
210
0.0
220
0.0
230
1.0
 70
     8
 71
     3
 72
    10
 73
     6
 74
     0
 42
0.000000001
 43
0.0000000001
 40
0.0
 40
0.0
 40
0.0
 40
0.0
 40
0.5
 40
0.5
 40
1.0
 40
1.0
 40
1.0
 40
1.0
 10
333.0548419452957
 20
290.0355926416355
 30
0.0
 10
333.1722864959373
 20
290.0351078589833
 30
0.0
 10
333.2887439725208
 20
290.037770107813
 30
0.0
 10
333.5196999029223
 20
290.0492163138885
 30
0.0
 10
333.634198913876
 20
290.0579999974395
 30
0.0
 10
333.7476598568289
 20
290.0698635531142
 30
0.0
  0
SPLINE
  5
18B
330
1F
100
AcDbEntity
  8
1
100
AcDbSpline
210
0.0
220
0.0
230
1.0
 70
    24
 71
     3
 72
    12
 73
     8
 74
     0
 42
0.000000001
 43
0.0000000001
 40
0.0
 40
0.0
 40
0.0
 40
0.0
 40
0.4261665929181017
 40
0.4261665929181017
 40
0.8523331858362032
 40
0.8523331858362032
 40
1.0
 40
1.0
 40
1.0
 40
1.0
 10
333.0548419452957
 20
290.8727464014486
 30
0.0
 10
333.0548419452957
 20
290.6872852853009
 30
0.0
 10
333.0548419452958
 20
290.5275825102533
 30
0.0
 10
333.0548419452957
 20
290.2656672766038
 30
0.0
 10
333.0548419452957
 20
290.1634609835373
 30
0.0
 10
333.0548419452957
 20
290.0671276841155
 30
0.0
 10
333.0548419452957
 20
290.0460197124118
 30
0.0
 10
333.0548419452957
 20
290.0286254014454
 30
0.0
  0
SPLINE
  5
18C
330
1F
100
AcDbEntity
  8
1
100
AcDbSpline
210
0.0
220
0.0
230
1.0
 70
     8
 71
     3
 72
    18
 73
    14
 74
     0
 42
0.000000001
 43
0.0000000001
 40
0.0
 40
0.0
 40
0.0
 40
0.0
 40
0.2499999999999966
 40
0.2499999999999966
 40
0.3749999999999971
 40
0.3749999999999971
 40
0.4999999999999976
 40
0.4999999999999976
 40
0.7499999999999988
 40
0.7499999999999988
 40
0.8749999999999994
 40
0.8749999999999994
 40
1.0
 40
1.0
 40
1.0
 40
1.0
 10
330.3836343607275
 20
291.7527088750068
 30
0.0
 10
330.6332301963167
 20
291.6562528660457
 30
0.0
 10
330.8783095767942
 20
291.5674135072137
 30
0.0
 10
331.237146695905
 20
291.4437295608108
 30
0.0
 10
331.3552945884447
 20
291.4040956274038
 30
0.0
 10
331.5882779312398
 20
291.3276779272613
 30
0.0
 10
331.7031241243949
 20
291.2908964057248
 30
0.0
 10
332.0417389165108
 20
291.1842365335143
 30
0.0
 10
332.2597293807323
 20
291.1180822649773
 30
0.0
 10
332.5711032689755
 20
291.0235092881653
 30
0.0
 10
332.6722762667051
 20
290.9927539582204
 30
0.0
 10
332.8684642205258
 20
290.9322019091129
 30
0.0
 10
332.9634808688771
 20
290.9024059812877
 30
0.0
 10
333.0548419452958
 20
290.8727464014469
 30
0.0
  0
SPLINE
  5
18D
330
1F
100
AcDbEntity
  8
1
100
AcDbSpline
210
0.0
220
0.0
230
1.0
 70
     8
 71
     3
 72
    16
 73
    12
 74
     0
 42
0.000000001
 43
0.0000000001
 40
0.0
 40
0.0
 40
0.0
 40
0.0
 40
0.2500000000000094
 40
0.2500000000000094
 40
0.5000000000000189
 40
0.5000000000000189
 40
0.6250000000000238
 40
0.6250000000000238
 40
0.7500000000000285
 40
0.7500000000000285
 40
1.0
 40
1.0
 40
1.0
 40
1.0
 10
334.0812642102483
 20
292.0104924128764
 30
0.0
 10
334.0535708038427
 20
291.9803620483059
 30
0.0
 10
334.0245003651617
 20
291.9520239920663
 30
0.0
 10
333.9636630511803
 20
291.8987290350343
 30
0.0
 10
333.9318961721521
 20
291.8737733300497
 30
0.0
 10
333.8821723274668
 20
291.8388586260394
 30
0.0
 10
333.865300731392
 20
291.8276786682892
 30
0.0
 10
333.8311435099137
 20
291.8063359830825
 30
0.0
 10
333.8138292529645
 20
291.796152948686
 30
0.0
 10
333.7611537751015
 20
291.7670401250313
 30
0.0
 10
333.7250641463895
 20
291.7495395858996
 30
0.0
 10
333.6878867463759
 20
291.7339561083839
 30
0.0
  0
SPLINE
  5
18E
330
1F
100
AcDbEntity
  8
1
100
AcDbSpline
210
0.0
220
0.0
230
1.0
 70
     8
 71
     3
 72
    16
 73
    12
 74
     0
 42
0.000000001
 43
0.0000000001
 40
0.0
 40
0.0
 40
0.0
 40
0.0
 40
0.0625
 40
0.0625
 40
0.125
 40
0.125
 40
0.25
 40
0.25
 40
0.5
 40
0.75
 40
1.0
 40
1.0
 40
1.0
 40
1.0
 10
330.3836343607283
 20
291.7527088750065
 30
0.0
 10
330.4514431335552
 20
291.7377745845284
 30
0.0
 10
330.5194149068946
 20
291.7233835975592
 30
0.0
 10
330.6556856166683
 20
291.695692734995
 30
0.0
 10
330.7240237597676
 20
291.6823858393873
 30
0.0
 10
330.9291450179309
 20
291.6441801521651
 30
0.0
 10
331.0660714213839
 20
291.6209853054563
 30
0.0
 10
331.4773822961185
 20
291.5581691508705
 30
0.0
 10
332.0272133883565
 20
291.4924488150191
 30
0.0
 10
332.8561729045659
 20
291.4475717189242
 30
0.0
 10
333.4116338647364
 20
291.4536508127512
 30
0.0
 10
333.6900824348878
 20
291.4658579619763
 30
0.0
  0
SPLINE
  5
18F
330
1F
100
AcDbEntity
  8
1
100
AcDbSpline
210
0.0
220
0.0
230
1.0
 70
     8
 71
     3
 72
     8
 73
     4
 74
     0
 42
0.000000001
 43
0.0000000001
 40
0.0
 40
0.0
 40
0.0
 40
0.0
 40
1.0
 40
1.0
 40
1.0
 40
1.0
 10
333.6900824349066
 20
291.4658579619771
 30
0.0
 10
333.6933486426018
 20
291.4660011520992
 30
0.0
 10
333.6966153471255
 20
291.4661439976313
 30
0.0
 10
333.6998825489356
 20
291.4662864982556
 30
0.0
  0
SPLINE
  5
190
330
1F
100
AcDbEntity
  8
1
100
AcDbSpline
210
0.0
220
0.0
230
1.0
 70
     8
 71
     3
 72
    25
 73
    21
 74
     0
 42
0.000000001
 43
0.0000000001
 40
0.0
 40
0.0
 40
0.0
 40
0.0
 40
0.1249999999999986
 40
0.1249999999999986
 40
0.2499999999999972
 40
0.2499999999999972
 40
0.3749999999999958
 40
0.3749999999999958
 40
0.4999999999999944
 40
0.4999999999999944
 40
0.5312499999999948
 40
0.5312499999999948
 40
0.5624999999999952
 40
0.6249999999999957
 40
0.6249999999999957
 40
0.7499999999999972
 40
0.7499999999999972
 40
0.8749999999999984
 40
0.8749999999999984
 40
1.0
 40
1.0
 40
1.0
 40
1.0
 10
326.9536548355026
 20
291.489593038246
 30
0.0
 10
327.2050461904215
 20
291.3295506881911
 30
0.0
 10
327.4616139707127
 20
291.1800867068637
 30
0.0
 10
327.9846536952622
 20
290.9019971188745
 30
0.0
 10
328.2511259642332
 20
290.7733707700201
 30
0.0
 10
328.7936986335138
 20
290.5368814410307
 30
0.0
 10
329.069798883744
 20
290.4290172227608
 30
0.0
 10
329.6315199415661
 20
290.2342502558359
 30
0.0
 10
329.9171400852208
 20
290.1473454961821
 30
0.0
 10
330.2801611386763
 20
290.0521396820768
 30
0.0
 10
330.3531403833134
 20
290.033753263178
 30
0.0
 10
330.4992051530488
 20
289.9984540374776
 30
0.0
 10
330.7185205659355
 20
289.9476952290875
 30
0.0
 10
330.9384834590338
 20
289.9034440060658
 30
0.0
 10
331.3792577786724
 20
289.823493748103
 30
0.0
 10
331.6742371685433
 20
289.7815825446262
 30
0.0
 10
332.2664150809166
 20
289.7202195120033
 30
0.0
 10
332.5636136033813
 20
289.7007675613768
 30
0.0
 10
333.1602385241655
 20
289.6844537140636
 30
0.0
 10
333.4596647734763
 20
289.6875903694319
 30
0.0
 10
333.7602349338904
 20
289.7023224144457
 30
0.0
  0
SPLINE
  5
191
330
1F
100
AcDbEntity
  8
1
100
AcDbSpline
210
0.0
220
0.0
230
1.0
 70
     8
 71
     3
 72
    32
 73
    28
 74
     0
 42
0.000000001
 43
0.0000000001
 40
0.0
 40
0.0
 40
0.0
 40
0.0
 40
0.0312499999999985
 40
0.0312499999999985
 40
0.0624999999999969
 40
0.0624999999999969
 40
0.1249999999999971
 40
0.1249999999999971
 40
0.1874999999999973
 40
0.1874999999999973
 40
0.2499999999999976
 40
0.2499999999999976
 40
0.3124999999999977
 40
0.3124999999999977
 40
0.3749999999999979
 40
0.3749999999999979
 40
0.4999999999999984
 40
0.4999999999999984
 40
0.6249999999999988
 40
0.6249999999999988
 40
0.6874999999999991
 40
0.6874999999999991
 40
0.7499999999999993
 40
0.7499999999999993
 40
0.8749999999999996
 40
0.8749999999999996
 40
1.0
 40
1.0
 40
1.0
 40
1.0
 10
333.0548419452958
 20
290.0355926416355
 30
0.0
 10
332.9880167707273
 20
290.033696851697
 30
0.0
 10
332.921234692446
 20
290.032876926282
 30
0.0
 10
332.7877601257963
 20
290.0330645400406
 30
0.0
 10
332.7210676182116
 20
290.0340737352307
 30
0.0
 10
332.5211275509999
 20
290.0395396941812
 30
0.0
 10
332.3880174968277
 20
290.0464266202162
 30
0.0
 10
332.122173861825
 20
290.0657184118257
 30
0.0
 10
331.989440155756
 20
290.0781339978711
 30
0.0
 10
331.724355326465
 20
290.1079507058834
 30
0.0
 10
331.5920041555028
 20
290.1253558958545
 30
0.0
 10
331.3276896169857
 20
290.1648131121216
 30
0.0
 10
331.1957262274088
 20
290.1868669539938
 30
0.0
 10
330.9321924773448
 20
290.2354011733848
 30
0.0
 10
330.8010050471155
 20
290.2618115001189
 30
0.0
 10
330.4091178127795
 20
290.3471649778748
 30
0.0
 10
330.1500764325067
 20
290.4122084347715
 30
0.0
 10
329.6361841325786
 20
290.5577203339109
 30
0.0
 10
329.3813355246471
 20
290.6381969598947
 30
0.0
 10
329.0021737896432
 20
290.7703748279234
 30
0.0
 10
328.8762550907091
 20
290.8163735166611
 30
0.0
 10
328.6264861347439
 20
290.9118245986806
 30
0.0
 10
328.5025107425826
 20
290.9613185448575
 30
0.0
 10
328.1332972683367
 20
291.1150936908214
 30
0.0
 10
327.8907688437787
 20
291.2246561944293
 30
0.0
 10
327.4129387466618
 20
291.4581240177245
 30
0.0
 10
327.1776372029508
 20
291.5820308377836
 30
0.0
 10
326.9459967889717
 20
291.7134204651627
 30
0.0
  0
SPLINE
  5
192
330
1F
100
AcDbEntity
  8
1
100
AcDbSpline
210
0.0
220
0.0
230
1.0
 70
     8
 71
     3
 72
    41
 73
    37
 74
     0
 42
0.000000001
 43
0.0000000001
 40
0.0
 40
0.0
 40
0.0
 40
0.0
 40
0.125000000000012
 40
0.125000000000012
 40
0.2500000000000239
 40
0.2500000000000239
 40
0.3125000000000225
 40
0.3125000000000225
 40
0.375000000000021
 40
0.375000000000021
 40
0.4375000000000195
 40
0.4375000000000195
 40
0.5000000000000182
 40
0.5000000000000182
 40
0.5625000000000167
 40
0.5625000000000167
 40
0.5937500000000191
 40
0.5937500000000191
 40
0.6250000000000214
 40
0.6250000000000214
 40
0.6562500000000237
 40
0.6562500000000237
 40
0.687500000000026
 40
0.687500000000026
 40
0.7500000000000302
 40
0.7500000000000302
 40
0.8125000000000344
 40
0.8125000000000344
 40
0.8437500000000314
 40
0.8437500000000314
 40
0.8750000000000282
 40
0.9062500000000252
 40
0.9062500000000252
 40
0.937500000000022
 40
0.937500000000022
 40
1.0
 40
1.0
 40
1.0
 40
1.0
 10
330.0588632078561
 20
291.839735905215
 30
0.0
 10
330.0203161178032
 20
291.8505957773172
 30
0.0
 10
329.9826470983552
 20
291.8628361808823
 30
0.0
 10
329.9094085765748
 20
291.8905493996315
 30
0.0
 10
329.8738313153406
 20
291.9060107869999
 30
0.0
 10
329.8225123845974
 20
291.9322995841964
 30
0.0
 10
329.8057499964476
 20
291.9415827288862
 30
0.0
 10
329.7730524584607
 20
291.9613912413722
 30
0.0
 10
329.7571088961552
 20
291.9719280454314
 30
0.0
 10
329.7266424687163
 20
291.9942442542577
 30
0.0
 10
329.7120696741572
 20
292.0060477803806
 30
0.0
 10
329.6845873555156
 20
292.0312729662483
 30
0.0
 10
329.6716372290263
 20
292.0447528758795
 30
0.0
 10
329.6484457032325
 20
292.0732370300829
 30
0.0
 10
329.6381344893634
 20
292.0882803015329
 30
0.0
 10
329.6252497144483
 20
292.1124526871982
 30
0.0
 10
329.6213886211185
 20
292.1207802441957
 30
0.0
 10
329.6147144989502
 20
292.1380876865634
 30
0.0
 10
329.6119274289167
 20
292.1470256910607
 30
0.0
 10
329.6077175613151
 20
292.1651947071098
 30
0.0
 10
329.6062754838756
 20
292.1744711140519
 30
0.0
 10
329.6049034643494
 20
292.1934621709093
 30
0.0
 10
329.6049884184802
 20
292.2032614718377
 30
0.0
 10
329.6077659096118
 20
292.2325064408378
 30
0.0
 10
329.6129094014006
 20
292.2519478061572
 30
0.0
 10
329.6300604423994
 20
292.2906242080006
 30
0.0
 10
329.64158795553
 20
292.3088296219173
 30
0.0
 10
329.6624538143091
 20
292.3347738347618
 30
0.0
 10
329.6699338941967
 20
292.3430927582584
 30
0.0
 10
329.6855929863601
 20
292.3589833293261
 30
0.0
 10
329.7020099190535
 20
292.3741986761669
 30
0.0
 10
329.7197134462889
 20
292.3882692963135
 30
0.0
 10
329.7379751991261
 20
292.4018440257864
 30
0.0
 10
329.7473835783371
 20
292.408378982126
 30
0.0
 10
329.7760153987984
 20
292.4271267637878
 30
0.0
 10
329.7957526150661
 20
292.4385768129775
 30
0.0
 10
329.8159754963759
 20
292.4492428876377
 30
0.0
  0
SPLINE
  5
193
330
1F
100
AcDbEntity
  8
1
100
AcDbSpline
210
0.0
220
0.0
230
1.0
 70
     8
 71
     3
 72
    16
 73
    12
 74
     0
 42
0.000000001
 43
0.0000000001
 40
0.0
 40
0.0
 40
0.0
 40
0.0
 40
0.5000000000000031
 40
0.5000000000000031
 40
0.7500000000000047
 40
0.7500000000000047
 40
0.8750000000000055
 40
0.8750000000000055
 40
0.9375000000000028
 40
0.9375000000000028
 40
1.0
 40
1.0
 40
1.0
 40
1.0
 10
296.2690461925094
 20
279.946998133675
 30
0.0
 10
296.532553016319
 20
279.9774091105514
 30
0.0
 10
296.8006188522783
 20
280.0016373717618
 30
0.0
 10
297.2096878250163
 20
280.0264176951178
 30
0.0
 10
297.3472097086677
 20
280.0327575863715
 30
0.0
 10
297.5552951280027
 20
280.0391575014965
 30
0.0
 10
297.624957646648
 20
280.0407728538972
 30
0.0
 10
297.7299119961149
 20
280.0423935439649
 30
0.0
 10
297.7650008841584
 20
280.0427999944885
 30
0.0
 10
297.8350000623759
 20
280.0433401190674
 30
0.0
 10
297.8699470551705
 20
280.0434745760197
 30
0.0
 10
297.9048419452957
 20
280.0434745760197
 30
0.0
  0
SPLINE
  5
194
330
1F
100
AcDbEntity
  8
1
100
AcDbSpline
210
0.0
220
0.0
230
1.0
 70
     8
 71
     3
 72
    26
 73
    22
 74
     0
 42
0.000000001
 43
0.0000000001
 40
0.0
 40
0.0
 40
0.0
 40
0.0
 40
0.0250442180107743
 40
0.0250442180107743
 40
0.1469136907594263
 40
0.1469136907594263
 40
0.2078484271337522
 40
0.2078484271337522
 40
0.2687831635080778
 40
0.2687831635080778
 40
0.3906526362567316
 40
0.3906526362567316
 40
0.5125221090053853
 40
0.5125221090053853
 40
0.634391581754039
 40
0.634391581754039
 40
0.7562610545026926
 40
0.7562610545026926
 40
0.8781305272513463
 40
0.8781305272513463
 40
1.0
 40
1.0
 40
1.0
 40
1.0
 10
309.1797706045865
 20
281.6597464623328
 30
0.0
 10
309.0879175746614
 20
281.6374169138616
 30
0.0
 10
308.996040619706
 20
281.6152699562181
 30
0.0
 10
308.4568932540455
 20
281.486490646587
 30
0.0
 10
308.008915183832
 20
281.3842674389157
 30
0.0
 10
307.3347745250704
 20
281.2391396064382
 30
0.0
 10
307.1096467528553
 20
281.1921130124546
 30
0.0
 10
306.6589012041733
 20
281.100976596336
 30
0.0
 10
306.433265892593
 20
281.0568620785592
 30
0.0
 10
305.7554280823505
 20
280.9289577527332
 30
0.0
 10
305.3022846662639
 20
280.8496305711628
 30
0.0
 10
304.3929423305008
 20
280.7026229043965
 30
0.0
 10
303.9367448031447
 20
280.634932190911
 30
0.0
 10
303.0210139313305
 20
280.5103188284162
 30
0.0
 10
302.5614827192344
 20
280.4533873959305
 30
0.0
 10
301.6390202528292
 20
280.3490859444466
 30
0.0
 10
301.1760911097425
 20
280.3017097780056
 30
0.0
 10
300.246918393233
 20
280.2152112712525
 30
0.0
 10
299.7806765383089
 20
280.1760853122562
 30
0.0
 10
298.8450552682262
 20
280.1048240238227
 30
0.0
 10
298.3756770905559
 20
280.0726869700806
 30
0.0
 10
297.9048419452957
 20
280.0434745760197
 30
0.0
  0
SPLINE
  5
195
330
1F
100
AcDbEntity
  8
1
100
AcDbSpline
210
0.0
220
0.0
230
1.0
 70
     8
 71
     3
 72
    10
 73
     6
 74
     0
 42
0.000000001
 43
0.0000000001
 40
0.0
 40
0.0
 40
0.0
 40
0.0
 40
0.5
 40
0.5
 40
1.0
 40
1.0
 40
1.0
 40
1.0
 10
294.0322589432653
 20
279.80536617813
 30
0.0
 10
294.4028125999722
 20
279.8303582274471
 30
0.0
 10
294.7743705018654
 20
279.8550943608365
 30
0.0
 10
295.5198397997929
 20
279.9027617954311
 30
0.0
 10
295.8937526126099
 20
279.925690092341
 30
0.0
 10
296.2690461925098
 20
279.946998133675
 30
0.0
  0
SPLINE
  5
196
330
1F
100
AcDbEntity
  8
1
100
AcDbSpline
210
0.0
220
0.0
230
1.0
 70
     8
 71
     3
 72
    33
 73
    29
 74
     0
 42
0.000000001
 43
0.0000000001
 40
0.0
 40
0.0
 40
0.0
 40
0.0
 40
0.1249999999999958
 40
0.1249999999999958
 40
0.2499999999999917
 40
0.2499999999999917
 40
0.2812499999999983
 40
0.2812499999999983
 40
0.3125000000000049
 40
0.3125000000000049
 40
0.3750000000000182
 40
0.3750000000000182
 40
0.500000000000029
 40
0.500000000000029
 40
0.531250000000028
 40
0.531250000000028
 40
0.5625000000000269
 40
0.6250000000000393
 40
0.6250000000000393
 40
0.7500000000000502
 40
0.7500000000000502
 40
0.7812500000000427
 40
0.7812500000000427
 40
0.8125000000000349
 40
0.8125000000000349
 40
0.8750000000000191
 40
0.8750000000000191
 40
1.0
 40
1.0
 40
1.0
 40
1.0
 10
333.6878867463759
 20
291.7339561083839
 30
0.0
 10
333.6367419495037
 20
291.7125179822154
 30
0.0
 10
333.584558190023
 20
291.6951140927046
 30
0.0
 10
333.4778129842023
 20
291.6682615825986
 30
0.0
 10
333.4232494206182
 20
291.6588125601684
 30
0.0
 10
333.3532779172417
 20
291.6523811921842
 30
0.0
 10
333.3391834934815
 20
291.6513672595161
 30
0.0
 10
333.3111578653553
 20
291.649909481053
 30
0.0
 10
333.2971845415964
 20
291.6494610239673
 30
0.0
 10
333.2553814719851
 20
291.6489415400396
 30
0.0
 10
333.227668819407
 20
291.6496953414425
 30
0.0
 10
333.1449789455409
 20
291.6551725747374
 30
0.0
 10
333.0904508979043
 20
291.6630929618689
 30
0.0
 10
333.0229391719564
 20
291.6783142479831
 30
0.0
 10
333.0094391401138
 20
291.6816346657777
 30
0.0
 10
332.9827125388204
 20
291.6887576014933
 30
0.0
 10
332.94299546551
 20
291.7001702177509
 30
0.0
 10
332.9043296047832
 20
291.7137136474843
 30
0.0
 10
332.8282595604373
 20
291.7435733179368
 30
0.0
 10
332.7792186481047
 20
291.7671527713433
 30
0.0
 10
332.7197178003689
 20
291.8013625870586
 30
0.0
 10
332.7079084262063
 20
291.8084432582228
 30
0.0
 10
332.6844669134958
 20
291.8230937592896
 30
0.0
 10
332.6728107210544
 20
291.830680257169
 30
0.0
 10
332.6383116354157
 20
291.8540530968326
 30
0.0
 10
332.6159477727987
 20
291.8704381172113
 30
0.0
 10
332.55070042814
 20
291.9219895375682
 30
0.0
 10
332.5096501243992
 20
291.9595322668969
 30
0.0
 10
332.4710271815082
 20
292.000437351958
 30
0.0
  0
SPLINE
  5
197
330
1F
100
AcDbEntity
  8
1
100
AcDbSpline
210
0.0
220
0.0
230
1.0
 70
     8
 71
     3
 72
    29
 73
    25
 74
     0
 42
0.000000001
 43
0.0000000001
 40
0.0
 40
0.0
 40
0.0
 40
0.0
 40
0.1249999999999644
 40
0.1249999999999644
 40
0.1874999999999622
 40
0.1874999999999622
 40
0.24999999999996
 40
0.24999999999996
 40
0.3749999999999594
 40
0.3749999999999594
 40
0.4374999999999478
 40
0.4374999999999478
 40
0.4999999999999363
 40
0.4999999999999363
 40
0.6249999999999301
 40
0.6249999999999301
 40
0.6874999999999393
 40
0.6874999999999393
 40
0.7499999999999487
 40
0.812499999999958
 40
0.812499999999958
 40
0.8749999999999674
 40
0.8749999999999674
 40
1.0
 40
1.0
 40
1.0
 40
1.0
 10
332.8653947443902
 20
298.5529123570684
 30
0.0
 10
332.8398349808088
 20
298.5517975553257
 30
0.0
 10
332.8148302562044
 20
298.548123709921
 30
0.0
 10
332.7781075642004
 20
298.5389964375918
 30
0.0
 10
332.7659984630892
 20
298.5353463583369
 30
0.0
 10
332.7420480730815
 20
298.5268114340182
 30
0.0
 10
332.7301942651359
 20
298.5219118398399
 30
0.0
 10
332.6958026580967
 20
298.5056804705248
 30
0.0
 10
332.674157702601
 20
298.4927482013737
 30
0.0
 10
332.6435879119448
 20
298.4702264314575
 30
0.0
 10
332.6336697413346
 20
298.4621511978423
 30
0.0
 10
332.6147359043143
 20
298.4451337611401
 30
0.0
 10
332.605748273158
 20
298.4362265850691
 30
0.0
 10
332.5801825218695
 20
298.4083435363544
 30
0.0
 10
332.5649877609277
 20
298.3882176017607
 30
0.0
 10
332.5450588823464
 20
298.3556483133021
 30
0.0
 10
332.5389295706422
 20
298.3444320210241
 30
0.0
 10
332.527894464907
 20
298.3216779691537
 30
0.0
 10
332.518014448563
 20
298.2984941908985
 30
0.0
 10
332.5104262649264
 20
298.2744577851397
 30
0.0
 10
332.5040093800235
 20
298.2499856226559
 30
0.0
 10
332.501378407533
 20
298.2374725803965
 30
0.0
 10
332.4954047104162
 20
298.1997227536597
 30
0.0
 10
332.4939483405038
 20
298.1743765118046
 30
0.0
 10
332.495086377396
 20
298.1488457199629
 30
0.0
  0
SPLINE
  5
198
330
1F
100
AcDbEntity
  8
1
100
AcDbSpline
210
0.0
220
0.0
230
1.0
 70
     8
 71
     3
 72
    29
 73
    25
 74
     0
 42
0.000000001
 43
0.0000000001
 40
0.0
 40
0.0
 40
0.0
 40
0.0
 40
0.1250000000000351
 40
0.1250000000000351
 40
0.1875000000000195
 40
0.1875000000000195
 40
0.250000000000004
 40
0.250000000000004
 40
0.3749999999999721
 40
0.3749999999999721
 40
0.437499999999956
 40
0.437499999999956
 40
0.4999999999999401
 40
0.4999999999999401
 40
0.6249999999999547
 40
0.6249999999999547
 40
0.6874999999999618
 40
0.6874999999999618
 40
0.7499999999999691
 40
0.8124999999999761
 40
0.8124999999999761
 40
0.8749999999999834
 40
0.8749999999999834
 40
1.0
 40
1.0
 40
1.0
 40
1.0
 10
338.7154462216659
 20
292.4595994722786
 30
0.0
 10
338.7410059852473
 20
292.4607142740213
 30
0.0
 10
338.7660107098517
 20
292.4643881194261
 30
0.0
 10
338.8027334018557
 20
292.4735153917553
 30
0.0
 10
338.814842502967
 20
292.4771654710101
 30
0.0
 10
338.8387928929745
 20
292.4857003953288
 30
0.0
 10
338.8506467009202
 20
292.4905999895072
 30
0.0
 10
338.8850383079593
 20
292.5068313588221
 30
0.0
 10
338.9066832634551
 20
292.5197636279733
 30
0.0
 10
338.9372530541113
 20
292.5422853978897
 30
0.0
 10
338.9471712247215
 20
292.5503606315048
 30
0.0
 10
338.9661050617418
 20
292.567378068207
 30
0.0
 10
338.9750926928982
 20
292.576285244278
 30
0.0
 10
339.0006584441865
 20
292.6041682929927
 30
0.0
 10
339.0158532051283
 20
292.6242942275863
 30
0.0
 10
339.0357820837096
 20
292.656863516045
 30
0.0
 10
339.041911395414
 20
292.6680798083229
 30
0.0
 10
339.0529465011492
 20
292.6908338601934
 30
0.0
 10
339.0628265174931
 20
292.7140176384487
 30
0.0
 10
339.0704147011296
 20
292.7380540442073
 30
0.0
 10
339.0768315860325
 20
292.7625262066912
 30
0.0
 10
339.0794625585231
 20
292.7750392489506
 30
0.0
 10
339.0854362556399
 20
292.8127890756874
 30
0.0
 10
339.0868926255523
 20
292.8381353175424
 30
0.0
 10
339.0857545886601
 20
292.8636661093841
 30
0.0
  0
SPLINE
  5
199
330
1F
100
AcDbEntity
  8
1
100
AcDbSpline
210
0.0
220
0.0
230
1.0
 70
     8
 71
     3
 72
    98
 73
    94
 74
     0
 42
0.000000001
 43
0.0000000001
 40
0.0
 40
0.0
 40
0.0
 40
0.0
 40
0.0156250000000018
 40
0.0156250000000018
 40
0.0312500000000035
 40
0.0312500000000035
 40
0.0625000000000058
 40
0.0625000000000058
 40
0.0781250000000069
 40
0.0781250000000069
 40
0.093750000000008
 40
0.093750000000008
 40
0.1250000000000109
 40
0.1250000000000109
 40
0.1562500000000138
 40
0.1562500000000138
 40
0.171875000000015
 40
0.171875000000015
 40
0.1875000000000162
 40
0.2031250000000174
 40
0.2031250000000174
 40
0.2187500000000187
 40
0.2187500000000187
 40
0.2343750000000199
 40
0.2343750000000199
 40
0.2500000000000211
 40
0.2500000000000211
 40
0.2812500000000238
 40
0.3125000000000264
 40
0.3125000000000264
 40
0.3281250000000275
 40
0.3281250000000275
 40
0.3437500000000285
 40
0.3593750000000296
 40
0.3593750000000296
 40
0.3750000000000306
 40
0.3750000000000306
 40
0.4062500000000324
 40
0.4062500000000324
 40
0.437500000000034
 40
0.437500000000034
 40
0.4687500000000357
 40
0.4687500000000357
 40
0.5000000000000373
 40
0.5000000000000373
 40
0.531250000000039
 40
0.531250000000039
 40
0.546875000000039
 40
0.546875000000039
 40
0.562500000000039
 40
0.562500000000039
 40
0.5937500000000386
 40
0.5937500000000386
 40
0.6093750000000381
 40
0.6093750000000381
 40
0.6250000000000374
 40
0.6250000000000374
 40
0.656250000000035
 40
0.656250000000035
 40
0.6718750000000334
 40
0.6718750000000334
 40
0.6875000000000319
 40
0.6875000000000319
 40
0.7031250000000303
 40
0.7031250000000303
 40
0.7187500000000288
 40
0.7343750000000272
 40
0.7343750000000272
 40
0.7500000000000256
 40
0.7500000000000256
 40
0.7812500000000231
 40
0.8125000000000206
 40
0.8125000000000206
 40
0.8281250000000191
 40
0.8281250000000191
 40
0.8437500000000175
 40
0.8593750000000159
 40
0.8593750000000159
 40
0.8750000000000145
 40
0.8750000000000145
 40
0.8906250000000131
 40
0.8906250000000131
 40
0.9062500000000115
 40
0.9062500000000115
 40
0.9375000000000078
 40
0.9375000000000078
 40
0.953125000000006
 40
0.953125000000006
 40
0.9687500000000039
 40
0.9687500000000039
 40
0.9843750000000021
 40
0.9843750000000021
 40
1.0
 40
1.0
 40
1.0
 40
1.0
 10
337.7770733568251
 20
285.7329935137006
 30
0.0
 10
337.7726225781196
 20
285.707622844068
 30
0.0
 10
337.7682310990127
 20
285.6817529040372
 30
0.0
 10
337.7596384665277
 20
285.6294340390908
 30
0.0
 10
337.7554305233874
 20
285.602948479357
 30
0.0
 10
337.7430714262024
 20
285.5225148467993
 30
0.0
 10
337.7351648160114
 20
285.4674302270627
 30
0.0
 10
337.7239984783123
 20
285.3839532035371
 30
0.0
 10
337.7203861905784
 20
285.3559505131325
 30
0.0
 10
337.7133819284532
 20
285.2995900308139
 30
0.0
 10
337.7099850765448
 20
285.2711871991752
 30
0.0
 10
337.7001933392858
 20
285.1860033826375
 30
0.0
 10
337.6941784535969
 20
285.1291223863095
 30
0.0
 10
337.6831772366918
 20
285.0151763441738
 30
0.0
 10
337.6782432843256
 20
284.9586458243896
 30
0.0
 10
337.6716996878398
 20
284.8746944568243
 30
0.0
 10
337.6696578056826
 20
284.8467940471079
 30
0.0
 10
337.6658839878286
 20
284.7915909239851
 30
0.0
 10
337.6624160980318
 20
284.7369470052016
 30
0.0
 10
337.6595553200433
 20
284.6834128230029
 30
0.0
 10
337.6569994804003
 20
284.6304360360542
 30
0.0
 10
337.6558780358193
 20
284.6043026280753
 30
0.0
 10
337.6539526269175
 20
284.5529220996842
 30
0.0
 10
337.6531472375192
 20
284.5276458406062
 30
0.0
 10
337.6518502794412
 20
284.4779192026272
 30
0.0
 10
337.6513581340982
 20
284.4534070130848
 30
0.0
 10
337.6503632292437
 20
284.3816927352269
 30
0.0
 10
337.650307269534
 20
284.2908546965654
 30
0.0
 10
337.6526987006349
 20
284.2092258150315
 30
0.0
 10
337.6554198256939
 20
284.1514943891225
 30
0.0
 10
337.6564844855541
 20
284.132797068488
 30
0.0
 10
337.6589188510362
 20
284.0967724768992
 30
0.0
 10
337.6616500320041
 20
284.0622127561884
 30
0.0
 10
337.6649685070025
 20
284.0305515025823
 30
0.0
 10
337.6685810131079
 20
284.0003413781337
 30
0.0
 10
337.6705366443721
 20
283.9859519024149
 30
0.0
 10
337.6768060813893
 20
283.9452450264568
 30
0.0
 10
337.6815307712536
 20
283.9212811558825
 30
0.0
 10
337.6920719293637
 20
283.8797111049533
 30
0.0
 10
337.697841359744
 20
283.8622972146364
 30
0.0
 10
337.7103451155757
 20
283.834205727331
 30
0.0
 10
337.7170943599046
 20
283.823523880104
 30
0.0
 10
337.731436244911
 20
283.8091866552416
 30
0.0
 10
337.7390380463463
 20
283.8055160949708
 30
0.0
 10
337.7549604515043
 20
283.805238476978
 30
0.0
 10
337.7632564456342
 20
283.8086097412927
 30
0.0
 10
337.776203845805
 20
283.8189445559408
 30
0.0
 10
337.7806060523584
 20
283.8232775249252
 30
0.0
 10
337.7895194942303
 20
283.8336567309985
 30
0.0
 10
337.7940379218704
 20
283.8397075154676
 30
0.0
 10
337.8077783764475
 20
283.8604441325317
 30
0.0
 10
337.8172132432592
 20
283.8777786596592
 30
0.0
 10
337.8315606803346
 20
283.9086786042905
 30
0.0
 10
337.8363809144692
 20
283.9198007660479
 30
0.0
 10
337.8460972844384
 20
283.9436979751455
 30
0.0
 10
337.8510020408418
 20
283.9564974900339
 30
0.0
 10
337.8657587657977
 20
283.997211850275
 30
0.0
 10
337.8756463059315
 20
284.0274016916778
 30
0.0
 10
337.8905527959395
 20
284.0772932890041
 30
0.0
 10
337.8955333149297
 20
284.0946943726053
 30
0.0
 10
337.9054491984399
 20
284.1307989376967
 30
0.0
 10
337.9103933727403
 20
284.1495311343539
 30
0.0
 10
337.9202541142906
 20
284.1883589186492
 30
0.0
 10
337.9251747891975
 20
284.2084719622324
 30
0.0
 10
337.9349704061293
 20
284.2500065000929
 30
0.0
 10
337.9446853922552
 20
284.2926989069757
 30
0.0
 10
337.9542399214957
 20
284.3376954959262
 30
0.0
 10
337.9637136354398
 20
284.3838526032072
 30
0.0
 10
337.9684184924814
 20
284.4075587759353
 30
0.0
 10
337.9822649805849
 20
284.4796786807231
 30
0.0
 10
338.0001012363777
 20
284.5789015047022
 30
0.0
 10
338.0167136306783
 20
284.6841151515704
 30
0.0
 10
338.028701640654
 20
284.7653323385097
 30
0.0
 10
338.0326293954468
 20
284.7928685019589
 30
0.0
 10
338.0402609426552
 20
284.8482860476356
 30
0.0
 10
338.0476674125914
 20
284.9040267010924
 30
0.0
 10
338.054626223312
 20
284.9604099879605
 30
0.0
 10
338.0613596610702
 20
285.0171168070843
 30
0.0
 10
338.0646086152544
 20
285.0455934825657
 30
0.0
 10
338.0708351777428
 20
285.1024652908433
 30
0.0
 10
338.0738183976701
 20
285.1309070890472
 30
0.0
 10
338.0795250145268
 20
285.1878024600063
 30
0.0
 10
338.0822526820081
 20
285.2163038136467
 30
0.0
 10
338.0900084964939
 20
285.3014574667153
 30
0.0
 10
338.0946017088409
 20
285.357633474623
 30
0.0
 10
338.1006303129391
 20
285.4410127573765
 30
0.0
 10
338.1024942184354
 20
285.4686433077762
 30
0.0
 10
338.1059081765097
 20
285.5232162416557
 30
0.0
 10
338.1074619213569
 20
285.550208081756
 30
0.0
 10
338.1102641909802
 20
285.6036049084295
 30
0.0
 10
338.1115141749459
 20
285.6300457959534
 30
0.0
 10
338.1136994735853
 20
285.682166127164
 30
0.0
 10
338.1146330513342
 20
285.7077937100693
 30
0.0
 10
338.1154093238534
 20
285.7329935137009
 30
0.0
  0
SPLINE
  5
19A
330
1F
100
AcDbEntity
  8
1
100
AcDbSpline
210
0.0
220
0.0
230
1.0
 70
     8
 71
     3
 72
    60
 73
    56
 74
     0
 42
0.000000001
 43
0.0000000001
 40
0.0
 40
0.0
 40
0.0
 40
0.0
 40
0.0625000000000014
 40
0.0625000000000014
 40
0.0937500000000015
 40
0.0937500000000015
 40
0.1250000000000016
 40
0.1250000000000016
 40
0.1562500000000016
 40
0.1562500000000016
 40
0.1875000000000017
 40
0.1875000000000017
 40
0.2500000000000043
 40
0.2500000000000043
 40
0.2812500000000054
 40
0.2812500000000054
 40
0.3125000000000066
 40
0.3125000000000066
 40
0.3437500000000077
 40
0.3437500000000077
 40
0.3750000000000089
 40
0.3750000000000089
 40
0.40625000000001
 40
0.40625000000001
 40
0.4375000000000112
 40
0.4687500000000124
 40
0.4687500000000124
 40
0.5000000000000135
 40
0.5000000000000135
 40
0.5312500000000147
 40
0.5312500000000147
 40
0.5625000000000159
 40
0.5625000000000159
 40
0.6250000000000156
 40
0.6250000000000156
 40
0.6875000000000151
 40
0.6875000000000151
 40
0.7187500000000137
 40
0.7187500000000137
 40
0.7500000000000121
 40
0.7500000000000121
 40
0.7812500000000106
 40
0.7812500000000106
 40
0.812500000000009
 40
0.8437500000000074
 40
0.8437500000000074
 40
0.875000000000006
 40
0.875000000000006
 40
0.9062500000000046
 40
0.9062500000000046
 40
0.937500000000003
 40
0.937500000000003
 40
0.9687500000000015
 40
0.9687500000000015
 40
1.0
 40
1.0
 40
1.0
 40
1.0
 10
338.1154093238534
 20
285.7329935137009
 30
0.0
 10
338.1113330268846
 20
285.7879828581955
 30
0.0
 10
338.1067202997801
 20
285.8411702022965
 30
0.0
 10
338.0991143980506
 20
285.9169799001444
 30
0.0
 10
338.0964619091196
 20
285.9416282068983
 30
0.0
 10
338.0909222372151
 20
285.9896799521401
 30
0.0
 10
338.0880337679165
 20
286.0130864553602
 30
0.0
 10
338.0820633376655
 20
286.0583224047839
 30
0.0
 10
338.0789765757043
 20
286.0801957104033
 30
0.0
 10
338.0726005115727
 20
286.1224570421382
 30
0.0
 10
338.0693054208244
 20
286.1428776412057
 30
0.0
 10
338.0591586416108
 20
286.2016272433777
 30
0.0
 10
338.0520597448013
 20
286.23740176817
 30
0.0
 10
338.0409094406417
 20
286.2859717543981
 30
0.0
 10
338.0371196493529
 20
286.3012598258189
 30
0.0
 10
338.0294203274767
 20
286.3299416981789
 30
0.0
 10
338.0255069186125
 20
286.3433525602699
 30
0.0
 10
338.0175521498417
 20
286.3683074951018
 30
0.0
 10
338.0135051655266
 20
286.3798631706352
 30
0.0
 10
338.0053361972755
 20
286.4009439661721
 30
0.0
 10
338.0012090460293
 20
286.4104883096821
 30
0.0
 10
337.9928694378677
 20
286.4275855552032
 30
0.0
 10
337.9886524933968
 20
286.4351452263759
 30
0.0
 10
337.9801520269674
 20
286.4482157489234
 30
0.0
 10
337.9716110776525
 20
286.4592021396805
 30
0.0
 10
337.9629895264646
 20
286.4660390009461
 30
0.0
 10
337.9543272874159
 20
286.4707811779211
 30
0.0
 10
337.9499795263304
 20
286.4720984008825
 30
0.0
 10
337.9413057571737
 20
286.4726094777314
 30
0.0
 10
337.9369721954215
 20
286.4718082558889
 30
0.0
 10
337.9283117512527
 20
286.4680815793471
 30
0.0
 10
337.9239768649433
 20
286.4651472181787
 30
0.0
 10
337.9110582300092
 20
286.4531752657899
 30
0.0
 10
337.9025553240605
 20
286.4410015605271
 30
0.0
 10
337.8857717197541
 20
286.4081478813309
 30
0.0
 10
337.8775822574827
 20
286.3876440968301
 30
0.0
 10
337.8656127960608
 20
286.3507732527959
 30
0.0
 10
337.8616723811412
 20
286.337444118566
 30
0.0
 10
337.8539568225167
 20
286.3089268910023
 30
0.0
 10
337.8501741453695
 20
286.2937178536814
 30
0.0
 10
337.8427594183144
 20
286.2613935800128
 30
0.0
 10
337.8391210905428
 20
286.2442456235407
 30
0.0
 10
337.8320294907451
 20
286.208175328119
 30
0.0
 10
337.8251321300924
 20
286.1703885986789
 30
0.0
 10
337.8186219176045
 20
286.1291807551242
 30
0.0
 10
337.8123074507238
 20
286.0862431653884
 30
0.0
 10
337.8092593189064
 20
286.0639821931777
 30
0.0
 10
337.8034017102144
 20
286.0180434324964
 30
0.0
 10
337.8005886875737
 20
285.9943417489188
 30
0.0
 10
337.7951953272946
 20
285.9454666813758
 30
0.0
 10
337.7926127219888
 20
285.9202622107648
 30
0.0
 10
337.7877209505753
 20
285.8687626574638
 30
0.0
 10
337.7854067114911
 20
285.8424257791673
 30
0.0
 10
337.7810411159974
 20
285.788579650295
 30
0.0
 10
337.778986410813
 20
285.7610198262595
 30
0.0
 10
337.7770733568251
 20
285.7329935137006
 30
0.0
  0
SPLINE
  5
19B
330
1F
100
AcDbEntity
  8
1
100
AcDbSpline
210
0.0
220
0.0
230
1.0
 70
     8
 71
     3
 72
    12
 73
     8
 74
     0
 42
0.000000001
 43
0.0000000001
 40
0.0
 40
0.0
 40
0.0
 40
0.0
 40
0.2500000000000012
 40
0.2500000000000012
 40
0.5000000000000025
 40
0.5000000000000025
 40
1.0
 40
1.0
 40
1.0
 40
1.0
 10
326.9459967889717
 20
291.7134204651627
 30
0.0
 10
326.6873572576201
 20
291.8601243630965
 30
0.0
 10
326.4293506566602
 20
292.0079241785094
 30
0.0
 10
325.914346344501
 20
292.3052706995742
 30
0.0
 10
325.6573512763474
 20
292.4548219816534
 30
0.0
 10
324.8877451101627
 20
292.9058636294109
 30
0.0
 10
324.3765161416579
 20
293.2097471491017
 30
0.0
 10
323.8671842551565
 20
293.5169154618027
 30
0.0
  0
SPLINE
  5
19C
330
1F
100
AcDbEntity
  8
1
100
AcDbSpline
210
0.0
220
0.0
230
1.0
 70
     8
 71
     3
 72
    29
 73
    25
 74
     0
 42
0.000000001
 43
0.0000000001
 40
0.0
 40
0.0
 40
0.0
 40
0.0
 40
0.1249999999999995
 40
0.1249999999999995
 40
0.2499999999999989
 40
0.2499999999999989
 40
0.3749999999999984
 40
0.3749999999999984
 40
0.4062499999999985
 40
0.4062499999999985
 40
0.4374999999999986
 40
0.4999999999999988
 40
0.4999999999999988
 40
0.6249999999999979
 40
0.6249999999999979
 40
0.7499999999999974
 40
0.7499999999999974
 40
0.7812499999999976
 40
0.7812499999999976
 40
0.8124999999999978
 40
0.8124999999999978
 40
0.8749999999999987
 40
0.8749999999999987
 40
1.0
 40
1.0
 40
1.0
 40
1.0
 10
279.4048419452957
 20
279.1406907149657
 30
0.0
 10
279.2120843930692
 20
279.0495947030483
 30
0.0
 10
279.026396719685
 20
278.9518158153786
 30
0.0
 10
278.6689403158622
 20
278.7437411127851
 30
0.0
 10
278.4971712558954
 20
278.6334441796701
 30
0.0
 10
278.1678353910237
 20
278.4007621344017
 30
0.0
 10
278.0102648948676
 20
278.2783784212354
 30
0.0
 10
277.8227031820192
 20
278.1178513801746
 30
0.0
 10
277.7856049294116
 20
278.0853146297571
 30
0.0
 10
277.7127554646268
 20
278.019829269797
 30
0.0
 10
277.605449883914
 20
277.9209468837799
 30
0.0
 10
277.5040140599679
 20
277.8201691388418
 30
0.0
 10
277.3089405541099
 20
277.6162386512281
 30
0.0
 10
277.1892642988443
 20
277.4771270038606
 30
0.0
 10
276.9710917833823
 20
277.1931767679191
 30
0.0
 10
276.8725898226724
 20
277.0483383493361
 30
0.0
 10
276.7635056656897
 20
276.8639032565911
 30
0.0
 10
276.7423933992118
 20
276.8268461752279
 30
0.0
 10
276.7016085986915
 20
276.7523937476371
 30
0.0
 10
276.6819419656047
 20
276.7150030722398
 30
0.0
 10
276.6254894970896
 20
276.6030308611078
 30
0.0
 10
276.5911193931199
 20
276.5284182472029
 30
0.0
 10
276.4978039958355
 20
276.3047881679554
 30
0.0
 10
276.4486202036829
 20
276.1559825093478
 30
0.0
 10
276.4128503038484
 20
276.0076742831103
 30
0.0
  0
SPLINE
  5
19D
330
1F
100
AcDbEntity
  8
1
100
AcDbSpline
210
0.0
220
0.0
230
1.0
 70
     8
 71
     3
 72
    26
 73
    22
 74
     0
 42
0.000000001
 43
0.0000000001
 40
0.0
 40
0.0
 40
0.0
 40
0.0
 40
0.1249999999999995
 40
0.1249999999999995
 40
0.2499999999999989
 40
0.2499999999999989
 40
0.3749999999999984
 40
0.3749999999999984
 40
0.4999999999999979
 40
0.4999999999999979
 40
0.5624999999999977
 40
0.5624999999999977
 40
0.5937499999999976
 40
0.5937499999999976
 40
0.6249999999999976
 40
0.6249999999999976
 40
0.7499999999999984
 40
0.7499999999999984
 40
0.8749999999999992
 40
0.8749999999999992
 40
1.0
 40
1.0
 40
1.0
 40
1.0
 10
282.7185504442805
 20
282.096010620231
 30
0.0
 10
282.9790426782974
 20
282.2967898040843
 30
0.0
 10
283.2474759706111
 20
282.4876578785768
 30
0.0
 10
283.8001655473674
 20
282.8496853998563
 30
0.0
 10
284.0844215689065
 20
283.0208458089638
 30
0.0
 10
284.6690020438609
 20
283.3431638258019
 30
0.0
 10
284.9693254897342
 20
283.4943236675169
 30
0.0
 10
285.5866089260288
 20
283.7758915926132
 30
0.0
 10
285.9035671453217
 20
283.9063034104508
 30
0.0
 10
286.3921811456325
 20
284.0853881361287
 30
0.0
 10
286.5572516064353
 20
284.142322947209
 30
0.0
 10
286.8082731819963
 20
284.2234168288826
 30
0.0
 10
286.892564044511
 20
284.2497420370291
 30
0.0
 10
287.061557717868
 20
284.3007051798771
 30
0.0
 10
287.1463459595183
 20
284.3253718229329
 30
0.0
 10
287.571743029442
 20
284.4446170487914
 30
0.0
 10
287.9167154909911
 20
284.5269520280323
 30
0.0
 10
288.6160084994994
 20
284.6648255501762
 30
0.0
 10
288.9703304599247
 20
284.720361828011
 30
0.0
 10
289.6884415770697
 20
284.8034730165602
 30
0.0
 10
290.0522323975915
 20
284.831043748986
 30
0.0
 10
290.4208324721075
 20
284.8438531922892
 30
0.0
  0
SPLINE
  5
19E
330
1F
100
AcDbEntity
  8
1
100
AcDbSpline
210
0.0
220
0.0
230
1.0
 70
     8
 71
     3
 72
    14
 73
    10
 74
     0
 42
0.000000001
 43
0.0000000001
 40
0.0
 40
0.0
 40
0.0
 40
0.0
 40
0.25
 40
0.25
 40
0.5
 40
0.5
 40
0.75
 40
0.75
 40
1.0
 40
1.0
 40
1.0
 40
1.0
 10
282.7185504442805
 20
282.096010620231
 30
0.0
 10
282.4358535767692
 20
281.8781168064249
 30
0.0
 10
282.154463787948
 20
281.6549476277218
 30
0.0
 10
281.5947886968189
 20
281.1956508326127
 30
0.0
 10
281.3165043387338
 20
280.959526249458
 30
0.0
 10
280.763546431914
 20
280.4713903581003
 30
0.0
 10
280.488872821286
 20
280.2193895638815
 30
0.0
 10
279.9436411736298
 20
279.6958664951684
 30
0.0
 10
279.673081686067
 20
279.4243695426455
 30
0.0
 10
279.4048419452957
 20
279.1406907149657
 30
0.0
  0
SPLINE
  5
19F
330
1F
100
AcDbEntity
  8
1
100
AcDbSpline
210
0.0
220
0.0
230
1.0
 70
     8
 71
     3
 72
    19
 73
    15
 74
     0
 42
0.000000001
 43
0.0000000001
 40
0.0
 40
0.0
 40
0.0
 40
0.0
 40
0.2499999999999619
 40
0.2499999999999619
 40
0.3749999999999428
 40
0.3749999999999428
 40
0.4999999999999237
 40
0.6249999999999046
 40
0.6249999999999046
 40
0.6874999999999192
 40
0.6874999999999192
 40
0.7499999999999336
 40
0.7499999999999336
 40
1.0
 40
1.0
 40
1.0
 40
1.0
 10
335.6838227249132
 20
294.4271582418324
 30
0.0
 10
335.6508310296551
 20
294.4185265098552
 30
0.0
 10
335.6173420945847
 20
294.4138943902895
 30
0.0
 10
335.5663704469019
 20
294.4129129209662
 30
0.0
 10
335.5492326406296
 20
294.4136078462683
 30
0.0
 10
335.5155563352659
 20
294.4169831540034
 30
0.0
 10
335.4822642117158
 20
294.422330035633
 30
0.0
 10
335.4497317739774
 20
294.431575579441
 30
0.0
 10
335.4256261125154
 20
294.4400167993653
 30
0.0
 10
335.4176342094961
 20
294.4430870120517
 30
0.0
 10
335.401965453916
 20
294.4496486636487
 30
0.0
 10
335.3942609722481
 20
294.4531490089473
 30
0.0
 10
335.3563754509376
 20
294.4717268050448
 30
0.0
 10
335.3280788374252
 20
294.4899884470287
 30
0.0
 10
335.3018465074538
 20
294.5117327458527
 30
0.0
  0
SPLINE
  5
1A0
330
1F
100
AcDbEntity
  8
1
100
AcDbSpline
210
0.0
220
0.0
230
1.0
 70
     8
 71
     3
 72
    18
 73
    14
 74
     0
 42
0.000000001
 43
0.0000000001
 40
0.0
 40
0.0
 40
0.0
 40
0.0
 40
0.1595697195019244
 40
0.1595697195019244
 40
0.3191394390038488
 40
0.3191394390038488
 40
0.4787091585057733
 40
0.4787091585057733
 40
0.6382788780076976
 40
0.6382788780076976
 40
0.9574183170115732
 40
0.9574183170115732
 40
1.0
 40
1.0
 40
1.0
 40
1.0
 10
335.3018465074538
 20
294.5117327458527
 30
0.0
 10
335.2979969628518
 20
294.5149236804077
 30
0.0
 10
335.2944938316288
 20
294.5184076694712
 30
0.0
 10
335.2881448285244
 20
294.5259310494789
 30
0.0
 10
335.2852767512259
 20
294.5300147237112
 30
0.0
 10
335.2803629454281
 20
294.5384978553593
 30
0.0
 10
335.278307078884
 20
294.5428922541344
 30
0.0
 10
335.2749606492901
 20
294.5519715307662
 30
0.0
 10
335.2736633364417
 20
294.5567023475478
 30
0.0
 10
335.2710238287996
 20
294.5709852464817
 30
0.0
 10
335.2708896950379
 20
294.5805844855694
 30
0.0
 10
335.2725148995666
 20
294.5913452696051
 30
0.0
 10
335.2727327505391
 20
294.5926032218808
 30
0.0
 10
335.2729770942003
 20
294.5938523784962
 30
0.0
  0
SPLINE
  5
1A1
330
1F
100
AcDbEntity
  8
1
100
AcDbSpline
210
0.0
220
0.0
230
1.0
 70
     8
 71
     3
 72
    16
 73
    12
 74
     0
 42
0.000000001
 43
0.0000000001
 40
0.0
 40
0.0
 40
0.0
 40
0.0
 40
0.0474155536126858
 40
0.0474155536126858
 40
0.2855616652095145
 40
0.2855616652095145
 40
0.5237077768063429
 40
0.5237077768063429
 40
0.7618538884031715
 40
0.7618538884031715
 40
1.0
 40
1.0
 40
1.0
 40
1.0
 10
335.7329235998873
 20
294.4623257461378
 30
0.0
 10
335.7323903850524
 20
294.4615257492379
 30
0.0
 10
335.7318426615769
 20
294.4607329271913
 30
0.0
 10
335.7284558306978
 20
294.4560017576467
 30
0.0
 10
335.7252721121122
 20
294.4522667611336
 30
0.0
 10
335.7183674825094
 20
294.4454417494063
 30
0.0
 10
335.7146239386774
 20
294.4423176234702
 30
0.0
 10
335.7065203823363
 20
294.4366814308116
 30
0.0
 10
335.7022231014325
 20
294.4342198920942
 30
0.0
 10
335.6933066965195
 20
294.4301003617299
 30
0.0
 10
335.688663258436
 20
294.4284246874536
 30
0.0
 10
335.6838227249132
 20
294.4271582418324
 30
0.0
  0
SPLINE
  5
1A2
330
1F
100
AcDbEntity
  8
1
100
AcDbSpline
210
0.0
220
0.0
230
1.0
 70
     8
 71
     3
 72
    14
 73
    10
 74
     0
 42
0.000000001
 43
0.0000000001
 40
0.0
 40
0.0
 40
0.0
 40
0.0
 40
0.3015301140616362
 40
0.3015301140616362
 40
0.6030602281232725
 40
0.6030602281232725
 40
0.9045903421849088
 40
0.9045903421849088
 40
1.0
 40
1.0
 40
1.0
 40
1.0
 10
335.285559595302
 20
294.6866056306479
 30
0.0
 10
335.2876754809018
 20
294.6808507455516
 30
0.0
 10
335.2891510379374
 20
294.6748889842622
 30
0.0
 10
335.2908106546576
 20
294.6630056000348
 30
0.0
 10
335.2910133023372
 20
294.6570611297488
 30
0.0
 10
335.2901985269218
 20
294.6451638946465
 30
0.0
 10
335.2891646833124
 20
294.6392274425938
 30
0.0
 10
335.2870653633765
 20
294.6317513985988
 30
0.0
 10
335.2865044358006
 20
294.6299732391622
 30
0.0
 10
335.2858865971668
 20
294.6282140675283
 30
0.0
  0
SPLINE
  5
1A3
330
1F
100
AcDbEntity
  8
1
100
AcDbSpline
210
0.0
220
0.0
230
1.0
 70
     8
 71
     3
 72
    12
 73
     8
 74
     0
 42
0.000000001
 43
0.0000000001
 40
0.0
 40
0.0
 40
0.0
 40
0.0
 40
0.0755624229377917
 40
0.0755624229377917
 40
0.537781211468896
 40
0.537781211468896
 40
1.0
 40
1.0
 40
1.0
 40
1.0
 10
335.7522986315498
 20
294.5459727615424
 30
0.0
 10
335.7526204590274
 20
294.5468883059908
 30
0.0
 10
335.7529580485314
 20
294.5477998205616
 30
0.0
 10
335.7554731384673
 20
294.5542583938704
 30
0.0
 10
335.7582511588417
 20
294.5596695176108
 30
0.0
 10
335.7648055378832
 20
294.5696936025633
 30
0.0
 10
335.7686002249717
 20
294.5743720270612
 30
0.0
 10
335.7729583847262
 20
294.5786891976569
 30
0.0
  0
SPLINE
  5
1A4
330
1F
100
AcDbEntity
  8
1
100
AcDbSpline
210
0.0
220
0.0
230
1.0
 70
     8
 71
     3
 72
    20
 73
    16
 74
     0
 42
0.000000001
 43
0.0000000001
 40
0.0
 40
0.0
 40
0.0
 40
0.0
 40
0.2499999999998752
 40
0.2499999999998752
 40
0.3749999999998961
 40
0.3749999999998961
 40
0.4999999999999168
 40
0.4999999999999168
 40
0.6249999999999377
 40
0.6249999999999377
 40
0.7499999999999585
 40
0.7499999999999585
 40
0.8749999999999792
 40
0.8749999999999792
 40
1.0
 40
1.0
 40
1.0
 40
1.0
 10
334.9286857382036
 20
294.9393857396967
 30
0.0
 10
334.9206936765381
 20
294.9341650325012
 30
0.0
 10
334.9120948280025
 20
294.9303802101033
 30
0.0
 10
334.8982907177821
 20
294.9268553234405
 30
0.0
 10
334.8935475311137
 20
294.9260586480272
 30
0.0
 10
334.8840866660722
 20
294.9252793636672
 30
0.0
 10
334.8793279416711
 20
294.9252844627781
 30
0.0
 10
334.8697527762168
 20
294.9261211348956
 30
0.0
 10
334.864966139904
 20
294.9269582253975
 30
0.0
 10
334.8556746108782
 20
294.9294279342765
 30
0.0
 10
334.8511294591717
 20
294.9310626343339
 30
0.0
 10
334.8422537836716
 20
294.9351792233618
 30
0.0
 10
334.8379990156314
 20
294.9376321316443
 30
0.0
 10
334.830014526413
 20
294.943228723148
 30
0.0
 10
334.8262579893654
 20
294.9463841583628
 30
0.0
 10
334.8227528576769
 20
294.9499198953942
 30
0.0
  0
SPLINE
  5
1A5
330
1F
100
AcDbEntity
  8
1
100
AcDbSpline
210
0.0
220
0.0
230
1.0
 70
     8
 71
     3
 72
    14
 73
    10
 74
     0
 42
0.000000001
 43
0.0000000001
 40
0.0
 40
0.0
 40
0.0
 40
0.0
 40
0.25
 40
0.25
 40
0.5
 40
0.5
 40
0.75
 40
0.75
 40
1.0
 40
1.0
 40
1.0
 40
1.0
 10
334.9286857382036
 20
294.9393857396967
 30
0.0
 10
334.9336596727827
 20
294.9426348958135
 30
0.0
 10
334.9389640436785
 20
294.9453659596215
 30
0.0
 10
334.9499580880524
 20
294.9496655625321
 30
0.0
 10
334.9556189611806
 20
294.9512340220696
 30
0.0
 10
334.9672753383948
 20
294.953191841576
 30
0.0
 10
334.9732933234498
 20
294.9535651636443
 30
0.0
 10
334.9851481173076
 20
294.9530367187636
 30
0.0
 10
334.9910499823253
 20
294.9521527335307
 30
0.0
 10
334.9969260310555
 20
294.9505947668806
 30
0.0
  0
SPLINE
  5
1A6
330
1F
100
AcDbEntity
  8
1
100
AcDbSpline
210
0.0
220
0.0
230
1.0
 70
     8
 71
     3
 72
    20
 73
    16
 74
     0
 42
0.000000001
 43
0.0000000001
 40
0.0
 40
0.0
 40
0.0
 40
0.0
 40
0.1249999999999993
 40
0.1249999999999993
 40
0.2499999999999987
 40
0.3124999999999983
 40
0.3124999999999983
 40
0.374999999999998
 40
0.374999999999998
 40
0.4999999999999973
 40
0.6249999999999967
 40
0.6249999999999967
 40
0.749999999999996
 40
0.749999999999996
 40
1.0
 40
1.0
 40
1.0
 40
1.0
 10
334.9969260310551
 20
294.9505947668809
 30
0.0
 10
335.0131570645129
 20
294.946291295282
 30
0.0
 10
335.0291797609283
 20
294.9410066767121
 30
0.0
 10
335.060354604173
 20
294.9286188753575
 30
0.0
 10
335.0831733420692
 20
294.9179438412913
 30
0.0
 10
335.1051396432496
 20
294.9051362133791
 30
0.0
 10
335.1195891692956
 20
294.8961077293109
 30
0.0
 10
335.1267432635002
 20
294.8913290437742
 30
0.0
 10
335.147650910216
 20
294.8764146671891
 30
0.0
 10
335.1740948934902
 20
294.8549875474551
 30
0.0
 10
335.1977503106843
 20
294.8305601478334
 30
0.0
 10
335.2199915286168
 20
294.804611562095
 30
0.0
 10
335.2304243962006
 20
294.7908190101513
 30
0.0
 10
335.2586899174946
 20
294.7483921354741
 30
0.0
 10
335.2738836651432
 20
294.7183623742367
 30
0.0
 10
335.285559595302
 20
294.6866056306479
 30
0.0
  0
SPLINE
  5
1A7
330
1F
100
AcDbEntity
  8
1
100
AcDbSpline
210
0.0
220
0.0
230
1.0
 70
     8
 71
     3
 72
    18
 73
    14
 74
     0
 42
0.000000001
 43
0.0000000001
 40
0.0
 40
0.0
 40
0.0
 40
0.0
 40
0.1250000000000017
 40
0.1250000000000017
 40
0.2500000000000032
 40
0.2500000000000032
 40
0.3750000000000049
 40
0.3750000000000049
 40
0.5000000000000064
 40
0.5000000000000064
 40
0.7500000000000032
 40
0.7500000000000032
 40
1.0
 40
1.0
 40
1.0
 40
1.0
 10
336.3029014971632
 20
294.6221957300168
 30
0.0
 10
336.2982388657509
 20
294.6204682208085
 30
0.0
 10
336.2935019620218
 20
294.6191883711151
 30
0.0
 10
336.2838879582576
 20
294.6174778239676
 30
0.0
 10
336.2789619191059
 20
294.6170501962637
 30
0.0
 10
336.2692574431819
 20
294.6170665236002
 30
0.0
 10
336.2644781928807
 20
294.6174991424649
 30
0.0
 10
336.2550602730087
 20
294.6191738358434
 30
0.0
 10
336.2503791107139
 20
294.6204332056984
 30
0.0
 10
336.2368935378786
 20
294.6253421673853
 30
0.0
 10
336.2286614489339
 20
294.6300623406005
 30
0.0
 10
336.213967963184
 20
294.6421145503189
 30
0.0
 10
336.2077982692877
 20
294.6491831422548
 30
0.0
 10
336.2027947472336
 20
294.6572814290587
 30
0.0
  0
SPLINE
  5
1A8
330
1F
100
AcDbEntity
  8
1
100
AcDbSpline
210
0.0
220
0.0
230
1.0
 70
     8
 71
     3
 72
    20
 73
    16
 74
     0
 42
0.000000001
 43
0.0000000001
 40
0.0
 40
0.0
 40
0.0
 40
0.0
 40
0.1249999999999412
 40
0.1249999999999412
 40
0.2499999999998823
 40
0.3124999999998729
 40
0.3124999999998729
 40
0.3749999999998636
 40
0.3749999999998636
 40
0.499999999999891
 40
0.6249999999999182
 40
0.6249999999999182
 40
0.7499999999999454
 40
0.7499999999999454
 40
1.0
 40
1.0
 40
1.0
 40
1.0
 10
335.7729583847259
 20
294.5786891976567
 30
0.0
 10
335.7849960254159
 20
294.5906136224953
 30
0.0
 10
335.7977614538651
 20
294.6018630071262
 30
0.0
 10
335.8243869665932
 20
294.6226891250568
 30
0.0
 10
335.8452410280797
 20
294.6371226080173
 30
0.0
 10
335.8674613578708
 20
294.6497400670294
 30
0.0
 10
335.8825891242499
 20
294.6577353736234
 30
0.0
 10
335.8903403616028
 20
294.6615382348128
 30
0.0
 10
335.913796409463
 20
294.672173324502
 30
0.0
 10
335.9456330713324
 20
294.6843310055201
 30
0.0
 10
335.9785619774139
 20
294.6925520754996
 30
0.0
 10
336.0120454831715
 20
294.6987771330577
 30
0.0
 10
336.029123548205
 20
294.7008794007835
 30
0.0
 10
336.0796784400825
 20
294.7040229069229
 30
0.0
 10
336.1129727120998
 20
294.7020684824922
 30
0.0
 10
336.1459270364022
 20
294.6961909959015
 30
0.0
  0
SPLINE
  5
1A9
330
1F
100
AcDbEntity
  8
1
100
AcDbSpline
210
0.0
220
0.0
230
1.0
 70
     8
 71
     3
 72
    14
 73
    10
 74
     0
 42
0.000000001
 43
0.0000000001
 40
0.0
 40
0.0
 40
0.0
 40
0.0
 40
0.25
 40
0.25
 40
0.5
 40
0.5
 40
0.75
 40
0.75
 40
1.0
 40
1.0
 40
1.0
 40
1.0
 10
336.1459270364022
 20
294.6961909959015
 30
0.0
 10
336.1518989158678
 20
294.6951258961847
 30
0.0
 10
336.1577207036395
 20
294.6934014133623
 30
0.0
 10
336.1686731300967
 20
294.688853113684
 30
0.0
 10
336.1738326679637
 20
294.6860339031584
 30
0.0
 10
336.1835387637281
 20
294.679333788536
 30
0.0
 10
336.1880631064197
 20
294.6754468681664
 30
0.0
 10
336.1961042522893
 20
294.666960135151
 30
0.0
 10
336.1996793307817
 20
294.6623237843572
 30
0.0
 10
336.2027947472336
 20
294.6572814290587
 30
0.0
  0
SPLINE
  5
1AA
330
1F
100
AcDbEntity
  8
1
100
AcDbSpline
210
0.0
220
0.0
230
1.0
 70
     8
 71
     3
 72
    19
 73
    15
 74
     0
 42
0.000000001
 43
0.0000000001
 40
0.0
 40
0.0
 40
0.0
 40
0.0
 40
0.2589879669471913
 40
0.2589879669471913
 40
0.3884819504207899
 40
0.3884819504207899
 40
0.5179759338943885
 40
0.6474699173679871
 40
0.6474699173679871
 40
0.7122169091047943
 40
0.7122169091047943
 40
0.7769639008416018
 40
0.7769639008416018
 40
1.0
 40
1.0
 40
1.0
 40
1.0
 10
334.8227528576769
 20
294.9499198953942
 30
0.0
 10
334.7988637114692
 20
294.974017631627
 30
0.0
 10
334.7781638715988
 20
295.0005765296246
 30
0.0
 10
334.7518760290119
 20
295.0440801920314
 30
0.0
 10
334.7439185115563
 20
295.0592276185499
 30
0.0
 10
334.7300100250026
 20
295.0900126200983
 30
0.0
 10
334.7179886526653
 20
295.1214662825541
 30
0.0
 10
334.7096994441027
 20
295.1542421574097
 30
0.0
 10
334.7049249480647
 20
295.1793351530756
 30
0.0
 10
334.7035755712007
 20
295.1877924443576
 30
0.0
 10
334.7013962895524
 20
295.2046488643503
 30
0.0
 10
334.7005602518392
 20
295.2130763299735
 30
0.0
 10
334.6979493537546
 20
295.2505308904439
 30
0.0
 10
334.6988383799291
 20
295.2795501247234
 30
0.0
 10
334.7027010947544
 20
295.3085600960414
 30
0.0
  0
SPLINE
  5
1AB
330
1F
100
AcDbEntity
  8
1
100
AcDbSpline
210
0.0
220
0.0
230
1.0
 70
     8
 71
     3
 72
    19
 73
    15
 74
     0
 42
0.000000001
 43
0.0000000001
 40
0.0
 40
0.0
 40
0.0
 40
0.0
 40
0.133761846992267
 40
0.133761846992267
 40
0.2781348724935349
 40
0.2781348724935349
 40
0.4225078979948031
 40
0.5668809234960711
 40
0.5668809234960711
 40
0.6390674362467273
 40
0.6390674362467273
 40
0.7112539489973835
 40
0.7112539489973835
 40
1.0
 40
1.0
 40
1.0
 40
1.0
 10
336.5490036648679
 20
294.8586844004756
 30
0.0
 10
336.5429364529916
 20
294.8442307505859
 30
0.0
 10
336.536083560155
 20
294.8301156058724
 30
0.0
 10
336.5202043243792
 20
294.8014679716762
 30
0.0
 10
336.5110127762911
 20
294.7869839093203
 30
0.0
 10
336.4912301327859
 20
294.7595327521296
 30
0.0
 10
336.4699520717554
 20
294.7334053331194
 30
0.0
 10
336.4457163648092
 20
294.7098957709799
 30
0.0
 10
336.4263965395673
 20
294.6932754192401
 30
0.0
 10
336.4197586117548
 20
294.6879016498479
 30
0.0
 10
336.4062801103235
 20
294.6776385766555
 30
0.0
 10
336.3994180692547
 20
294.6727298473755
 30
0.0
 10
336.3645061509469
 20
294.6492785235647
 30
0.0
 10
336.3346755078165
 20
294.6339680300628
 30
0.0
 10
336.3029014971632
 20
294.6221957300168
 30
0.0
  0
SPLINE
  5
1AC
330
1F
100
AcDbEntity
  8
1
100
AcDbSpline
210
0.0
220
0.0
230
1.0
 70
     8
 71
     3
 72
    18
 73
    14
 74
     0
 42
0.000000001
 43
0.0000000001
 40
0.0
 40
0.0
 40
0.0
 40
0.0
 40
0.1993716137280492
 40
0.1993716137280492
 40
0.3987432274560985
 40
0.4984290343201174
 40
0.4984290343201174
 40
0.5981148411841362
 40
0.5981148411841362
 40
0.7974864549121741
 40
0.9968580686402116
 40
0.9968580686402116
 40
1.0
 40
1.0
 40
1.0
 40
1.0
 10
334.9307555308596
 20
295.80760739323
 30
0.0
 10
334.9350174666164
 20
295.7915744882581
 30
0.0
 10
334.9383369406329
 20
295.7752175330043
 30
0.0
 10
334.9429947454607
 20
295.7423121878938
 30
0.0
 10
334.9450292068695
 20
295.7174021036113
 30
0.0
 10
334.9448256865055
 20
295.6921206730781
 30
0.0
 10
334.9441765611001
 20
295.6751797259864
 30
0.0
 10
334.9435917338356
 20
295.6666332500965
 30
0.0
 10
334.9410730037519
 20
295.6411680434722
 30
0.0
 10
334.9357000829751
 20
295.6076389293086
 30
0.0
 10
334.926406702599
 20
295.5749341353993
 30
0.0
 10
334.920676892776
 20
295.5585368363697
 30
0.0
 10
334.9205877398712
 20
295.558282478273
 30
0.0
 10
334.9204983311281
 20
295.5580281628307
 30
0.0
  0
SPLINE
  5
1AD
330
1F
100
AcDbEntity
  8
1
100
AcDbSpline
210
0.0
220
0.0
230
1.0
 70
     8
 71
     3
 72
    14
 73
    10
 74
     0
 42
0.000000001
 43
0.0000000001
 40
0.0
 40
0.0
 40
0.0
 40
0.0
 40
0.25
 40
0.25
 40
0.5
 40
0.5
 40
0.75
 40
0.75
 40
1.0
 40
1.0
 40
1.0
 40
1.0
 10
334.8876429854662
 20
295.8601414585573
 30
0.0
 10
334.8928774563766
 20
295.8575458033278
 30
0.0
 10
334.8978281459253
 20
295.8544056992322
 30
0.0
 10
334.9069187222196
 20
295.8472071002251
 30
0.0
 10
334.9110441488627
 20
295.8431733166639
 30
0.0
 10
334.9184449085277
 20
295.8342223301364
 30
0.0
 10
334.9217176473124
 20
295.8292775767883
 30
0.0
 10
334.9270779214959
 20
295.8188953993399
 30
0.0
 10
334.9292126446654
 20
295.8134115510453
 30
0.0
 10
334.9307555308596
 20
295.8076073932294
 30
0.0
  0
SPLINE
  5
1AE
330
1F
100
AcDbEntity
  8
1
100
AcDbSpline
210
0.0
220
0.0
230
1.0
 70
     8
 71
     3
 72
    20
 73
    16
 74
     0
 42
0.000000001
 43
0.0000000001
 40
0.0
 40
0.0
 40
0.0
 40
0.0
 40
0.2500000000000111
 40
0.2500000000000111
 40
0.3750000000000091
 40
0.3750000000000091
 40
0.5000000000000073
 40
0.5000000000000073
 40
0.6250000000000055
 40
0.6250000000000055
 40
0.7500000000000037
 40
0.7500000000000037
 40
0.8750000000000017
 40
0.8750000000000017
 40
1.0
 40
1.0
 40
1.0
 40
1.0
 10
334.8876429854662
 20
295.8601414585573
 30
0.0
 10
334.8792322495167
 20
295.8643121514747
 30
0.0
 10
334.8717594650275
 20
295.8697283540754
 30
0.0
 10
334.861958278702
 20
295.8797157343742
 30
0.0
 10
334.8589468516601
 20
295.8833578914795
 30
0.0
 10
334.853637478706
 20
295.891032552912
 30
0.0
 10
334.8513087430233
 20
295.8950938943137
 30
0.0
 10
334.8473345541667
 20
295.903684003094
 30
0.0
 10
334.8457082537275
 20
295.9081906976873
 30
0.0
 10
334.8432791142632
 20
295.9173658507014
 30
0.0
 10
334.8424582535878
 20
295.9220698206305
 30
0.0
 10
334.8416515122459
 20
295.931722851552
 30
0.0
 10
334.841677818498
 20
295.9365934300132
 30
0.0
 10
334.8425831998788
 20
295.9462349485792
 30
0.0
 10
334.8434592116777
 20
295.9510350185702
 30
0.0
 10
334.8447861995647
 20
295.955812625701
 30
0.0
  0
SPLINE
  5
1AF
330
1F
100
AcDbEntity
  8
1
100
AcDbSpline
210
0.0
220
0.0
230
1.0
 70
     8
 71
     3
 72
    10
 73
     6
 74
     0
 42
0.000000001
 43
0.0000000001
 40
0.0
 40
0.0
 40
0.0
 40
0.0
 40
0.3298156812409153
 40
0.3298156812409153
 40
1.0
 40
1.0
 40
1.0
 40
1.0
 10
336.4938964851202
 20
295.3157055254648
 30
0.0
 10
336.4994412301872
 20
295.3314771359893
 30
0.0
 10
336.5059644996835
 20
295.3470270747544
 30
0.0
 10
336.5280228237517
 20
295.3920344375317
 30
0.0
 10
336.5460135753487
 20
295.4197975375194
 30
0.0
 10
336.5671553256306
 20
295.4452871892591
 30
0.0
  0
SPLINE
  5
1B0
330
1F
100
AcDbEntity
  8
1
100
AcDbSpline
210
0.0
220
0.0
230
1.0
 70
     8
 71
     3
 72
    14
 73
    10
 74
     0
 42
0.000000001
 43
0.0000000001
 40
0.0
 40
0.0
 40
0.0
 40
0.0
 40
0.25
 40
0.25
 40
0.5
 40
0.5
 40
0.75
 40
0.75
 40
1.0
 40
1.0
 40
1.0
 40
1.0
 10
336.5671553256306
 20
295.4452871892591
 30
0.0
 10
336.5709866210053
 20
295.4499064087425
 30
0.0
 10
336.5753047437902
 20
295.4540636805005
 30
0.0
 10
336.5845381394023
 20
295.4612280311384
 30
0.0
 10
336.5894629549761
 20
295.4642618015567
 30
0.0
 10
336.5999149558984
 20
295.4692651248175
 30
0.0
 10
336.6054380670154
 20
295.4712131205913
 30
0.0
 10
336.6165969782522
 20
295.4738796827432
 30
0.0
 10
336.6222925086305
 20
295.4746303121819
 30
0.0
 10
336.6281082589916
 20
295.4747798037088
 30
0.0
  0
SPLINE
  5
1B1
330
1F
100
AcDbEntity
  8
1
100
AcDbSpline
210
0.0
220
0.0
230
1.0
 70
     8
 71
     3
 72
    12
 73
     8
 74
     0
 42
0.000000001
 43
0.0000000001
 40
0.0
 40
0.0
 40
0.0
 40
0.0
 40
0.1366739488648597
 40
0.1366739488648597
 40
0.5683369744324298
 40
0.5683369744324298
 40
1.0
 40
1.0
 40
1.0
 40
1.0
 10
336.6856769931509
 20
295.500437172877
 30
0.0
 10
336.6836171644117
 20
295.4982501000317
 30
0.0
 10
336.6814355572696
 20
295.4961745673664
 30
0.0
 10
336.6719779124604
 20
295.4881263853837
 30
0.0
 10
336.6639349170965
 20
295.4833990078792
 30
0.0
 10
336.6464847217783
 20
295.4767849681857
 30
0.0
 10
336.6374487972133
 20
295.4750198984916
 30
0.0
 10
336.6281082589916
 20
295.4747798037088
 30
0.0
  0
SPLINE
  5
1B2
330
1F
100
AcDbEntity
  8
1
100
AcDbSpline
210
0.0
220
0.0
230
1.0
 70
     8
 71
     3
 72
    10
 73
     6
 74
     0
 42
0.000000001
 43
0.0000000001
 40
0.0
 40
0.0
 40
0.0
 40
0.0
 40
0.5445084009831833
 40
0.5445084009831833
 40
1.0
 40
1.0
 40
1.0
 40
1.0
 10
335.6653503497142
 20
296.3553344596955
 30
0.0
 10
335.6656480383264
 20
296.3495957317607
 30
0.0
 10
335.6653316296005
 20
296.3438301203506
 30
0.0
 10
335.6636501767447
 20
296.3334614200304
 30
0.0
 10
335.6624751230245
 20
296.3288389674067
 30
0.0
 10
335.6608857109626
 20
296.3243173491719
 30
0.0
  0
SPLINE
  5
1B3
330
1F
100
AcDbEntity
  8
1
100
AcDbSpline
210
0.0
220
0.0
230
1.0
 70
     8
 71
     3
 72
    38
 73
    34
 74
     0
 42
0.000000001
 43
0.0000000001
 40
0.0
 40
0.0
 40
0.0
 40
0.0
 40
0.0625000000000007
 40
0.0625000000000007
 40
0.1250000000000015
 40
0.1250000000000015
 40
0.1875000000000022
 40
0.250000000000003
 40
0.3125000000000038
 40
0.3125000000000038
 40
0.3281250000000037
 40
0.3281250000000037
 40
0.3437500000000037
 40
0.3437500000000037
 40
0.3750000000000037
 40
0.3750000000000037
 40
0.4375000000000032
 40
0.4375000000000032
 40
0.5000000000000028
 40
0.5000000000000028
 40
0.5625000000000025
 40
0.5625000000000025
 40
0.6250000000000019
 40
0.6250000000000019
 40
0.7500000000000013
 40
0.7500000000000013
 40
0.8750000000000003
 40
0.8750000000000003
 40
0.9062500000000003
 40
0.9062500000000003
 40
0.9375000000000003
 40
0.9375000000000003
 40
1.0
 40
1.0
 40
1.0
 40
1.0
 10
294.0322589432653
 20
279.80536617813
 30
0.0
 10
293.7460096670652
 20
279.7860600509381
 30
0.0
 10
293.4635229999418
 20
279.7578403993915
 30
0.0
 10
292.9053551162388
 20
279.6859491592014
 30
0.0
 10
292.629674882033
 20
279.642277041828
 30
0.0
 10
292.0845075576707
 20
279.5415460637747
 30
0.0
 10
291.5455343692372
 20
279.4274281631851
 30
0.0
 10
290.7540655484522
 20
279.2213883042083
 30
0.0
 10
290.2368341778119
 20
279.063718433128
 30
0.0
 10
289.9165787521968
 20
278.9595578196653
 30
0.0
 10
289.8526785545662
 20
278.938444128297
 30
0.0
 10
289.7251746472779
 20
278.8956689897325
 30
0.0
 10
289.6615970732526
 20
278.8740159351457
 30
0.0
 10
289.4717201108131
 20
278.8084049645444
 30
0.0
 10
289.3461424393574
 20
278.7637513430778
 30
0.0
 10
288.9722756555077
 20
278.6272371678839
 30
0.0
 10
288.7268465074176
 20
278.5328323435607
 30
0.0
 10
288.2429563692675
 20
278.3379804176495
 30
0.0
 10
288.0044963688111
 20
278.2375312119175
 30
0.0
 10
287.5340730002017
 20
278.0310701860687
 30
0.0
 10
287.3021104774212
 20
277.9250565924074
 30
0.0
 10
286.8443719420071
 20
277.7077406174949
 30
0.0
 10
286.6185966730036
 20
277.5964367732308
 30
0.0
 10
285.9502919884246
 20
277.2547667748769
 30
0.0
 10
285.516736243718
 20
277.0166824074305
 30
0.0
 10
284.6735333805508
 20
276.519548579033
 30
0.0
 10
284.2639001215419
 20
276.2604793493879
 30
0.0
 10
283.7676353356215
 20
275.9226197745379
 30
0.0
 10
283.6691740211727
 20
275.8543447800192
 30
0.0
 10
283.4738658239022
 20
275.7163590798011
 30
0.0
 10
283.3770886632244
 20
275.6466964760813
 30
0.0
 10
283.0897960188457
 20
275.4359393715905
 30
0.0
 10
282.9021673029252
 20
275.292970239824
 30
0.0
 10
282.7185504442805
 20
275.1474680249341
 30
0.0
  0
SPLINE
  5
1B6
330
1F
100
AcDbEntity
  8
1
100
AcDbSpline
210
0.0
220
0.0
230
1.0
 70
     8
 71
     3
 72
    29
 73
    25
 74
     0
 42
0.000000001
 43
0.0000000001
 40
0.0
 40
0.0
 40
0.0
 40
0.0
 40
0.1250000000000276
 40
0.1250000000000276
 40
0.1875000000000384
 40
0.1875000000000384
 40
0.2500000000000491
 40
0.2500000000000491
 40
0.3750000000000559
 40
0.3750000000000559
 40
0.43750000000005
 40
0.43750000000005
 40
0.5000000000000441
 40
0.5000000000000441
 40
0.6250000000000324
 40
0.6250000000000324
 40
0.6875000000000269
 40
0.6875000000000269
 40
0.7500000000000215
 40
0.8125000000000161
 40
0.8125000000000161
 40
0.8750000000000108
 40
0.8750000000000108
 40
1.0
 40
1.0
 40
1.0
 40
1.0
 10
332.7430049851143
 20
292.5870239452664
 30
0.0
 10
332.744143127467
 20
292.5614907875188
 30
0.0
 10
332.7478425981336
 20
292.5365098537778
 30
0.0
 10
332.7570115370827
 20
292.4998188698822
 30
0.0
 10
332.7606760477106
 20
292.4877196697144
 30
0.0
 10
332.7692409371443
 20
292.4637877233406
 30
0.0
 10
332.7741560918446
 20
292.4519424588162
 30
0.0
 10
332.7904347857472
 20
292.4175738928686
 30
0.0
 10
332.8033997752379
 20
292.3959410858315
 30
0.0
 10
332.825972357374
 20
292.3653847658974
 30
0.0
 10
332.834064906804
 20
292.3554703004867
 30
0.0
 10
332.8511171303857
 20
292.3365421494986
 30
0.0
 10
332.8600417153909
 20
292.3275564992688
 30
0.0
 10
332.887977036075
 20
292.3019941777322
 30
0.0
 10
332.9081378784254
 20
292.2867983773804
 30
0.0
 10
332.9407596210825
 20
292.2668627895589
 30
0.0
 10
332.9519933421237
 20
292.2607303757115
 30
0.0
 10
332.9747815392803
 20
292.2496874674773
 30
0.0
 10
332.997998911914
 20
292.2397979903907
 30
0.0
 10
333.0220678784113
 20
292.2321972155701
 30
0.0
 10
333.0465720432045
 20
292.2257660585323
 30
0.0
 10
333.0591008857914
 20
292.2231270871967
 30
0.0
 10
333.0968966790619
 20
292.2171271408067
 30
0.0
 10
333.1222715717343
 20
292.2156503908613
 30
0.0
 10
333.1478289669445
 20
292.2167650893063
 30
0.0
  0
SPLINE
  5
1B7
330
1F
100
AcDbEntity
  8
1
100
AcDbSpline
210
0.0
220
0.0
230
1.0
 70
     8
 71
     3
 72
    29
 73
    25
 74
     0
 42
0.000000001
 43
0.0000000001
 40
0.0
 40
0.0
 40
0.0
 40
0.0
 40
0.124999999999972
 40
0.124999999999972
 40
0.1874999999999621
 40
0.1874999999999621
 40
0.2499999999999523
 40
0.2499999999999523
 40
0.3749999999999327
 40
0.3749999999999327
 40
0.4374999999999229
 40
0.4374999999999229
 40
0.4999999999999132
 40
0.4999999999999132
 40
0.6249999999998876
 40
0.6249999999998876
 40
0.6874999999999061
 40
0.6874999999999061
 40
0.7499999999999246
 40
0.8124999999999431
 40
0.8124999999999431
 40
0.8749999999999616
 40
0.8749999999999616
 40
1.0
 40
1.0
 40
1.0
 40
1.0
 10
338.8378359809417
 20
298.4254878840807
 30
0.0
 10
338.8366978385891
 20
298.4510210418283
 30
0.0
 10
338.8329983679224
 20
298.4760019755693
 30
0.0
 10
338.8238294289734
 20
298.5126929594649
 30
0.0
 10
338.8201649183454
 20
298.5247921596326
 30
0.0
 10
338.8116000289117
 20
298.5487241060064
 30
0.0
 10
338.8066848742113
 20
298.5605693705309
 30
0.0
 10
338.7904061803089
 20
298.5949379364785
 30
0.0
 10
338.7774411908182
 20
298.6165707435156
 30
0.0
 10
338.754868608682
 20
298.6471270634496
 30
0.0
 10
338.7467760592521
 20
298.6570415288603
 30
0.0
 10
338.7297238356704
 20
298.6759696798484
 30
0.0
 10
338.7207992506652
 20
298.6849553300783
 30
0.0
 10
338.6928639299811
 20
298.7105176516148
 30
0.0
 10
338.6727030876308
 20
298.7257134519667
 30
0.0
 10
338.6400813449735
 20
298.7456490397882
 30
0.0
 10
338.6288476239323
 20
298.7517814536355
 30
0.0
 10
338.6060594267758
 20
298.7628243618699
 30
0.0
 10
338.5828420392266
 20
298.7727137988703
 30
0.0
 10
338.5587730876448
 20
298.780314613777
 30
0.0
 10
338.5342689228515
 20
298.7867457708148
 30
0.0
 10
338.5217400802647
 20
298.7893847421504
 30
0.0
 10
338.4839442869942
 20
298.7953846885404
 30
0.0
 10
338.4585693943218
 20
298.7968614384858
 30
0.0
 10
338.4330119991116
 20
298.7957467400408
 30
0.0
  0
SPLINE
  5
1B9
330
1F
100
AcDbEntity
  8
1
100
AcDbSpline
210
0.0
220
0.0
230
1.0
 70
    12
 71
     2
 72
     6
 73
     3
 74
     0
 42
0.000000001
 43
0.0000000001
 40
0.0
 40
0.0
 40
0.0
 40
1.0
 40
1.0
 40
1.0
 10
332.2906677770431
 20
298.3387006237577
 30
0.0
 41
0.499997093868292
 10
332.402893273407
 20
298.3384640824619
 30
0.0
 41
0.5000029061317081
 10
332.5151154529032
 20
298.3382267366741
 30
0.0
 41
0.499997093868292
  0
SPLINE
  5
1BA
330
1F
100
AcDbEntity
  8
1
100
AcDbSpline
210
0.0
220
0.0
230
1.0
 70
     8
 71
     3
 72
    15
 73
    11
 74
     0
 42
0.000000001
 43
0.0000000001
 40
0.0
 40
0.0
 40
0.0
 40
0.0
 40
0.25
 40
0.25
 40
0.5
 40
0.75
 40
0.75
 40
0.875
 40
0.875
 40
1.0
 40
1.0
 40
1.0
 40
1.0
 10
297.9048419452943
 20
298.2826135896943
 30
0.0
 10
297.7780529564396
 20
298.2826135896943
 30
0.0
 10
297.6521992220617
 20
298.2835631868006
 30
0.0
 10
297.4022980973309
 20
298.2872352098674
 30
0.0
 10
297.1542035601533
 20
298.2926797385213
 30
0.0
 10
296.9096622651222
 20
298.3012538584763
 30
0.0
 10
296.7275897568147
 20
298.3086396319015
 30
0.0
 10
296.6671214048949
 20
298.3112600908845
 30
0.0
 10
296.5466327647402
 20
298.3167732234751
 30
0.0
 10
296.4866510060048
 20
298.3196645240793
 30
0.0
 10
296.4272206148643
 20
298.3226490194392
 30
0.0
  0
SPLINE
  5
1BB
330
1F
100
AcDbEntity
  8
1
100
AcDbSpline
210
0.0
220
0.0
230
1.0
 70
     8
 71
     3
 72
    10
 73
     6
 74
     0
 42
0.000000001
 43
0.0000000001
 40
0.0
 40
0.0
 40
0.0
 40
0.0
 40
0.5
 40
0.5
 40
1.0
 40
1.0
 40
1.0
 40
1.0
 10
296.4272206148641
 20
298.3226490194372
 30
0.0
 10
296.027007338451
 20
298.3325279649368
 30
0.0
 10
295.627469014841
 20
298.3419974165877
 30
0.0
 10
294.829263935237
 20
298.3594199820068
 30
0.0
 10
294.4305951800196
 20
298.3673769868243
 30
0.0
 10
294.0322589432653
 20
298.3743810001736
 30
0.0
  0
SPLINE
  5
1BC
330
1F
100
AcDbEntity
  8
1
100
AcDbSpline
210
0.0
220
0.0
230
1.0
 70
     8
 71
     3
 72
     9
 73
     5
 74
     0
 42
0.000000001
 43
0.0000000001
 40
0.0
 40
0.0
 40
0.0
 40
0.0
 40
0.5
 40
1.0
 40
1.0
 40
1.0
 40
1.0
 10
331.3765659158868
 20
296.1231302369362
 30
0.0
 10
331.2076010449245
 20
296.4820151849323
 30
0.0
 10
330.879538919489
 20
297.204077988462
 30
0.0
 10
330.5717021056149
 20
297.9349398158031
 30
0.0
 10
330.4228482506517
 20
298.302574063315
 30
0.0
  0
SPLINE
  5
1BD
330
1F
100
AcDbEntity
  8
1
100
AcDbSpline
210
0.0
220
0.0
230
1.0
 70
    28
 71
     4
 72
    13
 73
     8
 74
     0
 42
0.000000001
 43
0.0000000001
 40
0.0
 40
0.0
 40
0.0
 40
0.0
 40
0.0
 40
0.1838648284441867
 40
0.1838648284441867
 40
0.1838648284441867
 40
1.0
 40
1.0
 40
1.0
 40
1.0
 40
1.0
 10
297.9048419452957
 20
284.0794945760283
 30
0.0
 41
1.000743858507628
 10
297.9048419452957
 20
283.9095959562349
 30
0.0
 41
1.001096881368487
 10
297.9048419452957
 20
283.737759522509
 30
0.0
 41
1.001386284739987
 10
297.9048419452957
 20
283.5647529022919
 30
0.0
 41
1.00156323924462
 10
297.9048419452957
 20
282.6219656106933
 30
0.0
 41
1.00156323924462
 10
297.9048419452957
 20
281.7648469535134
 30
0.0
 41
0.9980767487174327
 10
297.9048419452957
 20
280.8832408252944
 30
0.0
 41
0.9967451816861634
 10
297.9048419452957
 20
280.0434745760199
 30
0.0
 41
0.9971244531251528
  0
SPLINE
  5
1BE
330
1F
100
AcDbEntity
  8
1
100
AcDbSpline
210
0.0
220
0.0
230
1.0
 70
     9
 71
     3
 72
   121
 73
   117
 74
     0
 42
0.000000001
 43
0.0000000001
 40
0.0
 40
0.0
 40
0.0
 40
0.0
 40
0.0312499999999867
 40
0.0312499999999867
 40
0.0468749999999819
 40
0.0468749999999819
 40
0.0546874999999777
 40
0.0546874999999777
 40
0.0624999999999735
 40
0.0624999999999735
 40
0.0937499999999666
 40
0.0937499999999666
 40
0.1015624999999641
 40
0.1015624999999641
 40
0.1093749999999616
 40
0.1093749999999616
 40
0.1249999999999566
 40
0.1249999999999566
 40
0.1562499999999494
 40
0.1562499999999494
 40
0.1874999999999422
 40
0.1874999999999422
 40
0.203124999999936
 40
0.203124999999936
 40
0.2109374999999339
 40
0.2109374999999339
 40
0.2187499999999317
 40
0.2187499999999317
 40
0.2499999999999231
 40
0.2499999999999231
 40
0.257812499999921
 40
0.257812499999921
 40
0.2656249999999188
 40
0.2656249999999188
 40
0.2812499999999147
 40
0.2812499999999147
 40
0.312499999999905
 40
0.312499999999905
 40
0.3281249999999009
 40
0.3281249999999009
 40
0.3437499999998967
 40
0.3437499999998967
 40
0.3749999999998885
 40
0.3749999999998885
 40
0.3828124999998859
 40
0.3828124999998859
 40
0.3906249999998832
 40
0.4062499999998749
 40
0.4218749999998667
 40
0.4218749999998667
 40
0.4296874999998625
 40
0.4296874999998625
 40
0.4374999999998583
 40
0.4374999999998583
 40
0.4687499999998516
 40
0.4687499999998516
 40
0.4843749999998482
 40
0.4843749999998482
 40
0.4921874999998484
 40
0.4921874999998484
 40
0.4999999999998487
 40
0.4999999999998487
 40
0.5312499999998604
 40
0.5312499999998604
 40
0.5390624999998615
 40
0.5390624999998615
 40
0.5468749999998625
 40
0.5624999999998647
 40
0.5781249999998668
 40
0.5781249999998668
 40
0.593749999999869
 40
0.593749999999869
 40
0.6249999999998731
 40
0.6249999999998731
 40
0.632812499999875
 40
0.632812499999875
 40
0.6406249999998768
 40
0.6406249999998768
 40
0.6562499999998784
 40
0.6562499999998784
 40
0.6874999999998817
 40
0.6874999999998817
 40
0.6953124999998837
 40
0.6953124999998837
 40
0.7031249999998856
 40
0.7187499999998903
 40
0.7343749999998951
 40
0.7343749999998951
 40
0.7421874999998975
 40
0.7421874999998975
 40
0.7499999999998999
 40
0.7499999999998999
 40
0.7812499999999094
 40
0.7812499999999094
 40
0.7968749999999143
 40
0.7968749999999143
 40
0.8124999999999191
 40
0.8124999999999191
 40
0.8437499999999287
 40
0.8437499999999287
 40
0.8593749999999337
 40
0.8593749999999337
 40
0.8749999999999385
 40
0.8749999999999385
 40
0.9062499999999511
 40
0.9062499999999511
 40
0.9218749999999575
 40
0.9218749999999575
 40
0.9374999999999641
 40
0.9531249999999701
 40
0.9531249999999701
 40
0.9609374999999753
 40
0.9609374999999753
 40
0.9687499999999802
 40
0.9687499999999802
 40
1.0
 40
1.0
 40
1.0
 40
1.0
 10
336.1115316100778
 20
287.3161106208127
 30
0.0
 10
336.1704146996701
 20
287.3150828126607
 30
0.0
 10
336.2281740173462
 20
287.3081886825262
 30
0.0
 10
336.3131971191971
 20
287.2894219114729
 30
0.0
 10
336.3412667352787
 20
287.2817512294984
 30
0.0
 10
336.3829539470925
 20
287.2680727053346
 30
0.0
 10
336.3968194863308
 20
287.2631344906423
 30
0.0
 10
336.4241707450168
 20
287.2526098671471
 30
0.0
 10
336.4376574336347
 20
287.2470261342797
 30
0.0
 10
336.5041650791715
 20
287.2175341742021
 30
0.0
 10
336.5544356098139
 20
287.1889513532475
 30
0.0
 10
336.6136258851847
 20
287.1470545383397
 30
0.0
 10
336.6252798705469
 20
287.138363950328
 30
0.0
 10
336.64821339752
 20
287.1203505705765
 30
0.0
 10
336.6594909980897
 20
287.1110257992647
 30
0.0
 10
336.6923822887135
 20
287.0824213846922
 30
0.0
 10
336.7131893353144
 20
287.0624125334098
 30
0.0
 10
336.7723498750558
 20
286.99966482462
 30
0.0
 10
336.8074730948935
 20
286.9542300437661
 30
0.0
 10
336.8688691136429
 20
286.856037948468
 30
0.0
 10
336.894155159946
 20
286.8048532638796
 30
0.0
 10
336.9243741939904
 20
286.7252486348097
 30
0.0
 10
336.9331556974744
 20
286.6982338632305
 30
0.0
 10
336.9443662502297
 20
286.6569869438403
 30
0.0
 10
336.9477821073557
 20
286.6430863681359
 30
0.0
 10
336.9539161754571
 20
286.6151869248941
 30
0.0
 10
336.9566277992776
 20
286.60122618291
 30
0.0
 10
336.9684504568189
 20
286.5313699640383
 30
0.0
 10
336.9724027617627
 20
286.4753195419183
 30
0.0
 10
336.9706254211861
 20
286.4050639206409
 30
0.0
 10
336.9699311259138
 20
286.3910030078928
 30
0.0
 10
336.9678571275363
 20
286.3628613232558
 30
0.0
 10
336.9664729745273
 20
286.3487467778298
 30
0.0
 10
336.9613070842599
 20
286.3066335594874
 30
0.0
 10
336.9565331358293
 20
286.2789524192948
 30
0.0
 10
336.938354384719
 20
286.1970478981983
 30
0.0
 10
336.9211287365388
 20
286.1439537992553
 30
0.0
 10
336.8874900722418
 20
286.0665812889644
 30
0.0
 10
336.874911846015
 20
286.0410955803046
 30
0.0
 10
336.8476041050093
 20
285.9919117612145
 30
0.0
 10
336.8328313078563
 20
285.9680918858218
 30
0.0
 10
336.7851948494986
 20
285.8989056165049
 30
0.0
 10
336.7490483934953
 20
285.8557893163636
 30
0.0
 10
336.6980066758593
 20
285.8058457203751
 30
0.0
 10
336.6875251372588
 20
285.7960814472867
 30
0.0
 10
336.6661992921855
 20
285.7771660954443
 30
0.0
 10
336.6335879650199
 20
285.7496402763513
 30
0.0
 10
336.5761612325132
 20
285.7079349414511
 30
0.0
 10
336.5269199298924
 20
285.6790209211032
 30
0.0
 10
336.488706169081
 20
285.6590558407707
 30
0.0
 10
336.4757540504568
 20
285.6526880963852
 30
0.0
 10
336.4494085594014
 20
285.6405429287945
 30
0.0
 10
336.4359977500372
 20
285.6347610864723
 30
0.0
 10
336.368648905602
 20
285.6076963790918
 30
0.0
 10
336.313219315873
 20
285.5915892648464
 30
0.0
 10
336.2277494341795
 20
285.5756946538751
 30
0.0
 10
336.1988691907183
 20
285.5717840761381
 30
0.0
 10
336.154937131692
 20
285.5680898080968
 30
0.0
 10
336.1402298914712
 20
285.5672267363261
 30
0.0
 10
336.1109707224997
 20
285.5662450975598
 30
0.0
 10
336.0963779997492
 20
285.5661227905739
 30
0.0
 10
336.0235957209885
 20
285.5673240040132
 30
0.0
 10
335.965944986059
 20
285.5740319734946
 30
0.0
 10
335.8946057836847
 20
285.5896726167647
 30
0.0
 10
335.8803326924078
 20
285.5931791809773
 30
0.0
 10
335.8521255329212
 20
285.6008643060734
 30
0.0
 10
335.8103040504736
 20
285.613400149056
 30
0.0
 10
335.742974355368
 20
285.6391901032493
 30
0.0
 10
335.691570672445
 20
285.6649189801439
 30
0.0
 10
335.6413979747489
 20
285.6932102813694
 30
0.0
 10
335.616843741773
 20
285.7087104798205
 30
0.0
 10
335.5465035850361
 20
285.7581073590256
 30
0.0
 10
335.5035451544769
 20
285.7950842842594
 30
0.0
 10
335.4545647241552
 20
285.8462213937148
 30
0.0
 10
335.4450067727932
 20
285.8566969410099
 30
0.0
 10
335.4263710603723
 20
285.8781500418175
 30
0.0
 10
335.4172758004657
 20
285.8891517882711
 30
0.0
 10
335.3909649084457
 20
285.9226035643147
 30
0.0
 10
335.3746521118315
 20
285.9455701400123
 30
0.0
 10
335.3292621817648
 20
286.0164095929365
 30
0.0
 10
335.3037000048768
 20
286.0662043376227
 30
0.0
 10
335.2777023715761
 20
286.1317506538685
 30
0.0
 10
335.2727974979085
 20
286.1450483124366
 30
0.0
 10
335.263686587235
 20
286.1717168508108
 30
0.0
 10
335.2510342824094
 20
286.2119159963667
 30
0.0
 10
335.2349117141734
 20
286.2798816944092
 30
0.0
 10
335.2272467924623
 20
286.3352820920604
 30
0.0
 10
335.2234928901356
 20
286.3772259440923
 30
0.0
 10
335.2225746314009
 20
286.3912729192518
 30
0.0
 10
335.2214168940332
 20
286.4195008617185
 30
0.0
 10
335.2211782052767
 20
286.4337200230112
 30
0.0
 10
335.2217175259625
 20
286.5046186764422
 30
0.0
 10
335.2276077510886
 20
286.5605958755086
 30
0.0
 10
335.244480240302
 20
286.6434552622146
 30
0.0
 10
335.2514530817178
 20
286.6708892017624
 30
0.0
 10
335.2681844506171
 20
286.725368172463
 30
0.0
 10
335.2780004619227
 20
286.7525191697208
 30
0.0
 10
335.3110940296424
 20
286.8316373361365
 30
0.0
 10
335.3380899118278
 20
286.8817898580393
 30
0.0
 10
335.3859994856944
 20
286.9530774784666
 30
0.0
 10
335.403213498766
 20
286.9761787337509
 30
0.0
 10
335.4402403659943
 20
287.0209912792829
 30
0.0
 10
335.4597879699582
 20
287.0423745464556
 30
0.0
 10
335.5211945071796
 20
287.1032457826593
 30
0.0
 10
335.5658973984851
 20
287.139615808613
 30
0.0
 10
335.6387317897558
 20
287.1876607642617
 30
0.0
 10
335.6640976294817
 20
287.202629864171
 30
0.0
 10
335.7156941239525
 20
287.2296870215648
 30
0.0
 10
335.7683671411637
 20
287.2540317974367
 30
0.0
 10
335.8231540801041
 20
287.273039641464
 30
0.0
 10
335.8650461217148
 20
287.2852678217855
 30
0.0
 10
335.8791440206438
 20
287.2890053191394
 30
0.0
 10
335.9076122105863
 20
287.2957910470953
 30
0.0
 10
335.9220164279948
 20
287.2988451821016
 30
0.0
 10
335.9942763623042
 20
287.3122669843769
 30
0.0
 10
336.0526485204856
 20
287.3171384289647
 30
0.0
 10
336.1115316100779
 20
287.3161106208127
 30
0.0
  0
SPLINE
  5
1BF
330
1F
100
AcDbEntity
  8
1
100
AcDbSpline
210
0.0
220
0.0
230
1.0
 70
     8
 71
     3
 72
     8
 73
     4
 74
     0
 42
0.000000001
 43
0.0000000001
 40
0.0
 40
0.0
 40
0.0
 40
0.0
 40
1.0
 40
1.0
 40
1.0
 40
1.0
 10
330.3836343607283
 20
291.7527088750065
 30
0.0
 10
330.2755582457195
 20
291.7801935459147
 30
0.0
 10
330.1672795795127
 20
291.8091917596422
 30
0.0
 10
330.0588632078521
 20
291.8397359052157
 30
0.0
  0
SPLINE
  5
1C0
330
1F
100
AcDbEntity
  8
1
100
AcDbSpline
210
0.0
220
0.0
230
1.0
 70
     8
 71
     3
 72
    48
 73
    44
 74
     0
 42
0.000000001
 43
0.0000000001
 40
0.0
 40
0.0
 40
0.0
 40
0.0
 40
0.0312499999999993
 40
0.0312499999999993
 40
0.0624999999999987
 40
0.1249999999999975
 40
0.1249999999999975
 40
0.2499999999999951
 40
0.2499999999999951
 40
0.2812499999999963
 40
0.2812499999999963
 40
0.3124999999999974
 40
0.3124999999999974
 40
0.3749999999999972
 40
0.3749999999999972
 40
0.437499999999997
 40
0.437499999999997
 40
0.4999999999999968
 40
0.4999999999999968
 40
0.5156249999999972
 40
0.5156249999999972
 40
0.5312499999999975
 40
0.5312499999999975
 40
0.5624999999999979
 40
0.5624999999999979
 40
0.6249999999999987
 40
0.6249999999999987
 40
0.6874999999999993
 40
0.6874999999999993
 40
0.75
 40
0.75
 40
0.765625
 40
0.765625
 40
0.7812499999999999
 40
0.8125
 40
0.8125
 40
0.8749999999999998
 40
0.8749999999999998
 40
0.9374999999999996
 40
0.9374999999999996
 40
0.9687499999999998
 40
0.9687499999999998
 40
1.0
 40
1.0
 40
1.0
 40
1.0
 10
329.815975496376
 20
292.4492428876376
 30
0.0
 10
329.856795004277
 20
292.4707721599601
 30
0.0
 10
329.8974130680932
 20
292.4930231683682
 30
0.0
 10
329.9778654000486
 20
292.5388402747731
 30
0.0
 10
330.0971082704359
 20
292.6093845616057
 30
0.0
 10
330.2119508321217
 20
292.6855030805737
 30
0.0
 10
330.4354775830244
 20
292.8455414342936
 30
0.0
 10
330.5763217061504
 20
292.9625879803509
 30
0.0
 10
330.7407926085496
 20
293.1235708849505
 30
0.0
 10
330.7731046420807
 20
293.1565049191834
 30
0.0
 10
330.8365159942255
 20
293.2239092331545
 30
0.0
 10
330.8676585709114
 20
293.2584356450346
 30
0.0
 10
330.9583688085805
 20
293.3634483101836
 30
0.0
 10
331.0154822287225
 20
293.4356232690778
 30
0.0
 10
331.1228526689841
 20
293.584394073759
 30
0.0
 10
331.1731110340525
 20
293.6609890523465
 30
0.0
 10
331.2664870793849
 20
293.8187831982725
 30
0.0
 10
331.3096069273075
 20
293.8999809679426
 30
0.0
 10
331.35874063284
 20
294.0045512808229
 30
0.0
 10
331.3683284755561
 20
294.0256193809053
 30
0.0
 10
331.3870161494155
 20
294.0680702424025
 30
0.0
 10
331.3961247493465
 20
294.0894761751765
 30
0.0
 10
331.4225533276353
 20
294.1538055997366
 30
0.0
 10
331.4390234295145
 20
294.1969409445074
 30
0.0
 10
331.4849962895856
 20
294.3270921251781
 30
0.0
 10
331.5110699056095
 20
294.4148513074815
 30
0.0
 10
331.5539224864011
 20
294.5923845041493
 30
0.0
 10
331.5707026873181
 20
294.6821582505497
 30
0.0
 10
331.5945446143053
 20
294.8638124490424
 30
0.0
 10
331.6016087745869
 20
294.9556923734627
 30
0.0
 10
331.6038915808917
 20
295.0719615790866
 30
0.0
 10
331.6040177637856
 20
295.0952314154778
 30
0.0
 10
331.6036107282121
 20
295.1415989493461
 30
0.0
 10
331.6020129218582
 20
295.2109847616044
 30
0.0
 10
331.5974766535985
 20
295.2798780134096
 30
0.0
 10
331.5845252920272
 20
295.4170143279457
 30
0.0
 10
331.5707254331311
 20
295.5075726495798
 30
0.0
 10
331.5328331688633
 20
295.6869640020256
 30
0.0
 10
331.5087389564019
 20
295.7757967299236
 30
0.0
 10
331.4647725125232
 20
295.9077341330937
 30
0.0
 10
331.4487817462062
 20
295.9515580015716
 30
0.0
 10
331.4144519487629
 20
296.0380744229965
 30
0.0
 10
331.3960920540445
 20
296.0808418281562
 30
0.0
 10
331.3765659158868
 20
296.1231302369362
 30
0.0
  0
SPLINE
  5
1C1
330
1F
100
AcDbEntity
  8
1
100
AcDbSpline
210
0.0
220
0.0
230
1.0
 70
    12
 71
     3
 72
    10
 73
     6
 74
     0
 42
0.000000001
 43
0.0000000001
 40
0.0
 40
0.0
 40
0.0
 40
0.0
 40
0.0961352729411821
 40
0.6007402648147063
 40
1.0
 40
1.0
 40
1.0
 40
1.0
 10
314.5615414945832
 20
296.1272112258933
 30
0.0
 41
1.003298204189165
 10
315.0982792369848
 20
296.2051293205066
 30
0.0
 41
1.002761601427837
 10
318.4808282363907
 20
296.6200056117364
 30
0.0
 41
0.9994270762441868
 10
324.090734998915
 20
296.1566031540856
 30
0.0
 41
1.003471688076779
 10
329.2203273282357
 20
295.7773993983579
 30
0.0
 41
1.000771371360241
 10
331.3765659158868
 20
296.1231302369362
 30
0.0
 41
1.000985771152732
  0
SPLINE
  5
1C2
330
1F
100
AcDbEntity
  8
1
100
AcDbSpline
210
0.0
220
0.0
230
1.0
 70
     8
 71
     3
 72
    15
 73
    11
 74
     0
 42
0.000000001
 43
0.0000000001
 40
0.0
 40
0.0
 40
0.0
 40
0.0
 40
0.0624999999999987
 40
0.0624999999999987
 40
0.1249999999999974
 40
0.1249999999999974
 40
0.2499999999999976
 40
0.4999999999999976
 40
0.4999999999999976
 40
1.0
 40
1.0
 40
1.0
 40
1.0
 10
290.4208324721075
 20
284.8438531922891
 30
0.0
 10
290.4951265416414
 20
284.8464350302681
 30
0.0
 10
290.5696155803986
 20
284.8485720450593
 30
0.0
 10
290.718985101775
 20
284.8519529936547
 30
0.0
 10
290.7939196081701
 20
284.8531971789734
 30
0.0
 10
291.0187474429767
 20
284.8555803956344
 30
0.0
 10
291.4687373282646
 20
284.8549626547882
 30
0.0
 10
291.919711944792
 20
284.8384810125693
 30
0.0
 10
292.8229356569552
 20
284.7849860235702
 30
0.0
 10
293.4267806477913
 20
284.7220027685865
 30
0.0
 10
294.0322589432653
 20
284.632707173088
 30
0.0
  0
SPLINE
  5
1C3
330
1F
100
AcDbEntity
  8
1
100
AcDbSpline
210
0.0
220
0.0
230
1.0
 70
     8
 71
     3
 72
    14
 73
    10
 74
     0
 42
0.000000001
 43
0.0000000001
 40
0.0
 40
0.0
 40
0.0
 40
0.0
 40
0.2499999999999997
 40
0.2499999999999997
 40
0.4999999999999999
 40
0.4999999999999999
 40
0.75
 40
0.75
 40
1.0
 40
1.0
 40
1.0
 40
1.0
 10
279.4048419452957
 20
272.7911935161155
 30
0.0
 10
279.6760784061822
 20
272.955330680083
 30
0.0
 10
279.9496678564615
 20
273.1307958438969
 30
0.0
 10
280.499756056948
 20
273.4984592594445
 30
0.0
 10
280.776255814907
 20
273.6906791707927
 30
0.0
 10
281.3305483851952
 20
274.087836643614
 30
0.0
 10
281.6083379279744
 20
274.2927802706682
 30
0.0
 10
282.1638011726236
 20
274.712812842037
 30
0.0
 10
282.4414688282106
 20
274.927902190179
 30
0.0
 10
282.7185504442805
 20
275.1474680249341
 30
0.0
  0
SPLINE
  5
1C4
330
1F
100
AcDbEntity
  8
1
100
AcDbSpline
210
0.0
220
0.0
230
1.0
 70
     8
 71
     3
 72
    37
 73
    33
 74
     0
 42
0.000000001
 43
0.0000000001
 40
0.0
 40
0.0
 40
0.0
 40
0.0
 40
0.0624999999999982
 40
0.0624999999999982
 40
0.1249999999999963
 40
0.1249999999999963
 40
0.2499999999999937
 40
0.2499999999999937
 40
0.2656249999999934
 40
0.2656249999999934
 40
0.2812499999999932
 40
0.3124999999999937
 40
0.3124999999999937
 40
0.374999999999994
 40
0.374999999999994
 40
0.4999999999999952
 40
0.4999999999999952
 40
0.5156249999999952
 40
0.5156249999999952
 40
0.5312499999999952
 40
0.5624999999999956
 40
0.5624999999999956
 40
0.624999999999996
 40
0.624999999999996
 40
0.7499999999999969
 40
0.7499999999999969
 40
0.7812499999999974
 40
0.7812499999999974
 40
0.8124999999999976
 40
0.8749999999999985
 40
0.8749999999999985
 40
1.0
 40
1.0
 40
1.0
 40
1.0
 10
276.4128503038483
 20
276.0076742831102
 30
0.0
 10
276.3909277515967
 20
275.908363892155
 30
0.0
 10
276.3753004488028
 20
275.8105606394561
 30
0.0
 10
276.3562082512178
 20
275.6179415284846
 30
0.0
 10
276.35274428247
 20
275.5231256993404
 30
0.0
 10
276.3602865596242
 20
275.2431319831431
 30
0.0
 10
276.3891289064146
 20
275.0624042018953
 30
0.0
 10
276.4487836471357
 20
274.8657321567794
 30
0.0
 10
276.4557838115838
 20
274.8440015317913
 30
0.0
 10
276.4704758761658
 20
274.800916599364
 30
0.0
 10
276.4935702498838
 20
274.7367919605935
 30
0.0
 10
276.5197894275988
 20
274.6741484500433
 30
0.0
 10
276.5762967061446
 20
274.5507705262467
 30
0.0
 10
276.6193876399563
 20
274.4710622306074
 30
0.0
 10
276.7643689292271
 20
274.2391166981976
 30
0.0
 10
276.8818901804089
 20
274.0940388664554
 30
0.0
 10
277.0370908960826
 20
273.9405553859645
 30
0.0
 10
277.0546540652323
 20
273.9236405668198
 30
0.0
 10
277.0902834243501
 20
273.8902056523352
 30
0.0
 10
277.1445312326293
 20
273.8405962073095
 30
0.0
 10
277.2011552417397
 20
273.7925758676686
 30
0.0
 10
277.3174927727414
 20
273.6985579119358
 30
0.0
 10
277.39916618322
 20
273.6385736101175
 30
0.0
 10
277.6560723378922
 20
273.4660431950362
 30
0.0
 10
277.8431349988313
 20
273.3608905008255
 30
0.0
 10
278.0961181994531
 20
273.2401275075125
 30
0.0
 10
278.1477506558797
 20
273.2164798770171
 30
0.0
 10
278.2524716308631
 20
273.17042766472
 30
0.0
 10
278.4117712392914
 20
273.1031895049091
 30
0.0
 10
278.5775914774146
 20
273.0412007300408
 30
0.0
 10
278.9177006685576
 20
272.9236227571259
 30
0.0
 10
279.1556922196
 20
272.8537396524405
 30
0.0
 10
279.4048419452957
 20
272.7911935161155
 30
0.0
  0
SPLINE
  5
1C5
330
1F
100
AcDbEntity
  8
1
100
AcDbSpline
210
0.0
220
0.0
230
1.0
 70
     8
 71
     3
 72
    56
 73
    52
 74
     0
 42
0.000000001
 43
0.0000000001
 40
0.0
 40
0.0
 40
0.0
 40
0.0
 40
0.0625000000000007
 40
0.0625000000000007
 40
0.1250000000000013
 40
0.1250000000000013
 40
0.1875000000000019
 40
0.1875000000000019
 40
0.2187500000000023
 40
0.2187500000000023
 40
0.2500000000000026
 40
0.2500000000000026
 40
0.2812500000000036
 40
0.2812500000000036
 40
0.3125000000000045
 40
0.3125000000000045
 40
0.3437500000000054
 40
0.3437500000000054
 40
0.3750000000000064
 40
0.3750000000000064
 40
0.4062500000000073
 40
0.4062500000000073
 40
0.4218750000000074
 40
0.4218750000000074
 40
0.4375000000000077
 40
0.4375000000000077
 40
0.4687500000000074
 40
0.4687500000000074
 40
0.5000000000000072
 40
0.5000000000000072
 40
0.5312500000000071
 40
0.5312500000000071
 40
0.5625000000000068
 40
0.5625000000000068
 40
0.5937500000000066
 40
0.5937500000000066
 40
0.6250000000000063
 40
0.6250000000000063
 40
0.6875000000000054
 40
0.6875000000000054
 40
0.7500000000000043
 40
0.7500000000000043
 40
0.7812500000000037
 40
0.7812500000000037
 40
0.8125000000000031
 40
0.8125000000000031
 40
0.8750000000000021
 40
0.8750000000000021
 40
0.9375000000000012
 40
0.9375000000000012
 40
1.0
 40
1.0
 40
1.0
 40
1.0
 10
297.9048419452957
 20
284.078329282401
 30
0.0
 10
298.5711352994899
 20
283.9752746892633
 30
0.0
 10
299.2345404496869
 20
283.8650517822203
 30
0.0
 10
300.5548757261612
 20
283.6299011627058
 30
0.0
 10
301.211798591102
 20
283.5049524160274
 30
0.0
 10
302.5186482077267
 20
283.2410181274447
 30
0.0
 10
303.1685639746126
 20
283.1020084256256
 30
0.0
 10
304.1381443605368
 20
282.8847904188905
 30
0.0
 10
304.4604603124811
 20
282.8109501653246
 30
0.0
 10
305.1034043032058
 20
282.66092958667
 30
0.0
 10
305.424032025135
 20
282.5847492003265
 30
0.0
 10
306.0637282102661
 20
282.4307358851771
 30
0.0
 10
306.3827965087818
 20
282.3529034966449
 30
0.0
 10
307.0195723873037
 20
282.1964272790871
 30
0.0
 10
307.3372800438292
 20
282.1177847194276
 30
0.0
 10
307.9716047236016
 20
281.9606560816823
 30
0.0
 10
308.2882221268642
 20
281.8821719871167
 30
0.0
 10
308.9207012794806
 20
281.7264059888862
 30
0.0
 10
309.2365637133553
 20
281.6491265690806
 30
0.0
 10
309.8679167602987
 20
281.4968253660808
 30
0.0
 10
310.1834082814152
 20
281.4218061678937
 30
0.0
 10
310.6566729982173
 20
281.3117111856931
 30
0.0
 10
310.8144538647422
 20
281.2754129417621
 30
0.0
 10
311.1299255487859
 20
281.2037704867544
 30
0.0
 10
311.2876252500714
 20
281.168424141234
 30
0.0
 10
311.7607037590766
 20
281.0639523005425
 30
0.0
 10
312.0760667880154
 20
280.9964065417565
 30
0.0
 10
312.7071699973562
 20
280.8660807179498
 30
0.0
 10
313.0229085016793
 20
280.8032955690857
 30
0.0
 10
313.6550470977633
 20
280.6827114250354
 30
0.0
 10
313.9714467768623
 20
280.6249098958405
 30
0.0
 10
314.6050815681659
 20
280.5142853158443
 30
0.0
 10
314.9223158148
 20
280.4614595886274
 30
0.0
 10
315.5576984459473
 20
280.3606236655257
 30
0.0
 10
315.8758463021553
 20
280.3126118546042
 30
0.0
 10
316.5130701311347
 20
280.2211623454386
 30
0.0
 10
316.8321307992785
 20
280.1777028825961
 30
0.0
 10
317.7903207382306
 20
280.0534273775197
 30
0.0
 10
318.4304332486457
 20
279.9786674201854
 30
0.0
 10
319.7123557084755
 20
279.8434236178826
 30
0.0
 10
320.3541851129533
 20
279.7829750839851
 30
0.0
 10
321.3179432606139
 20
279.7024792808376
 30
0.0
 10
321.6394240341511
 20
279.6773448234969
 30
0.0
 10
322.2824230689213
 20
279.6304503575273
 30
0.0
 10
322.6038765259324
 20
279.6086944456228
 30
0.0
 10
323.5680694094778
 20
279.5484449537954
 30
0.0
 10
324.2106251178031
 20
279.5149564446153
 30
0.0
 10
325.4952834361952
 20
279.4613278444269
 30
0.0
 10
326.1374423667751
 20
279.4412368353379
 30
0.0
 10
327.4221983635007
 20
279.4145742317491
 30
0.0
 10
328.0648016394467
 20
279.4079935137004
 30
0.0
 10
328.7078675715136
 20
279.4079935137005
 30
0.0
  0
SPLINE
  5
1C6
330
1F
100
AcDbEntity
  8
1
100
AcDbSpline
210
0.0
220
0.0
230
1.0
 70
     8
 71
     3
 72
    46
 73
    42
 74
     0
 42
0.000000001
 43
0.0000000001
 40
0.0
 40
0.0
 40
0.0
 40
0.0
 40
0.0624999999999997
 40
0.0624999999999997
 40
0.1249999999999994
 40
0.1249999999999994
 40
0.1874999999999991
 40
0.1874999999999991
 40
0.218749999999999
 40
0.218749999999999
 40
0.2499999999999988
 40
0.2499999999999988
 40
0.3124999999999989
 40
0.3124999999999989
 40
0.3749999999999989
 40
0.3749999999999989
 40
0.4374999999999992
 40
0.4374999999999992
 40
0.4999999999999992
 40
0.4999999999999992
 40
0.5312499999999992
 40
0.5312499999999992
 40
0.5624999999999992
 40
0.5624999999999992
 40
0.5937499999999993
 40
0.5937499999999993
 40
0.6249999999999995
 40
0.6249999999999995
 40
0.6562499999999995
 40
0.6562499999999995
 40
0.6874999999999996
 40
0.6874999999999996
 40
0.7499999999999996
 40
0.7499999999999996
 40
0.8124999999999998
 40
0.8124999999999998
 40
0.8749999999999998
 40
0.8749999999999998
 40
0.9375
 40
0.9375
 40
1.0
 40
1.0
 40
1.0
 40
1.0
 10
297.9048419452957
 20
298.2826135896944
 30
0.0
 10
298.4683394300313
 20
298.2676772615994
 30
0.0
 10
299.0296702862586
 20
298.2499012299472
 30
0.0
 10
300.1478459187913
 20
298.2067412870629
 30
0.0
 10
300.7046882825874
 20
298.181353692254
 30
0.0
 10
301.8138510860135
 20
298.1207263901116
 30
0.0
 10
302.3661677533616
 20
298.0854772459745
 30
0.0
 10
303.1913836846853
 20
298.0234348471223
 30
0.0
 10
303.4659145195248
 20
298.0012258081039
 30
0.0
 10
304.0139469569617
 20
297.9534759373306
 30
0.0
 10
304.2871915975944
 20
297.9279565174029
 30
0.0
 10
305.1046137455379
 20
297.8461490945645
 30
0.0
 10
305.6465251376092
 20
297.784565440887
 30
0.0
 10
306.7256081215977
 20
297.6463058151074
 30
0.0
 10
307.2627833171436
 20
297.5696131001448
 30
0.0
 10
308.33438781683
 20
297.4016099967629
 30
0.0
 10
308.8688310513258
 20
297.3103025447475
 30
0.0
 10
309.9373752551337
 20
297.1153270755516
 30
0.0
 10
310.4710944066098
 20
297.0117611706131
 30
0.0
 10
311.2725464460813
 20
296.8499660124315
 30
0.0
 10
311.5398460579972
 20
296.7949656435624
 30
0.0
 10
312.0749965065311
 20
296.6833056551375
 30
0.0
 10
312.3428852993114
 20
296.626711040351
 30
0.0
 10
312.8789774364197
 20
296.5115970644151
 30
0.0
 10
313.1471683161819
 20
296.4530569952273
 30
0.0
 10
313.6835770788961
 20
296.3336045189057
 30
0.0
 10
313.9517955333058
 20
296.2726917025645
 30
0.0
 10
314.4881196147767
 20
296.148229214929
 30
0.0
 10
314.7562260076152
 20
296.0846797588937
 30
0.0
 10
315.2922876311526
 20
295.9548253637307
 30
0.0
 10
315.560165222506
 20
295.8885397683678
 30
0.0
 10
316.3632641934801
 20
295.6856711410733
 30
0.0
 10
316.8979533475952
 20
295.5449399324414
 30
0.0
 10
317.9674930318256
 20
295.2554217653848
 30
0.0
 10
318.5023608886323
 20
295.1066826737302
 30
0.0
 10
319.5731763005446
 20
294.8032493982124
 30
0.0
 10
320.1091173795592
 20
294.6485533836379
 30
0.0
 10
321.1823184438837
 20
294.3340390574727
 30
0.0
 10
321.719207648311
 20
294.1743256160286
 30
0.0
 10
322.7931590204017
 20
293.8497971676848
 30
0.0
 10
323.3302561689251
 20
293.6849760874692
 30
0.0
 10
323.8671842551564
 20
293.5169154618027
 30
0.0
  0
SPLINE
  5
1C7
330
1F
100
AcDbEntity
  8
1
100
AcDbSpline
210
0.0
220
0.0
230
1.0
 70
     8
 71
     3
 72
    44
 73
    40
 74
     0
 42
0.000000001
 43
0.0000000001
 40
0.0
 40
0.0
 40
0.0
 40
0.0
 40
0.0518457072538729
 40
0.0518457072538729
 40
0.1036914145077457
 40
0.1036914145077457
 40
0.1555371217616186
 40
0.1555371217616186
 40
0.181459975388555
 40
0.181459975388555
 40
0.2073828290154915
 40
0.2073828290154915
 40
0.2592285362693643
 40
0.2592285362693643
 40
0.2851513898963008
 40
0.2851513898963008
 40
0.3110742435232373
 40
0.3110742435232373
 40
0.4147656580309811
 40
0.4147656580309811
 40
0.5184570725387249
 40
0.5184570725387249
 40
0.6221484870464687
 40
0.6221484870464687
 40
0.6739941943003412
 40
0.6739941943003412
 40
0.7258399015542136
 40
0.7258399015542136
 40
0.8295313160619583
 40
0.8295313160619583
 40
0.8813770233158301
 40
0.8813770233158301
 40
0.9072998769427659
 40
0.9072998769427659
 40
0.9332227305697021
 40
0.9332227305697021
 40
0.9850684378235749
 40
0.9850684378235749
 40
1.0
 40
1.0
 40
1.0
 40
1.0
 10
330.4228482506514
 20
298.3025740633156
 30
0.0
 10
330.1026889130075
 20
298.3253075822238
 30
0.0
 10
329.7793531173562
 20
298.3433736973424
 30
0.0
 10
329.1267313090873
 20
298.3720951000197
 30
0.0
 10
328.7974442879822
 20
298.3827523932514
 30
0.0
 10
328.1336132130255
 20
298.398270539312
 30
0.0
 10
327.7990687379844
 20
298.4031334775137
 30
0.0
 10
327.2940659562463
 20
298.4070099039186
 30
0.0
 10
327.125203192688
 20
298.4077292524833
 30
0.0
 10
326.7865765893642
 20
298.4081366124014
 30
0.0
 10
326.616770492931
 20
298.4078242848624
 30
0.0
 10
326.106848710288
 20
298.4054720287716
 30
0.0
 10
325.7660588748675
 20
298.402035299256
 30
0.0
 10
325.2544653362822
 20
298.3943229418446
 30
0.0
 10
325.0838677810742
 20
298.3913217272107
 30
0.0
 10
324.742701658821
 20
298.3844469158763
 30
0.0
 10
324.5721451720741
 20
298.3805700781008
 30
0.0
 10
323.7196631497809
 20
298.3589380667723
 30
0.0
 10
323.0385123823964
 20
298.3344789684151
 30
0.0
 10
321.6781783345683
 20
298.2704503861253
 30
0.0
 10
320.9989985330117
 20
298.230869740673
 30
0.0
 10
319.6425935069175
 20
298.1356083952213
 30
0.0
 10
318.9653478234118
 20
298.0799405520905
 30
0.0
 10
317.950854773968
 20
297.9835631939288
 30
0.0
 10
317.6129209467845
 20
297.9492900894232
 30
0.0
 10
316.9375684299239
 20
297.8762234483295
 30
0.0
 10
316.6001482286767
 20
297.8374332501804
 30
0.0
 10
315.5888805842247
 20
297.7137187345335
 30
0.0
 10
314.9161066011234
 20
297.6213657116268
 30
0.0
 10
313.9089626750821
 20
297.4662983953373
 30
0.0
 10
313.5735774929615
 20
297.4118556330557
 30
0.0
 10
313.0708709936534
 20
297.3259880456308
 30
0.0
 10
312.9033629959398
 20
297.2966665879989
 30
0.0
 10
312.5684347732688
 20
297.2366383927417
 30
0.0
 10
312.4009980387889
 20
297.2059282499456
 30
0.0
 10
311.8990680535504
 20
297.1118301368363
 30
0.0
 10
311.56487254525
 20
297.0464389390926
 30
0.0
 10
311.134678293254
 20
296.9592426087564
 30
0.0
 10
311.0385015529129
 20
296.9395543848711
 30
0.0
 10
310.9423344958798
 20
296.9196868267459
 30
0.0
  0
SPLINE
  5
1C8
330
1F
100
AcDbEntity
  8
1
100
AcDbSpline
210
0.0
220
0.0
230
1.0
 70
     8
 71
     3
 72
    12
 73
     8
 74
     0
 42
0.000000001
 43
0.0000000001
 40
0.0
 40
0.0
 40
0.0
 40
0.0
 40
0.1767852067507906
 40
0.4511901378338604
 40
0.7255950689169302
 40
0.7255950689169302
 40
1.0
 40
1.0
 40
1.0
 40
1.0
 10
291.1104040525594
 20
298.6770424600019
 30
0.0
 10
291.277176913062
 20
298.6460541146607
 30
0.0
 10
291.7050531542338
 20
298.5723297295667
 30
0.0
 10
292.4027069460677
 20
298.4768095917369
 30
0.0
 10
292.9398259266964
 20
298.4276323262611
 30
0.0
 10
293.4820725466309
 20
298.3911434287514
 30
0.0
 10
293.755759313976
 20
298.3792427398697
 30
0.0
 10
294.0322589432653
 20
298.3743810001736
 30
0.0
  0
LINE
  5
1E6
330
1F
100
AcDbEntity
  8
4
100
AcDbLine
 10
271.032259
 20
288.907994
 30
0.0
 11
343.4415850000001
 21
288.907994
 31
0.0
  0
LINE
  5
1E7
330
1F
100
AcDbEntity
  8
SK4
100
AcDbLine
 10
214.904842
 20
288.907994
 30
0.0
 11
277.404842
 21
288.907994
 31
0.0
  0
MTEXT
  5
1ED
330
1F
100
AcDbEntity
  8
SK6
100
AcDbMText
 10
258.520787
 20
241.27662
 30
0.0
 40
3.5
 41
0.0
 71
     7
 72
     5
  1
\W0.7022;802D-20-40-S25
  7
cesky
 73
     2
 44
0.8433729999999998
  0
MTEXT
  5
2FE
330
1F
100
AcDbEntity
  8
2
100
AcDbMText
 10
305.090342
 20
327.385163
 30
0.0
 40
3.5
 41
0.0
 71
     7
 72
     5
  1
\W0.7045;65
  7
cesky
 73
     2
 44
0.8433729999999998
  0
LINE
  5
2FF
330
1F
100
AcDbEntity
  8
2
100
AcDbLine
 10
339.404842
 20
298.907994
 30
0.0
 11
339.404842
 21
328.5109970000001
 31
0.0
  0
LINE
  5
300
330
1F
100
AcDbEntity
  8
2
100
AcDbLine
 10
274.404842
 20
289.907567
 30
0.0
 11
274.404842
 21
328.5109970000001
 31
0.0
  0
LINE
  5
301
330
1F
100
AcDbEntity
  8
2
100
AcDbLine
 10
339.404842
 20
327.510997
 30
0.0
 11
274.404842
 21
327.510997
 31
0.0
  0
SOLID
  5
302
330
1F
100
AcDbEntity
  8
2
100
AcDbTrace
 10
339.404842
 20
327.510997
 30
0.0
 11
335.904844
 21
326.893852
 31
0.0
 12
335.90484
 22
328.128141
 32
0.0
 13
335.90484
 23
328.128141
 33
0.0
  0
SOLID
  5
303
330
1F
100
AcDbEntity
  8
2
100
AcDbTrace
 10
274.404842
 20
327.510997
 30
0.0
 11
277.90484
 21
328.128141
 31
0.0
 12
277.904844
 22
326.893852
 32
0.0
 13
277.904844
 23
326.893852
 33
0.0
  0
MTEXT
  5
304
330
1F
100
AcDbEntity
  8
2
100
AcDbMText
 10
351.826967
 20
288.561774
 30
0.0
 40
3.5
 41
0.0
 71
     7
 72
     5
  1
\W0.7045;20
  7
cesky
 11
0.0000000000000001
 21
1.0
 31
0.0
 73
     2
 44
0.8433729999999998
  0
MTEXT
  5
305
330
1F
100
AcDbEntity
  8
2
100
AcDbMText
 10
351.826967
 20
281.824274
 30
0.0
 40
3.5
 41
0.0
 71
     7
 72
     5
  1
\W3.0115;\H2.63;%%c\H3.50;
  7
cesky
 11
0.0000000000000001
 21
1.0
 31
0.0
 73
     2
 44
0.8433729999999998
  0
LINE
  5
306
330
1F
100
AcDbEntity
  8
2
100
AcDbLine
 10
341.404842
 20
298.907994
 30
0.0
 11
353.014384
 21
298.907994
 31
0.0
  0
LINE
  5
307
330
1F
100
AcDbEntity
  8
2
100
AcDbLine
 10
352.014384
 20
298.907994
 30
0.0
 11
352.014384
 21
281.666774
 31
0.0
  0
SOLID
  5
308
330
1F
100
AcDbEntity
  8
2
100
AcDbTrace
 10
352.014384
 20
298.907994
 30
0.0
 11
352.631528
 21
295.4079959999999
 31
0.0
 12
351.39724
 22
295.407991
 32
0.0
 13
351.39724
 23
295.407991
 33
0.0
  0
MTEXT
  5
309
330
1F
100
AcDbEntity
  8
2
100
AcDbMText
 10
275.827842
 20
340.562135
 30
0.0
 40
3.5
 41
0.0
 71
     7
 72
     5
  1
\W0.9524;121
  7
cesky
 73
     2
 44
0.8433729999999998
  0
LINE
  5
30A
330
1F
100
AcDbEntity
  8
2
100
AcDbLine
 10
339.404842
 20
300.907994
 30
0.0
 11
339.404842
 21
341.687968
 31
0.0
  0
LINE
  5
30B
330
1F
100
AcDbEntity
  8
2
100
AcDbLine
 10
218.404842
 20
299.407994
 30
0.0
 11
218.404842
 21
341.687968
 31
0.0
  0
LINE
  5
30C
330
1F
100
AcDbEntity
  8
2
100
AcDbLine
 10
339.404842
 20
340.687968
 30
0.0
 11
218.404842
 21
340.687968
 31
0.0
  0
SOLID
  5
30D
330
1F
100
AcDbEntity
  8
2
100
AcDbTrace
 10
339.404842
 20
340.687968
 30
0.0
 11
335.904844
 21
340.070823
 31
0.0
 12
335.90484
 22
341.305112
 32
0.0
 13
335.90484
 23
341.305112
 33
0.0
  0
SOLID
  5
30E
330
1F
100
AcDbEntity
  8
2
100
AcDbTrace
 10
218.404842
 20
340.687968
 30
0.0
 11
221.90484
 21
341.305112
 31
0.0
 12
221.904844
 22
340.070823
 32
0.0
 13
221.904844
 23
340.070823
 33
0.0
  0
MTEXT
  5
30F
330
1F
100
AcDbEntity
  8
2
100
AcDbMText
 10
244.590342
 20
327.385163
 30
0.0
 40
3.5
 41
0.0
 71
     7
 72
     5
  1
\W0.7259;56
  7
cesky
 73
     2
 44
0.8433729999999998
  0
LINE
  5
310
330
1F
100
AcDbEntity
  8
2
100
AcDbLine
 10
274.404842
 20
288.907994
 30
0.0
 11
274.404842
 21
328.5109970000001
 31
0.0
  0
LINE
  5
311
330
1F
100
AcDbEntity
  8
2
100
AcDbLine
 10
218.404842
 20
299.407994
 30
0.0
 11
218.404842
 21
328.5109970000001
 31
0.0
  0
LINE
  5
312
330
1F
100
AcDbEntity
  8
2
100
AcDbLine
 10
274.404842
 20
327.510997
 30
0.0
 11
218.404842
 21
327.510997
 31
0.0
  0
SOLID
  5
313
330
1F
100
AcDbEntity
  8
2
100
AcDbTrace
 10
274.404842
 20
327.510997
 30
0.0
 11
270.904844
 21
326.893852
 31
0.0
 12
270.90484
 22
328.128141
 32
0.0
 13
270.90484
 23
328.128141
 33
0.0
  0
SOLID
  5
314
330
1F
100
AcDbEntity
  8
2
100
AcDbTrace
 10
218.404842
 20
327.510997
 30
0.0
 11
221.90484
 21
328.128141
 31
0.0
 12
221.904844
 22
326.893852
 32
0.0
 13
221.904844
 23
326.893852
 33
0.0
  0
MTEXT
  5
315
330
1F
100
AcDbEntity
  8
2
100
AcDbMText
 10
314.086117
 20
316.511754
 30
0.0
 40
3.5
 41
0.0
 71
     7
 72
     5
  1
\W0.7045;47
  7
cesky
 73
     2
 44
0.8433729999999998
  0
LINE
  5
316
330
1F
100
AcDbEntity
  8
2
100
AcDbLine
 10
339.404842
 20
300.907994
 30
0.0
 11
339.404842
 21
317.637587
 31
0.0
  0
LINE
  5
317
330
1F
100
AcDbEntity
  8
2
100
AcDbLine
 10
292.396391
 20
298.706213
 30
0.0
 11
292.396391
 21
317.637587
 31
0.0
  0
LINE
  5
318
330
1F
100
AcDbEntity
  8
2
100
AcDbLine
 10
339.404842
 20
316.637587
 30
0.0
 11
292.396391
 21
316.637587
 31
0.0
  0
SOLID
  5
319
330
1F
100
AcDbEntity
  8
2
100
AcDbTrace
 10
339.404842
 20
316.637587
 30
0.0
 11
335.904844
 21
316.020443
 31
0.0
 12
335.90484
 22
317.254732
 32
0.0
 13
335.90484
 23
317.254732
 33
0.0
  0
SOLID
  5
31A
330
1F
100
AcDbEntity
  8
2
100
AcDbTrace
 10
292.396391
 20
316.637587
 30
0.0
 11
295.896389
 21
317.254732
 31
0.0
 12
295.896393
 22
316.020443
 32
0.0
 13
295.896393
 23
316.020443
 33
0.0
  0
MTEXT
  5
31B
330
1F
100
AcDbEntity
  8
SK2
100
AcDbMText
 10
204.240395
 20
290.434244
 30
0.0
 40
3.5
 41
0.0
 71
     7
 72
     5
  1
\W0.7045;25
  7
cesky
 11
0.0000000000000001
 21
1.0
 31
0.0
 73
     2
 44
0.8433729999999998
  0
MTEXT
  5
31C
330
1F
100
AcDbEntity
  8
SK2
100
AcDbMText
 10
204.240395
 20
283.696744
 30
0.0
 40
3.5
 41
0.0
 71
     7
 72
     5
  1
\W3.0115;\H2.63;%%c\H3.50;
  7
cesky
 11
0.0000000000000001
 21
1.0
 31
0.0
 73
     2
 44
0.8433729999999998
  0
LINE
  5
31D
330
1F
100
AcDbEntity
  8
SK2
100
AcDbLine
 10
220.404842
 20
301.407994
 30
0.0
 11
203.427812
 21
301.407994
 31
0.0
  0
LINE
  5
31E
330
1F
100
AcDbEntity
  8
SK2
100
AcDbLine
 10
220.404842
 20
276.407994
 30
0.0
 11
203.427812
 21
276.407994
 31
0.0
  0
LINE
  5
31F
330
1F
100
AcDbEntity
  8
SK2
100
AcDbLine
 10
204.427812
 20
301.407994
 30
0.0
 11
204.427812
 21
276.407994
 31
0.0
  0
SOLID
  5
320
330
1F
100
AcDbEntity
  8
SK2
100
AcDbTrace
 10
204.427812
 20
301.407994
 30
0.0
 11
205.044956
 21
297.9079959999999
 31
0.0
 12
203.810668
 22
297.907991
 32
0.0
 13
203.810668
 23
297.907991
 33
0.0
  0
SOLID
  5
321
330
1F
100
AcDbEntity
  8
SK2
100
AcDbTrace
 10
204.427812
 20
276.407994
 30
0.0
 11
203.810668
 21
279.9079910000001
 31
0.0
 12
205.044956
 22
279.907996
 32
0.0
 13
205.044956
 23
279.907996
 33
0.0
  0
MTEXT
  5
322
330
1F
100
AcDbEntity
  8
SK2
100
AcDbMText
 10
191.10057
 20
290.434244
 30
0.0
 40
3.5
 41
0.0
 71
     7
 72
     5
  1
\W0.7045;35
  7
cesky
 11
0.0000000000000001
 21
1.0
 31
0.0
 73
     2
 44
0.8433729999999998
  0
MTEXT
  5
323
330
1F
100
AcDbEntity
  8
SK2
100
AcDbMText
 10
191.10057
 20
283.696744
 30
0.0
 40
3.5
 41
0.0
 71
     7
 72
     5
  1
\W3.0115;\H2.63;%%c\H3.50;
  7
cesky
 11
0.0000000000000001
 21
1.0
 31
0.0
 73
     2
 44
0.8433729999999998
  0
LINE
  5
324
330
1F
100
AcDbEntity
  8
SK2
100
AcDbLine
 10
274.904842
 20
306.407994
 30
0.0
 11
190.287987
 21
306.407994
 31
0.0
  0
LINE
  5
325
330
1F
100
AcDbEntity
  8
SK2
100
AcDbLine
 10
274.904842
 20
271.407994
 30
0.0
 11
190.287987
 21
271.407994
 31
0.0
  0
LINE
  5
326
330
1F
100
AcDbEntity
  8
SK2
100
AcDbLine
 10
191.287987
 20
306.407994
 30
0.0
 11
191.287987
 21
271.407994
 31
0.0
  0
SOLID
  5
327
330
1F
100
AcDbEntity
  8
SK2
100
AcDbTrace
 10
191.287987
 20
306.407994
 30
0.0
 11
191.905131
 21
302.907996
 31
0.0
 12
190.670842
 22
302.907991
 32
0.0
 13
190.670842
 23
302.907991
 33
0.0
  0
SOLID
  5
328
330
1F
100
AcDbEntity
  8
SK2
100
AcDbTrace
 10
191.287987
 20
271.407994
 30
0.0
 11
190.670842
 21
274.907991
 31
0.0
 12
191.905131
 22
274.9079959999999
 32
0.0
 13
191.905131
 23
274.9079959999999
 33
0.0
  0
LINE
  5
329
330
1F
100
AcDbEntity
  8
CUT
100
AcDbLine
 10
338.4330119991116
 20
298.9052381782897
 30
0.0
 11
332.8653947443902
 21
298.6492031154343
 31
0.0
  0
LINE
  5
32C
330
1F
100
AcDbEntity
  8
CUT
100
AcDbLine
 10
339.0385022575435
 20
294.0757234536783
 30
0.0
 11
338.8378359809417
 21
298.5374613044817
 31
0.0
  0
LINE
  5
32D
330
1F
100
AcDbEntity
  8
CUT
100
AcDbLine
 10
339.4046674212314
 20
289.4979933061184
 30
0.0
 11
339.3331914855816
 21
293.5853796796542
 31
0.0
  0
LINE
  5
32E
330
1F
100
AcDbEntity
  8
CUT
100
AcDbLine
 10
339.3331914855816
 20
293.5853796796542
 30
0.0
 11
339.0385022575435
 21
294.0757234536783
 31
0.0
  0
LINE
  5
32F
330
1F
100
AcDbEntity
  8
CUT
100
AcDbLine
 10
332.495086
 20
288.907994
 30
0.0
 11
339.404667
 21
288.907994
 31
0.0
  0
LINE
  5
330
330
1F
100
AcDbEntity
  8
CUT
100
AcDbLine
 10
332.495086
 20
298.245458
 30
0.0
 11
332.495086
 21
288.907994
 31
0.0
  0
LINE
  5
331
330
1F
100
AcDbEntity
  8
CUT
100
AcDbLine
 10
339.404667
 20
288.907994
 30
0.0
 11
339.404667
 21
289.497993
 31
0.0
  0
LINE
  5
332
330
1F
100
AcDbEntity
  8
CUT
100
AcDbLine
 10
338.8378359809417
 20
298.5374613044817
 30
0.0
 11
338.8378359809417
 21
298.5374613044817
 31
0.0
  0
ARC
  5
333
330
1F
100
AcDbEntity
  8
CUT
100
AcDbCircle
 10
338.4486464093537
 20
298.5157575758379
 30
0.0
 40
0.389794271981859
100
AcDbArc
 50
3.191877314454272
 51
92.29871536091453
  0
ARC
  5
334
330
1F
100
AcDbEntity
  8
CUT
100
AcDbCircle
 10
332.8861896877622
 20
298.2581687832244
 30
0.0
 40
0.3915868724008852
100
AcDbArc
 50
93.04408366756888
 51
177.7012587027966
  0
ARC
  5
335
330
1F
100
AcDbEntity
  8
CUT
100
AcDbCircle
 10
332.8612956832527
 20
298.2618379996843
 30
0.0
 40
0.366575436523689
100
AcDbArc
 50
178.1182349878181
 51
182.5610034136545
  0
ENDSEC
  0
SECTION
  2
OBJECTS
  0
DICTIONARY
  5
C
330
0
100
AcDbDictionary
281
     1
  3
ACAD_CIP_PREVIOUS_PRODUCT_INFO
350
2FB
  3
ACAD_COLOR
350
2F6
  3
ACAD_DETAILVIEWSTYLE
350
2F2
  3
ACAD_GROUP
350
D
  3
ACAD_LAYOUT
350
1A
  3
ACAD_MATERIAL
350
43
  3
ACAD_MLEADERSTYLE
350
6B
  3
ACAD_MLINESTYLE
350
17
  3
ACAD_PLOTSETTINGS
350
19
  3
ACAD_PLOTSTYLENAME
350
E
  3
ACAD_SCALELIST
350
47
  3
ACAD_SECTIONVIEWSTYLE
350
2F3
  3
ACAD_TABLESTYLE
350
69
  3
ACAD_VISUALSTYLE
350
2A
  3
ACDB_RECOMPOSE_DATA
350
361
  3
AcDbVariableDictionary
350
2AF
  0
DICTIONARY
  5
344
330
10
100
AcDbDictionary
280
     1
281
     1
  3
ADSK_XREC_LAYER_RECONCILED
360
345
  0
DICTIONARY
  5
346
330
336
100
AcDbDictionary
280
     1
281
     1
  3
ADSK_XREC_LAYER_RECONCILED
360
347
  0
DICTIONARY
  5
348
330
337
100
AcDbDictionary
280
     1
281
     1
  3
ADSK_XREC_LAYER_RECONCILED
360
349
  0
DICTIONARY
  5
34A
330
338
100
AcDbDictionary
280
     1
281
     1
  3
ADSK_XREC_LAYER_RECONCILED
360
34B
  0
DICTIONARY
  5
34C
330
33A
100
AcDbDictionary
280
     1
281
     1
  3
ADSK_XREC_LAYER_RECONCILED
360
34D
  0
DICTIONARY
  5
34E
330
33B
100
AcDbDictionary
280
     1
281
     1
  3
ADSK_XREC_LAYER_RECONCILED
360
34F
  0
DICTIONARY
  5
350
330
33D
100
AcDbDictionary
280
     1
281
     1
  3
ADSK_XREC_LAYER_RECONCILED
360
351
  0
DICTIONARY
  5
352
330
33E
100
AcDbDictionary
280
     1
281
     1
  3
ADSK_XREC_LAYER_RECONCILED
360
353
  0
DICTIONARY
  5
354
330
33F
100
AcDbDictionary
280
     1
281
     1
  3
ADSK_XREC_LAYER_RECONCILED
360
355
  0
DICTIONARY
  5
356
330
340
100
AcDbDictionary
280
     1
281
     1
  3
ADSK_XREC_LAYER_RECONCILED
360
357
  0
DICTIONARY
  5
358
330
341
100
AcDbDictionary
280
     1
281
     1
  3
ADSK_XREC_LAYER_RECONCILED
360
359
  0
DICTIONARY
  5
35A
330
342
100
AcDbDictionary
280
     1
281
     1
  3
ADSK_XREC_LAYER_RECONCILED
360
35B
  0
DICTIONARY
  5
2FC
330
1F
100
AcDbDictionary
280
     1
281
     1
  3
ACAD_SORTENTS
360
2FD
  0
XRECORD
  5
2FB
102
{ACAD_REACTORS
330
C
102
}
330
C
100
AcDbXrecord
280
     1
300
ACD
300
2019
300
87084ACD_2019_0F
  0
DICTIONARY
  5
2F6
102
{ACAD_REACTORS
330
C
102
}
330
C
100
AcDbDictionary
281
     1
  0
DICTIONARY
  5
2F2
102
{ACAD_REACTORS
330
C
102
}
330
C
100
AcDbDictionary
281
     1
  3
Metric50
350
2F8
  0
DICTIONARY
  5
D
102
{ACAD_REACTORS
330
C
102
}
330
C
100
AcDbDictionary
281
     1
  3
NULOVY_BOD
350
343
  0
DICTIONARY
  5
1A
102
{ACAD_REACTORS
330
C
102
}
330
C
100
AcDbDictionary
281
     1
  3
Layout1
350
1E
  3
Layout2
350
26
  3
Model
350
22
  0
DICTIONARY
  5
43
102
{ACAD_REACTORS
330
C
102
}
330
C
100
AcDbDictionary
281
     1
  3
ByBlock
350
45
  3
ByLayer
350
44
  3
Global
350
46
  0
DICTIONARY
  5
6B
102
{ACAD_REACTORS
330
C
102
}
330
C
100
AcDbDictionary
281
     1
  3
Standard
350
6C
  0
DICTIONARY
  5
17
102
{ACAD_REACTORS
330
C
102
}
330
C
100
AcDbDictionary
281
     1
  3
Standard
350
18
  0
DICTIONARY
  5
19
102
{ACAD_REACTORS
330
C
102
}
330
C
100
AcDbDictionary
281
     1
  0
ACDBDICTIONARYWDFLT
  5
E
102
{ACAD_REACTORS
330
C
102
}
330
C
100
AcDbDictionary
281
     1
  3
Normal
350
F
100
AcDbDictionaryWithDefault
340
F
  0
DICTIONARY
  5
47
102
{ACAD_REACTORS
330
C
102
}
330
C
100
AcDbDictionary
281
     1
  3
A0
350
48
  3
A1
350
49
  3
A2
350
4A
  3
A3
350
4B
  3
A4
350
4C
  3
A5
350
4D
  3
A6
350
4E
  3
A7
350
4F
  3
A8
350
50
  3
A9
350
51
  3
B0
350
52
  3
B1
350
53
  3
B2
350
54
  3
B3
350
55
  3
B4
350
56
  3
B5
350
57
  3
B6
350
58
  3
B7
350
59
  3
B8
350
5A
  3
B9
350
5B
  3
C0
350
5C
  3
C1
350
5D
  3
C2
350
5E
  3
C3
350
5F
  3
C4
350
60
  3
C5
350
61
  3
C6
350
62
  3
C7
350
63
  3
C8
350
64
  3
C9
350
65
  3
D0
350
66
  3
D1
350
67
  3
D2
350
68
  0
DICTIONARY
  5
2F3
102
{ACAD_REACTORS
330
C
102
}
330
C
100
AcDbDictionary
281
     1
  3
Metric50
350
2F7
  0
DICTIONARY
  5
69
102
{ACAD_REACTORS
330
C
102
}
330
C
100
AcDbDictionary
281
     1
  3
Standard
350
6A
  0
DICTIONARY
  5
2A
102
{ACAD_REACTORS
330
C
102
}
330
C
100
AcDbDictionary
281
     1
  3
2dWireframe
350
2F
  3
Basic
350
32
  3
Brighten
350
36
  3
ColorChange
350
3A
  3
Conceptual
350
34
  3
Dim
350
35
  3
EdgeColorOff
350
3D
  3
Facepattern
350
39
  3
Flat
350
2B
  3
FlatWithEdges
350
2C
  3
Gouraud
350
2D
  3
GouraudWithEdges
350
2E
  3
Hidden
350
31
  3
JitterOff
350
3B
  3
Linepattern
350
38
  3
OverhangOff
350
3C
  3
Realistic
350
33
  3
Shaded
350
42
  3
Shaded with edges
350
41
  3
Shades of Gray
350
3E
  3
Sketchy
350
3F
  3
Thicken
350
37
  3
Wireframe
350
30
  3
X-Ray
350
40
  0
XRECORD
  5
361
102
{ACAD_REACTORS
330
C
102
}
330
C
100
AcDbXrecord
280
     1
 90
        1
330
6A
  0
DICTIONARY
  5
2AF
102
{ACAD_REACTORS
330
C
102
}
330
C
100
AcDbDictionary
281
     1
  3
CANNOSCALE
350
2B0
  3
CMLEADERSTYLE
350
2F1
  3
CTABLESTYLE
350
2F0
  3
CVIEWDETAILSTYLE
350
35C
  3
CVIEWSECTIONSTYLE
350
35D
  3
MSLTSCALE
350
2B1
  3
XCLIPFRAME
350
35E
  0
XRECORD
  5
345
102
{ACAD_REACTORS
330
344
102
}
330
344
100
AcDbXrecord
280
     1
290
     1
  0
XRECORD
  5
347
102
{ACAD_REACTORS
330
346
102
}
330
346
100
AcDbXrecord
280
     1
290
     1
  0
XRECORD
  5
349
102
{ACAD_REACTORS
330
348
102
}
330
348
100
AcDbXrecord
280
     1
290
     1
  0
XRECORD
  5
34B
102
{ACAD_REACTORS
330
34A
102
}
330
34A
100
AcDbXrecord
280
     1
290
     1
  0
XRECORD
  5
34D
102
{ACAD_REACTORS
330
34C
102
}
330
34C
100
AcDbXrecord
280
     1
290
     1
  0
XRECORD
  5
34F
102
{ACAD_REACTORS
330
34E
102
}
330
34E
100
AcDbXrecord
280
     1
290
     1
  0
XRECORD
  5
351
102
{ACAD_REACTORS
330
350
102
}
330
350
100
AcDbXrecord
280
     1
290
     1
  0
XRECORD
  5
353
102
{ACAD_REACTORS
330
352
102
}
330
352
100
AcDbXrecord
280
     1
290
     1
  0
XRECORD
  5
355
102
{ACAD_REACTORS
330
354
102
}
330
354
100
AcDbXrecord
280
     1
290
     1
  0
XRECORD
  5
357
102
{ACAD_REACTORS
330
356
102
}
330
356
100
AcDbXrecord
280
     1
290
     1
  0
XRECORD
  5
359
102
{ACAD_REACTORS
330
358
102
}
330
358
100
AcDbXrecord
280
     1
290
     1
  0
XRECORD
  5
35B
102
{ACAD_REACTORS
330
35A
102
}
330
35A
100
AcDbXrecord
280
     1
290
     1
  0
SORTENTSTABLE
  5
2FD
102
{ACAD_REACTORS
330
2FC
102
}
330
2FC
100
AcDbSortentsTable
330
1F
331
2FE
  5
221
331
2FF
  5
23A
331
300
  5
2FE
331
301
  5
2FF
331
302
  5
300
331
303
  5
301
331
304
  5
302
331
305
  5
303
331
306
  5
304
331
307
  5
305
331
308
  5
306
331
309
  5
317
331
30A
  5
318
331
30B
  5
319
331
30C
  5
31A
331
30D
  5
31B
331
30E
  5
31C
331
30F
  5
31D
331
310
  5
31E
331
311
  5
31F
331
312
  5
320
331
313
  5
321
331
314
  5
322
331
315
  5
323
331
316
  5
324
331
317
  5
325
331
318
  5
326
331
319
  5
327
331
31A
  5
328
331
31B
  5
309
331
31C
  5
30A
331
31D
  5
30B
331
31E
  5
30C
331
31F
  5
30D
331
320
  5
30E
331
321
  5
30F
331
322
  5
310
331
323
  5
311
331
324
  5
312
331
325
  5
313
331
326
  5
314
331
327
  5
315
331
328
  5
316
331
32C
  5
330
331
32D
  5
331
331
32E
  5
332
331
32F
  5
333
331
330
  5
334
331
331
  5
335
331
332
  5
32C
331
333
  5
32D
331
334
  5
32E
331
335
  5
32F
  0
ACDBDETAILVIEWSTYLE
  5
2F8
102
{ACAD_XDICTIONARY
360
395
102
}
102
{ACAD_REACTORS
330
2F2
102
}
330
2F2
100
AcDbModelDocViewStyle
 70
     0
  3
Metric50
290
     0
100
AcDbDetailViewStyle
 70
     0
 71
     0
 90
        3
 71
     1
340
11
 62
   256
 40
5.0
340
0
 62
   256
 40
5.0
300

 40
0.0
280
     1
 71
     2
340
16
 90
       25
 62
   256
 71
     3
340
11
 62
   256
 40
5.0
 90
        0
 40
15.0
 90
        1
300
%<\AcVar ViewDetailId>% (%<\AcVar ViewScale \f "%sn">%)
 71
     4
340
16
 90
       25
 62
   256
340
16
 90
       25
 62
   256
280
     0
  0
GROUP
  5
343
102
{ACAD_REACTORS
330
D
102
}
330
D
100
AcDbGroup
300

 70
     0
 71
     1
340
73
  0
LAYOUT
  5
1E
102
{ACAD_REACTORS
330
1A
102
}
330
1A
100
AcDbPlotSettings
  1

  2
none_device
  4

  6

 40
0.0
 41
0.0
 42
0.0
 43
0.0
 44
0.0
 45
0.0
 46
0.0
 47
0.0
 48
0.0
 49
0.0
140
0.0
141
0.0
142
1.0
143
1.0
 70
   688
 72
     0
 73
     0
 74
     5
  7

 75
    16
147
1.0
 76
     0
 77
     2
 78
   300
148
0.0
149
0.0
100
AcDbLayout
  1
Layout1
 70
     1
 71
     1
 10
-0.5
 20
-0.5
 11
5.0
 21
5.0
 12
0.0
 22
0.0
 32
0.0
 14
-0.5
 24
-0.5
 34
-0.5
 15
5.0
 25
5.0
 35
5.0
146
0.0
 13
0.0
 23
0.0
 33
0.0
 16
1.0
 26
0.0
 36
0.0
 17
0.0
 27
1.0
 37
0.0
 76
     0
330
1B
  0
LAYOUT
  5
26
102
{ACAD_REACTORS
330
1A
102
}
330
1A
100
AcDbPlotSettings
  1

  2
none_device
  4

  6

 40
0.0
 41
0.0
 42
0.0
 43
0.0
 44
0.0
 45
0.0
 46
0.0
 47
0.0
 48
0.0
 49
0.0
140
0.0
141
0.0
142
1.0
143
1.0
 70
   688
 72
     0
 73
     0
 74
     5
  7

 75
    16
147
1.0
 76
     0
 77
     2
 78
   300
148
0.0
149
0.0
100
AcDbLayout
  1
Layout2
 70
     1
 71
     2
 10
0.0
 20
0.0
 11
0.0
 21
0.0
 12
0.0
 22
0.0
 32
0.0
 14
0.0
 24
0.0
 34
0.0
 15
0.0
 25
0.0
 35
0.0
146
0.0
 13
0.0
 23
0.0
 33
0.0
 16
1.0
 26
0.0
 36
0.0
 17
0.0
 27
1.0
 37
0.0
 76
     0
330
23
  0
LAYOUT
  5
22
102
{ACAD_REACTORS
330
1A
102
}
330
1A
100
AcDbPlotSettings
  1

  2
none_device
  4
Letter_(8.50_x_11.00_Inches)
  6

 40
6.349999999999999
 41
6.349999999999999
 42
6.350005
 43
6.350005
 44
215.9
 45
279.4
 46
0.0
 47
0.0
 48
0.0
 49
0.0
140
0.0
141
0.0
142
1.0
143
1.0
 70
  1712
 72
     0
 73
     0
 74
     0
  7

 75
     0
147
1.0
 76
     0
 77
     2
 78
   300
148
0.0
149
0.0
100
AcDbLayout
  1
Model
 70
     1
 71
     0
 10
-0.5
 20
-0.5
 11
5.0
 21
5.0
 12
0.0
 22
0.0
 32
0.0
 14
-0.5
 24
-0.5
 34
-0.5
 15
5.0
 25
5.0
 35
5.0
146
0.0
 13
0.0
 23
0.0
 33
0.0
 16
1.0
 26
0.0
 36
0.0
 17
0.0
 27
1.0
 37
0.0
 76
     0
330
1F
331
29
  0
MATERIAL
  5
45
102
{ACAD_XDICTIONARY
360
2E5
102
}
102
{ACAD_REACTORS
330
43
102
}
330
43
100
AcDbMaterial
  1
ByBlock
  0
MATERIAL
  5
44
102
{ACAD_XDICTIONARY
360
2E3
102
}
102
{ACAD_REACTORS
330
43
102
}
330
43
100
AcDbMaterial
  1
ByLayer
  0
MATERIAL
  5
46
102
{ACAD_XDICTIONARY
360
2E7
102
}
102
{ACAD_REACTORS
330
43
102
}
330
43
100
AcDbMaterial
  1
Global
  0
MLEADERSTYLE
  5
6C
102
{ACAD_REACTORS
330
6B
102
}
330
6B
100
AcDbMLeaderStyle
170
     2
171
     1
172
     0
 90
        2
 40
0.0
 41
0.0
173
     1
 91
-1056964608
340
14
 92
       -2
290
     1
 42
0.09
291
     1
 43
0.36
  3
Standard
 44
0.18
300

342
11
174
     1
178
     6
175
     1
176
     0
 93
-1056964608
 45
0.18
292
     0
297
     0
 46
0.18
 94
-1056964608
 47
1.0
 49
1.0
140
1.0
293
     1
141
0.0
294
     1
177
     0
142
1.0
295
     0
296
     0
143
0.125
1001
ACAD_MLEADERVER
1070
     2
  0
MLINESTYLE
  5
18
102
{ACAD_REACTORS
330
17
102
}
330
17
100
AcDbMlineStyle
  2
STANDARD
 70
     0
  3

 62
   256
 51
90.0
 52
90.0
 71
     2
 49
0.5
 62
   256
  6
BYLAYER
 49
-0.5
 62
   256
  6
BYLAYER
  0
ACDBPLACEHOLDER
  5
F
102
{ACAD_REACTORS
330
E
102
}
330
E
  0
SCALE
  5
48
102
{ACAD_REACTORS
330
47
102
}
330
47
100
AcDbScale
 70
     0
300
1:1
140
1.0
141
1.0
290
     1
  0
SCALE
  5
49
102
{ACAD_REACTORS
330
47
102
}
330
47
100
AcDbScale
 70
     0
300
1:2
140
1.0
141
2.0
290
     0
  0
SCALE
  5
4A
102
{ACAD_REACTORS
330
47
102
}
330
47
100
AcDbScale
 70
     0
300
1:4
140
1.0
141
4.0
290
     0
  0
SCALE
  5
4B
102
{ACAD_REACTORS
330
47
102
}
330
47
100
AcDbScale
 70
     0
300
1:5
140
1.0
141
5.0
290
     0
  0
SCALE
  5
4C
102
{ACAD_REACTORS
330
47
102
}
330
47
100
AcDbScale
 70
     0
300
1:8
140
1.0
141
8.0
290
     0
  0
SCALE
  5
4D
102
{ACAD_REACTORS
330
47
102
}
330
47
100
AcDbScale
 70
     0
300
1:10
140
1.0
141
10.0
290
     0
  0
SCALE
  5
4E
102
{ACAD_REACTORS
330
47
102
}
330
47
100
AcDbScale
 70
     0
300
1:16
140
1.0
141
16.0
290
     0
  0
SCALE
  5
4F
102
{ACAD_REACTORS
330
47
102
}
330
47
100
AcDbScale
 70
     0
300
1:20
140
1.0
141
20.0
290
     0
  0
SCALE
  5
50
102
{ACAD_REACTORS
330
47
102
}
330
47
100
AcDbScale
 70
     0
300
1:30
140
1.0
141
30.0
290
     0
  0
SCALE
  5
51
102
{ACAD_REACTORS
330
47
102
}
330
47
100
AcDbScale
 70
     0
300
1:40
140
1.0
141
40.0
290
     0
  0
SCALE
  5
52
102
{ACAD_REACTORS
330
47
102
}
330
47
100
AcDbScale
 70
     0
300
1:50
140
1.0
141
50.0
290
     0
  0
SCALE
  5
53
102
{ACAD_REACTORS
330
47
102
}
330
47
100
AcDbScale
 70
     0
300
1:100
140
1.0
141
100.0
290
     0
  0
SCALE
  5
54
102
{ACAD_REACTORS
330
47
102
}
330
47
100
AcDbScale
 70
     0
300
2:1
140
2.0
141
1.0
290
     0
  0
SCALE
  5
55
102
{ACAD_REACTORS
330
47
102
}
330
47
100
AcDbScale
 70
     0
300
4:1
140
4.0
141
1.0
290
     0
  0
SCALE
  5
56
102
{ACAD_REACTORS
330
47
102
}
330
47
100
AcDbScale
 70
     0
300
8:1
140
8.0
141
1.0
290
     0
  0
SCALE
  5
57
102
{ACAD_REACTORS
330
47
102
}
330
47
100
AcDbScale
 70
     0
300
10:1
140
10.0
141
1.0
290
     0
  0
SCALE
  5
58
102
{ACAD_REACTORS
330
47
102
}
330
47
100
AcDbScale
 70
     0
300
100:1
140
100.0
141
1.0
290
     0
  0
SCALE
  5
59
102
{ACAD_REACTORS
330
47
102
}
330
47
100
AcDbScale
 70
     0
300
1/128" = 1'-0"
140
0.007812
141
12.0
290
     0
  0
SCALE
  5
5A
102
{ACAD_REACTORS
330
47
102
}
330
47
100
AcDbScale
 70
     0
300
1/64" = 1'-0"
140
0.015625
141
12.0
290
     0
  0
SCALE
  5
5B
102
{ACAD_REACTORS
330
47
102
}
330
47
100
AcDbScale
 70
     0
300
1/32" = 1'-0"
140
0.03125
141
12.0
290
     0
  0
SCALE
  5
5C
102
{ACAD_REACTORS
330
47
102
}
330
47
100
AcDbScale
 70
     0
300
1/16" = 1'-0"
140
0.0625
141
12.0
290
     0
  0
SCALE
  5
5D
102
{ACAD_REACTORS
330
47
102
}
330
47
100
AcDbScale
 70
     0
300
3/32" = 1'-0"
140
0.09375
141
12.0
290
     0
  0
SCALE
  5
5E
102
{ACAD_REACTORS
330
47
102
}
330
47
100
AcDbScale
 70
     0
300
1/8" = 1'-0"
140
0.125
141
12.0
290
     0
  0
SCALE
  5
5F
102
{ACAD_REACTORS
330
47
102
}
330
47
100
AcDbScale
 70
     0
300
3/16" = 1'-0"
140
0.1875
141
12.0
290
     0
  0
SCALE
  5
60
102
{ACAD_REACTORS
330
47
102
}
330
47
100
AcDbScale
 70
     0
300
1/4" = 1'-0"
140
0.25
141
12.0
290
     0
  0
SCALE
  5
61
102
{ACAD_REACTORS
330
47
102
}
330
47
100
AcDbScale
 70
     0
300
3/8" = 1'-0"
140
0.375
141
12.0
290
     0
  0
SCALE
  5
62
102
{ACAD_REACTORS
330
47
102
}
330
47
100
AcDbScale
 70
     0
300
1/2" = 1'-0"
140
0.5
141
12.0
290
     0
  0
SCALE
  5
63
102
{ACAD_REACTORS
330
47
102
}
330
47
100
AcDbScale
 70
     0
300
3/4" = 1'-0"
140
0.75
141
12.0
290
     0
  0
SCALE
  5
64
102
{ACAD_REACTORS
330
47
102
}
330
47
100
AcDbScale
 70
     0
300
1" = 1'-0"
140
1.0
141
12.0
290
     0
  0
SCALE
  5
65
102
{ACAD_REACTORS
330
47
102
}
330
47
100
AcDbScale
 70
     0
300
1-1/2" = 1'-0"
140
1.5
141
12.0
290
     0
  0
SCALE
  5
66
102
{ACAD_REACTORS
330
47
102
}
330
47
100
AcDbScale
 70
     0
300
3" = 1'-0"
140
3.0
141
12.0
290
     0
  0
SCALE
  5
67
102
{ACAD_REACTORS
330
47
102
}
330
47
100
AcDbScale
 70
     0
300
6" = 1'-0"
140
6.0
141
12.0
290
     0
  0
SCALE
  5
68
102
{ACAD_REACTORS
330
47
102
}
330
47
100
AcDbScale
 70
     0
300
1'-0" = 1'-0"
140
12.0
141
12.0
290
     0
  0
ACDBSECTIONVIEWSTYLE
  5
2F7
102
{ACAD_XDICTIONARY
360
393
102
}
102
{ACAD_REACTORS
330
2F3
102
}
330
2F3
100
AcDbModelDocViewStyle
 70
     0
  3
Metric50
290
     0
100
AcDbSectionViewStyle
 70
     0
 71
     0
 90
      102
 71
     1
340
11
 62
   256
 40
5.0
340
0
340
0
 62
   256
 40
5.0
300
I, O, Q, S, X, Z
 40
10.0
 90
        0
 40
2.5
 90
        0
 71
     2
340
16
 90
       25
 62
   256
340
16
 90
       50
 62
   256
 40
5.0
 40
2.5
 40
5.0
 71
     3
340
11
 62
   256
 40
5.0
 90
        0
 40
15.0
 90
        1
300
%<\AcVar ViewSectionStartId>%-%<\AcVar ViewSectionEndId>% (%<\AcVar ViewScale \f "%sn">%)
 71
     4
 62
   256
 62
   257
300
ANSI31
 40
1.0
 90
        0
290
     0
290
     0
 90
        6
 40
0.0
 40
1.570796326794896
 40
0.2617993877991494
 40
1.308996938995747
 40
-0.2617993877991494
 40
1.832595714594046
  0
TABLESTYLE
  5
6A
102
{ACAD_XDICTIONARY
360
2E9
102
}
102
{ACAD_REACTORS
330
69
102
}
330
69
100
AcDbTableStyle
  3
Standard
 70
     0
 71
     0
 40
0.06
 41
0.06
280
     0
281
     0
  7
Standard
140
0.18
170
     2
 62
     0
 63
     7
283
     0
274
    -2
284
     1
 64
     0
275
    -2
285
     1
 65
     0
276
    -2
286
     1
 66
     0
277
    -2
287
     1
 67
     0
278
    -2
288
     1
 68
     0
279
    -2
289
     1
 69
     0
  7
Standard
140
0.25
170
     5
 62
     0
 63
     7
283
     0
274
    -2
284
     1
 64
     0
275
    -2
285
     1
 65
     0
276
    -2
286
     1
 66
     0
277
    -2
287
     1
 67
     0
278
    -2
288
     1
 68
     0
279
    -2
289
     1
 69
     0
  7
Standard
140
0.18
170
     5
 62
     0
 63
     7
283
     0
274
    -2
284
     1
 64
     0
275
    -2
285
     1
 65
     0
276
    -2
286
     1
 66
     0
277
    -2
287
     1
 67
     0
278
    -2
288
     1
 68
     0
279
    -2
289
     1
 69
     0
  0
VISUALSTYLE
  5
2F
102
{ACAD_XDICTIONARY
360
36A
102
}
102
{ACAD_REACTORS
330
2A
102
}
330
2A
100
AcDbVisualStyle
  2

 70
     4
 71
     0
 72
     2
 73
     0
 90
        0
 40
-0.6
 41
-30.0
 62
     5
 63
     7
421
 16777215
 74
     1
 91
        4
 64
     7
 65
   257
 75
     1
175
     1
 42
1.0
 92
        0
 66
   257
 43
1.0
 76
     1
 77
     6
 78
     2
 67
     7
 79
     5
170
     0
171
     0
290
     0
174
     0
 93
        1
 44
0.0
173
     0
291
     0
 45
0.0
1001
ACAD
1000
AcDbSavedByObjectVersion
1070
     0
  0
VISUALSTYLE
  5
32
102
{ACAD_XDICTIONARY
360
370
102
}
102
{ACAD_REACTORS
330
2A
102
}
330
2A
100
AcDbVisualStyle
  2

 70
     7
 71
     1
 72
     0
 73
     1
 90
        0
 40
-0.6
 41
-30.0
 62
     5
 63
     7
421
 16777215
 74
     0
 91
        4
 64
     7
 65
   257
 75
     1
175
     1
 42
1.0
 92
        8
 66
     7
 43
1.0
 76
     1
 77
     6
 78
     2
 67
     7
 79
     5
170
     0
171
     0
290
     0
174
     0
 93
        1
 44
0.0
173
     0
291
     1
 45
0.0
1001
ACAD
1000
AcDbSavedByObjectVersion
1070
     0
  0
VISUALSTYLE
  5
36
102
{ACAD_XDICTIONARY
360
378
102
}
102
{ACAD_REACTORS
330
2A
102
}
330
2A
100
AcDbVisualStyle
  2

 70
    12
 71
     2
 72
     2
 73
     0
 90
        0
 40
-0.6
 41
-30.0
 62
     5
 63
     7
421
 16777215
 74
     1
 91
        4
 64
     7
 65
   257
 75
     1
175
     1
 42
1.0
 92
        8
 66
     7
 43
1.0
 76
     1
 77
     6
 78
     2
 67
     7
 79
     5
170
     0
171
     0
290
     0
174
     0
 93
        1
 44
50.0
173
     0
291
     1
 45
0.0
1001
ACAD
1000
AcDbSavedByObjectVersion
1070
     0
  0
VISUALSTYLE
  5
3A
102
{ACAD_XDICTIONARY
360
380
102
}
102
{ACAD_REACTORS
330
2A
102
}
330
2A
100
AcDbVisualStyle
  2

 70
    16
 71
     2
 72
     2
 73
     3
 90
        0
 40
-0.6
 41
-30.0
 62
     5
 63
     8
421
  8421504
 74
     1
 91
        4
 64
     7
 65
   257
 75
     1
175
     1
 42
1.0
 92
        8
 66
     8
424
  8421504
 43
1.0
 76
     1
 77
     6
 78
     2
 67
     7
 79
     5
170
     0
171
     0
290
     0
174
     0
 93
        1
 44
0.0
173
     0
291
     1
 45
0.0
1001
ACAD
1000
AcDbSavedByObjectVersion
1070
     0
  0
VISUALSTYLE
  5
34
102
{ACAD_XDICTIONARY
360
374
102
}
102
{ACAD_REACTORS
330
2A
102
}
330
2A
100
AcDbVisualStyle
  2

 70
     9
 71
     3
 72
     2
 73
     0
 90
        0
 40
-0.6
 41
-30.0
 62
     5
 63
     7
421
 16777215
 74
     2
 91
        2
 64
     7
 65
   257
 75
     1
175
     1
 42
179.0
 92
        8
 66
     7
 43
1.0
 76
     1
 77
     6
 78
     2
 67
     7
 79
     3
170
     0
171
     0
290
     0
174
     0
 93
        1
 44
0.0
173
     0
291
     0
 45
0.0
1001
ACAD
1000
AcDbSavedByObjectVersion
1070
     0
  0
VISUALSTYLE
  5
35
102
{ACAD_XDICTIONARY
360
376
102
}
102
{ACAD_REACTORS
330
2A
102
}
330
2A
100
AcDbVisualStyle
  2

 70
    11
 71
     2
 72
     2
 73
     0
 90
        0
 40
-0.6
 41
-30.0
 62
     5
 63
     7
421
 16777215
 74
     1
 91
        4
 64
     7
 65
   257
 75
     1
175
     1
 42
1.0
 92
        8
 66
     7
 43
1.0
 76
     1
 77
     6
 78
     2
 67
     7
 79
     5
170
     0
171
     0
290
     0
174
     0
 93
        1
 44
-50.0
173
     0
291
     1
 45
0.0
1001
ACAD
1000
AcDbSavedByObjectVersion
1070
     0
  0
VISUALSTYLE
  5
3D
102
{ACAD_XDICTIONARY
360
386
102
}
102
{ACAD_REACTORS
330
2A
102
}
330
2A
100
AcDbVisualStyle
  2

 70
    22
 71
     2
 72
     2
 73
     0
 90
        0
 40
-0.6
 41
-30.0
 62
     5
 63
     7
421
 16777215
 74
     1
 91
        4
 64
     7
 65
   257
 75
     1
175
     1
 42
1.0
 92
        8
 66
     7
 43
1.0
 76
     1
 77
     6
 78
     2
 67
     7
 79
     5
170
     0
171
     0
290
     0
174
     0
 93
        1
 44
0.0
173
     0
291
     1
 45
0.0
1001
ACAD
1000
AcDbSavedByObjectVersion
1070
     0
  0
VISUALSTYLE
  5
39
102
{ACAD_XDICTIONARY
360
37E
102
}
102
{ACAD_REACTORS
330
2A
102
}
330
2A
100
AcDbVisualStyle
  2

 70
    15
 71
     2
 72
     2
 73
     0
 90
        0
 40
-0.6
 41
-30.0
 62
     5
 63
     7
421
 16777215
 74
     1
 91
        4
 64
     7
 65
   257
 75
     1
175
     1
 42
1.0
 92
        8
 66
     7
 43
1.0
 76
     1
 77
     6
 78
     2
 67
     7
 79
     5
170
     0
171
     0
290
     0
174
     0
 93
        1
 44
0.0
173
     0
291
     1
 45
0.0
1001
ACAD
1000
AcDbSavedByObjectVersion
1070
     0
  0
VISUALSTYLE
  5
2B
102
{ACAD_XDICTIONARY
360
362
102
}
102
{ACAD_REACTORS
330
2A
102
}
330
2A
100
AcDbVisualStyle
  2

 70
     0
 71
     2
 72
     1
 73
     1
 90
        2
 40
-0.6
 41
30.0
 62
     5
 63
     7
421
 16777215
 74
     0
 91
        0
 64
     7
 65
   257
 75
     1
175
     1
 42
1.0
 92
        8
 66
     7
 43
1.0
 76
     1
 77
     6
 78
     2
 67
     7
 79
     5
170
     0
171
     0
290
     0
174
     0
 93
       13
 44
0.0
173
     0
291
     1
 45
0.0
1001
ACAD
1000
AcDbSavedByObjectVersion
1070
     0
  0
VISUALSTYLE
  5
2C
102
{ACAD_XDICTIONARY
360
364
102
}
102
{ACAD_REACTORS
330
2A
102
}
330
2A
100
AcDbVisualStyle
  2

 70
     1
 71
     2
 72
     1
 73
     1
 90
        2
 40
-0.6
 41
30.0
 62
     5
 63
     7
421
 16777215
 74
     1
 91
        0
 64
     7
 65
   257
 75
     1
175
     1
 42
1.0
 92
        0
 66
   257
 43
1.0
 76
     1
 77
     6
 78
     2
 67
     7
 79
     5
170
     0
171
     0
290
     0
174
     0
 93
       13
 44
0.0
173
     0
291
     1
 45
0.0
1001
ACAD
1000
AcDbSavedByObjectVersion
1070
     0
  0
VISUALSTYLE
  5
2D
102
{ACAD_XDICTIONARY
360
366
102
}
102
{ACAD_REACTORS
330
2A
102
}
330
2A
100
AcDbVisualStyle
  2

 70
     2
 71
     2
 72
     2
 73
     1
 90
        2
 40
-0.6
 41
30.0
 62
     5
 63
     7
421
 16777215
 74
     0
 91
        0
 64
     7
 65
   257
 75
     1
175
     1
 42
1.0
 92
        0
 66
     7
 43
1.0
 76
     1
 77
     6
 78
     2
 67
     7
 79
     5
170
     0
171
     0
290
     0
174
     0
 93
       13
 44
0.0
173
     0
291
     1
 45
0.0
1001
ACAD
1000
AcDbSavedByObjectVersion
1070
     0
  0
VISUALSTYLE
  5
2E
102
{ACAD_XDICTIONARY
360
368
102
}
102
{ACAD_REACTORS
330
2A
102
}
330
2A
100
AcDbVisualStyle
  2

 70
     3
 71
     2
 72
     2
 73
     1
 90
        2
 40
-0.6
 41
30.0
 62
     5
 63
     7
421
 16777215
 74
     1
 91
        0
 64
     7
 65
   257
 75
     1
175
     1
 42
1.0
 92
        0
 66
   257
 43
1.0
 76
     1
 77
     6
 78
     2
 67
     7
 79
     5
170
     0
171
     0
290
     0
174
     0
 93
       13
 44
0.0
173
     0
291
     1
 45
0.0
1001
ACAD
1000
AcDbSavedByObjectVersion
1070
     0
  0
VISUALSTYLE
  5
31
102
{ACAD_XDICTIONARY
360
36E
102
}
102
{ACAD_REACTORS
330
2A
102
}
330
2A
100
AcDbVisualStyle
  2

 70
     6
 71
     1
 72
     2
 73
     2
 90
        0
 40
-0.6
 41
-30.0
 62
     5
 63
     7
421
 16777215
 74
     2
 91
        2
 64
     7
 65
   257
 75
     2
175
     1
 42
40.0
 92
        0
 66
   257
 43
1.0
 76
     1
 77
     6
 78
     2
 67
     7
 79
     3
170
     0
171
     0
290
     0
174
     0
 93
        1
 44
0.0
173
     0
291
     0
 45
0.0
1001
ACAD
1000
AcDbSavedByObjectVersion
1070
     0
  0
VISUALSTYLE
  5
3B
102
{ACAD_XDICTIONARY
360
382
102
}
102
{ACAD_REACTORS
330
2A
102
}
330
2A
100
AcDbVisualStyle
  2

 70
    20
 71
     2
 72
     2
 73
     0
 90
        0
 40
-0.6
 41
-30.0
 62
     5
 63
     7
421
 16777215
 74
     1
 91
        4
 64
     7
 65
   257
 75
     1
175
     1
 42
1.0
 92
       10
 66
     7
 43
1.0
 76
     1
 77
     6
 78
     2
 67
     7
 79
     5
170
     0
171
     0
290
     0
174
     0
 93
        1
 44
0.0
173
     0
291
     1
 45
0.0
1001
ACAD
1000
AcDbSavedByObjectVersion
1070
     0
  0
VISUALSTYLE
  5
38
102
{ACAD_XDICTIONARY
360
37C
102
}
102
{ACAD_REACTORS
330
2A
102
}
330
2A
100
AcDbVisualStyle
  2

 70
    14
 71
     2
 72
     2
 73
     0
 90
        0
 40
-0.6
 41
-30.0
 62
     5
 63
     7
421
 16777215
 74
     1
 91
        4
 64
     7
 65
   257
 75
     7
175
     7
 42
1.0
 92
        8
 66
     7
 43
1.0
 76
     1
 77
     6
 78
     2
 67
     7
 79
     5
170
     0
171
     0
290
     0
174
     0
 93
        1
 44
0.0
173
     0
291
     1
 45
0.0
1001
ACAD
1000
AcDbSavedByObjectVersion
1070
     0
  0
VISUALSTYLE
  5
3C
102
{ACAD_XDICTIONARY
360
384
102
}
102
{ACAD_REACTORS
330
2A
102
}
330
2A
100
AcDbVisualStyle
  2

 70
    21
 71
     2
 72
     2
 73
     0
 90
        0
 40
-0.6
 41
-30.0
 62
     5
 63
     7
421
 16777215
 74
     1
 91
        4
 64
     7
 65
   257
 75
     1
175
     1
 42
1.0
 92
        9
 66
     7
 43
1.0
 76
     1
 77
     6
 78
     2
 67
     7
 79
     5
170
     0
171
     0
290
     0
174
     0
 93
        1
 44
0.0
173
     0
291
     1
 45
0.0
1001
ACAD
1000
AcDbSavedByObjectVersion
1070
     0
  0
VISUALSTYLE
  5
33
102
{ACAD_XDICTIONARY
360
372
102
}
102
{ACAD_REACTORS
330
2A
102
}
330
2A
100
AcDbVisualStyle
  2

 70
     8
 71
     2
 72
     3
 73
     0
 90
        2
 40
-0.6
 41
30.0
 62
     5
 63
     7
421
 16777215
 74
     0
 91
        0
 64
     7
 65
   257
 75
     1
175
     1
 42
1.0
 92
        8
 66
   257
 43
1.0
 76
     1
 77
     6
 78
     2
 67
     7
 79
     3
170
     0
171
     0
290
     0
174
     0
 93
       13
 44
0.0
173
     0
291
     0
 45
0.0
1001
ACAD
1000
AcDbSavedByObjectVersion
1070
     0
  0
VISUALSTYLE
  5
42
102
{ACAD_XDICTIONARY
360
390
102
}
102
{ACAD_REACTORS
330
2A
102
}
330
2A
100
AcDbVisualStyle
  2

 70
    27
 71
     2
 72
     2
 73
     1
 90
        2
 40
-0.6
 41
30.0
 62
     5
 63
     7
421
 16777215
 74
     0
 91
        4
 64
     7
 65
   257
 75
     1
175
     1
 42
1.0
 92
        8
 66
   257
 43
1.0
 76
     1
 77
     6
 78
     2
 67
     8
425
  7895160
 79
     3
170
     0
171
     0
290
     0
174
     0
 93
        5
 44
0.0
173
     0
291
     0
 45
0.0
1001
ACAD
1000
AcDbSavedByObjectVersion
1070
     0
  0
VISUALSTYLE
  5
41
102
{ACAD_XDICTIONARY
360
38E
102
}
102
{ACAD_REACTORS
330
2A
102
}
330
2A
100
AcDbVisualStyle
  2

 70
    26
 71
     2
 72
     2
 73
     1
 90
        2
 40
-0.6
 41
30.0
 62
     5
 63
     7
421
 16777215
 74
     1
 91
       10
 64
     7
 65
   257
 75
     2
175
     1
 42
1.0
 92
        8
 66
   257
 43
1.0
 76
     1
 77
     6
 78
     2
 67
     7
 79
     3
170
     0
171
     0
290
     0
174
     0
 93
        5
 44
0.0
173
     0
291
     0
 45
0.0
1001
ACAD
1000
AcDbSavedByObjectVersion
1070
     0
  0
VISUALSTYLE
  5
3E
102
{ACAD_XDICTIONARY
360
388
102
}
102
{ACAD_REACTORS
330
2A
102
}
330
2A
100
AcDbVisualStyle
  2

 70
    23
 71
     2
 72
     2
 73
     3
 90
        0
 40
-0.6
 41
-30.0
 62
     5
 63
     7
421
 16777215
 74
     2
 91
        2
 64
     7
 65
     7
 75
     1
175
     1
 42
40.0
 92
        8
 66
     7
 43
1.0
 76
     1
 77
     6
 78
     2
 67
     7
 79
     3
170
     0
171
     0
290
     0
174
     0
 93
        1
 44
0.0
173
     0
291
     0
 45
0.0
1001
ACAD
1000
AcDbSavedByObjectVersion
1070
     0
  0
VISUALSTYLE
  5
3F
102
{ACAD_XDICTIONARY
360
38A
102
}
102
{ACAD_REACTORS
330
2A
102
}
330
2A
100
AcDbVisualStyle
  2

 70
    24
 71
     1
 72
     2
 73
     2
 90
        0
 40
-0.6
 41
-30.0
 62
     5
 63
     7
421
 16777215
 74
     2
 91
        2
 64
     7
 65
     7
 75
     1
175
     1
 42
40.0
 92
       11
 66
     7
 43
1.0
 76
     1
 77
     6
 78
     2
 67
     7
 79
     6
170
     0
171
     0
290
     0
174
     0
 93
        1
 44
0.0
173
     0
291
     0
 45
0.0
1001
ACAD
1000
AcDbSavedByObjectVersion
1070
     0
  0
VISUALSTYLE
  5
37
102
{ACAD_XDICTIONARY
360
37A
102
}
102
{ACAD_REACTORS
330
2A
102
}
330
2A
100
AcDbVisualStyle
  2

 70
    13
 71
     2
 72
     2
 73
     0
 90
        0
 40
-0.6
 41
-30.0
 62
     5
 63
     7
421
 16777215
 74
     1
 91
        4
 64
     7
 65
   257
 75
     1
175
     1
 42
1.0
 92
       12
 66
     7
 43
1.0
 76
     1
 77
     6
 78
     2
 67
     7
 79
     5
170
     0
171
     0
290
     0
174
     0
 93
        1
 44
0.0
173
     0
291
     1
 45
0.0
1001
ACAD
1000
AcDbSavedByObjectVersion
1070
     0
  0
VISUALSTYLE
  5
30
102
{ACAD_XDICTIONARY
360
36C
102
}
102
{ACAD_REACTORS
330
2A
102
}
330
2A
100
AcDbVisualStyle
  2

 70
     5
 71
     0
 72
     2
 73
     0
 90
        0
 40
-0.6
 41
-30.0
 62
     5
 63
     7
421
 16777215
 74
     1
 91
        4
 64
     7
 65
   257
 75
     1
175
     1
 42
1.0
 92
        0
 66
   257
 43
1.0
 76
     1
 77
     6
 78
     2
 67
     7
 79
     3
170
     0
171
     0
290
     0
174
     0
 93
        1
 44
0.0
173
     0
291
     0
 45
0.0
1001
ACAD
1000
AcDbSavedByObjectVersion
1070
     0
  0
VISUALSTYLE
  5
40
102
{ACAD_XDICTIONARY
360
38C
102
}
102
{ACAD_REACTORS
330
2A
102
}
330
2A
100
AcDbVisualStyle
  2

 70
    25
 71
     2
 72
     2
 73
     1
 90
        1
 40
0.5
 41
-30.0
 62
     5
 63
     7
421
 16777215
 74
     1
 91
        0
 64
     7
 65
   257
 75
     1
175
     1
 42
1.0
 92
        8
 66
     7
 43
1.0
 76
     1
 77
     6
 78
     2
 67
     7
 79
     3
170
     0
171
     0
290
     0
174
     0
 93
       13
 44
0.0
173
     0
291
     0
 45
0.0
1001
ACAD
1000
AcDbSavedByObjectVersion
1070
     0
  0
DICTIONARYVAR
  5
2B0
102
{ACAD_REACTORS
330
2AF
102
}
330
2AF
100
DictionaryVariables
280
     0
  1
1:1
  0
DICTIONARYVAR
  5
2F1
102
{ACAD_REACTORS
330
2AF
102
}
330
2AF
100
DictionaryVariables
280
     0
  1
STANDARD
  0
DICTIONARYVAR
  5
2F0
102
{ACAD_REACTORS
330
2AF
102
}
330
2AF
100
DictionaryVariables
280
     0
  1
STANDARD
  0
DICTIONARYVAR
  5
35C
102
{ACAD_REACTORS
330
2AF
102
}
330
2AF
100
DictionaryVariables
280
     0
  1
Metric50
  0
DICTIONARYVAR
  5
35D
102
{ACAD_REACTORS
330
2AF
102
}
330
2AF
100
DictionaryVariables
280
     0
  1
Metric50
  0
DICTIONARYVAR
  5
2B1
102
{ACAD_REACTORS
330
2AF
102
}
330
2AF
100
DictionaryVariables
280
     0
  1
1
  0
DICTIONARYVAR
  5
35E
102
{ACAD_REACTORS
330
2AF
102
}
330
2AF
100
DictionaryVariables
280
     0
  1
2
  0
DICTIONARY
  5
395
330
2F8
100
AcDbDictionary
280
     1
281
     1
  3
ACAD_XREC_ROUNDTRIP
360
396
  0
DICTIONARY
  5
2E5
330
45
100
AcDbDictionary
280
     1
281
     1
  3
ACAD_XREC_ROUNDTRIP
360
2E6
  0
DICTIONARY
  5
2E3
330
44
100
AcDbDictionary
280
     1
281
     1
  3
ACAD_XREC_ROUNDTRIP
360
2E4
  0
DICTIONARY
  5
2E7
330
46
100
AcDbDictionary
280
     1
281
     1
  3
ACAD_XREC_ROUNDTRIP
360
2E8
  0
DICTIONARY
  5
393
330
2F7
100
AcDbDictionary
280
     1
281
     1
  3
ACAD_XREC_ROUNDTRIP
360
394
  0
DICTIONARY
  5
2E9
330
6A
100
AcDbDictionary
280
     1
281
     1
  3
ACAD_ROUNDTRIP_2008_TABLESTYLE_CELLSTYLEMAP
360
360
  3
ACAD_XREC_ROUNDTRIP
360
392
  0
DICTIONARY
  5
36A
330
2F
100
AcDbDictionary
280
     1
281
     1
  3
ACAD_XREC_ROUNDTRIP
360
36B
  0
DICTIONARY
  5
370
330
32
100
AcDbDictionary
280
     1
281
     1
  3
ACAD_XREC_ROUNDTRIP
360
371
  0
DICTIONARY
  5
378
330
36
100
AcDbDictionary
280
     1
281
     1
  3
ACAD_XREC_ROUNDTRIP
360
379
  0
DICTIONARY
  5
380
330
3A
100
AcDbDictionary
280
     1
281
     1
  3
ACAD_XREC_ROUNDTRIP
360
381
  0
DICTIONARY
  5
374
330
34
100
AcDbDictionary
280
     1
281
     1
  3
ACAD_XREC_ROUNDTRIP
360
375
  0
DICTIONARY
  5
376
330
35
100
AcDbDictionary
280
     1
281
     1
  3
ACAD_XREC_ROUNDTRIP
360
377
  0
DICTIONARY
  5
386
330
3D
100
AcDbDictionary
280
     1
281
     1
  3
ACAD_XREC_ROUNDTRIP
360
387
  0
DICTIONARY
  5
37E
330
39
100
AcDbDictionary
280
     1
281
     1
  3
ACAD_XREC_ROUNDTRIP
360
37F
  0
DICTIONARY
  5
362
330
2B
100
AcDbDictionary
280
     1
281
     1
  3
ACAD_XREC_ROUNDTRIP
360
363
  0
DICTIONARY
  5
364
330
2C
100
AcDbDictionary
280
     1
281
     1
  3
ACAD_XREC_ROUNDTRIP
360
365
  0
DICTIONARY
  5
366
330
2D
100
AcDbDictionary
280
     1
281
     1
  3
ACAD_XREC_ROUNDTRIP
360
367
  0
DICTIONARY
  5
368
330
2E
100
AcDbDictionary
280
     1
281
     1
  3
ACAD_XREC_ROUNDTRIP
360
369
  0
DICTIONARY
  5
36E
330
31
100
AcDbDictionary
280
     1
281
     1
  3
ACAD_XREC_ROUNDTRIP
360
36F
  0
DICTIONARY
  5
382
330
3B
100
AcDbDictionary
280
     1
281
     1
  3
ACAD_XREC_ROUNDTRIP
360
383
  0
DICTIONARY
  5
37C
330
38
100
AcDbDictionary
280
     1
281
     1
  3
ACAD_XREC_ROUNDTRIP
360
37D
  0
DICTIONARY
  5
384
330
3C
100
AcDbDictionary
280
     1
281
     1
  3
ACAD_XREC_ROUNDTRIP
360
385
  0
DICTIONARY
  5
372
330
33
100
AcDbDictionary
280
     1
281
     1
  3
ACAD_XREC_ROUNDTRIP
360
373
  0
DICTIONARY
  5
390
330
42
100
AcDbDictionary
280
     1
281
     1
  3
ACAD_XREC_ROUNDTRIP
360
391
  0
DICTIONARY
  5
38E
330
41
100
AcDbDictionary
280
     1
281
     1
  3
ACAD_XREC_ROUNDTRIP
360
38F
  0
DICTIONARY
  5
388
330
3E
100
AcDbDictionary
280
     1
281
     1
  3
ACAD_XREC_ROUNDTRIP
360
389
  0
DICTIONARY
  5
38A
330
3F
100
AcDbDictionary
280
     1
281
     1
  3
ACAD_XREC_ROUNDTRIP
360
38B
  0
DICTIONARY
  5
37A
330
37
100
AcDbDictionary
280
     1
281
     1
  3
ACAD_XREC_ROUNDTRIP
360
37B
  0
DICTIONARY
  5
36C
330
30
100
AcDbDictionary
280
     1
281
     1
  3
ACAD_XREC_ROUNDTRIP
360
36D
  0
DICTIONARY
  5
38C
330
40
100
AcDbDictionary
280
     1
281
     1
  3
ACAD_XREC_ROUNDTRIP
360
38D
  0
XRECORD
  5
396
102
{ACAD_REACTORS
330
395
102
}
330
395
100
AcDbXrecord
280
     1
102
DISPLAYNAME
  1
Metric50
102
FLAGS
 90
        0
  0
XRECORD
  5
2E6
102
{ACAD_REACTORS
330
2E5
102
}
330
2E5
100
AcDbXrecord
280
     1
102
MATERIAL
148
0.0
149
0.0
149
0.0
 93
        0
 94
      127
282
     0
 72
     1
 77
     1
171
     1
175
     1
179
     1
273
     0
  0
XRECORD
  5
2E4
102
{ACAD_REACTORS
330
2E3
102
}
330
2E3
100
AcDbXrecord
280
     1
102
MATERIAL
148
0.0
149
0.0
149
0.0
 93
        0
 94
      127
282
     0
 72
     1
 77
     1
171
     1
175
     1
179
     1
273
     0
  0
XRECORD
  5
2E8
102
{ACAD_REACTORS
330
2E7
102
}
330
2E7
100
AcDbXrecord
280
     1
102
MATERIAL
148
0.0
149
0.0
149
0.0
 93
        0
 94
      127
282
     0
 72
     1
 77
     1
171
     1
175
     1
179
     1
273
     0
  0
XRECORD
  5
394
102
{ACAD_REACTORS
330
393
102
}
330
393
100
AcDbXrecord
280
     1
102
DISPLAYNAME
  1
Metric50
102
FLAGS
 90
        0
  0
CELLSTYLEMAP
  5
360
102
{ACAD_REACTORS
330
2E9
102
}
330
2E9
100
AcDbCellStyleMap
 90
        3
300
CELLSTYLE
  1
TABLEFORMAT_BEGIN
 90
        5
170
     1
 91
        0
 92
    32768
 62
   257
 93
        1
300
CONTENTFORMAT
  1
CONTENTFORMAT_BEGIN
 90
        0
 91
        0
 92
        4
 93
        0
300

 40
0.0
140
1.0
 94
        5
 62
     0
340
11
144
0.25
309
CONTENTFORMAT_END
171
     1
301
MARGIN
  1
CELLMARGIN_BEGIN
 40
0.06
 40
0.06
 40
0.06
 40
0.06
 40
0.18
 40
0.18
309
CELLMARGIN_END
 94
        6
 95
        1
302
GRIDFORMAT
  1
GRIDFORMAT_BEGIN
 90
        0
 91
        1
 62
     0
 92
       -2
340
14
 93
        0
 40
0.045
309
GRIDFORMAT_END
 95
        2
302
GRIDFORMAT
  1
GRIDFORMAT_BEGIN
 90
        0
 91
        1
 62
     0
 92
       -2
340
14
 93
        0
 40
0.045
309
GRIDFORMAT_END
 95
        4
302
GRIDFORMAT
  1
GRIDFORMAT_BEGIN
 90
        0
 91
        1
 62
     0
 92
       -2
340
14
 93
        0
 40
0.045
309
GRIDFORMAT_END
 95
        8
302
GRIDFORMAT
  1
GRIDFORMAT_BEGIN
 90
        0
 91
        1
 62
     0
 92
       -2
340
14
 93
        0
 40
0.045
309
GRIDFORMAT_END
 95
       16
302
GRIDFORMAT
  1
GRIDFORMAT_BEGIN
 90
        0
 91
        1
 62
     0
 92
       -2
340
14
 93
        0
 40
0.045
309
GRIDFORMAT_END
 95
       32
302
GRIDFORMAT
  1
GRIDFORMAT_BEGIN
 90
        0
 91
        1
 62
     0
 92
       -2
340
14
 93
        0
 40
0.045
309
GRIDFORMAT_END
309
TABLEFORMAT_END
  1
CELLSTYLE_BEGIN
 90
        1
 91
        1
300
_TITLE
309
CELLSTYLE_END
300
CELLSTYLE
  1
TABLEFORMAT_BEGIN
 90
        5
170
     1
 91
        0
 92
        0
 62
   257
 93
        1
300
CONTENTFORMAT
  1
CONTENTFORMAT_BEGIN
 90
        0
 91
        0
 92
        4
 93
        0
300

 40
0.0
140
1.0
 94
        5
 62
     0
340
11
144
0.18
309
CONTENTFORMAT_END
171
     1
301
MARGIN
  1
CELLMARGIN_BEGIN
 40
0.06
 40
0.06
 40
0.06
 40
0.06
 40
0.18
 40
0.18
309
CELLMARGIN_END
 94
        6
 95
        1
302
GRIDFORMAT
  1
GRIDFORMAT_BEGIN
 90
        0
 91
        1
 62
     0
 92
       -2
340
14
 93
        0
 40
0.045
309
GRIDFORMAT_END
 95
        2
302
GRIDFORMAT
  1
GRIDFORMAT_BEGIN
 90
        0
 91
        1
 62
     0
 92
       -2
340
14
 93
        0
 40
0.045
309
GRIDFORMAT_END
 95
        4
302
GRIDFORMAT
  1
GRIDFORMAT_BEGIN
 90
        0
 91
        1
 62
     0
 92
       -2
340
14
 93
        0
 40
0.045
309
GRIDFORMAT_END
 95
        8
302
GRIDFORMAT
  1
GRIDFORMAT_BEGIN
 90
        0
 91
        1
 62
     0
 92
       -2
340
14
 93
        0
 40
0.045
309
GRIDFORMAT_END
 95
       16
302
GRIDFORMAT
  1
GRIDFORMAT_BEGIN
 90
        0
 91
        1
 62
     0
 92
       -2
340
14
 93
        0
 40
0.045
309
GRIDFORMAT_END
 95
       32
302
GRIDFORMAT
  1
GRIDFORMAT_BEGIN
 90
        0
 91
        1
 62
     0
 92
       -2
340
14
 93
        0
 40
0.045
309
GRIDFORMAT_END
309
TABLEFORMAT_END
  1
CELLSTYLE_BEGIN
 90
        2
 91
        1
300
_HEADER
309
CELLSTYLE_END
300
CELLSTYLE
  1
TABLEFORMAT_BEGIN
 90
        5
170
     1
 91
        0
 92
        0
 62
   257
 93
        1
300
CONTENTFORMAT
  1
CONTENTFORMAT_BEGIN
 90
        0
 91
        0
 92
        4
 93
        0
300

 40
0.0
140
1.0
 94
        2
 62
     0
340
11
144
0.18
309
CONTENTFORMAT_END
171
     1
301
MARGIN
  1
CELLMARGIN_BEGIN
 40
0.06
 40
0.06
 40
0.06
 40
0.06
 40
0.18
 40
0.18
309
CELLMARGIN_END
 94
        6
 95
        1
302
GRIDFORMAT
  1
GRIDFORMAT_BEGIN
 90
        0
 91
        1
 62
     0
 92
       -2
340
14
 93
        0
 40
0.045
309
GRIDFORMAT_END
 95
        2
302
GRIDFORMAT
  1
GRIDFORMAT_BEGIN
 90
        0
 91
        1
 62
     0
 92
       -2
340
14
 93
        0
 40
0.045
309
GRIDFORMAT_END
 95
        4
302
GRIDFORMAT
  1
GRIDFORMAT_BEGIN
 90
        0
 91
        1
 62
     0
 92
       -2
340
14
 93
        0
 40
0.045
309
GRIDFORMAT_END
 95
        8
302
GRIDFORMAT
  1
GRIDFORMAT_BEGIN
 90
        0
 91
        1
 62
     0
 92
       -2
340
14
 93
        0
 40
0.045
309
GRIDFORMAT_END
 95
       16
302
GRIDFORMAT
  1
GRIDFORMAT_BEGIN
 90
        0
 91
        1
 62
     0
 92
       -2
340
14
 93
        0
 40
0.045
309
GRIDFORMAT_END
 95
       32
302
GRIDFORMAT
  1
GRIDFORMAT_BEGIN
 90
        0
 91
        1
 62
     0
 92
       -2
340
14
 93
        0
 40
0.045
309
GRIDFORMAT_END
309
TABLEFORMAT_END
  1
CELLSTYLE_BEGIN
 90
        3
 91
        2
300
_DATA
309
CELLSTYLE_END
  0
XRECORD
  5
392
102
{ACAD_REACTORS
330
2E9
102
}
330
2E9
100
AcDbXrecord
280
     1
102
ACAD_ROUNDTRIP_PRE2007_TABLESTYLE
 90
        4
 91
        0
  1

 92
        4
 93
        0
  2

 94
        4
 95
        0
  3

  0
XRECORD
  5
36B
102
{ACAD_REACTORS
330
36A
102
}
330
36A
100
AcDbXrecord
280
     1
102
RTVSPost2010Prop28
280
     1
102
RTVSPost2010PropOp28
 70
     1
102
RTVSPost2010Prop29
280
     1
102
RTVSPost2010PropOp29
 70
     1
102
RTVSPost2010Prop30
280
     0
102
RTVSPost2010PropOp30
 70
     1
102
RTVSPost2010Prop31
280
     0
102
RTVSPost2010PropOp31
 70
     1
102
RTVSPost2010Prop32
280
     0
102
RTVSPost2010PropOp32
 70
     1
102
RTVSPost2010Prop33
280
     0
102
RTVSPost2010PropOp33
 70
     1
102
RTVSPost2010Prop34
280
     0
102
RTVSPost2010PropOp34
 70
     1
102
RTVSPost2010Prop35
280
     0
102
RTVSPost2010PropOp35
 70
     1
102
RTVSPost2010Prop36
280
     0
102
RTVSPost2010PropOp36
 70
     1
102
RTVSPost2010Prop37
 90
       50
102
RTVSPost2010PropOp37
 70
     1
102
RTVSPost2010Prop38
140
0.0
102
RTVSPost2010PropOp38
 70
     1
102
RTVSPost2010Prop39
140
1.0
102
RTVSPost2010PropOp39
 70
     1
102
RTVSPost2010Prop40
 90
        0
102
RTVSPost2010PropOp40
 70
     1
102
RTVSPost2010Prop41ColorIndex
 90
       18
102
RTVSPost2010Prop41ColorRGB
 90
        0
102
RTVSPost2010PropOp41
 70
     1
102
RTVSPost2010Prop42
 90
       50
102
RTVSPost2010PropOp42
 70
     1
102
RTVSPost2010Prop43
 90
        3
102
RTVSPost2010PropOp43
 70
     1
102
RTVSPost2010Prop44ColorIndex
 90
        5
102
RTVSPost2010Prop44ColorRGB
 90
      255
102
RTVSPost2010PropOp44
 70
     1
102
RTVSPost2010Prop45
280
     0
102
RTVSPost2010PropOp45
 70
     1
102
RTVSPost2010Prop46
 90
       50
102
RTVSPost2010PropOp46
 70
     1
102
RTVSPost2010Prop47
 90
       50
102
RTVSPost2010PropOp47
 70
     1
102
RTVSPost2010Prop48
 90
       50
102
RTVSPost2010PropOp48
 70
     1
102
RTVSPost2010Prop49
280
     0
102
RTVSPost2010PropOp49
 70
     1
102
RTVSPost2010Prop50
 90
       50
102
RTVSPost2010PropOp50
 70
     1
102
RTVSPost2010Prop51ColorIndex
 90
      256
102
RTVSPost2010Prop51ColorRGB
 90
-16777216
102
RTVSPost2010PropOp51
 70
     0
102
RTVSPost2010Prop52
140
1.0
102
RTVSPost2010PropOp52
 70
     0
102
RTVSPost2010Prop53
 90
        2
102
RTVSPost2010PropOp53
 70
     1
102
RTVSPost2010Prop54
  1
strokes_ogs.tif
102
RTVSPost2010PropOp54
 70
     1
102
RTVSPost2010Prop55
280
     0
102
RTVSPost2010PropOp55
 70
     1
102
RTVSPost2010Prop56
140
1.0
102
RTVSPost2010PropOp56
 70
     1
102
RTVSPost2010Prop57
140
1.0
102
RTVSPost2010PropOp57
 70
     1
102
RTVSPropertyOp0
 70
     1
102
RTVSPropertyOp1
 70
     1
102
RTVSPropertyOp2
 70
     1
102
RTVSPropertyOp3
 70
     1
102
RTVSPropertyOp4
 70
     1
102
RTVSPropertyOp5
 70
     1
102
RTVSPropertyOp6
 70
     1
102
RTVSPropertyOp7
 70
     1
102
RTVSPropertyOp8
 70
     1
102
RTVSPropertyOp9
 70
     1
102
RTVSPropertyOp10
 70
     1
102
RTVSPropertyOp11
 70
     1
102
RTVSPropertyOp12
 70
     1
102
RTVSPropertyOp13
 70
     1
102
RTVSPropertyOp14
 70
     1
102
RTVSPropertyOp15
 70
     1
102
RTVSPropertyOp16
 70
     1
102
RTVSPropertyOp17
 70
     1
102
RTVSPropertyOp18
 70
     1
102
RTVSPropertyOp19
 70
     1
102
RTVSPropertyOp20
 70
     1
102
RTVSPropertyOp21
 70
     1
102
RTVSPropertyOp22
 70
     1
102
RTVSPropertyOp23
 70
     1
102
RTVSPropertyOp24
 70
     1
102
RTVSPropertyOp25
 70
     1
102
RTVSPropertyOp26
 70
     1
102
RTVSPropertyOp27
 70
     1
102
RTVSPropertyOp28
 70
     1
102
RTVSPropertyOp29
 70
     1
102
RTVSPropertyOp30
 70
     1
102
RTVSPropertyOp31
 70
     1
102
RTVSPropertyOp32
 70
     1
102
RTVSPropertyOp33
 70
     1
102
RTVSPropertyOp34
 70
     1
102
RTVSPropertyOp35
 70
     1
102
RTVSPropertyOp36
 70
     1
102
RTVSPropertyOp37
 70
     1
102
RTVSPropertyOp38
 70
     1
102
RTVSPropertyOp39
 70
     1
102
RTVSPropertyOp40
 70
     1
102
RTVSPropertyOp41
 70
     1
102
RTVSPropertyOp42
 70
     1
102
RTVSPropertyOp43
 70
     1
102
RTVSPropertyOp44
 70
     1
102
RTVSPropertyOp45
 70
     1
102
RTVSPropertyOp46
 70
     1
102
RTVSPropertyOp47
 70
     1
102
RTVSPropertyOp48
 70
     1
102
RTVSPropertyOp49
 70
     1
102
RTVSPropertyOp50
 70
     1
102
RTVSPropertyOp51
 70
     0
102
RTVSPropertyOp52
 70
     0
102
RTVSPropertyOp53
 70
     1
102
RTVSPropertyOp54
 70
     1
102
RTVSPropertyOp55
 70
     1
102
RTVSPropertyOp56
 70
     1
102
RTVSPropertyOp57
 70
     1
102
RTVSPropertyOp58
 70
     1
102
RTVSPropertyOp59
 70
     1
102
RTVSPropertyOp60
 70
     1
102
RTVSPropertyOp61
 70
     1
102
RTVSPropertyOp62
 70
     1
  0
XRECORD
  5
371
102
{ACAD_REACTORS
330
370
102
}
330
370
100
AcDbXrecord
280
     1
102
RTVSPost2010Prop28
280
     0
102
RTVSPost2010PropOp28
 70
     1
102
RTVSPost2010Prop29
280
     1
102
RTVSPost2010PropOp29
 70
     1
102
RTVSPost2010Prop30
280
     1
102
RTVSPost2010PropOp30
 70
     1
102
RTVSPost2010Prop31
280
     0
102
RTVSPost2010PropOp31
 70
     1
102
RTVSPost2010Prop32
280
     0
102
RTVSPost2010PropOp32
 70
     1
102
RTVSPost2010Prop33
280
     0
102
RTVSPost2010PropOp33
 70
     1
102
RTVSPost2010Prop34
280
     0
102
RTVSPost2010PropOp34
 70
     1
102
RTVSPost2010Prop35
280
     0
102
RTVSPost2010PropOp35
 70
     1
102
RTVSPost2010Prop36
280
     0
102
RTVSPost2010PropOp36
 70
     1
102
RTVSPost2010Prop37
 90
       50
102
RTVSPost2010PropOp37
 70
     1
102
RTVSPost2010Prop38
140
0.0
102
RTVSPost2010PropOp38
 70
     1
102
RTVSPost2010Prop39
140
1.0
102
RTVSPost2010PropOp39
 70
     1
102
RTVSPost2010Prop40
 90
        0
102
RTVSPost2010PropOp40
 70
     1
102
RTVSPost2010Prop41ColorIndex
 90
       18
102
RTVSPost2010Prop41ColorRGB
 90
        0
102
RTVSPost2010PropOp41
 70
     1
102
RTVSPost2010Prop42
 90
       50
102
RTVSPost2010PropOp42
 70
     1
102
RTVSPost2010Prop43
 90
        3
102
RTVSPost2010PropOp43
 70
     1
102
RTVSPost2010Prop44ColorIndex
 90
        5
102
RTVSPost2010Prop44ColorRGB
 90
      255
102
RTVSPost2010PropOp44
 70
     1
102
RTVSPost2010Prop45
280
     0
102
RTVSPost2010PropOp45
 70
     1
102
RTVSPost2010Prop46
 90
       50
102
RTVSPost2010PropOp46
 70
     1
102
RTVSPost2010Prop47
 90
       50
102
RTVSPost2010PropOp47
 70
     1
102
RTVSPost2010Prop48
 90
       50
102
RTVSPost2010PropOp48
 70
     1
102
RTVSPost2010Prop49
280
     0
102
RTVSPost2010PropOp49
 70
     1
102
RTVSPost2010Prop50
 90
       50
102
RTVSPost2010PropOp50
 70
     1
102
RTVSPost2010Prop51ColorIndex
 90
      256
102
RTVSPost2010Prop51ColorRGB
 90
-16777216
102
RTVSPost2010PropOp51
 70
     0
102
RTVSPost2010Prop52
140
1.0
102
RTVSPost2010PropOp52
 70
     0
102
RTVSPost2010Prop53
 90
        2
102
RTVSPost2010PropOp53
 70
     1
102
RTVSPost2010Prop54
  1
strokes_ogs.tif
102
RTVSPost2010PropOp54
 70
     1
102
RTVSPost2010Prop55
280
     0
102
RTVSPost2010PropOp55
 70
     1
102
RTVSPost2010Prop56
140
1.0
102
RTVSPost2010PropOp56
 70
     1
102
RTVSPost2010Prop57
140
1.0
102
RTVSPost2010PropOp57
 70
     1
102
RTVSPropertyOp0
 70
     1
102
RTVSPropertyOp1
 70
     1
102
RTVSPropertyOp2
 70
     1
102
RTVSPropertyOp3
 70
     1
102
RTVSPropertyOp4
 70
     1
102
RTVSPropertyOp5
 70
     1
102
RTVSPropertyOp6
 70
     1
102
RTVSPropertyOp7
 70
     1
102
RTVSPropertyOp8
 70
     1
102
RTVSPropertyOp9
 70
     1
102
RTVSPropertyOp10
 70
     1
102
RTVSPropertyOp11
 70
     1
102
RTVSPropertyOp12
 70
     1
102
RTVSPropertyOp13
 70
     1
102
RTVSPropertyOp14
 70
     1
102
RTVSPropertyOp15
 70
     1
102
RTVSPropertyOp16
 70
     1
102
RTVSPropertyOp17
 70
     1
102
RTVSPropertyOp18
 70
     1
102
RTVSPropertyOp19
 70
     1
102
RTVSPropertyOp20
 70
     1
102
RTVSPropertyOp21
 70
     1
102
RTVSPropertyOp22
 70
     1
102
RTVSPropertyOp23
 70
     1
102
RTVSPropertyOp24
 70
     1
102
RTVSPropertyOp25
 70
     1
102
RTVSPropertyOp26
 70
     1
102
RTVSPropertyOp27
 70
     1
102
RTVSPropertyOp28
 70
     1
102
RTVSPropertyOp29
 70
     1
102
RTVSPropertyOp30
 70
     1
102
RTVSPropertyOp31
 70
     1
102
RTVSPropertyOp32
 70
     1
102
RTVSPropertyOp33
 70
     1
102
RTVSPropertyOp34
 70
     1
102
RTVSPropertyOp35
 70
     1
102
RTVSPropertyOp36
 70
     1
102
RTVSPropertyOp37
 70
     1
102
RTVSPropertyOp38
 70
     1
102
RTVSPropertyOp39
 70
     1
102
RTVSPropertyOp40
 70
     1
102
RTVSPropertyOp41
 70
     1
102
RTVSPropertyOp42
 70
     1
102
RTVSPropertyOp43
 70
     1
102
RTVSPropertyOp44
 70
     1
102
RTVSPropertyOp45
 70
     1
102
RTVSPropertyOp46
 70
     1
102
RTVSPropertyOp47
 70
     1
102
RTVSPropertyOp48
 70
     1
102
RTVSPropertyOp49
 70
     1
102
RTVSPropertyOp50
 70
     1
102
RTVSPropertyOp51
 70
     0
102
RTVSPropertyOp52
 70
     0
102
RTVSPropertyOp53
 70
     1
102
RTVSPropertyOp54
 70
     1
102
RTVSPropertyOp55
 70
     1
102
RTVSPropertyOp56
 70
     1
102
RTVSPropertyOp57
 70
     1
102
RTVSPropertyOp58
 70
     1
102
RTVSPropertyOp59
 70
     1
102
RTVSPropertyOp60
 70
     1
102
RTVSPropertyOp61
 70
     1
102
RTVSPropertyOp62
 70
     1
  0
XRECORD
  5
379
102
{ACAD_REACTORS
330
378
102
}
330
378
100
AcDbXrecord
280
     1
102
RTVSPost2010Prop28
280
     0
102
RTVSPost2010PropOp28
 70
     1
102
RTVSPost2010Prop29
280
     1
102
RTVSPost2010PropOp29
 70
     1
102
RTVSPost2010Prop30
280
     1
102
RTVSPost2010PropOp30
 70
     1
102
RTVSPost2010Prop31
280
     0
102
RTVSPost2010PropOp31
 70
     1
102
RTVSPost2010Prop32
280
     0
102
RTVSPost2010PropOp32
 70
     1
102
RTVSPost2010Prop33
280
     0
102
RTVSPost2010PropOp33
 70
     1
102
RTVSPost2010Prop34
280
     0
102
RTVSPost2010PropOp34
 70
     1
102
RTVSPost2010Prop35
280
     0
102
RTVSPost2010PropOp35
 70
     1
102
RTVSPost2010Prop36
280
     0
102
RTVSPost2010PropOp36
 70
     1
102
RTVSPost2010Prop37
 90
       50
102
RTVSPost2010PropOp37
 70
     1
102
RTVSPost2010Prop38
140
0.0
102
RTVSPost2010PropOp38
 70
     1
102
RTVSPost2010Prop39
140
1.0
102
RTVSPost2010PropOp39
 70
     1
102
RTVSPost2010Prop40
 90
        0
102
RTVSPost2010PropOp40
 70
     1
102
RTVSPost2010Prop41ColorIndex
 90
       18
102
RTVSPost2010Prop41ColorRGB
 90
        0
102
RTVSPost2010PropOp41
 70
     1
102
RTVSPost2010Prop42
 90
       50
102
RTVSPost2010PropOp42
 70
     1
102
RTVSPost2010Prop43
 90
        3
102
RTVSPost2010PropOp43
 70
     1
102
RTVSPost2010Prop44ColorIndex
 90
        5
102
RTVSPost2010Prop44ColorRGB
 90
      255
102
RTVSPost2010PropOp44
 70
     1
102
RTVSPost2010Prop45
280
     0
102
RTVSPost2010PropOp45
 70
     1
102
RTVSPost2010Prop46
 90
       50
102
RTVSPost2010PropOp46
 70
     1
102
RTVSPost2010Prop47
 90
       50
102
RTVSPost2010PropOp47
 70
     1
102
RTVSPost2010Prop48
 90
       50
102
RTVSPost2010PropOp48
 70
     1
102
RTVSPost2010Prop49
280
     0
102
RTVSPost2010PropOp49
 70
     1
102
RTVSPost2010Prop50
 90
       50
102
RTVSPost2010PropOp50
 70
     1
102
RTVSPost2010Prop51ColorIndex
 90
      256
102
RTVSPost2010Prop51ColorRGB
 90
-16777216
102
RTVSPost2010PropOp51
 70
     0
102
RTVSPost2010Prop52
140
1.0
102
RTVSPost2010PropOp52
 70
     0
102
RTVSPost2010Prop53
 90
        2
102
RTVSPost2010PropOp53
 70
     1
102
RTVSPost2010Prop54
  1
strokes_ogs.tif
102
RTVSPost2010PropOp54
 70
     1
102
RTVSPost2010Prop55
280
     0
102
RTVSPost2010PropOp55
 70
     1
102
RTVSPost2010Prop56
140
1.0
102
RTVSPost2010PropOp56
 70
     1
102
RTVSPost2010Prop57
140
1.0
102
RTVSPost2010PropOp57
 70
     1
102
RTVSPropertyOp0
 70
     1
102
RTVSPropertyOp1
 70
     1
102
RTVSPropertyOp2
 70
     1
102
RTVSPropertyOp3
 70
     1
102
RTVSPropertyOp4
 70
     1
102
RTVSPropertyOp5
 70
     1
102
RTVSPropertyOp6
 70
     1
102
RTVSPropertyOp7
 70
     1
102
RTVSPropertyOp8
 70
     1
102
RTVSPropertyOp9
 70
     1
102
RTVSPropertyOp10
 70
     1
102
RTVSPropertyOp11
 70
     1
102
RTVSPropertyOp12
 70
     1
102
RTVSPropertyOp13
 70
     1
102
RTVSPropertyOp14
 70
     1
102
RTVSPropertyOp15
 70
     1
102
RTVSPropertyOp16
 70
     1
102
RTVSPropertyOp17
 70
     1
102
RTVSPropertyOp18
 70
     1
102
RTVSPropertyOp19
 70
     1
102
RTVSPropertyOp20
 70
     1
102
RTVSPropertyOp21
 70
     1
102
RTVSPropertyOp22
 70
     1
102
RTVSPropertyOp23
 70
     1
102
RTVSPropertyOp24
 70
     1
102
RTVSPropertyOp25
 70
     1
102
RTVSPropertyOp26
 70
     1
102
RTVSPropertyOp27
 70
     1
102
RTVSPropertyOp28
 70
     1
102
RTVSPropertyOp29
 70
     1
102
RTVSPropertyOp30
 70
     1
102
RTVSPropertyOp31
 70
     1
102
RTVSPropertyOp32
 70
     1
102
RTVSPropertyOp33
 70
     1
102
RTVSPropertyOp34
 70
     1
102
RTVSPropertyOp35
 70
     1
102
RTVSPropertyOp36
 70
     1
102
RTVSPropertyOp37
 70
     1
102
RTVSPropertyOp38
 70
     1
102
RTVSPropertyOp39
 70
     1
102
RTVSPropertyOp40
 70
     1
102
RTVSPropertyOp41
 70
     1
102
RTVSPropertyOp42
 70
     1
102
RTVSPropertyOp43
 70
     1
102
RTVSPropertyOp44
 70
     1
102
RTVSPropertyOp45
 70
     1
102
RTVSPropertyOp46
 70
     1
102
RTVSPropertyOp47
 70
     1
102
RTVSPropertyOp48
 70
     1
102
RTVSPropertyOp49
 70
     1
102
RTVSPropertyOp50
 70
     1
102
RTVSPropertyOp51
 70
     0
102
RTVSPropertyOp52
 70
     0
102
RTVSPropertyOp53
 70
     1
102
RTVSPropertyOp54
 70
     1
102
RTVSPropertyOp55
 70
     1
102
RTVSPropertyOp56
 70
     1
102
RTVSPropertyOp57
 70
     1
102
RTVSPropertyOp58
 70
     1
102
RTVSPropertyOp59
 70
     1
102
RTVSPropertyOp60
 70
     1
102
RTVSPropertyOp61
 70
     1
102
RTVSPropertyOp62
 70
     1
  0
XRECORD
  5
381
102
{ACAD_REACTORS
330
380
102
}
330
380
100
AcDbXrecord
280
     1
102
RTVSPost2010Prop28
280
     0
102
RTVSPost2010PropOp28
 70
     1
102
RTVSPost2010Prop29
280
     1
102
RTVSPost2010PropOp29
 70
     1
102
RTVSPost2010Prop30
280
     1
102
RTVSPost2010PropOp30
 70
     1
102
RTVSPost2010Prop31
280
     0
102
RTVSPost2010PropOp31
 70
     1
102
RTVSPost2010Prop32
280
     0
102
RTVSPost2010PropOp32
 70
     1
102
RTVSPost2010Prop33
280
     0
102
RTVSPost2010PropOp33
 70
     1
102
RTVSPost2010Prop34
280
     0
102
RTVSPost2010PropOp34
 70
     1
102
RTVSPost2010Prop35
280
     0
102
RTVSPost2010PropOp35
 70
     1
102
RTVSPost2010Prop36
280
     0
102
RTVSPost2010PropOp36
 70
     1
102
RTVSPost2010Prop37
 90
       50
102
RTVSPost2010PropOp37
 70
     1
102
RTVSPost2010Prop38
140
0.0
102
RTVSPost2010PropOp38
 70
     1
102
RTVSPost2010Prop39
140
1.0
102
RTVSPost2010PropOp39
 70
     1
102
RTVSPost2010Prop40
 90
        0
102
RTVSPost2010PropOp40
 70
     1
102
RTVSPost2010Prop41ColorIndex
 90
       18
102
RTVSPost2010Prop41ColorRGB
 90
        0
102
RTVSPost2010PropOp41
 70
     1
102
RTVSPost2010Prop42
 90
       50
102
RTVSPost2010PropOp42
 70
     1
102
RTVSPost2010Prop43
 90
        3
102
RTVSPost2010PropOp43
 70
     1
102
RTVSPost2010Prop44ColorIndex
 90
        5
102
RTVSPost2010Prop44ColorRGB
 90
      255
102
RTVSPost2010PropOp44
 70
     1
102
RTVSPost2010Prop45
280
     0
102
RTVSPost2010PropOp45
 70
     1
102
RTVSPost2010Prop46
 90
       50
102
RTVSPost2010PropOp46
 70
     1
102
RTVSPost2010Prop47
 90
       50
102
RTVSPost2010PropOp47
 70
     1
102
RTVSPost2010Prop48
 90
       50
102
RTVSPost2010PropOp48
 70
     1
102
RTVSPost2010Prop49
280
     0
102
RTVSPost2010PropOp49
 70
     1
102
RTVSPost2010Prop50
 90
       50
102
RTVSPost2010PropOp50
 70
     1
102
RTVSPost2010Prop51ColorIndex
 90
      256
102
RTVSPost2010Prop51ColorRGB
 90
-16777216
102
RTVSPost2010PropOp51
 70
     0
102
RTVSPost2010Prop52
140
1.0
102
RTVSPost2010PropOp52
 70
     0
102
RTVSPost2010Prop53
 90
        2
102
RTVSPost2010PropOp53
 70
     1
102
RTVSPost2010Prop54
  1
strokes_ogs.tif
102
RTVSPost2010PropOp54
 70
     1
102
RTVSPost2010Prop55
280
     0
102
RTVSPost2010PropOp55
 70
     1
102
RTVSPost2010Prop56
140
1.0
102
RTVSPost2010PropOp56
 70
     1
102
RTVSPost2010Prop57
140
1.0
102
RTVSPost2010PropOp57
 70
     1
102
RTVSPropertyOp0
 70
     1
102
RTVSPropertyOp1
 70
     1
102
RTVSPropertyOp2
 70
     1
102
RTVSPropertyOp3
 70
     1
102
RTVSPropertyOp4
 70
     1
102
RTVSPropertyOp5
 70
     1
102
RTVSPropertyOp6
 70
     1
102
RTVSPropertyOp7
 70
     1
102
RTVSPropertyOp8
 70
     1
102
RTVSPropertyOp9
 70
     1
102
RTVSPropertyOp10
 70
     1
102
RTVSPropertyOp11
 70
     1
102
RTVSPropertyOp12
 70
     1
102
RTVSPropertyOp13
 70
     1
102
RTVSPropertyOp14
 70
     1
102
RTVSPropertyOp15
 70
     1
102
RTVSPropertyOp16
 70
     1
102
RTVSPropertyOp17
 70
     1
102
RTVSPropertyOp18
 70
     1
102
RTVSPropertyOp19
 70
     1
102
RTVSPropertyOp20
 70
     1
102
RTVSPropertyOp21
 70
     1
102
RTVSPropertyOp22
 70
     1
102
RTVSPropertyOp23
 70
     1
102
RTVSPropertyOp24
 70
     1
102
RTVSPropertyOp25
 70
     1
102
RTVSPropertyOp26
 70
     1
102
RTVSPropertyOp27
 70
     1
102
RTVSPropertyOp28
 70
     1
102
RTVSPropertyOp29
 70
     1
102
RTVSPropertyOp30
 70
     1
102
RTVSPropertyOp31
 70
     1
102
RTVSPropertyOp32
 70
     1
102
RTVSPropertyOp33
 70
     1
102
RTVSPropertyOp34
 70
     1
102
RTVSPropertyOp35
 70
     1
102
RTVSPropertyOp36
 70
     1
102
RTVSPropertyOp37
 70
     1
102
RTVSPropertyOp38
 70
     1
102
RTVSPropertyOp39
 70
     1
102
RTVSPropertyOp40
 70
     1
102
RTVSPropertyOp41
 70
     1
102
RTVSPropertyOp42
 70
     1
102
RTVSPropertyOp43
 70
     1
102
RTVSPropertyOp44
 70
     1
102
RTVSPropertyOp45
 70
     1
102
RTVSPropertyOp46
 70
     1
102
RTVSPropertyOp47
 70
     1
102
RTVSPropertyOp48
 70
     1
102
RTVSPropertyOp49
 70
     1
102
RTVSPropertyOp50
 70
     1
102
RTVSPropertyOp51
 70
     0
102
RTVSPropertyOp52
 70
     0
102
RTVSPropertyOp53
 70
     1
102
RTVSPropertyOp54
 70
     1
102
RTVSPropertyOp55
 70
     1
102
RTVSPropertyOp56
 70
     1
102
RTVSPropertyOp57
 70
     1
102
RTVSPropertyOp58
 70
     1
102
RTVSPropertyOp59
 70
     1
102
RTVSPropertyOp60
 70
     1
102
RTVSPropertyOp61
 70
     1
102
RTVSPropertyOp62
 70
     1
  0
XRECORD
  5
375
102
{ACAD_REACTORS
330
374
102
}
330
374
100
AcDbXrecord
280
     1
102
RTVSPost2010Prop28
280
     0
102
RTVSPost2010PropOp28
 70
     1
102
RTVSPost2010Prop29
280
     1
102
RTVSPost2010PropOp29
 70
     1
102
RTVSPost2010Prop30
280
     1
102
RTVSPost2010PropOp30
 70
     1
102
RTVSPost2010Prop31
280
     0
102
RTVSPost2010PropOp31
 70
     1
102
RTVSPost2010Prop32
280
     0
102
RTVSPost2010PropOp32
 70
     1
102
RTVSPost2010Prop33
280
     0
102
RTVSPost2010PropOp33
 70
     1
102
RTVSPost2010Prop34
280
     0
102
RTVSPost2010PropOp34
 70
     1
102
RTVSPost2010Prop35
280
     0
102
RTVSPost2010PropOp35
 70
     1
102
RTVSPost2010Prop36
280
     0
102
RTVSPost2010PropOp36
 70
     1
102
RTVSPost2010Prop37
 90
       50
102
RTVSPost2010PropOp37
 70
     1
102
RTVSPost2010Prop38
140
0.0
102
RTVSPost2010PropOp38
 70
     1
102
RTVSPost2010Prop39
140
1.0
102
RTVSPost2010PropOp39
 70
     1
102
RTVSPost2010Prop40
 90
        0
102
RTVSPost2010PropOp40
 70
     1
102
RTVSPost2010Prop41ColorIndex
 90
       18
102
RTVSPost2010Prop41ColorRGB
 90
        0
102
RTVSPost2010PropOp41
 70
     1
102
RTVSPost2010Prop42
 90
       50
102
RTVSPost2010PropOp42
 70
     1
102
RTVSPost2010Prop43
 90
        3
102
RTVSPost2010PropOp43
 70
     1
102
RTVSPost2010Prop44ColorIndex
 90
        5
102
RTVSPost2010Prop44ColorRGB
 90
      255
102
RTVSPost2010PropOp44
 70
     1
102
RTVSPost2010Prop45
280
     0
102
RTVSPost2010PropOp45
 70
     1
102
RTVSPost2010Prop46
 90
       50
102
RTVSPost2010PropOp46
 70
     1
102
RTVSPost2010Prop47
 90
       50
102
RTVSPost2010PropOp47
 70
     1
102
RTVSPost2010Prop48
 90
       50
102
RTVSPost2010PropOp48
 70
     1
102
RTVSPost2010Prop49
280
     0
102
RTVSPost2010PropOp49
 70
     1
102
RTVSPost2010Prop50
 90
       50
102
RTVSPost2010PropOp50
 70
     1
102
RTVSPost2010Prop51ColorIndex
 90
      256
102
RTVSPost2010Prop51ColorRGB
 90
-16777216
102
RTVSPost2010PropOp51
 70
     0
102
RTVSPost2010Prop52
140
1.0
102
RTVSPost2010PropOp52
 70
     0
102
RTVSPost2010Prop53
 90
        2
102
RTVSPost2010PropOp53
 70
     1
102
RTVSPost2010Prop54
  1
strokes_ogs.tif
102
RTVSPost2010PropOp54
 70
     1
102
RTVSPost2010Prop55
280
     0
102
RTVSPost2010PropOp55
 70
     1
102
RTVSPost2010Prop56
140
1.0
102
RTVSPost2010PropOp56
 70
     1
102
RTVSPost2010Prop57
140
1.0
102
RTVSPost2010PropOp57
 70
     1
102
RTVSPropertyOp0
 70
     1
102
RTVSPropertyOp1
 70
     1
102
RTVSPropertyOp2
 70
     1
102
RTVSPropertyOp3
 70
     1
102
RTVSPropertyOp4
 70
     1
102
RTVSPropertyOp5
 70
     1
102
RTVSPropertyOp6
 70
     1
102
RTVSPropertyOp7
 70
     1
102
RTVSPropertyOp8
 70
     1
102
RTVSPropertyOp9
 70
     1
102
RTVSPropertyOp10
 70
     1
102
RTVSPropertyOp11
 70
     1
102
RTVSPropertyOp12
 70
     1
102
RTVSPropertyOp13
 70
     1
102
RTVSPropertyOp14
 70
     1
102
RTVSPropertyOp15
 70
     1
102
RTVSPropertyOp16
 70
     1
102
RTVSPropertyOp17
 70
     1
102
RTVSPropertyOp18
 70
     1
102
RTVSPropertyOp19
 70
     1
102
RTVSPropertyOp20
 70
     1
102
RTVSPropertyOp21
 70
     1
102
RTVSPropertyOp22
 70
     1
102
RTVSPropertyOp23
 70
     1
102
RTVSPropertyOp24
 70
     1
102
RTVSPropertyOp25
 70
     1
102
RTVSPropertyOp26
 70
     1
102
RTVSPropertyOp27
 70
     1
102
RTVSPropertyOp28
 70
     1
102
RTVSPropertyOp29
 70
     1
102
RTVSPropertyOp30
 70
     1
102
RTVSPropertyOp31
 70
     1
102
RTVSPropertyOp32
 70
     1
102
RTVSPropertyOp33
 70
     1
102
RTVSPropertyOp34
 70
     1
102
RTVSPropertyOp35
 70
     1
102
RTVSPropertyOp36
 70
     1
102
RTVSPropertyOp37
 70
     1
102
RTVSPropertyOp38
 70
     1
102
RTVSPropertyOp39
 70
     1
102
RTVSPropertyOp40
 70
     1
102
RTVSPropertyOp41
 70
     1
102
RTVSPropertyOp42
 70
     1
102
RTVSPropertyOp43
 70
     1
102
RTVSPropertyOp44
 70
     1
102
RTVSPropertyOp45
 70
     1
102
RTVSPropertyOp46
 70
     1
102
RTVSPropertyOp47
 70
     1
102
RTVSPropertyOp48
 70
     1
102
RTVSPropertyOp49
 70
     1
102
RTVSPropertyOp50
 70
     1
102
RTVSPropertyOp51
 70
     0
102
RTVSPropertyOp52
 70
     0
102
RTVSPropertyOp53
 70
     1
102
RTVSPropertyOp54
 70
     1
102
RTVSPropertyOp55
 70
     1
102
RTVSPropertyOp56
 70
     1
102
RTVSPropertyOp57
 70
     1
102
RTVSPropertyOp58
 70
     1
102
RTVSPropertyOp59
 70
     1
102
RTVSPropertyOp60
 70
     1
102
RTVSPropertyOp61
 70
     1
102
RTVSPropertyOp62
 70
     1
  0
XRECORD
  5
377
102
{ACAD_REACTORS
330
376
102
}
330
376
100
AcDbXrecord
280
     1
102
RTVSPost2010Prop28
280
     0
102
RTVSPost2010PropOp28
 70
     1
102
RTVSPost2010Prop29
280
     1
102
RTVSPost2010PropOp29
 70
     1
102
RTVSPost2010Prop30
280
     1
102
RTVSPost2010PropOp30
 70
     1
102
RTVSPost2010Prop31
280
     0
102
RTVSPost2010PropOp31
 70
     1
102
RTVSPost2010Prop32
280
     0
102
RTVSPost2010PropOp32
 70
     1
102
RTVSPost2010Prop33
280
     0
102
RTVSPost2010PropOp33
 70
     1
102
RTVSPost2010Prop34
280
     0
102
RTVSPost2010PropOp34
 70
     1
102
RTVSPost2010Prop35
280
     0
102
RTVSPost2010PropOp35
 70
     1
102
RTVSPost2010Prop36
280
     0
102
RTVSPost2010PropOp36
 70
     1
102
RTVSPost2010Prop37
 90
       50
102
RTVSPost2010PropOp37
 70
     1
102
RTVSPost2010Prop38
140
0.0
102
RTVSPost2010PropOp38
 70
     1
102
RTVSPost2010Prop39
140
1.0
102
RTVSPost2010PropOp39
 70
     1
102
RTVSPost2010Prop40
 90
        0
102
RTVSPost2010PropOp40
 70
     1
102
RTVSPost2010Prop41ColorIndex
 90
       18
102
RTVSPost2010Prop41ColorRGB
 90
        0
102
RTVSPost2010PropOp41
 70
     1
102
RTVSPost2010Prop42
 90
       50
102
RTVSPost2010PropOp42
 70
     1
102
RTVSPost2010Prop43
 90
        3
102
RTVSPost2010PropOp43
 70
     1
102
RTVSPost2010Prop44ColorIndex
 90
        5
102
RTVSPost2010Prop44ColorRGB
 90
      255
102
RTVSPost2010PropOp44
 70
     1
102
RTVSPost2010Prop45
280
     0
102
RTVSPost2010PropOp45
 70
     1
102
RTVSPost2010Prop46
 90
       50
102
RTVSPost2010PropOp46
 70
     1
102
RTVSPost2010Prop47
 90
       50
102
RTVSPost2010PropOp47
 70
     1
102
RTVSPost2010Prop48
 90
       50
102
RTVSPost2010PropOp48
 70
     1
102
RTVSPost2010Prop49
280
     0
102
RTVSPost2010PropOp49
 70
     1
102
RTVSPost2010Prop50
 90
       50
102
RTVSPost2010PropOp50
 70
     1
102
RTVSPost2010Prop51ColorIndex
 90
      256
102
RTVSPost2010Prop51ColorRGB
 90
-16777216
102
RTVSPost2010PropOp51
 70
     0
102
RTVSPost2010Prop52
140
1.0
102
RTVSPost2010PropOp52
 70
     0
102
RTVSPost2010Prop53
 90
        2
102
RTVSPost2010PropOp53
 70
     1
102
RTVSPost2010Prop54
  1
strokes_ogs.tif
102
RTVSPost2010PropOp54
 70
     1
102
RTVSPost2010Prop55
280
     0
102
RTVSPost2010PropOp55
 70
     1
102
RTVSPost2010Prop56
140
1.0
102
RTVSPost2010PropOp56
 70
     1
102
RTVSPost2010Prop57
140
1.0
102
RTVSPost2010PropOp57
 70
     1
102
RTVSPropertyOp0
 70
     1
102
RTVSPropertyOp1
 70
     1
102
RTVSPropertyOp2
 70
     1
102
RTVSPropertyOp3
 70
     1
102
RTVSPropertyOp4
 70
     1
102
RTVSPropertyOp5
 70
     1
102
RTVSPropertyOp6
 70
     1
102
RTVSPropertyOp7
 70
     1
102
RTVSPropertyOp8
 70
     1
102
RTVSPropertyOp9
 70
     1
102
RTVSPropertyOp10
 70
     1
102
RTVSPropertyOp11
 70
     1
102
RTVSPropertyOp12
 70
     1
102
RTVSPropertyOp13
 70
     1
102
RTVSPropertyOp14
 70
     1
102
RTVSPropertyOp15
 70
     1
102
RTVSPropertyOp16
 70
     1
102
RTVSPropertyOp17
 70
     1
102
RTVSPropertyOp18
 70
     1
102
RTVSPropertyOp19
 70
     1
102
RTVSPropertyOp20
 70
     1
102
RTVSPropertyOp21
 70
     1
102
RTVSPropertyOp22
 70
     1
102
RTVSPropertyOp23
 70
     1
102
RTVSPropertyOp24
 70
     1
102
RTVSPropertyOp25
 70
     1
102
RTVSPropertyOp26
 70
     1
102
RTVSPropertyOp27
 70
     1
102
RTVSPropertyOp28
 70
     1
102
RTVSPropertyOp29
 70
     1
102
RTVSPropertyOp30
 70
     1
102
RTVSPropertyOp31
 70
     1
102
RTVSPropertyOp32
 70
     1
102
RTVSPropertyOp33
 70
     1
102
RTVSPropertyOp34
 70
     1
102
RTVSPropertyOp35
 70
     1
102
RTVSPropertyOp36
 70
     1
102
RTVSPropertyOp37
 70
     1
102
RTVSPropertyOp38
 70
     1
102
RTVSPropertyOp39
 70
     1
102
RTVSPropertyOp40
 70
     1
102
RTVSPropertyOp41
 70
     1
102
RTVSPropertyOp42
 70
     1
102
RTVSPropertyOp43
 70
     1
102
RTVSPropertyOp44
 70
     1
102
RTVSPropertyOp45
 70
     1
102
RTVSPropertyOp46
 70
     1
102
RTVSPropertyOp47
 70
     1
102
RTVSPropertyOp48
 70
     1
102
RTVSPropertyOp49
 70
     1
102
RTVSPropertyOp50
 70
     1
102
RTVSPropertyOp51
 70
     0
102
RTVSPropertyOp52
 70
     0
102
RTVSPropertyOp53
 70
     1
102
RTVSPropertyOp54
 70
     1
102
RTVSPropertyOp55
 70
     1
102
RTVSPropertyOp56
 70
     1
102
RTVSPropertyOp57
 70
     1
102
RTVSPropertyOp58
 70
     1
102
RTVSPropertyOp59
 70
     1
102
RTVSPropertyOp60
 70
     1
102
RTVSPropertyOp61
 70
     1
102
RTVSPropertyOp62
 70
     1
  0
XRECORD
  5
387
102
{ACAD_REACTORS
330
386
102
}
330
386
100
AcDbXrecord
280
     1
102
RTVSPost2010Prop28
280
     0
102
RTVSPost2010PropOp28
 70
     0
102
RTVSPost2010Prop29
280
     1
102
RTVSPost2010PropOp29
 70
     0
102
RTVSPost2010Prop30
280
     1
102
RTVSPost2010PropOp30
 70
     0
102
RTVSPost2010Prop31
280
     0
102
RTVSPost2010PropOp31
 70
     0
102
RTVSPost2010Prop32
280
     0
102
RTVSPost2010PropOp32
 70
     0
102
RTVSPost2010Prop33
280
     0
102
RTVSPost2010PropOp33
 70
     0
102
RTVSPost2010Prop34
280
     0
102
RTVSPost2010PropOp34
 70
     0
102
RTVSPost2010Prop35
280
     0
102
RTVSPost2010PropOp35
 70
     0
102
RTVSPost2010Prop36
280
     0
102
RTVSPost2010PropOp36
 70
     0
102
RTVSPost2010Prop37
 90
       50
102
RTVSPost2010PropOp37
 70
     0
102
RTVSPost2010Prop38
140
0.0
102
RTVSPost2010PropOp38
 70
     0
102
RTVSPost2010Prop39
140
1.0
102
RTVSPost2010PropOp39
 70
     0
102
RTVSPost2010Prop40
 90
        0
102
RTVSPost2010PropOp40
 70
     0
102
RTVSPost2010Prop41ColorIndex
 90
       18
102
RTVSPost2010Prop41ColorRGB
 90
        0
102
RTVSPost2010PropOp41
 70
     0
102
RTVSPost2010Prop42
 90
       50
102
RTVSPost2010PropOp42
 70
     0
102
RTVSPost2010Prop43
 90
        3
102
RTVSPost2010PropOp43
 70
     0
102
RTVSPost2010Prop44ColorIndex
 90
        5
102
RTVSPost2010Prop44ColorRGB
 90
      255
102
RTVSPost2010PropOp44
 70
     0
102
RTVSPost2010Prop45
280
     0
102
RTVSPost2010PropOp45
 70
     0
102
RTVSPost2010Prop46
 90
       50
102
RTVSPost2010PropOp46
 70
     0
102
RTVSPost2010Prop47
 90
       50
102
RTVSPost2010PropOp47
 70
     0
102
RTVSPost2010Prop48
 90
       50
102
RTVSPost2010PropOp48
 70
     0
102
RTVSPost2010Prop49
280
     0
102
RTVSPost2010PropOp49
 70
     0
102
RTVSPost2010Prop50
 90
       50
102
RTVSPost2010PropOp50
 70
     0
102
RTVSPost2010Prop51ColorIndex
 90
      256
102
RTVSPost2010Prop51ColorRGB
 90
-16777216
102
RTVSPost2010PropOp51
 70
     0
102
RTVSPost2010Prop52
140
1.0
102
RTVSPost2010PropOp52
 70
     0
102
RTVSPost2010Prop53
 90
        2
102
RTVSPost2010PropOp53
 70
     0
102
RTVSPost2010Prop54
  1
strokes_ogs.tif
102
RTVSPost2010PropOp54
 70
     0
102
RTVSPost2010Prop55
280
     0
102
RTVSPost2010PropOp55
 70
     0
102
RTVSPost2010Prop56
140
1.0
102
RTVSPost2010PropOp56
 70
     0
102
RTVSPost2010Prop57
140
1.0
102
RTVSPost2010PropOp57
 70
     0
102
RTVSPropertyOp0
 70
     0
102
RTVSPropertyOp1
 70
     0
102
RTVSPropertyOp2
 70
     0
102
RTVSPropertyOp3
 70
     0
102
RTVSPropertyOp4
 70
     0
102
RTVSPropertyOp5
 70
     0
102
RTVSPropertyOp6
 70
     0
102
RTVSPropertyOp7
 70
     0
102
RTVSPropertyOp8
 70
     0
102
RTVSPropertyOp9
 70
     0
102
RTVSPropertyOp10
 70
     0
102
RTVSPropertyOp11
 70
     0
102
RTVSPropertyOp12
 70
     0
102
RTVSPropertyOp13
 70
     0
102
RTVSPropertyOp14
 70
     2
102
RTVSPropertyOp15
 70
     0
102
RTVSPropertyOp16
 70
     0
102
RTVSPropertyOp17
 70
     0
102
RTVSPropertyOp18
 70
     0
102
RTVSPropertyOp19
 70
     0
102
RTVSPropertyOp20
 70
     0
102
RTVSPropertyOp21
 70
     0
102
RTVSPropertyOp22
 70
     0
102
RTVSPropertyOp23
 70
     0
102
RTVSPropertyOp24
 70
     0
102
RTVSPropertyOp25
 70
     0
102
RTVSPropertyOp26
 70
     0
102
RTVSPropertyOp27
 70
     0
102
RTVSPropertyOp28
 70
     0
102
RTVSPropertyOp29
 70
     0
102
RTVSPropertyOp30
 70
     0
102
RTVSPropertyOp31
 70
     0
102
RTVSPropertyOp32
 70
     0
102
RTVSPropertyOp33
 70
     0
102
RTVSPropertyOp34
 70
     0
102
RTVSPropertyOp35
 70
     0
102
RTVSPropertyOp36
 70
     0
102
RTVSPropertyOp37
 70
     0
102
RTVSPropertyOp38
 70
     0
102
RTVSPropertyOp39
 70
     0
102
RTVSPropertyOp40
 70
     0
102
RTVSPropertyOp41
 70
     0
102
RTVSPropertyOp42
 70
     0
102
RTVSPropertyOp43
 70
     0
102
RTVSPropertyOp44
 70
     0
102
RTVSPropertyOp45
 70
     0
102
RTVSPropertyOp46
 70
     0
102
RTVSPropertyOp47
 70
     0
102
RTVSPropertyOp48
 70
     0
102
RTVSPropertyOp49
 70
     0
102
RTVSPropertyOp50
 70
     0
102
RTVSPropertyOp51
 70
     0
102
RTVSPropertyOp52
 70
     0
102
RTVSPropertyOp53
 70
     0
102
RTVSPropertyOp54
 70
     0
102
RTVSPropertyOp55
 70
     0
102
RTVSPropertyOp56
 70
     0
102
RTVSPropertyOp57
 70
     0
102
RTVSPropertyOp58
 70
     1
102
RTVSPropertyOp59
 70
     1
102
RTVSPropertyOp60
 70
     1
102
RTVSPropertyOp61
 70
     1
102
RTVSPropertyOp62
 70
     1
  0
XRECORD
  5
37F
102
{ACAD_REACTORS
330
37E
102
}
330
37E
100
AcDbXrecord
280
     1
102
RTVSPost2010Prop28
280
     0
102
RTVSPost2010PropOp28
 70
     1
102
RTVSPost2010Prop29
280
     1
102
RTVSPost2010PropOp29
 70
     1
102
RTVSPost2010Prop30
280
     1
102
RTVSPost2010PropOp30
 70
     1
102
RTVSPost2010Prop31
280
     0
102
RTVSPost2010PropOp31
 70
     1
102
RTVSPost2010Prop32
280
     0
102
RTVSPost2010PropOp32
 70
     1
102
RTVSPost2010Prop33
280
     0
102
RTVSPost2010PropOp33
 70
     1
102
RTVSPost2010Prop34
280
     0
102
RTVSPost2010PropOp34
 70
     1
102
RTVSPost2010Prop35
280
     0
102
RTVSPost2010PropOp35
 70
     1
102
RTVSPost2010Prop36
280
     0
102
RTVSPost2010PropOp36
 70
     1
102
RTVSPost2010Prop37
 90
       50
102
RTVSPost2010PropOp37
 70
     1
102
RTVSPost2010Prop38
140
0.0
102
RTVSPost2010PropOp38
 70
     1
102
RTVSPost2010Prop39
140
1.0
102
RTVSPost2010PropOp39
 70
     1
102
RTVSPost2010Prop40
 90
        0
102
RTVSPost2010PropOp40
 70
     1
102
RTVSPost2010Prop41ColorIndex
 90
       18
102
RTVSPost2010Prop41ColorRGB
 90
        0
102
RTVSPost2010PropOp41
 70
     1
102
RTVSPost2010Prop42
 90
       50
102
RTVSPost2010PropOp42
 70
     1
102
RTVSPost2010Prop43
 90
        3
102
RTVSPost2010PropOp43
 70
     1
102
RTVSPost2010Prop44ColorIndex
 90
        5
102
RTVSPost2010Prop44ColorRGB
 90
      255
102
RTVSPost2010PropOp44
 70
     1
102
RTVSPost2010Prop45
280
     0
102
RTVSPost2010PropOp45
 70
     1
102
RTVSPost2010Prop46
 90
       50
102
RTVSPost2010PropOp46
 70
     1
102
RTVSPost2010Prop47
 90
       50
102
RTVSPost2010PropOp47
 70
     1
102
RTVSPost2010Prop48
 90
       50
102
RTVSPost2010PropOp48
 70
     1
102
RTVSPost2010Prop49
280
     0
102
RTVSPost2010PropOp49
 70
     1
102
RTVSPost2010Prop50
 90
       50
102
RTVSPost2010PropOp50
 70
     1
102
RTVSPost2010Prop51ColorIndex
 90
      256
102
RTVSPost2010Prop51ColorRGB
 90
-16777216
102
RTVSPost2010PropOp51
 70
     0
102
RTVSPost2010Prop52
140
1.0
102
RTVSPost2010PropOp52
 70
     0
102
RTVSPost2010Prop53
 90
        2
102
RTVSPost2010PropOp53
 70
     1
102
RTVSPost2010Prop54
  1
strokes_ogs.tif
102
RTVSPost2010PropOp54
 70
     1
102
RTVSPost2010Prop55
280
     0
102
RTVSPost2010PropOp55
 70
     1
102
RTVSPost2010Prop56
140
1.0
102
RTVSPost2010PropOp56
 70
     1
102
RTVSPost2010Prop57
140
1.0
102
RTVSPost2010PropOp57
 70
     1
102
RTVSPropertyOp0
 70
     1
102
RTVSPropertyOp1
 70
     1
102
RTVSPropertyOp2
 70
     1
102
RTVSPropertyOp3
 70
     1
102
RTVSPropertyOp4
 70
     1
102
RTVSPropertyOp5
 70
     1
102
RTVSPropertyOp6
 70
     1
102
RTVSPropertyOp7
 70
     1
102
RTVSPropertyOp8
 70
     1
102
RTVSPropertyOp9
 70
     1
102
RTVSPropertyOp10
 70
     1
102
RTVSPropertyOp11
 70
     1
102
RTVSPropertyOp12
 70
     1
102
RTVSPropertyOp13
 70
     1
102
RTVSPropertyOp14
 70
     1
102
RTVSPropertyOp15
 70
     1
102
RTVSPropertyOp16
 70
     1
102
RTVSPropertyOp17
 70
     1
102
RTVSPropertyOp18
 70
     1
102
RTVSPropertyOp19
 70
     1
102
RTVSPropertyOp20
 70
     1
102
RTVSPropertyOp21
 70
     1
102
RTVSPropertyOp22
 70
     1
102
RTVSPropertyOp23
 70
     1
102
RTVSPropertyOp24
 70
     1
102
RTVSPropertyOp25
 70
     1
102
RTVSPropertyOp26
 70
     1
102
RTVSPropertyOp27
 70
     1
102
RTVSPropertyOp28
 70
     1
102
RTVSPropertyOp29
 70
     1
102
RTVSPropertyOp30
 70
     1
102
RTVSPropertyOp31
 70
     1
102
RTVSPropertyOp32
 70
     1
102
RTVSPropertyOp33
 70
     1
102
RTVSPropertyOp34
 70
     1
102
RTVSPropertyOp35
 70
     1
102
RTVSPropertyOp36
 70
     1
102
RTVSPropertyOp37
 70
     1
102
RTVSPropertyOp38
 70
     1
102
RTVSPropertyOp39
 70
     1
102
RTVSPropertyOp40
 70
     1
102
RTVSPropertyOp41
 70
     1
102
RTVSPropertyOp42
 70
     1
102
RTVSPropertyOp43
 70
     1
102
RTVSPropertyOp44
 70
     1
102
RTVSPropertyOp45
 70
     1
102
RTVSPropertyOp46
 70
     1
102
RTVSPropertyOp47
 70
     1
102
RTVSPropertyOp48
 70
     1
102
RTVSPropertyOp49
 70
     1
102
RTVSPropertyOp50
 70
     1
102
RTVSPropertyOp51
 70
     0
102
RTVSPropertyOp52
 70
     0
102
RTVSPropertyOp53
 70
     1
102
RTVSPropertyOp54
 70
     1
102
RTVSPropertyOp55
 70
     1
102
RTVSPropertyOp56
 70
     1
102
RTVSPropertyOp57
 70
     1
102
RTVSPropertyOp58
 70
     1
102
RTVSPropertyOp59
 70
     1
102
RTVSPropertyOp60
 70
     1
102
RTVSPropertyOp61
 70
     1
102
RTVSPropertyOp62
 70
     1
  0
XRECORD
  5
363
102
{ACAD_REACTORS
330
362
102
}
330
362
100
AcDbXrecord
280
     1
102
RTVSPost2010Prop28
280
     0
102
RTVSPost2010PropOp28
 70
     1
102
RTVSPost2010Prop29
280
     1
102
RTVSPost2010PropOp29
 70
     1
102
RTVSPost2010Prop30
280
     1
102
RTVSPost2010PropOp30
 70
     1
102
RTVSPost2010Prop31
280
     0
102
RTVSPost2010PropOp31
 70
     1
102
RTVSPost2010Prop32
280
     0
102
RTVSPost2010PropOp32
 70
     1
102
RTVSPost2010Prop33
280
     0
102
RTVSPost2010PropOp33
 70
     1
102
RTVSPost2010Prop34
280
     0
102
RTVSPost2010PropOp34
 70
     1
102
RTVSPost2010Prop35
280
     0
102
RTVSPost2010PropOp35
 70
     1
102
RTVSPost2010Prop36
280
     0
102
RTVSPost2010PropOp36
 70
     1
102
RTVSPost2010Prop37
 90
       50
102
RTVSPost2010PropOp37
 70
     1
102
RTVSPost2010Prop38
140
0.0
102
RTVSPost2010PropOp38
 70
     1
102
RTVSPost2010Prop39
140
1.0
102
RTVSPost2010PropOp39
 70
     1
102
RTVSPost2010Prop40
 90
        0
102
RTVSPost2010PropOp40
 70
     1
102
RTVSPost2010Prop41ColorIndex
 90
       18
102
RTVSPost2010Prop41ColorRGB
 90
        0
102
RTVSPost2010PropOp41
 70
     1
102
RTVSPost2010Prop42
 90
       50
102
RTVSPost2010PropOp42
 70
     1
102
RTVSPost2010Prop43
 90
        3
102
RTVSPost2010PropOp43
 70
     1
102
RTVSPost2010Prop44ColorIndex
 90
        5
102
RTVSPost2010Prop44ColorRGB
 90
      255
102
RTVSPost2010PropOp44
 70
     1
102
RTVSPost2010Prop45
280
     0
102
RTVSPost2010PropOp45
 70
     1
102
RTVSPost2010Prop46
 90
       50
102
RTVSPost2010PropOp46
 70
     1
102
RTVSPost2010Prop47
 90
       50
102
RTVSPost2010PropOp47
 70
     1
102
RTVSPost2010Prop48
 90
       50
102
RTVSPost2010PropOp48
 70
     1
102
RTVSPost2010Prop49
280
     0
102
RTVSPost2010PropOp49
 70
     1
102
RTVSPost2010Prop50
 90
       50
102
RTVSPost2010PropOp50
 70
     1
102
RTVSPost2010Prop51ColorIndex
 90
      256
102
RTVSPost2010Prop51ColorRGB
 90
-16777216
102
RTVSPost2010PropOp51
 70
     0
102
RTVSPost2010Prop52
140
1.0
102
RTVSPost2010PropOp52
 70
     0
102
RTVSPost2010Prop53
 90
        2
102
RTVSPost2010PropOp53
 70
     1
102
RTVSPost2010Prop54
  1
strokes_ogs.tif
102
RTVSPost2010PropOp54
 70
     1
102
RTVSPost2010Prop55
280
     0
102
RTVSPost2010PropOp55
 70
     1
102
RTVSPost2010Prop56
140
1.0
102
RTVSPost2010PropOp56
 70
     1
102
RTVSPost2010Prop57
140
1.0
102
RTVSPost2010PropOp57
 70
     1
102
RTVSPropertyOp0
 70
     1
102
RTVSPropertyOp1
 70
     1
102
RTVSPropertyOp2
 70
     1
102
RTVSPropertyOp3
 70
     1
102
RTVSPropertyOp4
 70
     1
102
RTVSPropertyOp5
 70
     1
102
RTVSPropertyOp6
 70
     1
102
RTVSPropertyOp7
 70
     1
102
RTVSPropertyOp8
 70
     1
102
RTVSPropertyOp9
 70
     1
102
RTVSPropertyOp10
 70
     1
102
RTVSPropertyOp11
 70
     1
102
RTVSPropertyOp12
 70
     1
102
RTVSPropertyOp13
 70
     1
102
RTVSPropertyOp14
 70
     1
102
RTVSPropertyOp15
 70
     1
102
RTVSPropertyOp16
 70
     1
102
RTVSPropertyOp17
 70
     1
102
RTVSPropertyOp18
 70
     1
102
RTVSPropertyOp19
 70
     1
102
RTVSPropertyOp20
 70
     1
102
RTVSPropertyOp21
 70
     1
102
RTVSPropertyOp22
 70
     1
102
RTVSPropertyOp23
 70
     1
102
RTVSPropertyOp24
 70
     1
102
RTVSPropertyOp25
 70
     1
102
RTVSPropertyOp26
 70
     1
102
RTVSPropertyOp27
 70
     1
102
RTVSPropertyOp28
 70
     1
102
RTVSPropertyOp29
 70
     1
102
RTVSPropertyOp30
 70
     1
102
RTVSPropertyOp31
 70
     1
102
RTVSPropertyOp32
 70
     1
102
RTVSPropertyOp33
 70
     1
102
RTVSPropertyOp34
 70
     1
102
RTVSPropertyOp35
 70
     1
102
RTVSPropertyOp36
 70
     1
102
RTVSPropertyOp37
 70
     1
102
RTVSPropertyOp38
 70
     1
102
RTVSPropertyOp39
 70
     1
102
RTVSPropertyOp40
 70
     1
102
RTVSPropertyOp41
 70
     1
102
RTVSPropertyOp42
 70
     1
102
RTVSPropertyOp43
 70
     1
102
RTVSPropertyOp44
 70
     1
102
RTVSPropertyOp45
 70
     1
102
RTVSPropertyOp46
 70
     1
102
RTVSPropertyOp47
 70
     1
102
RTVSPropertyOp48
 70
     1
102
RTVSPropertyOp49
 70
     1
102
RTVSPropertyOp50
 70
     1
102
RTVSPropertyOp51
 70
     0
102
RTVSPropertyOp52
 70
     0
102
RTVSPropertyOp53
 70
     1
102
RTVSPropertyOp54
 70
     1
102
RTVSPropertyOp55
 70
     1
102
RTVSPropertyOp56
 70
     1
102
RTVSPropertyOp57
 70
     1
102
RTVSPropertyOp58
 70
     1
102
RTVSPropertyOp59
 70
     1
102
RTVSPropertyOp60
 70
     1
102
RTVSPropertyOp61
 70
     1
102
RTVSPropertyOp62
 70
     1
  0
XRECORD
  5
365
102
{ACAD_REACTORS
330
364
102
}
330
364
100
AcDbXrecord
280
     1
102
RTVSPost2010Prop28
280
     0
102
RTVSPost2010PropOp28
 70
     1
102
RTVSPost2010Prop29
280
     1
102
RTVSPost2010PropOp29
 70
     1
102
RTVSPost2010Prop30
280
     1
102
RTVSPost2010PropOp30
 70
     1
102
RTVSPost2010Prop31
280
     0
102
RTVSPost2010PropOp31
 70
     1
102
RTVSPost2010Prop32
280
     0
102
RTVSPost2010PropOp32
 70
     1
102
RTVSPost2010Prop33
280
     0
102
RTVSPost2010PropOp33
 70
     1
102
RTVSPost2010Prop34
280
     0
102
RTVSPost2010PropOp34
 70
     1
102
RTVSPost2010Prop35
280
     0
102
RTVSPost2010PropOp35
 70
     1
102
RTVSPost2010Prop36
280
     0
102
RTVSPost2010PropOp36
 70
     1
102
RTVSPost2010Prop37
 90
       50
102
RTVSPost2010PropOp37
 70
     1
102
RTVSPost2010Prop38
140
0.0
102
RTVSPost2010PropOp38
 70
     1
102
RTVSPost2010Prop39
140
1.0
102
RTVSPost2010PropOp39
 70
     1
102
RTVSPost2010Prop40
 90
        0
102
RTVSPost2010PropOp40
 70
     1
102
RTVSPost2010Prop41ColorIndex
 90
       18
102
RTVSPost2010Prop41ColorRGB
 90
        0
102
RTVSPost2010PropOp41
 70
     1
102
RTVSPost2010Prop42
 90
       50
102
RTVSPost2010PropOp42
 70
     1
102
RTVSPost2010Prop43
 90
        3
102
RTVSPost2010PropOp43
 70
     1
102
RTVSPost2010Prop44ColorIndex
 90
        5
102
RTVSPost2010Prop44ColorRGB
 90
      255
102
RTVSPost2010PropOp44
 70
     1
102
RTVSPost2010Prop45
280
     0
102
RTVSPost2010PropOp45
 70
     1
102
RTVSPost2010Prop46
 90
       50
102
RTVSPost2010PropOp46
 70
     1
102
RTVSPost2010Prop47
 90
       50
102
RTVSPost2010PropOp47
 70
     1
102
RTVSPost2010Prop48
 90
       50
102
RTVSPost2010PropOp48
 70
     1
102
RTVSPost2010Prop49
280
     0
102
RTVSPost2010PropOp49
 70
     1
102
RTVSPost2010Prop50
 90
       50
102
RTVSPost2010PropOp50
 70
     1
102
RTVSPost2010Prop51ColorIndex
 90
      256
102
RTVSPost2010Prop51ColorRGB
 90
-16777216
102
RTVSPost2010PropOp51
 70
     0
102
RTVSPost2010Prop52
140
1.0
102
RTVSPost2010PropOp52
 70
     0
102
RTVSPost2010Prop53
 90
        2
102
RTVSPost2010PropOp53
 70
     1
102
RTVSPost2010Prop54
  1
strokes_ogs.tif
102
RTVSPost2010PropOp54
 70
     1
102
RTVSPost2010Prop55
280
     0
102
RTVSPost2010PropOp55
 70
     1
102
RTVSPost2010Prop56
140
1.0
102
RTVSPost2010PropOp56
 70
     1
102
RTVSPost2010Prop57
140
1.0
102
RTVSPost2010PropOp57
 70
     1
102
RTVSPropertyOp0
 70
     1
102
RTVSPropertyOp1
 70
     1
102
RTVSPropertyOp2
 70
     1
102
RTVSPropertyOp3
 70
     1
102
RTVSPropertyOp4
 70
     1
102
RTVSPropertyOp5
 70
     1
102
RTVSPropertyOp6
 70
     1
102
RTVSPropertyOp7
 70
     1
102
RTVSPropertyOp8
 70
     1
102
RTVSPropertyOp9
 70
     1
102
RTVSPropertyOp10
 70
     1
102
RTVSPropertyOp11
 70
     1
102
RTVSPropertyOp12
 70
     1
102
RTVSPropertyOp13
 70
     1
102
RTVSPropertyOp14
 70
     1
102
RTVSPropertyOp15
 70
     1
102
RTVSPropertyOp16
 70
     1
102
RTVSPropertyOp17
 70
     1
102
RTVSPropertyOp18
 70
     1
102
RTVSPropertyOp19
 70
     1
102
RTVSPropertyOp20
 70
     1
102
RTVSPropertyOp21
 70
     1
102
RTVSPropertyOp22
 70
     1
102
RTVSPropertyOp23
 70
     1
102
RTVSPropertyOp24
 70
     1
102
RTVSPropertyOp25
 70
     1
102
RTVSPropertyOp26
 70
     1
102
RTVSPropertyOp27
 70
     1
102
RTVSPropertyOp28
 70
     1
102
RTVSPropertyOp29
 70
     1
102
RTVSPropertyOp30
 70
     1
102
RTVSPropertyOp31
 70
     1
102
RTVSPropertyOp32
 70
     1
102
RTVSPropertyOp33
 70
     1
102
RTVSPropertyOp34
 70
     1
102
RTVSPropertyOp35
 70
     1
102
RTVSPropertyOp36
 70
     1
102
RTVSPropertyOp37
 70
     1
102
RTVSPropertyOp38
 70
     1
102
RTVSPropertyOp39
 70
     1
102
RTVSPropertyOp40
 70
     1
102
RTVSPropertyOp41
 70
     1
102
RTVSPropertyOp42
 70
     1
102
RTVSPropertyOp43
 70
     1
102
RTVSPropertyOp44
 70
     1
102
RTVSPropertyOp45
 70
     1
102
RTVSPropertyOp46
 70
     1
102
RTVSPropertyOp47
 70
     1
102
RTVSPropertyOp48
 70
     1
102
RTVSPropertyOp49
 70
     1
102
RTVSPropertyOp50
 70
     1
102
RTVSPropertyOp51
 70
     0
102
RTVSPropertyOp52
 70
     0
102
RTVSPropertyOp53
 70
     1
102
RTVSPropertyOp54
 70
     1
102
RTVSPropertyOp55
 70
     1
102
RTVSPropertyOp56
 70
     1
102
RTVSPropertyOp57
 70
     1
102
RTVSPropertyOp58
 70
     1
102
RTVSPropertyOp59
 70
     1
102
RTVSPropertyOp60
 70
     1
102
RTVSPropertyOp61
 70
     1
102
RTVSPropertyOp62
 70
     1
  0
XRECORD
  5
367
102
{ACAD_REACTORS
330
366
102
}
330
366
100
AcDbXrecord
280
     1
102
RTVSPost2010Prop28
280
     0
102
RTVSPost2010PropOp28
 70
     1
102
RTVSPost2010Prop29
280
     1
102
RTVSPost2010PropOp29
 70
     1
102
RTVSPost2010Prop30
280
     1
102
RTVSPost2010PropOp30
 70
     1
102
RTVSPost2010Prop31
280
     0
102
RTVSPost2010PropOp31
 70
     1
102
RTVSPost2010Prop32
280
     0
102
RTVSPost2010PropOp32
 70
     1
102
RTVSPost2010Prop33
280
     0
102
RTVSPost2010PropOp33
 70
     1
102
RTVSPost2010Prop34
280
     0
102
RTVSPost2010PropOp34
 70
     1
102
RTVSPost2010Prop35
280
     0
102
RTVSPost2010PropOp35
 70
     1
102
RTVSPost2010Prop36
280
     0
102
RTVSPost2010PropOp36
 70
     1
102
RTVSPost2010Prop37
 90
       50
102
RTVSPost2010PropOp37
 70
     1
102
RTVSPost2010Prop38
140
0.0
102
RTVSPost2010PropOp38
 70
     1
102
RTVSPost2010Prop39
140
1.0
102
RTVSPost2010PropOp39
 70
     1
102
RTVSPost2010Prop40
 90
        0
102
RTVSPost2010PropOp40
 70
     1
102
RTVSPost2010Prop41ColorIndex
 90
       18
102
RTVSPost2010Prop41ColorRGB
 90
        0
102
RTVSPost2010PropOp41
 70
     1
102
RTVSPost2010Prop42
 90
       50
102
RTVSPost2010PropOp42
 70
     1
102
RTVSPost2010Prop43
 90
        3
102
RTVSPost2010PropOp43
 70
     1
102
RTVSPost2010Prop44ColorIndex
 90
        5
102
RTVSPost2010Prop44ColorRGB
 90
      255
102
RTVSPost2010PropOp44
 70
     1
102
RTVSPost2010Prop45
280
     0
102
RTVSPost2010PropOp45
 70
     1
102
RTVSPost2010Prop46
 90
       50
102
RTVSPost2010PropOp46
 70
     1
102
RTVSPost2010Prop47
 90
       50
102
RTVSPost2010PropOp47
 70
     1
102
RTVSPost2010Prop48
 90
       50
102
RTVSPost2010PropOp48
 70
     1
102
RTVSPost2010Prop49
280
     0
102
RTVSPost2010PropOp49
 70
     1
102
RTVSPost2010Prop50
 90
       50
102
RTVSPost2010PropOp50
 70
     1
102
RTVSPost2010Prop51ColorIndex
 90
      256
102
RTVSPost2010Prop51ColorRGB
 90
-16777216
102
RTVSPost2010PropOp51
 70
     0
102
RTVSPost2010Prop52
140
1.0
102
RTVSPost2010PropOp52
 70
     0
102
RTVSPost2010Prop53
 90
        2
102
RTVSPost2010PropOp53
 70
     1
102
RTVSPost2010Prop54
  1
strokes_ogs.tif
102
RTVSPost2010PropOp54
 70
     1
102
RTVSPost2010Prop55
280
     0
102
RTVSPost2010PropOp55
 70
     1
102
RTVSPost2010Prop56
140
1.0
102
RTVSPost2010PropOp56
 70
     1
102
RTVSPost2010Prop57
140
1.0
102
RTVSPost2010PropOp57
 70
     1
102
RTVSPropertyOp0
 70
     1
102
RTVSPropertyOp1
 70
     1
102
RTVSPropertyOp2
 70
     1
102
RTVSPropertyOp3
 70
     1
102
RTVSPropertyOp4
 70
     1
102
RTVSPropertyOp5
 70
     1
102
RTVSPropertyOp6
 70
     1
102
RTVSPropertyOp7
 70
     1
102
RTVSPropertyOp8
 70
     1
102
RTVSPropertyOp9
 70
     1
102
RTVSPropertyOp10
 70
     1
102
RTVSPropertyOp11
 70
     1
102
RTVSPropertyOp12
 70
     1
102
RTVSPropertyOp13
 70
     1
102
RTVSPropertyOp14
 70
     1
102
RTVSPropertyOp15
 70
     1
102
RTVSPropertyOp16
 70
     1
102
RTVSPropertyOp17
 70
     1
102
RTVSPropertyOp18
 70
     1
102
RTVSPropertyOp19
 70
     1
102
RTVSPropertyOp20
 70
     1
102
RTVSPropertyOp21
 70
     1
102
RTVSPropertyOp22
 70
     1
102
RTVSPropertyOp23
 70
     1
102
RTVSPropertyOp24
 70
     1
102
RTVSPropertyOp25
 70
     1
102
RTVSPropertyOp26
 70
     1
102
RTVSPropertyOp27
 70
     1
102
RTVSPropertyOp28
 70
     1
102
RTVSPropertyOp29
 70
     1
102
RTVSPropertyOp30
 70
     1
102
RTVSPropertyOp31
 70
     1
102
RTVSPropertyOp32
 70
     1
102
RTVSPropertyOp33
 70
     1
102
RTVSPropertyOp34
 70
     1
102
RTVSPropertyOp35
 70
     1
102
RTVSPropertyOp36
 70
     1
102
RTVSPropertyOp37
 70
     1
102
RTVSPropertyOp38
 70
     1
102
RTVSPropertyOp39
 70
     1
102
RTVSPropertyOp40
 70
     1
102
RTVSPropertyOp41
 70
     1
102
RTVSPropertyOp42
 70
     1
102
RTVSPropertyOp43
 70
     1
102
RTVSPropertyOp44
 70
     1
102
RTVSPropertyOp45
 70
     1
102
RTVSPropertyOp46
 70
     1
102
RTVSPropertyOp47
 70
     1
102
RTVSPropertyOp48
 70
     1
102
RTVSPropertyOp49
 70
     1
102
RTVSPropertyOp50
 70
     1
102
RTVSPropertyOp51
 70
     0
102
RTVSPropertyOp52
 70
     0
102
RTVSPropertyOp53
 70
     1
102
RTVSPropertyOp54
 70
     1
102
RTVSPropertyOp55
 70
     1
102
RTVSPropertyOp56
 70
     1
102
RTVSPropertyOp57
 70
     1
102
RTVSPropertyOp58
 70
     1
102
RTVSPropertyOp59
 70
     1
102
RTVSPropertyOp60
 70
     1
102
RTVSPropertyOp61
 70
     1
102
RTVSPropertyOp62
 70
     1
  0
XRECORD
  5
369
102
{ACAD_REACTORS
330
368
102
}
330
368
100
AcDbXrecord
280
     1
102
RTVSPost2010Prop28
280
     0
102
RTVSPost2010PropOp28
 70
     1
102
RTVSPost2010Prop29
280
     1
102
RTVSPost2010PropOp29
 70
     1
102
RTVSPost2010Prop30
280
     1
102
RTVSPost2010PropOp30
 70
     1
102
RTVSPost2010Prop31
280
     0
102
RTVSPost2010PropOp31
 70
     1
102
RTVSPost2010Prop32
280
     0
102
RTVSPost2010PropOp32
 70
     1
102
RTVSPost2010Prop33
280
     0
102
RTVSPost2010PropOp33
 70
     1
102
RTVSPost2010Prop34
280
     0
102
RTVSPost2010PropOp34
 70
     1
102
RTVSPost2010Prop35
280
     0
102
RTVSPost2010PropOp35
 70
     1
102
RTVSPost2010Prop36
280
     0
102
RTVSPost2010PropOp36
 70
     1
102
RTVSPost2010Prop37
 90
       50
102
RTVSPost2010PropOp37
 70
     1
102
RTVSPost2010Prop38
140
0.0
102
RTVSPost2010PropOp38
 70
     1
102
RTVSPost2010Prop39
140
1.0
102
RTVSPost2010PropOp39
 70
     1
102
RTVSPost2010Prop40
 90
        0
102
RTVSPost2010PropOp40
 70
     1
102
RTVSPost2010Prop41ColorIndex
 90
       18
102
RTVSPost2010Prop41ColorRGB
 90
        0
102
RTVSPost2010PropOp41
 70
     1
102
RTVSPost2010Prop42
 90
       50
102
RTVSPost2010PropOp42
 70
     1
102
RTVSPost2010Prop43
 90
        3
102
RTVSPost2010PropOp43
 70
     1
102
RTVSPost2010Prop44ColorIndex
 90
        5
102
RTVSPost2010Prop44ColorRGB
 90
      255
102
RTVSPost2010PropOp44
 70
     1
102
RTVSPost2010Prop45
280
     0
102
RTVSPost2010PropOp45
 70
     1
102
RTVSPost2010Prop46
 90
       50
102
RTVSPost2010PropOp46
 70
     1
102
RTVSPost2010Prop47
 90
       50
102
RTVSPost2010PropOp47
 70
     1
102
RTVSPost2010Prop48
 90
       50
102
RTVSPost2010PropOp48
 70
     1
102
RTVSPost2010Prop49
280
     0
102
RTVSPost2010PropOp49
 70
     1
102
RTVSPost2010Prop50
 90
       50
102
RTVSPost2010PropOp50
 70
     1
102
RTVSPost2010Prop51ColorIndex
 90
      256
102
RTVSPost2010Prop51ColorRGB
 90
-16777216
102
RTVSPost2010PropOp51
 70
     0
102
RTVSPost2010Prop52
140
1.0
102
RTVSPost2010PropOp52
 70
     0
102
RTVSPost2010Prop53
 90
        2
102
RTVSPost2010PropOp53
 70
     1
102
RTVSPost2010Prop54
  1
strokes_ogs.tif
102
RTVSPost2010PropOp54
 70
     1
102
RTVSPost2010Prop55
280
     0
102
RTVSPost2010PropOp55
 70
     1
102
RTVSPost2010Prop56
140
1.0
102
RTVSPost2010PropOp56
 70
     1
102
RTVSPost2010Prop57
140
1.0
102
RTVSPost2010PropOp57
 70
     1
102
RTVSPropertyOp0
 70
     1
102
RTVSPropertyOp1
 70
     1
102
RTVSPropertyOp2
 70
     1
102
RTVSPropertyOp3
 70
     1
102
RTVSPropertyOp4
 70
     1
102
RTVSPropertyOp5
 70
     1
102
RTVSPropertyOp6
 70
     1
102
RTVSPropertyOp7
 70
     1
102
RTVSPropertyOp8
 70
     1
102
RTVSPropertyOp9
 70
     1
102
RTVSPropertyOp10
 70
     1
102
RTVSPropertyOp11
 70
     1
102
RTVSPropertyOp12
 70
     1
102
RTVSPropertyOp13
 70
     1
102
RTVSPropertyOp14
 70
     1
102
RTVSPropertyOp15
 70
     1
102
RTVSPropertyOp16
 70
     1
102
RTVSPropertyOp17
 70
     1
102
RTVSPropertyOp18
 70
     1
102
RTVSPropertyOp19
 70
     1
102
RTVSPropertyOp20
 70
     1
102
RTVSPropertyOp21
 70
     1
102
RTVSPropertyOp22
 70
     1
102
RTVSPropertyOp23
 70
     1
102
RTVSPropertyOp24
 70
     1
102
RTVSPropertyOp25
 70
     1
102
RTVSPropertyOp26
 70
     1
102
RTVSPropertyOp27
 70
     1
102
RTVSPropertyOp28
 70
     1
102
RTVSPropertyOp29
 70
     1
102
RTVSPropertyOp30
 70
     1
102
RTVSPropertyOp31
 70
     1
102
RTVSPropertyOp32
 70
     1
102
RTVSPropertyOp33
 70
     1
102
RTVSPropertyOp34
 70
     1
102
RTVSPropertyOp35
 70
     1
102
RTVSPropertyOp36
 70
     1
102
RTVSPropertyOp37
 70
     1
102
RTVSPropertyOp38
 70
     1
102
RTVSPropertyOp39
 70
     1
102
RTVSPropertyOp40
 70
     1
102
RTVSPropertyOp41
 70
     1
102
RTVSPropertyOp42
 70
     1
102
RTVSPropertyOp43
 70
     1
102
RTVSPropertyOp44
 70
     1
102
RTVSPropertyOp45
 70
     1
102
RTVSPropertyOp46
 70
     1
102
RTVSPropertyOp47
 70
     1
102
RTVSPropertyOp48
 70
     1
102
RTVSPropertyOp49
 70
     1
102
RTVSPropertyOp50
 70
     1
102
RTVSPropertyOp51
 70
     0
102
RTVSPropertyOp52
 70
     0
102
RTVSPropertyOp53
 70
     1
102
RTVSPropertyOp54
 70
     1
102
RTVSPropertyOp55
 70
     1
102
RTVSPropertyOp56
 70
     1
102
RTVSPropertyOp57
 70
     1
102
RTVSPropertyOp58
 70
     1
102
RTVSPropertyOp59
 70
     1
102
RTVSPropertyOp60
 70
     1
102
RTVSPropertyOp61
 70
     1
102
RTVSPropertyOp62
 70
     1
  0
XRECORD
  5
36F
102
{ACAD_REACTORS
330
36E
102
}
330
36E
100
AcDbXrecord
280
     1
102
RTVSPost2010Prop28
280
     0
102
RTVSPost2010PropOp28
 70
     1
102
RTVSPost2010Prop29
280
     1
102
RTVSPost2010PropOp29
 70
     1
102
RTVSPost2010Prop30
280
     1
102
RTVSPost2010PropOp30
 70
     1
102
RTVSPost2010Prop31
280
     0
102
RTVSPost2010PropOp31
 70
     1
102
RTVSPost2010Prop32
280
     0
102
RTVSPost2010PropOp32
 70
     1
102
RTVSPost2010Prop33
280
     0
102
RTVSPost2010PropOp33
 70
     1
102
RTVSPost2010Prop34
280
     0
102
RTVSPost2010PropOp34
 70
     1
102
RTVSPost2010Prop35
280
     0
102
RTVSPost2010PropOp35
 70
     1
102
RTVSPost2010Prop36
280
     0
102
RTVSPost2010PropOp36
 70
     1
102
RTVSPost2010Prop37
 90
       50
102
RTVSPost2010PropOp37
 70
     1
102
RTVSPost2010Prop38
140
0.0
102
RTVSPost2010PropOp38
 70
     1
102
RTVSPost2010Prop39
140
1.0
102
RTVSPost2010PropOp39
 70
     1
102
RTVSPost2010Prop40
 90
        0
102
RTVSPost2010PropOp40
 70
     1
102
RTVSPost2010Prop41ColorIndex
 90
       18
102
RTVSPost2010Prop41ColorRGB
 90
        0
102
RTVSPost2010PropOp41
 70
     1
102
RTVSPost2010Prop42
 90
       50
102
RTVSPost2010PropOp42
 70
     1
102
RTVSPost2010Prop43
 90
        3
102
RTVSPost2010PropOp43
 70
     1
102
RTVSPost2010Prop44ColorIndex
 90
        5
102
RTVSPost2010Prop44ColorRGB
 90
      255
102
RTVSPost2010PropOp44
 70
     1
102
RTVSPost2010Prop45
280
     0
102
RTVSPost2010PropOp45
 70
     1
102
RTVSPost2010Prop46
 90
       50
102
RTVSPost2010PropOp46
 70
     1
102
RTVSPost2010Prop47
 90
       50
102
RTVSPost2010PropOp47
 70
     1
102
RTVSPost2010Prop48
 90
       50
102
RTVSPost2010PropOp48
 70
     1
102
RTVSPost2010Prop49
280
     0
102
RTVSPost2010PropOp49
 70
     1
102
RTVSPost2010Prop50
 90
       50
102
RTVSPost2010PropOp50
 70
     1
102
RTVSPost2010Prop51ColorIndex
 90
      256
102
RTVSPost2010Prop51ColorRGB
 90
-16777216
102
RTVSPost2010PropOp51
 70
     0
102
RTVSPost2010Prop52
140
1.0
102
RTVSPost2010PropOp52
 70
     0
102
RTVSPost2010Prop53
 90
        2
102
RTVSPost2010PropOp53
 70
     1
102
RTVSPost2010Prop54
  1
strokes_ogs.tif
102
RTVSPost2010PropOp54
 70
     1
102
RTVSPost2010Prop55
280
     0
102
RTVSPost2010PropOp55
 70
     1
102
RTVSPost2010Prop56
140
1.0
102
RTVSPost2010PropOp56
 70
     1
102
RTVSPost2010Prop57
140
1.0
102
RTVSPost2010PropOp57
 70
     1
102
RTVSPropertyOp0
 70
     1
102
RTVSPropertyOp1
 70
     1
102
RTVSPropertyOp2
 70
     1
102
RTVSPropertyOp3
 70
     1
102
RTVSPropertyOp4
 70
     1
102
RTVSPropertyOp5
 70
     1
102
RTVSPropertyOp6
 70
     1
102
RTVSPropertyOp7
 70
     1
102
RTVSPropertyOp8
 70
     1
102
RTVSPropertyOp9
 70
     1
102
RTVSPropertyOp10
 70
     1
102
RTVSPropertyOp11
 70
     1
102
RTVSPropertyOp12
 70
     1
102
RTVSPropertyOp13
 70
     1
102
RTVSPropertyOp14
 70
     1
102
RTVSPropertyOp15
 70
     1
102
RTVSPropertyOp16
 70
     1
102
RTVSPropertyOp17
 70
     1
102
RTVSPropertyOp18
 70
     1
102
RTVSPropertyOp19
 70
     1
102
RTVSPropertyOp20
 70
     1
102
RTVSPropertyOp21
 70
     1
102
RTVSPropertyOp22
 70
     1
102
RTVSPropertyOp23
 70
     1
102
RTVSPropertyOp24
 70
     1
102
RTVSPropertyOp25
 70
     1
102
RTVSPropertyOp26
 70
     1
102
RTVSPropertyOp27
 70
     1
102
RTVSPropertyOp28
 70
     1
102
RTVSPropertyOp29
 70
     1
102
RTVSPropertyOp30
 70
     1
102
RTVSPropertyOp31
 70
     1
102
RTVSPropertyOp32
 70
     1
102
RTVSPropertyOp33
 70
     1
102
RTVSPropertyOp34
 70
     1
102
RTVSPropertyOp35
 70
     1
102
RTVSPropertyOp36
 70
     1
102
RTVSPropertyOp37
 70
     1
102
RTVSPropertyOp38
 70
     1
102
RTVSPropertyOp39
 70
     1
102
RTVSPropertyOp40
 70
     1
102
RTVSPropertyOp41
 70
     1
102
RTVSPropertyOp42
 70
     1
102
RTVSPropertyOp43
 70
     1
102
RTVSPropertyOp44
 70
     1
102
RTVSPropertyOp45
 70
     1
102
RTVSPropertyOp46
 70
     1
102
RTVSPropertyOp47
 70
     1
102
RTVSPropertyOp48
 70
     1
102
RTVSPropertyOp49
 70
     1
102
RTVSPropertyOp50
 70
     1
102
RTVSPropertyOp51
 70
     0
102
RTVSPropertyOp52
 70
     0
102
RTVSPropertyOp53
 70
     1
102
RTVSPropertyOp54
 70
     1
102
RTVSPropertyOp55
 70
     1
102
RTVSPropertyOp56
 70
     1
102
RTVSPropertyOp57
 70
     1
102
RTVSPropertyOp58
 70
     1
102
RTVSPropertyOp59
 70
     1
102
RTVSPropertyOp60
 70
     1
102
RTVSPropertyOp61
 70
     1
102
RTVSPropertyOp62
 70
     1
  0
XRECORD
  5
383
102
{ACAD_REACTORS
330
382
102
}
330
382
100
AcDbXrecord
280
     1
102
RTVSPost2010Prop28
280
     0
102
RTVSPost2010PropOp28
 70
     0
102
RTVSPost2010Prop29
280
     1
102
RTVSPost2010PropOp29
 70
     0
102
RTVSPost2010Prop30
280
     1
102
RTVSPost2010PropOp30
 70
     0
102
RTVSPost2010Prop31
280
     0
102
RTVSPost2010PropOp31
 70
     0
102
RTVSPost2010Prop32
280
     0
102
RTVSPost2010PropOp32
 70
     0
102
RTVSPost2010Prop33
280
     0
102
RTVSPost2010PropOp33
 70
     0
102
RTVSPost2010Prop34
280
     0
102
RTVSPost2010PropOp34
 70
     0
102
RTVSPost2010Prop35
280
     0
102
RTVSPost2010PropOp35
 70
     0
102
RTVSPost2010Prop36
280
     0
102
RTVSPost2010PropOp36
 70
     0
102
RTVSPost2010Prop37
 90
       50
102
RTVSPost2010PropOp37
 70
     0
102
RTVSPost2010Prop38
140
0.0
102
RTVSPost2010PropOp38
 70
     0
102
RTVSPost2010Prop39
140
1.0
102
RTVSPost2010PropOp39
 70
     0
102
RTVSPost2010Prop40
 90
        0
102
RTVSPost2010PropOp40
 70
     0
102
RTVSPost2010Prop41ColorIndex
 90
       18
102
RTVSPost2010Prop41ColorRGB
 90
        0
102
RTVSPost2010PropOp41
 70
     0
102
RTVSPost2010Prop42
 90
       50
102
RTVSPost2010PropOp42
 70
     0
102
RTVSPost2010Prop43
 90
        3
102
RTVSPost2010PropOp43
 70
     0
102
RTVSPost2010Prop44ColorIndex
 90
        5
102
RTVSPost2010Prop44ColorRGB
 90
      255
102
RTVSPost2010PropOp44
 70
     0
102
RTVSPost2010Prop45
280
     0
102
RTVSPost2010PropOp45
 70
     0
102
RTVSPost2010Prop46
 90
       50
102
RTVSPost2010PropOp46
 70
     0
102
RTVSPost2010Prop47
 90
       50
102
RTVSPost2010PropOp47
 70
     0
102
RTVSPost2010Prop48
 90
       50
102
RTVSPost2010PropOp48
 70
     0
102
RTVSPost2010Prop49
280
     0
102
RTVSPost2010PropOp49
 70
     0
102
RTVSPost2010Prop50
 90
       50
102
RTVSPost2010PropOp50
 70
     0
102
RTVSPost2010Prop51ColorIndex
 90
      256
102
RTVSPost2010Prop51ColorRGB
 90
-16777216
102
RTVSPost2010PropOp51
 70
     0
102
RTVSPost2010Prop52
140
1.0
102
RTVSPost2010PropOp52
 70
     0
102
RTVSPost2010Prop53
 90
        2
102
RTVSPost2010PropOp53
 70
     0
102
RTVSPost2010Prop54
  1
strokes_ogs.tif
102
RTVSPost2010PropOp54
 70
     0
102
RTVSPost2010Prop55
280
     0
102
RTVSPost2010PropOp55
 70
     0
102
RTVSPost2010Prop56
140
1.0
102
RTVSPost2010PropOp56
 70
     0
102
RTVSPost2010Prop57
140
1.0
102
RTVSPost2010PropOp57
 70
     0
102
RTVSPropertyOp0
 70
     0
102
RTVSPropertyOp1
 70
     0
102
RTVSPropertyOp2
 70
     0
102
RTVSPropertyOp3
 70
     0
102
RTVSPropertyOp4
 70
     0
102
RTVSPropertyOp5
 70
     0
102
RTVSPropertyOp6
 70
     0
102
RTVSPropertyOp7
 70
     0
102
RTVSPropertyOp8
 70
     0
102
RTVSPropertyOp9
 70
     0
102
RTVSPropertyOp10
 70
     0
102
RTVSPropertyOp11
 70
     0
102
RTVSPropertyOp12
 70
     0
102
RTVSPropertyOp13
 70
     0
102
RTVSPropertyOp14
 70
     2
102
RTVSPropertyOp15
 70
     0
102
RTVSPropertyOp16
 70
     0
102
RTVSPropertyOp17
 70
     0
102
RTVSPropertyOp18
 70
     0
102
RTVSPropertyOp19
 70
     0
102
RTVSPropertyOp20
 70
     0
102
RTVSPropertyOp21
 70
     0
102
RTVSPropertyOp22
 70
     0
102
RTVSPropertyOp23
 70
     0
102
RTVSPropertyOp24
 70
     0
102
RTVSPropertyOp25
 70
     0
102
RTVSPropertyOp26
 70
     0
102
RTVSPropertyOp27
 70
     0
102
RTVSPropertyOp28
 70
     0
102
RTVSPropertyOp29
 70
     0
102
RTVSPropertyOp30
 70
     0
102
RTVSPropertyOp31
 70
     0
102
RTVSPropertyOp32
 70
     0
102
RTVSPropertyOp33
 70
     0
102
RTVSPropertyOp34
 70
     0
102
RTVSPropertyOp35
 70
     0
102
RTVSPropertyOp36
 70
     0
102
RTVSPropertyOp37
 70
     0
102
RTVSPropertyOp38
 70
     0
102
RTVSPropertyOp39
 70
     0
102
RTVSPropertyOp40
 70
     0
102
RTVSPropertyOp41
 70
     0
102
RTVSPropertyOp42
 70
     0
102
RTVSPropertyOp43
 70
     0
102
RTVSPropertyOp44
 70
     0
102
RTVSPropertyOp45
 70
     0
102
RTVSPropertyOp46
 70
     0
102
RTVSPropertyOp47
 70
     0
102
RTVSPropertyOp48
 70
     0
102
RTVSPropertyOp49
 70
     0
102
RTVSPropertyOp50
 70
     0
102
RTVSPropertyOp51
 70
     0
102
RTVSPropertyOp52
 70
     0
102
RTVSPropertyOp53
 70
     0
102
RTVSPropertyOp54
 70
     0
102
RTVSPropertyOp55
 70
     0
102
RTVSPropertyOp56
 70
     0
102
RTVSPropertyOp57
 70
     0
102
RTVSPropertyOp58
 70
     1
102
RTVSPropertyOp59
 70
     1
102
RTVSPropertyOp60
 70
     1
102
RTVSPropertyOp61
 70
     1
102
RTVSPropertyOp62
 70
     1
  0
XRECORD
  5
37D
102
{ACAD_REACTORS
330
37C
102
}
330
37C
100
AcDbXrecord
280
     1
102
RTVSPost2010Prop28
280
     0
102
RTVSPost2010PropOp28
 70
     1
102
RTVSPost2010Prop29
280
     1
102
RTVSPost2010PropOp29
 70
     1
102
RTVSPost2010Prop30
280
     1
102
RTVSPost2010PropOp30
 70
     1
102
RTVSPost2010Prop31
280
     0
102
RTVSPost2010PropOp31
 70
     1
102
RTVSPost2010Prop32
280
     0
102
RTVSPost2010PropOp32
 70
     1
102
RTVSPost2010Prop33
280
     0
102
RTVSPost2010PropOp33
 70
     1
102
RTVSPost2010Prop34
280
     0
102
RTVSPost2010PropOp34
 70
     1
102
RTVSPost2010Prop35
280
     0
102
RTVSPost2010PropOp35
 70
     1
102
RTVSPost2010Prop36
280
     0
102
RTVSPost2010PropOp36
 70
     1
102
RTVSPost2010Prop37
 90
       50
102
RTVSPost2010PropOp37
 70
     1
102
RTVSPost2010Prop38
140
0.0
102
RTVSPost2010PropOp38
 70
     1
102
RTVSPost2010Prop39
140
1.0
102
RTVSPost2010PropOp39
 70
     1
102
RTVSPost2010Prop40
 90
        0
102
RTVSPost2010PropOp40
 70
     1
102
RTVSPost2010Prop41ColorIndex
 90
       18
102
RTVSPost2010Prop41ColorRGB
 90
        0
102
RTVSPost2010PropOp41
 70
     1
102
RTVSPost2010Prop42
 90
       50
102
RTVSPost2010PropOp42
 70
     1
102
RTVSPost2010Prop43
 90
        3
102
RTVSPost2010PropOp43
 70
     1
102
RTVSPost2010Prop44ColorIndex
 90
        5
102
RTVSPost2010Prop44ColorRGB
 90
      255
102
RTVSPost2010PropOp44
 70
     1
102
RTVSPost2010Prop45
280
     0
102
RTVSPost2010PropOp45
 70
     1
102
RTVSPost2010Prop46
 90
       50
102
RTVSPost2010PropOp46
 70
     1
102
RTVSPost2010Prop47
 90
       50
102
RTVSPost2010PropOp47
 70
     1
102
RTVSPost2010Prop48
 90
       50
102
RTVSPost2010PropOp48
 70
     1
102
RTVSPost2010Prop49
280
     0
102
RTVSPost2010PropOp49
 70
     1
102
RTVSPost2010Prop50
 90
       50
102
RTVSPost2010PropOp50
 70
     1
102
RTVSPost2010Prop51ColorIndex
 90
      256
102
RTVSPost2010Prop51ColorRGB
 90
-16777216
102
RTVSPost2010PropOp51
 70
     0
102
RTVSPost2010Prop52
140
1.0
102
RTVSPost2010PropOp52
 70
     0
102
RTVSPost2010Prop53
 90
        2
102
RTVSPost2010PropOp53
 70
     1
102
RTVSPost2010Prop54
  1
strokes_ogs.tif
102
RTVSPost2010PropOp54
 70
     1
102
RTVSPost2010Prop55
280
     0
102
RTVSPost2010PropOp55
 70
     1
102
RTVSPost2010Prop56
140
1.0
102
RTVSPost2010PropOp56
 70
     1
102
RTVSPost2010Prop57
140
1.0
102
RTVSPost2010PropOp57
 70
     1
102
RTVSPropertyOp0
 70
     1
102
RTVSPropertyOp1
 70
     1
102
RTVSPropertyOp2
 70
     1
102
RTVSPropertyOp3
 70
     1
102
RTVSPropertyOp4
 70
     1
102
RTVSPropertyOp5
 70
     1
102
RTVSPropertyOp6
 70
     1
102
RTVSPropertyOp7
 70
     1
102
RTVSPropertyOp8
 70
     1
102
RTVSPropertyOp9
 70
     1
102
RTVSPropertyOp10
 70
     1
102
RTVSPropertyOp11
 70
     1
102
RTVSPropertyOp12
 70
     1
102
RTVSPropertyOp13
 70
     1
102
RTVSPropertyOp14
 70
     1
102
RTVSPropertyOp15
 70
     1
102
RTVSPropertyOp16
 70
     1
102
RTVSPropertyOp17
 70
     1
102
RTVSPropertyOp18
 70
     1
102
RTVSPropertyOp19
 70
     1
102
RTVSPropertyOp20
 70
     1
102
RTVSPropertyOp21
 70
     1
102
RTVSPropertyOp22
 70
     1
102
RTVSPropertyOp23
 70
     1
102
RTVSPropertyOp24
 70
     1
102
RTVSPropertyOp25
 70
     1
102
RTVSPropertyOp26
 70
     1
102
RTVSPropertyOp27
 70
     1
102
RTVSPropertyOp28
 70
     1
102
RTVSPropertyOp29
 70
     1
102
RTVSPropertyOp30
 70
     1
102
RTVSPropertyOp31
 70
     1
102
RTVSPropertyOp32
 70
     1
102
RTVSPropertyOp33
 70
     1
102
RTVSPropertyOp34
 70
     1
102
RTVSPropertyOp35
 70
     1
102
RTVSPropertyOp36
 70
     1
102
RTVSPropertyOp37
 70
     1
102
RTVSPropertyOp38
 70
     1
102
RTVSPropertyOp39
 70
     1
102
RTVSPropertyOp40
 70
     1
102
RTVSPropertyOp41
 70
     1
102
RTVSPropertyOp42
 70
     1
102
RTVSPropertyOp43
 70
     1
102
RTVSPropertyOp44
 70
     1
102
RTVSPropertyOp45
 70
     1
102
RTVSPropertyOp46
 70
     1
102
RTVSPropertyOp47
 70
     1
102
RTVSPropertyOp48
 70
     1
102
RTVSPropertyOp49
 70
     1
102
RTVSPropertyOp50
 70
     1
102
RTVSPropertyOp51
 70
     0
102
RTVSPropertyOp52
 70
     0
102
RTVSPropertyOp53
 70
     1
102
RTVSPropertyOp54
 70
     1
102
RTVSPropertyOp55
 70
     1
102
RTVSPropertyOp56
 70
     1
102
RTVSPropertyOp57
 70
     1
102
RTVSPropertyOp58
 70
     1
102
RTVSPropertyOp59
 70
     1
102
RTVSPropertyOp60
 70
     1
102
RTVSPropertyOp61
 70
     1
102
RTVSPropertyOp62
 70
     1
  0
XRECORD
  5
385
102
{ACAD_REACTORS
330
384
102
}
330
384
100
AcDbXrecord
280
     1
102
RTVSPost2010Prop28
280
     0
102
RTVSPost2010PropOp28
 70
     0
102
RTVSPost2010Prop29
280
     1
102
RTVSPost2010PropOp29
 70
     0
102
RTVSPost2010Prop30
280
     1
102
RTVSPost2010PropOp30
 70
     0
102
RTVSPost2010Prop31
280
     0
102
RTVSPost2010PropOp31
 70
     0
102
RTVSPost2010Prop32
280
     0
102
RTVSPost2010PropOp32
 70
     0
102
RTVSPost2010Prop33
280
     0
102
RTVSPost2010PropOp33
 70
     0
102
RTVSPost2010Prop34
280
     0
102
RTVSPost2010PropOp34
 70
     0
102
RTVSPost2010Prop35
280
     0
102
RTVSPost2010PropOp35
 70
     0
102
RTVSPost2010Prop36
280
     0
102
RTVSPost2010PropOp36
 70
     0
102
RTVSPost2010Prop37
 90
       50
102
RTVSPost2010PropOp37
 70
     0
102
RTVSPost2010Prop38
140
0.0
102
RTVSPost2010PropOp38
 70
     0
102
RTVSPost2010Prop39
140
1.0
102
RTVSPost2010PropOp39
 70
     0
102
RTVSPost2010Prop40
 90
        0
102
RTVSPost2010PropOp40
 70
     0
102
RTVSPost2010Prop41ColorIndex
 90
       18
102
RTVSPost2010Prop41ColorRGB
 90
        0
102
RTVSPost2010PropOp41
 70
     0
102
RTVSPost2010Prop42
 90
       50
102
RTVSPost2010PropOp42
 70
     0
102
RTVSPost2010Prop43
 90
        3
102
RTVSPost2010PropOp43
 70
     0
102
RTVSPost2010Prop44ColorIndex
 90
        5
102
RTVSPost2010Prop44ColorRGB
 90
      255
102
RTVSPost2010PropOp44
 70
     0
102
RTVSPost2010Prop45
280
     0
102
RTVSPost2010PropOp45
 70
     0
102
RTVSPost2010Prop46
 90
       50
102
RTVSPost2010PropOp46
 70
     0
102
RTVSPost2010Prop47
 90
       50
102
RTVSPost2010PropOp47
 70
     0
102
RTVSPost2010Prop48
 90
       50
102
RTVSPost2010PropOp48
 70
     0
102
RTVSPost2010Prop49
280
     0
102
RTVSPost2010PropOp49
 70
     0
102
RTVSPost2010Prop50
 90
       50
102
RTVSPost2010PropOp50
 70
     0
102
RTVSPost2010Prop51ColorIndex
 90
      256
102
RTVSPost2010Prop51ColorRGB
 90
-16777216
102
RTVSPost2010PropOp51
 70
     0
102
RTVSPost2010Prop52
140
1.0
102
RTVSPost2010PropOp52
 70
     0
102
RTVSPost2010Prop53
 90
        2
102
RTVSPost2010PropOp53
 70
     0
102
RTVSPost2010Prop54
  1
strokes_ogs.tif
102
RTVSPost2010PropOp54
 70
     0
102
RTVSPost2010Prop55
280
     0
102
RTVSPost2010PropOp55
 70
     0
102
RTVSPost2010Prop56
140
1.0
102
RTVSPost2010PropOp56
 70
     0
102
RTVSPost2010Prop57
140
1.0
102
RTVSPost2010PropOp57
 70
     0
102
RTVSPropertyOp0
 70
     0
102
RTVSPropertyOp1
 70
     0
102
RTVSPropertyOp2
 70
     0
102
RTVSPropertyOp3
 70
     0
102
RTVSPropertyOp4
 70
     0
102
RTVSPropertyOp5
 70
     0
102
RTVSPropertyOp6
 70
     0
102
RTVSPropertyOp7
 70
     0
102
RTVSPropertyOp8
 70
     0
102
RTVSPropertyOp9
 70
     0
102
RTVSPropertyOp10
 70
     0
102
RTVSPropertyOp11
 70
     0
102
RTVSPropertyOp12
 70
     0
102
RTVSPropertyOp13
 70
     0
102
RTVSPropertyOp14
 70
     2
102
RTVSPropertyOp15
 70
     0
102
RTVSPropertyOp16
 70
     0
102
RTVSPropertyOp17
 70
     0
102
RTVSPropertyOp18
 70
     0
102
RTVSPropertyOp19
 70
     0
102
RTVSPropertyOp20
 70
     0
102
RTVSPropertyOp21
 70
     0
102
RTVSPropertyOp22
 70
     0
102
RTVSPropertyOp23
 70
     0
102
RTVSPropertyOp24
 70
     0
102
RTVSPropertyOp25
 70
     0
102
RTVSPropertyOp26
 70
     0
102
RTVSPropertyOp27
 70
     0
102
RTVSPropertyOp28
 70
     0
102
RTVSPropertyOp29
 70
     0
102
RTVSPropertyOp30
 70
     0
102
RTVSPropertyOp31
 70
     0
102
RTVSPropertyOp32
 70
     0
102
RTVSPropertyOp33
 70
     0
102
RTVSPropertyOp34
 70
     0
102
RTVSPropertyOp35
 70
     0
102
RTVSPropertyOp36
 70
     0
102
RTVSPropertyOp37
 70
     0
102
RTVSPropertyOp38
 70
     0
102
RTVSPropertyOp39
 70
     0
102
RTVSPropertyOp40
 70
     0
102
RTVSPropertyOp41
 70
     0
102
RTVSPropertyOp42
 70
     0
102
RTVSPropertyOp43
 70
     0
102
RTVSPropertyOp44
 70
     0
102
RTVSPropertyOp45
 70
     0
102
RTVSPropertyOp46
 70
     0
102
RTVSPropertyOp47
 70
     0
102
RTVSPropertyOp48
 70
     0
102
RTVSPropertyOp49
 70
     0
102
RTVSPropertyOp50
 70
     0
102
RTVSPropertyOp51
 70
     0
102
RTVSPropertyOp52
 70
     0
102
RTVSPropertyOp53
 70
     0
102
RTVSPropertyOp54
 70
     0
102
RTVSPropertyOp55
 70
     0
102
RTVSPropertyOp56
 70
     0
102
RTVSPropertyOp57
 70
     0
102
RTVSPropertyOp58
 70
     1
102
RTVSPropertyOp59
 70
     1
102
RTVSPropertyOp60
 70
     1
102
RTVSPropertyOp61
 70
     1
102
RTVSPropertyOp62
 70
     1
  0
XRECORD
  5
373
102
{ACAD_REACTORS
330
372
102
}
330
372
100
AcDbXrecord
280
     1
102
RTVSPost2010Prop28
280
     0
102
RTVSPost2010PropOp28
 70
     1
102
RTVSPost2010Prop29
280
     1
102
RTVSPost2010PropOp29
 70
     1
102
RTVSPost2010Prop30
280
     1
102
RTVSPost2010PropOp30
 70
     1
102
RTVSPost2010Prop31
280
     0
102
RTVSPost2010PropOp31
 70
     1
102
RTVSPost2010Prop32
280
     0
102
RTVSPost2010PropOp32
 70
     1
102
RTVSPost2010Prop33
280
     0
102
RTVSPost2010PropOp33
 70
     1
102
RTVSPost2010Prop34
280
     0
102
RTVSPost2010PropOp34
 70
     1
102
RTVSPost2010Prop35
280
     0
102
RTVSPost2010PropOp35
 70
     1
102
RTVSPost2010Prop36
280
     0
102
RTVSPost2010PropOp36
 70
     1
102
RTVSPost2010Prop37
 90
       50
102
RTVSPost2010PropOp37
 70
     1
102
RTVSPost2010Prop38
140
0.0
102
RTVSPost2010PropOp38
 70
     1
102
RTVSPost2010Prop39
140
1.0
102
RTVSPost2010PropOp39
 70
     1
102
RTVSPost2010Prop40
 90
        0
102
RTVSPost2010PropOp40
 70
     1
102
RTVSPost2010Prop41ColorIndex
 90
       18
102
RTVSPost2010Prop41ColorRGB
 90
        0
102
RTVSPost2010PropOp41
 70
     1
102
RTVSPost2010Prop42
 90
       50
102
RTVSPost2010PropOp42
 70
     1
102
RTVSPost2010Prop43
 90
        3
102
RTVSPost2010PropOp43
 70
     1
102
RTVSPost2010Prop44ColorIndex
 90
        5
102
RTVSPost2010Prop44ColorRGB
 90
      255
102
RTVSPost2010PropOp44
 70
     1
102
RTVSPost2010Prop45
280
     0
102
RTVSPost2010PropOp45
 70
     1
102
RTVSPost2010Prop46
 90
       50
102
RTVSPost2010PropOp46
 70
     1
102
RTVSPost2010Prop47
 90
       50
102
RTVSPost2010PropOp47
 70
     1
102
RTVSPost2010Prop48
 90
       50
102
RTVSPost2010PropOp48
 70
     1
102
RTVSPost2010Prop49
280
     0
102
RTVSPost2010PropOp49
 70
     1
102
RTVSPost2010Prop50
 90
       50
102
RTVSPost2010PropOp50
 70
     1
102
RTVSPost2010Prop51ColorIndex
 90
      256
102
RTVSPost2010Prop51ColorRGB
 90
-16777216
102
RTVSPost2010PropOp51
 70
     0
102
RTVSPost2010Prop52
140
1.0
102
RTVSPost2010PropOp52
 70
     0
102
RTVSPost2010Prop53
 90
        2
102
RTVSPost2010PropOp53
 70
     1
102
RTVSPost2010Prop54
  1
strokes_ogs.tif
102
RTVSPost2010PropOp54
 70
     1
102
RTVSPost2010Prop55
280
     0
102
RTVSPost2010PropOp55
 70
     1
102
RTVSPost2010Prop56
140
1.0
102
RTVSPost2010PropOp56
 70
     1
102
RTVSPost2010Prop57
140
1.0
102
RTVSPost2010PropOp57
 70
     1
102
RTVSPropertyOp0
 70
     1
102
RTVSPropertyOp1
 70
     1
102
RTVSPropertyOp2
 70
     1
102
RTVSPropertyOp3
 70
     1
102
RTVSPropertyOp4
 70
     1
102
RTVSPropertyOp5
 70
     1
102
RTVSPropertyOp6
 70
     1
102
RTVSPropertyOp7
 70
     1
102
RTVSPropertyOp8
 70
     1
102
RTVSPropertyOp9
 70
     1
102
RTVSPropertyOp10
 70
     1
102
RTVSPropertyOp11
 70
     1
102
RTVSPropertyOp12
 70
     1
102
RTVSPropertyOp13
 70
     1
102
RTVSPropertyOp14
 70
     1
102
RTVSPropertyOp15
 70
     1
102
RTVSPropertyOp16
 70
     1
102
RTVSPropertyOp17
 70
     1
102
RTVSPropertyOp18
 70
     1
102
RTVSPropertyOp19
 70
     1
102
RTVSPropertyOp20
 70
     1
102
RTVSPropertyOp21
 70
     1
102
RTVSPropertyOp22
 70
     1
102
RTVSPropertyOp23
 70
     1
102
RTVSPropertyOp24
 70
     1
102
RTVSPropertyOp25
 70
     1
102
RTVSPropertyOp26
 70
     1
102
RTVSPropertyOp27
 70
     1
102
RTVSPropertyOp28
 70
     1
102
RTVSPropertyOp29
 70
     1
102
RTVSPropertyOp30
 70
     1
102
RTVSPropertyOp31
 70
     1
102
RTVSPropertyOp32
 70
     1
102
RTVSPropertyOp33
 70
     1
102
RTVSPropertyOp34
 70
     1
102
RTVSPropertyOp35
 70
     1
102
RTVSPropertyOp36
 70
     1
102
RTVSPropertyOp37
 70
     1
102
RTVSPropertyOp38
 70
     1
102
RTVSPropertyOp39
 70
     1
102
RTVSPropertyOp40
 70
     1
102
RTVSPropertyOp41
 70
     1
102
RTVSPropertyOp42
 70
     1
102
RTVSPropertyOp43
 70
     1
102
RTVSPropertyOp44
 70
     1
102
RTVSPropertyOp45
 70
     1
102
RTVSPropertyOp46
 70
     1
102
RTVSPropertyOp47
 70
     1
102
RTVSPropertyOp48
 70
     1
102
RTVSPropertyOp49
 70
     1
102
RTVSPropertyOp50
 70
     1
102
RTVSPropertyOp51
 70
     0
102
RTVSPropertyOp52
 70
     0
102
RTVSPropertyOp53
 70
     1
102
RTVSPropertyOp54
 70
     1
102
RTVSPropertyOp55
 70
     1
102
RTVSPropertyOp56
 70
     1
102
RTVSPropertyOp57
 70
     1
102
RTVSPropertyOp58
 70
     1
102
RTVSPropertyOp59
 70
     1
102
RTVSPropertyOp60
 70
     1
102
RTVSPropertyOp61
 70
     1
102
RTVSPropertyOp62
 70
     1
  0
XRECORD
  5
391
102
{ACAD_REACTORS
330
390
102
}
330
390
100
AcDbXrecord
280
     1
102
RTVSPost2010Prop28
280
     0
102
RTVSPost2010PropOp28
 70
     1
102
RTVSPost2010Prop29
280
     1
102
RTVSPost2010PropOp29
 70
     1
102
RTVSPost2010Prop30
280
     1
102
RTVSPost2010PropOp30
 70
     1
102
RTVSPost2010Prop31
280
     0
102
RTVSPost2010PropOp31
 70
     1
102
RTVSPost2010Prop32
280
     0
102
RTVSPost2010PropOp32
 70
     1
102
RTVSPost2010Prop33
280
     0
102
RTVSPost2010PropOp33
 70
     1
102
RTVSPost2010Prop34
280
     0
102
RTVSPost2010PropOp34
 70
     1
102
RTVSPost2010Prop35
280
     0
102
RTVSPost2010PropOp35
 70
     1
102
RTVSPost2010Prop36
280
     0
102
RTVSPost2010PropOp36
 70
     1
102
RTVSPost2010Prop37
 90
       50
102
RTVSPost2010PropOp37
 70
     1
102
RTVSPost2010Prop38
140
0.0
102
RTVSPost2010PropOp38
 70
     1
102
RTVSPost2010Prop39
140
1.0
102
RTVSPost2010PropOp39
 70
     1
102
RTVSPost2010Prop40
 90
        0
102
RTVSPost2010PropOp40
 70
     1
102
RTVSPost2010Prop41ColorIndex
 90
       18
102
RTVSPost2010Prop41ColorRGB
 90
        0
102
RTVSPost2010PropOp41
 70
     1
102
RTVSPost2010Prop42
 90
       50
102
RTVSPost2010PropOp42
 70
     1
102
RTVSPost2010Prop43
 90
        3
102
RTVSPost2010PropOp43
 70
     1
102
RTVSPost2010Prop44ColorIndex
 90
        5
102
RTVSPost2010Prop44ColorRGB
 90
      255
102
RTVSPost2010PropOp44
 70
     1
102
RTVSPost2010Prop45
280
     0
102
RTVSPost2010PropOp45
 70
     1
102
RTVSPost2010Prop46
 90
       50
102
RTVSPost2010PropOp46
 70
     1
102
RTVSPost2010Prop47
 90
       50
102
RTVSPost2010PropOp47
 70
     1
102
RTVSPost2010Prop48
 90
       50
102
RTVSPost2010PropOp48
 70
     1
102
RTVSPost2010Prop49
280
     0
102
RTVSPost2010PropOp49
 70
     1
102
RTVSPost2010Prop50
 90
       50
102
RTVSPost2010PropOp50
 70
     1
102
RTVSPost2010Prop51ColorIndex
 90
      256
102
RTVSPost2010Prop51ColorRGB
 90
-16777216
102
RTVSPost2010PropOp51
 70
     0
102
RTVSPost2010Prop52
140
1.0
102
RTVSPost2010PropOp52
 70
     0
102
RTVSPost2010Prop53
 90
        2
102
RTVSPost2010PropOp53
 70
     1
102
RTVSPost2010Prop54
  1
strokes_ogs.tif
102
RTVSPost2010PropOp54
 70
     1
102
RTVSPost2010Prop55
280
     0
102
RTVSPost2010PropOp55
 70
     1
102
RTVSPost2010Prop56
140
1.0
102
RTVSPost2010PropOp56
 70
     1
102
RTVSPost2010Prop57
140
1.0
102
RTVSPost2010PropOp57
 70
     1
102
RTVSPropertyOp0
 70
     1
102
RTVSPropertyOp1
 70
     1
102
RTVSPropertyOp2
 70
     1
102
RTVSPropertyOp3
 70
     1
102
RTVSPropertyOp4
 70
     1
102
RTVSPropertyOp5
 70
     1
102
RTVSPropertyOp6
 70
     1
102
RTVSPropertyOp7
 70
     1
102
RTVSPropertyOp8
 70
     1
102
RTVSPropertyOp9
 70
     1
102
RTVSPropertyOp10
 70
     1
102
RTVSPropertyOp11
 70
     1
102
RTVSPropertyOp12
 70
     1
102
RTVSPropertyOp13
 70
     1
102
RTVSPropertyOp14
 70
     1
102
RTVSPropertyOp15
 70
     1
102
RTVSPropertyOp16
 70
     1
102
RTVSPropertyOp17
 70
     1
102
RTVSPropertyOp18
 70
     1
102
RTVSPropertyOp19
 70
     1
102
RTVSPropertyOp20
 70
     1
102
RTVSPropertyOp21
 70
     1
102
RTVSPropertyOp22
 70
     1
102
RTVSPropertyOp23
 70
     1
102
RTVSPropertyOp24
 70
     1
102
RTVSPropertyOp25
 70
     1
102
RTVSPropertyOp26
 70
     1
102
RTVSPropertyOp27
 70
     1
102
RTVSPropertyOp28
 70
     1
102
RTVSPropertyOp29
 70
     1
102
RTVSPropertyOp30
 70
     1
102
RTVSPropertyOp31
 70
     1
102
RTVSPropertyOp32
 70
     1
102
RTVSPropertyOp33
 70
     1
102
RTVSPropertyOp34
 70
     1
102
RTVSPropertyOp35
 70
     1
102
RTVSPropertyOp36
 70
     1
102
RTVSPropertyOp37
 70
     1
102
RTVSPropertyOp38
 70
     1
102
RTVSPropertyOp39
 70
     1
102
RTVSPropertyOp40
 70
     1
102
RTVSPropertyOp41
 70
     1
102
RTVSPropertyOp42
 70
     1
102
RTVSPropertyOp43
 70
     1
102
RTVSPropertyOp44
 70
     1
102
RTVSPropertyOp45
 70
     1
102
RTVSPropertyOp46
 70
     1
102
RTVSPropertyOp47
 70
     1
102
RTVSPropertyOp48
 70
     1
102
RTVSPropertyOp49
 70
     1
102
RTVSPropertyOp50
 70
     1
102
RTVSPropertyOp51
 70
     0
102
RTVSPropertyOp52
 70
     0
102
RTVSPropertyOp53
 70
     1
102
RTVSPropertyOp54
 70
     1
102
RTVSPropertyOp55
 70
     1
102
RTVSPropertyOp56
 70
     1
102
RTVSPropertyOp57
 70
     1
102
RTVSPropertyOp58
 70
     1
102
RTVSPropertyOp59
 70
     1
102
RTVSPropertyOp60
 70
     1
102
RTVSPropertyOp61
 70
     1
102
RTVSPropertyOp62
 70
     1
  0
XRECORD
  5
38F
102
{ACAD_REACTORS
330
38E
102
}
330
38E
100
AcDbXrecord
280
     1
102
RTVSPost2010Prop28
280
     0
102
RTVSPost2010PropOp28
 70
     1
102
RTVSPost2010Prop29
280
     1
102
RTVSPost2010PropOp29
 70
     1
102
RTVSPost2010Prop30
280
     1
102
RTVSPost2010PropOp30
 70
     1
102
RTVSPost2010Prop31
280
     0
102
RTVSPost2010PropOp31
 70
     1
102
RTVSPost2010Prop32
280
     0
102
RTVSPost2010PropOp32
 70
     1
102
RTVSPost2010Prop33
280
     0
102
RTVSPost2010PropOp33
 70
     1
102
RTVSPost2010Prop34
280
     0
102
RTVSPost2010PropOp34
 70
     1
102
RTVSPost2010Prop35
280
     0
102
RTVSPost2010PropOp35
 70
     1
102
RTVSPost2010Prop36
280
     0
102
RTVSPost2010PropOp36
 70
     1
102
RTVSPost2010Prop37
 90
       50
102
RTVSPost2010PropOp37
 70
     1
102
RTVSPost2010Prop38
140
0.0
102
RTVSPost2010PropOp38
 70
     1
102
RTVSPost2010Prop39
140
1.0
102
RTVSPost2010PropOp39
 70
     1
102
RTVSPost2010Prop40
 90
        0
102
RTVSPost2010PropOp40
 70
     1
102
RTVSPost2010Prop41ColorIndex
 90
       18
102
RTVSPost2010Prop41ColorRGB
 90
        0
102
RTVSPost2010PropOp41
 70
     1
102
RTVSPost2010Prop42
 90
       50
102
RTVSPost2010PropOp42
 70
     1
102
RTVSPost2010Prop43
 90
        3
102
RTVSPost2010PropOp43
 70
     1
102
RTVSPost2010Prop44ColorIndex
 90
        5
102
RTVSPost2010Prop44ColorRGB
 90
      255
102
RTVSPost2010PropOp44
 70
     1
102
RTVSPost2010Prop45
280
     0
102
RTVSPost2010PropOp45
 70
     1
102
RTVSPost2010Prop46
 90
       50
102
RTVSPost2010PropOp46
 70
     1
102
RTVSPost2010Prop47
 90
       50
102
RTVSPost2010PropOp47
 70
     1
102
RTVSPost2010Prop48
 90
       50
102
RTVSPost2010PropOp48
 70
     1
102
RTVSPost2010Prop49
280
     0
102
RTVSPost2010PropOp49
 70
     1
102
RTVSPost2010Prop50
 90
       50
102
RTVSPost2010PropOp50
 70
     1
102
RTVSPost2010Prop51ColorIndex
 90
      256
102
RTVSPost2010Prop51ColorRGB
 90
-16777216
102
RTVSPost2010PropOp51
 70
     0
102
RTVSPost2010Prop52
140
1.0
102
RTVSPost2010PropOp52
 70
     0
102
RTVSPost2010Prop53
 90
        2
102
RTVSPost2010PropOp53
 70
     1
102
RTVSPost2010Prop54
  1
strokes_ogs.tif
102
RTVSPost2010PropOp54
 70
     1
102
RTVSPost2010Prop55
280
     0
102
RTVSPost2010PropOp55
 70
     1
102
RTVSPost2010Prop56
140
1.0
102
RTVSPost2010PropOp56
 70
     1
102
RTVSPost2010Prop57
140
1.0
102
RTVSPost2010PropOp57
 70
     1
102
RTVSPropertyOp0
 70
     1
102
RTVSPropertyOp1
 70
     1
102
RTVSPropertyOp2
 70
     1
102
RTVSPropertyOp3
 70
     1
102
RTVSPropertyOp4
 70
     1
102
RTVSPropertyOp5
 70
     1
102
RTVSPropertyOp6
 70
     1
102
RTVSPropertyOp7
 70
     1
102
RTVSPropertyOp8
 70
     1
102
RTVSPropertyOp9
 70
     1
102
RTVSPropertyOp10
 70
     1
102
RTVSPropertyOp11
 70
     1
102
RTVSPropertyOp12
 70
     1
102
RTVSPropertyOp13
 70
     1
102
RTVSPropertyOp14
 70
     1
102
RTVSPropertyOp15
 70
     1
102
RTVSPropertyOp16
 70
     1
102
RTVSPropertyOp17
 70
     1
102
RTVSPropertyOp18
 70
     1
102
RTVSPropertyOp19
 70
     1
102
RTVSPropertyOp20
 70
     1
102
RTVSPropertyOp21
 70
     1
102
RTVSPropertyOp22
 70
     1
102
RTVSPropertyOp23
 70
     1
102
RTVSPropertyOp24
 70
     1
102
RTVSPropertyOp25
 70
     1
102
RTVSPropertyOp26
 70
     1
102
RTVSPropertyOp27
 70
     1
102
RTVSPropertyOp28
 70
     1
102
RTVSPropertyOp29
 70
     1
102
RTVSPropertyOp30
 70
     1
102
RTVSPropertyOp31
 70
     1
102
RTVSPropertyOp32
 70
     1
102
RTVSPropertyOp33
 70
     1
102
RTVSPropertyOp34
 70
     1
102
RTVSPropertyOp35
 70
     1
102
RTVSPropertyOp36
 70
     1
102
RTVSPropertyOp37
 70
     1
102
RTVSPropertyOp38
 70
     1
102
RTVSPropertyOp39
 70
     1
102
RTVSPropertyOp40
 70
     1
102
RTVSPropertyOp41
 70
     1
102
RTVSPropertyOp42
 70
     1
102
RTVSPropertyOp43
 70
     1
102
RTVSPropertyOp44
 70
     1
102
RTVSPropertyOp45
 70
     1
102
RTVSPropertyOp46
 70
     1
102
RTVSPropertyOp47
 70
     1
102
RTVSPropertyOp48
 70
     1
102
RTVSPropertyOp49
 70
     1
102
RTVSPropertyOp50
 70
     1
102
RTVSPropertyOp51
 70
     0
102
RTVSPropertyOp52
 70
     0
102
RTVSPropertyOp53
 70
     1
102
RTVSPropertyOp54
 70
     1
102
RTVSPropertyOp55
 70
     1
102
RTVSPropertyOp56
 70
     1
102
RTVSPropertyOp57
 70
     1
102
RTVSPropertyOp58
 70
     1
102
RTVSPropertyOp59
 70
     1
102
RTVSPropertyOp60
 70
     1
102
RTVSPropertyOp61
 70
     1
102
RTVSPropertyOp62
 70
     1
  0
XRECORD
  5
389
102
{ACAD_REACTORS
330
388
102
}
330
388
100
AcDbXrecord
280
     1
102
RTVSPost2010Prop28
280
     0
102
RTVSPost2010PropOp28
 70
     1
102
RTVSPost2010Prop29
280
     1
102
RTVSPost2010PropOp29
 70
     1
102
RTVSPost2010Prop30
280
     1
102
RTVSPost2010PropOp30
 70
     1
102
RTVSPost2010Prop31
280
     0
102
RTVSPost2010PropOp31
 70
     1
102
RTVSPost2010Prop32
280
     0
102
RTVSPost2010PropOp32
 70
     1
102
RTVSPost2010Prop33
280
     0
102
RTVSPost2010PropOp33
 70
     1
102
RTVSPost2010Prop34
280
     0
102
RTVSPost2010PropOp34
 70
     1
102
RTVSPost2010Prop35
280
     0
102
RTVSPost2010PropOp35
 70
     1
102
RTVSPost2010Prop36
280
     0
102
RTVSPost2010PropOp36
 70
     1
102
RTVSPost2010Prop37
 90
       50
102
RTVSPost2010PropOp37
 70
     1
102
RTVSPost2010Prop38
140
0.0
102
RTVSPost2010PropOp38
 70
     1
102
RTVSPost2010Prop39
140
1.0
102
RTVSPost2010PropOp39
 70
     1
102
RTVSPost2010Prop40
 90
        0
102
RTVSPost2010PropOp40
 70
     1
102
RTVSPost2010Prop41ColorIndex
 90
       18
102
RTVSPost2010Prop41ColorRGB
 90
        0
102
RTVSPost2010PropOp41
 70
     1
102
RTVSPost2010Prop42
 90
       50
102
RTVSPost2010PropOp42
 70
     1
102
RTVSPost2010Prop43
 90
        3
102
RTVSPost2010PropOp43
 70
     1
102
RTVSPost2010Prop44ColorIndex
 90
        5
102
RTVSPost2010Prop44ColorRGB
 90
      255
102
RTVSPost2010PropOp44
 70
     1
102
RTVSPost2010Prop45
280
     0
102
RTVSPost2010PropOp45
 70
     1
102
RTVSPost2010Prop46
 90
       50
102
RTVSPost2010PropOp46
 70
     1
102
RTVSPost2010Prop47
 90
       50
102
RTVSPost2010PropOp47
 70
     1
102
RTVSPost2010Prop48
 90
       50
102
RTVSPost2010PropOp48
 70
     1
102
RTVSPost2010Prop49
280
     0
102
RTVSPost2010PropOp49
 70
     1
102
RTVSPost2010Prop50
 90
       50
102
RTVSPost2010PropOp50
 70
     1
102
RTVSPost2010Prop51ColorIndex
 90
      256
102
RTVSPost2010Prop51ColorRGB
 90
-16777216
102
RTVSPost2010PropOp51
 70
     0
102
RTVSPost2010Prop52
140
1.0
102
RTVSPost2010PropOp52
 70
     0
102
RTVSPost2010Prop53
 90
        2
102
RTVSPost2010PropOp53
 70
     1
102
RTVSPost2010Prop54
  1
strokes_ogs.tif
102
RTVSPost2010PropOp54
 70
     1
102
RTVSPost2010Prop55
280
     0
102
RTVSPost2010PropOp55
 70
     1
102
RTVSPost2010Prop56
140
1.0
102
RTVSPost2010PropOp56
 70
     1
102
RTVSPost2010Prop57
140
1.0
102
RTVSPost2010PropOp57
 70
     1
102
RTVSPropertyOp0
 70
     1
102
RTVSPropertyOp1
 70
     1
102
RTVSPropertyOp2
 70
     1
102
RTVSPropertyOp3
 70
     1
102
RTVSPropertyOp4
 70
     1
102
RTVSPropertyOp5
 70
     1
102
RTVSPropertyOp6
 70
     1
102
RTVSPropertyOp7
 70
     1
102
RTVSPropertyOp8
 70
     1
102
RTVSPropertyOp9
 70
     1
102
RTVSPropertyOp10
 70
     1
102
RTVSPropertyOp11
 70
     1
102
RTVSPropertyOp12
 70
     1
102
RTVSPropertyOp13
 70
     1
102
RTVSPropertyOp14
 70
     1
102
RTVSPropertyOp15
 70
     1
102
RTVSPropertyOp16
 70
     1
102
RTVSPropertyOp17
 70
     1
102
RTVSPropertyOp18
 70
     1
102
RTVSPropertyOp19
 70
     1
102
RTVSPropertyOp20
 70
     1
102
RTVSPropertyOp21
 70
     1
102
RTVSPropertyOp22
 70
     1
102
RTVSPropertyOp23
 70
     1
102
RTVSPropertyOp24
 70
     1
102
RTVSPropertyOp25
 70
     1
102
RTVSPropertyOp26
 70
     1
102
RTVSPropertyOp27
 70
     1
102
RTVSPropertyOp28
 70
     1
102
RTVSPropertyOp29
 70
     1
102
RTVSPropertyOp30
 70
     1
102
RTVSPropertyOp31
 70
     1
102
RTVSPropertyOp32
 70
     1
102
RTVSPropertyOp33
 70
     1
102
RTVSPropertyOp34
 70
     1
102
RTVSPropertyOp35
 70
     1
102
RTVSPropertyOp36
 70
     1
102
RTVSPropertyOp37
 70
     1
102
RTVSPropertyOp38
 70
     1
102
RTVSPropertyOp39
 70
     1
102
RTVSPropertyOp40
 70
     1
102
RTVSPropertyOp41
 70
     1
102
RTVSPropertyOp42
 70
     1
102
RTVSPropertyOp43
 70
     1
102
RTVSPropertyOp44
 70
     1
102
RTVSPropertyOp45
 70
     1
102
RTVSPropertyOp46
 70
     1
102
RTVSPropertyOp47
 70
     1
102
RTVSPropertyOp48
 70
     1
102
RTVSPropertyOp49
 70
     1
102
RTVSPropertyOp50
 70
     1
102
RTVSPropertyOp51
 70
     0
102
RTVSPropertyOp52
 70
     0
102
RTVSPropertyOp53
 70
     1
102
RTVSPropertyOp54
 70
     1
102
RTVSPropertyOp55
 70
     1
102
RTVSPropertyOp56
 70
     1
102
RTVSPropertyOp57
 70
     1
102
RTVSPropertyOp58
 70
     1
102
RTVSPropertyOp59
 70
     1
102
RTVSPropertyOp60
 70
     1
102
RTVSPropertyOp61
 70
     1
102
RTVSPropertyOp62
 70
     1
  0
XRECORD
  5
38B
102
{ACAD_REACTORS
330
38A
102
}
330
38A
100
AcDbXrecord
280
     1
102
RTVSPost2010Prop28
280
     0
102
RTVSPost2010PropOp28
 70
     1
102
RTVSPost2010Prop29
280
     1
102
RTVSPost2010PropOp29
 70
     1
102
RTVSPost2010Prop30
280
     1
102
RTVSPost2010PropOp30
 70
     1
102
RTVSPost2010Prop31
280
     0
102
RTVSPost2010PropOp31
 70
     1
102
RTVSPost2010Prop32
280
     0
102
RTVSPost2010PropOp32
 70
     1
102
RTVSPost2010Prop33
280
     0
102
RTVSPost2010PropOp33
 70
     1
102
RTVSPost2010Prop34
280
     0
102
RTVSPost2010PropOp34
 70
     1
102
RTVSPost2010Prop35
280
     0
102
RTVSPost2010PropOp35
 70
     1
102
RTVSPost2010Prop36
280
     0
102
RTVSPost2010PropOp36
 70
     1
102
RTVSPost2010Prop37
 90
       50
102
RTVSPost2010PropOp37
 70
     1
102
RTVSPost2010Prop38
140
0.0
102
RTVSPost2010PropOp38
 70
     1
102
RTVSPost2010Prop39
140
1.0
102
RTVSPost2010PropOp39
 70
     1
102
RTVSPost2010Prop40
 90
        0
102
RTVSPost2010PropOp40
 70
     1
102
RTVSPost2010Prop41ColorIndex
 90
       18
102
RTVSPost2010Prop41ColorRGB
 90
        0
102
RTVSPost2010PropOp41
 70
     1
102
RTVSPost2010Prop42
 90
       50
102
RTVSPost2010PropOp42
 70
     1
102
RTVSPost2010Prop43
 90
        3
102
RTVSPost2010PropOp43
 70
     1
102
RTVSPost2010Prop44ColorIndex
 90
        5
102
RTVSPost2010Prop44ColorRGB
 90
      255
102
RTVSPost2010PropOp44
 70
     1
102
RTVSPost2010Prop45
280
     0
102
RTVSPost2010PropOp45
 70
     1
102
RTVSPost2010Prop46
 90
       50
102
RTVSPost2010PropOp46
 70
     1
102
RTVSPost2010Prop47
 90
       50
102
RTVSPost2010PropOp47
 70
     1
102
RTVSPost2010Prop48
 90
       50
102
RTVSPost2010PropOp48
 70
     1
102
RTVSPost2010Prop49
280
     0
102
RTVSPost2010PropOp49
 70
     1
102
RTVSPost2010Prop50
 90
       50
102
RTVSPost2010PropOp50
 70
     1
102
RTVSPost2010Prop51ColorIndex
 90
      256
102
RTVSPost2010Prop51ColorRGB
 90
-16777216
102
RTVSPost2010PropOp51
 70
     0
102
RTVSPost2010Prop52
140
1.0
102
RTVSPost2010PropOp52
 70
     0
102
RTVSPost2010Prop53
 90
        2
102
RTVSPost2010PropOp53
 70
     1
102
RTVSPost2010Prop54
  1
strokes_ogs.tif
102
RTVSPost2010PropOp54
 70
     1
102
RTVSPost2010Prop55
280
     0
102
RTVSPost2010PropOp55
 70
     1
102
RTVSPost2010Prop56
140
1.0
102
RTVSPost2010PropOp56
 70
     1
102
RTVSPost2010Prop57
140
1.0
102
RTVSPost2010PropOp57
 70
     1
102
RTVSPropertyOp0
 70
     1
102
RTVSPropertyOp1
 70
     1
102
RTVSPropertyOp2
 70
     1
102
RTVSPropertyOp3
 70
     1
102
RTVSPropertyOp4
 70
     1
102
RTVSPropertyOp5
 70
     1
102
RTVSPropertyOp6
 70
     1
102
RTVSPropertyOp7
 70
     1
102
RTVSPropertyOp8
 70
     1
102
RTVSPropertyOp9
 70
     1
102
RTVSPropertyOp10
 70
     1
102
RTVSPropertyOp11
 70
     1
102
RTVSPropertyOp12
 70
     1
102
RTVSPropertyOp13
 70
     1
102
RTVSPropertyOp14
 70
     1
102
RTVSPropertyOp15
 70
     1
102
RTVSPropertyOp16
 70
     1
102
RTVSPropertyOp17
 70
     1
102
RTVSPropertyOp18
 70
     1
102
RTVSPropertyOp19
 70
     1
102
RTVSPropertyOp20
 70
     1
102
RTVSPropertyOp21
 70
     1
102
RTVSPropertyOp22
 70
     1
102
RTVSPropertyOp23
 70
     1
102
RTVSPropertyOp24
 70
     1
102
RTVSPropertyOp25
 70
     1
102
RTVSPropertyOp26
 70
     1
102
RTVSPropertyOp27
 70
     1
102
RTVSPropertyOp28
 70
     1
102
RTVSPropertyOp29
 70
     1
102
RTVSPropertyOp30
 70
     1
102
RTVSPropertyOp31
 70
     1
102
RTVSPropertyOp32
 70
     1
102
RTVSPropertyOp33
 70
     1
102
RTVSPropertyOp34
 70
     1
102
RTVSPropertyOp35
 70
     1
102
RTVSPropertyOp36
 70
     1
102
RTVSPropertyOp37
 70
     1
102
RTVSPropertyOp38
 70
     1
102
RTVSPropertyOp39
 70
     1
102
RTVSPropertyOp40
 70
     1
102
RTVSPropertyOp41
 70
     1
102
RTVSPropertyOp42
 70
     1
102
RTVSPropertyOp43
 70
     1
102
RTVSPropertyOp44
 70
     1
102
RTVSPropertyOp45
 70
     1
102
RTVSPropertyOp46
 70
     1
102
RTVSPropertyOp47
 70
     1
102
RTVSPropertyOp48
 70
     1
102
RTVSPropertyOp49
 70
     1
102
RTVSPropertyOp50
 70
     1
102
RTVSPropertyOp51
 70
     0
102
RTVSPropertyOp52
 70
     0
102
RTVSPropertyOp53
 70
     1
102
RTVSPropertyOp54
 70
     1
102
RTVSPropertyOp55
 70
     1
102
RTVSPropertyOp56
 70
     1
102
RTVSPropertyOp57
 70
     1
102
RTVSPropertyOp58
 70
     1
102
RTVSPropertyOp59
 70
     1
102
RTVSPropertyOp60
 70
     1
102
RTVSPropertyOp61
 70
     1
102
RTVSPropertyOp62
 70
     1
  0
XRECORD
  5
37B
102
{ACAD_REACTORS
330
37A
102
}
330
37A
100
AcDbXrecord
280
     1
102
RTVSPost2010Prop28
280
     0
102
RTVSPost2010PropOp28
 70
     1
102
RTVSPost2010Prop29
280
     1
102
RTVSPost2010PropOp29
 70
     1
102
RTVSPost2010Prop30
280
     1
102
RTVSPost2010PropOp30
 70
     1
102
RTVSPost2010Prop31
280
     0
102
RTVSPost2010PropOp31
 70
     1
102
RTVSPost2010Prop32
280
     0
102
RTVSPost2010PropOp32
 70
     1
102
RTVSPost2010Prop33
280
     0
102
RTVSPost2010PropOp33
 70
     1
102
RTVSPost2010Prop34
280
     0
102
RTVSPost2010PropOp34
 70
     1
102
RTVSPost2010Prop35
280
     0
102
RTVSPost2010PropOp35
 70
     1
102
RTVSPost2010Prop36
280
     0
102
RTVSPost2010PropOp36
 70
     1
102
RTVSPost2010Prop37
 90
       50
102
RTVSPost2010PropOp37
 70
     1
102
RTVSPost2010Prop38
140
0.0
102
RTVSPost2010PropOp38
 70
     1
102
RTVSPost2010Prop39
140
1.0
102
RTVSPost2010PropOp39
 70
     1
102
RTVSPost2010Prop40
 90
        0
102
RTVSPost2010PropOp40
 70
     1
102
RTVSPost2010Prop41ColorIndex
 90
       18
102
RTVSPost2010Prop41ColorRGB
 90
        0
102
RTVSPost2010PropOp41
 70
     1
102
RTVSPost2010Prop42
 90
       50
102
RTVSPost2010PropOp42
 70
     1
102
RTVSPost2010Prop43
 90
        3
102
RTVSPost2010PropOp43
 70
     1
102
RTVSPost2010Prop44ColorIndex
 90
        5
102
RTVSPost2010Prop44ColorRGB
 90
      255
102
RTVSPost2010PropOp44
 70
     1
102
RTVSPost2010Prop45
280
     0
102
RTVSPost2010PropOp45
 70
     1
102
RTVSPost2010Prop46
 90
       50
102
RTVSPost2010PropOp46
 70
     1
102
RTVSPost2010Prop47
 90
       50
102
RTVSPost2010PropOp47
 70
     1
102
RTVSPost2010Prop48
 90
       50
102
RTVSPost2010PropOp48
 70
     1
102
RTVSPost2010Prop49
280
     0
102
RTVSPost2010PropOp49
 70
     1
102
RTVSPost2010Prop50
 90
       50
102
RTVSPost2010PropOp50
 70
     1
102
RTVSPost2010Prop51ColorIndex
 90
      256
102
RTVSPost2010Prop51ColorRGB
 90
-16777216
102
RTVSPost2010PropOp51
 70
     0
102
RTVSPost2010Prop52
140
1.0
102
RTVSPost2010PropOp52
 70
     0
102
RTVSPost2010Prop53
 90
        2
102
RTVSPost2010PropOp53
 70
     1
102
RTVSPost2010Prop54
  1
strokes_ogs.tif
102
RTVSPost2010PropOp54
 70
     1
102
RTVSPost2010Prop55
280
     0
102
RTVSPost2010PropOp55
 70
     1
102
RTVSPost2010Prop56
140
1.0
102
RTVSPost2010PropOp56
 70
     1
102
RTVSPost2010Prop57
140
1.0
102
RTVSPost2010PropOp57
 70
     1
102
RTVSPropertyOp0
 70
     1
102
RTVSPropertyOp1
 70
     1
102
RTVSPropertyOp2
 70
     1
102
RTVSPropertyOp3
 70
     1
102
RTVSPropertyOp4
 70
     1
102
RTVSPropertyOp5
 70
     1
102
RTVSPropertyOp6
 70
     1
102
RTVSPropertyOp7
 70
     1
102
RTVSPropertyOp8
 70
     1
102
RTVSPropertyOp9
 70
     1
102
RTVSPropertyOp10
 70
     1
102
RTVSPropertyOp11
 70
     1
102
RTVSPropertyOp12
 70
     1
102
RTVSPropertyOp13
 70
     1
102
RTVSPropertyOp14
 70
     1
102
RTVSPropertyOp15
 70
     1
102
RTVSPropertyOp16
 70
     1
102
RTVSPropertyOp17
 70
     1
102
RTVSPropertyOp18
 70
     1
102
RTVSPropertyOp19
 70
     1
102
RTVSPropertyOp20
 70
     1
102
RTVSPropertyOp21
 70
     1
102
RTVSPropertyOp22
 70
     1
102
RTVSPropertyOp23
 70
     1
102
RTVSPropertyOp24
 70
     1
102
RTVSPropertyOp25
 70
     1
102
RTVSPropertyOp26
 70
     1
102
RTVSPropertyOp27
 70
     1
102
RTVSPropertyOp28
 70
     1
102
RTVSPropertyOp29
 70
     1
102
RTVSPropertyOp30
 70
     1
102
RTVSPropertyOp31
 70
     1
102
RTVSPropertyOp32
 70
     1
102
RTVSPropertyOp33
 70
     1
102
RTVSPropertyOp34
 70
     1
102
RTVSPropertyOp35
 70
     1
102
RTVSPropertyOp36
 70
     1
102
RTVSPropertyOp37
 70
     1
102
RTVSPropertyOp38
 70
     1
102
RTVSPropertyOp39
 70
     1
102
RTVSPropertyOp40
 70
     1
102
RTVSPropertyOp41
 70
     1
102
RTVSPropertyOp42
 70
     1
102
RTVSPropertyOp43
 70
     1
102
RTVSPropertyOp44
 70
     1
102
RTVSPropertyOp45
 70
     1
102
RTVSPropertyOp46
 70
     1
102
RTVSPropertyOp47
 70
     1
102
RTVSPropertyOp48
 70
     1
102
RTVSPropertyOp49
 70
     1
102
RTVSPropertyOp50
 70
     1
102
RTVSPropertyOp51
 70
     0
102
RTVSPropertyOp52
 70
     0
102
RTVSPropertyOp53
 70
     1
102
RTVSPropertyOp54
 70
     1
102
RTVSPropertyOp55
 70
     1
102
RTVSPropertyOp56
 70
     1
102
RTVSPropertyOp57
 70
     1
102
RTVSPropertyOp58
 70
     1
102
RTVSPropertyOp59
 70
     1
102
RTVSPropertyOp60
 70
     1
102
RTVSPropertyOp61
 70
     1
102
RTVSPropertyOp62
 70
     1
  0
XRECORD
  5
36D
102
{ACAD_REACTORS
330
36C
102
}
330
36C
100
AcDbXrecord
280
     1
102
RTVSPost2010Prop28
280
     0
102
RTVSPost2010PropOp28
 70
     1
102
RTVSPost2010Prop29
280
     1
102
RTVSPost2010PropOp29
 70
     1
102
RTVSPost2010Prop30
280
     1
102
RTVSPost2010PropOp30
 70
     1
102
RTVSPost2010Prop31
280
     0
102
RTVSPost2010PropOp31
 70
     1
102
RTVSPost2010Prop32
280
     0
102
RTVSPost2010PropOp32
 70
     1
102
RTVSPost2010Prop33
280
     0
102
RTVSPost2010PropOp33
 70
     1
102
RTVSPost2010Prop34
280
     0
102
RTVSPost2010PropOp34
 70
     1
102
RTVSPost2010Prop35
280
     0
102
RTVSPost2010PropOp35
 70
     1
102
RTVSPost2010Prop36
280
     0
102
RTVSPost2010PropOp36
 70
     1
102
RTVSPost2010Prop37
 90
       50
102
RTVSPost2010PropOp37
 70
     1
102
RTVSPost2010Prop38
140
0.0
102
RTVSPost2010PropOp38
 70
     1
102
RTVSPost2010Prop39
140
1.0
102
RTVSPost2010PropOp39
 70
     1
102
RTVSPost2010Prop40
 90
        0
102
RTVSPost2010PropOp40
 70
     1
102
RTVSPost2010Prop41ColorIndex
 90
       18
102
RTVSPost2010Prop41ColorRGB
 90
        0
102
RTVSPost2010PropOp41
 70
     1
102
RTVSPost2010Prop42
 90
       50
102
RTVSPost2010PropOp42
 70
     1
102
RTVSPost2010Prop43
 90
        3
102
RTVSPost2010PropOp43
 70
     1
102
RTVSPost2010Prop44ColorIndex
 90
        5
102
RTVSPost2010Prop44ColorRGB
 90
      255
102
RTVSPost2010PropOp44
 70
     1
102
RTVSPost2010Prop45
280
     0
102
RTVSPost2010PropOp45
 70
     1
102
RTVSPost2010Prop46
 90
       50
102
RTVSPost2010PropOp46
 70
     1
102
RTVSPost2010Prop47
 90
       50
102
RTVSPost2010PropOp47
 70
     1
102
RTVSPost2010Prop48
 90
       50
102
RTVSPost2010PropOp48
 70
     1
102
RTVSPost2010Prop49
280
     0
102
RTVSPost2010PropOp49
 70
     1
102
RTVSPost2010Prop50
 90
       50
102
RTVSPost2010PropOp50
 70
     1
102
RTVSPost2010Prop51ColorIndex
 90
      256
102
RTVSPost2010Prop51ColorRGB
 90
-16777216
102
RTVSPost2010PropOp51
 70
     0
102
RTVSPost2010Prop52
140
1.0
102
RTVSPost2010PropOp52
 70
     0
102
RTVSPost2010Prop53
 90
        2
102
RTVSPost2010PropOp53
 70
     1
102
RTVSPost2010Prop54
  1
strokes_ogs.tif
102
RTVSPost2010PropOp54
 70
     1
102
RTVSPost2010Prop55
280
     0
102
RTVSPost2010PropOp55
 70
     1
102
RTVSPost2010Prop56
140
1.0
102
RTVSPost2010PropOp56
 70
     1
102
RTVSPost2010Prop57
140
1.0
102
RTVSPost2010PropOp57
 70
     1
102
RTVSPropertyOp0
 70
     1
102
RTVSPropertyOp1
 70
     1
102
RTVSPropertyOp2
 70
     1
102
RTVSPropertyOp3
 70
     1
102
RTVSPropertyOp4
 70
     1
102
RTVSPropertyOp5
 70
     1
102
RTVSPropertyOp6
 70
     1
102
RTVSPropertyOp7
 70
     1
102
RTVSPropertyOp8
 70
     1
102
RTVSPropertyOp9
 70
     1
102
RTVSPropertyOp10
 70
     1
102
RTVSPropertyOp11
 70
     1
102
RTVSPropertyOp12
 70
     1
102
RTVSPropertyOp13
 70
     1
102
RTVSPropertyOp14
 70
     1
102
RTVSPropertyOp15
 70
     1
102
RTVSPropertyOp16
 70
     1
102
RTVSPropertyOp17
 70
     1
102
RTVSPropertyOp18
 70
     1
102
RTVSPropertyOp19
 70
     1
102
RTVSPropertyOp20
 70
     1
102
RTVSPropertyOp21
 70
     1
102
RTVSPropertyOp22
 70
     1
102
RTVSPropertyOp23
 70
     1
102
RTVSPropertyOp24
 70
     1
102
RTVSPropertyOp25
 70
     1
102
RTVSPropertyOp26
 70
     1
102
RTVSPropertyOp27
 70
     1
102
RTVSPropertyOp28
 70
     1
102
RTVSPropertyOp29
 70
     1
102
RTVSPropertyOp30
 70
     1
102
RTVSPropertyOp31
 70
     1
102
RTVSPropertyOp32
 70
     1
102
RTVSPropertyOp33
 70
     1
102
RTVSPropertyOp34
 70
     1
102
RTVSPropertyOp35
 70
     1
102
RTVSPropertyOp36
 70
     1
102
RTVSPropertyOp37
 70
     1
102
RTVSPropertyOp38
 70
     1
102
RTVSPropertyOp39
 70
     1
102
RTVSPropertyOp40
 70
     1
102
RTVSPropertyOp41
 70
     1
102
RTVSPropertyOp42
 70
     1
102
RTVSPropertyOp43
 70
     1
102
RTVSPropertyOp44
 70
     1
102
RTVSPropertyOp45
 70
     1
102
RTVSPropertyOp46
 70
     1
102
RTVSPropertyOp47
 70
     1
102
RTVSPropertyOp48
 70
     1
102
RTVSPropertyOp49
 70
     1
102
RTVSPropertyOp50
 70
     1
102
RTVSPropertyOp51
 70
     0
102
RTVSPropertyOp52
 70
     0
102
RTVSPropertyOp53
 70
     1
102
RTVSPropertyOp54
 70
     1
102
RTVSPropertyOp55
 70
     1
102
RTVSPropertyOp56
 70
     1
102
RTVSPropertyOp57
 70
     1
102
RTVSPropertyOp58
 70
     1
102
RTVSPropertyOp59
 70
     1
102
RTVSPropertyOp60
 70
     1
102
RTVSPropertyOp61
 70
     1
102
RTVSPropertyOp62
 70
     1
  0
XRECORD
  5
38D
102
{ACAD_REACTORS
330
38C
102
}
330
38C
100
AcDbXrecord
280
     1
102
RTVSPost2010Prop28
280
     0
102
RTVSPost2010PropOp28
 70
     1
102
RTVSPost2010Prop29
280
     1
102
RTVSPost2010PropOp29
 70
     1
102
RTVSPost2010Prop30
280
     1
102
RTVSPost2010PropOp30
 70
     1
102
RTVSPost2010Prop31
280
     0
102
RTVSPost2010PropOp31
 70
     1
102
RTVSPost2010Prop32
280
     0
102
RTVSPost2010PropOp32
 70
     1
102
RTVSPost2010Prop33
280
     0
102
RTVSPost2010PropOp33
 70
     1
102
RTVSPost2010Prop34
280
     0
102
RTVSPost2010PropOp34
 70
     1
102
RTVSPost2010Prop35
280
     0
102
RTVSPost2010PropOp35
 70
     1
102
RTVSPost2010Prop36
280
     0
102
RTVSPost2010PropOp36
 70
     1
102
RTVSPost2010Prop37
 90
       50
102
RTVSPost2010PropOp37
 70
     1
102
RTVSPost2010Prop38
140
0.0
102
RTVSPost2010PropOp38
 70
     1
102
RTVSPost2010Prop39
140
1.0
102
RTVSPost2010PropOp39
 70
     1
102
RTVSPost2010Prop40
 90
        0
102
RTVSPost2010PropOp40
 70
     1
102
RTVSPost2010Prop41ColorIndex
 90
       18
102
RTVSPost2010Prop41ColorRGB
 90
        0
102
RTVSPost2010PropOp41
 70
     1
102
RTVSPost2010Prop42
 90
       50
102
RTVSPost2010PropOp42
 70
     1
102
RTVSPost2010Prop43
 90
        3
102
RTVSPost2010PropOp43
 70
     1
102
RTVSPost2010Prop44ColorIndex
 90
        5
102
RTVSPost2010Prop44ColorRGB
 90
      255
102
RTVSPost2010PropOp44
 70
     1
102
RTVSPost2010Prop45
280
     0
102
RTVSPost2010PropOp45
 70
     1
102
RTVSPost2010Prop46
 90
       50
102
RTVSPost2010PropOp46
 70
     1
102
RTVSPost2010Prop47
 90
       50
102
RTVSPost2010PropOp47
 70
     1
102
RTVSPost2010Prop48
 90
       50
102
RTVSPost2010PropOp48
 70
     1
102
RTVSPost2010Prop49
280
     0
102
RTVSPost2010PropOp49
 70
     1
102
RTVSPost2010Prop50
 90
       50
102
RTVSPost2010PropOp50
 70
     1
102
RTVSPost2010Prop51ColorIndex
 90
      256
102
RTVSPost2010Prop51ColorRGB
 90
-16777216
102
RTVSPost2010PropOp51
 70
     0
102
RTVSPost2010Prop52
140
1.0
102
RTVSPost2010PropOp52
 70
     0
102
RTVSPost2010Prop53
 90
        2
102
RTVSPost2010PropOp53
 70
     1
102
RTVSPost2010Prop54
  1
strokes_ogs.tif
102
RTVSPost2010PropOp54
 70
     1
102
RTVSPost2010Prop55
280
     0
102
RTVSPost2010PropOp55
 70
     1
102
RTVSPost2010Prop56
140
1.0
102
RTVSPost2010PropOp56
 70
     1
102
RTVSPost2010Prop57
140
1.0
102
RTVSPost2010PropOp57
 70
     1
102
RTVSPropertyOp0
 70
     1
102
RTVSPropertyOp1
 70
     1
102
RTVSPropertyOp2
 70
     1
102
RTVSPropertyOp3
 70
     1
102
RTVSPropertyOp4
 70
     1
102
RTVSPropertyOp5
 70
     1
102
RTVSPropertyOp6
 70
     1
102
RTVSPropertyOp7
 70
     1
102
RTVSPropertyOp8
 70
     1
102
RTVSPropertyOp9
 70
     1
102
RTVSPropertyOp10
 70
     1
102
RTVSPropertyOp11
 70
     1
102
RTVSPropertyOp12
 70
     1
102
RTVSPropertyOp13
 70
     1
102
RTVSPropertyOp14
 70
     1
102
RTVSPropertyOp15
 70
     1
102
RTVSPropertyOp16
 70
     1
102
RTVSPropertyOp17
 70
     1
102
RTVSPropertyOp18
 70
     1
102
RTVSPropertyOp19
 70
     1
102
RTVSPropertyOp20
 70
     1
102
RTVSPropertyOp21
 70
     1
102
RTVSPropertyOp22
 70
     1
102
RTVSPropertyOp23
 70
     1
102
RTVSPropertyOp24
 70
     1
102
RTVSPropertyOp25
 70
     1
102
RTVSPropertyOp26
 70
     1
102
RTVSPropertyOp27
 70
     1
102
RTVSPropertyOp28
 70
     1
102
RTVSPropertyOp29
 70
     1
102
RTVSPropertyOp30
 70
     1
102
RTVSPropertyOp31
 70
     1
102
RTVSPropertyOp32
 70
     1
102
RTVSPropertyOp33
 70
     1
102
RTVSPropertyOp34
 70
     1
102
RTVSPropertyOp35
 70
     1
102
RTVSPropertyOp36
 70
     1
102
RTVSPropertyOp37
 70
     1
102
RTVSPropertyOp38
 70
     1
102
RTVSPropertyOp39
 70
     1
102
RTVSPropertyOp40
 70
     1
102
RTVSPropertyOp41
 70
     1
102
RTVSPropertyOp42
 70
     1
102
RTVSPropertyOp43
 70
     1
102
RTVSPropertyOp44
 70
     1
102
RTVSPropertyOp45
 70
     1
102
RTVSPropertyOp46
 70
     1
102
RTVSPropertyOp47
 70
     1
102
RTVSPropertyOp48
 70
     1
102
RTVSPropertyOp49
 70
     1
102
RTVSPropertyOp50
 70
     1
102
RTVSPropertyOp51
 70
     0
102
RTVSPropertyOp52
 70
     0
102
RTVSPropertyOp53
 70
     1
102
RTVSPropertyOp54
 70
     1
102
RTVSPropertyOp55
 70
     1
102
RTVSPropertyOp56
 70
     1
102
RTVSPropertyOp57
 70
     1
102
RTVSPropertyOp58
 70
     1
102
RTVSPropertyOp59
 70
     1
102
RTVSPropertyOp60
 70
     1
102
RTVSPropertyOp61
 70
     1
102
RTVSPropertyOp62
 70
     1
  0
ENDSEC
  0
EOF
