  0
SECTION
  2
HEADER
  9
$ACADVER
  1
AC1018
  9
$ACADMAINTVER
 70
   104
  9
$DWGCODEPAGE
  3
ANSI_1250
  9
$LASTSAVEDBY
  1
wq7085
  9
$INSBASE
 10
0.0
 20
0.0
 30
0.0
  9
$EXTMIN
 10
186.4339033333333
 20
242.4432866666665
 30
0.0
  9
$EXTMAX
 10
347.220192
 20
345.2288016666667
 30
0.0
  9
$LIMMIN
 10
-0.5
 20
-0.5
  9
$LIMMAX
 10
5.0
 20
5.0
  9
$ORTHOMODE
 70
     0
  9
$REGENMODE
 70
     1
  9
$FILLMODE
 70
     1
  9
$QTEXTMODE
 70
     0
  9
$MIRRTEXT
 70
     1
  9
$LTSCALE
 40
1.0
  9
$ATTMODE
 70
     1
  9
$TEXTSIZE
 40
0.2
  9
$TRACEWID
 40
0.05
  9
$TEXTSTYLE
  7
Standard
  9
$CLAYER
  8
0
  9
$CELTYPE
  6
ByLayer
  9
$CECOLOR
 62
   256
  9
$CELTSCALE
 40
1.0
  9
$DISPSILH
 70
     0
  9
$DIMSCALE
 40
1.0
  9
$DIMASZ
 40
0.18
  9
$DIMEXO
 40
0.0625
  9
$DIMDLI
 40
0.38
  9
$DIMRND
 40
0.0
  9
$DIMDLE
 40
0.0
  9
$DIMEXE
 40
0.18
  9
$DIMTP
 40
0.0
  9
$DIMTM
 40
0.0
  9
$DIMTXT
 40
0.18
  9
$DIMCEN
 40
0.09
  9
$DIMTSZ
 40
0.0
  9
$DIMTOL
 70
     0
  9
$DIMLIM
 70
     0
  9
$DIMTIH
 70
     1
  9
$DIMTOH
 70
     1
  9
$DIMSE1
 70
     0
  9
$DIMSE2
 70
     0
  9
$DIMTAD
 70
     0
  9
$DIMZIN
 70
     0
  9
$DIMBLK
  1

  9
$DIMASO
 70
     1
  9
$DIMSHO
 70
     1
  9
$DIMPOST
  1

  9
$DIMAPOST
  1

  9
$DIMALT
 70
     0
  9
$DIMALTD
 70
     2
  9
$DIMALTF
 40
25.4
  9
$DIMLFAC
 40
1.0
  9
$DIMTOFL
 70
     0
  9
$DIMTVP
 40
0.0
  9
$DIMTIX
 70
     0
  9
$DIMSOXD
 70
     0
  9
$DIMSAH
 70
     0
  9
$DIMBLK1
  1

  9
$DIMBLK2
  1

  9
$DIMSTYLE
  2
Standard
  9
$DIMCLRD
 70
     0
  9
$DIMCLRE
 70
     0
  9
$DIMCLRT
 70
     0
  9
$DIMTFAC
 40
1.0
  9
$DIMGAP
 40
0.09
  9
$DIMJUST
 70
     0
  9
$DIMSD1
 70
     0
  9
$DIMSD2
 70
     0
  9
$DIMTOLJ
 70
     1
  9
$DIMTZIN
 70
     0
  9
$DIMALTZ
 70
     0
  9
$DIMALTTZ
 70
     0
  9
$DIMUPT
 70
     0
  9
$DIMDEC
 70
     4
  9
$DIMTDEC
 70
     4
  9
$DIMALTU
 70
     2
  9
$DIMALTTD
 70
     2
  9
$DIMTXSTY
  7
Standard
  9
$DIMAUNIT
 70
     0
  9
$DIMADEC
 70
     0
  9
$DIMALTRND
 40
0.0
  9
$DIMAZIN
 70
     0
  9
$DIMDSEP
 70
    46
  9
$DIMATFIT
 70
     3
  9
$DIMFRAC
 70
     0
  9
$DIMLDRBLK
  1

  9
$DIMLUNIT
 70
     2
  9
$DIMLWD
 70
    -2
  9
$DIMLWE
 70
    -2
  9
$DIMTMOVE
 70
     0
  9
$LUNITS
 70
     2
  9
$LUPREC
 70
     4
  9
$SKETCHINC
 40
0.1
  9
$FILLETRAD
 40
0.5
  9
$AUNITS
 70
     0
  9
$AUPREC
 70
     0
  9
$MENU
  1
.
  9
$ELEVATION
 40
0.0
  9
$PELEVATION
 40
0.0
  9
$THICKNESS
 40
0.0
  9
$LIMCHECK
 70
     0
  9
$CHAMFERA
 40
0.0
  9
$CHAMFERB
 40
0.0
  9
$CHAMFERC
 40
0.0
  9
$CHAMFERD
 40
0.0
  9
$SKPOLY
 70
     0
  9
$TDCREATE
 40
2458949.354606481
  9
$TDUCREATE
 40
2458949.271280764
  9
$TDUPDATE
 40
2458949.386180556
  9
$TDUUPDATE
 40
2458949.302847222
  9
$TDINDWG
 40
0.0044328819
  9
$TDUSRTIMER
 40
0.0044328819
  9
$USRTIMER
 70
     1
  9
$ANGBASE
 50
0.0
  9
$ANGDIR
 70
     0
  9
$PDMODE
 70
     0
  9
$PDSIZE
 40
0.0
  9
$PLINEWID
 40
0.0
  9
$SPLFRAME
 70
     0
  9
$SPLINETYPE
 70
     6
  9
$SPLINESEGS
 70
     8
  9
$HANDSEED
  5
3D6
  9
$SURFTAB1
 70
     6
  9
$SURFTAB2
 70
     6
  9
$SURFTYPE
 70
     6
  9
$SURFU
 70
     6
  9
$SURFV
 70
     6
  9
$UCSBASE
  2

  9
$UCSNAME
  2

  9
$UCSORG
 10
274.404842
 20
288.907994
 30
0.0
  9
$UCSXDIR
 10
1.0
 20
0.0
 30
0.0
  9
$UCSYDIR
 10
0.0
 20
1.0
 30
0.0
  9
$UCSORTHOREF
  2

  9
$UCSORTHOVIEW
 70
     0
  9
$UCSORGTOP
 10
0.0
 20
0.0
 30
0.0
  9
$UCSORGBOTTOM
 10
0.0
 20
0.0
 30
0.0
  9
$UCSORGLEFT
 10
0.0
 20
0.0
 30
0.0
  9
$UCSORGRIGHT
 10
0.0
 20
0.0
 30
0.0
  9
$UCSORGFRONT
 10
0.0
 20
0.0
 30
0.0
  9
$UCSORGBACK
 10
0.0
 20
0.0
 30
0.0
  9
$PUCSBASE
  2

  9
$PUCSNAME
  2

  9
$PUCSORG
 10
0.0
 20
0.0
 30
0.0
  9
$PUCSXDIR
 10
1.0
 20
0.0
 30
0.0
  9
$PUCSYDIR
 10
0.0
 20
1.0
 30
0.0
  9
$PUCSORTHOREF
  2

  9
$PUCSORTHOVIEW
 70
     0
  9
$PUCSORGTOP
 10
0.0
 20
0.0
 30
0.0
  9
$PUCSORGBOTTOM
 10
0.0
 20
0.0
 30
0.0
  9
$PUCSORGLEFT
 10
0.0
 20
0.0
 30
0.0
  9
$PUCSORGRIGHT
 10
0.0
 20
0.0
 30
0.0
  9
$PUCSORGFRONT
 10
0.0
 20
0.0
 30
0.0
  9
$PUCSORGBACK
 10
0.0
 20
0.0
 30
0.0
  9
$USERI1
 70
     0
  9
$USERI2
 70
     0
  9
$USERI3
 70
     0
  9
$USERI4
 70
     0
  9
$USERI5
 70
     0
  9
$USERR1
 40
0.0
  9
$USERR2
 40
0.0
  9
$USERR3
 40
0.0
  9
$USERR4
 40
0.0
  9
$USERR5
 40
0.0
  9
$WORLDVIEW
 70
     1
  9
$SHADEDGE
 70
     3
  9
$SHADEDIF
 70
    70
  9
$TILEMODE
 70
     1
  9
$MAXACTVP
 70
    64
  9
$PINSBASE
 10
0.0
 20
0.0
 30
0.0
  9
$PLIMCHECK
 70
     0
  9
$PEXTMIN
 10
-0.5
 20
-0.5
 30
-0.5
  9
$PEXTMAX
 10
5.0
 20
5.0
 30
5.0
  9
$PLIMMIN
 10
-0.5
 20
-0.5
  9
$PLIMMAX
 10
5.0
 20
5.0
  9
$UNITMODE
 70
     0
  9
$VISRETAIN
 70
     1
  9
$PLINEGEN
 70
     0
  9
$PSLTSCALE
 70
     1
  9
$TREEDEPTH
 70
  3020
  9
$CMLSTYLE
  2
Standard
  9
$CMLJUST
 70
     0
  9
$CMLSCALE
 40
1.0
  9
$PROXYGRAPHICS
 70
     1
  9
$MEASUREMENT
 70
     1
  9
$CELWEIGHT
370
    13
  9
$ENDCAPS
280
     0
  9
$JOINSTYLE
280
     0
  9
$LWDISPLAY
290
     0
  9
$INSUNITS
 70
     4
  9
$HYPERLINKBASE
  1

  9
$STYLESHEET
  1

  9
$XEDIT
290
     1
  9
$CEPSNTYPE
380
     0
  9
$PSTYLEMODE
290
     1
  9
$FINGERPRINTGUID
  2
{F951DA33-690C-4EB8-9061-40A6A1119FB2}
  9
$VERSIONGUID
  2
{4BAAFB36-3B37-7A4B-B00E-7D6B0C9D9FF9}
  9
$EXTNAMES
290
     1
  9
$PSVPSCALE
 40
0.0
  9
$OLESTARTUP
290
     0
  9
$SORTENTS
280
   127
  9
$INDEXCTL
280
     0
  9
$HIDETEXT
280
     1
  9
$XCLIPFRAME
290
     0
  9
$HALOGAP
280
     0
  9
$OBSCOLOR
 70
   257
  9
$OBSLTYPE
280
     0
  9
$INTERSECTIONDISPLAY
280
     0
  9
$INTERSECTIONCOLOR
 70
   257
  9
$DIMASSOC
280
     2
  9
$PROJECTNAME
  1

  0
ENDSEC
  0
SECTION
  2
CLASSES
  0
CLASS
  1
ACDBDICTIONARYWDFLT
  2
AcDbDictionaryWithDefault
  3
ObjectDBX Classes
 90
        0
 91
        1
280
     0
281
     0
  0
CLASS
  1
VISUALSTYLE
  2
AcDbVisualStyle
  3
ObjectDBX Classes
 90
     4095
 91
       24
280
     0
281
     0
  0
CLASS
  1
MATERIAL
  2
AcDbMaterial
  3
ObjectDBX Classes
 90
     1153
 91
        3
280
     0
281
     0
  0
CLASS
  1
SCALE
  2
AcDbScale
  3
ObjectDBX Classes
 90
     1153
 91
       33
280
     0
281
     0
  0
CLASS
  1
TABLESTYLE
  2
AcDbTableStyle
  3
ObjectDBX Classes
 90
     4095
 91
        1
280
     0
281
     0
  0
CLASS
  1
MLEADERSTYLE
  2
AcDbMLeaderStyle
  3
ACDB_MLEADERSTYLE_CLASS
 90
     4095
 91
        1
280
     0
281
     0
  0
CLASS
  1
SUN
  2
AcDbSun
  3
SCENEOE
 90
     1153
 91
        0
280
     0
281
     0
  0
CLASS
  1
DIMASSOC
  2
AcDbDimAssoc
  3
"AcDbDimAssoc|Product Desc:     AcDim ARX App For Dimension|Company:          Autodesk, Inc.|WEB Address:      www.autodesk.com"
 90
        0
 91
        0
280
     0
281
     0
  0
CLASS
  1
DICTIONARYVAR
  2
AcDbDictionaryVar
  3
ObjectDBX Classes
 90
        0
 91
        8
280
     0
281
     0
  0
CLASS
  1
CELLSTYLEMAP
  2
AcDbCellStyleMap
  3
ObjectDBX Classes
 90
     1152
 91
        2
280
     0
281
     0
  0
CLASS
  1
ACDBSECTIONVIEWSTYLE
  2
AcDbSectionViewStyle
  3
ObjectDBX Classes
 90
     1025
 91
        1
280
     0
281
     0
  0
CLASS
  1
ACDBDETAILVIEWSTYLE
  2
AcDbDetailViewStyle
  3
ObjectDBX Classes
 90
     1025
 91
        1
280
     0
281
     0
  0
CLASS
  1
SORTENTSTABLE
  2
AcDbSortentsTable
  3
ObjectDBX Classes
 90
        0
 91
        1
280
     0
281
     0
  0
ENDSEC
  0
SECTION
  2
TABLES
  0
TABLE
  2
VPORT
  5
8
330
0
100
AcDbSymbolTable
 70
    16
  0
VPORT
  5
29
330
8
100
AcDbSymbolTableRecord
100
AcDbViewportTableRecord
  2
*Active
 70
     0
 10
0.0
 20
0.0
 11
1.0
 21
1.0
 12
301.2260140392901
 22
327.2307414786592
 13
0.0
 23
0.0
 14
0.5
 24
0.5
 15
0.5
 25
0.5
 16
0.0
 26
0.0
 36
1.0
 17
0.0
 27
0.0
 37
0.0
 40
273.410666349411
 41
2.283154121863799
 42
50.0
 43
347.155928
 44
-347.155928
 50
0.0
 51
0.0
 71
     0
 72
   100
 73
     1
 74
     3
 75
     0
 76
     0
 77
     0
 78
     0
281
     0
 65
     1
110
274.404842
120
288.907994
130
0.0
111
1.0
121
0.0
131
0.0
112
0.0
122
1.0
132
0.0
 79
     0
146
0.0
1001
ACAD_NAV_VCDISPLAY
1070
     3
  0
VPORT
  5
29C
330
8
100
AcDbSymbolTableRecord
100
AcDbViewportTableRecord
  2
L1
 70
     0
 10
0.0
 20
0.0
 11
1.0
 21
1.0
 12
266.322838
 22
233.598148
 13
0.0
 23
0.0
 14
0.5
 24
0.5
 15
0.5
 25
0.5
 16
0.0
 26
0.0
 36
1.0
 17
0.0
 27
0.0
 37
0.0
 40
207.433333
 41
0.085602
 42
50.0
 43
347.155928
 44
-347.155928
 50
0.0
 51
0.0
 71
     0
 72
   100
 73
     1
 74
     3
 75
     0
 76
     0
 77
     0
 78
     0
281
     0
 65
     1
110
0.0
120
0.0
130
0.0
111
1.0
121
0.0
131
0.0
112
0.0
122
1.0
132
0.0
 79
     0
146
0.0
  0
VPORT
  5
29D
330
8
100
AcDbSymbolTableRecord
100
AcDbViewportTableRecord
  2
L2
 70
     0
 10
0.0
 20
0.0
 11
0.5
 21
1.0
 12
0.0
 22
0.0
 13
0.0
 23
0.0
 14
0.5
 24
0.5
 15
0.5
 25
0.5
 16
0.0
 26
-1.0
 36
0.0
 17
0.0
 27
0.0
 37
0.0
 40
1319.143726
 41
0.013461
 42
50.0
 43
679.601336
 44
-679.601336
 50
0.0
 51
0.0
 71
     0
 72
   100
 73
     1
 74
     3
 75
     0
 76
     0
 77
     0
 78
     0
281
     0
 65
     1
110
0.0
120
0.0
130
0.0
111
1.0
121
0.0
131
0.0
112
0.0
122
1.0
132
0.0
 79
     0
146
0.0
  0
VPORT
  5
29E
330
8
100
AcDbSymbolTableRecord
100
AcDbViewportTableRecord
  2
L2
 70
     0
 10
0.5
 20
0.0
 11
1.0
 21
1.0
 12
0.0
 22
0.0
 13
0.0
 23
0.0
 14
0.5
 24
0.5
 15
0.5
 25
0.5
 16
1.0
 26
0.0
 36
0.0
 17
0.0
 27
0.0
 37
0.0
 40
1319.143726
 41
0.013461
 42
50.0
 43
667.6767099999998
 44
-667.6767099999998
 50
0.0
 51
0.0
 71
     0
 72
   100
 73
     1
 74
     3
 75
     0
 76
     0
 77
     0
 78
     0
281
     0
 65
     1
110
0.0
120
0.0
130
0.0
111
1.0
121
0.0
131
0.0
112
0.0
122
1.0
132
0.0
 79
     0
146
0.0
  0
VPORT
  5
29F
330
8
100
AcDbSymbolTableRecord
100
AcDbViewportTableRecord
  2
L3
 70
     0
 10
0.0
 20
0.5
 11
1.0
 21
1.0
 12
266.322838
 22
233.598148
 13
0.0
 23
0.0
 14
0.5
 24
0.5
 15
0.5
 25
0.5
 16
0.0
 26
0.0
 36
1.0
 17
0.0
 27
0.0
 37
0.0
 40
207.433333
 41
0.085602
 42
50.0
 43
347.155928
 44
-347.155928
 50
0.0
 51
0.0
 71
     0
 72
   100
 73
     1
 74
     3
 75
     0
 76
     0
 77
     0
 78
     0
281
     0
 65
     1
110
0.0
120
0.0
130
0.0
111
1.0
121
0.0
131
0.0
112
0.0
122
1.0
132
0.0
 79
     0
146
0.0
  0
VPORT
  5
2A0
330
8
100
AcDbSymbolTableRecord
100
AcDbViewportTableRecord
  2
L3
 70
     0
 10
0.0
 20
0.0
 11
1.0
 21
0.5
 12
0.0
 22
0.0
 13
0.0
 23
0.0
 14
0.5
 24
0.5
 15
0.5
 25
0.5
 16
0.0
 26
-1.0
 36
0.0
 17
0.0
 27
0.0
 37
0.0
 40
1319.143726
 41
0.013461
 42
50.0
 43
679.601336
 44
-679.601336
 50
0.0
 51
0.0
 71
     0
 72
   100
 73
     1
 74
     3
 75
     0
 76
     0
 77
     0
 78
     0
281
     0
 65
     1
110
0.0
120
0.0
130
0.0
111
1.0
121
0.0
131
0.0
112
0.0
122
1.0
132
0.0
 79
     0
146
0.0
  0
VPORT
  5
2A1
330
8
100
AcDbSymbolTableRecord
100
AcDbViewportTableRecord
  2
L4
 70
     0
 10
0.0
 20
0.5
 11
0.5
 21
1.0
 12
266.322838
 22
233.598148
 13
0.0
 23
0.0
 14
0.5
 24
0.5
 15
0.5
 25
0.5
 16
0.0
 26
0.0
 36
1.0
 17
0.0
 27
0.0
 37
0.0
 40
207.433333
 41
0.085602
 42
50.0
 43
347.155928
 44
-347.155928
 50
0.0
 51
0.0
 71
     0
 72
   100
 73
     1
 74
     3
 75
     0
 76
     0
 77
     0
 78
     0
281
     0
 65
     1
110
0.0
120
0.0
130
0.0
111
1.0
121
0.0
131
0.0
112
0.0
122
1.0
132
0.0
 79
     0
146
0.0
  0
VPORT
  5
2A2
330
8
100
AcDbSymbolTableRecord
100
AcDbViewportTableRecord
  2
L4
 70
     0
 10
0.0
 20
0.0
 11
0.5
 21
0.5
 12
0.0
 22
0.0
 13
0.0
 23
0.0
 14
0.5
 24
0.5
 15
0.5
 25
0.5
 16
0.0
 26
-1.0
 36
0.0
 17
0.0
 27
0.0
 37
0.0
 40
1319.143726
 41
0.013461
 42
50.0
 43
679.601336
 44
-679.601336
 50
0.0
 51
0.0
 71
     0
 72
   100
 73
     1
 74
     3
 75
     0
 76
     0
 77
     0
 78
     0
281
     0
 65
     1
110
0.0
120
0.0
130
0.0
111
1.0
121
0.0
131
0.0
112
0.0
122
1.0
132
0.0
 79
     0
146
0.0
  0
VPORT
  5
2A3
330
8
100
AcDbSymbolTableRecord
100
AcDbViewportTableRecord
  2
L4
 70
     0
 10
0.5
 20
0.0
 11
1.0
 21
0.5
 12
0.0
 22
0.0
 13
0.0
 23
0.0
 14
0.5
 24
0.5
 15
0.5
 25
0.5
 16
1.0
 26
0.0
 36
0.0
 17
0.0
 27
0.0
 37
0.0
 40
1319.143726
 41
0.013461
 42
50.0
 43
667.6767099999998
 44
-667.6767099999998
 50
0.0
 51
0.0
 71
     0
 72
   100
 73
     1
 74
     3
 75
     0
 76
     0
 77
     0
 78
     0
281
     0
 65
     1
110
0.0
120
0.0
130
0.0
111
1.0
121
0.0
131
0.0
112
0.0
122
1.0
132
0.0
 79
     0
146
0.0
  0
VPORT
  5
2A4
330
8
100
AcDbSymbolTableRecord
100
AcDbViewportTableRecord
  2
L4
 70
     0
 10
0.5
 20
0.5
 11
1.0
 21
1.0
 12
0.0
 22
0.0
 13
0.0
 23
0.0
 14
0.5
 24
0.5
 15
0.5
 25
0.5
 16
0.577350269189626
 26
-0.577350269189626
 36
0.577350269189626
 17
0.0
 27
0.0
 37
0.0
 40
1295.484074
 41
0.013707
 42
50.0
 43
674.79345
 44
-674.79345
 50
0.0
 51
0.0
 71
     0
 72
   100
 73
     1
 74
     3
 75
     0
 76
     0
 77
     0
 78
     0
281
     0
 65
     1
110
0.0
120
0.0
130
0.0
111
1.0
121
0.0
131
0.0
112
0.0
122
1.0
132
0.0
 79
     0
146
0.0
  0
VPORT
  5
2A5
330
8
100
AcDbSymbolTableRecord
100
AcDbViewportTableRecord
  2
L6
 70
     0
 10
0.0
 20
0.5
 11
0.333333
 21
1.0
 12
0.0
 22
0.0
 13
0.0
 23
0.0
 14
0.5
 24
0.5
 15
0.5
 25
0.5
 16
0.7188730927569435
 26
-0.5850486126764433
 36
0.3754192287502549
 17
0.0
 27
0.0
 37
0.0
 40
1367.187154
 41
0.012988
 42
50.0
 43
707.8776949999999
 44
-707.8776949999999
 50
0.0
 51
0.0
 71
     0
 72
   100
 73
     1
 74
     3
 75
     0
 76
     0
 77
     0
 78
     0
281
     0
 65
     1
110
0.0
120
0.0
130
0.0
111
1.0
121
0.0
131
0.0
112
0.0
122
1.0
132
0.0
 79
     0
146
0.0
  0
VPORT
  5
2A6
330
8
100
AcDbSymbolTableRecord
100
AcDbViewportTableRecord
  2
L6
 70
     0
 10
0.0
 20
0.0
 11
0.333333
 21
0.5
 12
0.0
 22
0.0
 13
0.0
 23
0.0
 14
0.5
 24
0.5
 15
0.5
 25
0.5
 16
-1.0
 26
0.0
 36
0.0
 17
0.0
 27
0.0
 37
0.0
 40
1319.143726
 41
0.013461
 42
50.0
 43
667.6767099999998
 44
-667.6767099999998
 50
0.0
 51
0.0
 71
     0
 72
   100
 73
     1
 74
     3
 75
     0
 76
     0
 77
     0
 78
     0
281
     0
 65
     1
110
0.0
120
0.0
130
0.0
111
1.0
121
0.0
131
0.0
112
0.0
122
1.0
132
0.0
 79
     0
146
0.0
  0
VPORT
  5
2A7
330
8
100
AcDbSymbolTableRecord
100
AcDbViewportTableRecord
  2
L6
 70
     0
 10
0.333333
 20
0.5
 11
0.666667
 21
1.0
 12
266.322838
 22
233.598148
 13
0.0
 23
0.0
 14
0.5
 24
0.5
 15
0.5
 25
0.5
 16
0.0
 26
0.0
 36
1.0
 17
0.0
 27
0.0
 37
0.0
 40
207.433333
 41
0.085602
 42
50.0
 43
347.155928
 44
-347.155928
 50
0.0
 51
0.0
 71
     0
 72
   100
 73
     1
 74
     3
 75
     0
 76
     0
 77
     0
 78
     0
281
     0
 65
     1
110
0.0
120
0.0
130
0.0
111
1.0
121
0.0
131
0.0
112
0.0
122
1.0
132
0.0
 79
     0
146
0.0
  0
VPORT
  5
2A8
330
8
100
AcDbSymbolTableRecord
100
AcDbViewportTableRecord
  2
L6
 70
     0
 10
0.333333
 20
0.0
 11
0.666667
 21
0.5
 12
0.0
 22
0.0
 13
0.0
 23
0.0
 14
0.5
 24
0.5
 15
0.5
 25
0.5
 16
0.0
 26
-1.0
 36
0.0
 17
0.0
 27
0.0
 37
0.0
 40
1319.143726
 41
0.013461
 42
50.0
 43
679.601336
 44
-679.601336
 50
0.0
 51
0.0
 71
     0
 72
   100
 73
     1
 74
     3
 75
     0
 76
     0
 77
     0
 78
     0
281
     0
 65
     1
110
0.0
120
0.0
130
0.0
111
1.0
121
0.0
131
0.0
112
0.0
122
1.0
132
0.0
 79
     0
146
0.0
  0
VPORT
  5
2A9
330
8
100
AcDbSymbolTableRecord
100
AcDbViewportTableRecord
  2
L6
 70
     0
 10
0.666667
 20
0.5
 11
1.0
 21
1.0
 12
0.0
 22
0.0
 13
0.0
 23
0.0
 14
0.5
 24
0.5
 15
0.5
 25
0.5
 16
0.577350269189626
 26
-0.577350269189626
 36
0.577350269189626
 17
0.0
 27
0.0
 37
0.0
 40
1295.484074
 41
0.013707
 42
50.0
 43
674.79345
 44
-674.79345
 50
0.0
 51
0.0
 71
     0
 72
   100
 73
     1
 74
     3
 75
     0
 76
     0
 77
     0
 78
     0
281
     0
 65
     1
110
0.0
120
0.0
130
0.0
111
1.0
121
0.0
131
0.0
112
0.0
122
1.0
132
0.0
 79
     0
146
0.0
  0
VPORT
  5
2AA
330
8
100
AcDbSymbolTableRecord
100
AcDbViewportTableRecord
  2
L6
 70
     0
 10
0.666667
 20
0.0
 11
1.0
 21
0.5
 12
0.0
 22
0.0
 13
0.0
 23
0.0
 14
0.5
 24
0.5
 15
0.5
 25
0.5
 16
1.0
 26
0.0
 36
0.0
 17
0.0
 27
0.0
 37
0.0
 40
1319.143726
 41
0.013461
 42
50.0
 43
667.6767099999998
 44
-667.6767099999998
 50
0.0
 51
0.0
 71
     0
 72
   100
 73
     1
 74
     3
 75
     0
 76
     0
 77
     0
 78
     0
281
     0
 65
     1
110
0.0
120
0.0
130
0.0
111
1.0
121
0.0
131
0.0
112
0.0
122
1.0
132
0.0
 79
     0
146
0.0
  0
ENDTAB
  0
TABLE
  2
LTYPE
  5
5
330
0
100
AcDbSymbolTable
 70
     8
  0
LTYPE
  5
14
330
5
100
AcDbSymbolTableRecord
100
AcDbLinetypeTableRecord
  2
ByBlock
 70
     0
  3

 72
    65
 73
     0
 40
0.0
  0
LTYPE
  5
15
330
5
100
AcDbSymbolTableRecord
100
AcDbLinetypeTableRecord
  2
ByLayer
 70
     0
  3

 72
    65
 73
     0
 40
0.0
  0
LTYPE
  5
16
330
5
100
AcDbSymbolTableRecord
100
AcDbLinetypeTableRecord
  2
Continuous
 70
     0
  3
Solid line
 72
    65
 73
     0
 40
0.0
  0
LTYPE
  5
6E
330
5
100
AcDbSymbolTableRecord
100
AcDbLinetypeTableRecord
  2
CENTER
 70
     0
  3
____ _ ____ _ ____ _ ____
 72
    65
 73
     4
 40
47.4
 49
22.0
 74
     4
 75
     0
340
0
 46
0.0
 50
0.0
 44
0.0
 45
0.0
 49
-8.5
 74
     4
 75
     0
340
0
 46
0.0
 50
0.0
 44
0.0
 45
0.0
 49
8.5
 74
     4
 75
     0
340
0
 46
0.0
 50
0.0
 44
0.0
 45
0.0
 49
-8.5
 74
     4
 75
     0
340
0
 46
0.0
 50
0.0
 44
0.0
 45
0.0
  0
LTYPE
  5
6F
330
5
100
AcDbSymbolTableRecord
100
AcDbLinetypeTableRecord
  2
DASHDOT
 70
     0
  3
_._._._._._._._._._._._._._._._.
 72
    65
 73
     4
 40
70.0
 49
31.0
 74
     4
 75
     0
340
0
 46
0.0
 50
0.0
 44
0.0
 45
0.0
 49
-13.0
 74
     4
 75
     0
340
0
 46
0.0
 50
0.0
 44
0.0
 45
0.0
 49
13.0
 74
     4
 75
     0
340
0
 46
0.0
 50
0.0
 44
0.0
 45
0.0
 49
-13.0
 74
     4
 75
     0
340
0
 46
0.0
 50
0.0
 44
0.0
 45
0.0
  0
LTYPE
  5
70
330
5
100
AcDbSymbolTableRecord
100
AcDbLinetypeTableRecord
  2
DASHED
 70
     0
  3
__ __ __ __ __ __ __ __ __
 72
    65
 73
     2
 40
25.72
 49
12.86
 74
     4
 75
     0
340
0
 46
0.0
 50
0.0
 44
0.0
 45
0.0
 49
-12.86
 74
     4
 75
     0
340
0
 46
0.0
 50
0.0
 44
0.0
 45
0.0
  0
LTYPE
  5
71
330
5
100
AcDbSymbolTableRecord
100
AcDbLinetypeTableRecord
  2
DOT
 70
     0
  3
.........................
 72
    65
 73
     2
 40
10.0
 49
0.0
 74
     4
 75
     0
340
0
 46
0.0
 50
0.0
 44
0.0
 45
0.0
 49
-10.0
 74
     4
 75
     0
340
0
 46
0.0
 50
0.0
 44
0.0
 45
0.0
  0
LTYPE
  5
72
330
5
100
AcDbSymbolTableRecord
100
AcDbLinetypeTableRecord
  2
PHANTOM
 70
     0
  3
____ _ _ ____ _ _ _____ _ _ ____
 72
    65
 73
     6
 40
50.5
 49
18.0
 74
     4
 75
     0
340
0
 46
0.0
 50
0.0
 44
0.0
 45
0.0
 49
-6.5
 74
     4
 75
     0
340
0
 46
0.0
 50
0.0
 44
0.0
 45
0.0
 49
6.5
 74
     4
 75
     0
340
0
 46
0.0
 50
0.0
 44
0.0
 45
0.0
 49
-6.5
 74
     4
 75
     0
340
0
 46
0.0
 50
0.0
 44
0.0
 45
0.0
 49
6.5
 74
     4
 75
     0
340
0
 46
0.0
 50
0.0
 44
0.0
 45
0.0
 49
-6.5
 74
     4
 75
     0
340
0
 46
0.0
 50
0.0
 44
0.0
 45
0.0
  0
LTYPE
  5
33A
330
5
100
AcDbSymbolTableRecord
100
AcDbLinetypeTableRecord
  2
CENTER2
 70
     0
  3
Center (.5x) ___ _ ___ _ ___ _ ___ _ ___ _ ___
 72
    65
 73
     4
 40
1.125
 49
0.75
 74
     0
 49
-0.125
 74
     0
 49
0.125
 74
     0
 49
-0.125
 74
     0
  0
ENDTAB
  0
TABLE
  2
LAYER
  5
2
330
0
100
AcDbSymbolTable
 70
    13
  0
LAYER
  5
10
102
{ACAD_XDICTIONARY
360
345
102
}
330
2
100
AcDbSymbolTableRecord
100
AcDbLayerTableRecord
  2
0
 70
     0
 62
     7
  6
Continuous
370
    -3
390
F
  0
LAYER
  5
1F6
330
2
100
AcDbSymbolTableRecord
100
AcDbLayerTableRecord
  2
Defpoints
 70
     0
 62
     7
  6
Continuous
290
     0
370
    -3
390
F
  0
LAYER
  5
337
102
{ACAD_XDICTIONARY
360
347
102
}
330
2
100
AcDbSymbolTableRecord
100
AcDbLayerTableRecord
  2
1
 70
     0
 62
     4
  6
Continuous
370
    -3
390
F
  0
LAYER
  5
338
102
{ACAD_XDICTIONARY
360
349
102
}
330
2
100
AcDbSymbolTableRecord
100
AcDbLayerTableRecord
  2
2
 70
     0
 62
     7
  6
Continuous
370
    -3
390
F
  0
LAYER
  5
339
102
{ACAD_XDICTIONARY
360
34B
102
}
330
2
100
AcDbSymbolTableRecord
100
AcDbLayerTableRecord
  2
4
 70
     0
 62
     2
  6
CENTER2
370
    -3
390
F
  0
LAYER
  5
33B
102
{ACAD_XDICTIONARY
360
34D
102
}
330
2
100
AcDbSymbolTableRecord
100
AcDbLayerTableRecord
  2
SK1
 70
     0
 62
     4
  6
Continuous
370
    -3
390
F
  0
LAYER
  5
33C
102
{ACAD_XDICTIONARY
360
34F
102
}
330
2
100
AcDbSymbolTableRecord
100
AcDbLayerTableRecord
  2
SK2
 70
     0
 62
     7
  6
Continuous
370
    -3
390
F
  0
LAYER
  5
33E
102
{ACAD_XDICTIONARY
360
351
102
}
330
2
100
AcDbSymbolTableRecord
100
AcDbLayerTableRecord
  2
SK4
 70
     0
 62
     2
  6
CENTER2
370
    -3
390
F
  0
LAYER
  5
33F
102
{ACAD_XDICTIONARY
360
353
102
}
330
2
100
AcDbSymbolTableRecord
100
AcDbLayerTableRecord
  2
SK6
 70
     0
 62
     5
  6
Continuous
370
    -3
390
F
  0
LAYER
  5
340
102
{ACAD_XDICTIONARY
360
355
102
}
330
2
100
AcDbSymbolTableRecord
100
AcDbLayerTableRecord
  2
CUT
 70
     0
 62
     1
  6
Continuous
370
    -3
390
F
  0
LAYER
  5
341
102
{ACAD_XDICTIONARY
360
357
102
}
330
2
100
AcDbSymbolTableRecord
100
AcDbLayerTableRecord
  2
NOCUT
 70
     0
 62
     7
  6
Continuous
370
    -3
390
F
  0
LAYER
  5
342
102
{ACAD_XDICTIONARY
360
359
102
}
330
2
100
AcDbSymbolTableRecord
100
AcDbLayerTableRecord
  2
80
 70
     0
 62
     6
  6
Continuous
370
    -3
390
F
  0
LAYER
  5
343
102
{ACAD_XDICTIONARY
360
35B
102
}
330
2
100
AcDbSymbolTableRecord
100
AcDbLayerTableRecord
  2
81
 70
     0
 62
     3
  6
Continuous
370
    -3
390
F
  0
ENDTAB
  0
TABLE
  2
STYLE
  5
3
330
0
100
AcDbSymbolTable
 70
     3
  0
STYLE
  5
11
330
3
100
AcDbSymbolTableRecord
100
AcDbTextStyleTableRecord
  2
Standard
 70
     0
 40
0.0
 41
1.0
 50
0.0
 71
     0
 42
0.2
  3
txt
  4

  0
STYLE
  5
1EA
330
3
100
AcDbSymbolTableRecord
100
AcDbTextStyleTableRecord
  2
cesky
 70
     0
 40
0.0
 41
1.0
 50
0.0
 71
     0
 42
0.2
  3
simplex.shx
  4

  0
STYLE
  5
1EB
330
3
100
AcDbSymbolTableRecord
100
AcDbTextStyleTableRecord
  2
DWGDirectTextStyle
 70
     0
 40
0.0
 41
1.0
 50
0.0
 71
     0
 42
0.2
  3
simplex
  4

  0
ENDTAB
  0
TABLE
  2
VIEW
  5
6
330
0
100
AcDbSymbolTable
 70
     0
  0
ENDTAB
  0
TABLE
  2
UCS
  5
7
330
0
100
AcDbSymbolTable
 70
     0
  0
ENDTAB
  0
TABLE
  2
APPID
  5
9
330
0
100
AcDbSymbolTable
 70
     8
  0
APPID
  5
12
330
9
100
AcDbSymbolTableRecord
100
AcDbRegAppTableRecord
  2
ACAD
 70
     0
  0
APPID
  5
1F2
330
9
100
AcDbSymbolTableRecord
100
AcDbRegAppTableRecord
  2
ACAD_DSTYLE_DIMBREAK
 70
     0
  0
APPID
  5
2AB
330
9
100
AcDbSymbolTableRecord
100
AcDbRegAppTableRecord
  2
ACAD_DSTYLE_DIM_LINETYPE
 70
     0
  0
APPID
  5
2AC
330
9
100
AcDbSymbolTableRecord
100
AcDbRegAppTableRecord
  2
ACAD_DSTYLE_DIM_EXT1_LINETYPE
 70
     0
  0
APPID
  5
2AD
330
9
100
AcDbSymbolTableRecord
100
AcDbRegAppTableRecord
  2
ACAD_DSTYLE_DIM_EXT2_LINETYPE
 70
     0
  0
APPID
  5
2ED
330
9
100
AcDbSymbolTableRecord
100
AcDbRegAppTableRecord
  2
ACAD_MLEADERVER
 70
     0
  0
APPID
  5
360
330
9
100
AcDbSymbolTableRecord
100
AcDbRegAppTableRecord
  2
ACAD_NAV_VCDISPLAY
 70
     0
  0
APPID
  5
39C
330
9
100
AcDbSymbolTableRecord
100
AcDbRegAppTableRecord
  2
ACAD_EXEMPT_FROM_CAD_STANDARDS
 70
     0
  0
ENDTAB
  0
TABLE
  2
DIMSTYLE
  5
A
330
0
100
AcDbSymbolTable
 70
     1
100
AcDbDimStyleTable
 71
     0
  0
DIMSTYLE
105
27
330
A
100
AcDbSymbolTableRecord
100
AcDbDimStyleTableRecord
  2
Standard
 70
     0
340
11
1001
ACAD_DSTYLE_DIMBREAK
1070
   391
1040
6.349999999999998
  0
ENDTAB
  0
TABLE
  2
BLOCK_RECORD
  5
1
330
0
100
AcDbSymbolTable
 70
    16
  0
BLOCK_RECORD
  5
1F
102
{ACAD_XDICTIONARY
360
2FD
102
}
330
1
100
AcDbSymbolTableRecord
100
AcDbBlockTableRecord
  2
*Model_Space
340
22
  0
BLOCK_RECORD
  5
1B
330
1
100
AcDbSymbolTableRecord
100
AcDbBlockTableRecord
  2
*Paper_Space
340
1E
  0
BLOCK_RECORD
  5
23
330
1
100
AcDbSymbolTableRecord
100
AcDbBlockTableRecord
  2
*Paper_Space0
340
26
  0
BLOCK_RECORD
  5
1ED
330
1
100
AcDbSymbolTableRecord
100
AcDbBlockTableRecord
  2
ASSORTED_DRAFT1
340
0
  0
BLOCK_RECORD
  5
1F7
330
1
100
AcDbSymbolTableRecord
100
AcDbBlockTableRecord
  2
*D2
340
0
  0
BLOCK_RECORD
  5
203
330
1
100
AcDbSymbolTableRecord
100
AcDbBlockTableRecord
  2
_U0
340
0
  0
BLOCK_RECORD
  5
20F
330
1
100
AcDbSymbolTableRecord
100
AcDbBlockTableRecord
  2
*D4
340
0
  0
BLOCK_RECORD
  5
21A
330
1
100
AcDbSymbolTableRecord
100
AcDbBlockTableRecord
  2
_U1
340
0
  0
BLOCK_RECORD
  5
225
330
1
100
AcDbSymbolTableRecord
100
AcDbBlockTableRecord
  2
*D6
340
0
  0
BLOCK_RECORD
  5
231
330
1
100
AcDbSymbolTableRecord
100
AcDbBlockTableRecord
  2
_U2
340
0
  0
BLOCK_RECORD
  5
23E
330
1
100
AcDbSymbolTableRecord
100
AcDbBlockTableRecord
  2
*D8
340
0
  0
BLOCK_RECORD
  5
24A
330
1
100
AcDbSymbolTableRecord
100
AcDbBlockTableRecord
  2
_U3
340
0
  0
BLOCK_RECORD
  5
257
330
1
100
AcDbSymbolTableRecord
100
AcDbBlockTableRecord
  2
*D10
340
0
  0
BLOCK_RECORD
  5
263
330
1
100
AcDbSymbolTableRecord
100
AcDbBlockTableRecord
  2
_U4
340
0
  0
BLOCK_RECORD
  5
26F
330
1
100
AcDbSymbolTableRecord
100
AcDbBlockTableRecord
  2
*D12
340
0
  0
BLOCK_RECORD
  5
27B
330
1
100
AcDbSymbolTableRecord
100
AcDbBlockTableRecord
  2
_U5
340
0
  0
BLOCK_RECORD
  5
287
330
1
100
AcDbSymbolTableRecord
100
AcDbBlockTableRecord
  2
*D14
340
0
  0
BLOCK_RECORD
  5
293
330
1
100
AcDbSymbolTableRecord
100
AcDbBlockTableRecord
  2
_U6
340
0
  0
ENDTAB
  0
ENDSEC
  0
SECTION
  2
BLOCKS
  0
BLOCK
  5
20
330
1F
100
AcDbEntity
  8
0
100
AcDbBlockBegin
  2
*Model_Space
 70
     0
 10
0.0
 20
0.0
 30
0.0
  3
*Model_Space
  1

  0
ENDBLK
  5
21
330
1F
100
AcDbEntity
  8
0
100
AcDbBlockEnd
  0
BLOCK
  5
1C
330
1B
100
AcDbEntity
 67
     1
  8
0
100
AcDbBlockBegin
  2
*Paper_Space
 70
     0
 10
0.0
 20
0.0
 30
0.0
  3
*Paper_Space
  1

  0
ENDBLK
  5
1D
330
1B
100
AcDbEntity
 67
     1
  8
0
100
AcDbBlockEnd
  0
BLOCK
  5
24
330
23
100
AcDbEntity
 67
     1
  8
0
100
AcDbBlockBegin
  2
*Paper_Space0
 70
     0
 10
0.0
 20
0.0
 30
0.0
  3
*Paper_Space0
  1

  0
ENDBLK
  5
25
330
23
100
AcDbEntity
 67
     1
  8
0
100
AcDbBlockEnd
  0
BLOCK
  5
1F0
330
1ED
100
AcDbEntity
  8
0
100
AcDbBlockBegin
  2
ASSORTED_DRAFT1
 70
     0
 10
0.0
 20
0.0
 30
0.0
  3
ASSORTED_DRAFT1
  1

  0
SOLID
  5
1EE
330
1ED
100
AcDbEntity
  8
0
 62
   254
370
    13
100
AcDbTrace
 10
270.185042
 20
161.488528
 30
0.0
 11
265.185046
 21
160.380055
 31
0.0
 12
265.1850379999999
 22
162.597002
 32
0.0
 13
270.185042
 23
161.488528
 33
0.0
  0
ENDBLK
  5
1F1
330
1ED
100
AcDbEntity
  8
0
100
AcDbBlockEnd
  0
BLOCK
  5
1F8
330
1F7
100
AcDbEntity
  8
0
100
AcDbBlockBegin
  2
*D2
 70
     1
 10
0.0
 20
0.0
 30
0.0
  3
*D2
  1

  0
LINE
  5
1FA
330
1F7
100
AcDbEntity
  8
0
 62
   254
370
    -2
100
AcDbLine
 10
331.404842
 20
296.907994
 30
0.0
 11
331.404842
 21
328.5109970000001
 31
0.0
  0
LINE
  5
1FB
330
1F7
100
AcDbEntity
  8
0
 62
   254
370
    -2
100
AcDbLine
 10
274.404842
 20
288.907994
 30
0.0
 11
274.404842
 21
328.5109970000001
 31
0.0
  0
LINE
  5
1FC
330
1F7
100
AcDbEntity
  8
0
 62
   254
370
    -2
100
AcDbLine
 10
327.904842
 20
327.510997
 30
0.0
 11
277.904842
 21
327.510997
 31
0.0
  0
SOLID
  5
1FD
330
1F7
100
AcDbEntity
  8
0
 62
   254
100
AcDbTrace
 10
327.904842
 20
326.927663
 30
0.0
 11
327.904842
 21
328.09433
 31
0.0
 12
331.404842
 22
327.510997
 32
0.0
 13
331.404842
 23
327.510997
 33
0.0
  0
SOLID
  5
1FE
330
1F7
100
AcDbEntity
  8
0
 62
   254
100
AcDbTrace
 10
277.904842
 20
328.09433
 30
0.0
 11
277.904842
 21
326.927663
 31
0.0
 12
274.404842
 22
327.510997
 32
0.0
 13
274.404842
 23
327.510997
 33
0.0
  0
MTEXT
  5
1FF
330
1F7
100
AcDbEntity
  8
0
 62
   254
370
    13
100
AcDbMText
 10
302.904842
 20
332.7609970000001
 30
0.0
 40
3.5
 41
0.0
 71
     5
 72
     1
  1
\A1;57
  7
cesky
 73
     1
 44
1.0
  0
POINT
  5
200
330
1F7
100
AcDbEntity
  8
Defpoints
 62
     0
100
AcDbPoint
 10
331.404842
 20
296.907994
 30
0.0
  0
POINT
  5
201
330
1F7
100
AcDbEntity
  8
Defpoints
 62
     0
100
AcDbPoint
 10
274.404842
 20
288.907994
 30
0.0
  0
POINT
  5
202
330
1F7
100
AcDbEntity
  8
Defpoints
 62
     0
100
AcDbPoint
 10
274.404842
 20
327.510997
 30
0.0
  0
ENDBLK
  5
1F9
330
1F7
100
AcDbEntity
  8
0
100
AcDbBlockEnd
  0
BLOCK
  5
20A
330
203
100
AcDbEntity
  8
0
100
AcDbBlockBegin
  2
_U0
 70
     0
 10
0.0
 20
0.0
 30
0.0
  3
_U0
  1

  0
ENDBLK
  5
20B
330
203
100
AcDbEntity
  8
0
100
AcDbBlockEnd
  0
BLOCK
  5
210
330
20F
100
AcDbEntity
  8
0
100
AcDbBlockBegin
  2
*D4
 70
     1
 10
0.0
 20
0.0
 30
0.0
  3
*D4
  1

  0
LINE
  5
212
330
20F
100
AcDbEntity
  8
0
 62
   254
370
    -2
100
AcDbLine
 10
294.789618
 20
288.907994
 30
0.0
 11
347.220192
 21
288.907994
 31
0.0
  0
LINE
  5
213
330
20F
100
AcDbEntity
  8
0
 62
   254
370
    -2
100
AcDbLine
 10
330.83929
 20
296.907994
 30
0.0
 11
347.220192
 21
296.907994
 31
0.0
  0
LINE
  5
214
330
20F
100
AcDbEntity
  8
0
 62
   254
370
    -2
100
AcDbLine
 10
346.220192
 20
300.407994
 30
0.0
 11
346.220192
 21
303.907994
 31
0.0
  0
SOLID
  5
215
330
20F
100
AcDbEntity
  8
0
 62
   254
100
AcDbTrace
 10
345.636859
 20
300.407994
 30
0.0
 11
346.803526
 21
300.407994
 31
0.0
 12
346.220192
 22
296.907994
 32
0.0
 13
346.220192
 23
296.907994
 33
0.0
  0
MTEXT
  5
216
330
20F
100
AcDbEntity
  8
0
 62
   254
370
    13
100
AcDbMText
 10
340.970192
 20
275.991327
 30
0.0
 40
3.5
 41
0.0
 71
     5
 72
     1
  1
\A1;16
  7
cesky
 11
0.0
 21
1.0
 31
0.0
 73
     1
 44
1.0
  0
POINT
  5
217
330
20F
100
AcDbEntity
  8
Defpoints
 62
     0
100
AcDbPoint
 10
294.789618
 20
288.907994
 30
0.0
  0
POINT
  5
218
330
20F
100
AcDbEntity
  8
Defpoints
 62
     0
100
AcDbPoint
 10
330.83929
 20
296.907994
 30
0.0
  0
POINT
  5
219
330
20F
100
AcDbEntity
  8
Defpoints
 62
     0
100
AcDbPoint
 10
346.220192
 20
296.907994
 30
0.0
  0
ENDBLK
  5
211
330
20F
100
AcDbEntity
  8
0
100
AcDbBlockEnd
  0
BLOCK
  5
220
330
21A
100
AcDbEntity
  8
0
100
AcDbBlockBegin
  2
_U1
 70
     0
 10
0.0
 20
0.0
 30
0.0
  3
_U1
  1

  0
ENDBLK
  5
221
330
21A
100
AcDbEntity
  8
0
100
AcDbBlockEnd
  0
BLOCK
  5
226
330
225
100
AcDbEntity
  8
0
100
AcDbBlockBegin
  2
*D6
 70
     1
 10
0.0
 20
0.0
 30
0.0
  3
*D6
  1

  0
LINE
  5
228
330
225
100
AcDbEntity
  8
0
 62
    95
370
    -2
100
AcDbLine
 10
220.404842
 20
301.407994
 30
0.0
 11
203.427812
 21
301.407994
 31
0.0
  0
LINE
  5
229
330
225
100
AcDbEntity
  8
0
 62
    95
370
    -2
100
AcDbLine
 10
220.404842
 20
276.407994
 30
0.0
 11
203.427812
 21
276.407994
 31
0.0
  0
LINE
  5
22A
330
225
100
AcDbEntity
  8
0
 62
    95
370
    -2
100
AcDbLine
 10
204.427812
 20
297.907994
 30
0.0
 11
204.427812
 21
279.907994
 31
0.0
  0
SOLID
  5
22B
330
225
100
AcDbEntity
  8
0
 62
    95
100
AcDbTrace
 10
205.011145
 20
297.907994
 30
0.0
 11
203.844479
 21
297.907994
 31
0.0
 12
204.427812
 22
301.407994
 32
0.0
 13
204.427812
 23
301.407994
 33
0.0
  0
SOLID
  5
22C
330
225
100
AcDbEntity
  8
0
 62
    95
100
AcDbTrace
 10
203.844479
 20
279.907994
 30
0.0
 11
205.011145
 21
279.907994
 31
0.0
 12
204.427812
 22
276.407994
 32
0.0
 13
204.427812
 23
276.407994
 33
0.0
  0
MTEXT
  5
22D
330
225
100
AcDbEntity
  8
0
 62
    95
370
    13
100
AcDbMText
 10
199.177812
 20
288.907994
 30
0.0
 40
3.5
 41
0.0
 71
     5
 72
     1
  1
\A1;25
  7
cesky
 11
0.0
 21
1.0
 31
0.0
 73
     1
 44
1.0
  0
POINT
  5
22E
330
225
100
AcDbEntity
  8
Defpoints
 62
     0
100
AcDbPoint
 10
220.404842
 20
301.407994
 30
0.0
  0
POINT
  5
22F
330
225
100
AcDbEntity
  8
Defpoints
 62
     0
100
AcDbPoint
 10
220.404842
 20
276.407994
 30
0.0
  0
POINT
  5
230
330
225
100
AcDbEntity
  8
Defpoints
 62
     0
100
AcDbPoint
 10
204.427812
 20
276.407994
 30
0.0
  0
ENDBLK
  5
227
330
225
100
AcDbEntity
  8
0
100
AcDbBlockEnd
  0
BLOCK
  5
239
330
231
100
AcDbEntity
  8
0
100
AcDbBlockBegin
  2
_U2
 70
     0
 10
0.0
 20
0.0
 30
0.0
  3
_U2
  1

  0
ENDBLK
  5
23A
330
231
100
AcDbEntity
  8
0
100
AcDbBlockEnd
  0
BLOCK
  5
23F
330
23E
100
AcDbEntity
  8
0
100
AcDbBlockBegin
  2
*D8
 70
     1
 10
0.0
 20
0.0
 30
0.0
  3
*D8
  1

  0
LINE
  5
241
330
23E
100
AcDbEntity
  8
0
 62
    95
370
    -2
100
AcDbLine
 10
277.154842
 20
306.407994
 30
0.0
 11
190.287987
 21
306.407994
 31
0.0
  0
LINE
  5
242
330
23E
100
AcDbEntity
  8
0
 62
    95
370
    -2
100
AcDbLine
 10
277.154842
 20
271.407994
 30
0.0
 11
190.287987
 21
271.407994
 31
0.0
  0
LINE
  5
243
330
23E
100
AcDbEntity
  8
0
 62
    95
370
    -2
100
AcDbLine
 10
191.287987
 20
302.907994
 30
0.0
 11
191.287987
 21
274.907994
 31
0.0
  0
SOLID
  5
244
330
23E
100
AcDbEntity
  8
0
 62
    95
100
AcDbTrace
 10
191.87132
 20
302.907994
 30
0.0
 11
190.704653
 21
302.907994
 31
0.0
 12
191.287987
 22
306.407994
 32
0.0
 13
191.287987
 23
306.407994
 33
0.0
  0
SOLID
  5
245
330
23E
100
AcDbEntity
  8
0
 62
    95
100
AcDbTrace
 10
190.704653
 20
274.907994
 30
0.0
 11
191.87132
 21
274.907994
 31
0.0
 12
191.287987
 22
271.407994
 32
0.0
 13
191.287987
 23
271.407994
 33
0.0
  0
MTEXT
  5
246
330
23E
100
AcDbEntity
  8
0
 62
    95
370
    13
100
AcDbMText
 10
186.037987
 20
288.907994
 30
0.0
 40
3.5
 41
0.0
 71
     5
 72
     1
  1
\A1;35
  7
cesky
 11
0.0
 21
1.0
 31
0.0
 73
     1
 44
1.0
  0
POINT
  5
247
330
23E
100
AcDbEntity
  8
Defpoints
 62
     0
100
AcDbPoint
 10
277.154842
 20
306.407994
 30
0.0
  0
POINT
  5
248
330
23E
100
AcDbEntity
  8
Defpoints
 62
     0
100
AcDbPoint
 10
277.154842
 20
271.407994
 30
0.0
  0
POINT
  5
249
330
23E
100
AcDbEntity
  8
Defpoints
 62
     0
100
AcDbPoint
 10
191.287987
 20
271.407994
 30
0.0
  0
ENDBLK
  5
240
330
23E
100
AcDbEntity
  8
0
100
AcDbBlockEnd
  0
BLOCK
  5
252
330
24A
100
AcDbEntity
  8
0
100
AcDbBlockBegin
  2
_U3
 70
     0
 10
0.0
 20
0.0
 30
0.0
  3
_U3
  1

  0
ENDBLK
  5
253
330
24A
100
AcDbEntity
  8
0
100
AcDbBlockEnd
  0
BLOCK
  5
258
330
257
100
AcDbEntity
  8
0
100
AcDbBlockBegin
  2
*D10
 70
     1
 10
0.0
 20
0.0
 30
0.0
  3
*D10
  1

  0
LINE
  5
25A
330
257
100
AcDbEntity
  8
0
 62
   254
370
    -2
100
AcDbLine
 10
331.404842
 20
298.907994
 30
0.0
 11
331.404842
 21
341.687968
 31
0.0
  0
LINE
  5
25B
330
257
100
AcDbEntity
  8
0
 62
   254
370
    -2
100
AcDbLine
 10
218.404842
 20
299.407994
 30
0.0
 11
218.404842
 21
341.687968
 31
0.0
  0
LINE
  5
25C
330
257
100
AcDbEntity
  8
0
 62
   254
370
    -2
100
AcDbLine
 10
327.904842
 20
340.687968
 30
0.0
 11
221.904842
 21
340.687968
 31
0.0
  0
SOLID
  5
25D
330
257
100
AcDbEntity
  8
0
 62
   254
100
AcDbTrace
 10
327.904842
 20
340.104634
 30
0.0
 11
327.904842
 21
341.271301
 31
0.0
 12
331.404842
 22
340.687968
 32
0.0
 13
331.404842
 23
340.687968
 33
0.0
  0
SOLID
  5
25E
330
257
100
AcDbEntity
  8
0
 62
   254
100
AcDbTrace
 10
221.904842
 20
341.271301
 30
0.0
 11
221.904842
 21
340.104634
 31
0.0
 12
218.404842
 22
340.687968
 32
0.0
 13
218.404842
 23
340.687968
 33
0.0
  0
MTEXT
  5
25F
330
257
100
AcDbEntity
  8
0
 62
   254
370
    13
100
AcDbMText
 10
274.904842
 20
345.937968
 30
0.0
 40
3.5
 41
0.0
 71
     5
 72
     1
  1
\A1;113
  7
cesky
 73
     1
 44
1.0
  0
POINT
  5
260
330
257
100
AcDbEntity
  8
Defpoints
 62
     0
100
AcDbPoint
 10
331.404842
 20
298.907994
 30
0.0
  0
POINT
  5
261
330
257
100
AcDbEntity
  8
Defpoints
 62
     0
100
AcDbPoint
 10
218.404842
 20
299.407994
 30
0.0
  0
POINT
  5
262
330
257
100
AcDbEntity
  8
Defpoints
 62
     0
100
AcDbPoint
 10
218.404842
 20
340.687968
 30
0.0
  0
ENDBLK
  5
259
330
257
100
AcDbEntity
  8
0
100
AcDbBlockEnd
  0
BLOCK
  5
26A
330
263
100
AcDbEntity
  8
0
100
AcDbBlockBegin
  2
_U4
 70
     0
 10
0.0
 20
0.0
 30
0.0
  3
_U4
  1

  0
ENDBLK
  5
26B
330
263
100
AcDbEntity
  8
0
100
AcDbBlockEnd
  0
BLOCK
  5
270
330
26F
100
AcDbEntity
  8
0
100
AcDbBlockBegin
  2
*D12
 70
     1
 10
0.0
 20
0.0
 30
0.0
  3
*D12
  1

  0
LINE
  5
272
330
26F
100
AcDbEntity
  8
0
 62
   254
370
    -2
100
AcDbLine
 10
274.404842
 20
288.907994
 30
0.0
 11
274.404842
 21
328.5109970000001
 31
0.0
  0
LINE
  5
273
330
26F
100
AcDbEntity
  8
0
 62
   254
370
    -2
100
AcDbLine
 10
218.404842
 20
294.157994
 30
0.0
 11
218.404842
 21
328.5109970000001
 31
0.0
  0
LINE
  5
274
330
26F
100
AcDbEntity
  8
0
 62
   254
370
    -2
100
AcDbLine
 10
270.904842
 20
327.510997
 30
0.0
 11
221.904842
 21
327.510997
 31
0.0
  0
SOLID
  5
275
330
26F
100
AcDbEntity
  8
0
 62
   254
100
AcDbTrace
 10
270.904842
 20
326.927663
 30
0.0
 11
270.904842
 21
328.09433
 31
0.0
 12
274.404842
 22
327.510997
 32
0.0
 13
274.404842
 23
327.510997
 33
0.0
  0
SOLID
  5
276
330
26F
100
AcDbEntity
  8
0
 62
   254
100
AcDbTrace
 10
221.904842
 20
328.09433
 30
0.0
 11
221.904842
 21
326.927663
 31
0.0
 12
218.404842
 22
327.510997
 32
0.0
 13
218.404842
 23
327.510997
 33
0.0
  0
MTEXT
  5
277
330
26F
100
AcDbEntity
  8
0
 62
   254
370
    13
100
AcDbMText
 10
246.404842
 20
332.7609970000001
 30
0.0
 40
3.5
 41
0.0
 71
     5
 72
     1
  1
\A1;56
  7
cesky
 73
     1
 44
1.0
  0
POINT
  5
278
330
26F
100
AcDbEntity
  8
Defpoints
 62
     0
100
AcDbPoint
 10
274.404842
 20
288.907994
 30
0.0
  0
POINT
  5
279
330
26F
100
AcDbEntity
  8
Defpoints
 62
     0
100
AcDbPoint
 10
218.404842
 20
294.157994
 30
0.0
  0
POINT
  5
27A
330
26F
100
AcDbEntity
  8
Defpoints
 62
     0
100
AcDbPoint
 10
218.404842
 20
327.510997
 30
0.0
  0
ENDBLK
  5
271
330
26F
100
AcDbEntity
  8
0
100
AcDbBlockEnd
  0
BLOCK
  5
282
330
27B
100
AcDbEntity
  8
0
100
AcDbBlockBegin
  2
_U5
 70
     0
 10
0.0
 20
0.0
 30
0.0
  3
_U5
  1

  0
ENDBLK
  5
283
330
27B
100
AcDbEntity
  8
0
100
AcDbBlockEnd
  0
BLOCK
  5
288
330
287
100
AcDbEntity
  8
0
100
AcDbBlockBegin
  2
*D14
 70
     1
 10
0.0
 20
0.0
 30
0.0
  3
*D14
  1

  0
LINE
  5
28A
330
287
100
AcDbEntity
  8
0
 62
   254
370
    -2
100
AcDbLine
 10
331.404842
 20
296.907994
 30
0.0
 11
331.404842
 21
317.637587
 31
0.0
  0
LINE
  5
28B
330
287
100
AcDbEntity
  8
0
 62
   254
370
    -2
100
AcDbLine
 10
295.269197
 20
296.32787
 30
0.0
 11
295.269197
 21
317.637587
 31
0.0
  0
LINE
  5
28C
330
287
100
AcDbEntity
  8
0
 62
   254
370
    -2
100
AcDbLine
 10
327.904842
 20
316.637587
 30
0.0
 11
298.769197
 21
316.637587
 31
0.0
  0
SOLID
  5
28D
330
287
100
AcDbEntity
  8
0
 62
   254
100
AcDbTrace
 10
327.904842
 20
316.054254
 30
0.0
 11
327.904842
 21
317.220921
 31
0.0
 12
331.404842
 22
316.637587
 32
0.0
 13
331.404842
 23
316.637587
 33
0.0
  0
SOLID
  5
28E
330
287
100
AcDbEntity
  8
0
 62
   254
100
AcDbTrace
 10
298.769197
 20
317.220921
 30
0.0
 11
298.769197
 21
316.054254
 31
0.0
 12
295.269197
 22
316.637587
 32
0.0
 13
295.269197
 23
316.637587
 33
0.0
  0
MTEXT
  5
28F
330
287
100
AcDbEntity
  8
0
 62
   254
370
    13
100
AcDbMText
 10
313.33702
 20
321.887587
 30
0.0
 40
3.5
 41
0.0
 71
     5
 72
     1
  1
\A1;36.1
  7
cesky
 73
     1
 44
1.0
  0
POINT
  5
290
330
287
100
AcDbEntity
  8
Defpoints
 62
     0
100
AcDbPoint
 10
331.404842
 20
296.907994
 30
0.0
  0
POINT
  5
291
330
287
100
AcDbEntity
  8
Defpoints
 62
     0
100
AcDbPoint
 10
295.269197
 20
296.32787
 30
0.0
  0
POINT
  5
292
330
287
100
AcDbEntity
  8
Defpoints
 62
     0
100
AcDbPoint
 10
295.269197
 20
316.637587
 30
0.0
  0
ENDBLK
  5
289
330
287
100
AcDbEntity
  8
0
100
AcDbBlockEnd
  0
BLOCK
  5
29A
330
293
100
AcDbEntity
  8
0
100
AcDbBlockBegin
  2
_U6
 70
     0
 10
0.0
 20
0.0
 30
0.0
  3
_U6
  1

  0
ENDBLK
  5
29B
330
293
100
AcDbEntity
  8
0
100
AcDbBlockEnd
  0
ENDSEC
  0
SECTION
  2
ENTITIES
  0
POINT
  5
73
102
{ACAD_REACTORS
330
344
102
}
330
1F
100
AcDbEntity
  8
80
100
AcDbPoint
 10
274.404842
 20
288.907994
 30
0.0
  0
POINT
  5
76
330
1F
100
AcDbEntity
  8
4
 60
     1
100
AcDbPoint
 10
294.789618
 20
288.907994
 30
0.0
  0
POINT
  5
78
330
1F
100
AcDbEntity
  8
4
 60
     1
100
AcDbPoint
 10
330.537203
 20
288.907994
 30
0.0
  0
POINT
  5
79
330
1F
100
AcDbEntity
  8
SK4
 60
     1
100
AcDbPoint
 10
220.404842
 20
288.907994
 30
0.0
  0
POINT
  5
7A
330
1F
100
AcDbEntity
  8
SK4
 60
     1
100
AcDbPoint
 10
274.404842
 20
288.907994
 30
0.0
  0
POINT
  5
7B
330
1F
100
AcDbEntity
  8
SK6
 60
     1
100
AcDbPoint
 10
274.404842
 20
288.907994
 30
0.0
  0
POINT
  5
7C
330
1F
100
AcDbEntity
  8
SK6
 60
     1
100
AcDbPoint
 10
295.269197
 20
296.32787
 30
0.0
  0
LINE
  5
7D
330
1F
100
AcDbEntity
  8
1
100
AcDbLine
 10
322.86645
 20
289.868412
 30
0.0
 11
322.880972
 21
289.4439549999999
 31
0.0
  0
LINE
  5
7F
330
1F
100
AcDbEntity
  8
1
100
AcDbLine
 10
327.276743
 20
294.306937
 30
0.0
 11
327.258117
 21
294.246502
 31
0.0
  0
LINE
  5
81
330
1F
100
AcDbEntity
  8
1
100
AcDbLine
 10
327.345314
 20
294.234691
 30
0.0
 11
327.326099
 21
294.172347
 31
0.0
  0
LINE
  5
82
330
1F
100
AcDbEntity
  8
1
100
AcDbLine
 10
327.336816
 20
293.322498
 30
0.0
 11
327.317961
 21
293.261323
 31
0.0
  0
LINE
  5
83
330
1F
100
AcDbEntity
  8
1
100
AcDbLine
 10
328.601751
 20
293.007008
 30
0.0
 11
328.620914
 21
293.069184
 31
0.0
  0
LINE
  5
84
330
1F
100
AcDbEntity
  8
1
100
AcDbLine
 10
328.638892
 20
292.966232
 30
0.0
 11
328.657708
 21
293.02728
 31
0.0
  0
LINE
  5
85
330
1F
100
AcDbEntity
  8
1
100
AcDbLine
 10
330.504866
 20
291.018143
 30
0.0
 11
326.766668
 21
290.85516
 31
0.0
  0
LINE
  5
86
330
1F
100
AcDbEntity
  8
1
100
AcDbLine
 10
325.423239
 20
296.407994
 30
0.0
 11
321.230848
 21
296.407994
 31
0.0
  0
LINE
  5
87
330
1F
100
AcDbEntity
  8
1
100
AcDbLine
 10
330.426147
 20
290.542422
 30
0.0
 11
326.493922
 21
290.370979
 31
0.0
  0
LINE
  5
88
330
1F
100
AcDbEntity
  8
1
100
AcDbLine
 10
330.426147
 20
290.542422
 30
0.0
 11
329.621595
 21
289.20192
 31
0.0
  0
LINE
  5
89
330
1F
100
AcDbEntity
  8
SK1
100
AcDbLine
 10
218.404842
 20
299.407994
 30
0.0
 11
218.404842
 21
278.407994
 31
0.0
  0
LINE
  5
8A
330
1F
100
AcDbEntity
  8
SK1
100
AcDbLine
 10
218.404842
 20
278.407994
 30
0.0
 11
220.404842
 21
276.407994
 31
0.0
  0
LINE
  5
8B
330
1F
100
AcDbEntity
  8
SK1
100
AcDbLine
 10
220.404842
 20
301.407994
 30
0.0
 11
218.404842
 21
299.407994
 31
0.0
  0
LINE
  5
8C
330
1F
100
AcDbEntity
  8
SK1
100
AcDbLine
 10
220.404842
 20
301.407994
 30
0.0
 11
220.404842
 21
276.407994
 31
0.0
  0
LINE
  5
8D
330
1F
100
AcDbEntity
  8
1
100
AcDbLine
 10
327.7003430000001
 20
292.963662
 30
0.0
 11
327.719457
 21
293.02568
 31
0.0
  0
LINE
  5
8E
330
1F
100
AcDbEntity
  8
1
100
AcDbLine
 10
328.183795
 20
292.937184
 30
0.0
 11
328.164598
 21
292.874896
 31
0.0
  0
LINE
  5
8F
330
1F
100
AcDbEntity
  8
1
100
AcDbLine
 10
327.338356
 20
293.903924
 30
0.0
 11
327.358157
 21
293.96817
 31
0.0
  0
LINE
  5
90
330
1F
100
AcDbEntity
  8
1
100
AcDbLine
 10
328.921051
 20
293.693992
 30
0.0
 11
328.90125
 21
293.629747
 31
0.0
  0
LINE
  5
91
330
1F
100
AcDbEntity
  8
1
100
AcDbLine
 10
327.280494
 20
294.360775
 30
0.0
 11
327.262025
 21
294.300851
 31
0.0
  0
LINE
  5
92
330
1F
100
AcDbEntity
  8
1
100
AcDbLine
 10
328.075008
 20
294.658775
 30
0.0
 11
328.094206
 21
294.721062
 31
0.0
  0
LINE
  5
93
330
1F
100
AcDbEntity
  8
1
100
AcDbLine
 10
328.554416
 20
294.6191720000001
 30
0.0
 11
328.539263
 21
294.570009
 31
0.0
  0
LINE
  5
94
330
1F
100
AcDbEntity
  8
1
100
AcDbLine
 10
327.360542
 20
293.280607
 30
0.0
 11
327.379687
 21
293.342723
 31
0.0
  0
LINE
  5
95
330
1F
100
AcDbEntity
  8
1
100
AcDbLine
 10
329.008079
 20
293.798493
 30
0.0
 11
329.027314
 21
293.8609
 31
0.0
  0
LINE
  5
96
330
1F
100
AcDbEntity
  8
1
100
AcDbLine
 10
289.404842
 20
296.048854
 30
0.0
 11
289.404842
 21
285.049612
 31
0.0
  0
LINE
  5
97
330
1F
100
AcDbEntity
  8
1
100
AcDbLine
 10
331.346922
 20
284.9568109999999
 30
0.0
 11
330.932193
 21
284.266587
 31
0.0
  0
LINE
  5
99
330
1F
100
AcDbEntity
  8
1
100
AcDbLine
 10
330.979576
 20
285.062146
 30
0.0
 11
331.346922
 21
284.9568109999999
 31
0.0
  0
LINE
  5
9A
330
1F
100
AcDbEntity
  8
1
100
AcDbLine
 10
331.404842
 20
288.275032
 30
0.0
 11
331.346922
 21
284.9568109999999
 31
0.0
  0
LINE
  5
9B
330
1F
100
AcDbEntity
  8
1
100
AcDbLine
 10
330.556456
 20
289.270439
 30
0.0
 11
331.001209
 21
289.003204
 31
0.0
  0
LINE
  5
9C
330
1F
100
AcDbEntity
  8
1
100
AcDbLine
 10
330.726313
 20
288.737741
 30
0.0
 11
331.001209
 21
289.003204
 31
0.0
  0
LINE
  5
9D
330
1F
100
AcDbEntity
  8
1
100
AcDbLine
 10
331.034043
 20
288.182581
 30
0.0
 11
331.404842
 21
288.275032
 31
0.0
  0
LINE
  5
9E
330
1F
100
AcDbEntity
  8
1
100
AcDbLine
 10
331.001209
 20
289.003204
 30
0.0
 11
331.404842
 21
288.275032
 31
0.0
  0
LINE
  5
9F
330
1F
100
AcDbEntity
  8
1
100
AcDbLine
 10
330.66673
 20
284.541483
 30
0.0
 11
330.932193
 21
284.266587
 31
0.0
  0
LINE
  5
A0
330
1F
100
AcDbEntity
  8
1
100
AcDbLine
 10
330.122024
 20
284.191823
 30
0.0
 11
330.177708
 21
283.9684870000001
 31
0.0
  0
LINE
  5
A1
330
1F
100
AcDbEntity
  8
1
100
AcDbLine
 10
330.932193
 20
284.266587
 30
0.0
 11
330.2840740000001
 21
283.907328
 31
0.0
  0
LINE
  5
A2
330
1F
100
AcDbEntity
  8
1
100
AcDbLine
 10
330.66673
 20
284.541483
 30
0.0
 11
330.126074
 21
284.241792
 31
0.0
  0
LINE
  5
A3
330
1F
100
AcDbEntity
  8
1
100
AcDbLine
 10
330.329324
 20
288.976276
 30
0.0
 11
330.726313
 21
288.737741
 31
0.0
  0
LINE
  5
A4
330
1F
100
AcDbEntity
  8
1
100
AcDbLine
 10
331.034043
 20
288.182581
 30
0.0
 11
330.979576
 21
285.062146
 31
0.0
  0
LINE
  5
A5
330
1F
100
AcDbEntity
  8
1
100
AcDbLine
 10
330.726313
 20
288.737741
 30
0.0
 11
330.326307
 21
288.351459
 31
0.0
  0
LINE
  5
A6
330
1F
100
AcDbEntity
  8
1
100
AcDbLine
 10
331.034043
 20
288.182581
 30
0.0
 11
330.447907
 21
288.036441
 31
0.0
  0
LINE
  5
A7
330
1F
100
AcDbEntity
  8
1
100
AcDbLine
 10
330.726313
 20
288.737741
 30
0.0
 11
331.034043
 21
288.182581
 31
0.0
  0
LINE
  5
A8
330
1F
100
AcDbEntity
  8
1
100
AcDbLine
 10
330.979576
 20
285.062146
 30
0.0
 11
330.398897
 21
285.228653
 31
0.0
  0
LINE
  5
A9
330
1F
100
AcDbEntity
  8
1
100
AcDbLine
 10
330.66673
 20
284.541483
 30
0.0
 11
330.2471
 21
284.976021
 31
0.0
  0
LINE
  5
AA
330
1F
100
AcDbEntity
  8
1
100
AcDbLine
 10
330.979576
 20
285.062146
 30
0.0
 11
330.66673
 21
284.541483
 31
0.0
  0
LINE
  5
AB
330
1F
100
AcDbEntity
  8
1
100
AcDbLine
 10
330.201113
 20
284.95053
 30
0.0
 11
330.2471
 21
284.976021
 31
0.0
  0
LINE
  5
AC
330
1F
100
AcDbEntity
  8
1
100
AcDbLine
 10
330.2471
 20
284.976021
 30
0.0
 11
330.398897
 21
285.228653
 31
0.0
  0
LINE
  5
AD
330
1F
100
AcDbEntity
  8
1
100
AcDbLine
 10
330.398897
 20
285.228653
 30
0.0
 11
330.447907
 21
288.036441
 31
0.0
  0
LINE
  5
AE
330
1F
100
AcDbEntity
  8
1
100
AcDbLine
 10
330.447907
 20
288.036441
 30
0.0
 11
330.326302
 21
288.255823
 31
0.0
  0
LINE
  5
AF
330
1F
100
AcDbEntity
  8
1
100
AcDbLine
 10
325.556229
 20
291.394716
 30
0.0
 11
325.342944
 21
296.164707
 31
0.0
  0
LINE
  5
B0
330
1F
100
AcDbEntity
  8
1
100
AcDbLine
 10
326.291397
 20
295.656919
 30
0.0
 11
329.987152
 21
295.818052
 31
0.0
  0
LINE
  5
B1
330
1F
100
AcDbEntity
  8
1
100
AcDbLine
 10
326.456416
 20
291.96636
 30
0.0
 11
326.291397
 21
295.656919
 31
0.0
  0
LINE
  5
B2
330
1F
100
AcDbEntity
  8
1
100
AcDbLine
 10
330.152171
 20
292.127494
 30
0.0
 11
326.456416
 21
291.96636
 31
0.0
  0
LINE
  5
B3
330
1F
100
AcDbEntity
  8
1
100
AcDbLine
 10
329.987152
 20
295.818052
 30
0.0
 11
330.152171
 21
292.127494
 31
0.0
  0
LINE
  5
B4
330
1F
100
AcDbEntity
  8
1
100
AcDbLine
 10
325.712148
 20
296.567472
 30
0.0
 11
330.488855
 21
296.775735
 31
0.0
  0
LINE
  5
B5
330
1F
100
AcDbEntity
  8
1
100
AcDbLine
 10
330.89257
 20
296.406668
 30
0.0
 11
331.105855
 21
291.636677
 31
0.0
  0
LINE
  5
B6
330
1F
100
AcDbEntity
  8
1
100
AcDbLine
 10
330.736651
 20
291.233912
 30
0.0
 11
325.959944
 21
291.02565
 31
0.0
  0
LINE
  5
B7
330
1F
100
AcDbEntity
  8
1
100
AcDbLine
 10
329.695758
 20
286.129994
 30
0.0
 11
329.818501
 21
286.129994
 31
0.0
  0
LINE
  5
B8
330
1F
100
AcDbEntity
  8
1
100
AcDbLine
 10
330.54736
 20
291.036943
 30
0.0
 11
326.771962
 21
290.872337
 31
0.0
  0
LINE
  5
B9
330
1F
100
AcDbEntity
  8
1
100
AcDbLine
 10
326.766668
 20
290.85516
 30
0.0
 11
326.771962
 21
290.872337
 31
0.0
  0
LINE
  5
BA
330
1F
100
AcDbEntity
  8
1
100
AcDbLine
 10
325.365563
 20
296.2950390000001
 30
0.0
 11
325.36429
 21
296.324468
 31
0.0
  0
LINE
  5
BB
330
1F
100
AcDbEntity
  8
1
100
AcDbLine
 10
325.305026
 20
292.506127
 30
0.0
 11
325.299795
 21
292.489156
 31
0.0
  0
LINE
  5
BC
330
1F
100
AcDbEntity
  8
1
100
AcDbLine
 10
325.305026
 20
292.506127
 30
0.0
 11
325.139838
 21
296.325052
 31
0.0
  0
LINE
  5
BD
330
1F
100
AcDbEntity
  8
1
100
AcDbLine
 10
325.136069
 20
296.274281
 30
0.0
 11
325.299795
 21
292.489156
 31
0.0
  0
LINE
  5
BE
330
1F
100
AcDbEntity
  8
1
100
AcDbLine
 10
330.54736
 20
291.036943
 30
0.0
 11
330.545862
 21
291.225591
 31
0.0
  0
LINE
  5
BF
330
1F
100
AcDbEntity
  8
1
100
AcDbLine
 10
330.54736
 20
291.036943
 30
0.0
 11
330.504866
 21
291.018143
 31
0.0
  0
LINE
  5
C0
330
1F
100
AcDbEntity
  8
1
100
AcDbLine
 10
330.3969990000001
 20
283.512224
 30
0.0
 11
330.354909
 21
283.512897
 31
0.0
  0
LINE
  5
C1
330
1F
100
AcDbEntity
  8
1
100
AcDbLine
 10
330.2471220000001
 20
283.967374
 30
0.0
 11
330.139112
 21
283.969103
 31
0.0
  0
LINE
  5
C2
330
1F
100
AcDbEntity
  8
1
100
AcDbLine
 10
329.999779
 20
286.129994
 30
0.0
 11
330.326301
 21
286.129994
 31
0.0
  0
LINE
  5
C3
330
1F
100
AcDbEntity
  8
1
100
AcDbLine
 10
330.368463
 20
289.164197
 30
0.0
 11
330.476656
 21
289.162309
 31
0.0
  0
LINE
  5
C4
330
1F
100
AcDbEntity
  8
1
100
AcDbLine
 10
330.63268
 20
289.612348
 30
0.0
 11
330.674842
 21
289.611613
 31
0.0
  0
LINE
  5
C5
330
1F
100
AcDbEntity
  8
1
100
AcDbLine
 10
330.426147
 20
290.542422
 30
0.0
 11
330.43889
 21
290.54806
 31
0.0
  0
LINE
  5
C6
330
1F
100
AcDbEntity
  8
1
100
AcDbLine
 10
330.128813
 20
284.269306
 30
0.0
 11
330.326301
 21
286.129994
 31
0.0
  0
LINE
  5
C7
330
1F
100
AcDbEntity
  8
1
100
AcDbLine
 10
330.326301
 20
286.129994
 30
0.0
 11
330.326301
 21
288.864887
 31
0.0
  0
LINE
  5
C8
330
1F
100
AcDbEntity
  8
1
100
AcDbLine
 10
330.38019
 20
283.751098
 30
0.0
 11
330.2471220000001
 21
283.967374
 31
0.0
  0
LINE
  5
C9
330
1F
100
AcDbEntity
  8
1
100
AcDbLine
 10
330.38019
 20
283.751098
 30
0.0
 11
330.354909
 21
283.512897
 31
0.0
  0
LINE
  5
CA
330
1F
100
AcDbEntity
  8
1
100
AcDbLine
 10
330.476656
 20
289.162309
 30
0.0
 11
330.63268
 21
289.373738
 31
0.0
  0
LINE
  5
CB
330
1F
100
AcDbEntity
  8
1
100
AcDbLine
 10
330.63268
 20
289.612348
 30
0.0
 11
330.63268
 21
289.373738
 31
0.0
  0
LINE
  5
CC
330
1F
100
AcDbEntity
  8
1
100
AcDbLine
 10
330.173662
 20
281.407994
 30
0.0
 11
330.3969990000001
 21
283.512224
 31
0.0
  0
LINE
  5
CD
330
1F
100
AcDbEntity
  8
1
100
AcDbLine
 10
330.173662
 20
281.407994
 30
0.0
 11
321.562823
 21
281.407994
 31
0.0
  0
LINE
  5
CE
330
1F
100
AcDbEntity
  8
1
100
AcDbLine
 10
330.674842
 20
291.231205
 30
0.0
 11
330.674842
 21
289.611613
 31
0.0
  0
LINE
  5
CF
330
1F
100
AcDbEntity
  8
1
100
AcDbLine
 10
274.904842
 20
271.407994
 30
0.0
 11
274.904842
 21
288.907994
 31
0.0
  0
LINE
  5
D0
330
1F
100
AcDbEntity
  8
1
100
AcDbLine
 10
274.904842
 20
288.907994
 30
0.0
 11
274.904842
 21
306.407994
 31
0.0
  0
LINE
  5
D1
330
1F
100
AcDbEntity
  8
1
100
AcDbLine
 10
279.404842
 20
271.407994
 30
0.0
 11
279.404842
 21
272.560514
 31
0.0
  0
LINE
  5
D2
330
1F
100
AcDbEntity
  8
1
100
AcDbLine
 10
279.404842
 20
306.407994
 30
0.0
 11
279.404842
 21
276.904661
 31
0.0
  0
LINE
  5
D3
330
1F
100
AcDbEntity
  8
1
100
AcDbLine
 10
326.678143
 20
294.266916
 30
0.0
 11
326.66516
 21
294.224792
 31
0.0
  0
LINE
  5
D4
330
1F
100
AcDbEntity
  8
1
100
AcDbLine
 10
329.579864
 20
293.32646
 30
0.0
 11
329.592847
 21
293.368584
 31
0.0
  0
LINE
  5
D5
330
1F
100
AcDbEntity
  8
1
100
AcDbLine
 10
279.404842
 20
271.407994
 30
0.0
 11
285.59723
 21
277.600382
 31
0.0
  0
LINE
  5
D6
330
1F
100
AcDbEntity
  8
1
100
AcDbLine
 10
285.59723
 20
300.215605
 30
0.0
 11
279.404842
 21
306.407994
 31
0.0
  0
LINE
  5
D7
330
1F
100
AcDbEntity
  8
SK1
100
AcDbLine
 10
274.404842
 20
301.407994
 30
0.0
 11
220.404842
 21
301.407994
 31
0.0
  0
LINE
  5
D8
330
1F
100
AcDbEntity
  8
1
100
AcDbLine
 10
274.904842
 20
271.407994
 30
0.0
 11
274.404842
 21
271.907994
 31
0.0
  0
LINE
  5
D9
330
1F
100
AcDbEntity
  8
1
100
AcDbLine
 10
274.404842
 20
305.907994
 30
0.0
 11
274.904842
 21
306.407994
 31
0.0
  0
LINE
  5
DA
330
1F
100
AcDbEntity
  8
1
100
AcDbLine
 10
279.404842
 20
306.407994
 30
0.0
 11
274.904842
 21
306.407994
 31
0.0
  0
LINE
  5
DF
330
1F
100
AcDbEntity
  8
80
100
AcDbLine
 10
275.404416
 20
288.907994
 30
0.0
 11
273.405268
 21
288.907994
 31
0.0
  0
LINE
  5
E0
330
1F
100
AcDbEntity
  8
1
100
AcDbLine
 10
274.404842
 20
305.907994
 30
0.0
 11
274.404842
 21
288.907994
 31
0.0
  0
LINE
  5
E1
330
1F
100
AcDbEntity
  8
1
100
AcDbLine
 10
274.404842
 20
288.907994
 30
0.0
 11
274.404842
 21
271.907994
 31
0.0
  0
LINE
  5
E2
330
1F
100
AcDbEntity
  8
SK1
100
AcDbLine
 10
220.404842
 20
276.407994
 30
0.0
 11
274.404842
 21
276.407994
 31
0.0
  0
LINE
  5
E3
330
1F
100
AcDbEntity
  8
80
100
AcDbLine
 10
274.404842
 20
287.90842
 30
0.0
 11
274.404842
 21
289.907567
 31
0.0
  0
LINE
  5
E4
330
1F
100
AcDbEntity
  8
81
100
AcDbLine
 10
331.404842
 20
298.907994
 30
0.0
 11
331.404842
 21
294.907994
 31
0.0
  0
LINE
  5
E5
330
1F
100
AcDbEntity
  8
81
100
AcDbLine
 10
329.404842
 20
296.907994
 30
0.0
 11
333.404842
 21
296.907994
 31
0.0
  0
LINE
  5
E6
330
1F
100
AcDbEntity
  8
1
100
AcDbLine
 10
274.904842
 20
271.407994
 30
0.0
 11
279.404842
 21
271.407994
 31
0.0
  0
LINE
  5
114
330
1F
100
AcDbEntity
  8
NOCUT
100
AcDbLine
 10
330.674842
 20
288.907994
 30
0.0
 11
218.404842
 21
288.907994
 31
0.0
  0
LINE
  5
115
330
1F
100
AcDbEntity
  8
NOCUT
100
AcDbLine
 10
279.404842
 20
306.407994
 30
0.0
 11
285.59723
 21
300.215605
 31
0.0
  0
LINE
  5
116
330
1F
100
AcDbEntity
  8
NOCUT
100
AcDbLine
 10
294.789618
 20
296.407994
 30
0.0
 11
330.456744
 21
296.407994
 31
0.0
  0
LINE
  5
117
330
1F
100
AcDbEntity
  8
NOCUT
100
AcDbLine
 10
330.456744
 20
296.407994
 30
0.0
 11
330.674842
 21
291.45388
 31
0.0
  0
LINE
  5
118
330
1F
100
AcDbEntity
  8
NOCUT
100
AcDbLine
 10
330.674842
 20
291.45388
 30
0.0
 11
330.674842
 21
288.907994
 31
0.0
  0
LINE
  5
119
330
1F
100
AcDbEntity
  8
NOCUT
100
AcDbLine
 10
218.404842
 20
299.407994
 30
0.0
 11
220.404842
 21
301.407994
 31
0.0
  0
LINE
  5
11A
330
1F
100
AcDbEntity
  8
NOCUT
100
AcDbLine
 10
274.404842
 20
301.407994
 30
0.0
 11
274.404842
 21
305.907994
 31
0.0
  0
LINE
  5
11B
330
1F
100
AcDbEntity
  8
NOCUT
100
AcDbLine
 10
274.404842
 20
305.907994
 30
0.0
 11
274.904842
 21
306.407994
 31
0.0
  0
LINE
  5
11C
330
1F
100
AcDbEntity
  8
NOCUT
100
AcDbLine
 10
218.404842
 20
299.407994
 30
0.0
 11
218.404842
 21
288.907994
 31
0.0
  0
LINE
  5
11D
330
1F
100
AcDbEntity
  8
NOCUT
100
AcDbLine
 10
274.404842
 20
301.407994
 30
0.0
 11
220.404842
 21
301.407994
 31
0.0
  0
LINE
  5
11E
330
1F
100
AcDbEntity
  8
NOCUT
100
AcDbLine
 10
279.404842
 20
306.407994
 30
0.0
 11
274.904842
 21
306.407994
 31
0.0
  0
ARC
  5
127
330
1F
100
AcDbEntity
  8
1
100
AcDbCircle
 10
294.789618
 20
268.407994
 30
0.0
 40
13.0
100
AcDbArc
 50
119.974606
 51
135.0
  0
ARC
  5
128
330
1F
100
AcDbEntity
  8
1
100
AcDbCircle
 10
294.789618
 20
309.407994
 30
0.0
 40
13.0
100
AcDbArc
 50
225.0
 51
239.331996
  0
ARC
  5
129
330
1F
100
AcDbEntity
  8
1
100
AcDbCircle
 10
328.500153
 20
286.771133
 30
0.0
 40
1.1
100
AcDbArc
 50
75.0
 51
345.0
  0
CIRCLE
  5
12A
330
1F
100
AcDbEntity
  8
1
100
AcDbCircle
 10
328.500153
 20
286.771133
 30
0.0
 40
0.7
  0
ARC
  5
139
330
1F
100
AcDbEntity
  8
NOCUT
100
AcDbCircle
 10
294.789618
 20
309.407994
 30
0.0
 40
13.0
100
AcDbArc
 50
225.0
 51
270.0
  0
ELLIPSE
  5
13A
330
1F
100
AcDbEntity
  8
1
100
AcDbEllipse
 10
325.784271
 20
288.907994
 30
0.0
 11
0.2705199794019197
 21
-7.499902726751618
 31
0.0
210
0.0
220
0.0
230
1.0
 40
0.141202
 41
3.266693027905691
 42
3.285881115835696
  0
ELLIPSE
  5
13B
330
1F
100
AcDbEntity
  8
1
100
AcDbEllipse
 10
288.109836
 20
288.907993
 30
0.0
 11
159.7953214985014
 21
7.314090331445493
 31
0.0
210
0.0
220
0.0
230
1.0
 40
0.010385
 41
4.954784342256551
 42
4.974708813854903
  0
ELLIPSE
  5
13C
330
1F
100
AcDbEntity
  8
1
100
AcDbEllipse
 10
325.644686
 20
288.907994
 30
0.0
 11
12.8608988322175
 21
-7.399268376720707
 31
0.0
210
0.0
220
0.0
230
1.0
 40
0.095256
 41
4.03408639222833
 42
4.290276280262014
  0
ELLIPSE
  5
13D
330
1F
100
AcDbEntity
  8
1
100
AcDbEllipse
 10
325.931884
 20
302.971812
 30
0.0
 11
12.0410726257343
 21
-3.711141336811675
 31
0.0
210
0.0
220
0.0
230
0.9999999999999998
 40
0.9982459999999999
 41
4.747391537945938
 42
4.935793516267582
  0
ELLIPSE
  5
13E
330
1F
100
AcDbEntity
  8
1
100
AcDbEllipse
 10
328.135495
 20
293.81775
 30
0.0
 11
-1.457352043987681
 21
0.4491659157649023
 31
0.0
210
0.0
220
0.0
230
1.0
 40
0.9982459999999999
 41
3.141666695640181
 42
6.283161002260182
  0
ELLIPSE
  5
13F
330
1F
100
AcDbEntity
  8
1
100
AcDbEllipse
 10
328.122512
 20
293.775626
 30
0.0
 11
1.45735204398768
 21
-0.4491659157649054
 31
0.0
210
0.0
220
0.0
230
0.9999999999999998
 40
0.9982459999999999
 41
0.0
 42
6.283185307179584
  0
ELLIPSE
  5
140
330
1F
100
AcDbEntity
  8
1
100
AcDbEllipse
 10
328.977416
 20
293.416019
 30
0.0
 11
-0.0804880251332459
 21
0.0248069625086336
 31
0.0
210
0.0
220
0.0
230
1.0
 40
0.9982459999999999
 41
0.5512659300218319
 42
1.390294122199448
  0
ELLIPSE
  5
141
330
1F
100
AcDbEntity
  8
1
100
AcDbEllipse
 10
328.899794
 20
293.266843
 30
0.0
 11
-0.080488025133246
 21
0.0248069625086336
 31
0.0
210
0.0
220
0.0
230
0.9999999999999998
 40
0.9982459999999999
 41
3.169259808013256
 42
4.531886775789167
  0
ELLIPSE
  5
142
330
1F
100
AcDbEntity
  8
1
100
AcDbEllipse
 10
328.564781
 20
293.360047
 30
0.0
 11
-0.4128001152130108
 21
0.1272278325216226
 31
0.0
210
0.0
220
0.0
230
1.0
 40
0.9982459999999999
 41
2.229322314377195
 42
3.169259808013287
  0
ELLIPSE
  5
143
330
1F
100
AcDbEntity
  8
1
100
AcDbEllipse
 10
328.687278
 20
293.035008
 30
0.0
 11
-0.0804880251332458
 21
0.0248069625086335
 31
0.0
210
0.0
220
0.0
230
1.0
 40
0.9982459999999999
 41
0.8666953466011698
 42
2.229322314377259
  0
ELLIPSE
  5
144
330
1F
100
AcDbEntity
  8
1
100
AcDbEllipse
 10
328.545321
 20
292.944645
 30
0.0
 11
-0.0804880251332458
 21
0.0248069625086335
 31
0.0
210
0.0
220
0.0
230
1.0
 40
0.9982459999999999
 41
4.008288000190991
 42
4.847316192368621
  0
ELLIPSE
  5
145
330
1F
100
AcDbEntity
  8
1
100
AcDbEllipse
 10
328.488711
 20
292.602154
 30
0.0
 11
-0.4128001152130106
 21
0.1272278325216226
 31
0.0
210
0.0
220
0.0
230
0.9999999999999998
 40
0.9982459999999999
 41
4.847316192368656
 42
5.787253686004777
  0
ELLIPSE
  5
146
330
1F
100
AcDbEntity
  8
1
100
AcDbEllipse
 10
328.245086
 20
292.850089
 30
0.0
 11
-0.0804880251332459
 21
0.0248069625086336
 31
0.0
210
0.0
220
0.0
230
1.0
 40
0.9982459999999999
 41
5.787253686004697
 42
6.626281878182454
  0
ELLIPSE
  5
147
330
1F
100
AcDbEntity
  8
1
100
AcDbEllipse
 10
328.076831
 20
292.842753
 30
0.0
 11
-0.080488025133246
 21
0.0248069625086336
 31
0.0
210
0.0
220
0.0
230
0.9999999999999998
 40
0.9982459999999999
 41
2.122062256816733
 42
3.484689224592699
  0
ELLIPSE
  5
148
330
1F
100
AcDbEntity
  8
1
100
AcDbEllipse
 10
327.9898720000001
 20
293.178986
 30
0.0
 11
-0.4128001152130108
 21
0.1272278325216226
 31
0.0
210
0.0
220
0.0
230
1.0
 40
0.9982459999999999
 41
1.182124763180584
 42
2.12206225681672
  0
ELLIPSE
  5
149
330
1F
100
AcDbEntity
  8
1
100
AcDbEllipse
 10
327.769324
 20
292.910812
 30
0.0
 11
-0.0804880251332458
 21
0.0248069625086335
 31
0.0
210
0.0
220
0.0
230
1.0
 40
0.9982459999999999
 41
6.10268310258416
 42
7.465310070359985
  0
ELLIPSE
  5
14A
330
1F
100
AcDbEntity
  8
1
100
AcDbEllipse
 10
327.619855
 20
292.988469
 30
0.0
 11
-0.0804880251332458
 21
0.0248069625086335
 31
0.0
210
0.0
220
0.0
230
1.0
 40
0.9982459999999999
 41
2.961090448994408
 42
3.800118641172087
  0
ELLIPSE
  5
14B
330
1F
100
AcDbEntity
  8
1
100
AcDbEllipse
 10
327.294464
 20
292.86647
 30
0.0
 11
-0.4128001152130106
 21
0.1272278325216226
 31
0.0
210
0.0
220
0.0
230
0.9999999999999998
 40
0.9982459999999999
 41
3.800118641172068
 42
4.740056134808158
  0
ELLIPSE
  5
14C
330
1F
100
AcDbEntity
  8
1
100
AcDbEllipse
 10
327.387473
 20
293.200906
 30
0.0
 11
-0.0804880251332459
 21
0.0248069625086336
 31
0.0
210
0.0
220
0.0
230
1.0
 40
0.9982459999999999
 41
4.740056134808146
 42
5.579084326985908
  0
ELLIPSE
  5
14D
330
1F
100
AcDbEntity
  8
1
100
AcDbEllipse
 10
327.296839
 20
293.342746
 30
0.0
 11
-0.080488025133246
 21
0.0248069625086336
 31
0.0
210
0.0
220
0.0
230
0.9999999999999998
 40
0.9982459999999999
 41
1.074864705620076
 42
2.437491673396115
  0
ELLIPSE
  5
14E
330
1F
100
AcDbEntity
  8
1
100
AcDbEllipse
 10
327.544894
 20
293.585774
 30
0.0
 11
-0.4128001152130108
 21
0.1272278325216226
 31
0.0
210
0.0
220
0.0
230
1.0
 40
0.9982459999999999
 41
0.134927211983991
 42
1.074864705620074
  0
ELLIPSE
  5
14F
330
1F
100
AcDbEntity
  8
1
100
AcDbEllipse
 10
327.2018490000001
 20
293.64264
 30
0.0
 11
-0.0804880251332458
 21
0.0248069625086335
 31
0.0
210
0.0
220
0.0
230
1.0
 40
0.9982459999999999
 41
5.055485551387618
 42
6.418112519163605
  0
ELLIPSE
  5
150
330
1F
100
AcDbEntity
  8
1
100
AcDbEllipse
 10
327.194337
 20
293.810659
 30
0.0
 11
-0.0804880251332458
 21
0.0248069625086335
 31
0.0
210
0.0
220
0.0
230
1.0
 40
0.9982459999999999
 41
1.91389289779784
 42
2.752921089975556
  0
ELLIPSE
  5
151
330
1F
100
AcDbEntity
  8
1
100
AcDbEllipse
 10
326.925556
 20
294.031152
 30
0.0
 11
-0.4128001152130106
 21
0.1272278325216226
 31
0.0
210
0.0
220
0.0
230
0.9999999999999998
 40
0.9982459999999999
 41
2.752921089975473
 42
3.692858583611576
  0
ELLIPSE
  5
152
330
1F
100
AcDbEntity
  8
1
100
AcDbEllipse
 10
327.26219
 20
294.117652
 30
0.0
 11
-0.0804880251332459
 21
0.0248069625086336
 31
0.0
210
0.0
220
0.0
230
1.0
 40
0.9982459999999999
 41
3.692858583611625
 42
4.531886775789325
  0
ELLIPSE
  5
153
330
1F
100
AcDbEntity
  8
1
100
AcDbEllipse
 10
327.339812
 20
294.266828
 30
0.0
 11
-0.080488025133246
 21
0.0248069625086336
 31
0.0
210
0.0
220
0.0
230
0.9999999999999998
 40
0.9982459999999999
 41
0.0276671544234234
 42
1.390294122199456
  0
ELLIPSE
  5
154
330
1F
100
AcDbEntity
  8
1
100
AcDbEllipse
 10
327.674825
 20
294.173624
 30
0.0
 11
-0.4128001152130108
 21
0.1272278325216226
 31
0.0
210
0.0
220
0.0
230
1.0
 40
0.9982459999999999
 41
5.370914967966971
 42
6.310852461603078
  0
ELLIPSE
  5
155
330
1F
100
AcDbEntity
  8
1
100
AcDbEllipse
 10
327.552328
 20
294.498663
 30
0.0
 11
-0.0804880251332458
 21
0.0248069625086335
 31
0.0
210
0.0
220
0.0
230
1.0
 40
0.9982459999999999
 41
4.008288000191027
 42
5.370914967967051
  0
ELLIPSE
  5
156
330
1F
100
AcDbEntity
  8
1
100
AcDbEllipse
 10
327.6942850000001
 20
294.589026
 30
0.0
 11
-0.0804880251332458
 21
0.0248069625086335
 31
0.0
210
0.0
220
0.0
230
1.0
 40
0.9982459999999999
 41
0.8666953466011426
 42
1.705723538778828
  0
ELLIPSE
  5
157
330
1F
100
AcDbEntity
  8
1
100
AcDbEllipse
 10
327.750895
 20
294.931517
 30
0.0
 11
-0.4128001152130106
 21
0.1272278325216226
 31
0.0
210
0.0
220
0.0
230
0.9999999999999998
 40
0.9982459999999999
 41
1.705723538778878
 42
2.645661032415005
  0
ELLIPSE
  5
158
330
1F
100
AcDbEntity
  8
1
100
AcDbEllipse
 10
327.99452
 20
294.683582
 30
0.0
 11
-0.0804880251332459
 21
0.0248069625086336
 31
0.0
210
0.0
220
0.0
230
1.0
 40
0.9982459999999999
 41
2.645661032414943
 42
3.484689224592683
  0
ELLIPSE
  5
159
330
1F
100
AcDbEntity
  8
1
100
AcDbEllipse
 10
328.162775
 20
294.690918
 30
0.0
 11
-0.080488025133246
 21
0.0248069625086336
 31
0.0
210
0.0
220
0.0
230
0.9999999999999998
 40
0.9982459999999999
 41
5.26365491040657
 42
6.626281878182465
  0
ELLIPSE
  5
15A
330
1F
100
AcDbEntity
  8
1
100
AcDbEllipse
 10
328.249734
 20
294.354685
 30
0.0
 11
-0.4128001152130108
 21
0.1272278325216226
 31
0.0
210
0.0
220
0.0
230
1.0
 40
0.9982459999999999
 41
4.323717416770398
 42
5.263654910406495
  0
ELLIPSE
  5
15B
330
1F
100
AcDbEntity
  8
1
100
AcDbEllipse
 10
328.470282
 20
294.622859
 30
0.0
 11
-0.0804880251332458
 21
0.0248069625086335
 31
0.0
210
0.0
220
0.0
230
1.0
 40
0.9982459999999999
 41
2.961090448994408
 42
4.323717416770271
  0
ELLIPSE
  5
15C
330
1F
100
AcDbEntity
  8
1
100
AcDbEllipse
 10
328.619751
 20
294.545203
 30
0.0
 11
-0.0804880251332458
 21
0.0248069625086335
 31
0.0
210
0.0
220
0.0
230
1.0
 40
0.9982459999999999
 41
6.102683102584244
 42
6.941711294761879
  0
ELLIPSE
  5
15D
330
1F
100
AcDbEntity
  8
1
100
AcDbEllipse
 10
328.945142
 20
294.667201
 30
0.0
 11
-0.4128001152130106
 21
0.1272278325216226
 31
0.0
210
0.0
220
0.0
230
0.9999999999999998
 40
0.9982459999999999
 41
0.658525987582285
 42
1.598463481218366
  0
ELLIPSE
  5
15E
330
1F
100
AcDbEntity
  8
1
100
AcDbEllipse
 10
328.852133
 20
294.332765
 30
0.0
 11
-0.0804880251332459
 21
0.0248069625086336
 31
0.0
210
0.0
220
0.0
230
1.0
 40
0.9982459999999999
 41
1.598463481218439
 42
2.43749167339617
  0
ELLIPSE
  5
15F
330
1F
100
AcDbEntity
  8
1
100
AcDbEllipse
 10
328.942767
 20
294.190925
 30
0.0
 11
-0.080488025133246
 21
0.0248069625086336
 31
0.0
210
0.0
220
0.0
230
0.9999999999999998
 40
0.9982459999999999
 41
4.216457359209869
 42
5.579084326985941
  0
ELLIPSE
  5
160
330
1F
100
AcDbEntity
  8
1
100
AcDbEllipse
 10
328.6947120000001
 20
293.947897
 30
0.0
 11
-0.4128001152130108
 21
0.1272278325216226
 31
0.0
210
0.0
220
0.0
230
1.0
 40
0.9982459999999999
 41
3.276519865573776
 42
4.216457359209869
  0
ELLIPSE
  5
161
330
1F
100
AcDbEntity
  8
1
100
AcDbEllipse
 10
329.037757
 20
293.891031
 30
0.0
 11
-0.0804880251332458
 21
0.0248069625086335
 31
0.0
210
0.0
220
0.0
230
1.0
 40
0.9982459999999999
 41
1.913892897797745
 42
3.276519865573815
  0
ELLIPSE
  5
162
330
1F
100
AcDbEntity
  8
1
100
AcDbEllipse
 10
329.04527
 20
293.723012
 30
0.0
 11
-0.0804880251332458
 21
0.0248069625086335
 31
0.0
210
0.0
220
0.0
230
1.0
 40
0.9982459999999999
 41
5.055485551387523
 42
5.894513743565342
  0
ELLIPSE
  5
163
330
1F
100
AcDbEntity
  8
1
100
AcDbEllipse
 10
329.31405
 20
293.502519
 30
0.0
 11
-0.4128001152130106
 21
0.1272278325216226
 31
0.0
210
0.0
220
0.0
230
0.9999999999999998
 40
0.9982459999999999
 41
5.894513743565267
 42
6.834451237201387
  0
ELLIPSE
  5
164
330
1F
100
AcDbEntity
  8
1
100
AcDbEllipse
 10
328.119803
 20
293.766836
 30
0.0
 11
1.098986787269399
 21
-0.338715280740748
 31
0.0
210
0.0
220
0.0
230
0.9999999999999998
 40
0.9982459999999999
 41
0.0
 42
6.283185307179584
  0
ELLIPSE
  5
165
330
1F
100
AcDbEntity
  8
1
100
AcDbEllipse
 10
328.224661
 20
293.901541
 30
0.0
 11
1.557443178832915
 21
-0.4800146914112429
 31
0.0
210
0.0
220
0.0
230
0.9999999999999998
 40
0.9982459999999999
 41
1.913892982936071
 42
3.499415381311294
  0
ELLIPSE
  5
166
330
1F
100
AcDbEntity
  8
1
100
AcDbEllipse
 10
328.224661
 20
293.901541
 30
0.0
 11
1.557443178832915
 21
-0.4800146914112429
 31
0.0
210
0.0
220
0.0
230
0.9999999999999998
 40
0.9982459999999999
 41
5.161416418428106
 42
6.283185307179584
  0
ELLIPSE
  5
167
330
1F
100
AcDbEntity
  8
1
100
AcDbEllipse
 10
328.224661
 20
293.901541
 30
0.0
 11
1.557443178832915
 21
-0.4800146914112429
 31
0.0
210
0.0
220
0.0
230
0.9999999999999998
 40
0.9982459999999999
 41
0.0
 42
1.913893118417955
  0
ELLIPSE
  5
168
330
1F
100
AcDbEntity
  8
1
100
AcDbEllipse
 10
328.233989
 20
293.931807
 30
0.0
 11
1.530648770584676
 21
-0.4717564706416975
 31
0.0
210
0.0
220
0.0
230
0.9999999999999996
 40
0.9982459999999996
 41
2.057817286929511
 42
3.287456170126513
  0
ELLIPSE
  5
169
330
1F
100
AcDbEntity
  8
1
100
AcDbEllipse
 10
328.233989
 20
293.931807
 30
0.0
 11
1.530648770584676
 21
-0.4717564706416975
 31
0.0
210
0.0
220
0.0
230
0.9999999999999996
 40
0.9982459999999996
 41
5.4964863972894
 42
6.283185307179584
  0
ELLIPSE
  5
16A
330
1F
100
AcDbEntity
  8
1
100
AcDbEllipse
 10
328.233989
 20
293.931807
 30
0.0
 11
1.530648770584676
 21
-0.4717564706416975
 31
0.0
210
0.0
220
0.0
230
0.9999999999999996
 40
0.9982459999999996
 41
0.0
 42
1.083727041570857
  0
ELLIPSE
  5
16B
330
1F
100
AcDbEntity
  8
1
100
AcDbEllipse
 10
326.000049
 20
291.4441
 30
0.0
 11
0.7633832151120381
 21
0.8339145971442869
 31
0.0
210
0.0
220
0.0
230
1.0
 40
0.017942
 41
0.9105606123168728
 42
1.53292910094779
  0
ELLIPSE
  5
16C
330
1F
100
AcDbEntity
  8
1
100
AcDbEllipse
 10
325.79343
 20
296.065016
 30
0.0
 11
0.8343780316277721
 21
-0.7638074529203689
 31
0.0
210
0.0
220
0.0
230
1.0
 40
0.037843
 41
0.9663482755292136
 42
1.588716764021703
  0
ELLIPSE
  5
16D
330
1F
100
AcDbEntity
  8
1
100
AcDbEllipse
 10
330.420853
 20
296.26677
 30
0.0
 11
0.7633832149817567
 21
0.8339145970099853
 31
0.0
210
0.0
220
0.0
230
1.0
 40
0.017942
 41
1.532929100663975
 42
2.155297589403158
  0
ELLIPSE
  5
16E
330
1F
100
AcDbEntity
  8
1
100
AcDbEllipse
 10
330.627472
 20
291.645853
 30
0.0
 11
0.8343780315579836
 21
-0.7638074528597907
 31
0.0
210
0.0
220
0.0
230
1.0
 40
0.037843
 41
1.588716764079303
 42
2.211085252618595
  0
ELLIPSE
  5
16F
330
1F
100
AcDbEntity
  8
1
100
AcDbEllipse
 10
328.2217839999999
 20
293.892206
 30
0.0
 11
-1.6484801809041
 21
0.5080729211111196
 31
0.0
210
0.0
220
0.0
230
1.0
 40
0.9982459999999999
 41
0.0
 42
6.283185307179584
  0
ELLIPSE
  5
170
330
1F
100
AcDbEntity
  8
1
100
AcDbEllipse
 10
326.083055
 20
291.729118
 30
0.0
 11
-1.051204753040295
 21
0.323988529404192
 31
0.0
210
0.0
220
0.0
230
1.0
 40
0.9982459999999999
 41
2.546164416123319
 42
2.796647573741881
  0
ELLIPSE
  5
171
330
1F
100
AcDbEntity
  8
1
100
AcDbEllipse
 10
326.1228089999999
 20
291.858102
 30
0.0
 11
-1.051204753040295
 21
0.3239885294041919
 31
0.0
210
0.0
220
0.0
230
1.0
 40
0.9982459999999999
 41
0.0695815624906782
 42
1.91389257606201
  0
ELLIPSE
  5
172
330
1F
100
AcDbEntity
  8
1
100
AcDbEllipse
 10
326.1228089999999
 20
291.858102
 30
0.0
 11
-1.051204753040295
 21
0.3239885294041919
 31
0.0
210
0.0
220
0.0
230
1.0
 40
0.9982459999999999
 41
1.913892576062011
 42
2.635477434917119
  0
ELLIPSE
  5
173
330
1F
100
AcDbEntity
  8
1
100
AcDbEllipse
 10
326.083055
 20
291.729118
 30
0.0
 11
-1.051204753040295
 21
0.323988529404192
 31
0.0
210
0.0
220
0.0
230
1.0
 40
0.9982459999999999
 41
5.570026078279797
 42
5.796687130984079
  0
ELLIPSE
  5
174
330
1F
100
AcDbEntity
  8
1
100
AcDbEllipse
 10
326.077825
 20
291.712147
 30
0.0
 11
1.051204753040295
 21
-0.3239885294041936
 31
0.0
210
0.0
220
0.0
230
1.0
 40
0.9982459999999999
 41
2.655094477394278
 42
4.264364009472976
  0
ELLIPSE
  5
175
330
1F
100
AcDbEntity
  8
1
100
AcDbEllipse
 10
325.474514
 20
288.907999
 30
0.0
 11
0.3162115686086955
 21
-7.499991919920412
 31
0.0
210
0.0
220
0.0
230
1.0
 40
0.01982
 41
3.289614496270324
 42
3.329868422996272
  0
ELLIPSE
  5
176
330
1F
100
AcDbEntity
  8
1
100
AcDbEllipse
 10
330.434921
 20
291.047583
 30
0.0
 11
0.0003744272828975
 21
0.5004816776346479
 31
0.0
210
0.0
220
0.0
230
1.0
 40
0.140039
 41
3.203590848633607
 42
4.653636510936175
  0
ELLIPSE
  5
177
330
1F
100
AcDbEntity
  8
1
100
AcDbEllipse
 10
307.565966
 20
288.907993
 30
0.0
 11
48.72537317546441
 21
-4.15326219911943
 31
0.0
210
0.0
220
0.0
230
1.0
 40
0.128168
 41
4.458016503704313
 42
4.492213595792068
  0
ELLIPSE
  5
178
330
1F
100
AcDbEntity
  8
1
100
AcDbEllipse
 10
330.969691
 20
288.907994
 30
0.0
 11
0.8117907706526704
 21
7.499151789085121
 31
0.0
210
0.0
220
0.0
230
1.0
 40
0.138944
 41
1.965275682275763
 42
3.156632395651083
  0
ELLIPSE
  5
179
330
1F
100
AcDbEntity
  8
1
100
AcDbEllipse
 10
330.674842
 20
288.907994
 30
0.0
 11
0.0
 21
7.499999999839501
 31
0.0
210
0.0
220
0.0
230
1.0
 40
0.140541
 41
1.531596055725479
 42
1.95023594022269
  0
ELLIPSE
  5
17A
330
1F
100
AcDbEntity
  8
1
100
AcDbEllipse
 10
296.404842
 20
283.560546
 30
0.0
 11
-0.6769867570327163
 21
-3.942294881259174
 31
0.0
210
0.0
220
0.0
230
1.0
 40
0.252193
 41
4.686395964231642
 42
5.188133033827106
  0
ELLIPSE
  5
17B
330
1F
100
AcDbEntity
  8
1
100
AcDbEllipse
 10
330.170903
 20
284.268632
 30
0.0
 11
0.0323262014611512
 21
0.2994966855051521
 31
0.0
210
0.0
220
0.0
230
0.9999999999999998
 40
0.139171
 41
1.583568179247055
 42
3.154364506042808
  0
ELLIPSE
  5
17C
330
1F
100
AcDbEntity
  8
1
100
AcDbEllipse
 10
330.368463
 20
288.864151
 30
0.0
 11
0.0001054973291392
 21
-0.3000466005980338
 31
0.0
210
0.0
220
0.0
230
1.0
 40
0.140519
 41
3.139090475969152
 42
4.709886802769243
  0
SPLINE
  5
186
330
1F
100
AcDbEntity
  8
1
100
AcDbSpline
210
0.0
220
0.0
230
1.0
 70
     8
 71
     3
 72
    12
 73
     8
 74
     0
 42
0.000000001
 43
0.0000000001
 40
0.0
 40
0.0
 40
0.0
 40
0.0
 40
0.5000000000000272
 40
0.5000000000000272
 40
0.7500000000000135
 40
0.7500000000000135
 40
1.0
 40
1.0
 40
1.0
 40
1.0
 10
326.7666678090512
 20
290.8551595420798
 30
0.0
 10
326.7234035204835
 20
290.8203189662036
 30
0.0
 10
326.677880195794
 20
290.7888721746996
 30
0.0
 10
326.6060938099085
 20
290.7467374863515
 30
0.0
 10
326.5815151551272
 20
290.7335075813615
 30
0.0
 10
326.5315158763164
 20
290.708967515619
 30
0.0
 10
326.5060921218917
 20
290.6976477513522
 30
0.0
 10
326.4802187802376
 20
290.6872810900407
 30
0.0
  0
SPLINE
  5
187
330
1F
100
AcDbEntity
  8
1
100
AcDbSpline
210
0.0
220
0.0
230
1.0
 70
     8
 71
     3
 72
    16
 73
    12
 74
     0
 42
0.000000001
 43
0.0000000001
 40
0.0
 40
0.0
 40
0.0
 40
0.0
 40
0.0624999999999974
 40
0.0624999999999974
 40
0.1249999999999947
 40
0.1249999999999947
 40
0.2499999999999955
 40
0.2499999999999955
 40
0.499999999999997
 40
0.7499999999999986
 40
1.0
 40
1.0
 40
1.0
 40
1.0
 10
323.1541541575884
 20
290.6613584679278
 30
0.0
 10
323.2224040573397
 20
290.6462388298545
 30
0.0
 10
323.2908194899815
 20
290.6316685664198
 30
0.0
 10
323.4279825771435
 20
290.6036313464922
 30
0.0
 10
323.4967698270402
 20
290.5901571385389
 30
0.0
 10
323.7033053086504
 20
290.5514579226918
 30
0.0
 10
323.8411776058887
 20
290.5279617699723
 30
0.0
 10
324.2553351677389
 20
290.464323219404
 30
0.0
 10
324.8089858174055
 20
290.3977233920679
 30
0.0
 10
325.6437444611004
 20
290.3521655795788
 30
0.0
 10
326.2031178530041
 20
290.3582194464738
 30
0.0
 10
326.4835344921954
 20
290.3705248287159
 30
0.0
  0
SPLINE
  5
188
330
1F
100
AcDbEntity
  8
1
100
AcDbSpline
210
0.0
220
0.0
230
1.0
 70
     8
 71
     3
 72
     8
 73
     4
 74
     0
 42
0.000000001
 43
0.0000000001
 40
0.0
 40
0.0
 40
0.0
 40
0.0
 40
1.0
 40
1.0
 40
1.0
 40
1.0
 10
326.4835344922101
 20
290.3705248287165
 30
0.0
 10
326.4869963659476
 20
290.3706767443794
 30
0.0
 10
326.490458766086
 20
290.3708281934564
 30
0.0
 10
326.4939216931085
 20
290.3709791755194
 30
0.0
  0
SPLINE
  5
189
330
1F
100
AcDbEntity
  8
1
100
AcDbSpline
210
0.0
220
0.0
230
1.0
 70
     8
 71
     3
 72
    28
 73
    24
 74
     0
 42
0.000000001
 43
0.0000000001
 40
0.0
 40
0.0
 40
0.0
 40
0.0
 40
0.1250000000000151
 40
0.1250000000000151
 40
0.2500000000000303
 40
0.2500000000000303
 40
0.281250000000032
 40
0.281250000000032
 40
0.3125000000000338
 40
0.3750000000000346
 40
0.3750000000000346
 40
0.5000000000000364
 40
0.5000000000000364
 40
0.5312500000000352
 40
0.5312500000000352
 40
0.5625000000000342
 40
0.6250000000000293
 40
0.6250000000000293
 40
0.7500000000000197
 40
0.7500000000000197
 40
0.8750000000000099
 40
0.8750000000000099
 40
1.0
 40
1.0
 40
1.0
 40
1.0
 10
319.7327601059122
 20
290.8218380659117
 30
0.0
 10
319.983322559437
 20
290.6630545108561
 30
0.0
 10
320.2400182894369
 20
290.5143592023481
 30
0.0
 10
320.7652539938404
 20
290.2372022352641
 30
0.0
 10
321.0337941086682
 20
290.1087389731656
 30
0.0
 10
321.3767335428877
 20
289.9609697624242
 30
0.0
 10
321.4457045991201
 20
289.9320500180792
 30
0.0
 10
321.5840413685493
 20
289.8756304996508
 30
0.0
 10
321.7922551871987
 20
289.7930797766863
 30
0.0
 10
322.0025749227962
 20
289.7167265032089
 30
0.0
 10
322.4259820415624
 20
289.5722145046444
 30
0.0
 10
322.711939003484
 20
289.4867871495094
 30
0.0
 10
323.0739282214898
 20
289.3935956842436
 30
0.0
 10
323.1466012781494
 20
289.3756268302386
 30
0.0
 10
323.2921622492292
 20
289.3411091647105
 30
0.0
 10
323.5107080909596
 20
289.2914877517867
 30
0.0
 10
323.7298601339467
 20
289.2482634060771
 30
0.0
 10
324.1689583131614
 20
289.1702060148263
 30
0.0
 10
324.4627477984239
 20
289.1293418247525
 30
0.0
 10
325.0524015029438
 20
289.0695820986202
 30
0.0
 10
325.348265730145
 20
289.0506865861903
 30
0.0
 10
325.9420746335053
 20
289.034944845827
 30
0.0
 10
326.2400191816049
 20
289.0380972878382
 30
0.0
 10
326.5390304129984
 20
289.052553038555
 30
0.0
  0
SPLINE
  5
18A
330
1F
100
AcDbEntity
  8
1
100
AcDbSpline
210
0.0
220
0.0
230
1.0
 70
     8
 71
     3
 72
    12
 73
     8
 74
     0
 42
0.000000001
 43
0.0000000001
 40
0.0
 40
0.0
 40
0.0
 40
0.0
 40
0.2499999999999986
 40
0.2499999999999986
 40
0.4999999999999973
 40
0.4999999999999973
 40
1.0
 40
1.0
 40
1.0
 40
1.0
 10
319.7245920887497
 20
291.060570784123
 30
0.0
 10
319.4997527026897
 20
291.183210160125
 30
0.0
 10
319.2749018504429
 20
291.3073414298618
 30
0.0
 10
318.8251796037506
 20
291.5582767653458
 30
0.0
 10
318.6003081053926
 20
291.6850943513964
 30
0.0
 10
317.9256640039424
 20
292.0693992679483
 30
0.0
 10
317.4758593672663
 20
292.3307223180765
 30
0.0
 10
317.0260222808662
 20
292.5969321268386
 30
0.0
  0
SPLINE
  5
18B
330
1F
100
AcDbEntity
  8
1
100
AcDbSpline
210
0.0
220
0.0
230
1.0
 70
     8
 71
     3
 72
    78
 73
    74
 74
     0
 42
0.000000001
 43
0.0000000001
 40
0.0
 40
0.0
 40
0.0
 40
0.0
 40
0.0625000000000018
 40
0.0625000000000018
 40
0.1250000000000036
 40
0.1250000000000036
 40
0.1562500000000045
 40
0.1562500000000045
 40
0.171875000000005
 40
0.171875000000005
 40
0.1875000000000055
 40
0.1875000000000055
 40
0.2187500000000077
 40
0.2187500000000077
 40
0.2500000000000098
 40
0.2500000000000098
 40
0.2656250000000114
 40
0.2656250000000114
 40
0.2812500000000129
 40
0.2812500000000129
 40
0.3125000000000156
 40
0.3125000000000156
 40
0.3281250000000167
 40
0.3281250000000167
 40
0.3359375000000173
 40
0.3359375000000173
 40
0.3437500000000178
 40
0.3437500000000178
 40
0.3750000000000203
 40
0.3750000000000203
 40
0.4062500000000226
 40
0.4062500000000226
 40
0.4140625000000235
 40
0.417968750000024
 40
0.417968750000024
 40
0.4218750000000246
 40
0.4218750000000246
 40
0.4375000000000246
 40
0.4531250000000248
 40
0.4531250000000248
 40
0.4609375000000251
 40
0.4609375000000251
 40
0.4687500000000251
 40
0.4687500000000251
 40
0.5000000000000222
 40
0.5000000000000222
 40
0.5156250000000205
 40
0.5156250000000205
 40
0.5234375000000197
 40
0.5234375000000197
 40
0.5312500000000188
 40
0.5312500000000188
 40
0.5625000000000182
 40
0.5625000000000182
 40
0.5937500000000174
 40
0.5937500000000174
 40
0.6250000000000168
 40
0.6250000000000168
 40
0.6562500000000162
 40
0.6562500000000162
 40
0.6875000000000157
 40
0.6875000000000157
 40
0.7187500000000151
 40
0.7187500000000151
 40
0.7500000000000142
 40
0.7500000000000142
 40
0.8125000000000104
 40
0.8125000000000104
 40
0.8750000000000071
 40
0.8750000000000071
 40
0.9375000000000035
 40
0.9375000000000035
 40
1.0
 40
1.0
 40
1.0
 40
1.0
 10
323.1541541575885
 20
290.6613584679278
 30
0.0
 10
323.285537048155
 20
290.6038799849567
 30
0.0
 10
323.41159548101
 20
290.548689818868
 30
0.0
 10
323.6525012938831
 20
290.4418155967321
 30
0.0
 10
323.7673002319567
 20
290.3901415969033
 30
0.0
 10
323.928870605963
 20
290.3144373026191
 30
0.0
 10
323.9809651187674
 20
290.2895028015629
 30
0.0
 10
324.0561077595276
 20
290.2524342840981
 30
0.0
 10
324.0806542814063
 20
290.2401335362143
 30
0.0
 10
324.1286683197945
 20
290.2156216041569
 30
0.0
 10
324.1521059771403
 20
290.2034250208231
 30
0.0
 10
324.2203310352866
 20
290.1671193170998
 30
0.0
 10
324.2631446704832
 20
290.1432416666399
 30
0.0
 10
324.3426188918657
 20
290.0959830178191
 30
0.0
 10
324.3792883967081
 20
290.0726020324676
 30
0.0
 10
324.4287440839063
 20
290.0377868951732
 30
0.0
 10
324.4442556300912
 20
290.0262537916857
 30
0.0
 10
324.4730221419376
 20
290.0034130452731
 30
0.0
 10
324.4862979663632
 20
289.9920912234492
 30
0.0
 10
324.5224599139285
 20
289.9584113386463
 30
0.0
 10
324.541737221489
 20
289.9363340665798
 30
0.0
 10
324.5612729023758
 20
289.9038059111029
 30
0.0
 10
324.566209854707
 20
289.8930621068934
 30
0.0
 10
324.5708188867219
 20
289.8771122259496
 30
0.0
 10
324.5718838877643
 20
289.8718269079811
 30
0.0
 10
324.5729874780128
 20
289.8614078673832
 30
0.0
 10
324.5730297691841
 20
289.8562631252096
 30
0.0
 10
324.5705276832884
 20
289.8308846989023
 30
0.0
 10
324.5599664380418
 20
289.8116574753887
 30
0.0
 10
324.5155562649787
 20
289.7763284866274
 30
0.0
 10
324.4829363936818
 20
289.7609189641608
 30
0.0
 10
324.4279127203093
 20
289.7451002736895
 30
0.0
 10
324.4103341098628
 20
289.7406145672384
 30
0.0
 10
324.391107539151
 20
289.7365420461203
 30
0.0
 10
324.3779189983883
 20
289.733921701006
 30
0.0
 10
324.3711245187512
 20
289.732656408965
 30
0.0
 10
324.3364493644102
 20
289.7266136131787
 30
0.0
 10
324.2764212350322
 20
289.7187343075161
 30
0.0
 10
324.2081893812218
 20
289.7143149584925
 30
0.0
 10
324.1542474337283
 20
289.7122623290348
 30
0.0
 10
324.1357765603308
 20
289.7117881387636
 30
0.0
 10
324.0980856139957
 20
289.7112568024996
 30
0.0
 10
324.0789685126058
 20
289.7112002708622
 30
0.0
 10
323.9821636801782
 20
289.7119001467516
 30
0.0
 10
323.9008687753703
 20
289.7155803469809
 30
0.0
 10
323.7750966647838
 20
289.7249104335383
 30
0.0
 10
323.7325242455164
 20
289.7286601466333
 30
0.0
 10
323.6678661696481
 20
289.735167563633
 30
0.0
 10
323.6461514578078
 20
289.7374872886241
 30
0.0
 10
323.6026305123998
 20
289.7423930699563
 30
0.0
 10
323.5808371977215
 20
289.744977220538
 30
0.0
 10
323.4717319892599
 20
289.7585188717599
 30
0.0
 10
323.3840137404426
 20
289.7713260152212
 30
0.0
 10
323.2081841968863
 20
289.8002275471707
 30
0.0
 10
323.1200692812546
 20
289.8163268997092
 30
0.0
 10
322.9437415078889
 20
289.8513979875163
 30
0.0
 10
322.8555269632046
 20
289.8703720032997
 30
0.0
 10
322.6792023481673
 20
289.9109038782238
 30
0.0
 10
322.5910914062348
 20
289.9324628925016
 30
0.0
 10
322.4151186340169
 20
289.9779558395392
 30
0.0
 10
322.3272563170355
 20
290.0018903982883
 30
0.0
 10
322.1518866480462
 20
290.0519803154328
 30
0.0
 10
322.064327144476
 20
290.0781523830634
 30
0.0
 10
321.8898919742622
 20
290.1325251930582
 30
0.0
 10
321.8030759966612
 20
290.1607065977928
 30
0.0
 10
321.5438707895184
 20
290.2480850306778
 30
0.0
 10
321.3727277072289
 20
290.3101036929012
 30
0.0
 10
321.0338645341232
 20
290.4412055058966
 30
0.0
 10
320.8661428258695
 20
290.5102922584617
 30
0.0
 10
320.5341359827289
 20
290.6554128910775
 30
0.0
 10
320.3698498597561
 20
290.7314488918018
 30
0.0
 10
320.0446819770743
 20
290.8906071101268
 30
0.0
 10
319.8837995811664
 20
290.9737305384392
 30
0.0
 10
319.7245920887497
 20
291.060570784123
 30
0.0
  0
SPLINE
  5
18C
330
1F
100
AcDbEntity
  8
1
100
AcDbSpline
210
0.0
220
0.0
230
1.0
 70
     8
 71
     3
 72
    10
 73
     6
 74
     0
 42
0.000000001
 43
0.0000000001
 40
0.0
 40
0.0
 40
0.0
 40
0.0
 40
0.106644249019514
 40
0.106644249019514
 40
1.0
 40
1.0
 40
1.0
 40
1.0
 10
288.1582419954394
 20
298.2265412460709
 30
0.0
 10
288.1964254450212
 20
298.2038940366845
 30
0.0
 10
288.2347196986227
 20
298.181367132152
 30
0.0
 10
288.5948376451064
 20
297.9712555070546
 30
0.0
 10
288.9242812254666
 20
297.79194403734
 30
0.0
 10
289.2614096556692
 20
297.6209763510048
 30
0.0
  0
SPLINE
  5
18D
330
1F
100
AcDbEntity
  8
1
100
AcDbSpline
210
0.0
220
0.0
230
1.0
 70
     8
 71
     3
 72
    34
 73
    30
 74
     0
 42
0.000000001
 43
0.0000000001
 40
0.0
 40
0.0
 40
0.0
 40
0.0
 40
0.1250000000000017
 40
0.1250000000000017
 40
0.2500000000000034
 40
0.2500000000000034
 40
0.2812500000000037
 40
0.2812500000000037
 40
0.3125000000000039
 40
0.3125000000000039
 40
0.3750000000000042
 40
0.3750000000000042
 40
0.5000000000000041
 40
0.5000000000000041
 40
0.562500000000004
 40
0.562500000000004
 40
0.5937500000000039
 40
0.5937500000000039
 40
0.6250000000000037
 40
0.6250000000000037
 40
0.7500000000000023
 40
0.7500000000000023
 40
0.8125000000000014
 40
0.8125000000000014
 40
0.8437500000000012
 40
0.8437500000000012
 40
0.8750000000000007
 40
0.8750000000000007
 40
1.0
 40
1.0
 40
1.0
 40
1.0
 10
279.4048419452957
 20
276.9046613357839
 30
0.0
 10
279.191004055219
 20
276.8815797536107
 30
0.0
 10
278.9822933784877
 20
276.8471209897346
 30
0.0
 10
278.5746275229754
 20
276.7570729840322
 30
0.0
 10
278.375673279016
 20
276.7014792910605
 30
0.0
 10
278.1332328281131
 20
276.6189600657617
 30
0.0
 10
278.0850592068132
 20
276.6018016847441
 30
0.0
 10
277.9893525357719
 20
276.5661672784693
 30
0.0
 10
277.9421024343389
 20
276.5477962131061
 30
0.0
 10
277.8022513169053
 20
276.4911146170104
 30
0.0
 10
277.711494835746
 20
276.4512187926402
 30
0.0
 10
277.4465457243914
 20
276.3255123983471
 30
0.0
 10
277.2796255133582
 20
276.2337165569322
 30
0.0
 10
277.0442209585313
 20
276.0846161271251
 30
0.0
 10
276.9682603163714
 20
276.0330064801828
 30
0.0
 10
276.8582498317001
 20
275.9527200049923
 30
0.0
 10
276.8224455824286
 20
275.9256304448672
 30
0.0
 10
276.7526980982678
 20
275.8709342516532
 30
0.0
 10
276.718730354502
 20
275.8433097451307
 30
0.0
 10
276.5533896279645
 20
275.7038650891524
 30
0.0
 10
276.4354219999721
 20
275.5881088907342
 30
0.0
 10
276.2803770365543
 20
275.4089437041532
 30
0.0
 10
276.2323636258315
 20
275.3482942229982
 30
0.0
 10
276.166073824236
 20
275.2559710403264
 30
0.0
 10
276.1449148873011
 20
275.2249423552862
 30
0.0
 10
276.1046448822033
 20
275.1625615616016
 30
0.0
 10
276.08562092815
 20
275.1313476539464
 30
0.0
 10
275.9960310435234
 20
274.9751971742952
 30
0.0
 10
275.9419412930269
 20
274.8500334369497
 30
0.0
 10
275.9060069438651
 20
274.7249631814245
 30
0.0
  0
SPLINE
  5
18E
330
1F
100
AcDbEntity
  8
1
100
AcDbSpline
210
0.0
220
0.0
230
1.0
 70
     8
 71
     3
 72
    12
 73
     8
 74
     0
 42
0.000000001
 43
0.0000000001
 40
0.0
 40
0.0
 40
0.0
 40
0.0
 40
0.5000000000000007
 40
0.5000000000000007
 40
0.7500000000000005
 40
0.7500000000000005
 40
1.0
 40
1.0
 40
1.0
 40
1.0
 10
281.3702011728711
 20
278.5219513454853
 30
0.0
 10
281.0396279095126
 20
278.2740508871813
 30
0.0
 10
280.7103241101897
 20
278.0177310047246
 30
0.0
 10
280.2188385166487
 20
277.6152477047836
 30
0.0
 10
280.055419024547
 20
277.4780876448464
 30
0.0
 10
279.7294602477082
 20
277.1968322355466
 30
0.0
 10
279.5669209810068
 20
277.0527393668997
 30
0.0
 10
279.4048419452957
 20
276.9046613357839
 30
0.0
  0
SPLINE
  5
18F
330
1F
100
AcDbEntity
  8
1
100
AcDbSpline
210
0.0
220
0.0
230
1.0
 70
     8
 71
     3
 72
    10
 73
     6
 74
     0
 42
0.000000001
 43
0.0000000001
 40
0.0
 40
0.0
 40
0.0
 40
0.0
 40
0.5
 40
0.5
 40
1.0
 40
1.0
 40
1.0
 40
1.0
 10
285.5972301007209
 20
281.7001493187211
 30
0.0
 10
284.8938567195254
 20
281.16937933923
 30
0.0
 10
284.1897195270041
 20
280.6393319083347
 30
0.0
 10
282.7805563161043
 20
279.5800778561171
 30
0.0
 10
282.0755220221021
 20
279.0508790633516
 30
0.0
 10
281.3702011728711
 20
278.5219513454854
 30
0.0
  0
SPLINE
  5
190
330
1F
100
AcDbEntity
  8
1
100
AcDbSpline
210
0.0
220
0.0
230
1.0
 70
     8
 71
     3
 72
    16
 73
    12
 74
     0
 42
0.000000001
 43
0.0000000001
 40
0.0
 40
0.0
 40
0.0
 40
0.0
 40
0.1792230374887829
 40
0.1792230374887829
 40
0.3584460749775656
 40
0.3584460749775656
 40
0.5376691124663484
 40
0.5376691124663484
 40
0.7168921499551312
 40
0.7168921499551312
 40
1.0
 40
1.0
 40
1.0
 40
1.0
 10
327.7343892744188
 20
292.9058290789454
 30
0.0
 10
327.7305393433222
 20
292.9090222721204
 30
0.0
 10
327.7270357905657
 20
292.9125093439814
 30
0.0
 10
327.7206858780131
 20
292.9200404802947
 30
0.0
 10
327.7178173074573
 20
292.9241288875155
 30
0.0
 10
327.7129024777363
 20
292.9326228321251
 30
0.0
 10
327.7108460811282
 20
292.937023292445
 30
0.0
 10
327.7074985570372
 20
292.9461159804575
 30
0.0
 10
327.7062006742255
 20
292.9508542250149
 30
0.0
 10
327.7039295357285
 20
292.9631562219523
 30
0.0
 10
327.7035528371808
 20
292.9707387028868
 30
0.0
 10
327.7041618409576
 20
292.9782804935193
 30
0.0
  0
SPLINE
  5
191
330
1F
100
AcDbEntity
  8
1
100
AcDbSpline
210
0.0
220
0.0
230
1.0
 70
     8
 71
     3
 72
    14
 73
    10
 74
     0
 42
0.000000001
 43
0.0000000001
 40
0.0
 40
0.0
 40
0.0
 40
0.0
 40
0.3195844447902194
 40
0.3195844447902194
 40
0.639168889580439
 40
0.639168889580439
 40
0.958753334370658
 40
0.958753334370658
 40
1.0
 40
1.0
 40
1.0
 40
1.0
 10
327.71808131979
 20
293.0810105706452
 30
0.0
 10
327.7201978997295
 20
293.0752478678866
 30
0.0
 10
327.7216741753016
 20
293.0692770365861
 30
0.0
 10
327.72333522298
 20
293.0573739368688
 30
0.0
 10
327.7235385858479
 20
293.0514188030762
 30
0.0
 10
327.7227252406635
 20
293.0394987515441
 30
0.0
 10
327.7216921101197
 20
293.0335501570285
 30
0.0
 10
327.7198923385583
 20
293.0271242047739
 30
0.0
 10
327.7196772344135
 20
293.0263927766371
 30
0.0
 10
327.7194527187901
 20
293.025664484436
 30
0.0
  0
SPLINE
  5
192
330
1F
100
AcDbEntity
  8
1
100
AcDbSpline
210
0.0
220
0.0
230
1.0
 70
     8
 71
     3
 72
    19
 73
    15
 74
     0
 42
0.000000001
 43
0.0000000001
 40
0.0
 40
0.0
 40
0.0
 40
0.0
 40
0.2640528351815269
 40
0.2640528351815269
 40
0.3960792527723042
 40
0.3960792527723042
 40
0.5281056703630816
 40
0.6601320879538588
 40
0.6601320879538588
 40
0.7261452967492425
 40
0.7261452967492425
 40
0.792158505544626
 40
0.792158505544626
 40
1.0
 40
1.0
 40
1.0
 40
1.0
 10
327.2552421336509
 20
293.3438536597465
 30
0.0
 10
327.2313500250785
 20
293.3679189964152
 30
0.0
 10
327.2106469269691
 20
293.39445060344
 30
0.0
 10
327.1843537559453
 20
293.4379204282155
 30
0.0
 10
327.1763943845453
 20
293.4530577818112
 30
0.0
 10
327.1624821326302
 20
293.4838255037459
 30
0.0
 10
327.1504569155815
 20
293.5152645978702
 30
0.0
 10
327.1421637053763
 20
293.5480312376114
 30
0.0
 10
327.1373861474554
 20
293.5731193793675
 30
0.0
 10
327.1360357389099
 20
293.5815754013465
 30
0.0
 10
327.1338544015662
 20
293.5984300161251
 30
0.0
 10
327.1330173363803
 20
293.6068569393086
 30
0.0
 10
327.1305761985043
 20
293.6418143127601
 30
0.0
 10
327.1311566008528
 20
293.6683414356402
 30
0.0
 10
327.1342168153732
 20
293.6948645817468
 30
0.0
  0
SPLINE
  5
193
330
1F
100
AcDbEntity
  8
1
100
AcDbSpline
210
0.0
220
0.0
230
1.0
 70
     8
 71
     3
 72
    16
 73
    12
 74
     0
 42
0.000000001
 43
0.0000000001
 40
0.0
 40
0.0
 40
0.0
 40
0.0
 40
0.2130552106373843
 40
0.2130552106373843
 40
0.4261104212747685
 40
0.5326380265934662
 40
0.5326380265934662
 40
0.6391656319121637
 40
0.6391656319121637
 40
0.8522208425495588
 40
1.0
 40
1.0
 40
1.0
 40
1.0
 10
327.3631403121291
 20
294.2015964382279
 30
0.0
 10
327.3674042304597
 20
294.1855969495998
 30
0.0
 10
327.3707257245411
 20
294.1692709841554
 30
0.0
 10
327.3753875875609
 20
294.1364212991245
 30
0.0
 10
327.3774251169885
 20
294.1115484129115
 30
0.0
 10
327.3772247035856
 20
294.0862966240448
 30
0.0
 10
327.3765776585567
 20
294.0693736539925
 30
0.0
 10
327.3759938800196
 20
294.0608353000663
 30
0.0
 10
327.3734782722889
 20
294.0353913742577
 30
0.0
 10
327.368931835771
 20
294.0070157772807
 30
0.0
 10
327.3615741308496
 20
293.9792197532717
 30
0.0
 10
327.3580845237737
 20
293.9679342965513
 30
0.0
  0
SPLINE
  5
194
330
1F
100
AcDbEntity
  8
1
100
AcDbSpline
210
0.0
220
0.0
230
1.0
 70
     8
 71
     3
 72
    14
 73
    10
 74
     0
 42
0.000000001
 43
0.0000000001
 40
0.0
 40
0.0
 40
0.0
 40
0.0
 40
0.25
 40
0.25
 40
0.5
 40
0.5
 40
0.75
 40
0.75
 40
1.0
 40
1.0
 40
1.0
 40
1.0
 10
327.3200212145434
 20
294.2539527792137
 30
0.0
 10
327.3252560149949
 20
294.2513729864304
 30
0.0
 10
327.3302071006477
 20
294.2482489471347
 30
0.0
 10
327.3392985807979
 20
294.2410820494356
 30
0.0
 10
327.3434245121215
 20
294.2370638315694
 30
0.0
 10
327.3508263883659
 20
294.2281433497804
 30
0.0
 10
327.3540997424379
 20
294.2232135705447
 30
0.0
 10
327.3594613055718
 20
294.2128592675209
 30
0.0
 10
327.3615967082126
 20
294.2073884988137
 30
0.0
 10
327.363140312129
 20
294.2015964382273
 30
0.0
  0
SPLINE
  5
195
330
1F
100
AcDbEntity
  8
1
100
AcDbSpline
210
0.0
220
0.0
230
1.0
 70
     8
 71
     3
 72
    20
 73
    16
 74
     0
 42
0.000000001
 43
0.0000000001
 40
0.0
 40
0.0
 40
0.0
 40
0.0
 40
0.2500000000000749
 40
0.2500000000000749
 40
0.3750000000000624
 40
0.3750000000000624
 40
0.50000000000005
 40
0.50000000000005
 40
0.6250000000000375
 40
0.6250000000000375
 40
0.750000000000025
 40
0.750000000000025
 40
0.8750000000000124
 40
0.8750000000000124
 40
1.0
 40
1.0
 40
1.0
 40
1.0
 10
327.3200212145434
 20
294.2539527792137
 30
0.0
 10
327.3116099490878
 20
294.2580979843883
 30
0.0
 10
327.3041364833666
 20
294.2634889024412
 30
0.0
 10
327.2943340481725
 20
294.2734385871178
 30
0.0
 10
327.2913221667309
 20
294.2770682589216
 30
0.0
 10
327.2860118381516
 20
294.2847189026707
 30
0.0
 10
327.2836825976328
 20
294.2887685974405
 30
0.0
 10
327.2797073426878
 20
294.2973361358463
 30
0.0
 10
327.2780804837512
 20
294.3018319837742
 30
0.0
 10
327.2756502087699
 20
294.310986923173
 30
0.0
 10
327.2748287666652
 20
294.3156814296416
 30
0.0
 10
327.2740208336501
 20
294.3253168569669
 30
0.0
 10
327.2740465393561
 20
294.3301794496952
 30
0.0
 10
327.2749507333351
 20
294.3398068874436
 30
0.0
 10
327.2758261546812
 20
294.3446008081287
 30
0.0
 10
327.2771525556147
 20
294.3493732008484
 30
0.0
  0
SPLINE
  5
196
330
1F
100
AcDbEntity
  8
1
100
AcDbSpline
210
0.0
220
0.0
230
1.0
 70
     8
 71
     3
 72
    10
 73
     6
 74
     0
 42
0.000000001
 43
0.0000000001
 40
0.0
 40
0.0
 40
0.0
 40
0.0
 40
0.6066772181103337
 40
0.6066772181103337
 40
1.0
 40
1.0
 40
1.0
 40
1.0
 10
328.0976679793461
 20
294.7489620622706
 30
0.0
 10
328.0979663821334
 20
294.7432403620013
 30
0.0
 10
328.0976506909392
 20
294.7374917900611
 30
0.0
 10
328.0961427019302
 20
294.7282129923041
 30
0.0
 10
328.0953037968612
 20
294.7246235287311
 30
0.0
 10
328.0942166959698
 20
294.7210943562657
 30
0.0
  0
SPLINE
  5
197
330
1F
100
AcDbEntity
  8
1
100
AcDbSpline
210
0.0
220
0.0
230
1.0
 70
     8
 71
     3
 72
    20
 73
    16
 74
     0
 42
0.000000001
 43
0.0000000001
 40
0.0
 40
0.0
 40
0.0
 40
0.0
 40
0.1249999999999808
 40
0.1249999999999808
 40
0.2499999999999616
 40
0.3124999999999505
 40
0.3124999999999505
 40
0.3749999999999394
 40
0.3749999999999394
 40
0.4999999999999581
 40
0.6249999999999769
 40
0.6249999999999769
 40
0.7499999999999958
 40
0.7499999999999958
 40
1.0
 40
1.0
 40
1.0
 40
1.0
 10
327.4294155294942
 20
293.3449017661209
 30
0.0
 10
327.4456471108634
 20
293.3406273592402
 30
0.0
 10
327.4616704728935
 20
293.3353696227902
 30
0.0
 10
327.4928468641342
 20
293.3230298695607
 30
0.0
 10
327.5156669282072
 20
293.3123867522578
 30
0.0
 10
327.5376348095697
 20
293.2996041380545
 30
0.0
 10
327.5520854473983
 20
293.290590695387
 30
0.0
 10
327.5592401290386
 20
293.2858187339269
 30
0.0
 10
327.5801496061682
 20
293.2709217238524
 30
0.0
 10
327.6065962115843
 20
293.2495103789398
 30
0.0
 10
327.6302546041768
 20
293.2250841242125
 30
0.0
 10
327.6524989767317
 20
293.1991294009197
 30
0.0
 10
327.662933518189
 20
293.1853300522955
 30
0.0
 10
327.6912041808862
 20
293.1428730848913
 30
0.0
 10
327.7064015581097
 20
293.1128104538445
 30
0.0
 10
327.71808131979
 20
293.0810105706452
 30
0.0
  0
SPLINE
  5
198
330
1F
100
AcDbEntity
  8
1
100
AcDbSpline
210
0.0
220
0.0
230
1.0
 70
     8
 71
     3
 72
    14
 73
    10
 74
     0
 42
0.000000001
 43
0.0000000001
 40
0.0
 40
0.0
 40
0.0
 40
0.0
 40
0.0581782240499898
 40
0.0581782240499898
 40
0.2465425792399913
 40
0.2465425792399913
 40
0.6232712896199957
 40
0.6232712896199957
 40
1.0
 40
1.0
 40
1.0
 40
1.0
 10
329.1242527882924
 20
293.9015691408934
 30
0.0
 10
329.1233814981733
 20
293.9003960972963
 30
0.0
 10
329.1224801306837
 20
293.8992487255482
 30
0.0
 10
329.1185349070552
 20
293.8944937386167
 30
0.0
 10
329.1151750512511
 20
293.8910984241105
 30
0.0
 10
329.1044012994108
 20
293.881961747533
 30
0.0
 10
329.0963589010747
 20
293.8772573390434
 30
0.0
 10
329.0789095555083
 20
293.870691254471
 30
0.0
 10
329.0698738679297
 20
293.868950162431
 30
0.0
 10
329.0605333809158
 20
293.8687340946891
 30
0.0
  0
SPLINE
  5
199
330
1F
100
AcDbEntity
  8
1
100
AcDbSpline
210
0.0
220
0.0
230
1.0
 70
     8
 71
     3
 72
    14
 73
    10
 74
     0
 42
0.000000001
 43
0.0000000001
 40
0.0
 40
0.0
 40
0.0
 40
0.0
 40
0.25
 40
0.25
 40
0.5
 40
0.5
 40
0.75
 40
0.75
 40
1.0
 40
1.0
 40
1.0
 40
1.0
 10
328.9995841959412
 20
293.8394106561341
 30
0.0
 10
329.0034149177729
 20
293.8440182089464
 30
0.0
 10
329.007732522253
 20
293.8481626563565
 30
0.0
 10
329.01696502038
 20
293.8553002226797
 30
0.0
 10
329.0218894534893
 20
293.858319998544
 30
0.0
 10
329.0323408181639
 20
293.8632942376304
 30
0.0
 10
329.0378636781429
 20
293.8652271639163
 30
0.0
 10
329.0490222371811
 20
293.8678638792872
 30
0.0
 10
329.0547176624384
 20
293.8685995632501
 30
0.0
 10
329.0605333809158
 20
293.8687340946891
 30
0.0
  0
SPLINE
  5
19A
330
1F
100
AcDbEntity
  8
1
100
AcDbSpline
210
0.0
220
0.0
230
1.0
 70
     8
 71
     3
 72
    19
 73
    15
 74
     0
 42
0.000000001
 43
0.0000000001
 40
0.0
 40
0.0
 40
0.0
 40
0.0
 40
0.1643027588095683
 40
0.1643027588095683
 40
0.3035856323413112
 40
0.3035856323413112
 40
0.4428685058730539
 40
0.5821513794047969
 40
0.5821513794047969
 40
0.6517928161706707
 40
0.6517928161706707
 40
0.7214342529365443
 40
0.7214342529365443
 40
1.0
 40
1.0
 40
1.0
 40
1.0
 10
328.9862993509258
 20
293.2645443124428
 30
0.0
 10
328.9791235563519
 20
293.2459021262525
 30
0.0
 10
328.9706732278478
 20
293.2278108303253
 30
0.0
 10
328.9527114973982
 20
293.195398217764
 30
0.0
 10
328.9435217163949
 20
293.1809150758642
 30
0.0
 10
328.9237424244985
 20
293.1534682448329
 30
0.0
 10
328.9024675560617
 20
293.1273476202016
 30
0.0
 10
328.8782347272118
 20
293.1038497049864
 30
0.0
 10
328.8589169389969
 20
293.0872399751265
 30
0.0
 10
328.8522796702214
 20
293.0818700677892
 30
0.0
 10
328.8388024283059
 20
293.0716152507699
 30
0.0
 10
328.8319409900952
 20
293.0667109268051
 30
0.0
 10
328.7970319542151
 20
293.0432830044313
 30
0.0
 10
328.7672032004636
 20
293.0279955553769
 30
0.0
 10
328.7354306523492
 20
293.0162510810127
 30
0.0
  0
SPLINE
  5
19B
330
1F
100
AcDbEntity
  8
1
100
AcDbSpline
210
0.0
220
0.0
230
1.0
 70
     8
 71
     3
 72
    12
 73
     8
 74
     0
 42
0.000000001
 43
0.0000000001
 40
0.0
 40
0.0
 40
0.0
 40
0.0
 40
0.0926592527268323
 40
0.0926592527268323
 40
0.3951061684845414
 40
0.3951061684845414
 40
1.0
 40
1.0
 40
1.0
 40
1.0
 10
328.921203532855
 20
293.6944878021524
 30
0.0
 10
328.9227364975863
 20
293.6994453188162
 30
0.0
 10
328.9243605390906
 20
293.7043776781626
 30
0.0
 10
328.9316756829916
 20
293.7253019661329
 30
0.0
 10
328.9382891486736
 20
293.7410943698571
 30
0.0
 10
328.9604582918489
 20
293.7862765941387
 30
0.0
 10
328.9784456105692
 20
293.8139853831019
 30
0.0
 10
328.9995841959412
 20
293.8394106561341
 30
0.0
  0
SPLINE
  5
19C
330
1F
100
AcDbEntity
  8
1
100
AcDbSpline
210
0.0
220
0.0
230
1.0
 70
     8
 71
     3
 72
    18
 73
    14
 74
     0
 42
0.000000001
 43
0.0000000001
 40
0.0
 40
0.0
 40
0.0
 40
0.0
 40
0.1249999999999609
 40
0.1249999999999609
 40
0.2499999999999217
 40
0.2499999999999217
 40
0.3749999999998826
 40
0.3749999999998826
 40
0.4999999999998435
 40
0.4999999999998435
 40
0.7499999999999219
 40
0.7499999999999219
 40
1.0
 40
1.0
 40
1.0
 40
1.0
 10
328.7354306523492
 20
293.0162510810127
 30
0.0
 10
328.7307682355552
 20
293.0145276550439
 30
0.0
 10
328.7260314925608
 20
293.0132526553823
 30
0.0
 10
328.7164177080799
 20
293.011553290119
 30
0.0
 10
328.7114917271732
 20
293.01113206907
 30
0.0
 10
328.7017872624902
 20
293.0111623505655
 30
0.0
 10
328.6970079665527
 20
293.0116025008082
 30
0.0
 10
328.6875898576925
 20
293.0132933527015
 30
0.0
 10
328.6829085500197
 20
293.0145614382562
 30
0.0
 10
328.6694224041007
 20
293.0194976236318
 30
0.0
 10
328.661189757744
 20
293.0242372660601
 30
0.0
 10
328.6464948404617
 20
293.0363304992458
 30
0.0
 10
328.6403243037764
 20
293.0434197911636
 30
0.0
 10
328.6353198135128
 20
293.0515390143758
 30
0.0
  0
SPLINE
  5
19D
330
1F
100
AcDbEntity
  8
1
100
AcDbSpline
210
0.0
220
0.0
230
1.0
 70
     8
 71
     3
 72
    14
 73
    10
 74
     0
 42
0.000000001
 43
0.0000000001
 40
0.0
 40
0.0
 40
0.0
 40
0.0
 40
0.25
 40
0.25
 40
0.5
 40
0.5
 40
0.75
 40
0.75
 40
1.0
 40
1.0
 40
1.0
 40
1.0
 10
328.5784474920396
 20
293.0905923796997
 30
0.0
 10
328.5844194923284
 20
293.089517722499
 30
0.0
 10
328.5902414803597
 20
293.0877825976135
 30
0.0
 10
328.6011944403936
 20
293.0832118610917
 30
0.0
 10
328.6063543109882
 20
293.080380827571
 30
0.0
 10
328.6160612007167
 20
293.0736559683589
 30
0.0
 10
328.6205860053961
 20
293.0697561451292
 30
0.0
 10
328.6286281623246
 20
293.0612437040463
 30
0.0
 10
328.6322037942105
 20
293.0565944056178
 30
0.0
 10
328.6353198135128
 20
293.0515390143758
 30
0.0
  0
SPLINE
  5
19E
330
1F
100
AcDbEntity
  8
1
100
AcDbSpline
210
0.0
220
0.0
230
1.0
 70
     8
 71
     3
 72
    20
 73
    16
 74
     0
 42
0.000000001
 43
0.0000000001
 40
0.0
 40
0.0
 40
0.0
 40
0.0
 40
0.125
 40
0.125
 40
0.25
 40
0.3125
 40
0.3125
 40
0.375
 40
0.375
 40
0.5
 40
0.625
 40
0.625
 40
0.75
 40
0.75
 40
1.0
 40
1.0
 40
1.0
 40
1.0
 10
328.2054932410571
 20
292.9731341749729
 30
0.0
 10
328.2175294471279
 20
292.9850816439696
 30
0.0
 10
328.2302935211497
 20
292.9963517766506
 30
0.0
 10
328.2569165237369
 20
293.0172136203097
 30
0.0
 10
328.2777688434286
 20
293.0316697046615
 30
0.0
 10
328.2999876464947
 20
293.0443027445152
 30
0.0
 10
328.3151144443173
 20
293.0523067765778
 30
0.0
 10
328.322865220396
 20
293.0561131780487
 30
0.0
 10
328.3463199763041
 20
293.0667561553692
 30
0.0
 10
328.3781551310973
 20
293.0789172357078
 30
0.0
 10
328.4110830466022
 20
293.0871272532224
 30
0.0
 10
328.4445657741737
 20
293.0933342367459
 30
0.0
 10
328.4616435700225
 20
293.0954238107481
 30
0.0
 10
328.5121980321961
 20
293.0985203172148
 30
0.0
 10
328.5454925010044
 20
293.0965226068768
 30
0.0
 10
328.5784474920396
 20
293.0905923796997
 30
0.0
  0
SPLINE
  5
19F
330
1F
100
AcDbEntity
  8
1
100
AcDbSpline
210
0.0
220
0.0
230
1.0
 70
     8
 71
     3
 72
    12
 73
     8
 74
     0
 42
0.000000001
 43
0.0000000001
 40
0.0
 40
0.0
 40
0.0
 40
0.0
 40
0.1495421036716872
 40
0.1495421036716872
 40
0.5747710518358437
 40
0.5747710518358437
 40
1.0
 40
1.0
 40
1.0
 40
1.0
 10
328.1837889397443
 20
292.9371668354145
 30
0.0
 10
328.1844030582563
 20
292.9391604656419
 30
0.0
 10
328.1850899180085
 20
292.9411354235815
 30
0.0
 10
328.1880109316077
 20
292.9486542834608
 30
0.0
 10
328.1907883018642
 20
292.9540765387146
 30
0.0
 10
328.1973414761293
 20
292.9641209270396
 30
0.0
 10
328.2011356006985
 20
292.9688086613702
 30
0.0
 10
328.2054932410573
 20
292.9731341749729
 30
0.0
  0
SPLINE
  5
1A0
330
1F
100
AcDbEntity
  8
1
100
AcDbSpline
210
0.0
220
0.0
230
1.0
 70
     8
 71
     3
 72
    14
 73
    10
 74
     0
 42
0.000000001
 43
0.0000000001
 40
0.0
 40
0.0
 40
0.0
 40
0.0
 40
0.1242140902663741
 40
0.1242140902663741
 40
0.4161427268442494
 40
0.4161427268442494
 40
0.7080713634221249
 40
0.7080713634221249
 40
1.0
 40
1.0
 40
1.0
 40
1.0
 10
328.158623661483
 20
292.8475605528612
 30
0.0
 10
328.1572591469219
 20
292.8459971414555
 30
0.0
 10
328.1558390149391
 20
292.8444835972602
 30
0.0
 10
328.1509183430281
 20
292.8396089114339
 30
0.0
 10
328.1471751746707
 20
292.8364782260961
 30
0.0
 10
328.1390722957862
 20
292.8308301020389
 30
0.0
 10
328.1347753107913
 20
292.8283632972122
 30
0.0
 10
328.1258594011533
 20
292.8242347910713
 30
0.0
 10
328.1212161645616
 20
292.822555369973
 30
0.0
 10
328.1163757833518
 20
292.8212859523185
 30
0.0
  0
SPLINE
  5
1A1
330
1F
100
AcDbEntity
  8
1
100
AcDbSpline
210
0.0
220
0.0
230
1.0
 70
     8
 71
     3
 72
    19
 73
    15
 74
     0
 42
0.000000001
 43
0.0000000001
 40
0.0
 40
0.0
 40
0.0
 40
0.0
 40
0.2499999999999856
 40
0.2499999999999856
 40
0.3749999999999784
 40
0.3749999999999784
 40
0.4999999999999711
 40
0.6249999999999642
 40
0.6249999999999642
 40
0.6874999999999845
 40
0.6874999999999845
 40
0.7500000000000049
 40
0.7500000000000049
 40
1.0
 40
1.0
 40
1.0
 40
1.0
 10
328.1163757833518
 20
292.8212859523185
 30
0.0
 10
328.0833851262155
 20
292.8126339638097
 30
0.0
 10
328.0498967458158
 20
292.8079861251289
 30
0.0
 10
327.9989252084596
 20
292.8069873221007
 30
0.0
 10
327.981787315341
 20
292.807677536456
 30
0.0
 10
327.9481105962491
 20
292.81104573366
 30
0.0
 10
327.9148177950883
 20
292.8163876017813
 30
0.0
 10
327.88228425929
 20
292.8256327710447
 30
0.0
 10
327.8581775729398
 20
292.8340753149651
 30
0.0
 10
327.850185297279
 20
292.8371462569552
 30
0.0
 10
327.8345157455261
 20
292.8437099226628
 30
0.0
 10
327.8268108392452
 20
292.8472115534632
 30
0.0
 10
327.7889230648524
 20
292.8657971579701
 30
0.0
 10
327.7606242381188
 20
292.8840693889843
 30
0.0
 10
327.7343892744188
 20
292.9058290789454
 30
0.0
  0
SPLINE
  5
1A2
330
1F
100
AcDbEntity
  8
1
100
AcDbSpline
210
0.0
220
0.0
230
1.0
 70
     8
 71
     3
 72
    14
 73
    10
 74
     0
 42
0.000000001
 43
0.0000000001
 40
0.0
 40
0.0
 40
0.0
 40
0.0
 40
0.25
 40
0.25
 40
0.5
 40
0.5
 40
0.75
 40
0.75
 40
1.0
 40
1.0
 40
1.0
 40
1.0
 10
327.3611764765363
 20
293.3335386634726
 30
0.0
 10
327.3661500264656
 20
293.3368015135833
 30
0.0
 10
327.3714540759844
 20
293.3395464642115
 30
0.0
 10
327.3824476189482
 20
293.3438735019448
 30
0.0
 10
327.3881083120035
 20
293.345455448692
 30
0.0
 10
327.3997644722877
 20
293.3474397261207
 30
0.0
 10
327.4057824224639
 20
293.3478260490396
 30
0.0
 10
327.4176373004354
 20
293.3473218226536
 30
0.0
 10
327.4235392824065
 20
293.3464492106003
 30
0.0
 10
327.4294155294946
 20
293.3449017661207
 30
0.0
  0
SPLINE
  5
1A3
330
1F
100
AcDbEntity
  8
1
100
AcDbSpline
210
0.0
220
0.0
230
1.0
 70
     8
 71
     3
 72
    20
 73
    16
 74
     0
 42
0.000000001
 43
0.0000000001
 40
0.0
 40
0.0
 40
0.0
 40
0.0
 40
0.250000000000004
 40
0.250000000000004
 40
0.3750000000000033
 40
0.3750000000000033
 40
0.5000000000000027
 40
0.5000000000000027
 40
0.6250000000000023
 40
0.6250000000000023
 40
0.7500000000000015
 40
0.7500000000000015
 40
0.8750000000000007
 40
0.8750000000000007
 40
1.0
 40
1.0
 40
1.0
 40
1.0
 10
327.3611764765363
 20
293.3335386634726
 30
0.0
 10
327.3531850329217
 20
293.3282959529231
 30
0.0
 10
327.3445866276223
 20
293.3244892591791
 30
0.0
 10
327.330782920149
 20
293.3209316886717
 30
0.0
 10
327.3260398216916
 20
293.3201241755384
 30
0.0
 10
327.3165790345457
 20
293.3193240103981
 30
0.0
 10
327.3118203012463
 20
293.3193189677177
 30
0.0
 10
327.3022450177875
 20
293.3201359455046
 30
0.0
 10
327.297458271752
 20
293.3209635514641
 30
0.0
 10
327.2881664273749
 20
293.323415534756
 30
0.0
 10
327.2836210697179
 20
293.3250419099703
 30
0.0
 10
327.2747448799975
 20
293.3291429489823
 30
0.0
 10
327.2704898073302
 20
293.3315887691584
 30
0.0
 10
327.2625046259972
 20
293.337172780592
 30
0.0
 10
327.258747699992
 20
293.3403226765368
 30
0.0
 10
327.2552421336509
 20
293.3438536597465
 30
0.0
  0
SPLINE
  5
1A4
330
1F
100
AcDbEntity
  8
1
100
AcDbSpline
210
0.0
220
0.0
230
1.0
 70
     8
 71
     3
 72
    29
 73
    25
 74
     0
 42
0.000000001
 43
0.0000000001
 40
0.0
 40
0.0
 40
0.0
 40
0.0
 40
0.1249999999999919
 40
0.1249999999999919
 40
0.1874999999999878
 40
0.1874999999999878
 40
0.2499999999999838
 40
0.2499999999999838
 40
0.3749999999999885
 40
0.3749999999999885
 40
0.4374999999999902
 40
0.4374999999999902
 40
0.4999999999999915
 40
0.4999999999999915
 40
0.6249999999999945
 40
0.6249999999999945
 40
0.6874999999999955
 40
0.6874999999999955
 40
0.7499999999999964
 40
0.8124999999999971
 40
0.8124999999999971
 40
0.8749999999999978
 40
0.8749999999999978
 40
1.0
 40
1.0
 40
1.0
 40
1.0
 10
325.5562289468974
 20
291.3947162366681
 30
0.0
 10
325.557366711139
 20
291.3692707840663
 30
0.0
 10
325.5610715581678
 20
291.3443786967898
 30
0.0
 10
325.57024475393
 20
291.3078200217013
 30
0.0
 10
325.5739101280922
 20
291.2957647812074
 30
0.0
 10
325.5824741193182
 20
291.271920140442
 30
0.0
 10
325.5873858470425
 20
291.2601223715417
 30
0.0
 10
325.6036474606737
 20
291.2258906015627
 30
0.0
 10
325.6165931846141
 20
291.2043413187548
 30
0.0
 10
325.6391225400465
 20
291.1738973187042
 30
0.0
 10
325.6471995716828
 20
291.1640170833249
 30
0.0
 10
325.6642019895202
 20
291.1451664074773
 30
0.0
 10
325.6730997435694
 20
291.1362151936796
 30
0.0
 10
325.7009495876094
 20
291.110744404669
 30
0.0
 10
325.7210467606034
 20
291.0955939333398
 30
0.0
 10
325.7535662678237
 20
291.0757063675323
 30
0.0
 10
325.7647569035323
 20
291.0695909758932
 30
0.0
 10
325.7874631852767
 20
291.0585716890623
 30
0.0
 10
325.810598411726
 20
291.048698519315
 30
0.0
 10
325.8345858661377
 20
291.0411024566532
 30
0.0
 10
325.859009558099
 20
291.0346719971625
 30
0.0
 10
325.8714992070421
 20
291.0320312742382
 30
0.0
 10
325.9091715707826
 20
291.0260244388215
 30
0.0
 10
325.9344655649516
 20
291.0245388253828
 30
0.0
 10
325.9599441557946
 20
291.0256496805015
 30
0.0
  0
SPLINE
  5
1A5
330
1F
100
AcDbEntity
  8
1
100
AcDbSpline
210
0.0
220
0.0
230
1.0
 70
     8
 71
     3
 72
    29
 73
    25
 74
     0
 42
0.000000001
 43
0.0000000001
 40
0.0
 40
0.0
 40
0.0
 40
0.0
 40
0.1250000000000276
 40
0.1250000000000276
 40
0.1875000000000414
 40
0.1875000000000414
 40
0.2500000000000551
 40
0.2500000000000551
 40
0.3750000000000641
 40
0.3750000000000641
 40
0.4375000000000668
 40
0.4375000000000668
 40
0.5000000000000698
 40
0.5000000000000698
 40
0.6250000000000525
 40
0.6250000000000525
 40
0.6875000000000441
 40
0.6875000000000441
 40
0.7500000000000357
 40
0.812500000000027
 40
0.812500000000027
 40
0.8750000000000184
 40
0.8750000000000184
 40
1.0
 40
1.0
 40
1.0
 40
1.0
 10
330.8925702678371
 20
296.4066680197021
 30
0.0
 10
330.8914325035955
 20
296.4321134723039
 30
0.0
 10
330.8877276565667
 20
296.4570055595804
 30
0.0
 10
330.8785544608045
 20
296.4935642346688
 30
0.0
 10
330.8748890866423
 20
296.5056194751627
 30
0.0
 10
330.8663250954163
 20
296.5294641159281
 30
0.0
 10
330.861413367692
 20
296.5412618848284
 30
0.0
 10
330.8451517540608
 20
296.5754936548075
 30
0.0
 10
330.8322060301203
 20
296.5970429376154
 30
0.0
 10
330.809676674688
 20
296.6274869376659
 30
0.0
 10
330.8015996430517
 20
296.6373671730453
 30
0.0
 10
330.7845972252143
 20
296.6562178488928
 30
0.0
 10
330.775699471165
 20
296.6651690626906
 30
0.0
 10
330.7478496271252
 20
296.6906398517011
 30
0.0
 10
330.7277524541311
 20
296.7057903230303
 30
0.0
 10
330.6952329469108
 20
296.7256778888378
 30
0.0
 10
330.6840423112022
 20
296.7317932804771
 30
0.0
 10
330.6613360294577
 20
296.7428125673078
 30
0.0
 10
330.6382008030084
 20
296.7526857370551
 30
0.0
 10
330.6142133485968
 20
296.7602817997169
 30
0.0
 10
330.5897896566353
 20
296.7667122592076
 30
0.0
 10
330.5773000076924
 20
296.7693529821318
 30
0.0
 10
330.5396276439519
 20
296.7753598175487
 30
0.0
 10
330.514333649783
 20
296.7768454309874
 30
0.0
 10
330.4888550589399
 20
296.7757345758687
 30
0.0
  0
SPLINE
  5
1A6
330
1F
100
AcDbEntity
  8
1
100
AcDbSpline
210
0.0
220
0.0
230
1.0
 70
     8
 71
     3
 72
    29
 73
    25
 74
     0
 42
0.000000001
 43
0.0000000001
 40
0.0
 40
0.0
 40
0.0
 40
0.0
 40
0.1250000000000064
 40
0.1250000000000064
 40
0.1875000000000097
 40
0.1875000000000097
 40
0.2500000000000129
 40
0.2500000000000129
 40
0.3750000000000174
 40
0.3750000000000174
 40
0.4375000000000184
 40
0.4375000000000184
 40
0.5000000000000196
 40
0.5000000000000196
 40
0.6250000000000183
 40
0.6250000000000183
 40
0.687500000000016
 40
0.687500000000016
 40
0.7500000000000137
 40
0.8125000000000113
 40
0.8125000000000113
 40
0.875000000000009
 40
0.875000000000009
 40
1.0
 40
1.0
 40
1.0
 40
1.0
 10
325.7121479111627
 20
296.5674722893721
 30
0.0
 10
325.686666629131
 20
296.5663613169187
 30
0.0
 10
325.6617420526252
 20
296.5626864350796
 30
0.0
 10
325.6251393486118
 20
296.5535626570717
 30
0.0
 10
325.613070222453
 20
296.5499145066554
 30
0.0
 10
325.5891994150115
 20
296.5413864874434
 30
0.0
 10
325.5773893659012
 20
296.5364935352562
 30
0.0
 10
325.5431239504414
 20
296.5202893125945
 30
0.0
 10
325.5215561640789
 20
296.5073836425567
 30
0.0
 10
325.4910902126421
 20
296.4849170184963
 30
0.0
 10
325.4812036095035
 20
296.4768614547833
 30
0.0
 10
325.4623423576746
 20
296.4599023032396
 30
0.0
 10
325.4533869362734
 20
296.4510262885183
 30
0.0
 10
325.4279066755597
 20
296.4232419721556
 30
0.0
 10
325.4127540599094
 20
296.4031888941245
 30
0.0
 10
325.392869744896
 20
296.3707361649573
 30
0.0
 10
325.3867565296562
 20
296.3595677892862
 30
0.0
 10
325.3757436761911
 20
296.3369053015244
 30
0.0
 10
325.3658790281262
 20
296.3138133581879
 30
0.0
 10
325.3582956362178
 20
296.289868171892
 30
0.0
 10
325.3518799713025
 20
296.2654862284908
 30
0.0
 10
325.3492477545053
 20
296.2530172887397
 30
0.0
 10
325.3432694200498
 20
296.2154054548015
 30
0.0
 10
325.3418066423942
 20
296.1901495843643
 30
0.0
 10
325.3429442864716
 20
296.1647068191671
 30
0.0
  0
SPLINE
  5
1A7
330
1F
100
AcDbEntity
  8
1
100
AcDbSpline
210
0.0
220
0.0
230
1.0
 70
     8
 71
     3
 72
    29
 73
    25
 74
     0
 42
0.000000001
 43
0.0000000001
 40
0.0
 40
0.0
 40
0.0
 40
0.0
 40
0.1249999999999832
 40
0.1249999999999832
 40
0.1874999999999916
 40
0.1874999999999916
 40
0.2499999999999999
 40
0.2499999999999999
 40
0.3750000000000165
 40
0.3750000000000165
 40
0.4375000000000248
 40
0.4375000000000248
 40
0.5000000000000331
 40
0.5000000000000331
 40
0.625000000000025
 40
0.625000000000025
 40
0.6875000000000208
 40
0.6875000000000208
 40
0.7500000000000167
 40
0.8125000000000124
 40
0.8125000000000124
 40
0.8750000000000083
 40
0.8750000000000083
 40
1.0
 40
1.0
 40
1.0
 40
1.0
 10
330.7366513035718
 20
291.2339119669982
 30
0.0
 10
330.7621325856035
 20
291.2350229394514
 30
0.0
 10
330.7870571621092
 20
291.2386978212905
 30
0.0
 10
330.8236598661226
 20
291.2478215992984
 30
0.0
 10
330.8357289922815
 20
291.2514697497148
 30
0.0
 10
330.859599799723
 20
291.2599977689268
 30
0.0
 10
330.8714098488333
 20
291.2648907211139
 30
0.0
 10
330.9056752642931
 20
291.2810949437757
 30
0.0
 10
330.9272430506557
 20
291.2940006138133
 30
0.0
 10
330.9577090020924
 20
291.3164672378738
 30
0.0
 10
330.967595605231
 20
291.3245228015869
 30
0.0
 10
330.9864568570599
 20
291.3414819531305
 30
0.0
 10
330.9954122784611
 20
291.3503579678518
 30
0.0
 10
331.0208925391748
 20
291.3781422842145
 30
0.0
 10
331.0360451548252
 20
291.3981953622457
 30
0.0
 10
331.0559294698385
 20
291.4306480914129
 30
0.0
 10
331.0620426850783
 20
291.4418164670839
 30
0.0
 10
331.0730555385434
 20
291.4644789548457
 30
0.0
 10
331.0829202352872
 20
291.4875708799752
 30
0.0
 10
331.0905035785167
 20
291.5115160844782
 30
0.0
 10
331.096919243432
 20
291.5358980278794
 30
0.0
 10
331.0995514602291
 20
291.5483669676304
 30
0.0
 10
331.1055297946846
 20
291.5859788015686
 30
0.0
 10
331.1069925723402
 20
291.6112346720058
 30
0.0
 10
331.1058549282629
 20
291.6366774372032
 30
0.0
  0
SPLINE
  5
1A8
330
1F
100
AcDbEntity
  8
1
100
AcDbSpline
210
0.0
220
0.0
230
1.0
 70
     8
 71
     3
 72
    25
 73
    21
 74
     0
 42
0.000000001
 43
0.0000000001
 40
0.0
 40
0.0
 40
0.0
 40
0.0
 40
0.0625
 40
0.0625
 40
0.1250000000000001
 40
0.1250000000000001
 40
0.2500000000000002
 40
0.2500000000000002
 40
0.3750000000000002
 40
0.3750000000000002
 40
0.5000000000000005
 40
0.5000000000000005
 40
0.6250000000000006
 40
0.6250000000000006
 40
0.6875000000000006
 40
0.6875000000000006
 40
0.7500000000000006
 40
0.7500000000000006
 40
0.8750000000000001
 40
1.0
 40
1.0
 40
1.0
 40
1.0
 10
292.8088735071246
 20
281.5336224046471
 30
0.0
 10
292.6343229967485
 20
281.4887667120781
 30
0.0
 10
292.4616939156724
 20
281.4410540784684
 30
0.0
 10
292.1198690786511
 20
281.3405238576222
 30
0.0
 10
291.9506741948684
 20
281.2877049735822
 30
0.0
 10
291.4477894554261
 20
281.1222601011763
 30
0.0
 10
291.1187681679649
 20
281.0026924969582
 30
0.0
 10
290.4717334654506
 20
280.7471898674285
 30
0.0
 10
290.1537326843942
 20
280.6112360568384
 30
0.0
 10
289.5281684975298
 20
280.3238092772355
 30
0.0
 10
289.2206122848051
 20
280.1723256129475
 30
0.0
 10
288.6159304156592
 20
279.8538492649236
 30
0.0
 10
288.3188085623957
 20
279.6868509263356
 30
0.0
 10
287.8812478571327
 20
279.424276841734
 30
0.0
 10
287.7366196758515
 20
279.3346471581742
 30
0.0
 10
287.4512642244438
 20
279.1519585396181
 30
0.0
 10
287.3104395720981
 20
279.0588463835494
 30
0.0
 10
286.8936109960533
 20
278.7741241767654
 30
0.0
 10
286.3528774239344
 20
278.3801483266303
 30
0.0
 10
285.843564778659
 20
277.9561966612122
 30
0.0
 10
285.5972301007208
 20
277.7362819129644
 30
0.0
  0
SPLINE
  5
1A9
330
1F
100
AcDbEntity
  8
1
100
AcDbSpline
210
0.0
220
0.0
230
1.0
 70
     8
 71
     3
 72
    32
 73
    28
 74
     0
 42
0.000000001
 43
0.0000000001
 40
0.0
 40
0.0
 40
0.0
 40
0.0
 40
0.0624999999999986
 40
0.0624999999999986
 40
0.1249999999999971
 40
0.1249999999999971
 40
0.1874999999999957
 40
0.1874999999999957
 40
0.2499999999999943
 40
0.2499999999999943
 40
0.3124999999999928
 40
0.3124999999999928
 40
0.3749999999999915
 40
0.3749999999999915
 40
0.4999999999999923
 40
0.4999999999999923
 40
0.6249999999999934
 40
0.6249999999999934
 40
0.7499999999999943
 40
0.7499999999999943
 40
0.8124999999999957
 40
0.8124999999999957
 40
0.8749999999999971
 40
0.8749999999999971
 40
0.9374999999999984
 40
0.9374999999999984
 40
1.0
 40
1.0
 40
1.0
 40
1.0
 10
329.8185005092328
 20
286.129993513709
 30
0.0
 10
329.8200121081947
 20
286.1131313534003
 30
0.0
 10
329.8217104551786
 20
286.097200147567
 30
0.0
 10
329.8254814527277
 20
286.0672036704941
 30
0.0
 10
329.8275547267802
 20
286.0531469118306
 30
0.0
 10
329.832040367882
 20
286.0271394235233
 30
0.0
 10
329.8344565573854
 20
286.0151552459791
 30
0.0
 10
329.8396359941444
 20
285.9932279051037
 30
0.0
 10
329.8424022679179
 20
285.9832829592901
 30
0.0
 10
329.8482346169114
 20
285.9656084114872
 30
0.0
 10
329.8513058478388
 20
285.9578534171151
 30
0.0
 10
329.8577580408899
 20
285.9445053234461
 30
0.0
 10
329.8611449897303
 20
285.9389066881826
 30
0.0
 10
329.8717164643873
 20
285.9254764181064
 30
0.0
 10
329.8793312643467
 20
285.9209823397384
 30
0.0
 10
329.8954911628709
 20
285.9210241867581
 30
0.0
 10
329.9039917717745
 20
285.9255205361641
 30
0.0
 10
329.9218333818884
 20
285.943485000076
 30
0.0
 10
329.9310601523435
 20
285.9568376042005
 30
0.0
 10
329.9453588490687
 20
285.9834162543386
 30
0.0
 10
329.9501853367062
 20
285.9933445342047
 30
0.0
 10
329.959916388267
 20
286.0152388757129
 30
0.0
 10
329.9648273445716
 20
286.0272166304488
 30
0.0
 10
329.9747407567644
 20
286.0532477929438
 30
0.0
 10
329.9797378005337
 20
286.0672915474245
 30
0.0
 10
329.9897382268008
 20
286.097220195615
 30
0.0
 10
329.9947518137703
 20
286.113131118325
 30
0.0
 10
329.9997788434376
 20
286.1299935137008
 30
0.0
  0
SPLINE
  5
1AA
330
1F
100
AcDbEntity
  8
1
100
AcDbSpline
210
0.0
220
0.0
230
1.0
 70
     8
 71
     3
 72
   126
 73
   122
 74
     0
 42
0.000000001
 43
0.0000000001
 40
0.0
 40
0.0
 40
0.0
 40
0.0
 40
0.015625
 40
0.015625
 40
0.0312500000000001
 40
0.0312500000000001
 40
0.0468750000000001
 40
0.0468750000000001
 40
0.0625000000000002
 40
0.0625000000000002
 40
0.0781250000000002
 40
0.0781250000000002
 40
0.0937500000000003
 40
0.0937500000000003
 40
0.1093750000000003
 40
0.1093750000000003
 40
0.1250000000000004
 40
0.1250000000000004
 40
0.1406250000000004
 40
0.1406250000000004
 40
0.1562500000000005
 40
0.1562500000000005
 40
0.1718750000000005
 40
0.1718750000000005
 40
0.1875000000000006
 40
0.1875000000000006
 40
0.2031250000000006
 40
0.2031250000000006
 40
0.2187500000000007
 40
0.2187500000000007
 40
0.2343750000000007
 40
0.2343750000000007
 40
0.2500000000000008
 40
0.2500000000000008
 40
0.2656250000000008
 40
0.2656250000000008
 40
0.2812500000000009
 40
0.2968750000000009
 40
0.2968750000000009
 40
0.3125000000000011
 40
0.3125000000000011
 40
0.3437500000000007
 40
0.3437500000000007
 40
0.3593750000000007
 40
0.3593750000000007
 40
0.3671875000000007
 40
0.3671875000000007
 40
0.3750000000000006
 40
0.3906250000000006
 40
0.3906250000000006
 40
0.4062500000000007
 40
0.4062500000000007
 40
0.4218750000000004
 40
0.4218750000000004
 40
0.4375000000000003
 40
0.4375000000000003
 40
0.4531250000000003
 40
0.4531250000000003
 40
0.4687500000000002
 40
0.4687500000000002
 40
0.4843750000000002
 40
0.4843750000000002
 40
0.5000000000000001
 40
0.5000000000000001
 40
0.53125
 40
0.53125
 40
0.5625
 40
0.5625
 40
0.578125
 40
0.578125
 40
0.59375
 40
0.59375
 40
0.6093749999999997
 40
0.6093749999999997
 40
0.6249999999999996
 40
0.6249999999999996
 40
0.6406249999999996
 40
0.6406249999999996
 40
0.6562499999999995
 40
0.6562499999999995
 40
0.6718749999999995
 40
0.6718749999999995
 40
0.6874999999999993
 40
0.6874999999999993
 40
0.7031249999999993
 40
0.7031249999999993
 40
0.7187499999999992
 40
0.7187499999999992
 40
0.7343749999999992
 40
0.7343749999999992
 40
0.7499999999999992
 40
0.7499999999999992
 40
0.7656249999999992
 40
0.7656249999999992
 40
0.7812499999999992
 40
0.7812499999999992
 40
0.7968749999999991
 40
0.7968749999999991
 40
0.8124999999999989
 40
0.8124999999999989
 40
0.8281249999999984
 40
0.8281249999999984
 40
0.8437499999999984
 40
0.8437499999999984
 40
0.8593749999999984
 40
0.8593749999999984
 40
0.8749999999999984
 40
0.8749999999999984
 40
0.8906249999999984
 40
0.8906249999999984
 40
0.9062499999999984
 40
0.9062499999999984
 40
0.9374999999999984
 40
0.9374999999999984
 40
0.9531249999999987
 40
0.9531249999999987
 40
0.9687499999999992
 40
0.9687499999999992
 40
0.9843749999999998
 40
0.9843749999999998
 40
1.0
 40
1.0
 40
1.0
 40
1.0
 10
329.9997788434376
 20
286.1299935137008
 30
0.0
 10
330.0030269840119
 20
286.1470100124734
 30
0.0
 10
330.0061866413543
 20
286.1649900620006
 30
0.0
 10
330.0122770956248
 20
286.2025756835523
 30
0.0
 10
330.0152151282651
 20
286.2222175228518
 30
0.0
 10
330.020875794275
 20
286.2632072603774
 30
0.0
 10
330.0235994815486
 20
286.2845730732885
 30
0.0
 10
330.0287826310654
 20
286.3286432171482
 30
0.0
 10
330.0312484829452
 20
286.3513906520309
 30
0.0
 10
330.035928167545
 20
286.3983134966791
 30
0.0
 10
330.0381444325995
 20
286.4225264147903
 30
0.0
 10
330.0422860237039
 20
286.4719754231387
 30
0.0
 10
330.0442161492635
 20
286.4972539962059
 30
0.0
 10
330.0477951104036
 20
286.5489190831622
 30
0.0
 10
330.0494464348423
 20
286.5753586127476
 30
0.0
 10
330.0524400901555
 20
286.6289304006244
 30
0.0
 10
330.0537854027179
 20
286.6560955854094
 30
0.0
 10
330.0561737863143
 20
286.7111825624054
 30
0.0
 10
330.0572185020056
 20
286.7391663806553
 30
0.0
 10
330.0589892012565
 20
286.7954948069254
 30
0.0
 10
330.0597166371033
 20
286.8238531005183
 30
0.0
 10
330.0608572283737
 20
286.8809559471487
 30
0.0
 10
330.0612707519156
 20
286.9097633747852
 30
0.0
 10
330.0617768188522
 20
286.9674169358434
 30
0.0
 10
330.0618701149052
 20
286.9962485553957
 30
0.0
 10
330.0617394594593
 20
287.0539214050742
 30
0.0
 10
330.0615146743074
 20
287.0828178482018
 30
0.0
 10
330.0607482132294
 20
287.1403455444541
 30
0.0
 10
330.0602079104984
 20
287.1689271164037
 30
0.0
 10
330.0588159113373
 20
287.2257289000129
 30
0.0
 10
330.0579627375973
 20
287.2539890274899
 30
0.0
 10
330.0559486206121
 20
287.3099634291457
 30
0.0
 10
330.0547913821417
 20
287.3375888438872
 30
0.0
 10
330.0521796153816
 20
287.3921234972069
 30
0.0
 10
330.050723938296
 20
287.4190515900732
 30
0.0
 10
330.047517665761
 20
287.4721064295211
 30
0.0
 10
330.0440325082269
 20
287.5241029929632
 30
0.0
 10
330.0399959226036
 20
287.5740070698329
 30
0.0
 10
330.0356816879965
 20
287.6228575609643
 30
0.0
 10
330.0334049058319
 20
287.6465379886763
 30
0.0
 10
330.0262328276409
 20
287.7153454856278
 30
0.0
 10
330.0209950478796
 20
287.7582825453529
 30
0.0
 10
330.0124595145196
 20
287.8183230567663
 30
0.0
 10
330.0095006919812
 20
287.8376058274166
 30
0.0
 10
330.0048880360374
 20
287.865408453049
 30
0.0
 10
330.0033192880817
 20
287.8744997216478
 30
0.0
 10
330.0001414962617
 20
287.8921983345185
 30
0.0
 10
329.9953094078251
 20
287.9180522139468
 30
0.0
 10
329.9902825467839
 20
287.9418391439235
 30
0.0
 10
329.9834065062042
 20
287.9717132203068
 30
0.0
 10
329.9798782967501
 20
287.9857361366589
 30
0.0
 10
329.972706871412
 20
288.0116985012509
 30
0.0
 10
329.9690568123974
 20
288.0236704050056
 30
0.0
 10
329.9616278950022
 20
288.0455939822279
 30
0.0
 10
329.9578415769863
 20
288.0555600713649
 30
0.0
 10
329.9501965278858
 20
288.0733081994577
 30
0.0
 10
329.9463336023874
 20
288.0811073697493
 30
0.0
 10
329.9385270298453
 20
288.0945580606105
 30
0.0
 10
329.9345749084982
 20
288.1002180649898
 30
0.0
 10
329.9266357602893
 20
288.1093039379869
 30
0.0
 10
329.9226510009597
 20
288.1127332505403
 30
0.0
 10
329.9146512009743
 20
288.1173711637632
 30
0.0
 10
329.9106300908846
 20
288.1185796013954
 30
0.0
 10
329.8985623249021
 20
288.1188232536438
 30
0.0
 10
329.8905582270597
 20
288.1145093727793
 30
0.0
 10
329.8746431399564
 20
288.0968644749486
 30
0.0
 10
329.8668319717947
 20
288.0836461533056
 30
0.0
 10
329.8553357086878
 20
288.0571970510656
 30
0.0
 10
329.8515561561783
 20
288.0473049924226
 30
0.0
 10
329.8441291354753
 20
288.0254530011243
 30
0.0
 10
329.8404772429688
 20
288.0134830585511
 30
0.0
 10
329.8332978287021
 20
287.9874360491145
 30
0.0
 10
329.8297774478357
 20
287.9733792577096
 30
0.0
 10
329.8229211030626
 20
287.943390613815
 30
0.0
 10
329.8195782386193
 20
287.9274344663485
 30
0.0
 10
329.8130643056647
 20
287.8935852156629
 30
0.0
 10
329.809894928401
 20
287.875692911493
 30
0.0
 10
329.8037844065177
 20
287.838278078231
 30
0.0
 10
329.8008359611187
 20
287.8187193552664
 30
0.0
 10
329.7951536716861
 20
287.7778915636636
 30
0.0
 10
329.7924184569681
 20
287.7566023109248
 30
0.0
 10
329.7872115653492
 20
287.7126783604577
 30
0.0
 10
329.7847335271159
 20
287.6900012749161
 30
0.0
 10
329.780028794865
 20
287.643213866347
 30
0.0
 10
329.7777994628922
 20
287.6190642318223
 30
0.0
 10
329.7736310776116
 20
287.5697325118196
 30
0.0
 10
329.7716873154504
 20
287.5445094582527
 30
0.0
 10
329.7680805538436
 20
287.4929493537886
 30
0.0
 10
329.7664149463113
 20
287.4665581353862
 30
0.0
 10
329.763392176328
 20
287.4130713331595
 30
0.0
 10
329.7620321515931
 20
287.3859452541594
 30
0.0
 10
329.7596139820212
 20
287.3309298656785
 30
0.0
 10
329.7585541289415
 20
287.3029781649362
 30
0.0
 10
329.7567527992208
 20
287.2467000767577
 30
0.0
 10
329.7560099826808
 20
287.2183634320048
 30
0.0
 10
329.7548384434355
 20
287.1612969476257
 30
0.0
 10
329.7544093103176
 20
287.1325047334389
 30
0.0
 10
329.7538719377886
 20
287.0748656661354
 30
0.0
 10
329.753763012771
 20
287.0460377694446
 30
0.0
 10
329.7538623988582
 20
286.9883653696699
 30
0.0
 10
329.7540714865792
 20
286.9594670363013
 30
0.0
 10
329.7548068044593
 20
286.9019179215372
 30
0.0
 10
329.7553316444151
 20
286.8733222310362
 30
0.0
 10
329.7566928739438
 20
286.8164853833602
 30
0.0
 10
329.7575306333016
 20
286.7882065334033
 30
0.0
 10
329.7595145706715
 20
286.7321757601837
 30
0.0
 10
329.7606569057471
 20
286.7045189653022
 30
0.0
 10
329.7632391755
 20
286.6499150870317
 30
0.0
 10
329.7646800671537
 20
286.6229521156441
 30
0.0
 10
329.7678578647656
 20
286.5698077844835
 30
0.0
 10
329.7695864608654
 20
286.5437618563921
 30
0.0
 10
329.7751864893077
 20
286.4671845081602
 30
0.0
 10
329.7794887950101
 20
286.4180627974032
 30
0.0
 10
329.7866713858815
 20
286.3486351007754
 30
0.0
 10
329.7891896372406
 20
286.326162303536
 30
0.0
 10
329.7944756978981
 20
286.2825640695291
 30
0.0
 10
329.7972337444607
 20
286.2615231678962
 30
0.0
 10
329.8029582818149
 20
286.2210924653785
 30
0.0
 10
329.8059277114469
 20
286.2016782262742
 30
0.0
 10
329.8120819898358
 20
286.1644601749206
 30
0.0
 10
329.8152567792175
 20
286.1467253141798
 30
0.0
 10
329.8185005092319
 20
286.129993513709
 30
0.0
  0
SPLINE
  5
1AB
330
1F
100
AcDbEntity
  8
1
100
AcDbSpline
210
0.0
220
0.0
230
1.0
 70
     8
 71
     3
 72
    38
 73
    34
 74
     0
 42
0.000000001
 43
0.0000000001
 40
0.0
 40
0.0
 40
0.0
 40
0.0
 40
0.1250000000000264
 40
0.1250000000000264
 40
0.2500000000000528
 40
0.2500000000000528
 40
0.3125000000000591
 40
0.3125000000000591
 40
0.3750000000000655
 40
0.3750000000000655
 40
0.4062500000000688
 40
0.4062500000000688
 40
0.4375000000000719
 40
0.4687500000000754
 40
0.4687500000000754
 40
0.5000000000000784
 40
0.5000000000000784
 40
0.5625000000000832
 40
0.5625000000000832
 40
0.6250000000000881
 40
0.6250000000000881
 40
0.6562500000000857
 40
0.6562500000000857
 40
0.6875000000000835
 40
0.7187500000000812
 40
0.7187500000000812
 40
0.750000000000079
 40
0.750000000000079
 40
0.8125000000000593
 40
0.8125000000000593
 40
0.8750000000000397
 40
0.8750000000000397
 40
1.0
 40
1.0
 40
1.0
 40
1.0
 10
322.8415822988686
 20
290.7488975628983
 30
0.0
 10
322.8061552799638
 20
290.7592422373551
 30
0.0
 10
322.7719016466334
 20
290.7710720852252
 30
0.0
 10
322.70648362064
 20
290.7984424637891
 30
0.0
 10
322.6752892719995
 20
290.8139498800554
 30
0.0
 10
322.6319868148555
 20
290.8412312183706
 30
0.0
 10
322.6180939609898
 20
290.851052846272
 30
0.0
 10
322.5923710880325
 20
290.872095932425
 30
0.0
 10
322.5804875445718
 20
290.8833344230101
 30
0.0
 10
322.564631415984
 20
290.9016189044732
 30
0.0
 10
322.5596807814393
 20
290.907956619046
 30
0.0
 10
322.5507025470792
 20
290.9209861745814
 30
0.0
 10
322.5426064431571
 20
290.9344128317719
 30
0.0
 10
322.5365271912298
 20
290.9487447068003
 30
0.0
 10
322.5316272651111
 20
290.9636053284428
 30
0.0
 10
322.5297606316623
 20
290.9713639540076
 30
0.0
 10
322.5263529102777
 20
290.9950323622747
 30
0.0
 10
322.5269483361707
 20
291.0113182235118
 30
0.0
 10
322.5347512735625
 20
291.0449272662507
 30
0.0
 10
322.5417568997254
 20
291.0614045701657
 30
0.0
 10
322.5564167812847
 20
291.0857085173647
 30
0.0
 10
322.561992066415
 20
291.093711462678
 30
0.0
 10
322.5740629484164
 20
291.1091437234798
 30
0.0
 10
322.5871269198639
 20
291.1241284862768
 30
0.0
 10
322.6019019004196
 20
291.138350856477
 30
0.0
 10
322.6174302589874
 20
291.1522418022051
 30
0.0
 10
322.6255169275173
 20
291.1589708667941
 30
0.0
 10
322.6503440296921
 20
291.1784214965649
 30
0.0
 10
322.6677501745899
 20
291.190509882786
 30
0.0
 10
322.7038082162281
 20
291.2134237920824
 30
0.0
 10
322.7225018289397
 20
291.2242641698294
 30
0.0
 10
322.7798114632994
 20
291.2551833609202
 30
0.0
 10
322.8191832273868
 20
291.2734772279372
 30
0.0
 10
322.8592811663194
 20
291.2903335810735
 30
0.0
  0
SPLINE
  5
1AC
330
1F
100
AcDbEntity
  8
1
100
AcDbSpline
210
0.0
220
0.0
230
1.0
 70
     8
 71
     3
 72
    14
 73
    10
 74
     0
 42
0.000000001
 43
0.0000000001
 40
0.0
 40
0.0
 40
0.0
 40
0.0
 40
0.25
 40
0.25
 40
0.5
 40
0.5
 40
0.75
 40
0.75
 40
1.0
 40
1.0
 40
1.0
 40
1.0
 10
279.4717969865144
 20
272.614094882753
 30
0.0
 10
279.9927234276771
 20
273.0318657472827
 30
0.0
 10
280.5119947114458
 20
273.4510712180755
 30
0.0
 10
281.5461306927224
 20
274.2933015645531
 30
0.0
 10
282.0610042584732
 20
274.716318753696
 30
0.0
 10
283.0847296760476
 20
275.5675724474044
 30
0.0
 10
283.5935981804614
 20
275.9957945183515
 30
0.0
 10
284.6028054422346
 20
276.8596318112475
 30
0.0
 10
285.1031778651367
 20
277.2952178536158
 30
0.0
 10
285.5972301007209
 20
277.7362819129643
 30
0.0
  0
SPLINE
  5
1AD
330
1F
100
AcDbEntity
  8
1
100
AcDbSpline
210
0.0
220
0.0
230
1.0
 70
     8
 71
     3
 72
    16
 73
    12
 74
     0
 42
0.000000001
 43
0.0000000001
 40
0.0
 40
0.0
 40
0.0
 40
0.0
 40
0.2499999999999937
 40
0.4999999999999873
 40
0.4999999999999873
 40
0.7499999999999809
 40
0.7499999999999809
 40
0.8124999999999856
 40
0.8124999999999856
 40
0.8749999999999904
 40
1.0
 40
1.0
 40
1.0
 40
1.0
 10
295.2109683336668
 20
281.9067469241394
 30
0.0
 10
295.3051238304365
 20
281.9221372090186
 30
0.0
 10
295.4962197917274
 20
281.9499408093077
 30
0.0
 10
295.6929281452564
 20
281.9708743123675
 30
0.0
 10
295.8925280821349
 20
281.9879361061149
 30
0.0
 10
295.9937733633856
 20
281.9945316072755
 30
0.0
 10
296.1222360349003
 20
282.0000887829787
 30
0.0
 10
296.1480509410711
 20
282.0010663486881
 30
0.0
 10
296.1995567162936
 20
282.0027372377355
 30
0.0
 10
296.2767325943358
 20
282.0048225921892
 30
0.0
 10
296.3536627254842
 20
282.00565098693
 30
0.0
 10
296.4048419452957
 20
282.00565098693
 30
0.0
  0
SPLINE
  5
1AE
330
1F
100
AcDbEntity
  8
1
100
AcDbSpline
210
0.0
220
0.0
230
1.0
 70
     8
 71
     3
 72
    22
 73
    18
 74
     0
 42
0.000000001
 43
0.0000000001
 40
0.0
 40
0.0
 40
0.0
 40
0.0
 40
0.0700107092708911
 40
0.0700107092708911
 40
0.1281350399414602
 40
0.1281350399414602
 40
0.1862593706120295
 40
0.1862593706120295
 40
0.3025080319531677
 40
0.3025080319531677
 40
0.4187566932943061
 40
0.4187566932943061
 40
0.5350053546354446
 40
0.5350053546354446
 40
0.7675026773177222
 40
0.7675026773177222
 40
1.0
 40
1.0
 40
1.0
 40
1.0
 10
305.3988197172043
 20
282.7365039353469
 30
0.0
 10
305.1933726664876
 20
282.7028633076791
 30
0.0
 10
304.9874607604777
 20
282.6706600829522
 30
0.0
 10
304.6096266575759
 20
282.6144147334129
 30
0.0
 10
304.4378135655537
 20
282.5898996717671
 30
0.0
 10
304.093736372513
 20
282.5428874040891
 30
0.0
 10
303.921503857262
 20
282.5203932052147
 30
0.0
 10
303.4042102031472
 20
282.4558189203645
 30
0.0
 10
303.0585497433048
 20
282.4166527014241
 30
0.0
 10
302.365656783186
 20
282.3451569829193
 30
0.0
 10
302.0184261794697
 20
282.3128200476833
 30
0.0
 10
301.3225009019204
 20
282.2539431573835
 30
0.0
 10
300.9738074509164
 20
282.2273997294309
 30
0.0
 10
299.9257410189518
 20
282.1550157505486
 30
0.0
 10
299.2243887004261
 20
282.1163454929234
 30
0.0
 10
297.8175139183506
 20
282.0521253211642
 30
0.0
 10
297.1119950659065
 20
282.0265928586488
 30
0.0
 10
296.4048419452957
 20
282.00565098693
 30
0.0
  0
SPLINE
  5
1AF
330
1F
100
AcDbEntity
  8
1
100
AcDbSpline
210
0.0
220
0.0
230
1.0
 70
     8
 71
     3
 72
     8
 73
     4
 74
     0
 42
0.000000001
 43
0.0000000001
 40
0.0
 40
0.0
 40
0.0
 40
0.0
 40
1.0
 40
1.0
 40
1.0
 40
1.0
 10
294.789618256146
 20
281.8730167394395
 30
0.0
 10
294.9299877395495
 20
281.8841928381198
 30
0.0
 10
295.0704275076336
 20
281.8954566695634
 30
0.0
 10
295.2109683336667
 20
281.9067469241399
 30
0.0
  0
SPLINE
  5
1B0
330
1F
100
AcDbEntity
  8
1
100
AcDbSpline
210
0.0
220
0.0
230
1.0
 70
     8
 71
     3
 72
    21
 73
    17
 74
     0
 42
0.000000001
 43
0.0000000001
 40
0.0
 40
0.0
 40
0.0
 40
0.0
 40
0.1249999999999997
 40
0.1249999999999997
 40
0.2499999999999994
 40
0.3749999999999991
 40
0.499999999999999
 40
0.6249999999999991
 40
0.6249999999999991
 40
0.7499999999999987
 40
0.7499999999999987
 40
0.8124999999999994
 40
0.8124999999999994
 40
0.8750000000000001
 40
0.8750000000000001
 40
1.0
 40
1.0
 40
1.0
 40
1.0
 10
289.2614096556499
 20
297.6209763510146
 30
0.0
 10
289.468555375317
 20
297.5159266985587
 30
0.0
 10
289.6781863723275
 20
297.4143634371015
 30
0.0
 10
290.1026701040097
 20
297.2186604559533
 30
0.0
 10
290.5323758525295
 20
297.0303804503911
 30
0.0
 10
291.1936084106606
 20
296.7723807538372
 30
0.0
 10
291.8727542161544
 20
296.5417783374951
 30
0.0
 10
292.3384308546081
 20
296.4088489424803
 30
0.0
 10
292.8111227846488
 20
296.2878724814869
 30
0.0
 10
293.0509758370778
 20
296.2333603209983
 30
0.0
 10
293.4164982244262
 20
296.1619335699809
 30
0.0
 10
293.5393011053108
 20
296.1398498034934
 30
0.0
 10
293.7868955731869
 20
296.0993946775482
 30
0.0
 10
293.9111439473053
 20
296.0811126637495
 30
0.0
 10
294.2852601428657
 20
296.0323659207054
 30
0.0
 10
294.5364981473014
 20
296.0079988441297
 30
0.0
 10
294.789618256146
 20
295.9924828325727
 30
0.0
  0
SPLINE
  5
1B1
330
1F
100
AcDbEntity
  8
1
100
AcDbSpline
210
0.0
220
0.0
230
1.0
 70
     8
 71
     3
 72
    30
 73
    26
 74
     0
 42
0.000000001
 43
0.0000000001
 40
0.0
 40
0.0
 40
0.0
 40
0.0
 40
0.1250000000000025
 40
0.1250000000000025
 40
0.2500000000000051
 40
0.2500000000000051
 40
0.312499999999998
 40
0.312499999999998
 40
0.3749999999999909
 40
0.3749999999999909
 40
0.4999999999999769
 40
0.4999999999999769
 40
0.5624999999999779
 40
0.5624999999999779
 40
0.6249999999999793
 40
0.6249999999999793
 40
0.7499999999999814
 40
0.7499999999999814
 40
0.8124999999999824
 40
0.8124999999999824
 40
0.8437499999999829
 40
0.8437499999999829
 40
0.8749999999999833
 40
0.8749999999999833
 40
1.0
 40
1.0
 40
1.0
 40
1.0
 10
326.4802187802376
 20
290.6872810900407
 30
0.0
 10
326.4321740605018
 20
290.6680310316615
 30
0.0
 10
326.3833004856494
 20
290.6523343423187
 30
0.0
 10
326.2837771665402
 20
290.6279210321406
 30
0.0
 10
326.2331266086927
 20
290.6192054256524
 30
0.0
 10
326.1556714760093
 20
290.6116447581465
 30
0.0
 10
326.1294927188462
 20
290.6100506166806
 30
0.0
 10
326.0775759148662
 20
290.6087989896338
 30
0.0
 10
326.0517567008663
 20
290.6091252474279
 30
0.0
 10
325.9747020034848
 20
290.6128809416243
 30
0.0
 10
325.923869908844
 20
290.6190742579726
 30
0.0
 10
325.8483553331852
 20
290.6338147451117
 30
0.0
 10
325.8233059195303
 20
290.6396398510822
 30
0.0
 10
325.7734386134786
 20
290.6531411487927
 30
0.0
 10
325.7488491192187
 20
290.6607573953678
 30
0.0
 10
325.6762912122362
 20
290.6860462269979
 30
0.0
 10
325.6294089350387
 20
290.7061741474058
 30
0.0
 10
325.5610683258635
 20
290.7412475457657
 30
0.0
 10
325.538620274892
 20
290.7537563554967
 30
0.0
 10
325.5054286778569
 20
290.7737825664
 30
0.0
 10
325.4944254342585
 20
290.7806819370852
 30
0.0
 10
325.4727110519865
 20
290.7948231611032
 30
0.0
 10
325.4619932794881
 20
290.8020679517968
 30
0.0
 10
325.4090908890967
 20
290.8391529126836
 30
0.0
 10
325.3689552481568
 20
290.871562114831
 30
0.0
 10
325.3309570117376
 20
290.9067000590252
 30
0.0
  0
SPLINE
  5
1B2
330
1F
100
AcDbEntity
  8
1
100
AcDbSpline
210
0.0
220
0.0
230
1.0
 70
    12
 71
     2
 72
     6
 73
     3
 74
     0
 42
0.000000001
 43
0.0000000001
 40
0.0
 40
0.0
 40
0.0
 40
1.0
 40
1.0
 40
1.0
 10
325.1398375697582
 20
296.325052347392
 30
0.0
 41
0.4999990665207789
 10
325.2520665377539
 20
296.3247608532118
 30
0.0
 41
0.5000009334792212
 10
325.3642900489467
 20
296.3244683403199
 30
0.0
 41
0.4999990665207789
  0
SPLINE
  5
1B3
330
1F
100
AcDbEntity
  8
1
100
AcDbSpline
210
0.0
220
0.0
230
1.0
 70
     8
 71
     3
 72
    10
 73
     6
 74
     0
 42
0.000000001
 43
0.0000000001
 40
0.0
 40
0.0
 40
0.0
 40
0.0
 40
0.5
 40
0.5
 40
1.0
 40
1.0
 40
1.0
 40
1.0
 10
296.4048419452952
 20
295.8944293452693
 30
0.0
 10
296.2096511933422
 20
295.8944293452693
 30
0.0
 10
296.017522617165
 20
295.9006491325482
 30
0.0
 10
295.639029291831
 20
295.9241923484853
 30
0.0
 10
295.4526663114212
 20
295.9415198970709
 30
0.0
 10
295.2691971828452
 20
295.9635428014178
 30
0.0
  0
SPLINE
  5
1B4
330
1F
100
AcDbEntity
  8
1
100
AcDbSpline
210
0.0
220
0.0
230
1.0
 70
     8
 71
     3
 72
     8
 73
     4
 74
     0
 42
0.000000001
 43
0.0000000001
 40
0.0
 40
0.0
 40
0.0
 40
0.0
 40
1.0
 40
1.0
 40
1.0
 40
1.0
 10
324.7859831229482
 20
294.4188283572396
 30
0.0
 10
324.6907229646903
 20
295.0373073244147
 30
0.0
 10
324.6002966074806
 20
295.6564849018118
 30
0.0
 10
324.5144806155973
 20
296.2763287971464
 30
0.0
  0
SPLINE
  5
1B5
330
1F
100
AcDbEntity
  8
1
100
AcDbSpline
210
0.0
220
0.0
230
1.0
 70
    12
 71
     2
 72
     6
 73
     3
 74
     0
 42
0.000000001
 43
0.0000000001
 40
0.0
 40
0.0
 40
0.0
 40
1.0
 40
1.0
 40
1.0
 10
324.5144806154792
 20
296.2763287971309
 30
0.0
 41
0.5000000931252701
 10
324.8253047486185
 20
296.2753088725927
 30
0.0
 41
0.4999999068747301
 10
325.1360688266379
 20
296.274281118386
 30
0.0
 41
0.5000000931252701
  0
SPLINE
  5
1B6
330
1F
100
AcDbEntity
  8
1
100
AcDbSpline
210
0.0
220
0.0
230
1.0
 70
    28
 71
     4
 72
    10
 73
     5
 74
     0
 42
0.000000001
 43
0.0000000001
 40
0.0
 40
0.0
 40
0.0
 40
0.0
 40
0.0
 40
1.0
 40
1.0
 40
1.0
 40
1.0
 40
1.0
 10
296.4048419452959
 20
283.7211479869301
 30
0.0
 41
0.9972682711538382
 10
296.4048419452959
 20
283.2791817112463
 30
0.0
 41
0.9966456006140184
 10
296.4048419452957
 20
282.8325954306022
 30
0.0
 41
0.996954899291923
 10
296.4048419452959
 20
282.4022012761977
 30
0.0
 41
0.9986347486222976
 10
296.4048419452957
 20
282.0056509869304
 30
0.0
 41
1.000025287575661
  0
SPLINE
  5
1B7
330
1F
100
AcDbEntity
  8
1
100
AcDbSpline
210
0.0
220
0.0
230
1.0
 70
     9
 71
     3
 72
   125
 73
   121
 74
     0
 42
0.000000001
 43
0.0000000001
 40
0.0
 40
0.0
 40
0.0
 40
0.0
 40
0.0312500000000095
 40
0.0312500000000095
 40
0.0468750000000142
 40
0.0468750000000142
 40
0.0546875000000166
 40
0.0546875000000166
 40
0.062500000000019
 40
0.062500000000019
 40
0.0937500000000252
 40
0.0937500000000252
 40
0.1015625000000253
 40
0.1015625000000253
 40
0.1093750000000253
 40
0.1093750000000253
 40
0.1250000000000254
 40
0.1406250000000255
 40
0.1406250000000255
 40
0.1562500000000256
 40
0.1562500000000256
 40
0.1875000000000278
 40
0.1875000000000278
 40
0.2031250000000289
 40
0.2031250000000289
 40
0.2109375000000289
 40
0.2109375000000289
 40
0.2187500000000289
 40
0.2187500000000289
 40
0.2500000000000296
 40
0.2500000000000296
 40
0.2578125000000298
 40
0.2578125000000298
 40
0.2656250000000298
 40
0.2656250000000298
 40
0.2812500000000304
 40
0.2812500000000304
 40
0.3125000000000323
 40
0.3125000000000323
 40
0.3203125000000327
 40
0.3203125000000327
 40
0.3281250000000331
 40
0.3437500000000324
 40
0.3437500000000324
 40
0.3750000000000332
 40
0.3750000000000332
 40
0.3828125000000347
 40
0.3828125000000347
 40
0.390625000000036
 40
0.4062500000000364
 40
0.4218750000000361
 40
0.4218750000000361
 40
0.4296875000000377
 40
0.4296875000000377
 40
0.4375000000000392
 40
0.4375000000000392
 40
0.4687500000000426
 40
0.4687500000000426
 40
0.4843750000000457
 40
0.4843750000000457
 40
0.4921875000000492
 40
0.4921875000000492
 40
0.5000000000000526
 40
0.5000000000000526
 40
0.5312500000000555
 40
0.5312500000000555
 40
0.5390625000000555
 40
0.5390625000000555
 40
0.5468750000000552
 40
0.5625000000000549
 40
0.5781250000000544
 40
0.5781250000000544
 40
0.5859375000000543
 40
0.5859375000000543
 40
0.5937500000000541
 40
0.5937500000000541
 40
0.6250000000000538
 40
0.6250000000000538
 40
0.6328125000000517
 40
0.6328125000000517
 40
0.6406250000000499
 40
0.6406250000000499
 40
0.6562500000000463
 40
0.6562500000000463
 40
0.6875000000000411
 40
0.6875000000000411
 40
0.6953125000000393
 40
0.6953125000000393
 40
0.7031250000000374
 40
0.7187500000000341
 40
0.7343750000000304
 40
0.7343750000000304
 40
0.7421875000000289
 40
0.7421875000000289
 40
0.7500000000000272
 40
0.7500000000000272
 40
0.7812500000000208
 40
0.7812500000000208
 40
0.7968750000000174
 40
0.7968750000000174
 40
0.8125000000000138
 40
0.8125000000000138
 40
0.8437500000000067
 40
0.8437500000000067
 40
0.8593750000000042
 40
0.8593750000000042
 40
0.8750000000000015
 40
0.8750000000000015
 40
0.9062499999999987
 40
0.9062499999999987
 40
0.9218749999999992
 40
0.9218749999999992
 40
0.9374999999999992
 40
0.9531249999999996
 40
0.9531249999999996
 40
0.9609374999999996
 40
0.9609374999999996
 40
0.96875
 40
0.96875
 40
1.0
 40
1.0
 40
1.0
 40
1.0
 10
328.5154237619444
 20
287.6460001828444
 30
0.0
 10
328.5745610729577
 20
287.644967937241
 30
0.0
 10
328.6325652705351
 20
287.6380190815961
 30
0.0
 10
328.7179415996494
 20
287.619097345248
 30
0.0
 10
328.7461265670062
 20
287.6113626863597
 30
0.0
 10
328.7879828117362
 20
287.5975684128834
 30
0.0
 10
328.8019039534542
 20
287.5925880938622
 30
0.0
 10
328.829347991213
 20
287.5819799351376
 30
0.0
 10
328.8428794266188
 20
287.5763520242342
 30
0.0
 10
328.9096024470597
 20
287.5466273596502
 30
0.0
 10
328.9600189438844
 20
287.5178210276466
 30
0.0
 10
329.0193522867101
 20
287.4755971714152
 30
0.0
 10
329.0310328893979
 20
287.4668387637136
 30
0.0
 10
329.0540153811365
 20
287.4486847757069
 30
0.0
 10
329.0653012722223
 20
287.4392986914915
 30
0.0
 10
329.0982134105473
 20
287.4105066302354
 30
0.0
 10
329.1398361945375
 20
287.3702337438512
 30
0.0
 10
329.1770701944127
 20
287.3263247849625
 30
0.0
 10
329.2121128812912
 20
287.2806110524643
 30
0.0
 10
329.2285575291621
 20
287.2568213491081
 30
0.0
 10
329.2743988653979
 20
287.1828764715998
 30
0.0
 10
329.299495681914
 20
287.1315545195938
 30
0.0
 10
329.329415593818
 20
287.051767018964
 30
0.0
 10
329.3380918442856
 20
287.0247000238055
 30
0.0
 10
329.3491377274493
 20
286.9833902311281
 30
0.0
 10
329.3524983851211
 20
286.9694648662569
 30
0.0
 10
329.3585060195483
 20
286.9415978126731
 30
0.0
 10
329.3611556632273
 20
286.9276555680657
 30
0.0
 10
329.372674923136
 20
286.857903640362
 30
0.0
 10
329.376404691038
 20
286.801974518103
 30
0.0
 10
329.3743862169105
 20
286.7319214775794
 30
0.0
 10
329.3736455857542
 20
286.7179036232798
 30
0.0
 10
329.3714831526209
 20
286.689853210197
 30
0.0
 10
329.3700562560452
 20
286.6757870732067
 30
0.0
 10
329.3647862633932
 20
286.6339283648219
 30
0.0
 10
329.3599589807734
 20
286.6064154993349
 30
0.0
 10
329.3416649883534
 20
286.52501077481
 30
0.0
 10
329.3244219946776
 20
286.472243590468
 30
0.0
 10
329.2964375635638
 20
286.4081577623876
 30
0.0
 10
329.2905020110627
 20
286.3954067822546
 30
0.0
 10
329.2780374150871
 20
286.3702357365771
 30
0.0
 10
329.2584931537821
 20
286.3330583616926
 30
0.0
 10
329.2364568886236
 20
286.2975768897912
 30
0.0
 10
329.1890893030069
 20
286.2288336062632
 30
0.0
 10
329.1531536864673
 20
286.1859413349573
 30
0.0
 10
329.1023721819729
 20
286.1361853250157
 30
0.0
 10
329.0919480208566
 20
286.1264591560558
 30
0.0
 10
329.070730686417
 20
286.1076061196849
 30
0.0
 10
329.0382783020574
 20
286.0801579800289
 30
0.0
 10
328.9810876515401
 20
286.0385109634481
 30
0.0
 10
328.931987331305
 20
286.009577057487
 30
0.0
 10
328.8938530449584
 20
285.9895765239095
 30
0.0
 10
328.8809230231326
 20
285.9831935451683
 30
0.0
 10
328.8546112814878
 20
285.9710119368735
 30
0.0
 10
328.8411960162568
 20
285.9652016559913
 30
0.0
 10
328.7737747848494
 20
285.9379831583488
 30
0.0
 10
328.7182488660004
 20
285.9217591919424
 30
0.0
 10
328.6325626299138
 20
285.9057219668825
 30
0.0
 10
328.6035982345223
 20
285.9017694134739
 30
0.0
 10
328.5595193521978
 20
285.8980251711287
 30
0.0
 10
328.5447262941788
 20
285.8971456384584
 30
0.0
 10
328.5153168639059
 20
285.8961411437366
 30
0.0
 10
328.5006518003538
 20
285.8960113269469
 30
0.0
 10
328.4275213273581
 20
285.8971921995636
 30
0.0
 10
328.3696349457577
 20
285.9039380274521
 30
0.0
 10
328.2980513162938
 20
285.9196671776733
 30
0.0
 10
328.2837319771768
 20
285.9231937246329
 30
0.0
 10
328.2554557190931
 20
285.9309166428019
 30
0.0
 10
328.2135451211242
 20
285.9435111452509
 30
0.0
 10
328.1461313996998
 20
285.9694003723059
 30
0.0
 10
328.0947161679056
 20
285.9951978674403
 30
0.0
 10
328.05709478714
 20
286.0164600121562
 30
0.0
 10
328.0446826295127
 20
286.0238854405242
 30
0.0
 10
328.0203175836696
 20
286.0392927406616
 30
0.0
 10
328.0083904017979
 20
286.0472560028825
 30
0.0
 10
327.9499924014657
 20
286.0883369074897
 30
0.0
 10
327.9071979204098
 20
286.1252101246625
 30
0.0
 10
327.8583900624743
 20
286.1761841453716
 30
0.0
 10
327.8488650336921
 20
286.1866254143736
 30
0.0
 10
327.8302916098199
 20
286.2080070164367
 30
0.0
 10
327.8212579318918
 20
286.2189333180979
 30
0.0
 10
327.7951269256672
 20
286.2521374451342
 30
0.0
 10
327.7789089514588
 20
286.2749390645063
 30
0.0
 10
327.7337371520953
 20
286.3452945921963
 30
0.0
 10
327.708231986842
 20
286.3947810818963
 30
0.0
 10
327.6822196482087
 20
286.4599946328965
 30
0.0
 10
327.6773259623257
 20
286.4731796288016
 30
0.0
 10
327.6682220512495
 20
286.4996326066317
 30
0.0
 10
327.6555596492379
 20
286.5395232326095
 30
0.0
 10
327.6393311957097
 20
286.607051971098
 30
0.0
 10
327.6315105665113
 20
286.6621921404991
 30
0.0
 10
327.6276216807368
 20
286.7039773536093
 30
0.0
 10
327.6266553900813
 20
286.717977542789
 30
0.0
 10
327.6253969273037
 20
286.7461246815737
 30
0.0
 10
327.6251059316235
 20
286.7603063370732
 30
0.0
 10
327.6253718235038
 20
286.8309164369815
 30
0.0
 10
327.6310025620709
 20
286.8867749069883
 30
0.0
 10
327.6474947527621
 20
286.9696067225354
 30
0.0
 10
327.6543421146876
 20
286.9970566824146
 30
0.0
 10
327.6708360032961
 20
287.0516163844178
 30
0.0
 10
327.6805376074947
 20
287.0788250272822
 30
0.0
 10
327.713309195949
 20
287.1581416609052
 30
0.0
 10
327.7401289025721
 20
287.2084926070726
 30
0.0
 10
327.7878636904165
 20
287.2801449451745
 30
0.0
 10
327.8050343333595
 20
287.3033790622334
 30
0.0
 10
327.8420103229828
 20
287.3484752570574
 30
0.0
 10
327.8615434689336
 20
287.3699986446765
 30
0.0
 10
327.9229556864847
 20
287.4312959379412
 30
0.0
 10
327.9677206512192
 20
287.4679506229421
 30
0.0
 10
328.0407447604508
 20
287.5164001638229
 30
0.0
 10
328.0661830037398
 20
287.5314956767256
 30
0.0
 10
328.1179316565526
 20
287.5587802620506
 30
0.0
 10
328.1707801226334
 20
287.5833367968796
 30
0.0
 10
328.2257890581548
 20
287.6025202828064
 30
0.0
 10
328.2678658118066
 20
287.6148640657362
 30
0.0
 10
328.2820283253988
 20
287.6186374002113
 30
0.0
 10
328.3106320716253
 20
287.6254888395401
 30
0.0
 10
328.3251088118401
 20
287.6285728994472
 30
0.0
 10
328.3976540328359
 20
287.6421124987177
 30
0.0
 10
328.4562864509309
 20
287.6470324284479
 30
0.0
 10
328.5154237619443
 20
287.6460001828444
 30
0.0
  0
SPLINE
  5
1B8
330
1F
100
AcDbEntity
  8
1
100
AcDbSpline
210
0.0
220
0.0
230
1.0
 70
     8
 71
     3
 72
     8
 73
     4
 74
     0
 42
0.000000001
 43
0.0000000001
 40
0.0
 40
0.0
 40
0.0
 40
0.0
 40
1.0
 40
1.0
 40
1.0
 40
1.0
 10
323.1541541575884
 20
290.6613584679278
 30
0.0
 10
323.0512001411483
 20
290.6889808972734
 30
0.0
 10
322.9469556941432
 20
290.7181285762831
 30
0.0
 10
322.841582298872
 20
290.7488975628978
 30
0.0
  0
SPLINE
  5
1B9
330
1F
100
AcDbEntity
  8
1
100
AcDbSpline
210
0.0
220
0.0
230
1.0
 70
     8
 71
     3
 72
    37
 73
    33
 74
     0
 42
0.000000001
 43
0.0000000001
 40
0.0
 40
0.0
 40
0.0
 40
0.0
 40
0.1249999999999938
 40
0.1249999999999938
 40
0.1874999999999906
 40
0.2187499999999911
 40
0.2343749999999892
 40
0.2343749999999892
 40
0.2499999999999872
 40
0.2499999999999872
 40
0.3749999999999869
 40
0.3749999999999869
 40
0.4999999999999867
 40
0.4999999999999867
 40
0.5312499999999881
 40
0.5312499999999881
 40
0.5624999999999896
 40
0.5624999999999896
 40
0.6249999999999904
 40
0.6874999999999912
 40
0.6874999999999912
 40
0.749999999999992
 40
0.749999999999992
 40
0.7812499999999928
 40
0.7812499999999928
 40
0.8124999999999936
 40
0.8124999999999936
 40
0.8749999999999959
 40
0.8749999999999959
 40
0.9374999999999978
 40
0.9374999999999978
 40
1.0
 40
1.0
 40
1.0
 40
1.0
 10
322.8592811663196
 20
291.2903335810735
 30
0.0
 10
323.011120773066
 20
291.3541638451603
 30
0.0
 10
323.1571888603693
 20
291.4280232410219
 30
0.0
 10
323.3670199980541
 20
291.554922479484
 30
0.0
 10
323.4696196070091
 20
291.6223965271392
 30
0.0
 10
323.5851258354429
 20
291.7084029461919
 30
0.0
 10
323.6337123998045
 20
291.7468547497107
 30
0.0
 10
323.6658977382768
 20
291.7728467366488
 30
0.0
 10
323.6819024812445
 20
291.7860343783922
 30
0.0
 10
323.8244210035922
 20
291.90584729191
 30
0.0
 10
323.9410847826313
 20
292.0208924665654
 30
0.0
 10
324.1553090012598
 20
292.2672747229062
 30
0.0
 10
324.2528853518621
 20
292.3985982351975
 30
0.0
 10
324.3626461930305
 20
292.5731653401081
 30
0.0
 10
324.384029207024
 20
292.6086842224869
 30
0.0
 10
324.4252722670327
 20
292.6803181323726
 30
0.0
 10
324.4451326841007
 20
292.7164243104659
 30
0.0
 10
324.502460082118
 20
292.8255993096522
 30
0.0
 10
324.5728962729273
 20
292.9734461062388
 30
0.0
 10
324.6313953698319
 20
293.1258290021908
 30
0.0
 10
324.6837738985334
 20
293.2805377159476
 30
0.0
 10
324.706904786332
 20
293.359054256859
 30
0.0
 10
324.7367327663749
 20
293.4786790433565
 30
0.0
 10
324.7458621461506
 20
293.5188630189303
 30
0.0
 10
324.7624206802311
 20
293.5998770562817
 30
0.0
 10
324.7698493973049
 20
293.6407373218357
 30
0.0
 10
324.7892771885613
 20
293.763106675705
 30
0.0
 10
324.798515343239
 20
293.8447934133126
 30
0.0
 10
324.8091877800475
 20
294.0083920889605
 30
0.0
 10
324.8106243811571
 20
294.0903039600807
 30
0.0
 10
324.8049772841938
 20
294.254373577052
 30
0.0
 10
324.7978972757812
 20
294.3365312164286
 30
0.0
 10
324.7859831229483
 20
294.4188283572396
 30
0.0
  0
SPLINE
  5
1BA
330
1F
100
AcDbEntity
  8
1
100
AcDbSpline
210
0.0
220
0.0
230
1.0
 70
    12
 71
     3
 72
    10
 73
     6
 74
     0
 42
0.000000001
 43
0.0000000001
 40
0.0
 40
0.0
 40
0.0
 40
0.0
 40
0.1629512656148154
 40
0.6214515713338527
 40
1.0
 40
1.0
 40
1.0
 40
1.0
 10
309.9671163018213
 20
294.3257304298323
 30
0.0
 41
1.001201950517544
 10
310.7583026686826
 20
294.4309735128566
 30
0.0
 41
1.000961437472685
 10
313.8365644733369
 20
294.7814095296502
 30
0.0
 41
1.000129690563867
 10
318.8220215215389
 20
294.2682035981754
 30
0.0
 41
1.011392100796569
 10
323.0513404485025
 20
293.8003443380113
 30
0.0
 41
0.9969918272546768
 10
324.7859831229482
 20
294.4188283572396
 30
0.0
 41
0.9989770025988612
  0
SPLINE
  5
1BB
330
1F
100
AcDbEntity
  8
1
100
AcDbSpline
210
0.0
220
0.0
230
1.0
 70
     8
 71
     3
 72
    29
 73
    25
 74
     0
 42
0.000000001
 43
0.0000000001
 40
0.0
 40
0.0
 40
0.0
 40
0.0
 40
0.1250000000000004
 40
0.1250000000000004
 40
0.2500000000000009
 40
0.3750000000000014
 40
0.3750000000000014
 40
0.4062500000000015
 40
0.4062500000000015
 40
0.4375000000000016
 40
0.4375000000000016
 40
0.5000000000000016
 40
0.5000000000000016
 40
0.6250000000000014
 40
0.6250000000000014
 40
0.7500000000000009
 40
0.7500000000000009
 40
0.8125000000000007
 40
0.8125000000000007
 40
0.8437500000000005
 40
0.8437500000000005
 40
0.8750000000000003
 40
0.8750000000000003
 40
1.0
 40
1.0
 40
1.0
 40
1.0
 10
285.5972301007209
 20
281.7001493187211
 30
0.0
 10
285.8998078154467
 20
281.9284763662509
 30
0.0
 10
286.2150451335381
 20
282.1404122696884
 30
0.0
 10
286.8702828343252
 20
282.5322218587857
 30
0.0
 10
287.5502888447335
 20
282.8919624390681
 30
0.0
 10
288.280223598972
 20
283.1870572946128
 30
0.0
 10
288.7526081059462
 20
283.3505484716389
 30
0.0
 10
288.8478955578368
 20
283.3821972389376
 30
0.0
 10
289.0401131593766
 20
283.4433678746996
 30
0.0
 10
289.136702346218
 20
283.4727799161406
 30
0.0
 10
289.4274686640324
 20
283.5574043611047
 30
0.0
 10
289.6228284288289
 20
283.6090657903307
 30
0.0
 10
290.2133630163207
 20
283.7500721246704
 30
0.0
 10
290.6129854250608
 20
283.8254632564224
 30
0.0
 10
291.4238157299502
 20
283.9398974281856
 30
0.0
 10
291.8350242397868
 20
283.9789385428246
 30
0.0
 10
292.4604984400708
 20
284.0103259887793
 30
0.0
 10
292.6704352222304
 20
284.0162537560784
 30
0.0
 10
292.9875221751356
 20
284.0183003322662
 30
0.0
 10
293.0933544381255
 20
284.0178388291231
 30
0.0
 10
293.305011229485
 20
284.0146557908763
 30
0.0
 10
293.4108804209344
 20
284.0119345854983
 30
0.0
 10
293.9404280615567
 20
283.9927436918808
 30
0.0
 10
294.3647101059701
 20
283.9595596910508
 30
0.0
 10
294.789618256146
 20
283.9090380329212
 30
0.0
  0
SPLINE
  5
1BC
330
1F
100
AcDbEntity
  8
1
100
AcDbSpline
210
0.0
220
0.0
230
1.0
 70
     8
 71
     3
 72
     8
 73
     4
 74
     0
 42
0.000000001
 43
0.0000000001
 40
0.0
 40
0.0
 40
0.0
 40
0.0
 40
1.0
 40
1.0
 40
1.0
 40
1.0
 10
279.4048419452957
 20
272.560514330938
 30
0.0
 10
279.4271466989133
 20
272.5783245908276
 30
0.0
 10
279.4494651531773
 20
272.5961852729068
 30
0.0
 10
279.4717969865144
 20
272.614094882753
 30
0.0
  0
SPLINE
  5
1BD
330
1F
100
AcDbEntity
  8
1
100
AcDbSpline
210
0.0
220
0.0
230
1.0
 70
     8
 71
     3
 72
    47
 73
    43
 74
     0
 42
0.000000001
 43
0.0000000001
 40
0.0
 40
0.0
 40
0.0
 40
0.0
 40
0.0625
 40
0.0625
 40
0.1250000000000001
 40
0.1875000000000001
 40
0.1875000000000001
 40
0.203125
 40
0.203125
 40
0.2187499999999999
 40
0.2499999999999996
 40
0.2499999999999996
 40
0.3124999999999996
 40
0.3749999999999995
 40
0.3749999999999995
 40
0.4062499999999995
 40
0.4062499999999995
 40
0.4374999999999998
 40
0.4374999999999998
 40
0.5
 40
0.5
 40
0.5625000000000006
 40
0.5625000000000006
 40
0.5781250000000008
 40
0.5781250000000008
 40
0.5937500000000011
 40
0.5937500000000011
 40
0.6250000000000016
 40
0.6250000000000016
 40
0.6875000000000019
 40
0.6875000000000019
 40
0.7500000000000023
 40
0.7500000000000023
 40
0.7812500000000023
 40
0.7968750000000023
 40
0.7968750000000023
 40
0.8125000000000021
 40
0.8125000000000021
 40
0.8750000000000014
 40
0.9375000000000007
 40
0.9375000000000007
 40
1.0
 40
1.0
 40
1.0
 40
1.0
 10
275.9060069438651
 20
274.7249631814246
 30
0.0
 10
275.8849888252442
 20
274.6474198653614
 30
0.0
 10
275.8713083421431
 20
274.5711667006406
 30
0.0
 10
275.858110074503
 20
274.4212257635989
 30
0.0
 10
275.8590781764051
 20
274.2738502560524
 30
0.0
 10
275.8882334632936
 20
274.1315888705489
 30
0.0
 10
275.9154875638693
 20
274.0442721799148
 30
0.0
 10
275.9213986816865
 20
274.0268713994538
 30
0.0
 10
275.934057017445
 20
273.9924319705729
 30
0.0
 10
275.9543172686522
 20
273.9412484123984
 30
0.0
 10
275.9783375090175
 20
273.8914609075482
 30
0.0
 10
276.0312762173162
 20
273.7936756286083
 30
0.0
 10
276.114898564539
 20
273.6680619214112
 30
0.0
 10
276.2239949709688
 20
273.551369118424
 30
0.0
 10
276.315429812484
 20
273.4670249519981
 30
0.0
 10
276.3475771032706
 20
273.4393972723194
 30
0.0
 10
276.4143922866875
 20
273.3857359829171
 30
0.0
 10
276.449126987181
 20
273.3596337757089
 30
0.0
 10
276.5572078453375
 20
273.2833964908441
 30
0.0
 10
276.6344211912356
 20
273.2353261436925
 30
0.0
 10
276.7988598861349
 20
273.1442029574935
 30
0.0
 10
276.8860859467612
 20
273.1011510530496
 30
0.0
 10
277.0013727580149
 20
273.0502520935216
 30
0.0
 10
277.0247435470162
 20
273.0402184001931
 30
0.0
 10
277.072114758023
 20
273.0204388636571
 30
0.0
 10
277.0961446424554
 20
273.0106815372698
 30
0.0
 10
277.1689451333345
 20
272.9819291921908
 30
0.0
 10
277.218379479388
 20
272.9634685334476
 30
0.0
 10
277.3693162528725
 20
272.9100872118745
 30
0.0
 10
277.4734459726651
 20
272.8771616165402
 30
0.0
 10
277.6885198683685
 20
272.8161352707627
 30
0.0
 10
277.7994644978806
 20
272.7880354591991
 30
0.0
 10
277.9709978218059
 20
272.7492583695449
 30
0.0
 10
278.0580458734877
 20
272.7307148224681
 30
0.0
 10
278.1470381689924
 20
272.7134086195823
 30
0.0
 10
278.206802417449
 20
272.7021438750845
 30
0.0
 10
278.2369331845122
 20
272.6966426258221
 30
0.0
 10
278.3880735332839
 20
272.669919592179
 30
0.0
 10
278.6336033118547
 20
272.6320339745041
 30
0.0
 10
278.8863916492164
 20
272.6031544204928
 30
0.0
 10
279.1428387425495
 20
272.5785950926086
 30
0.0
 10
279.272891318125
 20
272.5684752952111
 30
0.0
 10
279.4048419452957
 20
272.560514330938
 30
0.0
  0
SPLINE
  5
1BE
330
1F
100
AcDbEntity
  8
1
100
AcDbSpline
210
0.0
220
0.0
230
1.0
 70
     8
 71
     3
 72
    50
 73
    46
 74
     0
 42
0.000000001
 43
0.0000000001
 40
0.0
 40
0.0
 40
0.0
 40
0.0
 40
0.0625
 40
0.0625
 40
0.1250000000000001
 40
0.1250000000000001
 40
0.1875000000000001
 40
0.1875000000000001
 40
0.2500000000000002
 40
0.2500000000000002
 40
0.2812500000000002
 40
0.2812500000000002
 40
0.3125000000000002
 40
0.3125000000000002
 40
0.3437500000000002
 40
0.3437500000000002
 40
0.3750000000000002
 40
0.3750000000000002
 40
0.4062500000000003
 40
0.4062500000000003
 40
0.4375000000000003
 40
0.4375000000000003
 40
0.4687500000000003
 40
0.4687500000000003
 40
0.5000000000000005
 40
0.5000000000000005
 40
0.5312500000000005
 40
0.5312500000000005
 40
0.5625000000000005
 40
0.5625000000000005
 40
0.6250000000000006
 40
0.6250000000000006
 40
0.6875000000000006
 40
0.6875000000000006
 40
0.7500000000000006
 40
0.7500000000000006
 40
0.8125000000000005
 40
0.8125000000000005
 40
0.8750000000000005
 40
0.8750000000000005
 40
0.90625
 40
0.90625
 40
0.9375
 40
0.9375
 40
1.0
 40
1.0
 40
1.0
 40
1.0
 10
296.4048419452957
 20
283.7207985110186
 30
0.0
 10
296.9432344901062
 20
283.6884114321012
 30
0.0
 10
297.4807260019272
 20
283.6524578767489
 30
0.0
 10
298.5534933723623
 20
283.5722122396457
 30
0.0
 10
299.0887689536588
 20
283.5279139054916
 30
0.0
 10
300.1566010664493
 20
283.4297313027373
 30
0.0
 10
300.6891552807197
 20
283.3758312299764
 30
0.0
 10
301.750983083051
 20
283.2574677577778
 30
0.0
 10
302.2802496946564
 20
283.1929724187272
 30
0.0
 10
303.0713203290208
 20
283.0882954586243
 30
0.0
 10
303.3345401802998
 20
283.0520915035117
 30
0.0
 10
303.8600100771347
 20
282.977251923011
 30
0.0
 10
304.1222595908781
 20
282.9386149443411
 30
0.0
 10
304.6457973829284
 20
282.8592775565674
 30
0.0
 10
304.9070851492452
 20
282.8185764480565
 30
0.0
 10
305.4287627270243
 20
282.7356917529945
 30
0.0
 10
305.6892129965695
 20
282.6934984861897
 30
0.0
 10
306.2083277996717
 20
282.608594789382
 30
0.0
 10
306.4671215388074
 20
282.5658668689326
 30
0.0
 10
306.9835329959666
 20
282.480789674329
 30
0.0
 10
307.2411518736327
 20
282.4384442066037
 30
0.0
 10
307.7556698318588
 20
282.3551137004816
 30
0.0
 10
308.0125707815873
 20
282.3141327238921
 30
0.0
 10
308.52616690538
 20
282.234436370257
 30
0.0
 10
308.7828649346087
 20
282.1957251518626
 30
0.0
 10
309.2965626187464
 20
282.1212806927022
 30
0.0
 10
309.5535596147262
 20
282.0855413506838
 30
0.0
 10
310.0681948738851
 20
282.0173709184617
 30
0.0
 10
310.3257510988797
 20
281.9849490790013
 30
0.0
 10
311.099279608079
 20
281.8928901412808
 30
0.0
 10
311.6162159438169
 20
281.8384897495733
 30
0.0
 10
312.6538866252273
 20
281.7430031074854
 30
0.0
 10
313.1746842066236
 20
281.7018957787819
 30
0.0
 10
314.2187862010758
 20
281.6294465671267
 30
0.0
 10
314.7420918093675
 20
281.5981258734507
 30
0.0
 10
315.7901909574862
 20
281.5433051840644
 30
0.0
 10
316.3149928935864
 20
281.5198186223037
 30
0.0
 10
317.3652216764281
 20
281.4796011589279
 30
0.0
 10
317.8907161123383
 20
281.4628694763094
 30
0.0
 10
318.6784302583597
 20
281.4425561123598
 30
0.0
 10
318.9409173658872
 20
281.4365866328476
 30
0.0
 10
319.4656425567512
 20
281.4262744734142
 30
0.0
 10
319.7278922285313
 20
281.4219387339888
 30
0.0
 10
320.5144504148128
 20
281.4115029170654
 30
0.0
 10
321.0385711243351
 20
281.4079935137006
 30
0.0
 10
321.5628231047028
 20
281.4079935137005
 30
0.0
  0
SPLINE
  5
1BF
330
1F
100
AcDbEntity
  8
1
100
AcDbSpline
210
0.0
220
0.0
230
1.0
 70
     8
 71
     3
 72
    50
 73
    46
 74
     0
 42
0.000000001
 43
0.0000000001
 40
0.0
 40
0.0
 40
0.0
 40
0.0
 40
0.0624999999999994
 40
0.0624999999999994
 40
0.1249999999999988
 40
0.1249999999999988
 40
0.1562499999999985
 40
0.1562499999999985
 40
0.1874999999999982
 40
0.1874999999999982
 40
0.2499999999999976
 40
0.2499999999999976
 40
0.3124999999999969
 40
0.3124999999999969
 40
0.3749999999999963
 40
0.3749999999999963
 40
0.4374999999999958
 40
0.4374999999999958
 40
0.4687499999999952
 40
0.4687499999999952
 40
0.4999999999999948
 40
0.4999999999999948
 40
0.5624999999999945
 40
0.5624999999999945
 40
0.5937499999999945
 40
0.5937499999999945
 40
0.6093749999999945
 40
0.6093749999999945
 40
0.6249999999999945
 40
0.6249999999999945
 40
0.6562499999999952
 40
0.6562499999999952
 40
0.6874999999999961
 40
0.6874999999999961
 40
0.7499999999999973
 40
0.7499999999999973
 40
0.7812499999999973
 40
0.7812499999999973
 40
0.8124999999999971
 40
0.8124999999999971
 40
0.8749999999999978
 40
0.8749999999999978
 40
0.9374999999999987
 40
0.9374999999999987
 40
1.0
 40
1.0
 40
1.0
 40
1.0
 10
296.4048419452959
 20
295.8944293452693
 30
0.0
 10
296.8482645859912
 20
295.8834760081928
 30
0.0
 10
297.2912189008807
 20
295.8706264274624
 30
0.0
 10
298.1760509877383
 20
295.8402076610545
 30
0.0
 10
298.6179285993941
 20
295.822640371938
 30
0.0
 10
299.2798199124609
 20
295.791839886041
 30
0.0
 10
299.5003188456682
 20
295.7808277689311
 30
0.0
 10
299.9408915697094
 20
295.7571375255029
 30
0.0
 10
300.1608167718322
 20
295.7444674233967
 30
0.0
 10
300.8194446241033
 20
295.7036935681741
 30
0.0
 10
301.2569964573357
 20
295.6728318475962
 30
0.0
 10
302.1287334488917
 20
295.602031768955
 30
0.0
 10
302.5629135327023
 20
295.5620816912029
 30
0.0
 10
303.4277582084627
 20
295.4713298377443
 30
0.0
 10
303.8584153230114
 20
295.4205032148303
 30
0.0
 10
304.7164119356422
 20
295.3067052678217
 30
0.0
 10
305.1437448869469
 20
295.2436986811049
 30
0.0
 10
305.7828359717918
 20
295.1401686575545
 30
0.0
 10
305.9956003033162
 20
295.1041616302902
 30
0.0
 10
306.4203280992671
 20
295.0294677379261
 30
0.0
 10
306.6323154538168
 20
294.9907779360582
 30
0.0
 10
307.2675494475976
 20
294.8712698382996
 30
0.0
 10
307.6900641941498
 20
294.7869641467913
 30
0.0
 10
308.3242375680003
 20
294.6570663789768
 30
0.0
 10
308.5356976719747
 20
294.6132082020272
 30
0.0
 10
308.8532156157942
 20
294.5470913543876
 30
0.0
 10
308.9591102351104
 20
294.5249995215707
 30
0.0
 10
309.1710383281736
 20
294.4807820284016
 30
0.0
 10
309.2770671809416
 20
294.4586468375253
 30
0.0
 10
309.5952933072461
 20
294.3920595480989
 30
0.0
 10
309.8076275474384
 20
294.3474217828781
 30
0.0
 10
310.2324359444868
 20
294.2571989416956
 30
0.0
 10
310.4449104896458
 20
294.2116138917758
 30
0.0
 10
311.0823222350536
 20
294.0729437834873
 30
0.0
 10
311.5072242935084
 20
293.9778954930927
 30
0.0
 10
312.1441716886104
 20
293.8304570325429
 30
0.0
 10
312.3564063223001
 20
293.7805031169976
 30
0.0
 10
312.7806529869076
 20
293.6790486482278
 30
0.0
 10
312.9926938233925
 20
293.627582134275
 30
0.0
 10
313.6287797988255
 20
293.4714702714152
 30
0.0
 10
314.0528041890999
 20
293.3651472465804
 30
0.0
 10
314.9014216591282
 20
293.1497006259419
 30
0.0
 10
315.326043377481
 20
293.0405552010115
 30
0.0
 10
316.175689157376
 20
292.8202600837404
 30
0.0
 10
316.6007464103121
 20
292.70909504962
 30
0.0
 10
317.0260222808455
 20
292.5969321268432
 30
0.0
  0
SPLINE
  5
1C0
330
1F
100
AcDbEntity
  8
1
100
AcDbSpline
210
0.0
220
0.0
230
1.0
 70
     8
 71
     3
 72
    51
 73
    47
 74
     0
 42
0.000000001
 43
0.0000000001
 40
0.0
 40
0.0
 40
0.0
 40
0.0
 40
0.0461329094224106
 40
0.0461329094224106
 40
0.0691993641336155
 40
0.0691993641336155
 40
0.0807325914892184
 40
0.0807325914892184
 40
0.0922658188448212
 40
0.0922658188448212
 40
0.1383987282672328
 40
0.1383987282672328
 40
0.1845316376896444
 40
0.1845316376896444
 40
0.230664547112056
 40
0.230664547112056
 40
0.2767974565344675
 40
0.2767974565344675
 40
0.2998639112456738
 40
0.2998639112456738
 40
0.3229303659568801
 40
0.3229303659568801
 40
0.3690632753792917
 40
0.3690632753792917
 40
0.4613290942241158
 40
0.4613290942241158
 40
0.55359491306894
 40
0.5997278224913514
 40
0.5997278224913514
 40
0.6458607319137629
 40
0.6458607319137629
 40
0.6919936413361745
 40
0.6919936413361745
 40
0.7381265507585863
 40
0.7381265507585863
 40
0.7842594601809978
 40
0.7842594601809978
 40
0.8303923696034091
 40
0.8303923696034091
 40
0.8765252790258209
 40
0.8765252790258209
 40
0.9226581884482325
 40
0.9226581884482325
 40
0.9687910978706442
 40
0.9687910978706442
 40
1.0
 40
1.0
 40
1.0
 40
1.0
 10
324.5144806155994
 20
296.2763287971305
 30
0.0
 10
324.2572211525238
 20
296.3067524206368
 30
0.0
 10
323.9924344618129
 20
296.3298455880746
 30
0.0
 10
323.5842868144001
 20
296.3565625074112
 30
0.0
 10
323.4464131902101
 20
296.3641424063066
 30
0.0
 10
323.2369469876462
 20
296.3738595486219
 30
0.0
 10
323.166686249122
 20
296.3768218283196
 30
0.0
 10
323.025950961672
 20
296.3822248837361
 30
0.0
 10
322.9553941876379
 20
296.3846696873646
 30
0.0
 10
322.6016975842808
 20
296.3957549849586
 30
0.0
 10
322.3158079712041
 20
296.4010282383212
 30
0.0
 10
321.7391875873511
 20
296.4072774040253
 30
0.0
 10
321.4484563326299
 20
296.4082465171886
 30
0.0
 10
320.8634831761153
 20
296.4076364033245
 30
0.0
 10
320.56924201736
 20
296.4060522894686
 30
0.0
 10
319.9788868463247
 20
296.401133782846
 30
0.0
 10
319.6827751376954
 20
296.3977970786474
 30
0.0
 10
319.2386283350908
 20
296.3914483659952
 30
0.0
 10
319.0906025036022
 20
296.389096457997
 30
0.0
 10
318.7946785162137
 20
296.3838900286561
 30
0.0
 10
318.6467709921415
 20
296.3810375055301
 30
0.0
 10
318.2032316018268
 20
296.3717027024744
 30
0.0
 10
317.9077842473478
 20
296.3644438479777
 30
0.0
 10
317.0222938987837
 20
296.3392922595251
 30
0.0
 10
316.4331202909964
 20
296.3180221412617
 30
0.0
 10
315.2572164273117
 20
296.2649361559993
 30
0.0
 10
314.3770861267003
 20
296.2172235724633
 30
0.0
 10
313.4995209340908
 20
296.1559136354966
 30
0.0
 10
312.9150830357492
 20
296.1117566427369
 30
0.0
 10
312.6231655392389
 20
296.0880394518855
 30
0.0
 10
312.0400548608452
 20
296.0369254164288
 30
0.0
 10
311.7488621130873
 20
296.009525249326
 30
0.0
 10
311.1671729320516
 20
295.9507502600344
 30
0.0
 10
310.8766789978599
 20
295.9193711867171
 30
0.0
 10
310.2963034764975
 20
295.8524114889229
 30
0.0
 10
310.0064097383314
 20
295.816824502393
 30
0.0
 10
309.4270875771352
 20
295.7414324960467
 30
0.0
 10
309.1377537371147
 20
295.7016289386853
 30
0.0
 10
308.5594567779847
 20
295.6181943781033
 30
0.0
 10
308.2704763601776
 20
295.574591991261
 30
0.0
 10
307.6922974133566
 20
295.4848086643728
 30
0.0
 10
307.4030957648016
 20
295.4386358083775
 30
0.0
 10
306.8239428617001
 20
295.3451586619271
 30
0.0
 10
306.5339895208246
 20
295.2978626565773
 30
0.0
 10
306.0469021766613
 20
295.2188241486021
 30
0.0
 10
305.850085189241
 20
295.187002138902
 30
0.0
 10
305.6529587492851
 20
295.155436732164
 30
0.0
  0
SPLINE
  5
1C1
330
1F
100
AcDbEntity
  8
1
100
AcDbSpline
210
0.0
220
0.0
230
1.0
 70
     8
 71
     3
 72
    10
 73
     6
 74
     0
 42
0.000000001
 43
0.0000000001
 40
0.0
 40
0.0
 40
0.0
 40
0.0
 40
0.5
 40
0.5
 40
1.0
 40
1.0
 40
1.0
 40
1.0
 10
294.789618256146
 20
281.8730167394395
 30
0.0
 10
294.4489201768298
 20
281.8458906486231
 30
0.0
 10
294.1138904976192
 20
281.8021188781626
 30
0.0
 10
293.4540156365082
 20
281.6871357910136
 30
0.0
 10
293.1291732422959
 20
281.6159324845192
 30
0.0
 10
292.8088735071246
 20
281.5336224046471
 30
0.0
  0
SPLINE
  5
1C7
330
1F
100
AcDbEntity
  8
1
100
AcDbSpline
210
0.0
220
0.0
230
1.0
 70
     8
 71
     3
 72
     8
 73
     4
 74
     0
 42
0.000000001
 43
0.0000000001
 40
0.0
 40
0.0
 40
0.0
 40
0.0
 40
1.0
 40
1.0
 40
1.0
 40
1.0
 10
295.269197182845
 20
295.9635428014187
 30
0.0
 10
295.1091653891995
 20
295.9730242200445
 30
0.0
 10
294.9493126080083
 20
295.9826937272326
 30
0.0
 10
294.789618256146
 20
295.9924828325723
 30
0.0
  0
LINE
  5
1E7
330
1F
100
AcDbEntity
  8
4
100
AcDbLine
 10
271.789618
 20
288.907994
 30
0.0
 11
335.337203
 21
288.907994
 31
0.0
  0
LINE
  5
1E8
330
1F
100
AcDbEntity
  8
SK4
100
AcDbLine
 10
214.904842
 20
288.907994
 30
0.0
 11
277.404842
 21
288.907994
 31
0.0
  0
MTEXT
  5
1E9
330
1F
100
AcDbEntity
  8
SK6
100
AcDbMText
 10
258.520787
 20
241.27662
 30
0.0
 40
3.5
 41
0.0
 71
     7
 72
     5
  1
\W0.7119;802D-16-32-S25
  7
cesky
 73
     2
 44
0.8433729999999998
  0
MTEXT
  5
2FF
330
1F
100
AcDbEntity
  8
2
100
AcDbMText
 10
301.0903419999999
 20
327.385163
 30
0.0
 40
3.5
 41
0.0
 71
     7
 72
     5
  1
\W0.7045;57
  7
cesky
 73
     2
 44
0.8433729999999998
  0
LINE
  5
300
330
1F
100
AcDbEntity
  8
2
100
AcDbLine
 10
331.404842
 20
296.907994
 30
0.0
 11
331.404842
 21
328.5109970000001
 31
0.0
  0
LINE
  5
301
330
1F
100
AcDbEntity
  8
2
100
AcDbLine
 10
274.404842
 20
289.907567
 30
0.0
 11
274.404842
 21
328.5109970000001
 31
0.0
  0
LINE
  5
302
330
1F
100
AcDbEntity
  8
2
100
AcDbLine
 10
331.404842
 20
327.510997
 30
0.0
 11
274.404842
 21
327.510997
 31
0.0
  0
SOLID
  5
303
330
1F
100
AcDbEntity
  8
2
100
AcDbTrace
 10
331.404842
 20
327.510997
 30
0.0
 11
327.904844
 21
326.893852
 31
0.0
 12
327.90484
 22
328.128141
 32
0.0
 13
327.90484
 23
328.128141
 33
0.0
  0
SOLID
  5
304
330
1F
100
AcDbEntity
  8
2
100
AcDbTrace
 10
274.404842
 20
327.510997
 30
0.0
 11
277.90484
 21
328.128141
 31
0.0
 12
277.904844
 22
326.893852
 32
0.0
 13
277.904844
 23
326.893852
 33
0.0
  0
MTEXT
  5
305
330
1F
100
AcDbEntity
  8
2
100
AcDbMText
 10
346.032776
 20
286.903321
 30
0.0
 40
3.5
 41
0.0
 71
     7
 72
     5
  1
\W0.8260;16
  7
cesky
 11
0.0000000000000001
 21
1.0
 31
0.0
 73
     2
 44
0.8433729999999998
  0
MTEXT
  5
306
330
1F
100
AcDbEntity
  8
2
100
AcDbMText
 10
346.032776
 20
280.165821
 30
0.0
 40
3.5
 41
0.0
 71
     7
 72
     5
  1
\W3.0115;\H2.63;%%c\H3.50;
  7
cesky
 11
0.0000000000000001
 21
1.0
 31
0.0
 73
     2
 44
0.8433729999999998
  0
LINE
  5
307
330
1F
100
AcDbEntity
  8
2
100
AcDbLine
 10
333.404842
 20
296.907994
 30
0.0
 11
347.220192
 21
296.907994
 31
0.0
  0
LINE
  5
308
330
1F
100
AcDbEntity
  8
2
100
AcDbLine
 10
346.220192
 20
296.907994
 30
0.0
 11
346.220192
 21
280.008321
 31
0.0
  0
SOLID
  5
309
330
1F
100
AcDbEntity
  8
2
100
AcDbTrace
 10
346.220192
 20
296.907994
 30
0.0
 11
346.837337
 21
293.407996
 31
0.0
 12
345.603048
 22
293.407991
 32
0.0
 13
345.603048
 23
293.407991
 33
0.0
  0
MTEXT
  5
30A
330
1F
100
AcDbEntity
  8
2
100
AcDbMText
 10
271.827842
 20
340.562135
 30
0.0
 40
3.5
 41
0.0
 71
     7
 72
     5
  1
\W0.8488;113
  7
cesky
 73
     2
 44
0.8433729999999998
  0
LINE
  5
30B
330
1F
100
AcDbEntity
  8
2
100
AcDbLine
 10
331.404842
 20
298.907994
 30
0.0
 11
331.404842
 21
341.687968
 31
0.0
  0
LINE
  5
30C
330
1F
100
AcDbEntity
  8
2
100
AcDbLine
 10
218.404842
 20
299.407994
 30
0.0
 11
218.404842
 21
341.687968
 31
0.0
  0
LINE
  5
30D
330
1F
100
AcDbEntity
  8
2
100
AcDbLine
 10
331.404842
 20
340.687968
 30
0.0
 11
218.404842
 21
340.687968
 31
0.0
  0
SOLID
  5
30E
330
1F
100
AcDbEntity
  8
2
100
AcDbTrace
 10
331.404842
 20
340.687968
 30
0.0
 11
327.904844
 21
340.070823
 31
0.0
 12
327.90484
 22
341.305112
 32
0.0
 13
327.90484
 23
341.305112
 33
0.0
  0
SOLID
  5
30F
330
1F
100
AcDbEntity
  8
2
100
AcDbTrace
 10
218.404842
 20
340.687968
 30
0.0
 11
221.90484
 21
341.305112
 31
0.0
 12
221.904844
 22
340.070823
 32
0.0
 13
221.904844
 23
340.070823
 33
0.0
  0
MTEXT
  5
310
330
1F
100
AcDbEntity
  8
2
100
AcDbMText
 10
244.590342
 20
327.385163
 30
0.0
 40
3.5
 41
0.0
 71
     7
 72
     5
  1
\W0.7259;56
  7
cesky
 73
     2
 44
0.8433729999999998
  0
LINE
  5
311
330
1F
100
AcDbEntity
  8
2
100
AcDbLine
 10
274.404842
 20
288.907994
 30
0.0
 11
274.404842
 21
328.5109970000001
 31
0.0
  0
LINE
  5
312
330
1F
100
AcDbEntity
  8
2
100
AcDbLine
 10
218.404842
 20
299.407994
 30
0.0
 11
218.404842
 21
328.5109970000001
 31
0.0
  0
LINE
  5
313
330
1F
100
AcDbEntity
  8
2
100
AcDbLine
 10
274.404842
 20
327.510997
 30
0.0
 11
218.404842
 21
327.510997
 31
0.0
  0
SOLID
  5
314
330
1F
100
AcDbEntity
  8
2
100
AcDbTrace
 10
274.404842
 20
327.510997
 30
0.0
 11
270.904844
 21
326.893852
 31
0.0
 12
270.90484
 22
328.128141
 32
0.0
 13
270.90484
 23
328.128141
 33
0.0
  0
SOLID
  5
315
330
1F
100
AcDbEntity
  8
2
100
AcDbTrace
 10
218.404842
 20
327.510997
 30
0.0
 11
221.90484
 21
328.128141
 31
0.0
 12
221.904844
 22
326.893852
 32
0.0
 13
221.904844
 23
326.893852
 33
0.0
  0
MTEXT
  5
316
330
1F
100
AcDbEntity
  8
2
100
AcDbMText
 10
308.99752
 20
316.511754
 30
0.0
 40
3.5
 41
9.023666666666667
 71
     7
 72
     5
  1
{\W0.9844;37}
  7
cesky
 73
     2
 44
0.8433729999999998
  0
LINE
  5
317
330
1F
100
AcDbEntity
  8
2
100
AcDbLine
 10
331.404842
 20
298.907994
 30
0.0
 11
331.404842
 21
317.637587
 31
0.0
  0
LINE
  5
318
330
1F
100
AcDbEntity
  8
2
100
AcDbLine
 10
295.269197
 20
296.32787
 30
0.0
 11
295.269197
 21
317.637587
 31
0.0
  0
LINE
  5
319
330
1F
100
AcDbEntity
  8
2
100
AcDbLine
 10
331.404842
 20
316.637587
 30
0.0
 11
295.269197
 21
316.637587
 31
0.0
  0
SOLID
  5
31A
330
1F
100
AcDbEntity
  8
2
100
AcDbTrace
 10
331.404842
 20
316.637587
 30
0.0
 11
327.904844
 21
316.020443
 31
0.0
 12
327.90484
 22
317.254732
 32
0.0
 13
327.90484
 23
317.254732
 33
0.0
  0
SOLID
  5
31B
330
1F
100
AcDbEntity
  8
2
100
AcDbTrace
 10
295.269197
 20
316.637587
 30
0.0
 11
298.769195
 21
317.254732
 31
0.0
 12
298.769199
 22
316.020443
 32
0.0
 13
298.769199
 23
316.020443
 33
0.0
  0
MTEXT
  5
31C
330
1F
100
AcDbEntity
  8
SK2
100
AcDbMText
 10
204.240395
 20
290.434244
 30
0.0
 40
3.5
 41
0.0
 71
     7
 72
     5
  1
\W0.7045;25
  7
cesky
 11
0.0000000000000001
 21
1.0
 31
0.0
 73
     2
 44
0.8433729999999998
  0
MTEXT
  5
31D
330
1F
100
AcDbEntity
  8
SK2
100
AcDbMText
 10
204.240395
 20
283.696744
 30
0.0
 40
3.5
 41
0.0
 71
     7
 72
     5
  1
\W3.0115;\H2.63;%%c\H3.50;
  7
cesky
 11
0.0000000000000001
 21
1.0
 31
0.0
 73
     2
 44
0.8433729999999998
  0
LINE
  5
31E
330
1F
100
AcDbEntity
  8
SK2
100
AcDbLine
 10
220.404842
 20
301.407994
 30
0.0
 11
203.427812
 21
301.407994
 31
0.0
  0
LINE
  5
31F
330
1F
100
AcDbEntity
  8
SK2
100
AcDbLine
 10
220.404842
 20
276.407994
 30
0.0
 11
203.427812
 21
276.407994
 31
0.0
  0
LINE
  5
320
330
1F
100
AcDbEntity
  8
SK2
100
AcDbLine
 10
204.427812
 20
301.407994
 30
0.0
 11
204.427812
 21
276.407994
 31
0.0
  0
SOLID
  5
321
330
1F
100
AcDbEntity
  8
SK2
100
AcDbTrace
 10
204.427812
 20
301.407994
 30
0.0
 11
205.044956
 21
297.9079959999999
 31
0.0
 12
203.810668
 22
297.907991
 32
0.0
 13
203.810668
 23
297.907991
 33
0.0
  0
SOLID
  5
322
330
1F
100
AcDbEntity
  8
SK2
100
AcDbTrace
 10
204.427812
 20
276.407994
 30
0.0
 11
203.810668
 21
279.9079910000001
 31
0.0
 12
205.044956
 22
279.907996
 32
0.0
 13
205.044956
 23
279.907996
 33
0.0
  0
MTEXT
  5
323
330
1F
100
AcDbEntity
  8
SK2
100
AcDbMText
 10
191.10057
 20
290.434244
 30
0.0
 40
3.5
 41
0.0
 71
     7
 72
     5
  1
\W0.7045;35
  7
cesky
 11
0.0000000000000001
 21
1.0
 31
0.0
 73
     2
 44
0.8433729999999998
  0
MTEXT
  5
324
330
1F
100
AcDbEntity
  8
SK2
100
AcDbMText
 10
191.10057
 20
283.696744
 30
0.0
 40
3.5
 41
0.0
 71
     7
 72
     5
  1
\W3.0115;\H2.63;%%c\H3.50;
  7
cesky
 11
0.0000000000000001
 21
1.0
 31
0.0
 73
     2
 44
0.8433729999999998
  0
LINE
  5
325
330
1F
100
AcDbEntity
  8
SK2
100
AcDbLine
 10
274.904842
 20
306.407994
 30
0.0
 11
190.287987
 21
306.407994
 31
0.0
  0
LINE
  5
326
330
1F
100
AcDbEntity
  8
SK2
100
AcDbLine
 10
274.904842
 20
271.407994
 30
0.0
 11
190.287987
 21
271.407994
 31
0.0
  0
LINE
  5
327
330
1F
100
AcDbEntity
  8
SK2
100
AcDbLine
 10
191.287987
 20
306.407994
 30
0.0
 11
191.287987
 21
271.407994
 31
0.0
  0
SOLID
  5
328
330
1F
100
AcDbEntity
  8
SK2
100
AcDbTrace
 10
191.287987
 20
306.407994
 30
0.0
 11
191.905131
 21
302.907996
 31
0.0
 12
190.670842
 22
302.907991
 32
0.0
 13
190.670842
 23
302.907991
 33
0.0
  0
SOLID
  5
329
330
1F
100
AcDbEntity
  8
SK2
100
AcDbTrace
 10
191.287987
 20
271.407994
 30
0.0
 11
190.670842
 21
274.907991
 31
0.0
 12
191.905131
 22
274.9079959999999
 32
0.0
 13
191.905131
 23
274.9079959999999
 33
0.0
  0
LINE
  5
32A
330
1F
100
AcDbEntity
  8
CUT
100
AcDbLine
 10
331.0358187261809
 20
293.3780575518377
 30
0.0
 11
330.8925702678371
 21
296.539519411513
 31
0.0
  0
LINE
  5
32B
330
1F
100
AcDbEntity
  8
CUT
100
AcDbLine
 10
330.4888550589399
 20
296.904925530569
 30
0.0
 11
325.7121479111627
 21
296.6831832012372
 31
0.0
  0
LINE
  5
32E
330
1F
100
AcDbEntity
  8
CUT
100
AcDbLine
 10
331.346922195296
 20
292.8604409805732
 30
0.0
 11
331.0358187261809
 21
293.3780575518377
 31
0.0
  0
LINE
  5
32F
330
1F
100
AcDbEntity
  8
CUT
100
AcDbLine
 10
331.4048419452957
 20
289.5488061663523
 30
0.0
 11
331.346922195296
 21
292.8604409805732
 31
0.0
  0
LINE
  5
330
330
1F
100
AcDbEntity
  8
CUT
100
AcDbLine
 10
325.342944
 20
288.907994
 30
0.0
 11
331.404842
 21
288.907994
 31
0.0
  0
LINE
  5
331
330
1F
100
AcDbEntity
  8
CUT
100
AcDbLine
 10
325.342944
 20
296.281491
 30
0.0
 11
325.342944
 21
288.907994
 31
0.0
  0
LINE
  5
332
330
1F
100
AcDbEntity
  8
CUT
100
AcDbLine
 10
331.404842
 20
288.907994
 30
0.0
 11
331.404842
 21
289.548806
 31
0.0
  0
LINE
  5
333
330
1F
100
AcDbEntity
  8
CUT
100
AcDbLine
 10
330.8925702678371
 20
296.539519411513
 30
0.0
 11
330.8925702678371
 21
296.539519411513
 31
0.0
  0
ARC
  5
334
330
1F
100
AcDbEntity
  8
CUT
100
AcDbCircle
 10
330.5047523295095
 20
296.5167661003802
 30
0.0
 40
0.3884848342679286
100
AcDbArc
 50
3.357699143527488
 51
92.3452676393318
  0
ARC
  5
335
330
1F
100
AcDbEntity
  8
CUT
100
AcDbCircle
 10
325.7332248780096
 20
296.2927743365423
 30
0.0
 40
0.3909773908601191
100
AcDbArc
 50
93.09022197783692
 51
174.7415471028841
  0
ARC
  5
336
330
1F
100
AcDbEntity
  8
CUT
100
AcDbCircle
 10
325.7066498634507
 20
296.2977352921238
 30
0.0
 40
0.3640681698575394
100
AcDbArc
 50
175.1357022066032
 51
182.5573605480235
  0
ENDSEC
  0
SECTION
  2
OBJECTS
  0
DICTIONARY
  5
C
330
0
100
AcDbDictionary
281
     1
  3
ACAD_CIP_PREVIOUS_PRODUCT_INFO
350
2FC
  3
ACAD_COLOR
350
2F7
  3
ACAD_DETAILVIEWSTYLE
350
2F3
  3
ACAD_GROUP
350
D
  3
ACAD_LAYOUT
350
1A
  3
ACAD_MATERIAL
350
43
  3
ACAD_MLEADERSTYLE
350
6B
  3
ACAD_MLINESTYLE
350
17
  3
ACAD_PLOTSETTINGS
350
19
  3
ACAD_PLOTSTYLENAME
350
E
  3
ACAD_SCALELIST
350
47
  3
ACAD_SECTIONVIEWSTYLE
350
2F4
  3
ACAD_TABLESTYLE
350
69
  3
ACAD_VISUALSTYLE
350
2A
  3
ACDB_RECOMPOSE_DATA
350
3A0
  3
AcDbVariableDictionary
350
2B0
  0
DICTIONARY
  5
345
330
10
100
AcDbDictionary
280
     1
281
     1
  3
ADSK_XREC_LAYER_RECONCILED
360
346
  0
DICTIONARY
  5
347
330
337
100
AcDbDictionary
280
     1
281
     1
  3
ADSK_XREC_LAYER_RECONCILED
360
348
  0
DICTIONARY
  5
349
330
338
100
AcDbDictionary
280
     1
281
     1
  3
ADSK_XREC_LAYER_RECONCILED
360
34A
  0
DICTIONARY
  5
34B
330
339
100
AcDbDictionary
280
     1
281
     1
  3
ADSK_XREC_LAYER_RECONCILED
360
34C
  0
DICTIONARY
  5
34D
330
33B
100
AcDbDictionary
280
     1
281
     1
  3
ADSK_XREC_LAYER_RECONCILED
360
34E
  0
DICTIONARY
  5
34F
330
33C
100
AcDbDictionary
280
     1
281
     1
  3
ADSK_XREC_LAYER_RECONCILED
360
350
  0
DICTIONARY
  5
351
330
33E
100
AcDbDictionary
280
     1
281
     1
  3
ADSK_XREC_LAYER_RECONCILED
360
352
  0
DICTIONARY
  5
353
330
33F
100
AcDbDictionary
280
     1
281
     1
  3
ADSK_XREC_LAYER_RECONCILED
360
354
  0
DICTIONARY
  5
355
330
340
100
AcDbDictionary
280
     1
281
     1
  3
ADSK_XREC_LAYER_RECONCILED
360
356
  0
DICTIONARY
  5
357
330
341
100
AcDbDictionary
280
     1
281
     1
  3
ADSK_XREC_LAYER_RECONCILED
360
358
  0
DICTIONARY
  5
359
330
342
100
AcDbDictionary
280
     1
281
     1
  3
ADSK_XREC_LAYER_RECONCILED
360
35A
  0
DICTIONARY
  5
35B
330
343
100
AcDbDictionary
280
     1
281
     1
  3
ADSK_XREC_LAYER_RECONCILED
360
35C
  0
DICTIONARY
  5
2FD
330
1F
100
AcDbDictionary
280
     1
281
     1
  3
ACAD_SORTENTS
360
2FE
  0
XRECORD
  5
2FC
102
{ACAD_REACTORS
330
C
102
}
330
C
100
AcDbXrecord
280
     1
300
ACD
300
2019
300
87084ACD_2019_0F
  0
DICTIONARY
  5
2F7
102
{ACAD_REACTORS
330
C
102
}
330
C
100
AcDbDictionary
281
     1
  0
DICTIONARY
  5
2F3
102
{ACAD_REACTORS
330
C
102
}
330
C
100
AcDbDictionary
281
     1
  3
Metric50
350
2F9
  0
DICTIONARY
  5
D
102
{ACAD_REACTORS
330
C
102
}
330
C
100
AcDbDictionary
281
     1
  3
NULOVY_BOD
350
344
  0
DICTIONARY
  5
1A
102
{ACAD_REACTORS
330
C
102
}
330
C
100
AcDbDictionary
281
     1
  3
Layout1
350
1E
  3
Layout2
350
26
  3
Model
350
22
  0
DICTIONARY
  5
43
102
{ACAD_REACTORS
330
C
102
}
330
C
100
AcDbDictionary
281
     1
  3
ByBlock
350
45
  3
ByLayer
350
44
  3
Global
350
46
  0
DICTIONARY
  5
6B
102
{ACAD_REACTORS
330
C
102
}
330
C
100
AcDbDictionary
281
     1
  3
Standard
350
6C
  0
DICTIONARY
  5
17
102
{ACAD_REACTORS
330
C
102
}
330
C
100
AcDbDictionary
281
     1
  3
Standard
350
18
  0
DICTIONARY
  5
19
102
{ACAD_REACTORS
330
C
102
}
330
C
100
AcDbDictionary
281
     1
  0
ACDBDICTIONARYWDFLT
  5
E
102
{ACAD_REACTORS
330
C
102
}
330
C
100
AcDbDictionary
281
     1
  3
Normal
350
F
100
AcDbDictionaryWithDefault
340
F
  0
DICTIONARY
  5
47
102
{ACAD_REACTORS
330
C
102
}
330
C
100
AcDbDictionary
281
     1
  3
A0
350
48
  3
A1
350
49
  3
A2
350
4A
  3
A3
350
4B
  3
A4
350
4C
  3
A5
350
4D
  3
A6
350
4E
  3
A7
350
4F
  3
A8
350
50
  3
A9
350
51
  3
B0
350
52
  3
B1
350
53
  3
B2
350
54
  3
B3
350
55
  3
B4
350
56
  3
B5
350
57
  3
B6
350
58
  3
B7
350
59
  3
B8
350
5A
  3
B9
350
5B
  3
C0
350
5C
  3
C1
350
5D
  3
C2
350
5E
  3
C3
350
5F
  3
C4
350
60
  3
C5
350
61
  3
C6
350
62
  3
C7
350
63
  3
C8
350
64
  3
C9
350
65
  3
D0
350
66
  3
D1
350
67
  3
D2
350
68
  0
DICTIONARY
  5
2F4
102
{ACAD_REACTORS
330
C
102
}
330
C
100
AcDbDictionary
281
     1
  3
Metric50
350
2F8
  0
DICTIONARY
  5
69
102
{ACAD_REACTORS
330
C
102
}
330
C
100
AcDbDictionary
281
     1
  3
Standard
350
6A
  0
DICTIONARY
  5
2A
102
{ACAD_REACTORS
330
C
102
}
330
C
100
AcDbDictionary
281
     1
  3
2dWireframe
350
2F
  3
Basic
350
32
  3
Brighten
350
36
  3
ColorChange
350
3A
  3
Conceptual
350
34
  3
Dim
350
35
  3
EdgeColorOff
350
3D
  3
Facepattern
350
39
  3
Flat
350
2B
  3
FlatWithEdges
350
2C
  3
Gouraud
350
2D
  3
GouraudWithEdges
350
2E
  3
Hidden
350
31
  3
JitterOff
350
3B
  3
Linepattern
350
38
  3
OverhangOff
350
3C
  3
Realistic
350
33
  3
Shaded
350
42
  3
Shaded with edges
350
41
  3
Shades of Gray
350
3E
  3
Sketchy
350
3F
  3
Thicken
350
37
  3
Wireframe
350
30
  3
X-Ray
350
40
  0
XRECORD
  5
3A0
102
{ACAD_REACTORS
330
C
102
}
330
C
100
AcDbXrecord
280
     1
 90
        1
330
6A
  0
DICTIONARY
  5
2B0
102
{ACAD_REACTORS
330
C
102
}
330
C
100
AcDbDictionary
281
     1
  3
CANNOSCALE
350
2B1
  3
CMLEADERSTYLE
350
2F2
  3
CTABLESTYLE
350
2F1
  3
CVIEWDETAILSTYLE
350
35D
  3
CVIEWSECTIONSTYLE
350
35E
  3
MSLTSCALE
350
2B2
  3
XCLIPFRAME
350
39E
  0
XRECORD
  5
346
102
{ACAD_REACTORS
330
345
102
}
330
345
100
AcDbXrecord
280
     1
290
     1
  0
XRECORD
  5
348
102
{ACAD_REACTORS
330
347
102
}
330
347
100
AcDbXrecord
280
     1
290
     1
  0
XRECORD
  5
34A
102
{ACAD_REACTORS
330
349
102
}
330
349
100
AcDbXrecord
280
     1
290
     1
  0
XRECORD
  5
34C
102
{ACAD_REACTORS
330
34B
102
}
330
34B
100
AcDbXrecord
280
     1
290
     1
  0
XRECORD
  5
34E
102
{ACAD_REACTORS
330
34D
102
}
330
34D
100
AcDbXrecord
280
     1
290
     1
  0
XRECORD
  5
350
102
{ACAD_REACTORS
330
34F
102
}
330
34F
100
AcDbXrecord
280
     1
290
     1
  0
XRECORD
  5
352
102
{ACAD_REACTORS
330
351
102
}
330
351
100
AcDbXrecord
280
     1
290
     1
  0
XRECORD
  5
354
102
{ACAD_REACTORS
330
353
102
}
330
353
100
AcDbXrecord
280
     1
290
     1
  0
XRECORD
  5
356
102
{ACAD_REACTORS
330
355
102
}
330
355
100
AcDbXrecord
280
     1
290
     1
  0
XRECORD
  5
358
102
{ACAD_REACTORS
330
357
102
}
330
357
100
AcDbXrecord
280
     1
290
     1
  0
XRECORD
  5
35A
102
{ACAD_REACTORS
330
359
102
}
330
359
100
AcDbXrecord
280
     1
290
     1
  0
XRECORD
  5
35C
102
{ACAD_REACTORS
330
35B
102
}
330
35B
100
AcDbXrecord
280
     1
290
     1
  0
SORTENTSTABLE
  5
2FE
102
{ACAD_REACTORS
330
2FD
102
}
330
2FD
100
AcDbSortentsTable
330
1F
331
2FF
  5
222
331
300
  5
23B
331
301
  5
2FF
331
302
  5
300
331
303
  5
301
331
304
  5
302
331
305
  5
303
331
306
  5
304
331
307
  5
305
331
308
  5
306
331
309
  5
307
331
30A
  5
318
331
30B
  5
319
331
30C
  5
31A
331
30D
  5
31B
331
30E
  5
31C
331
30F
  5
31D
331
310
  5
31E
331
311
  5
31F
331
312
  5
320
331
313
  5
321
331
314
  5
322
331
315
  5
323
331
316
  5
324
331
317
  5
325
331
318
  5
326
331
319
  5
327
331
31A
  5
328
331
31B
  5
329
331
31C
  5
30A
331
31D
  5
30B
331
31E
  5
30C
331
31F
  5
30D
331
320
  5
30E
331
321
  5
30F
331
322
  5
310
331
323
  5
311
331
324
  5
312
331
325
  5
313
331
326
  5
314
331
327
  5
315
331
328
  5
316
331
329
  5
317
331
32E
  5
332
331
32F
  5
333
331
330
  5
334
331
331
  5
335
331
332
  5
336
331
333
  5
32E
331
334
  5
32F
331
335
  5
330
331
336
  5
331
  0
ACDBDETAILVIEWSTYLE
  5
2F9
102
{ACAD_XDICTIONARY
360
3D4
102
}
102
{ACAD_REACTORS
330
2F3
102
}
330
2F3
100
AcDbModelDocViewStyle
 70
     0
  3
Metric50
290
     0
100
AcDbDetailViewStyle
 70
     0
 71
     0
 90
        3
 71
     1
340
11
 62
   256
 40
5.0
340
0
 62
   256
 40
5.0
300

 40
0.0
280
     1
 71
     2
340
16
 90
       25
 62
   256
 71
     3
340
11
 62
   256
 40
5.0
 90
        0
 40
15.0
 90
        1
300
%<\AcVar ViewDetailId>% (%<\AcVar ViewScale \f "%sn">%)
 71
     4
340
16
 90
       25
 62
   256
340
16
 90
       25
 62
   256
280
     0
  0
GROUP
  5
344
102
{ACAD_REACTORS
330
D
102
}
330
D
100
AcDbGroup
300

 70
     0
 71
     1
340
73
  0
LAYOUT
  5
1E
102
{ACAD_REACTORS
330
1A
102
}
330
1A
100
AcDbPlotSettings
  1

  2
none_device
  4

  6

 40
0.0
 41
0.0
 42
0.0
 43
0.0
 44
0.0
 45
0.0
 46
0.0
 47
0.0
 48
0.0
 49
0.0
140
0.0
141
0.0
142
1.0
143
1.0
 70
   688
 72
     0
 73
     0
 74
     5
  7

 75
    16
147
1.0
 76
     0
 77
     2
 78
   300
148
0.0
149
0.0
100
AcDbLayout
  1
Layout1
 70
     1
 71
     1
 10
-0.5
 20
-0.5
 11
5.0
 21
5.0
 12
0.0
 22
0.0
 32
0.0
 14
-0.5
 24
-0.5
 34
-0.5
 15
5.0
 25
5.0
 35
5.0
146
0.0
 13
0.0
 23
0.0
 33
0.0
 16
1.0
 26
0.0
 36
0.0
 17
0.0
 27
1.0
 37
0.0
 76
     0
330
1B
  0
LAYOUT
  5
26
102
{ACAD_REACTORS
330
1A
102
}
330
1A
100
AcDbPlotSettings
  1

  2
none_device
  4

  6

 40
0.0
 41
0.0
 42
0.0
 43
0.0
 44
0.0
 45
0.0
 46
0.0
 47
0.0
 48
0.0
 49
0.0
140
0.0
141
0.0
142
1.0
143
1.0
 70
   688
 72
     0
 73
     0
 74
     5
  7

 75
    16
147
1.0
 76
     0
 77
     2
 78
   300
148
0.0
149
0.0
100
AcDbLayout
  1
Layout2
 70
     1
 71
     2
 10
0.0
 20
0.0
 11
0.0
 21
0.0
 12
0.0
 22
0.0
 32
0.0
 14
0.0
 24
0.0
 34
0.0
 15
0.0
 25
0.0
 35
0.0
146
0.0
 13
0.0
 23
0.0
 33
0.0
 16
1.0
 26
0.0
 36
0.0
 17
0.0
 27
1.0
 37
0.0
 76
     0
330
23
  0
LAYOUT
  5
22
102
{ACAD_REACTORS
330
1A
102
}
330
1A
100
AcDbPlotSettings
  1

  2
none_device
  4
Letter_(8.50_x_11.00_Inches)
  6

 40
6.349999999999998
 41
6.349999999999998
 42
6.350005
 43
6.350005
 44
215.9
 45
279.4
 46
0.0
 47
0.0
 48
0.0
 49
0.0
140
0.0
141
0.0
142
1.0
143
1.0
 70
  1712
 72
     0
 73
     0
 74
     0
  7

 75
     0
147
1.0
 76
     0
 77
     2
 78
   300
148
0.0
149
0.0
100
AcDbLayout
  1
Model
 70
     1
 71
     0
 10
-0.5
 20
-0.5
 11
5.0
 21
5.0
 12
0.0
 22
0.0
 32
0.0
 14
-0.5
 24
-0.5
 34
-0.5
 15
5.0
 25
5.0
 35
5.0
146
0.0
 13
0.0
 23
0.0
 33
0.0
 16
1.0
 26
0.0
 36
0.0
 17
0.0
 27
1.0
 37
0.0
 76
     0
330
1F
331
29
  0
MATERIAL
  5
45
102
{ACAD_XDICTIONARY
360
2E6
102
}
102
{ACAD_REACTORS
330
43
102
}
330
43
100
AcDbMaterial
  1
ByBlock
  0
MATERIAL
  5
44
102
{ACAD_XDICTIONARY
360
2E4
102
}
102
{ACAD_REACTORS
330
43
102
}
330
43
100
AcDbMaterial
  1
ByLayer
  0
MATERIAL
  5
46
102
{ACAD_XDICTIONARY
360
2E8
102
}
102
{ACAD_REACTORS
330
43
102
}
330
43
100
AcDbMaterial
  1
Global
  0
MLEADERSTYLE
  5
6C
102
{ACAD_REACTORS
330
6B
102
}
330
6B
100
AcDbMLeaderStyle
170
     2
171
     1
172
     0
 90
        2
 40
0.0
 41
0.0
173
     1
 91
-1056964608
340
14
 92
       -2
290
     1
 42
0.09
291
     1
 43
0.36
  3
Standard
 44
0.18
300

342
11
174
     1
178
     6
175
     1
176
     0
 93
-1056964608
 45
0.18
292
     0
297
     0
 46
0.18
 94
-1056964608
 47
1.0
 49
1.0
140
1.0
293
     1
141
0.0
294
     1
177
     0
142
1.0
295
     0
296
     0
143
0.125
1001
ACAD_MLEADERVER
1070
     2
  0
MLINESTYLE
  5
18
102
{ACAD_REACTORS
330
17
102
}
330
17
100
AcDbMlineStyle
  2
STANDARD
 70
     0
  3

 62
   256
 51
90.0
 52
90.0
 71
     2
 49
0.5
 62
   256
  6
BYLAYER
 49
-0.5
 62
   256
  6
BYLAYER
  0
ACDBPLACEHOLDER
  5
F
102
{ACAD_REACTORS
330
E
102
}
330
E
  0
SCALE
  5
48
102
{ACAD_REACTORS
330
47
102
}
330
47
100
AcDbScale
 70
     0
300
1:1
140
1.0
141
1.0
290
     1
  0
SCALE
  5
49
102
{ACAD_REACTORS
330
47
102
}
330
47
100
AcDbScale
 70
     0
300
1:2
140
1.0
141
2.0
290
     0
  0
SCALE
  5
4A
102
{ACAD_REACTORS
330
47
102
}
330
47
100
AcDbScale
 70
     0
300
1:4
140
1.0
141
4.0
290
     0
  0
SCALE
  5
4B
102
{ACAD_REACTORS
330
47
102
}
330
47
100
AcDbScale
 70
     0
300
1:5
140
1.0
141
5.0
290
     0
  0
SCALE
  5
4C
102
{ACAD_REACTORS
330
47
102
}
330
47
100
AcDbScale
 70
     0
300
1:8
140
1.0
141
8.0
290
     0
  0
SCALE
  5
4D
102
{ACAD_REACTORS
330
47
102
}
330
47
100
AcDbScale
 70
     0
300
1:10
140
1.0
141
10.0
290
     0
  0
SCALE
  5
4E
102
{ACAD_REACTORS
330
47
102
}
330
47
100
AcDbScale
 70
     0
300
1:16
140
1.0
141
16.0
290
     0
  0
SCALE
  5
4F
102
{ACAD_REACTORS
330
47
102
}
330
47
100
AcDbScale
 70
     0
300
1:20
140
1.0
141
20.0
290
     0
  0
SCALE
  5
50
102
{ACAD_REACTORS
330
47
102
}
330
47
100
AcDbScale
 70
     0
300
1:30
140
1.0
141
30.0
290
     0
  0
SCALE
  5
51
102
{ACAD_REACTORS
330
47
102
}
330
47
100
AcDbScale
 70
     0
300
1:40
140
1.0
141
40.0
290
     0
  0
SCALE
  5
52
102
{ACAD_REACTORS
330
47
102
}
330
47
100
AcDbScale
 70
     0
300
1:50
140
1.0
141
50.0
290
     0
  0
SCALE
  5
53
102
{ACAD_REACTORS
330
47
102
}
330
47
100
AcDbScale
 70
     0
300
1:100
140
1.0
141
100.0
290
     0
  0
SCALE
  5
54
102
{ACAD_REACTORS
330
47
102
}
330
47
100
AcDbScale
 70
     0
300
2:1
140
2.0
141
1.0
290
     0
  0
SCALE
  5
55
102
{ACAD_REACTORS
330
47
102
}
330
47
100
AcDbScale
 70
     0
300
4:1
140
4.0
141
1.0
290
     0
  0
SCALE
  5
56
102
{ACAD_REACTORS
330
47
102
}
330
47
100
AcDbScale
 70
     0
300
8:1
140
8.0
141
1.0
290
     0
  0
SCALE
  5
57
102
{ACAD_REACTORS
330
47
102
}
330
47
100
AcDbScale
 70
     0
300
10:1
140
10.0
141
1.0
290
     0
  0
SCALE
  5
58
102
{ACAD_REACTORS
330
47
102
}
330
47
100
AcDbScale
 70
     0
300
100:1
140
100.0
141
1.0
290
     0
  0
SCALE
  5
59
102
{ACAD_REACTORS
330
47
102
}
330
47
100
AcDbScale
 70
     0
300
1/128" = 1'-0"
140
0.007812
141
12.0
290
     0
  0
SCALE
  5
5A
102
{ACAD_REACTORS
330
47
102
}
330
47
100
AcDbScale
 70
     0
300
1/64" = 1'-0"
140
0.015625
141
12.0
290
     0
  0
SCALE
  5
5B
102
{ACAD_REACTORS
330
47
102
}
330
47
100
AcDbScale
 70
     0
300
1/32" = 1'-0"
140
0.03125
141
12.0
290
     0
  0
SCALE
  5
5C
102
{ACAD_REACTORS
330
47
102
}
330
47
100
AcDbScale
 70
     0
300
1/16" = 1'-0"
140
0.0625
141
12.0
290
     0
  0
SCALE
  5
5D
102
{ACAD_REACTORS
330
47
102
}
330
47
100
AcDbScale
 70
     0
300
3/32" = 1'-0"
140
0.09375
141
12.0
290
     0
  0
SCALE
  5
5E
102
{ACAD_REACTORS
330
47
102
}
330
47
100
AcDbScale
 70
     0
300
1/8" = 1'-0"
140
0.125
141
12.0
290
     0
  0
SCALE
  5
5F
102
{ACAD_REACTORS
330
47
102
}
330
47
100
AcDbScale
 70
     0
300
3/16" = 1'-0"
140
0.1875
141
12.0
290
     0
  0
SCALE
  5
60
102
{ACAD_REACTORS
330
47
102
}
330
47
100
AcDbScale
 70
     0
300
1/4" = 1'-0"
140
0.25
141
12.0
290
     0
  0
SCALE
  5
61
102
{ACAD_REACTORS
330
47
102
}
330
47
100
AcDbScale
 70
     0
300
3/8" = 1'-0"
140
0.375
141
12.0
290
     0
  0
SCALE
  5
62
102
{ACAD_REACTORS
330
47
102
}
330
47
100
AcDbScale
 70
     0
300
1/2" = 1'-0"
140
0.5
141
12.0
290
     0
  0
SCALE
  5
63
102
{ACAD_REACTORS
330
47
102
}
330
47
100
AcDbScale
 70
     0
300
3/4" = 1'-0"
140
0.75
141
12.0
290
     0
  0
SCALE
  5
64
102
{ACAD_REACTORS
330
47
102
}
330
47
100
AcDbScale
 70
     0
300
1" = 1'-0"
140
1.0
141
12.0
290
     0
  0
SCALE
  5
65
102
{ACAD_REACTORS
330
47
102
}
330
47
100
AcDbScale
 70
     0
300
1-1/2" = 1'-0"
140
1.5
141
12.0
290
     0
  0
SCALE
  5
66
102
{ACAD_REACTORS
330
47
102
}
330
47
100
AcDbScale
 70
     0
300
3" = 1'-0"
140
3.0
141
12.0
290
     0
  0
SCALE
  5
67
102
{ACAD_REACTORS
330
47
102
}
330
47
100
AcDbScale
 70
     0
300
6" = 1'-0"
140
6.0
141
12.0
290
     0
  0
SCALE
  5
68
102
{ACAD_REACTORS
330
47
102
}
330
47
100
AcDbScale
 70
     0
300
1'-0" = 1'-0"
140
12.0
141
12.0
290
     0
  0
ACDBSECTIONVIEWSTYLE
  5
2F8
102
{ACAD_XDICTIONARY
360
3D2
102
}
102
{ACAD_REACTORS
330
2F4
102
}
330
2F4
100
AcDbModelDocViewStyle
 70
     0
  3
Metric50
290
     0
100
AcDbSectionViewStyle
 70
     0
 71
     0
 90
      102
 71
     1
340
11
 62
   256
 40
5.0
340
0
340
0
 62
   256
 40
5.0
300
I, O, Q, S, X, Z
 40
10.0
 90
        0
 40
2.5
 90
        0
 71
     2
340
16
 90
       25
 62
   256
340
16
 90
       50
 62
   256
 40
5.0
 40
2.5
 40
5.0
 71
     3
340
11
 62
   256
 40
5.0
 90
        0
 40
15.0
 90
        1
300
%<\AcVar ViewSectionStartId>%-%<\AcVar ViewSectionEndId>% (%<\AcVar ViewScale \f "%sn">%)
 71
     4
 62
   256
 62
   257
300
ANSI31
 40
1.0
 90
        0
290
     0
290
     0
 90
        6
 40
0.0
 40
1.570796326794896
 40
0.2617993877991494
 40
1.308996938995747
 40
-0.2617993877991494
 40
1.832595714594045
  0
TABLESTYLE
  5
6A
102
{ACAD_XDICTIONARY
360
2EA
102
}
102
{ACAD_REACTORS
330
69
102
}
330
69
100
AcDbTableStyle
  3
Standard
 70
     0
 71
     0
 40
0.06
 41
0.06
280
     0
281
     0
  7
Standard
140
0.18
170
     2
 62
     0
 63
     7
283
     0
274
    -2
284
     1
 64
     0
275
    -2
285
     1
 65
     0
276
    -2
286
     1
 66
     0
277
    -2
287
     1
 67
     0
278
    -2
288
     1
 68
     0
279
    -2
289
     1
 69
     0
  7
Standard
140
0.25
170
     5
 62
     0
 63
     7
283
     0
274
    -2
284
     1
 64
     0
275
    -2
285
     1
 65
     0
276
    -2
286
     1
 66
     0
277
    -2
287
     1
 67
     0
278
    -2
288
     1
 68
     0
279
    -2
289
     1
 69
     0
  7
Standard
140
0.18
170
     5
 62
     0
 63
     7
283
     0
274
    -2
284
     1
 64
     0
275
    -2
285
     1
 65
     0
276
    -2
286
     1
 66
     0
277
    -2
287
     1
 67
     0
278
    -2
288
     1
 68
     0
279
    -2
289
     1
 69
     0
  0
VISUALSTYLE
  5
2F
102
{ACAD_XDICTIONARY
360
3A9
102
}
102
{ACAD_REACTORS
330
2A
102
}
330
2A
100
AcDbVisualStyle
  2

 70
     4
 71
     0
 72
     2
 73
     0
 90
        0
 40
-0.6
 41
-30.0
 62
     5
 63
     7
421
 16777215
 74
     1
 91
        4
 64
     7
 65
   257
 75
     1
175
     1
 42
1.0
 92
        0
 66
   257
 43
1.0
 76
     1
 77
     6
 78
     2
 67
     7
 79
     5
170
     0
171
     0
290
     0
174
     0
 93
        1
 44
0.0
173
     0
291
     0
 45
0.0
1001
ACAD
1000
AcDbSavedByObjectVersion
1070
     0
  0
VISUALSTYLE
  5
32
102
{ACAD_XDICTIONARY
360
3AF
102
}
102
{ACAD_REACTORS
330
2A
102
}
330
2A
100
AcDbVisualStyle
  2

 70
     7
 71
     1
 72
     0
 73
     1
 90
        0
 40
-0.6
 41
-30.0
 62
     5
 63
     7
421
 16777215
 74
     0
 91
        4
 64
     7
 65
   257
 75
     1
175
     1
 42
1.0
 92
        8
 66
     7
 43
1.0
 76
     1
 77
     6
 78
     2
 67
     7
 79
     5
170
     0
171
     0
290
     0
174
     0
 93
        1
 44
0.0
173
     0
291
     1
 45
0.0
1001
ACAD
1000
AcDbSavedByObjectVersion
1070
     0
  0
VISUALSTYLE
  5
36
102
{ACAD_XDICTIONARY
360
3B7
102
}
102
{ACAD_REACTORS
330
2A
102
}
330
2A
100
AcDbVisualStyle
  2

 70
    12
 71
     2
 72
     2
 73
     0
 90
        0
 40
-0.6
 41
-30.0
 62
     5
 63
     7
421
 16777215
 74
     1
 91
        4
 64
     7
 65
   257
 75
     1
175
     1
 42
1.0
 92
        8
 66
     7
 43
1.0
 76
     1
 77
     6
 78
     2
 67
     7
 79
     5
170
     0
171
     0
290
     0
174
     0
 93
        1
 44
50.0
173
     0
291
     1
 45
0.0
1001
ACAD
1000
AcDbSavedByObjectVersion
1070
     0
  0
VISUALSTYLE
  5
3A
102
{ACAD_XDICTIONARY
360
3BF
102
}
102
{ACAD_REACTORS
330
2A
102
}
330
2A
100
AcDbVisualStyle
  2

 70
    16
 71
     2
 72
     2
 73
     3
 90
        0
 40
-0.6
 41
-30.0
 62
     5
 63
     8
421
  8421504
 74
     1
 91
        4
 64
     7
 65
   257
 75
     1
175
     1
 42
1.0
 92
        8
 66
     8
424
  8421504
 43
1.0
 76
     1
 77
     6
 78
     2
 67
     7
 79
     5
170
     0
171
     0
290
     0
174
     0
 93
        1
 44
0.0
173
     0
291
     1
 45
0.0
1001
ACAD
1000
AcDbSavedByObjectVersion
1070
     0
  0
VISUALSTYLE
  5
34
102
{ACAD_XDICTIONARY
360
3B3
102
}
102
{ACAD_REACTORS
330
2A
102
}
330
2A
100
AcDbVisualStyle
  2

 70
     9
 71
     3
 72
     2
 73
     0
 90
        0
 40
-0.6
 41
-30.0
 62
     5
 63
     7
421
 16777215
 74
     2
 91
        2
 64
     7
 65
   257
 75
     1
175
     1
 42
179.0
 92
        8
 66
     7
 43
1.0
 76
     1
 77
     6
 78
     2
 67
     7
 79
     3
170
     0
171
     0
290
     0
174
     0
 93
        1
 44
0.0
173
     0
291
     0
 45
0.0
1001
ACAD
1000
AcDbSavedByObjectVersion
1070
     0
  0
VISUALSTYLE
  5
35
102
{ACAD_XDICTIONARY
360
3B5
102
}
102
{ACAD_REACTORS
330
2A
102
}
330
2A
100
AcDbVisualStyle
  2

 70
    11
 71
     2
 72
     2
 73
     0
 90
        0
 40
-0.6
 41
-30.0
 62
     5
 63
     7
421
 16777215
 74
     1
 91
        4
 64
     7
 65
   257
 75
     1
175
     1
 42
1.0
 92
        8
 66
     7
 43
1.0
 76
     1
 77
     6
 78
     2
 67
     7
 79
     5
170
     0
171
     0
290
     0
174
     0
 93
        1
 44
-50.0
173
     0
291
     1
 45
0.0
1001
ACAD
1000
AcDbSavedByObjectVersion
1070
     0
  0
VISUALSTYLE
  5
3D
102
{ACAD_XDICTIONARY
360
3C5
102
}
102
{ACAD_REACTORS
330
2A
102
}
330
2A
100
AcDbVisualStyle
  2

 70
    22
 71
     2
 72
     2
 73
     0
 90
        0
 40
-0.6
 41
-30.0
 62
     5
 63
     7
421
 16777215
 74
     1
 91
        4
 64
     7
 65
   257
 75
     1
175
     1
 42
1.0
 92
        8
 66
     7
 43
1.0
 76
     1
 77
     6
 78
     2
 67
     7
 79
     5
170
     0
171
     0
290
     0
174
     0
 93
        1
 44
0.0
173
     0
291
     1
 45
0.0
1001
ACAD
1000
AcDbSavedByObjectVersion
1070
     0
  0
VISUALSTYLE
  5
39
102
{ACAD_XDICTIONARY
360
3BD
102
}
102
{ACAD_REACTORS
330
2A
102
}
330
2A
100
AcDbVisualStyle
  2

 70
    15
 71
     2
 72
     2
 73
     0
 90
        0
 40
-0.6
 41
-30.0
 62
     5
 63
     7
421
 16777215
 74
     1
 91
        4
 64
     7
 65
   257
 75
     1
175
     1
 42
1.0
 92
        8
 66
     7
 43
1.0
 76
     1
 77
     6
 78
     2
 67
     7
 79
     5
170
     0
171
     0
290
     0
174
     0
 93
        1
 44
0.0
173
     0
291
     1
 45
0.0
1001
ACAD
1000
AcDbSavedByObjectVersion
1070
     0
  0
VISUALSTYLE
  5
2B
102
{ACAD_XDICTIONARY
360
3A1
102
}
102
{ACAD_REACTORS
330
2A
102
}
330
2A
100
AcDbVisualStyle
  2

 70
     0
 71
     2
 72
     1
 73
     1
 90
        2
 40
-0.6
 41
30.0
 62
     5
 63
     7
421
 16777215
 74
     0
 91
        0
 64
     7
 65
   257
 75
     1
175
     1
 42
1.0
 92
        8
 66
     7
 43
1.0
 76
     1
 77
     6
 78
     2
 67
     7
 79
     5
170
     0
171
     0
290
     0
174
     0
 93
       13
 44
0.0
173
     0
291
     1
 45
0.0
1001
ACAD
1000
AcDbSavedByObjectVersion
1070
     0
  0
VISUALSTYLE
  5
2C
102
{ACAD_XDICTIONARY
360
3A3
102
}
102
{ACAD_REACTORS
330
2A
102
}
330
2A
100
AcDbVisualStyle
  2

 70
     1
 71
     2
 72
     1
 73
     1
 90
        2
 40
-0.6
 41
30.0
 62
     5
 63
     7
421
 16777215
 74
     1
 91
        0
 64
     7
 65
   257
 75
     1
175
     1
 42
1.0
 92
        0
 66
   257
 43
1.0
 76
     1
 77
     6
 78
     2
 67
     7
 79
     5
170
     0
171
     0
290
     0
174
     0
 93
       13
 44
0.0
173
     0
291
     1
 45
0.0
1001
ACAD
1000
AcDbSavedByObjectVersion
1070
     0
  0
VISUALSTYLE
  5
2D
102
{ACAD_XDICTIONARY
360
3A5
102
}
102
{ACAD_REACTORS
330
2A
102
}
330
2A
100
AcDbVisualStyle
  2

 70
     2
 71
     2
 72
     2
 73
     1
 90
        2
 40
-0.6
 41
30.0
 62
     5
 63
     7
421
 16777215
 74
     0
 91
        0
 64
     7
 65
   257
 75
     1
175
     1
 42
1.0
 92
        0
 66
     7
 43
1.0
 76
     1
 77
     6
 78
     2
 67
     7
 79
     5
170
     0
171
     0
290
     0
174
     0
 93
       13
 44
0.0
173
     0
291
     1
 45
0.0
1001
ACAD
1000
AcDbSavedByObjectVersion
1070
     0
  0
VISUALSTYLE
  5
2E
102
{ACAD_XDICTIONARY
360
3A7
102
}
102
{ACAD_REACTORS
330
2A
102
}
330
2A
100
AcDbVisualStyle
  2

 70
     3
 71
     2
 72
     2
 73
     1
 90
        2
 40
-0.6
 41
30.0
 62
     5
 63
     7
421
 16777215
 74
     1
 91
        0
 64
     7
 65
   257
 75
     1
175
     1
 42
1.0
 92
        0
 66
   257
 43
1.0
 76
     1
 77
     6
 78
     2
 67
     7
 79
     5
170
     0
171
     0
290
     0
174
     0
 93
       13
 44
0.0
173
     0
291
     1
 45
0.0
1001
ACAD
1000
AcDbSavedByObjectVersion
1070
     0
  0
VISUALSTYLE
  5
31
102
{ACAD_XDICTIONARY
360
3AD
102
}
102
{ACAD_REACTORS
330
2A
102
}
330
2A
100
AcDbVisualStyle
  2

 70
     6
 71
     1
 72
     2
 73
     2
 90
        0
 40
-0.6
 41
-30.0
 62
     5
 63
     7
421
 16777215
 74
     2
 91
        2
 64
     7
 65
   257
 75
     2
175
     1
 42
40.0
 92
        0
 66
   257
 43
1.0
 76
     1
 77
     6
 78
     2
 67
     7
 79
     3
170
     0
171
     0
290
     0
174
     0
 93
        1
 44
0.0
173
     0
291
     0
 45
0.0
1001
ACAD
1000
AcDbSavedByObjectVersion
1070
     0
  0
VISUALSTYLE
  5
3B
102
{ACAD_XDICTIONARY
360
3C1
102
}
102
{ACAD_REACTORS
330
2A
102
}
330
2A
100
AcDbVisualStyle
  2

 70
    20
 71
     2
 72
     2
 73
     0
 90
        0
 40
-0.6
 41
-30.0
 62
     5
 63
     7
421
 16777215
 74
     1
 91
        4
 64
     7
 65
   257
 75
     1
175
     1
 42
1.0
 92
       10
 66
     7
 43
1.0
 76
     1
 77
     6
 78
     2
 67
     7
 79
     5
170
     0
171
     0
290
     0
174
     0
 93
        1
 44
0.0
173
     0
291
     1
 45
0.0
1001
ACAD
1000
AcDbSavedByObjectVersion
1070
     0
  0
VISUALSTYLE
  5
38
102
{ACAD_XDICTIONARY
360
3BB
102
}
102
{ACAD_REACTORS
330
2A
102
}
330
2A
100
AcDbVisualStyle
  2

 70
    14
 71
     2
 72
     2
 73
     0
 90
        0
 40
-0.6
 41
-30.0
 62
     5
 63
     7
421
 16777215
 74
     1
 91
        4
 64
     7
 65
   257
 75
     7
175
     7
 42
1.0
 92
        8
 66
     7
 43
1.0
 76
     1
 77
     6
 78
     2
 67
     7
 79
     5
170
     0
171
     0
290
     0
174
     0
 93
        1
 44
0.0
173
     0
291
     1
 45
0.0
1001
ACAD
1000
AcDbSavedByObjectVersion
1070
     0
  0
VISUALSTYLE
  5
3C
102
{ACAD_XDICTIONARY
360
3C3
102
}
102
{ACAD_REACTORS
330
2A
102
}
330
2A
100
AcDbVisualStyle
  2

 70
    21
 71
     2
 72
     2
 73
     0
 90
        0
 40
-0.6
 41
-30.0
 62
     5
 63
     7
421
 16777215
 74
     1
 91
        4
 64
     7
 65
   257
 75
     1
175
     1
 42
1.0
 92
        9
 66
     7
 43
1.0
 76
     1
 77
     6
 78
     2
 67
     7
 79
     5
170
     0
171
     0
290
     0
174
     0
 93
        1
 44
0.0
173
     0
291
     1
 45
0.0
1001
ACAD
1000
AcDbSavedByObjectVersion
1070
     0
  0
VISUALSTYLE
  5
33
102
{ACAD_XDICTIONARY
360
3B1
102
}
102
{ACAD_REACTORS
330
2A
102
}
330
2A
100
AcDbVisualStyle
  2

 70
     8
 71
     2
 72
     3
 73
     0
 90
        2
 40
-0.6
 41
30.0
 62
     5
 63
     7
421
 16777215
 74
     0
 91
        0
 64
     7
 65
   257
 75
     1
175
     1
 42
1.0
 92
        8
 66
   257
 43
1.0
 76
     1
 77
     6
 78
     2
 67
     7
 79
     3
170
     0
171
     0
290
     0
174
     0
 93
       13
 44
0.0
173
     0
291
     0
 45
0.0
1001
ACAD
1000
AcDbSavedByObjectVersion
1070
     0
  0
VISUALSTYLE
  5
42
102
{ACAD_XDICTIONARY
360
3CF
102
}
102
{ACAD_REACTORS
330
2A
102
}
330
2A
100
AcDbVisualStyle
  2

 70
    27
 71
     2
 72
     2
 73
     1
 90
        2
 40
-0.6
 41
30.0
 62
     5
 63
     7
421
 16777215
 74
     0
 91
        4
 64
     7
 65
   257
 75
     1
175
     1
 42
1.0
 92
        8
 66
   257
 43
1.0
 76
     1
 77
     6
 78
     2
 67
     8
425
  7895160
 79
     3
170
     0
171
     0
290
     0
174
     0
 93
        5
 44
0.0
173
     0
291
     0
 45
0.0
1001
ACAD
1000
AcDbSavedByObjectVersion
1070
     0
  0
VISUALSTYLE
  5
41
102
{ACAD_XDICTIONARY
360
3CD
102
}
102
{ACAD_REACTORS
330
2A
102
}
330
2A
100
AcDbVisualStyle
  2

 70
    26
 71
     2
 72
     2
 73
     1
 90
        2
 40
-0.6
 41
30.0
 62
     5
 63
     7
421
 16777215
 74
     1
 91
       10
 64
     7
 65
   257
 75
     2
175
     1
 42
1.0
 92
        8
 66
   257
 43
1.0
 76
     1
 77
     6
 78
     2
 67
     7
 79
     3
170
     0
171
     0
290
     0
174
     0
 93
        5
 44
0.0
173
     0
291
     0
 45
0.0
1001
ACAD
1000
AcDbSavedByObjectVersion
1070
     0
  0
VISUALSTYLE
  5
3E
102
{ACAD_XDICTIONARY
360
3C7
102
}
102
{ACAD_REACTORS
330
2A
102
}
330
2A
100
AcDbVisualStyle
  2

 70
    23
 71
     2
 72
     2
 73
     3
 90
        0
 40
-0.6
 41
-30.0
 62
     5
 63
     7
421
 16777215
 74
     2
 91
        2
 64
     7
 65
     7
 75
     1
175
     1
 42
40.0
 92
        8
 66
     7
 43
1.0
 76
     1
 77
     6
 78
     2
 67
     7
 79
     3
170
     0
171
     0
290
     0
174
     0
 93
        1
 44
0.0
173
     0
291
     0
 45
0.0
1001
ACAD
1000
AcDbSavedByObjectVersion
1070
     0
  0
VISUALSTYLE
  5
3F
102
{ACAD_XDICTIONARY
360
3C9
102
}
102
{ACAD_REACTORS
330
2A
102
}
330
2A
100
AcDbVisualStyle
  2

 70
    24
 71
     1
 72
     2
 73
     2
 90
        0
 40
-0.6
 41
-30.0
 62
     5
 63
     7
421
 16777215
 74
     2
 91
        2
 64
     7
 65
     7
 75
     1
175
     1
 42
40.0
 92
       11
 66
     7
 43
1.0
 76
     1
 77
     6
 78
     2
 67
     7
 79
     6
170
     0
171
     0
290
     0
174
     0
 93
        1
 44
0.0
173
     0
291
     0
 45
0.0
1001
ACAD
1000
AcDbSavedByObjectVersion
1070
     0
  0
VISUALSTYLE
  5
37
102
{ACAD_XDICTIONARY
360
3B9
102
}
102
{ACAD_REACTORS
330
2A
102
}
330
2A
100
AcDbVisualStyle
  2

 70
    13
 71
     2
 72
     2
 73
     0
 90
        0
 40
-0.6
 41
-30.0
 62
     5
 63
     7
421
 16777215
 74
     1
 91
        4
 64
     7
 65
   257
 75
     1
175
     1
 42
1.0
 92
       12
 66
     7
 43
1.0
 76
     1
 77
     6
 78
     2
 67
     7
 79
     5
170
     0
171
     0
290
     0
174
     0
 93
        1
 44
0.0
173
     0
291
     1
 45
0.0
1001
ACAD
1000
AcDbSavedByObjectVersion
1070
     0
  0
VISUALSTYLE
  5
30
102
{ACAD_XDICTIONARY
360
3AB
102
}
102
{ACAD_REACTORS
330
2A
102
}
330
2A
100
AcDbVisualStyle
  2

 70
     5
 71
     0
 72
     2
 73
     0
 90
        0
 40
-0.6
 41
-30.0
 62
     5
 63
     7
421
 16777215
 74
     1
 91
        4
 64
     7
 65
   257
 75
     1
175
     1
 42
1.0
 92
        0
 66
   257
 43
1.0
 76
     1
 77
     6
 78
     2
 67
     7
 79
     3
170
     0
171
     0
290
     0
174
     0
 93
        1
 44
0.0
173
     0
291
     0
 45
0.0
1001
ACAD
1000
AcDbSavedByObjectVersion
1070
     0
  0
VISUALSTYLE
  5
40
102
{ACAD_XDICTIONARY
360
3CB
102
}
102
{ACAD_REACTORS
330
2A
102
}
330
2A
100
AcDbVisualStyle
  2

 70
    25
 71
     2
 72
     2
 73
     1
 90
        1
 40
0.5
 41
-30.0
 62
     5
 63
     7
421
 16777215
 74
     1
 91
        0
 64
     7
 65
   257
 75
     1
175
     1
 42
1.0
 92
        8
 66
     7
 43
1.0
 76
     1
 77
     6
 78
     2
 67
     7
 79
     3
170
     0
171
     0
290
     0
174
     0
 93
       13
 44
0.0
173
     0
291
     0
 45
0.0
1001
ACAD
1000
AcDbSavedByObjectVersion
1070
     0
  0
DICTIONARYVAR
  5
2B1
102
{ACAD_REACTORS
330
2B0
102
}
330
2B0
100
DictionaryVariables
280
     0
  1
1:1
  0
DICTIONARYVAR
  5
2F2
102
{ACAD_REACTORS
330
2B0
102
}
330
2B0
100
DictionaryVariables
280
     0
  1
STANDARD
  0
DICTIONARYVAR
  5
2F1
102
{ACAD_REACTORS
330
2B0
102
}
330
2B0
100
DictionaryVariables
280
     0
  1
STANDARD
  0
DICTIONARYVAR
  5
35D
102
{ACAD_REACTORS
330
2B0
102
}
330
2B0
100
DictionaryVariables
280
     0
  1
Metric50
  0
DICTIONARYVAR
  5
35E
102
{ACAD_REACTORS
330
2B0
102
}
330
2B0
100
DictionaryVariables
280
     0
  1
Metric50
  0
DICTIONARYVAR
  5
2B2
102
{ACAD_REACTORS
330
2B0
102
}
330
2B0
100
DictionaryVariables
280
     0
  1
1
  0
DICTIONARYVAR
  5
39E
102
{ACAD_REACTORS
330
2B0
102
}
330
2B0
100
DictionaryVariables
280
     0
  1
2
  0
DICTIONARY
  5
3D4
330
2F9
100
AcDbDictionary
280
     1
281
     1
  3
ACAD_XREC_ROUNDTRIP
360
3D5
  0
DICTIONARY
  5
2E6
330
45
100
AcDbDictionary
280
     1
281
     1
  3
ACAD_XREC_ROUNDTRIP
360
2E7
  0
DICTIONARY
  5
2E4
330
44
100
AcDbDictionary
280
     1
281
     1
  3
ACAD_XREC_ROUNDTRIP
360
2E5
  0
DICTIONARY
  5
2E8
330
46
100
AcDbDictionary
280
     1
281
     1
  3
ACAD_XREC_ROUNDTRIP
360
2E9
  0
DICTIONARY
  5
3D2
330
2F8
100
AcDbDictionary
280
     1
281
     1
  3
ACAD_XREC_ROUNDTRIP
360
3D3
  0
DICTIONARY
  5
2EA
330
6A
100
AcDbDictionary
280
     1
281
     1
  3
ACAD_ROUNDTRIP_2008_TABLESTYLE_CELLSTYLEMAP
360
39F
  3
ACAD_XREC_ROUNDTRIP
360
3D1
  0
DICTIONARY
  5
3A9
330
2F
100
AcDbDictionary
280
     1
281
     1
  3
ACAD_XREC_ROUNDTRIP
360
3AA
  0
DICTIONARY
  5
3AF
330
32
100
AcDbDictionary
280
     1
281
     1
  3
ACAD_XREC_ROUNDTRIP
360
3B0
  0
DICTIONARY
  5
3B7
330
36
100
AcDbDictionary
280
     1
281
     1
  3
ACAD_XREC_ROUNDTRIP
360
3B8
  0
DICTIONARY
  5
3BF
330
3A
100
AcDbDictionary
280
     1
281
     1
  3
ACAD_XREC_ROUNDTRIP
360
3C0
  0
DICTIONARY
  5
3B3
330
34
100
AcDbDictionary
280
     1
281
     1
  3
ACAD_XREC_ROUNDTRIP
360
3B4
  0
DICTIONARY
  5
3B5
330
35
100
AcDbDictionary
280
     1
281
     1
  3
ACAD_XREC_ROUNDTRIP
360
3B6
  0
DICTIONARY
  5
3C5
330
3D
100
AcDbDictionary
280
     1
281
     1
  3
ACAD_XREC_ROUNDTRIP
360
3C6
  0
DICTIONARY
  5
3BD
330
39
100
AcDbDictionary
280
     1
281
     1
  3
ACAD_XREC_ROUNDTRIP
360
3BE
  0
DICTIONARY
  5
3A1
330
2B
100
AcDbDictionary
280
     1
281
     1
  3
ACAD_XREC_ROUNDTRIP
360
3A2
  0
DICTIONARY
  5
3A3
330
2C
100
AcDbDictionary
280
     1
281
     1
  3
ACAD_XREC_ROUNDTRIP
360
3A4
  0
DICTIONARY
  5
3A5
330
2D
100
AcDbDictionary
280
     1
281
     1
  3
ACAD_XREC_ROUNDTRIP
360
3A6
  0
DICTIONARY
  5
3A7
330
2E
100
AcDbDictionary
280
     1
281
     1
  3
ACAD_XREC_ROUNDTRIP
360
3A8
  0
DICTIONARY
  5
3AD
330
31
100
AcDbDictionary
280
     1
281
     1
  3
ACAD_XREC_ROUNDTRIP
360
3AE
  0
DICTIONARY
  5
3C1
330
3B
100
AcDbDictionary
280
     1
281
     1
  3
ACAD_XREC_ROUNDTRIP
360
3C2
  0
DICTIONARY
  5
3BB
330
38
100
AcDbDictionary
280
     1
281
     1
  3
ACAD_XREC_ROUNDTRIP
360
3BC
  0
DICTIONARY
  5
3C3
330
3C
100
AcDbDictionary
280
     1
281
     1
  3
ACAD_XREC_ROUNDTRIP
360
3C4
  0
DICTIONARY
  5
3B1
330
33
100
AcDbDictionary
280
     1
281
     1
  3
ACAD_XREC_ROUNDTRIP
360
3B2
  0
DICTIONARY
  5
3CF
330
42
100
AcDbDictionary
280
     1
281
     1
  3
ACAD_XREC_ROUNDTRIP
360
3D0
  0
DICTIONARY
  5
3CD
330
41
100
AcDbDictionary
280
     1
281
     1
  3
ACAD_XREC_ROUNDTRIP
360
3CE
  0
DICTIONARY
  5
3C7
330
3E
100
AcDbDictionary
280
     1
281
     1
  3
ACAD_XREC_ROUNDTRIP
360
3C8
  0
DICTIONARY
  5
3C9
330
3F
100
AcDbDictionary
280
     1
281
     1
  3
ACAD_XREC_ROUNDTRIP
360
3CA
  0
DICTIONARY
  5
3B9
330
37
100
AcDbDictionary
280
     1
281
     1
  3
ACAD_XREC_ROUNDTRIP
360
3BA
  0
DICTIONARY
  5
3AB
330
30
100
AcDbDictionary
280
     1
281
     1
  3
ACAD_XREC_ROUNDTRIP
360
3AC
  0
DICTIONARY
  5
3CB
330
40
100
AcDbDictionary
280
     1
281
     1
  3
ACAD_XREC_ROUNDTRIP
360
3CC
  0
XRECORD
  5
3D5
102
{ACAD_REACTORS
330
3D4
102
}
330
3D4
100
AcDbXrecord
280
     1
102
DISPLAYNAME
  1
Metric50
102
FLAGS
 90
        0
  0
XRECORD
  5
2E7
102
{ACAD_REACTORS
330
2E6
102
}
330
2E6
100
AcDbXrecord
280
     1
102
MATERIAL
148
0.0
149
0.0
149
0.0
 93
        0
 94
      127
282
     0
 72
     1
 77
     1
171
     1
175
     1
179
     1
273
     0
  0
XRECORD
  5
2E5
102
{ACAD_REACTORS
330
2E4
102
}
330
2E4
100
AcDbXrecord
280
     1
102
MATERIAL
148
0.0
149
0.0
149
0.0
 93
        0
 94
      127
282
     0
 72
     1
 77
     1
171
     1
175
     1
179
     1
273
     0
  0
XRECORD
  5
2E9
102
{ACAD_REACTORS
330
2E8
102
}
330
2E8
100
AcDbXrecord
280
     1
102
MATERIAL
148
0.0
149
0.0
149
0.0
 93
        0
 94
      127
282
     0
 72
     1
 77
     1
171
     1
175
     1
179
     1
273
     0
  0
XRECORD
  5
3D3
102
{ACAD_REACTORS
330
3D2
102
}
330
3D2
100
AcDbXrecord
280
     1
102
DISPLAYNAME
  1
Metric50
102
FLAGS
 90
        0
  0
CELLSTYLEMAP
  5
39F
102
{ACAD_REACTORS
330
2EA
102
}
330
2EA
100
AcDbCellStyleMap
 90
        3
300
CELLSTYLE
  1
TABLEFORMAT_BEGIN
 90
        5
170
     1
 91
        0
 92
    32768
 62
   257
 93
        1
300
CONTENTFORMAT
  1
CONTENTFORMAT_BEGIN
 90
        0
 91
        0
 92
        4
 93
        0
300

 40
0.0
140
1.0
 94
        5
 62
     0
340
11
144
0.25
309
CONTENTFORMAT_END
171
     1
301
MARGIN
  1
CELLMARGIN_BEGIN
 40
0.06
 40
0.06
 40
0.06
 40
0.06
 40
0.18
 40
0.18
309
CELLMARGIN_END
 94
        6
 95
        1
302
GRIDFORMAT
  1
GRIDFORMAT_BEGIN
 90
        0
 91
        1
 62
     0
 92
       -2
340
14
 93
        0
 40
0.045
309
GRIDFORMAT_END
 95
        2
302
GRIDFORMAT
  1
GRIDFORMAT_BEGIN
 90
        0
 91
        1
 62
     0
 92
       -2
340
14
 93
        0
 40
0.045
309
GRIDFORMAT_END
 95
        4
302
GRIDFORMAT
  1
GRIDFORMAT_BEGIN
 90
        0
 91
        1
 62
     0
 92
       -2
340
14
 93
        0
 40
0.045
309
GRIDFORMAT_END
 95
        8
302
GRIDFORMAT
  1
GRIDFORMAT_BEGIN
 90
        0
 91
        1
 62
     0
 92
       -2
340
14
 93
        0
 40
0.045
309
GRIDFORMAT_END
 95
       16
302
GRIDFORMAT
  1
GRIDFORMAT_BEGIN
 90
        0
 91
        1
 62
     0
 92
       -2
340
14
 93
        0
 40
0.045
309
GRIDFORMAT_END
 95
       32
302
GRIDFORMAT
  1
GRIDFORMAT_BEGIN
 90
        0
 91
        1
 62
     0
 92
       -2
340
14
 93
        0
 40
0.045
309
GRIDFORMAT_END
309
TABLEFORMAT_END
  1
CELLSTYLE_BEGIN
 90
        1
 91
        1
300
_TITLE
309
CELLSTYLE_END
300
CELLSTYLE
  1
TABLEFORMAT_BEGIN
 90
        5
170
     1
 91
        0
 92
        0
 62
   257
 93
        1
300
CONTENTFORMAT
  1
CONTENTFORMAT_BEGIN
 90
        0
 91
        0
 92
        4
 93
        0
300

 40
0.0
140
1.0
 94
        5
 62
     0
340
11
144
0.18
309
CONTENTFORMAT_END
171
     1
301
MARGIN
  1
CELLMARGIN_BEGIN
 40
0.06
 40
0.06
 40
0.06
 40
0.06
 40
0.18
 40
0.18
309
CELLMARGIN_END
 94
        6
 95
        1
302
GRIDFORMAT
  1
GRIDFORMAT_BEGIN
 90
        0
 91
        1
 62
     0
 92
       -2
340
14
 93
        0
 40
0.045
309
GRIDFORMAT_END
 95
        2
302
GRIDFORMAT
  1
GRIDFORMAT_BEGIN
 90
        0
 91
        1
 62
     0
 92
       -2
340
14
 93
        0
 40
0.045
309
GRIDFORMAT_END
 95
        4
302
GRIDFORMAT
  1
GRIDFORMAT_BEGIN
 90
        0
 91
        1
 62
     0
 92
       -2
340
14
 93
        0
 40
0.045
309
GRIDFORMAT_END
 95
        8
302
GRIDFORMAT
  1
GRIDFORMAT_BEGIN
 90
        0
 91
        1
 62
     0
 92
       -2
340
14
 93
        0
 40
0.045
309
GRIDFORMAT_END
 95
       16
302
GRIDFORMAT
  1
GRIDFORMAT_BEGIN
 90
        0
 91
        1
 62
     0
 92
       -2
340
14
 93
        0
 40
0.045
309
GRIDFORMAT_END
 95
       32
302
GRIDFORMAT
  1
GRIDFORMAT_BEGIN
 90
        0
 91
        1
 62
     0
 92
       -2
340
14
 93
        0
 40
0.045
309
GRIDFORMAT_END
309
TABLEFORMAT_END
  1
CELLSTYLE_BEGIN
 90
        2
 91
        1
300
_HEADER
309
CELLSTYLE_END
300
CELLSTYLE
  1
TABLEFORMAT_BEGIN
 90
        5
170
     1
 91
        0
 92
        0
 62
   257
 93
        1
300
CONTENTFORMAT
  1
CONTENTFORMAT_BEGIN
 90
        0
 91
        0
 92
        4
 93
        0
300

 40
0.0
140
1.0
 94
        2
 62
     0
340
11
144
0.18
309
CONTENTFORMAT_END
171
     1
301
MARGIN
  1
CELLMARGIN_BEGIN
 40
0.06
 40
0.06
 40
0.06
 40
0.06
 40
0.18
 40
0.18
309
CELLMARGIN_END
 94
        6
 95
        1
302
GRIDFORMAT
  1
GRIDFORMAT_BEGIN
 90
        0
 91
        1
 62
     0
 92
       -2
340
14
 93
        0
 40
0.045
309
GRIDFORMAT_END
 95
        2
302
GRIDFORMAT
  1
GRIDFORMAT_BEGIN
 90
        0
 91
        1
 62
     0
 92
       -2
340
14
 93
        0
 40
0.045
309
GRIDFORMAT_END
 95
        4
302
GRIDFORMAT
  1
GRIDFORMAT_BEGIN
 90
        0
 91
        1
 62
     0
 92
       -2
340
14
 93
        0
 40
0.045
309
GRIDFORMAT_END
 95
        8
302
GRIDFORMAT
  1
GRIDFORMAT_BEGIN
 90
        0
 91
        1
 62
     0
 92
       -2
340
14
 93
        0
 40
0.045
309
GRIDFORMAT_END
 95
       16
302
GRIDFORMAT
  1
GRIDFORMAT_BEGIN
 90
        0
 91
        1
 62
     0
 92
       -2
340
14
 93
        0
 40
0.045
309
GRIDFORMAT_END
 95
       32
302
GRIDFORMAT
  1
GRIDFORMAT_BEGIN
 90
        0
 91
        1
 62
     0
 92
       -2
340
14
 93
        0
 40
0.045
309
GRIDFORMAT_END
309
TABLEFORMAT_END
  1
CELLSTYLE_BEGIN
 90
        3
 91
        2
300
_DATA
309
CELLSTYLE_END
  0
XRECORD
  5
3D1
102
{ACAD_REACTORS
330
2EA
102
}
330
2EA
100
AcDbXrecord
280
     1
102
ACAD_ROUNDTRIP_PRE2007_TABLESTYLE
 90
        4
 91
        0
  1

 92
        4
 93
        0
  2

 94
        4
 95
        0
  3

  0
XRECORD
  5
3AA
102
{ACAD_REACTORS
330
3A9
102
}
330
3A9
100
AcDbXrecord
280
     1
102
RTVSPost2010Prop28
280
     1
102
RTVSPost2010PropOp28
 70
     1
102
RTVSPost2010Prop29
280
     1
102
RTVSPost2010PropOp29
 70
     1
102
RTVSPost2010Prop30
280
     0
102
RTVSPost2010PropOp30
 70
     1
102
RTVSPost2010Prop31
280
     0
102
RTVSPost2010PropOp31
 70
     1
102
RTVSPost2010Prop32
280
     0
102
RTVSPost2010PropOp32
 70
     1
102
RTVSPost2010Prop33
280
     0
102
RTVSPost2010PropOp33
 70
     1
102
RTVSPost2010Prop34
280
     0
102
RTVSPost2010PropOp34
 70
     1
102
RTVSPost2010Prop35
280
     0
102
RTVSPost2010PropOp35
 70
     1
102
RTVSPost2010Prop36
280
     0
102
RTVSPost2010PropOp36
 70
     1
102
RTVSPost2010Prop37
 90
       50
102
RTVSPost2010PropOp37
 70
     1
102
RTVSPost2010Prop38
140
0.0
102
RTVSPost2010PropOp38
 70
     1
102
RTVSPost2010Prop39
140
1.0
102
RTVSPost2010PropOp39
 70
     1
102
RTVSPost2010Prop40
 90
        0
102
RTVSPost2010PropOp40
 70
     1
102
RTVSPost2010Prop41ColorIndex
 90
       18
102
RTVSPost2010Prop41ColorRGB
 90
        0
102
RTVSPost2010PropOp41
 70
     1
102
RTVSPost2010Prop42
 90
       50
102
RTVSPost2010PropOp42
 70
     1
102
RTVSPost2010Prop43
 90
        3
102
RTVSPost2010PropOp43
 70
     1
102
RTVSPost2010Prop44ColorIndex
 90
        5
102
RTVSPost2010Prop44ColorRGB
 90
      255
102
RTVSPost2010PropOp44
 70
     1
102
RTVSPost2010Prop45
280
     0
102
RTVSPost2010PropOp45
 70
     1
102
RTVSPost2010Prop46
 90
       50
102
RTVSPost2010PropOp46
 70
     1
102
RTVSPost2010Prop47
 90
       50
102
RTVSPost2010PropOp47
 70
     1
102
RTVSPost2010Prop48
 90
       50
102
RTVSPost2010PropOp48
 70
     1
102
RTVSPost2010Prop49
280
     0
102
RTVSPost2010PropOp49
 70
     1
102
RTVSPost2010Prop50
 90
       50
102
RTVSPost2010PropOp50
 70
     1
102
RTVSPost2010Prop51ColorIndex
 90
      256
102
RTVSPost2010Prop51ColorRGB
 90
-16777216
102
RTVSPost2010PropOp51
 70
     0
102
RTVSPost2010Prop52
140
1.0
102
RTVSPost2010PropOp52
 70
     0
102
RTVSPost2010Prop53
 90
        2
102
RTVSPost2010PropOp53
 70
     1
102
RTVSPost2010Prop54
  1
strokes_ogs.tif
102
RTVSPost2010PropOp54
 70
     1
102
RTVSPost2010Prop55
280
     0
102
RTVSPost2010PropOp55
 70
     1
102
RTVSPost2010Prop56
140
1.0
102
RTVSPost2010PropOp56
 70
     1
102
RTVSPost2010Prop57
140
1.0
102
RTVSPost2010PropOp57
 70
     1
102
RTVSPropertyOp0
 70
     1
102
RTVSPropertyOp1
 70
     1
102
RTVSPropertyOp2
 70
     1
102
RTVSPropertyOp3
 70
     1
102
RTVSPropertyOp4
 70
     1
102
RTVSPropertyOp5
 70
     1
102
RTVSPropertyOp6
 70
     1
102
RTVSPropertyOp7
 70
     1
102
RTVSPropertyOp8
 70
     1
102
RTVSPropertyOp9
 70
     1
102
RTVSPropertyOp10
 70
     1
102
RTVSPropertyOp11
 70
     1
102
RTVSPropertyOp12
 70
     1
102
RTVSPropertyOp13
 70
     1
102
RTVSPropertyOp14
 70
     1
102
RTVSPropertyOp15
 70
     1
102
RTVSPropertyOp16
 70
     1
102
RTVSPropertyOp17
 70
     1
102
RTVSPropertyOp18
 70
     1
102
RTVSPropertyOp19
 70
     1
102
RTVSPropertyOp20
 70
     1
102
RTVSPropertyOp21
 70
     1
102
RTVSPropertyOp22
 70
     1
102
RTVSPropertyOp23
 70
     1
102
RTVSPropertyOp24
 70
     1
102
RTVSPropertyOp25
 70
     1
102
RTVSPropertyOp26
 70
     1
102
RTVSPropertyOp27
 70
     1
102
RTVSPropertyOp28
 70
     1
102
RTVSPropertyOp29
 70
     1
102
RTVSPropertyOp30
 70
     1
102
RTVSPropertyOp31
 70
     1
102
RTVSPropertyOp32
 70
     1
102
RTVSPropertyOp33
 70
     1
102
RTVSPropertyOp34
 70
     1
102
RTVSPropertyOp35
 70
     1
102
RTVSPropertyOp36
 70
     1
102
RTVSPropertyOp37
 70
     1
102
RTVSPropertyOp38
 70
     1
102
RTVSPropertyOp39
 70
     1
102
RTVSPropertyOp40
 70
     1
102
RTVSPropertyOp41
 70
     1
102
RTVSPropertyOp42
 70
     1
102
RTVSPropertyOp43
 70
     1
102
RTVSPropertyOp44
 70
     1
102
RTVSPropertyOp45
 70
     1
102
RTVSPropertyOp46
 70
     1
102
RTVSPropertyOp47
 70
     1
102
RTVSPropertyOp48
 70
     1
102
RTVSPropertyOp49
 70
     1
102
RTVSPropertyOp50
 70
     1
102
RTVSPropertyOp51
 70
     0
102
RTVSPropertyOp52
 70
     0
102
RTVSPropertyOp53
 70
     1
102
RTVSPropertyOp54
 70
     1
102
RTVSPropertyOp55
 70
     1
102
RTVSPropertyOp56
 70
     1
102
RTVSPropertyOp57
 70
     1
102
RTVSPropertyOp58
 70
     1
102
RTVSPropertyOp59
 70
     1
102
RTVSPropertyOp60
 70
     1
102
RTVSPropertyOp61
 70
     1
102
RTVSPropertyOp62
 70
     1
  0
XRECORD
  5
3B0
102
{ACAD_REACTORS
330
3AF
102
}
330
3AF
100
AcDbXrecord
280
     1
102
RTVSPost2010Prop28
280
     0
102
RTVSPost2010PropOp28
 70
     1
102
RTVSPost2010Prop29
280
     1
102
RTVSPost2010PropOp29
 70
     1
102
RTVSPost2010Prop30
280
     1
102
RTVSPost2010PropOp30
 70
     1
102
RTVSPost2010Prop31
280
     0
102
RTVSPost2010PropOp31
 70
     1
102
RTVSPost2010Prop32
280
     0
102
RTVSPost2010PropOp32
 70
     1
102
RTVSPost2010Prop33
280
     0
102
RTVSPost2010PropOp33
 70
     1
102
RTVSPost2010Prop34
280
     0
102
RTVSPost2010PropOp34
 70
     1
102
RTVSPost2010Prop35
280
     0
102
RTVSPost2010PropOp35
 70
     1
102
RTVSPost2010Prop36
280
     0
102
RTVSPost2010PropOp36
 70
     1
102
RTVSPost2010Prop37
 90
       50
102
RTVSPost2010PropOp37
 70
     1
102
RTVSPost2010Prop38
140
0.0
102
RTVSPost2010PropOp38
 70
     1
102
RTVSPost2010Prop39
140
1.0
102
RTVSPost2010PropOp39
 70
     1
102
RTVSPost2010Prop40
 90
        0
102
RTVSPost2010PropOp40
 70
     1
102
RTVSPost2010Prop41ColorIndex
 90
       18
102
RTVSPost2010Prop41ColorRGB
 90
        0
102
RTVSPost2010PropOp41
 70
     1
102
RTVSPost2010Prop42
 90
       50
102
RTVSPost2010PropOp42
 70
     1
102
RTVSPost2010Prop43
 90
        3
102
RTVSPost2010PropOp43
 70
     1
102
RTVSPost2010Prop44ColorIndex
 90
        5
102
RTVSPost2010Prop44ColorRGB
 90
      255
102
RTVSPost2010PropOp44
 70
     1
102
RTVSPost2010Prop45
280
     0
102
RTVSPost2010PropOp45
 70
     1
102
RTVSPost2010Prop46
 90
       50
102
RTVSPost2010PropOp46
 70
     1
102
RTVSPost2010Prop47
 90
       50
102
RTVSPost2010PropOp47
 70
     1
102
RTVSPost2010Prop48
 90
       50
102
RTVSPost2010PropOp48
 70
     1
102
RTVSPost2010Prop49
280
     0
102
RTVSPost2010PropOp49
 70
     1
102
RTVSPost2010Prop50
 90
       50
102
RTVSPost2010PropOp50
 70
     1
102
RTVSPost2010Prop51ColorIndex
 90
      256
102
RTVSPost2010Prop51ColorRGB
 90
-16777216
102
RTVSPost2010PropOp51
 70
     0
102
RTVSPost2010Prop52
140
1.0
102
RTVSPost2010PropOp52
 70
     0
102
RTVSPost2010Prop53
 90
        2
102
RTVSPost2010PropOp53
 70
     1
102
RTVSPost2010Prop54
  1
strokes_ogs.tif
102
RTVSPost2010PropOp54
 70
     1
102
RTVSPost2010Prop55
280
     0
102
RTVSPost2010PropOp55
 70
     1
102
RTVSPost2010Prop56
140
1.0
102
RTVSPost2010PropOp56
 70
     1
102
RTVSPost2010Prop57
140
1.0
102
RTVSPost2010PropOp57
 70
     1
102
RTVSPropertyOp0
 70
     1
102
RTVSPropertyOp1
 70
     1
102
RTVSPropertyOp2
 70
     1
102
RTVSPropertyOp3
 70
     1
102
RTVSPropertyOp4
 70
     1
102
RTVSPropertyOp5
 70
     1
102
RTVSPropertyOp6
 70
     1
102
RTVSPropertyOp7
 70
     1
102
RTVSPropertyOp8
 70
     1
102
RTVSPropertyOp9
 70
     1
102
RTVSPropertyOp10
 70
     1
102
RTVSPropertyOp11
 70
     1
102
RTVSPropertyOp12
 70
     1
102
RTVSPropertyOp13
 70
     1
102
RTVSPropertyOp14
 70
     1
102
RTVSPropertyOp15
 70
     1
102
RTVSPropertyOp16
 70
     1
102
RTVSPropertyOp17
 70
     1
102
RTVSPropertyOp18
 70
     1
102
RTVSPropertyOp19
 70
     1
102
RTVSPropertyOp20
 70
     1
102
RTVSPropertyOp21
 70
     1
102
RTVSPropertyOp22
 70
     1
102
RTVSPropertyOp23
 70
     1
102
RTVSPropertyOp24
 70
     1
102
RTVSPropertyOp25
 70
     1
102
RTVSPropertyOp26
 70
     1
102
RTVSPropertyOp27
 70
     1
102
RTVSPropertyOp28
 70
     1
102
RTVSPropertyOp29
 70
     1
102
RTVSPropertyOp30
 70
     1
102
RTVSPropertyOp31
 70
     1
102
RTVSPropertyOp32
 70
     1
102
RTVSPropertyOp33
 70
     1
102
RTVSPropertyOp34
 70
     1
102
RTVSPropertyOp35
 70
     1
102
RTVSPropertyOp36
 70
     1
102
RTVSPropertyOp37
 70
     1
102
RTVSPropertyOp38
 70
     1
102
RTVSPropertyOp39
 70
     1
102
RTVSPropertyOp40
 70
     1
102
RTVSPropertyOp41
 70
     1
102
RTVSPropertyOp42
 70
     1
102
RTVSPropertyOp43
 70
     1
102
RTVSPropertyOp44
 70
     1
102
RTVSPropertyOp45
 70
     1
102
RTVSPropertyOp46
 70
     1
102
RTVSPropertyOp47
 70
     1
102
RTVSPropertyOp48
 70
     1
102
RTVSPropertyOp49
 70
     1
102
RTVSPropertyOp50
 70
     1
102
RTVSPropertyOp51
 70
     0
102
RTVSPropertyOp52
 70
     0
102
RTVSPropertyOp53
 70
     1
102
RTVSPropertyOp54
 70
     1
102
RTVSPropertyOp55
 70
     1
102
RTVSPropertyOp56
 70
     1
102
RTVSPropertyOp57
 70
     1
102
RTVSPropertyOp58
 70
     1
102
RTVSPropertyOp59
 70
     1
102
RTVSPropertyOp60
 70
     1
102
RTVSPropertyOp61
 70
     1
102
RTVSPropertyOp62
 70
     1
  0
XRECORD
  5
3B8
102
{ACAD_REACTORS
330
3B7
102
}
330
3B7
100
AcDbXrecord
280
     1
102
RTVSPost2010Prop28
280
     0
102
RTVSPost2010PropOp28
 70
     1
102
RTVSPost2010Prop29
280
     1
102
RTVSPost2010PropOp29
 70
     1
102
RTVSPost2010Prop30
280
     1
102
RTVSPost2010PropOp30
 70
     1
102
RTVSPost2010Prop31
280
     0
102
RTVSPost2010PropOp31
 70
     1
102
RTVSPost2010Prop32
280
     0
102
RTVSPost2010PropOp32
 70
     1
102
RTVSPost2010Prop33
280
     0
102
RTVSPost2010PropOp33
 70
     1
102
RTVSPost2010Prop34
280
     0
102
RTVSPost2010PropOp34
 70
     1
102
RTVSPost2010Prop35
280
     0
102
RTVSPost2010PropOp35
 70
     1
102
RTVSPost2010Prop36
280
     0
102
RTVSPost2010PropOp36
 70
     1
102
RTVSPost2010Prop37
 90
       50
102
RTVSPost2010PropOp37
 70
     1
102
RTVSPost2010Prop38
140
0.0
102
RTVSPost2010PropOp38
 70
     1
102
RTVSPost2010Prop39
140
1.0
102
RTVSPost2010PropOp39
 70
     1
102
RTVSPost2010Prop40
 90
        0
102
RTVSPost2010PropOp40
 70
     1
102
RTVSPost2010Prop41ColorIndex
 90
       18
102
RTVSPost2010Prop41ColorRGB
 90
        0
102
RTVSPost2010PropOp41
 70
     1
102
RTVSPost2010Prop42
 90
       50
102
RTVSPost2010PropOp42
 70
     1
102
RTVSPost2010Prop43
 90
        3
102
RTVSPost2010PropOp43
 70
     1
102
RTVSPost2010Prop44ColorIndex
 90
        5
102
RTVSPost2010Prop44ColorRGB
 90
      255
102
RTVSPost2010PropOp44
 70
     1
102
RTVSPost2010Prop45
280
     0
102
RTVSPost2010PropOp45
 70
     1
102
RTVSPost2010Prop46
 90
       50
102
RTVSPost2010PropOp46
 70
     1
102
RTVSPost2010Prop47
 90
       50
102
RTVSPost2010PropOp47
 70
     1
102
RTVSPost2010Prop48
 90
       50
102
RTVSPost2010PropOp48
 70
     1
102
RTVSPost2010Prop49
280
     0
102
RTVSPost2010PropOp49
 70
     1
102
RTVSPost2010Prop50
 90
       50
102
RTVSPost2010PropOp50
 70
     1
102
RTVSPost2010Prop51ColorIndex
 90
      256
102
RTVSPost2010Prop51ColorRGB
 90
-16777216
102
RTVSPost2010PropOp51
 70
     0
102
RTVSPost2010Prop52
140
1.0
102
RTVSPost2010PropOp52
 70
     0
102
RTVSPost2010Prop53
 90
        2
102
RTVSPost2010PropOp53
 70
     1
102
RTVSPost2010Prop54
  1
strokes_ogs.tif
102
RTVSPost2010PropOp54
 70
     1
102
RTVSPost2010Prop55
280
     0
102
RTVSPost2010PropOp55
 70
     1
102
RTVSPost2010Prop56
140
1.0
102
RTVSPost2010PropOp56
 70
     1
102
RTVSPost2010Prop57
140
1.0
102
RTVSPost2010PropOp57
 70
     1
102
RTVSPropertyOp0
 70
     1
102
RTVSPropertyOp1
 70
     1
102
RTVSPropertyOp2
 70
     1
102
RTVSPropertyOp3
 70
     1
102
RTVSPropertyOp4
 70
     1
102
RTVSPropertyOp5
 70
     1
102
RTVSPropertyOp6
 70
     1
102
RTVSPropertyOp7
 70
     1
102
RTVSPropertyOp8
 70
     1
102
RTVSPropertyOp9
 70
     1
102
RTVSPropertyOp10
 70
     1
102
RTVSPropertyOp11
 70
     1
102
RTVSPropertyOp12
 70
     1
102
RTVSPropertyOp13
 70
     1
102
RTVSPropertyOp14
 70
     1
102
RTVSPropertyOp15
 70
     1
102
RTVSPropertyOp16
 70
     1
102
RTVSPropertyOp17
 70
     1
102
RTVSPropertyOp18
 70
     1
102
RTVSPropertyOp19
 70
     1
102
RTVSPropertyOp20
 70
     1
102
RTVSPropertyOp21
 70
     1
102
RTVSPropertyOp22
 70
     1
102
RTVSPropertyOp23
 70
     1
102
RTVSPropertyOp24
 70
     1
102
RTVSPropertyOp25
 70
     1
102
RTVSPropertyOp26
 70
     1
102
RTVSPropertyOp27
 70
     1
102
RTVSPropertyOp28
 70
     1
102
RTVSPropertyOp29
 70
     1
102
RTVSPropertyOp30
 70
     1
102
RTVSPropertyOp31
 70
     1
102
RTVSPropertyOp32
 70
     1
102
RTVSPropertyOp33
 70
     1
102
RTVSPropertyOp34
 70
     1
102
RTVSPropertyOp35
 70
     1
102
RTVSPropertyOp36
 70
     1
102
RTVSPropertyOp37
 70
     1
102
RTVSPropertyOp38
 70
     1
102
RTVSPropertyOp39
 70
     1
102
RTVSPropertyOp40
 70
     1
102
RTVSPropertyOp41
 70
     1
102
RTVSPropertyOp42
 70
     1
102
RTVSPropertyOp43
 70
     1
102
RTVSPropertyOp44
 70
     1
102
RTVSPropertyOp45
 70
     1
102
RTVSPropertyOp46
 70
     1
102
RTVSPropertyOp47
 70
     1
102
RTVSPropertyOp48
 70
     1
102
RTVSPropertyOp49
 70
     1
102
RTVSPropertyOp50
 70
     1
102
RTVSPropertyOp51
 70
     0
102
RTVSPropertyOp52
 70
     0
102
RTVSPropertyOp53
 70
     1
102
RTVSPropertyOp54
 70
     1
102
RTVSPropertyOp55
 70
     1
102
RTVSPropertyOp56
 70
     1
102
RTVSPropertyOp57
 70
     1
102
RTVSPropertyOp58
 70
     1
102
RTVSPropertyOp59
 70
     1
102
RTVSPropertyOp60
 70
     1
102
RTVSPropertyOp61
 70
     1
102
RTVSPropertyOp62
 70
     1
  0
XRECORD
  5
3C0
102
{ACAD_REACTORS
330
3BF
102
}
330
3BF
100
AcDbXrecord
280
     1
102
RTVSPost2010Prop28
280
     0
102
RTVSPost2010PropOp28
 70
     1
102
RTVSPost2010Prop29
280
     1
102
RTVSPost2010PropOp29
 70
     1
102
RTVSPost2010Prop30
280
     1
102
RTVSPost2010PropOp30
 70
     1
102
RTVSPost2010Prop31
280
     0
102
RTVSPost2010PropOp31
 70
     1
102
RTVSPost2010Prop32
280
     0
102
RTVSPost2010PropOp32
 70
     1
102
RTVSPost2010Prop33
280
     0
102
RTVSPost2010PropOp33
 70
     1
102
RTVSPost2010Prop34
280
     0
102
RTVSPost2010PropOp34
 70
     1
102
RTVSPost2010Prop35
280
     0
102
RTVSPost2010PropOp35
 70
     1
102
RTVSPost2010Prop36
280
     0
102
RTVSPost2010PropOp36
 70
     1
102
RTVSPost2010Prop37
 90
       50
102
RTVSPost2010PropOp37
 70
     1
102
RTVSPost2010Prop38
140
0.0
102
RTVSPost2010PropOp38
 70
     1
102
RTVSPost2010Prop39
140
1.0
102
RTVSPost2010PropOp39
 70
     1
102
RTVSPost2010Prop40
 90
        0
102
RTVSPost2010PropOp40
 70
     1
102
RTVSPost2010Prop41ColorIndex
 90
       18
102
RTVSPost2010Prop41ColorRGB
 90
        0
102
RTVSPost2010PropOp41
 70
     1
102
RTVSPost2010Prop42
 90
       50
102
RTVSPost2010PropOp42
 70
     1
102
RTVSPost2010Prop43
 90
        3
102
RTVSPost2010PropOp43
 70
     1
102
RTVSPost2010Prop44ColorIndex
 90
        5
102
RTVSPost2010Prop44ColorRGB
 90
      255
102
RTVSPost2010PropOp44
 70
     1
102
RTVSPost2010Prop45
280
     0
102
RTVSPost2010PropOp45
 70
     1
102
RTVSPost2010Prop46
 90
       50
102
RTVSPost2010PropOp46
 70
     1
102
RTVSPost2010Prop47
 90
       50
102
RTVSPost2010PropOp47
 70
     1
102
RTVSPost2010Prop48
 90
       50
102
RTVSPost2010PropOp48
 70
     1
102
RTVSPost2010Prop49
280
     0
102
RTVSPost2010PropOp49
 70
     1
102
RTVSPost2010Prop50
 90
       50
102
RTVSPost2010PropOp50
 70
     1
102
RTVSPost2010Prop51ColorIndex
 90
      256
102
RTVSPost2010Prop51ColorRGB
 90
-16777216
102
RTVSPost2010PropOp51
 70
     0
102
RTVSPost2010Prop52
140
1.0
102
RTVSPost2010PropOp52
 70
     0
102
RTVSPost2010Prop53
 90
        2
102
RTVSPost2010PropOp53
 70
     1
102
RTVSPost2010Prop54
  1
strokes_ogs.tif
102
RTVSPost2010PropOp54
 70
     1
102
RTVSPost2010Prop55
280
     0
102
RTVSPost2010PropOp55
 70
     1
102
RTVSPost2010Prop56
140
1.0
102
RTVSPost2010PropOp56
 70
     1
102
RTVSPost2010Prop57
140
1.0
102
RTVSPost2010PropOp57
 70
     1
102
RTVSPropertyOp0
 70
     1
102
RTVSPropertyOp1
 70
     1
102
RTVSPropertyOp2
 70
     1
102
RTVSPropertyOp3
 70
     1
102
RTVSPropertyOp4
 70
     1
102
RTVSPropertyOp5
 70
     1
102
RTVSPropertyOp6
 70
     1
102
RTVSPropertyOp7
 70
     1
102
RTVSPropertyOp8
 70
     1
102
RTVSPropertyOp9
 70
     1
102
RTVSPropertyOp10
 70
     1
102
RTVSPropertyOp11
 70
     1
102
RTVSPropertyOp12
 70
     1
102
RTVSPropertyOp13
 70
     1
102
RTVSPropertyOp14
 70
     1
102
RTVSPropertyOp15
 70
     1
102
RTVSPropertyOp16
 70
     1
102
RTVSPropertyOp17
 70
     1
102
RTVSPropertyOp18
 70
     1
102
RTVSPropertyOp19
 70
     1
102
RTVSPropertyOp20
 70
     1
102
RTVSPropertyOp21
 70
     1
102
RTVSPropertyOp22
 70
     1
102
RTVSPropertyOp23
 70
     1
102
RTVSPropertyOp24
 70
     1
102
RTVSPropertyOp25
 70
     1
102
RTVSPropertyOp26
 70
     1
102
RTVSPropertyOp27
 70
     1
102
RTVSPropertyOp28
 70
     1
102
RTVSPropertyOp29
 70
     1
102
RTVSPropertyOp30
 70
     1
102
RTVSPropertyOp31
 70
     1
102
RTVSPropertyOp32
 70
     1
102
RTVSPropertyOp33
 70
     1
102
RTVSPropertyOp34
 70
     1
102
RTVSPropertyOp35
 70
     1
102
RTVSPropertyOp36
 70
     1
102
RTVSPropertyOp37
 70
     1
102
RTVSPropertyOp38
 70
     1
102
RTVSPropertyOp39
 70
     1
102
RTVSPropertyOp40
 70
     1
102
RTVSPropertyOp41
 70
     1
102
RTVSPropertyOp42
 70
     1
102
RTVSPropertyOp43
 70
     1
102
RTVSPropertyOp44
 70
     1
102
RTVSPropertyOp45
 70
     1
102
RTVSPropertyOp46
 70
     1
102
RTVSPropertyOp47
 70
     1
102
RTVSPropertyOp48
 70
     1
102
RTVSPropertyOp49
 70
     1
102
RTVSPropertyOp50
 70
     1
102
RTVSPropertyOp51
 70
     0
102
RTVSPropertyOp52
 70
     0
102
RTVSPropertyOp53
 70
     1
102
RTVSPropertyOp54
 70
     1
102
RTVSPropertyOp55
 70
     1
102
RTVSPropertyOp56
 70
     1
102
RTVSPropertyOp57
 70
     1
102
RTVSPropertyOp58
 70
     1
102
RTVSPropertyOp59
 70
     1
102
RTVSPropertyOp60
 70
     1
102
RTVSPropertyOp61
 70
     1
102
RTVSPropertyOp62
 70
     1
  0
XRECORD
  5
3B4
102
{ACAD_REACTORS
330
3B3
102
}
330
3B3
100
AcDbXrecord
280
     1
102
RTVSPost2010Prop28
280
     0
102
RTVSPost2010PropOp28
 70
     1
102
RTVSPost2010Prop29
280
     1
102
RTVSPost2010PropOp29
 70
     1
102
RTVSPost2010Prop30
280
     1
102
RTVSPost2010PropOp30
 70
     1
102
RTVSPost2010Prop31
280
     0
102
RTVSPost2010PropOp31
 70
     1
102
RTVSPost2010Prop32
280
     0
102
RTVSPost2010PropOp32
 70
     1
102
RTVSPost2010Prop33
280
     0
102
RTVSPost2010PropOp33
 70
     1
102
RTVSPost2010Prop34
280
     0
102
RTVSPost2010PropOp34
 70
     1
102
RTVSPost2010Prop35
280
     0
102
RTVSPost2010PropOp35
 70
     1
102
RTVSPost2010Prop36
280
     0
102
RTVSPost2010PropOp36
 70
     1
102
RTVSPost2010Prop37
 90
       50
102
RTVSPost2010PropOp37
 70
     1
102
RTVSPost2010Prop38
140
0.0
102
RTVSPost2010PropOp38
 70
     1
102
RTVSPost2010Prop39
140
1.0
102
RTVSPost2010PropOp39
 70
     1
102
RTVSPost2010Prop40
 90
        0
102
RTVSPost2010PropOp40
 70
     1
102
RTVSPost2010Prop41ColorIndex
 90
       18
102
RTVSPost2010Prop41ColorRGB
 90
        0
102
RTVSPost2010PropOp41
 70
     1
102
RTVSPost2010Prop42
 90
       50
102
RTVSPost2010PropOp42
 70
     1
102
RTVSPost2010Prop43
 90
        3
102
RTVSPost2010PropOp43
 70
     1
102
RTVSPost2010Prop44ColorIndex
 90
        5
102
RTVSPost2010Prop44ColorRGB
 90
      255
102
RTVSPost2010PropOp44
 70
     1
102
RTVSPost2010Prop45
280
     0
102
RTVSPost2010PropOp45
 70
     1
102
RTVSPost2010Prop46
 90
       50
102
RTVSPost2010PropOp46
 70
     1
102
RTVSPost2010Prop47
 90
       50
102
RTVSPost2010PropOp47
 70
     1
102
RTVSPost2010Prop48
 90
       50
102
RTVSPost2010PropOp48
 70
     1
102
RTVSPost2010Prop49
280
     0
102
RTVSPost2010PropOp49
 70
     1
102
RTVSPost2010Prop50
 90
       50
102
RTVSPost2010PropOp50
 70
     1
102
RTVSPost2010Prop51ColorIndex
 90
      256
102
RTVSPost2010Prop51ColorRGB
 90
-16777216
102
RTVSPost2010PropOp51
 70
     0
102
RTVSPost2010Prop52
140
1.0
102
RTVSPost2010PropOp52
 70
     0
102
RTVSPost2010Prop53
 90
        2
102
RTVSPost2010PropOp53
 70
     1
102
RTVSPost2010Prop54
  1
strokes_ogs.tif
102
RTVSPost2010PropOp54
 70
     1
102
RTVSPost2010Prop55
280
     0
102
RTVSPost2010PropOp55
 70
     1
102
RTVSPost2010Prop56
140
1.0
102
RTVSPost2010PropOp56
 70
     1
102
RTVSPost2010Prop57
140
1.0
102
RTVSPost2010PropOp57
 70
     1
102
RTVSPropertyOp0
 70
     1
102
RTVSPropertyOp1
 70
     1
102
RTVSPropertyOp2
 70
     1
102
RTVSPropertyOp3
 70
     1
102
RTVSPropertyOp4
 70
     1
102
RTVSPropertyOp5
 70
     1
102
RTVSPropertyOp6
 70
     1
102
RTVSPropertyOp7
 70
     1
102
RTVSPropertyOp8
 70
     1
102
RTVSPropertyOp9
 70
     1
102
RTVSPropertyOp10
 70
     1
102
RTVSPropertyOp11
 70
     1
102
RTVSPropertyOp12
 70
     1
102
RTVSPropertyOp13
 70
     1
102
RTVSPropertyOp14
 70
     1
102
RTVSPropertyOp15
 70
     1
102
RTVSPropertyOp16
 70
     1
102
RTVSPropertyOp17
 70
     1
102
RTVSPropertyOp18
 70
     1
102
RTVSPropertyOp19
 70
     1
102
RTVSPropertyOp20
 70
     1
102
RTVSPropertyOp21
 70
     1
102
RTVSPropertyOp22
 70
     1
102
RTVSPropertyOp23
 70
     1
102
RTVSPropertyOp24
 70
     1
102
RTVSPropertyOp25
 70
     1
102
RTVSPropertyOp26
 70
     1
102
RTVSPropertyOp27
 70
     1
102
RTVSPropertyOp28
 70
     1
102
RTVSPropertyOp29
 70
     1
102
RTVSPropertyOp30
 70
     1
102
RTVSPropertyOp31
 70
     1
102
RTVSPropertyOp32
 70
     1
102
RTVSPropertyOp33
 70
     1
102
RTVSPropertyOp34
 70
     1
102
RTVSPropertyOp35
 70
     1
102
RTVSPropertyOp36
 70
     1
102
RTVSPropertyOp37
 70
     1
102
RTVSPropertyOp38
 70
     1
102
RTVSPropertyOp39
 70
     1
102
RTVSPropertyOp40
 70
     1
102
RTVSPropertyOp41
 70
     1
102
RTVSPropertyOp42
 70
     1
102
RTVSPropertyOp43
 70
     1
102
RTVSPropertyOp44
 70
     1
102
RTVSPropertyOp45
 70
     1
102
RTVSPropertyOp46
 70
     1
102
RTVSPropertyOp47
 70
     1
102
RTVSPropertyOp48
 70
     1
102
RTVSPropertyOp49
 70
     1
102
RTVSPropertyOp50
 70
     1
102
RTVSPropertyOp51
 70
     0
102
RTVSPropertyOp52
 70
     0
102
RTVSPropertyOp53
 70
     1
102
RTVSPropertyOp54
 70
     1
102
RTVSPropertyOp55
 70
     1
102
RTVSPropertyOp56
 70
     1
102
RTVSPropertyOp57
 70
     1
102
RTVSPropertyOp58
 70
     1
102
RTVSPropertyOp59
 70
     1
102
RTVSPropertyOp60
 70
     1
102
RTVSPropertyOp61
 70
     1
102
RTVSPropertyOp62
 70
     1
  0
XRECORD
  5
3B6
102
{ACAD_REACTORS
330
3B5
102
}
330
3B5
100
AcDbXrecord
280
     1
102
RTVSPost2010Prop28
280
     0
102
RTVSPost2010PropOp28
 70
     1
102
RTVSPost2010Prop29
280
     1
102
RTVSPost2010PropOp29
 70
     1
102
RTVSPost2010Prop30
280
     1
102
RTVSPost2010PropOp30
 70
     1
102
RTVSPost2010Prop31
280
     0
102
RTVSPost2010PropOp31
 70
     1
102
RTVSPost2010Prop32
280
     0
102
RTVSPost2010PropOp32
 70
     1
102
RTVSPost2010Prop33
280
     0
102
RTVSPost2010PropOp33
 70
     1
102
RTVSPost2010Prop34
280
     0
102
RTVSPost2010PropOp34
 70
     1
102
RTVSPost2010Prop35
280
     0
102
RTVSPost2010PropOp35
 70
     1
102
RTVSPost2010Prop36
280
     0
102
RTVSPost2010PropOp36
 70
     1
102
RTVSPost2010Prop37
 90
       50
102
RTVSPost2010PropOp37
 70
     1
102
RTVSPost2010Prop38
140
0.0
102
RTVSPost2010PropOp38
 70
     1
102
RTVSPost2010Prop39
140
1.0
102
RTVSPost2010PropOp39
 70
     1
102
RTVSPost2010Prop40
 90
        0
102
RTVSPost2010PropOp40
 70
     1
102
RTVSPost2010Prop41ColorIndex
 90
       18
102
RTVSPost2010Prop41ColorRGB
 90
        0
102
RTVSPost2010PropOp41
 70
     1
102
RTVSPost2010Prop42
 90
       50
102
RTVSPost2010PropOp42
 70
     1
102
RTVSPost2010Prop43
 90
        3
102
RTVSPost2010PropOp43
 70
     1
102
RTVSPost2010Prop44ColorIndex
 90
        5
102
RTVSPost2010Prop44ColorRGB
 90
      255
102
RTVSPost2010PropOp44
 70
     1
102
RTVSPost2010Prop45
280
     0
102
RTVSPost2010PropOp45
 70
     1
102
RTVSPost2010Prop46
 90
       50
102
RTVSPost2010PropOp46
 70
     1
102
RTVSPost2010Prop47
 90
       50
102
RTVSPost2010PropOp47
 70
     1
102
RTVSPost2010Prop48
 90
       50
102
RTVSPost2010PropOp48
 70
     1
102
RTVSPost2010Prop49
280
     0
102
RTVSPost2010PropOp49
 70
     1
102
RTVSPost2010Prop50
 90
       50
102
RTVSPost2010PropOp50
 70
     1
102
RTVSPost2010Prop51ColorIndex
 90
      256
102
RTVSPost2010Prop51ColorRGB
 90
-16777216
102
RTVSPost2010PropOp51
 70
     0
102
RTVSPost2010Prop52
140
1.0
102
RTVSPost2010PropOp52
 70
     0
102
RTVSPost2010Prop53
 90
        2
102
RTVSPost2010PropOp53
 70
     1
102
RTVSPost2010Prop54
  1
strokes_ogs.tif
102
RTVSPost2010PropOp54
 70
     1
102
RTVSPost2010Prop55
280
     0
102
RTVSPost2010PropOp55
 70
     1
102
RTVSPost2010Prop56
140
1.0
102
RTVSPost2010PropOp56
 70
     1
102
RTVSPost2010Prop57
140
1.0
102
RTVSPost2010PropOp57
 70
     1
102
RTVSPropertyOp0
 70
     1
102
RTVSPropertyOp1
 70
     1
102
RTVSPropertyOp2
 70
     1
102
RTVSPropertyOp3
 70
     1
102
RTVSPropertyOp4
 70
     1
102
RTVSPropertyOp5
 70
     1
102
RTVSPropertyOp6
 70
     1
102
RTVSPropertyOp7
 70
     1
102
RTVSPropertyOp8
 70
     1
102
RTVSPropertyOp9
 70
     1
102
RTVSPropertyOp10
 70
     1
102
RTVSPropertyOp11
 70
     1
102
RTVSPropertyOp12
 70
     1
102
RTVSPropertyOp13
 70
     1
102
RTVSPropertyOp14
 70
     1
102
RTVSPropertyOp15
 70
     1
102
RTVSPropertyOp16
 70
     1
102
RTVSPropertyOp17
 70
     1
102
RTVSPropertyOp18
 70
     1
102
RTVSPropertyOp19
 70
     1
102
RTVSPropertyOp20
 70
     1
102
RTVSPropertyOp21
 70
     1
102
RTVSPropertyOp22
 70
     1
102
RTVSPropertyOp23
 70
     1
102
RTVSPropertyOp24
 70
     1
102
RTVSPropertyOp25
 70
     1
102
RTVSPropertyOp26
 70
     1
102
RTVSPropertyOp27
 70
     1
102
RTVSPropertyOp28
 70
     1
102
RTVSPropertyOp29
 70
     1
102
RTVSPropertyOp30
 70
     1
102
RTVSPropertyOp31
 70
     1
102
RTVSPropertyOp32
 70
     1
102
RTVSPropertyOp33
 70
     1
102
RTVSPropertyOp34
 70
     1
102
RTVSPropertyOp35
 70
     1
102
RTVSPropertyOp36
 70
     1
102
RTVSPropertyOp37
 70
     1
102
RTVSPropertyOp38
 70
     1
102
RTVSPropertyOp39
 70
     1
102
RTVSPropertyOp40
 70
     1
102
RTVSPropertyOp41
 70
     1
102
RTVSPropertyOp42
 70
     1
102
RTVSPropertyOp43
 70
     1
102
RTVSPropertyOp44
 70
     1
102
RTVSPropertyOp45
 70
     1
102
RTVSPropertyOp46
 70
     1
102
RTVSPropertyOp47
 70
     1
102
RTVSPropertyOp48
 70
     1
102
RTVSPropertyOp49
 70
     1
102
RTVSPropertyOp50
 70
     1
102
RTVSPropertyOp51
 70
     0
102
RTVSPropertyOp52
 70
     0
102
RTVSPropertyOp53
 70
     1
102
RTVSPropertyOp54
 70
     1
102
RTVSPropertyOp55
 70
     1
102
RTVSPropertyOp56
 70
     1
102
RTVSPropertyOp57
 70
     1
102
RTVSPropertyOp58
 70
     1
102
RTVSPropertyOp59
 70
     1
102
RTVSPropertyOp60
 70
     1
102
RTVSPropertyOp61
 70
     1
102
RTVSPropertyOp62
 70
     1
  0
XRECORD
  5
3C6
102
{ACAD_REACTORS
330
3C5
102
}
330
3C5
100
AcDbXrecord
280
     1
102
RTVSPost2010Prop28
280
     0
102
RTVSPost2010PropOp28
 70
     0
102
RTVSPost2010Prop29
280
     1
102
RTVSPost2010PropOp29
 70
     0
102
RTVSPost2010Prop30
280
     1
102
RTVSPost2010PropOp30
 70
     0
102
RTVSPost2010Prop31
280
     0
102
RTVSPost2010PropOp31
 70
     0
102
RTVSPost2010Prop32
280
     0
102
RTVSPost2010PropOp32
 70
     0
102
RTVSPost2010Prop33
280
     0
102
RTVSPost2010PropOp33
 70
     0
102
RTVSPost2010Prop34
280
     0
102
RTVSPost2010PropOp34
 70
     0
102
RTVSPost2010Prop35
280
     0
102
RTVSPost2010PropOp35
 70
     0
102
RTVSPost2010Prop36
280
     0
102
RTVSPost2010PropOp36
 70
     0
102
RTVSPost2010Prop37
 90
       50
102
RTVSPost2010PropOp37
 70
     0
102
RTVSPost2010Prop38
140
0.0
102
RTVSPost2010PropOp38
 70
     0
102
RTVSPost2010Prop39
140
1.0
102
RTVSPost2010PropOp39
 70
     0
102
RTVSPost2010Prop40
 90
        0
102
RTVSPost2010PropOp40
 70
     0
102
RTVSPost2010Prop41ColorIndex
 90
       18
102
RTVSPost2010Prop41ColorRGB
 90
        0
102
RTVSPost2010PropOp41
 70
     0
102
RTVSPost2010Prop42
 90
       50
102
RTVSPost2010PropOp42
 70
     0
102
RTVSPost2010Prop43
 90
        3
102
RTVSPost2010PropOp43
 70
     0
102
RTVSPost2010Prop44ColorIndex
 90
        5
102
RTVSPost2010Prop44ColorRGB
 90
      255
102
RTVSPost2010PropOp44
 70
     0
102
RTVSPost2010Prop45
280
     0
102
RTVSPost2010PropOp45
 70
     0
102
RTVSPost2010Prop46
 90
       50
102
RTVSPost2010PropOp46
 70
     0
102
RTVSPost2010Prop47
 90
       50
102
RTVSPost2010PropOp47
 70
     0
102
RTVSPost2010Prop48
 90
       50
102
RTVSPost2010PropOp48
 70
     0
102
RTVSPost2010Prop49
280
     0
102
RTVSPost2010PropOp49
 70
     0
102
RTVSPost2010Prop50
 90
       50
102
RTVSPost2010PropOp50
 70
     0
102
RTVSPost2010Prop51ColorIndex
 90
      256
102
RTVSPost2010Prop51ColorRGB
 90
-16777216
102
RTVSPost2010PropOp51
 70
     0
102
RTVSPost2010Prop52
140
1.0
102
RTVSPost2010PropOp52
 70
     0
102
RTVSPost2010Prop53
 90
        2
102
RTVSPost2010PropOp53
 70
     0
102
RTVSPost2010Prop54
  1
strokes_ogs.tif
102
RTVSPost2010PropOp54
 70
     0
102
RTVSPost2010Prop55
280
     0
102
RTVSPost2010PropOp55
 70
     0
102
RTVSPost2010Prop56
140
1.0
102
RTVSPost2010PropOp56
 70
     0
102
RTVSPost2010Prop57
140
1.0
102
RTVSPost2010PropOp57
 70
     0
102
RTVSPropertyOp0
 70
     0
102
RTVSPropertyOp1
 70
     0
102
RTVSPropertyOp2
 70
     0
102
RTVSPropertyOp3
 70
     0
102
RTVSPropertyOp4
 70
     0
102
RTVSPropertyOp5
 70
     0
102
RTVSPropertyOp6
 70
     0
102
RTVSPropertyOp7
 70
     0
102
RTVSPropertyOp8
 70
     0
102
RTVSPropertyOp9
 70
     0
102
RTVSPropertyOp10
 70
     0
102
RTVSPropertyOp11
 70
     0
102
RTVSPropertyOp12
 70
     0
102
RTVSPropertyOp13
 70
     0
102
RTVSPropertyOp14
 70
     2
102
RTVSPropertyOp15
 70
     0
102
RTVSPropertyOp16
 70
     0
102
RTVSPropertyOp17
 70
     0
102
RTVSPropertyOp18
 70
     0
102
RTVSPropertyOp19
 70
     0
102
RTVSPropertyOp20
 70
     0
102
RTVSPropertyOp21
 70
     0
102
RTVSPropertyOp22
 70
     0
102
RTVSPropertyOp23
 70
     0
102
RTVSPropertyOp24
 70
     0
102
RTVSPropertyOp25
 70
     0
102
RTVSPropertyOp26
 70
     0
102
RTVSPropertyOp27
 70
     0
102
RTVSPropertyOp28
 70
     0
102
RTVSPropertyOp29
 70
     0
102
RTVSPropertyOp30
 70
     0
102
RTVSPropertyOp31
 70
     0
102
RTVSPropertyOp32
 70
     0
102
RTVSPropertyOp33
 70
     0
102
RTVSPropertyOp34
 70
     0
102
RTVSPropertyOp35
 70
     0
102
RTVSPropertyOp36
 70
     0
102
RTVSPropertyOp37
 70
     0
102
RTVSPropertyOp38
 70
     0
102
RTVSPropertyOp39
 70
     0
102
RTVSPropertyOp40
 70
     0
102
RTVSPropertyOp41
 70
     0
102
RTVSPropertyOp42
 70
     0
102
RTVSPropertyOp43
 70
     0
102
RTVSPropertyOp44
 70
     0
102
RTVSPropertyOp45
 70
     0
102
RTVSPropertyOp46
 70
     0
102
RTVSPropertyOp47
 70
     0
102
RTVSPropertyOp48
 70
     0
102
RTVSPropertyOp49
 70
     0
102
RTVSPropertyOp50
 70
     0
102
RTVSPropertyOp51
 70
     0
102
RTVSPropertyOp52
 70
     0
102
RTVSPropertyOp53
 70
     0
102
RTVSPropertyOp54
 70
     0
102
RTVSPropertyOp55
 70
     0
102
RTVSPropertyOp56
 70
     0
102
RTVSPropertyOp57
 70
     0
102
RTVSPropertyOp58
 70
     1
102
RTVSPropertyOp59
 70
     1
102
RTVSPropertyOp60
 70
     1
102
RTVSPropertyOp61
 70
     1
102
RTVSPropertyOp62
 70
     1
  0
XRECORD
  5
3BE
102
{ACAD_REACTORS
330
3BD
102
}
330
3BD
100
AcDbXrecord
280
     1
102
RTVSPost2010Prop28
280
     0
102
RTVSPost2010PropOp28
 70
     1
102
RTVSPost2010Prop29
280
     1
102
RTVSPost2010PropOp29
 70
     1
102
RTVSPost2010Prop30
280
     1
102
RTVSPost2010PropOp30
 70
     1
102
RTVSPost2010Prop31
280
     0
102
RTVSPost2010PropOp31
 70
     1
102
RTVSPost2010Prop32
280
     0
102
RTVSPost2010PropOp32
 70
     1
102
RTVSPost2010Prop33
280
     0
102
RTVSPost2010PropOp33
 70
     1
102
RTVSPost2010Prop34
280
     0
102
RTVSPost2010PropOp34
 70
     1
102
RTVSPost2010Prop35
280
     0
102
RTVSPost2010PropOp35
 70
     1
102
RTVSPost2010Prop36
280
     0
102
RTVSPost2010PropOp36
 70
     1
102
RTVSPost2010Prop37
 90
       50
102
RTVSPost2010PropOp37
 70
     1
102
RTVSPost2010Prop38
140
0.0
102
RTVSPost2010PropOp38
 70
     1
102
RTVSPost2010Prop39
140
1.0
102
RTVSPost2010PropOp39
 70
     1
102
RTVSPost2010Prop40
 90
        0
102
RTVSPost2010PropOp40
 70
     1
102
RTVSPost2010Prop41ColorIndex
 90
       18
102
RTVSPost2010Prop41ColorRGB
 90
        0
102
RTVSPost2010PropOp41
 70
     1
102
RTVSPost2010Prop42
 90
       50
102
RTVSPost2010PropOp42
 70
     1
102
RTVSPost2010Prop43
 90
        3
102
RTVSPost2010PropOp43
 70
     1
102
RTVSPost2010Prop44ColorIndex
 90
        5
102
RTVSPost2010Prop44ColorRGB
 90
      255
102
RTVSPost2010PropOp44
 70
     1
102
RTVSPost2010Prop45
280
     0
102
RTVSPost2010PropOp45
 70
     1
102
RTVSPost2010Prop46
 90
       50
102
RTVSPost2010PropOp46
 70
     1
102
RTVSPost2010Prop47
 90
       50
102
RTVSPost2010PropOp47
 70
     1
102
RTVSPost2010Prop48
 90
       50
102
RTVSPost2010PropOp48
 70
     1
102
RTVSPost2010Prop49
280
     0
102
RTVSPost2010PropOp49
 70
     1
102
RTVSPost2010Prop50
 90
       50
102
RTVSPost2010PropOp50
 70
     1
102
RTVSPost2010Prop51ColorIndex
 90
      256
102
RTVSPost2010Prop51ColorRGB
 90
-16777216
102
RTVSPost2010PropOp51
 70
     0
102
RTVSPost2010Prop52
140
1.0
102
RTVSPost2010PropOp52
 70
     0
102
RTVSPost2010Prop53
 90
        2
102
RTVSPost2010PropOp53
 70
     1
102
RTVSPost2010Prop54
  1
strokes_ogs.tif
102
RTVSPost2010PropOp54
 70
     1
102
RTVSPost2010Prop55
280
     0
102
RTVSPost2010PropOp55
 70
     1
102
RTVSPost2010Prop56
140
1.0
102
RTVSPost2010PropOp56
 70
     1
102
RTVSPost2010Prop57
140
1.0
102
RTVSPost2010PropOp57
 70
     1
102
RTVSPropertyOp0
 70
     1
102
RTVSPropertyOp1
 70
     1
102
RTVSPropertyOp2
 70
     1
102
RTVSPropertyOp3
 70
     1
102
RTVSPropertyOp4
 70
     1
102
RTVSPropertyOp5
 70
     1
102
RTVSPropertyOp6
 70
     1
102
RTVSPropertyOp7
 70
     1
102
RTVSPropertyOp8
 70
     1
102
RTVSPropertyOp9
 70
     1
102
RTVSPropertyOp10
 70
     1
102
RTVSPropertyOp11
 70
     1
102
RTVSPropertyOp12
 70
     1
102
RTVSPropertyOp13
 70
     1
102
RTVSPropertyOp14
 70
     1
102
RTVSPropertyOp15
 70
     1
102
RTVSPropertyOp16
 70
     1
102
RTVSPropertyOp17
 70
     1
102
RTVSPropertyOp18
 70
     1
102
RTVSPropertyOp19
 70
     1
102
RTVSPropertyOp20
 70
     1
102
RTVSPropertyOp21
 70
     1
102
RTVSPropertyOp22
 70
     1
102
RTVSPropertyOp23
 70
     1
102
RTVSPropertyOp24
 70
     1
102
RTVSPropertyOp25
 70
     1
102
RTVSPropertyOp26
 70
     1
102
RTVSPropertyOp27
 70
     1
102
RTVSPropertyOp28
 70
     1
102
RTVSPropertyOp29
 70
     1
102
RTVSPropertyOp30
 70
     1
102
RTVSPropertyOp31
 70
     1
102
RTVSPropertyOp32
 70
     1
102
RTVSPropertyOp33
 70
     1
102
RTVSPropertyOp34
 70
     1
102
RTVSPropertyOp35
 70
     1
102
RTVSPropertyOp36
 70
     1
102
RTVSPropertyOp37
 70
     1
102
RTVSPropertyOp38
 70
     1
102
RTVSPropertyOp39
 70
     1
102
RTVSPropertyOp40
 70
     1
102
RTVSPropertyOp41
 70
     1
102
RTVSPropertyOp42
 70
     1
102
RTVSPropertyOp43
 70
     1
102
RTVSPropertyOp44
 70
     1
102
RTVSPropertyOp45
 70
     1
102
RTVSPropertyOp46
 70
     1
102
RTVSPropertyOp47
 70
     1
102
RTVSPropertyOp48
 70
     1
102
RTVSPropertyOp49
 70
     1
102
RTVSPropertyOp50
 70
     1
102
RTVSPropertyOp51
 70
     0
102
RTVSPropertyOp52
 70
     0
102
RTVSPropertyOp53
 70
     1
102
RTVSPropertyOp54
 70
     1
102
RTVSPropertyOp55
 70
     1
102
RTVSPropertyOp56
 70
     1
102
RTVSPropertyOp57
 70
     1
102
RTVSPropertyOp58
 70
     1
102
RTVSPropertyOp59
 70
     1
102
RTVSPropertyOp60
 70
     1
102
RTVSPropertyOp61
 70
     1
102
RTVSPropertyOp62
 70
     1
  0
XRECORD
  5
3A2
102
{ACAD_REACTORS
330
3A1
102
}
330
3A1
100
AcDbXrecord
280
     1
102
RTVSPost2010Prop28
280
     0
102
RTVSPost2010PropOp28
 70
     1
102
RTVSPost2010Prop29
280
     1
102
RTVSPost2010PropOp29
 70
     1
102
RTVSPost2010Prop30
280
     1
102
RTVSPost2010PropOp30
 70
     1
102
RTVSPost2010Prop31
280
     0
102
RTVSPost2010PropOp31
 70
     1
102
RTVSPost2010Prop32
280
     0
102
RTVSPost2010PropOp32
 70
     1
102
RTVSPost2010Prop33
280
     0
102
RTVSPost2010PropOp33
 70
     1
102
RTVSPost2010Prop34
280
     0
102
RTVSPost2010PropOp34
 70
     1
102
RTVSPost2010Prop35
280
     0
102
RTVSPost2010PropOp35
 70
     1
102
RTVSPost2010Prop36
280
     0
102
RTVSPost2010PropOp36
 70
     1
102
RTVSPost2010Prop37
 90
       50
102
RTVSPost2010PropOp37
 70
     1
102
RTVSPost2010Prop38
140
0.0
102
RTVSPost2010PropOp38
 70
     1
102
RTVSPost2010Prop39
140
1.0
102
RTVSPost2010PropOp39
 70
     1
102
RTVSPost2010Prop40
 90
        0
102
RTVSPost2010PropOp40
 70
     1
102
RTVSPost2010Prop41ColorIndex
 90
       18
102
RTVSPost2010Prop41ColorRGB
 90
        0
102
RTVSPost2010PropOp41
 70
     1
102
RTVSPost2010Prop42
 90
       50
102
RTVSPost2010PropOp42
 70
     1
102
RTVSPost2010Prop43
 90
        3
102
RTVSPost2010PropOp43
 70
     1
102
RTVSPost2010Prop44ColorIndex
 90
        5
102
RTVSPost2010Prop44ColorRGB
 90
      255
102
RTVSPost2010PropOp44
 70
     1
102
RTVSPost2010Prop45
280
     0
102
RTVSPost2010PropOp45
 70
     1
102
RTVSPost2010Prop46
 90
       50
102
RTVSPost2010PropOp46
 70
     1
102
RTVSPost2010Prop47
 90
       50
102
RTVSPost2010PropOp47
 70
     1
102
RTVSPost2010Prop48
 90
       50
102
RTVSPost2010PropOp48
 70
     1
102
RTVSPost2010Prop49
280
     0
102
RTVSPost2010PropOp49
 70
     1
102
RTVSPost2010Prop50
 90
       50
102
RTVSPost2010PropOp50
 70
     1
102
RTVSPost2010Prop51ColorIndex
 90
      256
102
RTVSPost2010Prop51ColorRGB
 90
-16777216
102
RTVSPost2010PropOp51
 70
     0
102
RTVSPost2010Prop52
140
1.0
102
RTVSPost2010PropOp52
 70
     0
102
RTVSPost2010Prop53
 90
        2
102
RTVSPost2010PropOp53
 70
     1
102
RTVSPost2010Prop54
  1
strokes_ogs.tif
102
RTVSPost2010PropOp54
 70
     1
102
RTVSPost2010Prop55
280
     0
102
RTVSPost2010PropOp55
 70
     1
102
RTVSPost2010Prop56
140
1.0
102
RTVSPost2010PropOp56
 70
     1
102
RTVSPost2010Prop57
140
1.0
102
RTVSPost2010PropOp57
 70
     1
102
RTVSPropertyOp0
 70
     1
102
RTVSPropertyOp1
 70
     1
102
RTVSPropertyOp2
 70
     1
102
RTVSPropertyOp3
 70
     1
102
RTVSPropertyOp4
 70
     1
102
RTVSPropertyOp5
 70
     1
102
RTVSPropertyOp6
 70
     1
102
RTVSPropertyOp7
 70
     1
102
RTVSPropertyOp8
 70
     1
102
RTVSPropertyOp9
 70
     1
102
RTVSPropertyOp10
 70
     1
102
RTVSPropertyOp11
 70
     1
102
RTVSPropertyOp12
 70
     1
102
RTVSPropertyOp13
 70
     1
102
RTVSPropertyOp14
 70
     1
102
RTVSPropertyOp15
 70
     1
102
RTVSPropertyOp16
 70
     1
102
RTVSPropertyOp17
 70
     1
102
RTVSPropertyOp18
 70
     1
102
RTVSPropertyOp19
 70
     1
102
RTVSPropertyOp20
 70
     1
102
RTVSPropertyOp21
 70
     1
102
RTVSPropertyOp22
 70
     1
102
RTVSPropertyOp23
 70
     1
102
RTVSPropertyOp24
 70
     1
102
RTVSPropertyOp25
 70
     1
102
RTVSPropertyOp26
 70
     1
102
RTVSPropertyOp27
 70
     1
102
RTVSPropertyOp28
 70
     1
102
RTVSPropertyOp29
 70
     1
102
RTVSPropertyOp30
 70
     1
102
RTVSPropertyOp31
 70
     1
102
RTVSPropertyOp32
 70
     1
102
RTVSPropertyOp33
 70
     1
102
RTVSPropertyOp34
 70
     1
102
RTVSPropertyOp35
 70
     1
102
RTVSPropertyOp36
 70
     1
102
RTVSPropertyOp37
 70
     1
102
RTVSPropertyOp38
 70
     1
102
RTVSPropertyOp39
 70
     1
102
RTVSPropertyOp40
 70
     1
102
RTVSPropertyOp41
 70
     1
102
RTVSPropertyOp42
 70
     1
102
RTVSPropertyOp43
 70
     1
102
RTVSPropertyOp44
 70
     1
102
RTVSPropertyOp45
 70
     1
102
RTVSPropertyOp46
 70
     1
102
RTVSPropertyOp47
 70
     1
102
RTVSPropertyOp48
 70
     1
102
RTVSPropertyOp49
 70
     1
102
RTVSPropertyOp50
 70
     1
102
RTVSPropertyOp51
 70
     0
102
RTVSPropertyOp52
 70
     0
102
RTVSPropertyOp53
 70
     1
102
RTVSPropertyOp54
 70
     1
102
RTVSPropertyOp55
 70
     1
102
RTVSPropertyOp56
 70
     1
102
RTVSPropertyOp57
 70
     1
102
RTVSPropertyOp58
 70
     1
102
RTVSPropertyOp59
 70
     1
102
RTVSPropertyOp60
 70
     1
102
RTVSPropertyOp61
 70
     1
102
RTVSPropertyOp62
 70
     1
  0
XRECORD
  5
3A4
102
{ACAD_REACTORS
330
3A3
102
}
330
3A3
100
AcDbXrecord
280
     1
102
RTVSPost2010Prop28
280
     0
102
RTVSPost2010PropOp28
 70
     1
102
RTVSPost2010Prop29
280
     1
102
RTVSPost2010PropOp29
 70
     1
102
RTVSPost2010Prop30
280
     1
102
RTVSPost2010PropOp30
 70
     1
102
RTVSPost2010Prop31
280
     0
102
RTVSPost2010PropOp31
 70
     1
102
RTVSPost2010Prop32
280
     0
102
RTVSPost2010PropOp32
 70
     1
102
RTVSPost2010Prop33
280
     0
102
RTVSPost2010PropOp33
 70
     1
102
RTVSPost2010Prop34
280
     0
102
RTVSPost2010PropOp34
 70
     1
102
RTVSPost2010Prop35
280
     0
102
RTVSPost2010PropOp35
 70
     1
102
RTVSPost2010Prop36
280
     0
102
RTVSPost2010PropOp36
 70
     1
102
RTVSPost2010Prop37
 90
       50
102
RTVSPost2010PropOp37
 70
     1
102
RTVSPost2010Prop38
140
0.0
102
RTVSPost2010PropOp38
 70
     1
102
RTVSPost2010Prop39
140
1.0
102
RTVSPost2010PropOp39
 70
     1
102
RTVSPost2010Prop40
 90
        0
102
RTVSPost2010PropOp40
 70
     1
102
RTVSPost2010Prop41ColorIndex
 90
       18
102
RTVSPost2010Prop41ColorRGB
 90
        0
102
RTVSPost2010PropOp41
 70
     1
102
RTVSPost2010Prop42
 90
       50
102
RTVSPost2010PropOp42
 70
     1
102
RTVSPost2010Prop43
 90
        3
102
RTVSPost2010PropOp43
 70
     1
102
RTVSPost2010Prop44ColorIndex
 90
        5
102
RTVSPost2010Prop44ColorRGB
 90
      255
102
RTVSPost2010PropOp44
 70
     1
102
RTVSPost2010Prop45
280
     0
102
RTVSPost2010PropOp45
 70
     1
102
RTVSPost2010Prop46
 90
       50
102
RTVSPost2010PropOp46
 70
     1
102
RTVSPost2010Prop47
 90
       50
102
RTVSPost2010PropOp47
 70
     1
102
RTVSPost2010Prop48
 90
       50
102
RTVSPost2010PropOp48
 70
     1
102
RTVSPost2010Prop49
280
     0
102
RTVSPost2010PropOp49
 70
     1
102
RTVSPost2010Prop50
 90
       50
102
RTVSPost2010PropOp50
 70
     1
102
RTVSPost2010Prop51ColorIndex
 90
      256
102
RTVSPost2010Prop51ColorRGB
 90
-16777216
102
RTVSPost2010PropOp51
 70
     0
102
RTVSPost2010Prop52
140
1.0
102
RTVSPost2010PropOp52
 70
     0
102
RTVSPost2010Prop53
 90
        2
102
RTVSPost2010PropOp53
 70
     1
102
RTVSPost2010Prop54
  1
strokes_ogs.tif
102
RTVSPost2010PropOp54
 70
     1
102
RTVSPost2010Prop55
280
     0
102
RTVSPost2010PropOp55
 70
     1
102
RTVSPost2010Prop56
140
1.0
102
RTVSPost2010PropOp56
 70
     1
102
RTVSPost2010Prop57
140
1.0
102
RTVSPost2010PropOp57
 70
     1
102
RTVSPropertyOp0
 70
     1
102
RTVSPropertyOp1
 70
     1
102
RTVSPropertyOp2
 70
     1
102
RTVSPropertyOp3
 70
     1
102
RTVSPropertyOp4
 70
     1
102
RTVSPropertyOp5
 70
     1
102
RTVSPropertyOp6
 70
     1
102
RTVSPropertyOp7
 70
     1
102
RTVSPropertyOp8
 70
     1
102
RTVSPropertyOp9
 70
     1
102
RTVSPropertyOp10
 70
     1
102
RTVSPropertyOp11
 70
     1
102
RTVSPropertyOp12
 70
     1
102
RTVSPropertyOp13
 70
     1
102
RTVSPropertyOp14
 70
     1
102
RTVSPropertyOp15
 70
     1
102
RTVSPropertyOp16
 70
     1
102
RTVSPropertyOp17
 70
     1
102
RTVSPropertyOp18
 70
     1
102
RTVSPropertyOp19
 70
     1
102
RTVSPropertyOp20
 70
     1
102
RTVSPropertyOp21
 70
     1
102
RTVSPropertyOp22
 70
     1
102
RTVSPropertyOp23
 70
     1
102
RTVSPropertyOp24
 70
     1
102
RTVSPropertyOp25
 70
     1
102
RTVSPropertyOp26
 70
     1
102
RTVSPropertyOp27
 70
     1
102
RTVSPropertyOp28
 70
     1
102
RTVSPropertyOp29
 70
     1
102
RTVSPropertyOp30
 70
     1
102
RTVSPropertyOp31
 70
     1
102
RTVSPropertyOp32
 70
     1
102
RTVSPropertyOp33
 70
     1
102
RTVSPropertyOp34
 70
     1
102
RTVSPropertyOp35
 70
     1
102
RTVSPropertyOp36
 70
     1
102
RTVSPropertyOp37
 70
     1
102
RTVSPropertyOp38
 70
     1
102
RTVSPropertyOp39
 70
     1
102
RTVSPropertyOp40
 70
     1
102
RTVSPropertyOp41
 70
     1
102
RTVSPropertyOp42
 70
     1
102
RTVSPropertyOp43
 70
     1
102
RTVSPropertyOp44
 70
     1
102
RTVSPropertyOp45
 70
     1
102
RTVSPropertyOp46
 70
     1
102
RTVSPropertyOp47
 70
     1
102
RTVSPropertyOp48
 70
     1
102
RTVSPropertyOp49
 70
     1
102
RTVSPropertyOp50
 70
     1
102
RTVSPropertyOp51
 70
     0
102
RTVSPropertyOp52
 70
     0
102
RTVSPropertyOp53
 70
     1
102
RTVSPropertyOp54
 70
     1
102
RTVSPropertyOp55
 70
     1
102
RTVSPropertyOp56
 70
     1
102
RTVSPropertyOp57
 70
     1
102
RTVSPropertyOp58
 70
     1
102
RTVSPropertyOp59
 70
     1
102
RTVSPropertyOp60
 70
     1
102
RTVSPropertyOp61
 70
     1
102
RTVSPropertyOp62
 70
     1
  0
XRECORD
  5
3A6
102
{ACAD_REACTORS
330
3A5
102
}
330
3A5
100
AcDbXrecord
280
     1
102
RTVSPost2010Prop28
280
     0
102
RTVSPost2010PropOp28
 70
     1
102
RTVSPost2010Prop29
280
     1
102
RTVSPost2010PropOp29
 70
     1
102
RTVSPost2010Prop30
280
     1
102
RTVSPost2010PropOp30
 70
     1
102
RTVSPost2010Prop31
280
     0
102
RTVSPost2010PropOp31
 70
     1
102
RTVSPost2010Prop32
280
     0
102
RTVSPost2010PropOp32
 70
     1
102
RTVSPost2010Prop33
280
     0
102
RTVSPost2010PropOp33
 70
     1
102
RTVSPost2010Prop34
280
     0
102
RTVSPost2010PropOp34
 70
     1
102
RTVSPost2010Prop35
280
     0
102
RTVSPost2010PropOp35
 70
     1
102
RTVSPost2010Prop36
280
     0
102
RTVSPost2010PropOp36
 70
     1
102
RTVSPost2010Prop37
 90
       50
102
RTVSPost2010PropOp37
 70
     1
102
RTVSPost2010Prop38
140
0.0
102
RTVSPost2010PropOp38
 70
     1
102
RTVSPost2010Prop39
140
1.0
102
RTVSPost2010PropOp39
 70
     1
102
RTVSPost2010Prop40
 90
        0
102
RTVSPost2010PropOp40
 70
     1
102
RTVSPost2010Prop41ColorIndex
 90
       18
102
RTVSPost2010Prop41ColorRGB
 90
        0
102
RTVSPost2010PropOp41
 70
     1
102
RTVSPost2010Prop42
 90
       50
102
RTVSPost2010PropOp42
 70
     1
102
RTVSPost2010Prop43
 90
        3
102
RTVSPost2010PropOp43
 70
     1
102
RTVSPost2010Prop44ColorIndex
 90
        5
102
RTVSPost2010Prop44ColorRGB
 90
      255
102
RTVSPost2010PropOp44
 70
     1
102
RTVSPost2010Prop45
280
     0
102
RTVSPost2010PropOp45
 70
     1
102
RTVSPost2010Prop46
 90
       50
102
RTVSPost2010PropOp46
 70
     1
102
RTVSPost2010Prop47
 90
       50
102
RTVSPost2010PropOp47
 70
     1
102
RTVSPost2010Prop48
 90
       50
102
RTVSPost2010PropOp48
 70
     1
102
RTVSPost2010Prop49
280
     0
102
RTVSPost2010PropOp49
 70
     1
102
RTVSPost2010Prop50
 90
       50
102
RTVSPost2010PropOp50
 70
     1
102
RTVSPost2010Prop51ColorIndex
 90
      256
102
RTVSPost2010Prop51ColorRGB
 90
-16777216
102
RTVSPost2010PropOp51
 70
     0
102
RTVSPost2010Prop52
140
1.0
102
RTVSPost2010PropOp52
 70
     0
102
RTVSPost2010Prop53
 90
        2
102
RTVSPost2010PropOp53
 70
     1
102
RTVSPost2010Prop54
  1
strokes_ogs.tif
102
RTVSPost2010PropOp54
 70
     1
102
RTVSPost2010Prop55
280
     0
102
RTVSPost2010PropOp55
 70
     1
102
RTVSPost2010Prop56
140
1.0
102
RTVSPost2010PropOp56
 70
     1
102
RTVSPost2010Prop57
140
1.0
102
RTVSPost2010PropOp57
 70
     1
102
RTVSPropertyOp0
 70
     1
102
RTVSPropertyOp1
 70
     1
102
RTVSPropertyOp2
 70
     1
102
RTVSPropertyOp3
 70
     1
102
RTVSPropertyOp4
 70
     1
102
RTVSPropertyOp5
 70
     1
102
RTVSPropertyOp6
 70
     1
102
RTVSPropertyOp7
 70
     1
102
RTVSPropertyOp8
 70
     1
102
RTVSPropertyOp9
 70
     1
102
RTVSPropertyOp10
 70
     1
102
RTVSPropertyOp11
 70
     1
102
RTVSPropertyOp12
 70
     1
102
RTVSPropertyOp13
 70
     1
102
RTVSPropertyOp14
 70
     1
102
RTVSPropertyOp15
 70
     1
102
RTVSPropertyOp16
 70
     1
102
RTVSPropertyOp17
 70
     1
102
RTVSPropertyOp18
 70
     1
102
RTVSPropertyOp19
 70
     1
102
RTVSPropertyOp20
 70
     1
102
RTVSPropertyOp21
 70
     1
102
RTVSPropertyOp22
 70
     1
102
RTVSPropertyOp23
 70
     1
102
RTVSPropertyOp24
 70
     1
102
RTVSPropertyOp25
 70
     1
102
RTVSPropertyOp26
 70
     1
102
RTVSPropertyOp27
 70
     1
102
RTVSPropertyOp28
 70
     1
102
RTVSPropertyOp29
 70
     1
102
RTVSPropertyOp30
 70
     1
102
RTVSPropertyOp31
 70
     1
102
RTVSPropertyOp32
 70
     1
102
RTVSPropertyOp33
 70
     1
102
RTVSPropertyOp34
 70
     1
102
RTVSPropertyOp35
 70
     1
102
RTVSPropertyOp36
 70
     1
102
RTVSPropertyOp37
 70
     1
102
RTVSPropertyOp38
 70
     1
102
RTVSPropertyOp39
 70
     1
102
RTVSPropertyOp40
 70
     1
102
RTVSPropertyOp41
 70
     1
102
RTVSPropertyOp42
 70
     1
102
RTVSPropertyOp43
 70
     1
102
RTVSPropertyOp44
 70
     1
102
RTVSPropertyOp45
 70
     1
102
RTVSPropertyOp46
 70
     1
102
RTVSPropertyOp47
 70
     1
102
RTVSPropertyOp48
 70
     1
102
RTVSPropertyOp49
 70
     1
102
RTVSPropertyOp50
 70
     1
102
RTVSPropertyOp51
 70
     0
102
RTVSPropertyOp52
 70
     0
102
RTVSPropertyOp53
 70
     1
102
RTVSPropertyOp54
 70
     1
102
RTVSPropertyOp55
 70
     1
102
RTVSPropertyOp56
 70
     1
102
RTVSPropertyOp57
 70
     1
102
RTVSPropertyOp58
 70
     1
102
RTVSPropertyOp59
 70
     1
102
RTVSPropertyOp60
 70
     1
102
RTVSPropertyOp61
 70
     1
102
RTVSPropertyOp62
 70
     1
  0
XRECORD
  5
3A8
102
{ACAD_REACTORS
330
3A7
102
}
330
3A7
100
AcDbXrecord
280
     1
102
RTVSPost2010Prop28
280
     0
102
RTVSPost2010PropOp28
 70
     1
102
RTVSPost2010Prop29
280
     1
102
RTVSPost2010PropOp29
 70
     1
102
RTVSPost2010Prop30
280
     1
102
RTVSPost2010PropOp30
 70
     1
102
RTVSPost2010Prop31
280
     0
102
RTVSPost2010PropOp31
 70
     1
102
RTVSPost2010Prop32
280
     0
102
RTVSPost2010PropOp32
 70
     1
102
RTVSPost2010Prop33
280
     0
102
RTVSPost2010PropOp33
 70
     1
102
RTVSPost2010Prop34
280
     0
102
RTVSPost2010PropOp34
 70
     1
102
RTVSPost2010Prop35
280
     0
102
RTVSPost2010PropOp35
 70
     1
102
RTVSPost2010Prop36
280
     0
102
RTVSPost2010PropOp36
 70
     1
102
RTVSPost2010Prop37
 90
       50
102
RTVSPost2010PropOp37
 70
     1
102
RTVSPost2010Prop38
140
0.0
102
RTVSPost2010PropOp38
 70
     1
102
RTVSPost2010Prop39
140
1.0
102
RTVSPost2010PropOp39
 70
     1
102
RTVSPost2010Prop40
 90
        0
102
RTVSPost2010PropOp40
 70
     1
102
RTVSPost2010Prop41ColorIndex
 90
       18
102
RTVSPost2010Prop41ColorRGB
 90
        0
102
RTVSPost2010PropOp41
 70
     1
102
RTVSPost2010Prop42
 90
       50
102
RTVSPost2010PropOp42
 70
     1
102
RTVSPost2010Prop43
 90
        3
102
RTVSPost2010PropOp43
 70
     1
102
RTVSPost2010Prop44ColorIndex
 90
        5
102
RTVSPost2010Prop44ColorRGB
 90
      255
102
RTVSPost2010PropOp44
 70
     1
102
RTVSPost2010Prop45
280
     0
102
RTVSPost2010PropOp45
 70
     1
102
RTVSPost2010Prop46
 90
       50
102
RTVSPost2010PropOp46
 70
     1
102
RTVSPost2010Prop47
 90
       50
102
RTVSPost2010PropOp47
 70
     1
102
RTVSPost2010Prop48
 90
       50
102
RTVSPost2010PropOp48
 70
     1
102
RTVSPost2010Prop49
280
     0
102
RTVSPost2010PropOp49
 70
     1
102
RTVSPost2010Prop50
 90
       50
102
RTVSPost2010PropOp50
 70
     1
102
RTVSPost2010Prop51ColorIndex
 90
      256
102
RTVSPost2010Prop51ColorRGB
 90
-16777216
102
RTVSPost2010PropOp51
 70
     0
102
RTVSPost2010Prop52
140
1.0
102
RTVSPost2010PropOp52
 70
     0
102
RTVSPost2010Prop53
 90
        2
102
RTVSPost2010PropOp53
 70
     1
102
RTVSPost2010Prop54
  1
strokes_ogs.tif
102
RTVSPost2010PropOp54
 70
     1
102
RTVSPost2010Prop55
280
     0
102
RTVSPost2010PropOp55
 70
     1
102
RTVSPost2010Prop56
140
1.0
102
RTVSPost2010PropOp56
 70
     1
102
RTVSPost2010Prop57
140
1.0
102
RTVSPost2010PropOp57
 70
     1
102
RTVSPropertyOp0
 70
     1
102
RTVSPropertyOp1
 70
     1
102
RTVSPropertyOp2
 70
     1
102
RTVSPropertyOp3
 70
     1
102
RTVSPropertyOp4
 70
     1
102
RTVSPropertyOp5
 70
     1
102
RTVSPropertyOp6
 70
     1
102
RTVSPropertyOp7
 70
     1
102
RTVSPropertyOp8
 70
     1
102
RTVSPropertyOp9
 70
     1
102
RTVSPropertyOp10
 70
     1
102
RTVSPropertyOp11
 70
     1
102
RTVSPropertyOp12
 70
     1
102
RTVSPropertyOp13
 70
     1
102
RTVSPropertyOp14
 70
     1
102
RTVSPropertyOp15
 70
     1
102
RTVSPropertyOp16
 70
     1
102
RTVSPropertyOp17
 70
     1
102
RTVSPropertyOp18
 70
     1
102
RTVSPropertyOp19
 70
     1
102
RTVSPropertyOp20
 70
     1
102
RTVSPropertyOp21
 70
     1
102
RTVSPropertyOp22
 70
     1
102
RTVSPropertyOp23
 70
     1
102
RTVSPropertyOp24
 70
     1
102
RTVSPropertyOp25
 70
     1
102
RTVSPropertyOp26
 70
     1
102
RTVSPropertyOp27
 70
     1
102
RTVSPropertyOp28
 70
     1
102
RTVSPropertyOp29
 70
     1
102
RTVSPropertyOp30
 70
     1
102
RTVSPropertyOp31
 70
     1
102
RTVSPropertyOp32
 70
     1
102
RTVSPropertyOp33
 70
     1
102
RTVSPropertyOp34
 70
     1
102
RTVSPropertyOp35
 70
     1
102
RTVSPropertyOp36
 70
     1
102
RTVSPropertyOp37
 70
     1
102
RTVSPropertyOp38
 70
     1
102
RTVSPropertyOp39
 70
     1
102
RTVSPropertyOp40
 70
     1
102
RTVSPropertyOp41
 70
     1
102
RTVSPropertyOp42
 70
     1
102
RTVSPropertyOp43
 70
     1
102
RTVSPropertyOp44
 70
     1
102
RTVSPropertyOp45
 70
     1
102
RTVSPropertyOp46
 70
     1
102
RTVSPropertyOp47
 70
     1
102
RTVSPropertyOp48
 70
     1
102
RTVSPropertyOp49
 70
     1
102
RTVSPropertyOp50
 70
     1
102
RTVSPropertyOp51
 70
     0
102
RTVSPropertyOp52
 70
     0
102
RTVSPropertyOp53
 70
     1
102
RTVSPropertyOp54
 70
     1
102
RTVSPropertyOp55
 70
     1
102
RTVSPropertyOp56
 70
     1
102
RTVSPropertyOp57
 70
     1
102
RTVSPropertyOp58
 70
     1
102
RTVSPropertyOp59
 70
     1
102
RTVSPropertyOp60
 70
     1
102
RTVSPropertyOp61
 70
     1
102
RTVSPropertyOp62
 70
     1
  0
XRECORD
  5
3AE
102
{ACAD_REACTORS
330
3AD
102
}
330
3AD
100
AcDbXrecord
280
     1
102
RTVSPost2010Prop28
280
     0
102
RTVSPost2010PropOp28
 70
     1
102
RTVSPost2010Prop29
280
     1
102
RTVSPost2010PropOp29
 70
     1
102
RTVSPost2010Prop30
280
     1
102
RTVSPost2010PropOp30
 70
     1
102
RTVSPost2010Prop31
280
     0
102
RTVSPost2010PropOp31
 70
     1
102
RTVSPost2010Prop32
280
     0
102
RTVSPost2010PropOp32
 70
     1
102
RTVSPost2010Prop33
280
     0
102
RTVSPost2010PropOp33
 70
     1
102
RTVSPost2010Prop34
280
     0
102
RTVSPost2010PropOp34
 70
     1
102
RTVSPost2010Prop35
280
     0
102
RTVSPost2010PropOp35
 70
     1
102
RTVSPost2010Prop36
280
     0
102
RTVSPost2010PropOp36
 70
     1
102
RTVSPost2010Prop37
 90
       50
102
RTVSPost2010PropOp37
 70
     1
102
RTVSPost2010Prop38
140
0.0
102
RTVSPost2010PropOp38
 70
     1
102
RTVSPost2010Prop39
140
1.0
102
RTVSPost2010PropOp39
 70
     1
102
RTVSPost2010Prop40
 90
        0
102
RTVSPost2010PropOp40
 70
     1
102
RTVSPost2010Prop41ColorIndex
 90
       18
102
RTVSPost2010Prop41ColorRGB
 90
        0
102
RTVSPost2010PropOp41
 70
     1
102
RTVSPost2010Prop42
 90
       50
102
RTVSPost2010PropOp42
 70
     1
102
RTVSPost2010Prop43
 90
        3
102
RTVSPost2010PropOp43
 70
     1
102
RTVSPost2010Prop44ColorIndex
 90
        5
102
RTVSPost2010Prop44ColorRGB
 90
      255
102
RTVSPost2010PropOp44
 70
     1
102
RTVSPost2010Prop45
280
     0
102
RTVSPost2010PropOp45
 70
     1
102
RTVSPost2010Prop46
 90
       50
102
RTVSPost2010PropOp46
 70
     1
102
RTVSPost2010Prop47
 90
       50
102
RTVSPost2010PropOp47
 70
     1
102
RTVSPost2010Prop48
 90
       50
102
RTVSPost2010PropOp48
 70
     1
102
RTVSPost2010Prop49
280
     0
102
RTVSPost2010PropOp49
 70
     1
102
RTVSPost2010Prop50
 90
       50
102
RTVSPost2010PropOp50
 70
     1
102
RTVSPost2010Prop51ColorIndex
 90
      256
102
RTVSPost2010Prop51ColorRGB
 90
-16777216
102
RTVSPost2010PropOp51
 70
     0
102
RTVSPost2010Prop52
140
1.0
102
RTVSPost2010PropOp52
 70
     0
102
RTVSPost2010Prop53
 90
        2
102
RTVSPost2010PropOp53
 70
     1
102
RTVSPost2010Prop54
  1
strokes_ogs.tif
102
RTVSPost2010PropOp54
 70
     1
102
RTVSPost2010Prop55
280
     0
102
RTVSPost2010PropOp55
 70
     1
102
RTVSPost2010Prop56
140
1.0
102
RTVSPost2010PropOp56
 70
     1
102
RTVSPost2010Prop57
140
1.0
102
RTVSPost2010PropOp57
 70
     1
102
RTVSPropertyOp0
 70
     1
102
RTVSPropertyOp1
 70
     1
102
RTVSPropertyOp2
 70
     1
102
RTVSPropertyOp3
 70
     1
102
RTVSPropertyOp4
 70
     1
102
RTVSPropertyOp5
 70
     1
102
RTVSPropertyOp6
 70
     1
102
RTVSPropertyOp7
 70
     1
102
RTVSPropertyOp8
 70
     1
102
RTVSPropertyOp9
 70
     1
102
RTVSPropertyOp10
 70
     1
102
RTVSPropertyOp11
 70
     1
102
RTVSPropertyOp12
 70
     1
102
RTVSPropertyOp13
 70
     1
102
RTVSPropertyOp14
 70
     1
102
RTVSPropertyOp15
 70
     1
102
RTVSPropertyOp16
 70
     1
102
RTVSPropertyOp17
 70
     1
102
RTVSPropertyOp18
 70
     1
102
RTVSPropertyOp19
 70
     1
102
RTVSPropertyOp20
 70
     1
102
RTVSPropertyOp21
 70
     1
102
RTVSPropertyOp22
 70
     1
102
RTVSPropertyOp23
 70
     1
102
RTVSPropertyOp24
 70
     1
102
RTVSPropertyOp25
 70
     1
102
RTVSPropertyOp26
 70
     1
102
RTVSPropertyOp27
 70
     1
102
RTVSPropertyOp28
 70
     1
102
RTVSPropertyOp29
 70
     1
102
RTVSPropertyOp30
 70
     1
102
RTVSPropertyOp31
 70
     1
102
RTVSPropertyOp32
 70
     1
102
RTVSPropertyOp33
 70
     1
102
RTVSPropertyOp34
 70
     1
102
RTVSPropertyOp35
 70
     1
102
RTVSPropertyOp36
 70
     1
102
RTVSPropertyOp37
 70
     1
102
RTVSPropertyOp38
 70
     1
102
RTVSPropertyOp39
 70
     1
102
RTVSPropertyOp40
 70
     1
102
RTVSPropertyOp41
 70
     1
102
RTVSPropertyOp42
 70
     1
102
RTVSPropertyOp43
 70
     1
102
RTVSPropertyOp44
 70
     1
102
RTVSPropertyOp45
 70
     1
102
RTVSPropertyOp46
 70
     1
102
RTVSPropertyOp47
 70
     1
102
RTVSPropertyOp48
 70
     1
102
RTVSPropertyOp49
 70
     1
102
RTVSPropertyOp50
 70
     1
102
RTVSPropertyOp51
 70
     0
102
RTVSPropertyOp52
 70
     0
102
RTVSPropertyOp53
 70
     1
102
RTVSPropertyOp54
 70
     1
102
RTVSPropertyOp55
 70
     1
102
RTVSPropertyOp56
 70
     1
102
RTVSPropertyOp57
 70
     1
102
RTVSPropertyOp58
 70
     1
102
RTVSPropertyOp59
 70
     1
102
RTVSPropertyOp60
 70
     1
102
RTVSPropertyOp61
 70
     1
102
RTVSPropertyOp62
 70
     1
  0
XRECORD
  5
3C2
102
{ACAD_REACTORS
330
3C1
102
}
330
3C1
100
AcDbXrecord
280
     1
102
RTVSPost2010Prop28
280
     0
102
RTVSPost2010PropOp28
 70
     0
102
RTVSPost2010Prop29
280
     1
102
RTVSPost2010PropOp29
 70
     0
102
RTVSPost2010Prop30
280
     1
102
RTVSPost2010PropOp30
 70
     0
102
RTVSPost2010Prop31
280
     0
102
RTVSPost2010PropOp31
 70
     0
102
RTVSPost2010Prop32
280
     0
102
RTVSPost2010PropOp32
 70
     0
102
RTVSPost2010Prop33
280
     0
102
RTVSPost2010PropOp33
 70
     0
102
RTVSPost2010Prop34
280
     0
102
RTVSPost2010PropOp34
 70
     0
102
RTVSPost2010Prop35
280
     0
102
RTVSPost2010PropOp35
 70
     0
102
RTVSPost2010Prop36
280
     0
102
RTVSPost2010PropOp36
 70
     0
102
RTVSPost2010Prop37
 90
       50
102
RTVSPost2010PropOp37
 70
     0
102
RTVSPost2010Prop38
140
0.0
102
RTVSPost2010PropOp38
 70
     0
102
RTVSPost2010Prop39
140
1.0
102
RTVSPost2010PropOp39
 70
     0
102
RTVSPost2010Prop40
 90
        0
102
RTVSPost2010PropOp40
 70
     0
102
RTVSPost2010Prop41ColorIndex
 90
       18
102
RTVSPost2010Prop41ColorRGB
 90
        0
102
RTVSPost2010PropOp41
 70
     0
102
RTVSPost2010Prop42
 90
       50
102
RTVSPost2010PropOp42
 70
     0
102
RTVSPost2010Prop43
 90
        3
102
RTVSPost2010PropOp43
 70
     0
102
RTVSPost2010Prop44ColorIndex
 90
        5
102
RTVSPost2010Prop44ColorRGB
 90
      255
102
RTVSPost2010PropOp44
 70
     0
102
RTVSPost2010Prop45
280
     0
102
RTVSPost2010PropOp45
 70
     0
102
RTVSPost2010Prop46
 90
       50
102
RTVSPost2010PropOp46
 70
     0
102
RTVSPost2010Prop47
 90
       50
102
RTVSPost2010PropOp47
 70
     0
102
RTVSPost2010Prop48
 90
       50
102
RTVSPost2010PropOp48
 70
     0
102
RTVSPost2010Prop49
280
     0
102
RTVSPost2010PropOp49
 70
     0
102
RTVSPost2010Prop50
 90
       50
102
RTVSPost2010PropOp50
 70
     0
102
RTVSPost2010Prop51ColorIndex
 90
      256
102
RTVSPost2010Prop51ColorRGB
 90
-16777216
102
RTVSPost2010PropOp51
 70
     0
102
RTVSPost2010Prop52
140
1.0
102
RTVSPost2010PropOp52
 70
     0
102
RTVSPost2010Prop53
 90
        2
102
RTVSPost2010PropOp53
 70
     0
102
RTVSPost2010Prop54
  1
strokes_ogs.tif
102
RTVSPost2010PropOp54
 70
     0
102
RTVSPost2010Prop55
280
     0
102
RTVSPost2010PropOp55
 70
     0
102
RTVSPost2010Prop56
140
1.0
102
RTVSPost2010PropOp56
 70
     0
102
RTVSPost2010Prop57
140
1.0
102
RTVSPost2010PropOp57
 70
     0
102
RTVSPropertyOp0
 70
     0
102
RTVSPropertyOp1
 70
     0
102
RTVSPropertyOp2
 70
     0
102
RTVSPropertyOp3
 70
     0
102
RTVSPropertyOp4
 70
     0
102
RTVSPropertyOp5
 70
     0
102
RTVSPropertyOp6
 70
     0
102
RTVSPropertyOp7
 70
     0
102
RTVSPropertyOp8
 70
     0
102
RTVSPropertyOp9
 70
     0
102
RTVSPropertyOp10
 70
     0
102
RTVSPropertyOp11
 70
     0
102
RTVSPropertyOp12
 70
     0
102
RTVSPropertyOp13
 70
     0
102
RTVSPropertyOp14
 70
     2
102
RTVSPropertyOp15
 70
     0
102
RTVSPropertyOp16
 70
     0
102
RTVSPropertyOp17
 70
     0
102
RTVSPropertyOp18
 70
     0
102
RTVSPropertyOp19
 70
     0
102
RTVSPropertyOp20
 70
     0
102
RTVSPropertyOp21
 70
     0
102
RTVSPropertyOp22
 70
     0
102
RTVSPropertyOp23
 70
     0
102
RTVSPropertyOp24
 70
     0
102
RTVSPropertyOp25
 70
     0
102
RTVSPropertyOp26
 70
     0
102
RTVSPropertyOp27
 70
     0
102
RTVSPropertyOp28
 70
     0
102
RTVSPropertyOp29
 70
     0
102
RTVSPropertyOp30
 70
     0
102
RTVSPropertyOp31
 70
     0
102
RTVSPropertyOp32
 70
     0
102
RTVSPropertyOp33
 70
     0
102
RTVSPropertyOp34
 70
     0
102
RTVSPropertyOp35
 70
     0
102
RTVSPropertyOp36
 70
     0
102
RTVSPropertyOp37
 70
     0
102
RTVSPropertyOp38
 70
     0
102
RTVSPropertyOp39
 70
     0
102
RTVSPropertyOp40
 70
     0
102
RTVSPropertyOp41
 70
     0
102
RTVSPropertyOp42
 70
     0
102
RTVSPropertyOp43
 70
     0
102
RTVSPropertyOp44
 70
     0
102
RTVSPropertyOp45
 70
     0
102
RTVSPropertyOp46
 70
     0
102
RTVSPropertyOp47
 70
     0
102
RTVSPropertyOp48
 70
     0
102
RTVSPropertyOp49
 70
     0
102
RTVSPropertyOp50
 70
     0
102
RTVSPropertyOp51
 70
     0
102
RTVSPropertyOp52
 70
     0
102
RTVSPropertyOp53
 70
     0
102
RTVSPropertyOp54
 70
     0
102
RTVSPropertyOp55
 70
     0
102
RTVSPropertyOp56
 70
     0
102
RTVSPropertyOp57
 70
     0
102
RTVSPropertyOp58
 70
     1
102
RTVSPropertyOp59
 70
     1
102
RTVSPropertyOp60
 70
     1
102
RTVSPropertyOp61
 70
     1
102
RTVSPropertyOp62
 70
     1
  0
XRECORD
  5
3BC
102
{ACAD_REACTORS
330
3BB
102
}
330
3BB
100
AcDbXrecord
280
     1
102
RTVSPost2010Prop28
280
     0
102
RTVSPost2010PropOp28
 70
     1
102
RTVSPost2010Prop29
280
     1
102
RTVSPost2010PropOp29
 70
     1
102
RTVSPost2010Prop30
280
     1
102
RTVSPost2010PropOp30
 70
     1
102
RTVSPost2010Prop31
280
     0
102
RTVSPost2010PropOp31
 70
     1
102
RTVSPost2010Prop32
280
     0
102
RTVSPost2010PropOp32
 70
     1
102
RTVSPost2010Prop33
280
     0
102
RTVSPost2010PropOp33
 70
     1
102
RTVSPost2010Prop34
280
     0
102
RTVSPost2010PropOp34
 70
     1
102
RTVSPost2010Prop35
280
     0
102
RTVSPost2010PropOp35
 70
     1
102
RTVSPost2010Prop36
280
     0
102
RTVSPost2010PropOp36
 70
     1
102
RTVSPost2010Prop37
 90
       50
102
RTVSPost2010PropOp37
 70
     1
102
RTVSPost2010Prop38
140
0.0
102
RTVSPost2010PropOp38
 70
     1
102
RTVSPost2010Prop39
140
1.0
102
RTVSPost2010PropOp39
 70
     1
102
RTVSPost2010Prop40
 90
        0
102
RTVSPost2010PropOp40
 70
     1
102
RTVSPost2010Prop41ColorIndex
 90
       18
102
RTVSPost2010Prop41ColorRGB
 90
        0
102
RTVSPost2010PropOp41
 70
     1
102
RTVSPost2010Prop42
 90
       50
102
RTVSPost2010PropOp42
 70
     1
102
RTVSPost2010Prop43
 90
        3
102
RTVSPost2010PropOp43
 70
     1
102
RTVSPost2010Prop44ColorIndex
 90
        5
102
RTVSPost2010Prop44ColorRGB
 90
      255
102
RTVSPost2010PropOp44
 70
     1
102
RTVSPost2010Prop45
280
     0
102
RTVSPost2010PropOp45
 70
     1
102
RTVSPost2010Prop46
 90
       50
102
RTVSPost2010PropOp46
 70
     1
102
RTVSPost2010Prop47
 90
       50
102
RTVSPost2010PropOp47
 70
     1
102
RTVSPost2010Prop48
 90
       50
102
RTVSPost2010PropOp48
 70
     1
102
RTVSPost2010Prop49
280
     0
102
RTVSPost2010PropOp49
 70
     1
102
RTVSPost2010Prop50
 90
       50
102
RTVSPost2010PropOp50
 70
     1
102
RTVSPost2010Prop51ColorIndex
 90
      256
102
RTVSPost2010Prop51ColorRGB
 90
-16777216
102
RTVSPost2010PropOp51
 70
     0
102
RTVSPost2010Prop52
140
1.0
102
RTVSPost2010PropOp52
 70
     0
102
RTVSPost2010Prop53
 90
        2
102
RTVSPost2010PropOp53
 70
     1
102
RTVSPost2010Prop54
  1
strokes_ogs.tif
102
RTVSPost2010PropOp54
 70
     1
102
RTVSPost2010Prop55
280
     0
102
RTVSPost2010PropOp55
 70
     1
102
RTVSPost2010Prop56
140
1.0
102
RTVSPost2010PropOp56
 70
     1
102
RTVSPost2010Prop57
140
1.0
102
RTVSPost2010PropOp57
 70
     1
102
RTVSPropertyOp0
 70
     1
102
RTVSPropertyOp1
 70
     1
102
RTVSPropertyOp2
 70
     1
102
RTVSPropertyOp3
 70
     1
102
RTVSPropertyOp4
 70
     1
102
RTVSPropertyOp5
 70
     1
102
RTVSPropertyOp6
 70
     1
102
RTVSPropertyOp7
 70
     1
102
RTVSPropertyOp8
 70
     1
102
RTVSPropertyOp9
 70
     1
102
RTVSPropertyOp10
 70
     1
102
RTVSPropertyOp11
 70
     1
102
RTVSPropertyOp12
 70
     1
102
RTVSPropertyOp13
 70
     1
102
RTVSPropertyOp14
 70
     1
102
RTVSPropertyOp15
 70
     1
102
RTVSPropertyOp16
 70
     1
102
RTVSPropertyOp17
 70
     1
102
RTVSPropertyOp18
 70
     1
102
RTVSPropertyOp19
 70
     1
102
RTVSPropertyOp20
 70
     1
102
RTVSPropertyOp21
 70
     1
102
RTVSPropertyOp22
 70
     1
102
RTVSPropertyOp23
 70
     1
102
RTVSPropertyOp24
 70
     1
102
RTVSPropertyOp25
 70
     1
102
RTVSPropertyOp26
 70
     1
102
RTVSPropertyOp27
 70
     1
102
RTVSPropertyOp28
 70
     1
102
RTVSPropertyOp29
 70
     1
102
RTVSPropertyOp30
 70
     1
102
RTVSPropertyOp31
 70
     1
102
RTVSPropertyOp32
 70
     1
102
RTVSPropertyOp33
 70
     1
102
RTVSPropertyOp34
 70
     1
102
RTVSPropertyOp35
 70
     1
102
RTVSPropertyOp36
 70
     1
102
RTVSPropertyOp37
 70
     1
102
RTVSPropertyOp38
 70
     1
102
RTVSPropertyOp39
 70
     1
102
RTVSPropertyOp40
 70
     1
102
RTVSPropertyOp41
 70
     1
102
RTVSPropertyOp42
 70
     1
102
RTVSPropertyOp43
 70
     1
102
RTVSPropertyOp44
 70
     1
102
RTVSPropertyOp45
 70
     1
102
RTVSPropertyOp46
 70
     1
102
RTVSPropertyOp47
 70
     1
102
RTVSPropertyOp48
 70
     1
102
RTVSPropertyOp49
 70
     1
102
RTVSPropertyOp50
 70
     1
102
RTVSPropertyOp51
 70
     0
102
RTVSPropertyOp52
 70
     0
102
RTVSPropertyOp53
 70
     1
102
RTVSPropertyOp54
 70
     1
102
RTVSPropertyOp55
 70
     1
102
RTVSPropertyOp56
 70
     1
102
RTVSPropertyOp57
 70
     1
102
RTVSPropertyOp58
 70
     1
102
RTVSPropertyOp59
 70
     1
102
RTVSPropertyOp60
 70
     1
102
RTVSPropertyOp61
 70
     1
102
RTVSPropertyOp62
 70
     1
  0
XRECORD
  5
3C4
102
{ACAD_REACTORS
330
3C3
102
}
330
3C3
100
AcDbXrecord
280
     1
102
RTVSPost2010Prop28
280
     0
102
RTVSPost2010PropOp28
 70
     0
102
RTVSPost2010Prop29
280
     1
102
RTVSPost2010PropOp29
 70
     0
102
RTVSPost2010Prop30
280
     1
102
RTVSPost2010PropOp30
 70
     0
102
RTVSPost2010Prop31
280
     0
102
RTVSPost2010PropOp31
 70
     0
102
RTVSPost2010Prop32
280
     0
102
RTVSPost2010PropOp32
 70
     0
102
RTVSPost2010Prop33
280
     0
102
RTVSPost2010PropOp33
 70
     0
102
RTVSPost2010Prop34
280
     0
102
RTVSPost2010PropOp34
 70
     0
102
RTVSPost2010Prop35
280
     0
102
RTVSPost2010PropOp35
 70
     0
102
RTVSPost2010Prop36
280
     0
102
RTVSPost2010PropOp36
 70
     0
102
RTVSPost2010Prop37
 90
       50
102
RTVSPost2010PropOp37
 70
     0
102
RTVSPost2010Prop38
140
0.0
102
RTVSPost2010PropOp38
 70
     0
102
RTVSPost2010Prop39
140
1.0
102
RTVSPost2010PropOp39
 70
     0
102
RTVSPost2010Prop40
 90
        0
102
RTVSPost2010PropOp40
 70
     0
102
RTVSPost2010Prop41ColorIndex
 90
       18
102
RTVSPost2010Prop41ColorRGB
 90
        0
102
RTVSPost2010PropOp41
 70
     0
102
RTVSPost2010Prop42
 90
       50
102
RTVSPost2010PropOp42
 70
     0
102
RTVSPost2010Prop43
 90
        3
102
RTVSPost2010PropOp43
 70
     0
102
RTVSPost2010Prop44ColorIndex
 90
        5
102
RTVSPost2010Prop44ColorRGB
 90
      255
102
RTVSPost2010PropOp44
 70
     0
102
RTVSPost2010Prop45
280
     0
102
RTVSPost2010PropOp45
 70
     0
102
RTVSPost2010Prop46
 90
       50
102
RTVSPost2010PropOp46
 70
     0
102
RTVSPost2010Prop47
 90
       50
102
RTVSPost2010PropOp47
 70
     0
102
RTVSPost2010Prop48
 90
       50
102
RTVSPost2010PropOp48
 70
     0
102
RTVSPost2010Prop49
280
     0
102
RTVSPost2010PropOp49
 70
     0
102
RTVSPost2010Prop50
 90
       50
102
RTVSPost2010PropOp50
 70
     0
102
RTVSPost2010Prop51ColorIndex
 90
      256
102
RTVSPost2010Prop51ColorRGB
 90
-16777216
102
RTVSPost2010PropOp51
 70
     0
102
RTVSPost2010Prop52
140
1.0
102
RTVSPost2010PropOp52
 70
     0
102
RTVSPost2010Prop53
 90
        2
102
RTVSPost2010PropOp53
 70
     0
102
RTVSPost2010Prop54
  1
strokes_ogs.tif
102
RTVSPost2010PropOp54
 70
     0
102
RTVSPost2010Prop55
280
     0
102
RTVSPost2010PropOp55
 70
     0
102
RTVSPost2010Prop56
140
1.0
102
RTVSPost2010PropOp56
 70
     0
102
RTVSPost2010Prop57
140
1.0
102
RTVSPost2010PropOp57
 70
     0
102
RTVSPropertyOp0
 70
     0
102
RTVSPropertyOp1
 70
     0
102
RTVSPropertyOp2
 70
     0
102
RTVSPropertyOp3
 70
     0
102
RTVSPropertyOp4
 70
     0
102
RTVSPropertyOp5
 70
     0
102
RTVSPropertyOp6
 70
     0
102
RTVSPropertyOp7
 70
     0
102
RTVSPropertyOp8
 70
     0
102
RTVSPropertyOp9
 70
     0
102
RTVSPropertyOp10
 70
     0
102
RTVSPropertyOp11
 70
     0
102
RTVSPropertyOp12
 70
     0
102
RTVSPropertyOp13
 70
     0
102
RTVSPropertyOp14
 70
     2
102
RTVSPropertyOp15
 70
     0
102
RTVSPropertyOp16
 70
     0
102
RTVSPropertyOp17
 70
     0
102
RTVSPropertyOp18
 70
     0
102
RTVSPropertyOp19
 70
     0
102
RTVSPropertyOp20
 70
     0
102
RTVSPropertyOp21
 70
     0
102
RTVSPropertyOp22
 70
     0
102
RTVSPropertyOp23
 70
     0
102
RTVSPropertyOp24
 70
     0
102
RTVSPropertyOp25
 70
     0
102
RTVSPropertyOp26
 70
     0
102
RTVSPropertyOp27
 70
     0
102
RTVSPropertyOp28
 70
     0
102
RTVSPropertyOp29
 70
     0
102
RTVSPropertyOp30
 70
     0
102
RTVSPropertyOp31
 70
     0
102
RTVSPropertyOp32
 70
     0
102
RTVSPropertyOp33
 70
     0
102
RTVSPropertyOp34
 70
     0
102
RTVSPropertyOp35
 70
     0
102
RTVSPropertyOp36
 70
     0
102
RTVSPropertyOp37
 70
     0
102
RTVSPropertyOp38
 70
     0
102
RTVSPropertyOp39
 70
     0
102
RTVSPropertyOp40
 70
     0
102
RTVSPropertyOp41
 70
     0
102
RTVSPropertyOp42
 70
     0
102
RTVSPropertyOp43
 70
     0
102
RTVSPropertyOp44
 70
     0
102
RTVSPropertyOp45
 70
     0
102
RTVSPropertyOp46
 70
     0
102
RTVSPropertyOp47
 70
     0
102
RTVSPropertyOp48
 70
     0
102
RTVSPropertyOp49
 70
     0
102
RTVSPropertyOp50
 70
     0
102
RTVSPropertyOp51
 70
     0
102
RTVSPropertyOp52
 70
     0
102
RTVSPropertyOp53
 70
     0
102
RTVSPropertyOp54
 70
     0
102
RTVSPropertyOp55
 70
     0
102
RTVSPropertyOp56
 70
     0
102
RTVSPropertyOp57
 70
     0
102
RTVSPropertyOp58
 70
     1
102
RTVSPropertyOp59
 70
     1
102
RTVSPropertyOp60
 70
     1
102
RTVSPropertyOp61
 70
     1
102
RTVSPropertyOp62
 70
     1
  0
XRECORD
  5
3B2
102
{ACAD_REACTORS
330
3B1
102
}
330
3B1
100
AcDbXrecord
280
     1
102
RTVSPost2010Prop28
280
     0
102
RTVSPost2010PropOp28
 70
     1
102
RTVSPost2010Prop29
280
     1
102
RTVSPost2010PropOp29
 70
     1
102
RTVSPost2010Prop30
280
     1
102
RTVSPost2010PropOp30
 70
     1
102
RTVSPost2010Prop31
280
     0
102
RTVSPost2010PropOp31
 70
     1
102
RTVSPost2010Prop32
280
     0
102
RTVSPost2010PropOp32
 70
     1
102
RTVSPost2010Prop33
280
     0
102
RTVSPost2010PropOp33
 70
     1
102
RTVSPost2010Prop34
280
     0
102
RTVSPost2010PropOp34
 70
     1
102
RTVSPost2010Prop35
280
     0
102
RTVSPost2010PropOp35
 70
     1
102
RTVSPost2010Prop36
280
     0
102
RTVSPost2010PropOp36
 70
     1
102
RTVSPost2010Prop37
 90
       50
102
RTVSPost2010PropOp37
 70
     1
102
RTVSPost2010Prop38
140
0.0
102
RTVSPost2010PropOp38
 70
     1
102
RTVSPost2010Prop39
140
1.0
102
RTVSPost2010PropOp39
 70
     1
102
RTVSPost2010Prop40
 90
        0
102
RTVSPost2010PropOp40
 70
     1
102
RTVSPost2010Prop41ColorIndex
 90
       18
102
RTVSPost2010Prop41ColorRGB
 90
        0
102
RTVSPost2010PropOp41
 70
     1
102
RTVSPost2010Prop42
 90
       50
102
RTVSPost2010PropOp42
 70
     1
102
RTVSPost2010Prop43
 90
        3
102
RTVSPost2010PropOp43
 70
     1
102
RTVSPost2010Prop44ColorIndex
 90
        5
102
RTVSPost2010Prop44ColorRGB
 90
      255
102
RTVSPost2010PropOp44
 70
     1
102
RTVSPost2010Prop45
280
     0
102
RTVSPost2010PropOp45
 70
     1
102
RTVSPost2010Prop46
 90
       50
102
RTVSPost2010PropOp46
 70
     1
102
RTVSPost2010Prop47
 90
       50
102
RTVSPost2010PropOp47
 70
     1
102
RTVSPost2010Prop48
 90
       50
102
RTVSPost2010PropOp48
 70
     1
102
RTVSPost2010Prop49
280
     0
102
RTVSPost2010PropOp49
 70
     1
102
RTVSPost2010Prop50
 90
       50
102
RTVSPost2010PropOp50
 70
     1
102
RTVSPost2010Prop51ColorIndex
 90
      256
102
RTVSPost2010Prop51ColorRGB
 90
-16777216
102
RTVSPost2010PropOp51
 70
     0
102
RTVSPost2010Prop52
140
1.0
102
RTVSPost2010PropOp52
 70
     0
102
RTVSPost2010Prop53
 90
        2
102
RTVSPost2010PropOp53
 70
     1
102
RTVSPost2010Prop54
  1
strokes_ogs.tif
102
RTVSPost2010PropOp54
 70
     1
102
RTVSPost2010Prop55
280
     0
102
RTVSPost2010PropOp55
 70
     1
102
RTVSPost2010Prop56
140
1.0
102
RTVSPost2010PropOp56
 70
     1
102
RTVSPost2010Prop57
140
1.0
102
RTVSPost2010PropOp57
 70
     1
102
RTVSPropertyOp0
 70
     1
102
RTVSPropertyOp1
 70
     1
102
RTVSPropertyOp2
 70
     1
102
RTVSPropertyOp3
 70
     1
102
RTVSPropertyOp4
 70
     1
102
RTVSPropertyOp5
 70
     1
102
RTVSPropertyOp6
 70
     1
102
RTVSPropertyOp7
 70
     1
102
RTVSPropertyOp8
 70
     1
102
RTVSPropertyOp9
 70
     1
102
RTVSPropertyOp10
 70
     1
102
RTVSPropertyOp11
 70
     1
102
RTVSPropertyOp12
 70
     1
102
RTVSPropertyOp13
 70
     1
102
RTVSPropertyOp14
 70
     1
102
RTVSPropertyOp15
 70
     1
102
RTVSPropertyOp16
 70
     1
102
RTVSPropertyOp17
 70
     1
102
RTVSPropertyOp18
 70
     1
102
RTVSPropertyOp19
 70
     1
102
RTVSPropertyOp20
 70
     1
102
RTVSPropertyOp21
 70
     1
102
RTVSPropertyOp22
 70
     1
102
RTVSPropertyOp23
 70
     1
102
RTVSPropertyOp24
 70
     1
102
RTVSPropertyOp25
 70
     1
102
RTVSPropertyOp26
 70
     1
102
RTVSPropertyOp27
 70
     1
102
RTVSPropertyOp28
 70
     1
102
RTVSPropertyOp29
 70
     1
102
RTVSPropertyOp30
 70
     1
102
RTVSPropertyOp31
 70
     1
102
RTVSPropertyOp32
 70
     1
102
RTVSPropertyOp33
 70
     1
102
RTVSPropertyOp34
 70
     1
102
RTVSPropertyOp35
 70
     1
102
RTVSPropertyOp36
 70
     1
102
RTVSPropertyOp37
 70
     1
102
RTVSPropertyOp38
 70
     1
102
RTVSPropertyOp39
 70
     1
102
RTVSPropertyOp40
 70
     1
102
RTVSPropertyOp41
 70
     1
102
RTVSPropertyOp42
 70
     1
102
RTVSPropertyOp43
 70
     1
102
RTVSPropertyOp44
 70
     1
102
RTVSPropertyOp45
 70
     1
102
RTVSPropertyOp46
 70
     1
102
RTVSPropertyOp47
 70
     1
102
RTVSPropertyOp48
 70
     1
102
RTVSPropertyOp49
 70
     1
102
RTVSPropertyOp50
 70
     1
102
RTVSPropertyOp51
 70
     0
102
RTVSPropertyOp52
 70
     0
102
RTVSPropertyOp53
 70
     1
102
RTVSPropertyOp54
 70
     1
102
RTVSPropertyOp55
 70
     1
102
RTVSPropertyOp56
 70
     1
102
RTVSPropertyOp57
 70
     1
102
RTVSPropertyOp58
 70
     1
102
RTVSPropertyOp59
 70
     1
102
RTVSPropertyOp60
 70
     1
102
RTVSPropertyOp61
 70
     1
102
RTVSPropertyOp62
 70
     1
  0
XRECORD
  5
3D0
102
{ACAD_REACTORS
330
3CF
102
}
330
3CF
100
AcDbXrecord
280
     1
102
RTVSPost2010Prop28
280
     0
102
RTVSPost2010PropOp28
 70
     1
102
RTVSPost2010Prop29
280
     1
102
RTVSPost2010PropOp29
 70
     1
102
RTVSPost2010Prop30
280
     1
102
RTVSPost2010PropOp30
 70
     1
102
RTVSPost2010Prop31
280
     0
102
RTVSPost2010PropOp31
 70
     1
102
RTVSPost2010Prop32
280
     0
102
RTVSPost2010PropOp32
 70
     1
102
RTVSPost2010Prop33
280
     0
102
RTVSPost2010PropOp33
 70
     1
102
RTVSPost2010Prop34
280
     0
102
RTVSPost2010PropOp34
 70
     1
102
RTVSPost2010Prop35
280
     0
102
RTVSPost2010PropOp35
 70
     1
102
RTVSPost2010Prop36
280
     0
102
RTVSPost2010PropOp36
 70
     1
102
RTVSPost2010Prop37
 90
       50
102
RTVSPost2010PropOp37
 70
     1
102
RTVSPost2010Prop38
140
0.0
102
RTVSPost2010PropOp38
 70
     1
102
RTVSPost2010Prop39
140
1.0
102
RTVSPost2010PropOp39
 70
     1
102
RTVSPost2010Prop40
 90
        0
102
RTVSPost2010PropOp40
 70
     1
102
RTVSPost2010Prop41ColorIndex
 90
       18
102
RTVSPost2010Prop41ColorRGB
 90
        0
102
RTVSPost2010PropOp41
 70
     1
102
RTVSPost2010Prop42
 90
       50
102
RTVSPost2010PropOp42
 70
     1
102
RTVSPost2010Prop43
 90
        3
102
RTVSPost2010PropOp43
 70
     1
102
RTVSPost2010Prop44ColorIndex
 90
        5
102
RTVSPost2010Prop44ColorRGB
 90
      255
102
RTVSPost2010PropOp44
 70
     1
102
RTVSPost2010Prop45
280
     0
102
RTVSPost2010PropOp45
 70
     1
102
RTVSPost2010Prop46
 90
       50
102
RTVSPost2010PropOp46
 70
     1
102
RTVSPost2010Prop47
 90
       50
102
RTVSPost2010PropOp47
 70
     1
102
RTVSPost2010Prop48
 90
       50
102
RTVSPost2010PropOp48
 70
     1
102
RTVSPost2010Prop49
280
     0
102
RTVSPost2010PropOp49
 70
     1
102
RTVSPost2010Prop50
 90
       50
102
RTVSPost2010PropOp50
 70
     1
102
RTVSPost2010Prop51ColorIndex
 90
      256
102
RTVSPost2010Prop51ColorRGB
 90
-16777216
102
RTVSPost2010PropOp51
 70
     0
102
RTVSPost2010Prop52
140
1.0
102
RTVSPost2010PropOp52
 70
     0
102
RTVSPost2010Prop53
 90
        2
102
RTVSPost2010PropOp53
 70
     1
102
RTVSPost2010Prop54
  1
strokes_ogs.tif
102
RTVSPost2010PropOp54
 70
     1
102
RTVSPost2010Prop55
280
     0
102
RTVSPost2010PropOp55
 70
     1
102
RTVSPost2010Prop56
140
1.0
102
RTVSPost2010PropOp56
 70
     1
102
RTVSPost2010Prop57
140
1.0
102
RTVSPost2010PropOp57
 70
     1
102
RTVSPropertyOp0
 70
     1
102
RTVSPropertyOp1
 70
     1
102
RTVSPropertyOp2
 70
     1
102
RTVSPropertyOp3
 70
     1
102
RTVSPropertyOp4
 70
     1
102
RTVSPropertyOp5
 70
     1
102
RTVSPropertyOp6
 70
     1
102
RTVSPropertyOp7
 70
     1
102
RTVSPropertyOp8
 70
     1
102
RTVSPropertyOp9
 70
     1
102
RTVSPropertyOp10
 70
     1
102
RTVSPropertyOp11
 70
     1
102
RTVSPropertyOp12
 70
     1
102
RTVSPropertyOp13
 70
     1
102
RTVSPropertyOp14
 70
     1
102
RTVSPropertyOp15
 70
     1
102
RTVSPropertyOp16
 70
     1
102
RTVSPropertyOp17
 70
     1
102
RTVSPropertyOp18
 70
     1
102
RTVSPropertyOp19
 70
     1
102
RTVSPropertyOp20
 70
     1
102
RTVSPropertyOp21
 70
     1
102
RTVSPropertyOp22
 70
     1
102
RTVSPropertyOp23
 70
     1
102
RTVSPropertyOp24
 70
     1
102
RTVSPropertyOp25
 70
     1
102
RTVSPropertyOp26
 70
     1
102
RTVSPropertyOp27
 70
     1
102
RTVSPropertyOp28
 70
     1
102
RTVSPropertyOp29
 70
     1
102
RTVSPropertyOp30
 70
     1
102
RTVSPropertyOp31
 70
     1
102
RTVSPropertyOp32
 70
     1
102
RTVSPropertyOp33
 70
     1
102
RTVSPropertyOp34
 70
     1
102
RTVSPropertyOp35
 70
     1
102
RTVSPropertyOp36
 70
     1
102
RTVSPropertyOp37
 70
     1
102
RTVSPropertyOp38
 70
     1
102
RTVSPropertyOp39
 70
     1
102
RTVSPropertyOp40
 70
     1
102
RTVSPropertyOp41
 70
     1
102
RTVSPropertyOp42
 70
     1
102
RTVSPropertyOp43
 70
     1
102
RTVSPropertyOp44
 70
     1
102
RTVSPropertyOp45
 70
     1
102
RTVSPropertyOp46
 70
     1
102
RTVSPropertyOp47
 70
     1
102
RTVSPropertyOp48
 70
     1
102
RTVSPropertyOp49
 70
     1
102
RTVSPropertyOp50
 70
     1
102
RTVSPropertyOp51
 70
     0
102
RTVSPropertyOp52
 70
     0
102
RTVSPropertyOp53
 70
     1
102
RTVSPropertyOp54
 70
     1
102
RTVSPropertyOp55
 70
     1
102
RTVSPropertyOp56
 70
     1
102
RTVSPropertyOp57
 70
     1
102
RTVSPropertyOp58
 70
     1
102
RTVSPropertyOp59
 70
     1
102
RTVSPropertyOp60
 70
     1
102
RTVSPropertyOp61
 70
     1
102
RTVSPropertyOp62
 70
     1
  0
XRECORD
  5
3CE
102
{ACAD_REACTORS
330
3CD
102
}
330
3CD
100
AcDbXrecord
280
     1
102
RTVSPost2010Prop28
280
     0
102
RTVSPost2010PropOp28
 70
     1
102
RTVSPost2010Prop29
280
     1
102
RTVSPost2010PropOp29
 70
     1
102
RTVSPost2010Prop30
280
     1
102
RTVSPost2010PropOp30
 70
     1
102
RTVSPost2010Prop31
280
     0
102
RTVSPost2010PropOp31
 70
     1
102
RTVSPost2010Prop32
280
     0
102
RTVSPost2010PropOp32
 70
     1
102
RTVSPost2010Prop33
280
     0
102
RTVSPost2010PropOp33
 70
     1
102
RTVSPost2010Prop34
280
     0
102
RTVSPost2010PropOp34
 70
     1
102
RTVSPost2010Prop35
280
     0
102
RTVSPost2010PropOp35
 70
     1
102
RTVSPost2010Prop36
280
     0
102
RTVSPost2010PropOp36
 70
     1
102
RTVSPost2010Prop37
 90
       50
102
RTVSPost2010PropOp37
 70
     1
102
RTVSPost2010Prop38
140
0.0
102
RTVSPost2010PropOp38
 70
     1
102
RTVSPost2010Prop39
140
1.0
102
RTVSPost2010PropOp39
 70
     1
102
RTVSPost2010Prop40
 90
        0
102
RTVSPost2010PropOp40
 70
     1
102
RTVSPost2010Prop41ColorIndex
 90
       18
102
RTVSPost2010Prop41ColorRGB
 90
        0
102
RTVSPost2010PropOp41
 70
     1
102
RTVSPost2010Prop42
 90
       50
102
RTVSPost2010PropOp42
 70
     1
102
RTVSPost2010Prop43
 90
        3
102
RTVSPost2010PropOp43
 70
     1
102
RTVSPost2010Prop44ColorIndex
 90
        5
102
RTVSPost2010Prop44ColorRGB
 90
      255
102
RTVSPost2010PropOp44
 70
     1
102
RTVSPost2010Prop45
280
     0
102
RTVSPost2010PropOp45
 70
     1
102
RTVSPost2010Prop46
 90
       50
102
RTVSPost2010PropOp46
 70
     1
102
RTVSPost2010Prop47
 90
       50
102
RTVSPost2010PropOp47
 70
     1
102
RTVSPost2010Prop48
 90
       50
102
RTVSPost2010PropOp48
 70
     1
102
RTVSPost2010Prop49
280
     0
102
RTVSPost2010PropOp49
 70
     1
102
RTVSPost2010Prop50
 90
       50
102
RTVSPost2010PropOp50
 70
     1
102
RTVSPost2010Prop51ColorIndex
 90
      256
102
RTVSPost2010Prop51ColorRGB
 90
-16777216
102
RTVSPost2010PropOp51
 70
     0
102
RTVSPost2010Prop52
140
1.0
102
RTVSPost2010PropOp52
 70
     0
102
RTVSPost2010Prop53
 90
        2
102
RTVSPost2010PropOp53
 70
     1
102
RTVSPost2010Prop54
  1
strokes_ogs.tif
102
RTVSPost2010PropOp54
 70
     1
102
RTVSPost2010Prop55
280
     0
102
RTVSPost2010PropOp55
 70
     1
102
RTVSPost2010Prop56
140
1.0
102
RTVSPost2010PropOp56
 70
     1
102
RTVSPost2010Prop57
140
1.0
102
RTVSPost2010PropOp57
 70
     1
102
RTVSPropertyOp0
 70
     1
102
RTVSPropertyOp1
 70
     1
102
RTVSPropertyOp2
 70
     1
102
RTVSPropertyOp3
 70
     1
102
RTVSPropertyOp4
 70
     1
102
RTVSPropertyOp5
 70
     1
102
RTVSPropertyOp6
 70
     1
102
RTVSPropertyOp7
 70
     1
102
RTVSPropertyOp8
 70
     1
102
RTVSPropertyOp9
 70
     1
102
RTVSPropertyOp10
 70
     1
102
RTVSPropertyOp11
 70
     1
102
RTVSPropertyOp12
 70
     1
102
RTVSPropertyOp13
 70
     1
102
RTVSPropertyOp14
 70
     1
102
RTVSPropertyOp15
 70
     1
102
RTVSPropertyOp16
 70
     1
102
RTVSPropertyOp17
 70
     1
102
RTVSPropertyOp18
 70
     1
102
RTVSPropertyOp19
 70
     1
102
RTVSPropertyOp20
 70
     1
102
RTVSPropertyOp21
 70
     1
102
RTVSPropertyOp22
 70
     1
102
RTVSPropertyOp23
 70
     1
102
RTVSPropertyOp24
 70
     1
102
RTVSPropertyOp25
 70
     1
102
RTVSPropertyOp26
 70
     1
102
RTVSPropertyOp27
 70
     1
102
RTVSPropertyOp28
 70
     1
102
RTVSPropertyOp29
 70
     1
102
RTVSPropertyOp30
 70
     1
102
RTVSPropertyOp31
 70
     1
102
RTVSPropertyOp32
 70
     1
102
RTVSPropertyOp33
 70
     1
102
RTVSPropertyOp34
 70
     1
102
RTVSPropertyOp35
 70
     1
102
RTVSPropertyOp36
 70
     1
102
RTVSPropertyOp37
 70
     1
102
RTVSPropertyOp38
 70
     1
102
RTVSPropertyOp39
 70
     1
102
RTVSPropertyOp40
 70
     1
102
RTVSPropertyOp41
 70
     1
102
RTVSPropertyOp42
 70
     1
102
RTVSPropertyOp43
 70
     1
102
RTVSPropertyOp44
 70
     1
102
RTVSPropertyOp45
 70
     1
102
RTVSPropertyOp46
 70
     1
102
RTVSPropertyOp47
 70
     1
102
RTVSPropertyOp48
 70
     1
102
RTVSPropertyOp49
 70
     1
102
RTVSPropertyOp50
 70
     1
102
RTVSPropertyOp51
 70
     0
102
RTVSPropertyOp52
 70
     0
102
RTVSPropertyOp53
 70
     1
102
RTVSPropertyOp54
 70
     1
102
RTVSPropertyOp55
 70
     1
102
RTVSPropertyOp56
 70
     1
102
RTVSPropertyOp57
 70
     1
102
RTVSPropertyOp58
 70
     1
102
RTVSPropertyOp59
 70
     1
102
RTVSPropertyOp60
 70
     1
102
RTVSPropertyOp61
 70
     1
102
RTVSPropertyOp62
 70
     1
  0
XRECORD
  5
3C8
102
{ACAD_REACTORS
330
3C7
102
}
330
3C7
100
AcDbXrecord
280
     1
102
RTVSPost2010Prop28
280
     0
102
RTVSPost2010PropOp28
 70
     1
102
RTVSPost2010Prop29
280
     1
102
RTVSPost2010PropOp29
 70
     1
102
RTVSPost2010Prop30
280
     1
102
RTVSPost2010PropOp30
 70
     1
102
RTVSPost2010Prop31
280
     0
102
RTVSPost2010PropOp31
 70
     1
102
RTVSPost2010Prop32
280
     0
102
RTVSPost2010PropOp32
 70
     1
102
RTVSPost2010Prop33
280
     0
102
RTVSPost2010PropOp33
 70
     1
102
RTVSPost2010Prop34
280
     0
102
RTVSPost2010PropOp34
 70
     1
102
RTVSPost2010Prop35
280
     0
102
RTVSPost2010PropOp35
 70
     1
102
RTVSPost2010Prop36
280
     0
102
RTVSPost2010PropOp36
 70
     1
102
RTVSPost2010Prop37
 90
       50
102
RTVSPost2010PropOp37
 70
     1
102
RTVSPost2010Prop38
140
0.0
102
RTVSPost2010PropOp38
 70
     1
102
RTVSPost2010Prop39
140
1.0
102
RTVSPost2010PropOp39
 70
     1
102
RTVSPost2010Prop40
 90
        0
102
RTVSPost2010PropOp40
 70
     1
102
RTVSPost2010Prop41ColorIndex
 90
       18
102
RTVSPost2010Prop41ColorRGB
 90
        0
102
RTVSPost2010PropOp41
 70
     1
102
RTVSPost2010Prop42
 90
       50
102
RTVSPost2010PropOp42
 70
     1
102
RTVSPost2010Prop43
 90
        3
102
RTVSPost2010PropOp43
 70
     1
102
RTVSPost2010Prop44ColorIndex
 90
        5
102
RTVSPost2010Prop44ColorRGB
 90
      255
102
RTVSPost2010PropOp44
 70
     1
102
RTVSPost2010Prop45
280
     0
102
RTVSPost2010PropOp45
 70
     1
102
RTVSPost2010Prop46
 90
       50
102
RTVSPost2010PropOp46
 70
     1
102
RTVSPost2010Prop47
 90
       50
102
RTVSPost2010PropOp47
 70
     1
102
RTVSPost2010Prop48
 90
       50
102
RTVSPost2010PropOp48
 70
     1
102
RTVSPost2010Prop49
280
     0
102
RTVSPost2010PropOp49
 70
     1
102
RTVSPost2010Prop50
 90
       50
102
RTVSPost2010PropOp50
 70
     1
102
RTVSPost2010Prop51ColorIndex
 90
      256
102
RTVSPost2010Prop51ColorRGB
 90
-16777216
102
RTVSPost2010PropOp51
 70
     0
102
RTVSPost2010Prop52
140
1.0
102
RTVSPost2010PropOp52
 70
     0
102
RTVSPost2010Prop53
 90
        2
102
RTVSPost2010PropOp53
 70
     1
102
RTVSPost2010Prop54
  1
strokes_ogs.tif
102
RTVSPost2010PropOp54
 70
     1
102
RTVSPost2010Prop55
280
     0
102
RTVSPost2010PropOp55
 70
     1
102
RTVSPost2010Prop56
140
1.0
102
RTVSPost2010PropOp56
 70
     1
102
RTVSPost2010Prop57
140
1.0
102
RTVSPost2010PropOp57
 70
     1
102
RTVSPropertyOp0
 70
     1
102
RTVSPropertyOp1
 70
     1
102
RTVSPropertyOp2
 70
     1
102
RTVSPropertyOp3
 70
     1
102
RTVSPropertyOp4
 70
     1
102
RTVSPropertyOp5
 70
     1
102
RTVSPropertyOp6
 70
     1
102
RTVSPropertyOp7
 70
     1
102
RTVSPropertyOp8
 70
     1
102
RTVSPropertyOp9
 70
     1
102
RTVSPropertyOp10
 70
     1
102
RTVSPropertyOp11
 70
     1
102
RTVSPropertyOp12
 70
     1
102
RTVSPropertyOp13
 70
     1
102
RTVSPropertyOp14
 70
     1
102
RTVSPropertyOp15
 70
     1
102
RTVSPropertyOp16
 70
     1
102
RTVSPropertyOp17
 70
     1
102
RTVSPropertyOp18
 70
     1
102
RTVSPropertyOp19
 70
     1
102
RTVSPropertyOp20
 70
     1
102
RTVSPropertyOp21
 70
     1
102
RTVSPropertyOp22
 70
     1
102
RTVSPropertyOp23
 70
     1
102
RTVSPropertyOp24
 70
     1
102
RTVSPropertyOp25
 70
     1
102
RTVSPropertyOp26
 70
     1
102
RTVSPropertyOp27
 70
     1
102
RTVSPropertyOp28
 70
     1
102
RTVSPropertyOp29
 70
     1
102
RTVSPropertyOp30
 70
     1
102
RTVSPropertyOp31
 70
     1
102
RTVSPropertyOp32
 70
     1
102
RTVSPropertyOp33
 70
     1
102
RTVSPropertyOp34
 70
     1
102
RTVSPropertyOp35
 70
     1
102
RTVSPropertyOp36
 70
     1
102
RTVSPropertyOp37
 70
     1
102
RTVSPropertyOp38
 70
     1
102
RTVSPropertyOp39
 70
     1
102
RTVSPropertyOp40
 70
     1
102
RTVSPropertyOp41
 70
     1
102
RTVSPropertyOp42
 70
     1
102
RTVSPropertyOp43
 70
     1
102
RTVSPropertyOp44
 70
     1
102
RTVSPropertyOp45
 70
     1
102
RTVSPropertyOp46
 70
     1
102
RTVSPropertyOp47
 70
     1
102
RTVSPropertyOp48
 70
     1
102
RTVSPropertyOp49
 70
     1
102
RTVSPropertyOp50
 70
     1
102
RTVSPropertyOp51
 70
     0
102
RTVSPropertyOp52
 70
     0
102
RTVSPropertyOp53
 70
     1
102
RTVSPropertyOp54
 70
     1
102
RTVSPropertyOp55
 70
     1
102
RTVSPropertyOp56
 70
     1
102
RTVSPropertyOp57
 70
     1
102
RTVSPropertyOp58
 70
     1
102
RTVSPropertyOp59
 70
     1
102
RTVSPropertyOp60
 70
     1
102
RTVSPropertyOp61
 70
     1
102
RTVSPropertyOp62
 70
     1
  0
XRECORD
  5
3CA
102
{ACAD_REACTORS
330
3C9
102
}
330
3C9
100
AcDbXrecord
280
     1
102
RTVSPost2010Prop28
280
     0
102
RTVSPost2010PropOp28
 70
     1
102
RTVSPost2010Prop29
280
     1
102
RTVSPost2010PropOp29
 70
     1
102
RTVSPost2010Prop30
280
     1
102
RTVSPost2010PropOp30
 70
     1
102
RTVSPost2010Prop31
280
     0
102
RTVSPost2010PropOp31
 70
     1
102
RTVSPost2010Prop32
280
     0
102
RTVSPost2010PropOp32
 70
     1
102
RTVSPost2010Prop33
280
     0
102
RTVSPost2010PropOp33
 70
     1
102
RTVSPost2010Prop34
280
     0
102
RTVSPost2010PropOp34
 70
     1
102
RTVSPost2010Prop35
280
     0
102
RTVSPost2010PropOp35
 70
     1
102
RTVSPost2010Prop36
280
     0
102
RTVSPost2010PropOp36
 70
     1
102
RTVSPost2010Prop37
 90
       50
102
RTVSPost2010PropOp37
 70
     1
102
RTVSPost2010Prop38
140
0.0
102
RTVSPost2010PropOp38
 70
     1
102
RTVSPost2010Prop39
140
1.0
102
RTVSPost2010PropOp39
 70
     1
102
RTVSPost2010Prop40
 90
        0
102
RTVSPost2010PropOp40
 70
     1
102
RTVSPost2010Prop41ColorIndex
 90
       18
102
RTVSPost2010Prop41ColorRGB
 90
        0
102
RTVSPost2010PropOp41
 70
     1
102
RTVSPost2010Prop42
 90
       50
102
RTVSPost2010PropOp42
 70
     1
102
RTVSPost2010Prop43
 90
        3
102
RTVSPost2010PropOp43
 70
     1
102
RTVSPost2010Prop44ColorIndex
 90
        5
102
RTVSPost2010Prop44ColorRGB
 90
      255
102
RTVSPost2010PropOp44
 70
     1
102
RTVSPost2010Prop45
280
     0
102
RTVSPost2010PropOp45
 70
     1
102
RTVSPost2010Prop46
 90
       50
102
RTVSPost2010PropOp46
 70
     1
102
RTVSPost2010Prop47
 90
       50
102
RTVSPost2010PropOp47
 70
     1
102
RTVSPost2010Prop48
 90
       50
102
RTVSPost2010PropOp48
 70
     1
102
RTVSPost2010Prop49
280
     0
102
RTVSPost2010PropOp49
 70
     1
102
RTVSPost2010Prop50
 90
       50
102
RTVSPost2010PropOp50
 70
     1
102
RTVSPost2010Prop51ColorIndex
 90
      256
102
RTVSPost2010Prop51ColorRGB
 90
-16777216
102
RTVSPost2010PropOp51
 70
     0
102
RTVSPost2010Prop52
140
1.0
102
RTVSPost2010PropOp52
 70
     0
102
RTVSPost2010Prop53
 90
        2
102
RTVSPost2010PropOp53
 70
     1
102
RTVSPost2010Prop54
  1
strokes_ogs.tif
102
RTVSPost2010PropOp54
 70
     1
102
RTVSPost2010Prop55
280
     0
102
RTVSPost2010PropOp55
 70
     1
102
RTVSPost2010Prop56
140
1.0
102
RTVSPost2010PropOp56
 70
     1
102
RTVSPost2010Prop57
140
1.0
102
RTVSPost2010PropOp57
 70
     1
102
RTVSPropertyOp0
 70
     1
102
RTVSPropertyOp1
 70
     1
102
RTVSPropertyOp2
 70
     1
102
RTVSPropertyOp3
 70
     1
102
RTVSPropertyOp4
 70
     1
102
RTVSPropertyOp5
 70
     1
102
RTVSPropertyOp6
 70
     1
102
RTVSPropertyOp7
 70
     1
102
RTVSPropertyOp8
 70
     1
102
RTVSPropertyOp9
 70
     1
102
RTVSPropertyOp10
 70
     1
102
RTVSPropertyOp11
 70
     1
102
RTVSPropertyOp12
 70
     1
102
RTVSPropertyOp13
 70
     1
102
RTVSPropertyOp14
 70
     1
102
RTVSPropertyOp15
 70
     1
102
RTVSPropertyOp16
 70
     1
102
RTVSPropertyOp17
 70
     1
102
RTVSPropertyOp18
 70
     1
102
RTVSPropertyOp19
 70
     1
102
RTVSPropertyOp20
 70
     1
102
RTVSPropertyOp21
 70
     1
102
RTVSPropertyOp22
 70
     1
102
RTVSPropertyOp23
 70
     1
102
RTVSPropertyOp24
 70
     1
102
RTVSPropertyOp25
 70
     1
102
RTVSPropertyOp26
 70
     1
102
RTVSPropertyOp27
 70
     1
102
RTVSPropertyOp28
 70
     1
102
RTVSPropertyOp29
 70
     1
102
RTVSPropertyOp30
 70
     1
102
RTVSPropertyOp31
 70
     1
102
RTVSPropertyOp32
 70
     1
102
RTVSPropertyOp33
 70
     1
102
RTVSPropertyOp34
 70
     1
102
RTVSPropertyOp35
 70
     1
102
RTVSPropertyOp36
 70
     1
102
RTVSPropertyOp37
 70
     1
102
RTVSPropertyOp38
 70
     1
102
RTVSPropertyOp39
 70
     1
102
RTVSPropertyOp40
 70
     1
102
RTVSPropertyOp41
 70
     1
102
RTVSPropertyOp42
 70
     1
102
RTVSPropertyOp43
 70
     1
102
RTVSPropertyOp44
 70
     1
102
RTVSPropertyOp45
 70
     1
102
RTVSPropertyOp46
 70
     1
102
RTVSPropertyOp47
 70
     1
102
RTVSPropertyOp48
 70
     1
102
RTVSPropertyOp49
 70
     1
102
RTVSPropertyOp50
 70
     1
102
RTVSPropertyOp51
 70
     0
102
RTVSPropertyOp52
 70
     0
102
RTVSPropertyOp53
 70
     1
102
RTVSPropertyOp54
 70
     1
102
RTVSPropertyOp55
 70
     1
102
RTVSPropertyOp56
 70
     1
102
RTVSPropertyOp57
 70
     1
102
RTVSPropertyOp58
 70
     1
102
RTVSPropertyOp59
 70
     1
102
RTVSPropertyOp60
 70
     1
102
RTVSPropertyOp61
 70
     1
102
RTVSPropertyOp62
 70
     1
  0
XRECORD
  5
3BA
102
{ACAD_REACTORS
330
3B9
102
}
330
3B9
100
AcDbXrecord
280
     1
102
RTVSPost2010Prop28
280
     0
102
RTVSPost2010PropOp28
 70
     1
102
RTVSPost2010Prop29
280
     1
102
RTVSPost2010PropOp29
 70
     1
102
RTVSPost2010Prop30
280
     1
102
RTVSPost2010PropOp30
 70
     1
102
RTVSPost2010Prop31
280
     0
102
RTVSPost2010PropOp31
 70
     1
102
RTVSPost2010Prop32
280
     0
102
RTVSPost2010PropOp32
 70
     1
102
RTVSPost2010Prop33
280
     0
102
RTVSPost2010PropOp33
 70
     1
102
RTVSPost2010Prop34
280
     0
102
RTVSPost2010PropOp34
 70
     1
102
RTVSPost2010Prop35
280
     0
102
RTVSPost2010PropOp35
 70
     1
102
RTVSPost2010Prop36
280
     0
102
RTVSPost2010PropOp36
 70
     1
102
RTVSPost2010Prop37
 90
       50
102
RTVSPost2010PropOp37
 70
     1
102
RTVSPost2010Prop38
140
0.0
102
RTVSPost2010PropOp38
 70
     1
102
RTVSPost2010Prop39
140
1.0
102
RTVSPost2010PropOp39
 70
     1
102
RTVSPost2010Prop40
 90
        0
102
RTVSPost2010PropOp40
 70
     1
102
RTVSPost2010Prop41ColorIndex
 90
       18
102
RTVSPost2010Prop41ColorRGB
 90
        0
102
RTVSPost2010PropOp41
 70
     1
102
RTVSPost2010Prop42
 90
       50
102
RTVSPost2010PropOp42
 70
     1
102
RTVSPost2010Prop43
 90
        3
102
RTVSPost2010PropOp43
 70
     1
102
RTVSPost2010Prop44ColorIndex
 90
        5
102
RTVSPost2010Prop44ColorRGB
 90
      255
102
RTVSPost2010PropOp44
 70
     1
102
RTVSPost2010Prop45
280
     0
102
RTVSPost2010PropOp45
 70
     1
102
RTVSPost2010Prop46
 90
       50
102
RTVSPost2010PropOp46
 70
     1
102
RTVSPost2010Prop47
 90
       50
102
RTVSPost2010PropOp47
 70
     1
102
RTVSPost2010Prop48
 90
       50
102
RTVSPost2010PropOp48
 70
     1
102
RTVSPost2010Prop49
280
     0
102
RTVSPost2010PropOp49
 70
     1
102
RTVSPost2010Prop50
 90
       50
102
RTVSPost2010PropOp50
 70
     1
102
RTVSPost2010Prop51ColorIndex
 90
      256
102
RTVSPost2010Prop51ColorRGB
 90
-16777216
102
RTVSPost2010PropOp51
 70
     0
102
RTVSPost2010Prop52
140
1.0
102
RTVSPost2010PropOp52
 70
     0
102
RTVSPost2010Prop53
 90
        2
102
RTVSPost2010PropOp53
 70
     1
102
RTVSPost2010Prop54
  1
strokes_ogs.tif
102
RTVSPost2010PropOp54
 70
     1
102
RTVSPost2010Prop55
280
     0
102
RTVSPost2010PropOp55
 70
     1
102
RTVSPost2010Prop56
140
1.0
102
RTVSPost2010PropOp56
 70
     1
102
RTVSPost2010Prop57
140
1.0
102
RTVSPost2010PropOp57
 70
     1
102
RTVSPropertyOp0
 70
     1
102
RTVSPropertyOp1
 70
     1
102
RTVSPropertyOp2
 70
     1
102
RTVSPropertyOp3
 70
     1
102
RTVSPropertyOp4
 70
     1
102
RTVSPropertyOp5
 70
     1
102
RTVSPropertyOp6
 70
     1
102
RTVSPropertyOp7
 70
     1
102
RTVSPropertyOp8
 70
     1
102
RTVSPropertyOp9
 70
     1
102
RTVSPropertyOp10
 70
     1
102
RTVSPropertyOp11
 70
     1
102
RTVSPropertyOp12
 70
     1
102
RTVSPropertyOp13
 70
     1
102
RTVSPropertyOp14
 70
     1
102
RTVSPropertyOp15
 70
     1
102
RTVSPropertyOp16
 70
     1
102
RTVSPropertyOp17
 70
     1
102
RTVSPropertyOp18
 70
     1
102
RTVSPropertyOp19
 70
     1
102
RTVSPropertyOp20
 70
     1
102
RTVSPropertyOp21
 70
     1
102
RTVSPropertyOp22
 70
     1
102
RTVSPropertyOp23
 70
     1
102
RTVSPropertyOp24
 70
     1
102
RTVSPropertyOp25
 70
     1
102
RTVSPropertyOp26
 70
     1
102
RTVSPropertyOp27
 70
     1
102
RTVSPropertyOp28
 70
     1
102
RTVSPropertyOp29
 70
     1
102
RTVSPropertyOp30
 70
     1
102
RTVSPropertyOp31
 70
     1
102
RTVSPropertyOp32
 70
     1
102
RTVSPropertyOp33
 70
     1
102
RTVSPropertyOp34
 70
     1
102
RTVSPropertyOp35
 70
     1
102
RTVSPropertyOp36
 70
     1
102
RTVSPropertyOp37
 70
     1
102
RTVSPropertyOp38
 70
     1
102
RTVSPropertyOp39
 70
     1
102
RTVSPropertyOp40
 70
     1
102
RTVSPropertyOp41
 70
     1
102
RTVSPropertyOp42
 70
     1
102
RTVSPropertyOp43
 70
     1
102
RTVSPropertyOp44
 70
     1
102
RTVSPropertyOp45
 70
     1
102
RTVSPropertyOp46
 70
     1
102
RTVSPropertyOp47
 70
     1
102
RTVSPropertyOp48
 70
     1
102
RTVSPropertyOp49
 70
     1
102
RTVSPropertyOp50
 70
     1
102
RTVSPropertyOp51
 70
     0
102
RTVSPropertyOp52
 70
     0
102
RTVSPropertyOp53
 70
     1
102
RTVSPropertyOp54
 70
     1
102
RTVSPropertyOp55
 70
     1
102
RTVSPropertyOp56
 70
     1
102
RTVSPropertyOp57
 70
     1
102
RTVSPropertyOp58
 70
     1
102
RTVSPropertyOp59
 70
     1
102
RTVSPropertyOp60
 70
     1
102
RTVSPropertyOp61
 70
     1
102
RTVSPropertyOp62
 70
     1
  0
XRECORD
  5
3AC
102
{ACAD_REACTORS
330
3AB
102
}
330
3AB
100
AcDbXrecord
280
     1
102
RTVSPost2010Prop28
280
     0
102
RTVSPost2010PropOp28
 70
     1
102
RTVSPost2010Prop29
280
     1
102
RTVSPost2010PropOp29
 70
     1
102
RTVSPost2010Prop30
280
     1
102
RTVSPost2010PropOp30
 70
     1
102
RTVSPost2010Prop31
280
     0
102
RTVSPost2010PropOp31
 70
     1
102
RTVSPost2010Prop32
280
     0
102
RTVSPost2010PropOp32
 70
     1
102
RTVSPost2010Prop33
280
     0
102
RTVSPost2010PropOp33
 70
     1
102
RTVSPost2010Prop34
280
     0
102
RTVSPost2010PropOp34
 70
     1
102
RTVSPost2010Prop35
280
     0
102
RTVSPost2010PropOp35
 70
     1
102
RTVSPost2010Prop36
280
     0
102
RTVSPost2010PropOp36
 70
     1
102
RTVSPost2010Prop37
 90
       50
102
RTVSPost2010PropOp37
 70
     1
102
RTVSPost2010Prop38
140
0.0
102
RTVSPost2010PropOp38
 70
     1
102
RTVSPost2010Prop39
140
1.0
102
RTVSPost2010PropOp39
 70
     1
102
RTVSPost2010Prop40
 90
        0
102
RTVSPost2010PropOp40
 70
     1
102
RTVSPost2010Prop41ColorIndex
 90
       18
102
RTVSPost2010Prop41ColorRGB
 90
        0
102
RTVSPost2010PropOp41
 70
     1
102
RTVSPost2010Prop42
 90
       50
102
RTVSPost2010PropOp42
 70
     1
102
RTVSPost2010Prop43
 90
        3
102
RTVSPost2010PropOp43
 70
     1
102
RTVSPost2010Prop44ColorIndex
 90
        5
102
RTVSPost2010Prop44ColorRGB
 90
      255
102
RTVSPost2010PropOp44
 70
     1
102
RTVSPost2010Prop45
280
     0
102
RTVSPost2010PropOp45
 70
     1
102
RTVSPost2010Prop46
 90
       50
102
RTVSPost2010PropOp46
 70
     1
102
RTVSPost2010Prop47
 90
       50
102
RTVSPost2010PropOp47
 70
     1
102
RTVSPost2010Prop48
 90
       50
102
RTVSPost2010PropOp48
 70
     1
102
RTVSPost2010Prop49
280
     0
102
RTVSPost2010PropOp49
 70
     1
102
RTVSPost2010Prop50
 90
       50
102
RTVSPost2010PropOp50
 70
     1
102
RTVSPost2010Prop51ColorIndex
 90
      256
102
RTVSPost2010Prop51ColorRGB
 90
-16777216
102
RTVSPost2010PropOp51
 70
     0
102
RTVSPost2010Prop52
140
1.0
102
RTVSPost2010PropOp52
 70
     0
102
RTVSPost2010Prop53
 90
        2
102
RTVSPost2010PropOp53
 70
     1
102
RTVSPost2010Prop54
  1
strokes_ogs.tif
102
RTVSPost2010PropOp54
 70
     1
102
RTVSPost2010Prop55
280
     0
102
RTVSPost2010PropOp55
 70
     1
102
RTVSPost2010Prop56
140
1.0
102
RTVSPost2010PropOp56
 70
     1
102
RTVSPost2010Prop57
140
1.0
102
RTVSPost2010PropOp57
 70
     1
102
RTVSPropertyOp0
 70
     1
102
RTVSPropertyOp1
 70
     1
102
RTVSPropertyOp2
 70
     1
102
RTVSPropertyOp3
 70
     1
102
RTVSPropertyOp4
 70
     1
102
RTVSPropertyOp5
 70
     1
102
RTVSPropertyOp6
 70
     1
102
RTVSPropertyOp7
 70
     1
102
RTVSPropertyOp8
 70
     1
102
RTVSPropertyOp9
 70
     1
102
RTVSPropertyOp10
 70
     1
102
RTVSPropertyOp11
 70
     1
102
RTVSPropertyOp12
 70
     1
102
RTVSPropertyOp13
 70
     1
102
RTVSPropertyOp14
 70
     1
102
RTVSPropertyOp15
 70
     1
102
RTVSPropertyOp16
 70
     1
102
RTVSPropertyOp17
 70
     1
102
RTVSPropertyOp18
 70
     1
102
RTVSPropertyOp19
 70
     1
102
RTVSPropertyOp20
 70
     1
102
RTVSPropertyOp21
 70
     1
102
RTVSPropertyOp22
 70
     1
102
RTVSPropertyOp23
 70
     1
102
RTVSPropertyOp24
 70
     1
102
RTVSPropertyOp25
 70
     1
102
RTVSPropertyOp26
 70
     1
102
RTVSPropertyOp27
 70
     1
102
RTVSPropertyOp28
 70
     1
102
RTVSPropertyOp29
 70
     1
102
RTVSPropertyOp30
 70
     1
102
RTVSPropertyOp31
 70
     1
102
RTVSPropertyOp32
 70
     1
102
RTVSPropertyOp33
 70
     1
102
RTVSPropertyOp34
 70
     1
102
RTVSPropertyOp35
 70
     1
102
RTVSPropertyOp36
 70
     1
102
RTVSPropertyOp37
 70
     1
102
RTVSPropertyOp38
 70
     1
102
RTVSPropertyOp39
 70
     1
102
RTVSPropertyOp40
 70
     1
102
RTVSPropertyOp41
 70
     1
102
RTVSPropertyOp42
 70
     1
102
RTVSPropertyOp43
 70
     1
102
RTVSPropertyOp44
 70
     1
102
RTVSPropertyOp45
 70
     1
102
RTVSPropertyOp46
 70
     1
102
RTVSPropertyOp47
 70
     1
102
RTVSPropertyOp48
 70
     1
102
RTVSPropertyOp49
 70
     1
102
RTVSPropertyOp50
 70
     1
102
RTVSPropertyOp51
 70
     0
102
RTVSPropertyOp52
 70
     0
102
RTVSPropertyOp53
 70
     1
102
RTVSPropertyOp54
 70
     1
102
RTVSPropertyOp55
 70
     1
102
RTVSPropertyOp56
 70
     1
102
RTVSPropertyOp57
 70
     1
102
RTVSPropertyOp58
 70
     1
102
RTVSPropertyOp59
 70
     1
102
RTVSPropertyOp60
 70
     1
102
RTVSPropertyOp61
 70
     1
102
RTVSPropertyOp62
 70
     1
  0
XRECORD
  5
3CC
102
{ACAD_REACTORS
330
3CB
102
}
330
3CB
100
AcDbXrecord
280
     1
102
RTVSPost2010Prop28
280
     0
102
RTVSPost2010PropOp28
 70
     1
102
RTVSPost2010Prop29
280
     1
102
RTVSPost2010PropOp29
 70
     1
102
RTVSPost2010Prop30
280
     1
102
RTVSPost2010PropOp30
 70
     1
102
RTVSPost2010Prop31
280
     0
102
RTVSPost2010PropOp31
 70
     1
102
RTVSPost2010Prop32
280
     0
102
RTVSPost2010PropOp32
 70
     1
102
RTVSPost2010Prop33
280
     0
102
RTVSPost2010PropOp33
 70
     1
102
RTVSPost2010Prop34
280
     0
102
RTVSPost2010PropOp34
 70
     1
102
RTVSPost2010Prop35
280
     0
102
RTVSPost2010PropOp35
 70
     1
102
RTVSPost2010Prop36
280
     0
102
RTVSPost2010PropOp36
 70
     1
102
RTVSPost2010Prop37
 90
       50
102
RTVSPost2010PropOp37
 70
     1
102
RTVSPost2010Prop38
140
0.0
102
RTVSPost2010PropOp38
 70
     1
102
RTVSPost2010Prop39
140
1.0
102
RTVSPost2010PropOp39
 70
     1
102
RTVSPost2010Prop40
 90
        0
102
RTVSPost2010PropOp40
 70
     1
102
RTVSPost2010Prop41ColorIndex
 90
       18
102
RTVSPost2010Prop41ColorRGB
 90
        0
102
RTVSPost2010PropOp41
 70
     1
102
RTVSPost2010Prop42
 90
       50
102
RTVSPost2010PropOp42
 70
     1
102
RTVSPost2010Prop43
 90
        3
102
RTVSPost2010PropOp43
 70
     1
102
RTVSPost2010Prop44ColorIndex
 90
        5
102
RTVSPost2010Prop44ColorRGB
 90
      255
102
RTVSPost2010PropOp44
 70
     1
102
RTVSPost2010Prop45
280
     0
102
RTVSPost2010PropOp45
 70
     1
102
RTVSPost2010Prop46
 90
       50
102
RTVSPost2010PropOp46
 70
     1
102
RTVSPost2010Prop47
 90
       50
102
RTVSPost2010PropOp47
 70
     1
102
RTVSPost2010Prop48
 90
       50
102
RTVSPost2010PropOp48
 70
     1
102
RTVSPost2010Prop49
280
     0
102
RTVSPost2010PropOp49
 70
     1
102
RTVSPost2010Prop50
 90
       50
102
RTVSPost2010PropOp50
 70
     1
102
RTVSPost2010Prop51ColorIndex
 90
      256
102
RTVSPost2010Prop51ColorRGB
 90
-16777216
102
RTVSPost2010PropOp51
 70
     0
102
RTVSPost2010Prop52
140
1.0
102
RTVSPost2010PropOp52
 70
     0
102
RTVSPost2010Prop53
 90
        2
102
RTVSPost2010PropOp53
 70
     1
102
RTVSPost2010Prop54
  1
strokes_ogs.tif
102
RTVSPost2010PropOp54
 70
     1
102
RTVSPost2010Prop55
280
     0
102
RTVSPost2010PropOp55
 70
     1
102
RTVSPost2010Prop56
140
1.0
102
RTVSPost2010PropOp56
 70
     1
102
RTVSPost2010Prop57
140
1.0
102
RTVSPost2010PropOp57
 70
     1
102
RTVSPropertyOp0
 70
     1
102
RTVSPropertyOp1
 70
     1
102
RTVSPropertyOp2
 70
     1
102
RTVSPropertyOp3
 70
     1
102
RTVSPropertyOp4
 70
     1
102
RTVSPropertyOp5
 70
     1
102
RTVSPropertyOp6
 70
     1
102
RTVSPropertyOp7
 70
     1
102
RTVSPropertyOp8
 70
     1
102
RTVSPropertyOp9
 70
     1
102
RTVSPropertyOp10
 70
     1
102
RTVSPropertyOp11
 70
     1
102
RTVSPropertyOp12
 70
     1
102
RTVSPropertyOp13
 70
     1
102
RTVSPropertyOp14
 70
     1
102
RTVSPropertyOp15
 70
     1
102
RTVSPropertyOp16
 70
     1
102
RTVSPropertyOp17
 70
     1
102
RTVSPropertyOp18
 70
     1
102
RTVSPropertyOp19
 70
     1
102
RTVSPropertyOp20
 70
     1
102
RTVSPropertyOp21
 70
     1
102
RTVSPropertyOp22
 70
     1
102
RTVSPropertyOp23
 70
     1
102
RTVSPropertyOp24
 70
     1
102
RTVSPropertyOp25
 70
     1
102
RTVSPropertyOp26
 70
     1
102
RTVSPropertyOp27
 70
     1
102
RTVSPropertyOp28
 70
     1
102
RTVSPropertyOp29
 70
     1
102
RTVSPropertyOp30
 70
     1
102
RTVSPropertyOp31
 70
     1
102
RTVSPropertyOp32
 70
     1
102
RTVSPropertyOp33
 70
     1
102
RTVSPropertyOp34
 70
     1
102
RTVSPropertyOp35
 70
     1
102
RTVSPropertyOp36
 70
     1
102
RTVSPropertyOp37
 70
     1
102
RTVSPropertyOp38
 70
     1
102
RTVSPropertyOp39
 70
     1
102
RTVSPropertyOp40
 70
     1
102
RTVSPropertyOp41
 70
     1
102
RTVSPropertyOp42
 70
     1
102
RTVSPropertyOp43
 70
     1
102
RTVSPropertyOp44
 70
     1
102
RTVSPropertyOp45
 70
     1
102
RTVSPropertyOp46
 70
     1
102
RTVSPropertyOp47
 70
     1
102
RTVSPropertyOp48
 70
     1
102
RTVSPropertyOp49
 70
     1
102
RTVSPropertyOp50
 70
     1
102
RTVSPropertyOp51
 70
     0
102
RTVSPropertyOp52
 70
     0
102
RTVSPropertyOp53
 70
     1
102
RTVSPropertyOp54
 70
     1
102
RTVSPropertyOp55
 70
     1
102
RTVSPropertyOp56
 70
     1
102
RTVSPropertyOp57
 70
     1
102
RTVSPropertyOp58
 70
     1
102
RTVSPropertyOp59
 70
     1
102
RTVSPropertyOp60
 70
     1
102
RTVSPropertyOp61
 70
     1
102
RTVSPropertyOp62
 70
     1
  0
ENDSEC
  0
EOF
