  0
SECTION
  2
HEADER
  9
$ACADVER
  1
AC1018
  9
$ACADMAINTVER
 70
   104
  9
$DWGCODEPAGE
  3
ANSI_1250
  9
$LASTSAVEDBY
  1
wq7085
  9
$INSBASE
 10
0.0
 20
0.0
 30
0.0
  9
$EXTMIN
 10
184.3648963333333
 20
122.034924
 30
0.0
  9
$EXTMAX
 10
360.98464
 20
345.2288016666668
 30
0.0
  9
$LIMMIN
 10
-0.5
 20
-0.5
  9
$LIMMAX
 10
5.0
 20
5.0
  9
$ORTHOMODE
 70
     0
  9
$REGENMODE
 70
     1
  9
$FILLMODE
 70
     1
  9
$QTEXTMODE
 70
     0
  9
$MIRRTEXT
 70
     1
  9
$LTSCALE
 40
1.0
  9
$ATTMODE
 70
     1
  9
$TEXTSIZE
 40
0.2
  9
$TRACEWID
 40
0.05
  9
$TEXTSTYLE
  7
Standard
  9
$CLAYER
  8
0
  9
$CELTYPE
  6
ByLayer
  9
$CECOLOR
 62
   256
  9
$CELTSCALE
 40
1.0
  9
$DISPSILH
 70
     0
  9
$DIMSCALE
 40
1.0
  9
$DIMASZ
 40
0.18
  9
$DIMEXO
 40
0.0625
  9
$DIMDLI
 40
0.38
  9
$DIMRND
 40
0.0
  9
$DIMDLE
 40
0.0
  9
$DIMEXE
 40
0.18
  9
$DIMTP
 40
0.0
  9
$DIMTM
 40
0.0
  9
$DIMTXT
 40
0.18
  9
$DIMCEN
 40
0.09
  9
$DIMTSZ
 40
0.0
  9
$DIMTOL
 70
     0
  9
$DIMLIM
 70
     0
  9
$DIMTIH
 70
     1
  9
$DIMTOH
 70
     1
  9
$DIMSE1
 70
     0
  9
$DIMSE2
 70
     0
  9
$DIMTAD
 70
     0
  9
$DIMZIN
 70
     0
  9
$DIMBLK
  1

  9
$DIMASO
 70
     1
  9
$DIMSHO
 70
     1
  9
$DIMPOST
  1

  9
$DIMAPOST
  1

  9
$DIMALT
 70
     0
  9
$DIMALTD
 70
     2
  9
$DIMALTF
 40
25.4
  9
$DIMLFAC
 40
1.0
  9
$DIMTOFL
 70
     0
  9
$DIMTVP
 40
0.0
  9
$DIMTIX
 70
     0
  9
$DIMSOXD
 70
     0
  9
$DIMSAH
 70
     0
  9
$DIMBLK1
  1

  9
$DIMBLK2
  1

  9
$DIMSTYLE
  2
Standard
  9
$DIMCLRD
 70
     0
  9
$DIMCLRE
 70
     0
  9
$DIMCLRT
 70
     0
  9
$DIMTFAC
 40
1.0
  9
$DIMGAP
 40
0.09
  9
$DIMJUST
 70
     0
  9
$DIMSD1
 70
     0
  9
$DIMSD2
 70
     0
  9
$DIMTOLJ
 70
     1
  9
$DIMTZIN
 70
     0
  9
$DIMALTZ
 70
     0
  9
$DIMALTTZ
 70
     0
  9
$DIMUPT
 70
     0
  9
$DIMDEC
 70
     4
  9
$DIMTDEC
 70
     4
  9
$DIMALTU
 70
     2
  9
$DIMALTTD
 70
     2
  9
$DIMTXSTY
  7
Standard
  9
$DIMAUNIT
 70
     0
  9
$DIMADEC
 70
     0
  9
$DIMALTRND
 40
0.0
  9
$DIMAZIN
 70
     0
  9
$DIMDSEP
 70
    46
  9
$DIMATFIT
 70
     3
  9
$DIMFRAC
 70
     0
  9
$DIMLDRBLK
  1

  9
$DIMLUNIT
 70
     2
  9
$DIMLWD
 70
    -2
  9
$DIMLWE
 70
    -2
  9
$DIMTMOVE
 70
     0
  9
$LUNITS
 70
     2
  9
$LUPREC
 70
     4
  9
$SKETCHINC
 40
0.1
  9
$FILLETRAD
 40
0.5
  9
$AUNITS
 70
     0
  9
$AUPREC
 70
     0
  9
$MENU
  1
.
  9
$ELEVATION
 40
0.0
  9
$PELEVATION
 40
0.0
  9
$THICKNESS
 40
0.0
  9
$LIMCHECK
 70
     0
  9
$CHAMFERA
 40
0.0
  9
$CHAMFERB
 40
0.0
  9
$CHAMFERC
 40
0.0
  9
$CHAMFERD
 40
0.0
  9
$SKPOLY
 70
     0
  9
$TDCREATE
 40
2458920.453414352
  9
$TDUCREATE
 40
2458920.411756193
  9
$TDUPDATE
 40
2458920.494155093
  9
$TDUUPDATE
 40
2458920.452488426
  9
$TDINDWG
 40
0.0406713079
  9
$TDUSRTIMER
 40
0.0406713079
  9
$USRTIMER
 70
     1
  9
$ANGBASE
 50
0.0
  9
$ANGDIR
 70
     0
  9
$PDMODE
 70
     0
  9
$PDSIZE
 40
0.0
  9
$PLINEWID
 40
0.0
  9
$SPLFRAME
 70
     0
  9
$SPLINETYPE
 70
     6
  9
$SPLINESEGS
 70
     8
  9
$HANDSEED
  5
3A0
  9
$SURFTAB1
 70
     6
  9
$SURFTAB2
 70
     6
  9
$SURFTYPE
 70
     6
  9
$SURFU
 70
     6
  9
$SURFV
 70
     6
  9
$UCSBASE
  2

  9
$UCSNAME
  2

  9
$UCSORG
 10
274.404842
 20
288.907994
 30
0.0
  9
$UCSXDIR
 10
1.0
 20
0.0
 30
0.0
  9
$UCSYDIR
 10
0.0
 20
1.0
 30
0.0
  9
$UCSORTHOREF
  2

  9
$UCSORTHOVIEW
 70
     0
  9
$UCSORGTOP
 10
0.0
 20
0.0
 30
0.0
  9
$UCSORGBOTTOM
 10
0.0
 20
0.0
 30
0.0
  9
$UCSORGLEFT
 10
0.0
 20
0.0
 30
0.0
  9
$UCSORGRIGHT
 10
0.0
 20
0.0
 30
0.0
  9
$UCSORGFRONT
 10
0.0
 20
0.0
 30
0.0
  9
$UCSORGBACK
 10
0.0
 20
0.0
 30
0.0
  9
$PUCSBASE
  2

  9
$PUCSNAME
  2

  9
$PUCSORG
 10
0.0
 20
0.0
 30
0.0
  9
$PUCSXDIR
 10
1.0
 20
0.0
 30
0.0
  9
$PUCSYDIR
 10
0.0
 20
1.0
 30
0.0
  9
$PUCSORTHOREF
  2

  9
$PUCSORTHOVIEW
 70
     0
  9
$PUCSORGTOP
 10
0.0
 20
0.0
 30
0.0
  9
$PUCSORGBOTTOM
 10
0.0
 20
0.0
 30
0.0
  9
$PUCSORGLEFT
 10
0.0
 20
0.0
 30
0.0
  9
$PUCSORGRIGHT
 10
0.0
 20
0.0
 30
0.0
  9
$PUCSORGFRONT
 10
0.0
 20
0.0
 30
0.0
  9
$PUCSORGBACK
 10
0.0
 20
0.0
 30
0.0
  9
$USERI1
 70
     0
  9
$USERI2
 70
     0
  9
$USERI3
 70
     0
  9
$USERI4
 70
     0
  9
$USERI5
 70
     0
  9
$USERR1
 40
0.0
  9
$USERR2
 40
0.0
  9
$USERR3
 40
0.0
  9
$USERR4
 40
0.0
  9
$USERR5
 40
0.0
  9
$WORLDVIEW
 70
     1
  9
$SHADEDGE
 70
     3
  9
$SHADEDIF
 70
    70
  9
$TILEMODE
 70
     1
  9
$MAXACTVP
 70
    64
  9
$PINSBASE
 10
0.0
 20
0.0
 30
0.0
  9
$PLIMCHECK
 70
     0
  9
$PEXTMIN
 10
-0.5
 20
-0.5
 30
-0.5
  9
$PEXTMAX
 10
5.0
 20
5.0
 30
5.0
  9
$PLIMMIN
 10
-0.5
 20
-0.5
  9
$PLIMMAX
 10
5.0
 20
5.0
  9
$UNITMODE
 70
     0
  9
$VISRETAIN
 70
     1
  9
$PLINEGEN
 70
     0
  9
$PSLTSCALE
 70
     1
  9
$TREEDEPTH
 70
  3020
  9
$CMLSTYLE
  2
Standard
  9
$CMLJUST
 70
     0
  9
$CMLSCALE
 40
1.0
  9
$PROXYGRAPHICS
 70
     1
  9
$MEASUREMENT
 70
     1
  9
$CELWEIGHT
370
    13
  9
$ENDCAPS
280
     0
  9
$JOINSTYLE
280
     0
  9
$LWDISPLAY
290
     0
  9
$INSUNITS
 70
     4
  9
$HYPERLINKBASE
  1

  9
$STYLESHEET
  1

  9
$XEDIT
290
     1
  9
$CEPSNTYPE
380
     0
  9
$PSTYLEMODE
290
     1
  9
$FINGERPRINTGUID
  2
{08896467-6363-4B39-8AB0-5F38AEC0F6E1}
  9
$VERSIONGUID
  2
{742B2A48-66C1-674A-97D7-003F35A83940}
  9
$EXTNAMES
290
     1
  9
$PSVPSCALE
 40
0.0
  9
$OLESTARTUP
290
     0
  9
$SORTENTS
280
   127
  9
$INDEXCTL
280
     0
  9
$HIDETEXT
280
     1
  9
$XCLIPFRAME
290
     0
  9
$HALOGAP
280
     0
  9
$OBSCOLOR
 70
   257
  9
$OBSLTYPE
280
     0
  9
$INTERSECTIONDISPLAY
280
     0
  9
$INTERSECTIONCOLOR
 70
   257
  9
$DIMASSOC
280
     2
  9
$PROJECTNAME
  1

  0
ENDSEC
  0
SECTION
  2
CLASSES
  0
CLASS
  1
ACDBDICTIONARYWDFLT
  2
AcDbDictionaryWithDefault
  3
ObjectDBX Classes
 90
        0
 91
        1
280
     0
281
     0
  0
CLASS
  1
VISUALSTYLE
  2
AcDbVisualStyle
  3
ObjectDBX Classes
 90
     4095
 91
       24
280
     0
281
     0
  0
CLASS
  1
MATERIAL
  2
AcDbMaterial
  3
ObjectDBX Classes
 90
     1153
 91
        3
280
     0
281
     0
  0
CLASS
  1
SCALE
  2
AcDbScale
  3
ObjectDBX Classes
 90
     1153
 91
       33
280
     0
281
     0
  0
CLASS
  1
TABLESTYLE
  2
AcDbTableStyle
  3
ObjectDBX Classes
 90
     4095
 91
        1
280
     0
281
     0
  0
CLASS
  1
MLEADERSTYLE
  2
AcDbMLeaderStyle
  3
ACDB_MLEADERSTYLE_CLASS
 90
     4095
 91
        1
280
     0
281
     0
  0
CLASS
  1
SUN
  2
AcDbSun
  3
SCENEOE
 90
     1153
 91
        0
280
     0
281
     0
  0
CLASS
  1
DIMASSOC
  2
AcDbDimAssoc
  3
"AcDbDimAssoc|Product Desc:     AcDim ARX App For Dimension|Company:          Autodesk, Inc.|WEB Address:      www.autodesk.com"
 90
        0
 91
        7
280
     0
281
     0
  0
CLASS
  1
DICTIONARYVAR
  2
AcDbDictionaryVar
  3
ObjectDBX Classes
 90
        0
 91
       13
280
     0
281
     0
  0
CLASS
  1
CELLSTYLEMAP
  2
AcDbCellStyleMap
  3
ObjectDBX Classes
 90
     1152
 91
        2
280
     0
281
     0
  0
CLASS
  1
ACDBSECTIONVIEWSTYLE
  2
AcDbSectionViewStyle
  3
ObjectDBX Classes
 90
     1025
 91
        1
280
     0
281
     0
  0
CLASS
  1
ACDBDETAILVIEWSTYLE
  2
AcDbDetailViewStyle
  3
ObjectDBX Classes
 90
     1025
 91
        1
280
     0
281
     0
  0
CLASS
  1
SORTENTSTABLE
  2
AcDbSortentsTable
  3
ObjectDBX Classes
 90
        0
 91
        1
280
     0
281
     0
  0
ENDSEC
  0
SECTION
  2
TABLES
  0
TABLE
  2
VPORT
  5
8
330
0
100
AcDbSymbolTable
 70
    16
  0
VPORT
  5
29
330
8
100
AcDbSymbolTableRecord
100
AcDbViewportTableRecord
  2
*Active
 70
     0
 10
0.0
 20
0.0
 11
1.0
 21
1.0
 12
291.8306477029726
 22
295.0331371542191
 13
0.0
 23
0.0
 14
0.5
 24
0.5
 15
0.5
 25
0.5
 16
0.0
 26
0.0
 36
1.0
 17
0.0
 27
0.0
 37
0.0
 40
132.8147084292273
 41
2.292712066905615
 42
50.0
 43
359.334528
 44
-359.334528
 50
0.0
 51
0.0
 71
     0
 72
   100
 73
     1
 74
     3
 75
     0
 76
     0
 77
     0
 78
     0
281
     0
 65
     1
110
274.404842
120
288.907994
130
0.0
111
1.0
121
0.0
131
0.0
112
0.0
122
1.0
132
0.0
 79
     0
146
0.0
1001
ACAD_NAV_VCDISPLAY
1070
     3
  0
VPORT
  5
29F
330
8
100
AcDbSymbolTableRecord
100
AcDbViewportTableRecord
  2
L1
 70
     0
 10
0.0
 20
0.0
 11
1.0
 21
1.0
 12
272.170563
 22
233.581294
 13
0.0
 23
0.0
 14
0.5
 24
0.5
 15
0.5
 25
0.5
 16
0.0
 26
0.0
 36
1.0
 17
0.0
 27
0.0
 37
0.0
 40
207.433333
 41
0.085602
 42
50.0
 43
359.334528
 44
-359.334528
 50
0.0
 51
0.0
 71
     0
 72
   100
 73
     1
 74
     3
 75
     0
 76
     0
 77
     0
 78
     0
281
     0
 65
     1
110
0.0
120
0.0
130
0.0
111
1.0
121
0.0
131
0.0
112
0.0
122
1.0
132
0.0
 79
     0
146
0.0
  0
VPORT
  5
2A0
330
8
100
AcDbSymbolTableRecord
100
AcDbViewportTableRecord
  2
L2
 70
     0
 10
0.0
 20
0.0
 11
0.5
 21
1.0
 12
0.0
 22
0.0
 13
0.0
 23
0.0
 14
0.5
 24
0.5
 15
0.5
 25
0.5
 16
0.0
 26
-1.0
 36
0.0
 17
0.0
 27
0.0
 37
0.0
 40
1348.967791
 41
0.013163
 42
50.0
 43
695.673663
 44
-695.673663
 50
0.0
 51
0.0
 71
     0
 72
   100
 73
     1
 74
     3
 75
     0
 76
     0
 77
     0
 78
     0
281
     0
 65
     1
110
0.0
120
0.0
130
0.0
111
1.0
121
0.0
131
0.0
112
0.0
122
1.0
132
0.0
 79
     0
146
0.0
  0
VPORT
  5
2A1
330
8
100
AcDbSymbolTableRecord
100
AcDbViewportTableRecord
  2
L2
 70
     0
 10
0.5
 20
0.0
 11
1.0
 21
1.0
 12
0.0
 22
0.0
 13
0.0
 23
0.0
 14
0.5
 24
0.5
 15
0.5
 25
0.5
 16
1.0
 26
0.0
 36
0.0
 17
0.0
 27
0.0
 37
0.0
 40
1348.967791
 41
0.013163
 42
50.0
 43
682.411659
 44
-682.411659
 50
0.0
 51
0.0
 71
     0
 72
   100
 73
     1
 74
     3
 75
     0
 76
     0
 77
     0
 78
     0
281
     0
 65
     1
110
0.0
120
0.0
130
0.0
111
1.0
121
0.0
131
0.0
112
0.0
122
1.0
132
0.0
 79
     0
146
0.0
  0
VPORT
  5
2A2
330
8
100
AcDbSymbolTableRecord
100
AcDbViewportTableRecord
  2
L3
 70
     0
 10
0.0
 20
0.5
 11
1.0
 21
1.0
 12
272.170563
 22
233.581294
 13
0.0
 23
0.0
 14
0.5
 24
0.5
 15
0.5
 25
0.5
 16
0.0
 26
0.0
 36
1.0
 17
0.0
 27
0.0
 37
0.0
 40
207.433333
 41
0.085602
 42
50.0
 43
359.334528
 44
-359.334528
 50
0.0
 51
0.0
 71
     0
 72
   100
 73
     1
 74
     3
 75
     0
 76
     0
 77
     0
 78
     0
281
     0
 65
     1
110
0.0
120
0.0
130
0.0
111
1.0
121
0.0
131
0.0
112
0.0
122
1.0
132
0.0
 79
     0
146
0.0
  0
VPORT
  5
2A3
330
8
100
AcDbSymbolTableRecord
100
AcDbViewportTableRecord
  2
L3
 70
     0
 10
0.0
 20
0.0
 11
1.0
 21
0.5
 12
0.0
 22
0.0
 13
0.0
 23
0.0
 14
0.5
 24
0.5
 15
0.5
 25
0.5
 16
0.0
 26
-1.0
 36
0.0
 17
0.0
 27
0.0
 37
0.0
 40
1348.967791
 41
0.013163
 42
50.0
 43
695.673663
 44
-695.673663
 50
0.0
 51
0.0
 71
     0
 72
   100
 73
     1
 74
     3
 75
     0
 76
     0
 77
     0
 78
     0
281
     0
 65
     1
110
0.0
120
0.0
130
0.0
111
1.0
121
0.0
131
0.0
112
0.0
122
1.0
132
0.0
 79
     0
146
0.0
  0
VPORT
  5
2A4
330
8
100
AcDbSymbolTableRecord
100
AcDbViewportTableRecord
  2
L4
 70
     0
 10
0.0
 20
0.5
 11
0.5
 21
1.0
 12
272.170563
 22
233.581294
 13
0.0
 23
0.0
 14
0.5
 24
0.5
 15
0.5
 25
0.5
 16
0.0
 26
0.0
 36
1.0
 17
0.0
 27
0.0
 37
0.0
 40
207.433333
 41
0.085602
 42
50.0
 43
359.334528
 44
-359.334528
 50
0.0
 51
0.0
 71
     0
 72
   100
 73
     1
 74
     3
 75
     0
 76
     0
 77
     0
 78
     0
281
     0
 65
     1
110
0.0
120
0.0
130
0.0
111
1.0
121
0.0
131
0.0
112
0.0
122
1.0
132
0.0
 79
     0
146
0.0
  0
VPORT
  5
2A5
330
8
100
AcDbSymbolTableRecord
100
AcDbViewportTableRecord
  2
L4
 70
     0
 10
0.0
 20
0.0
 11
0.5
 21
0.5
 12
0.0
 22
0.0
 13
0.0
 23
0.0
 14
0.5
 24
0.5
 15
0.5
 25
0.5
 16
0.0
 26
-1.0
 36
0.0
 17
0.0
 27
0.0
 37
0.0
 40
1348.967791
 41
0.013163
 42
50.0
 43
695.673663
 44
-695.673663
 50
0.0
 51
0.0
 71
     0
 72
   100
 73
     1
 74
     3
 75
     0
 76
     0
 77
     0
 78
     0
281
     0
 65
     1
110
0.0
120
0.0
130
0.0
111
1.0
121
0.0
131
0.0
112
0.0
122
1.0
132
0.0
 79
     0
146
0.0
  0
VPORT
  5
2A6
330
8
100
AcDbSymbolTableRecord
100
AcDbViewportTableRecord
  2
L4
 70
     0
 10
0.5
 20
0.0
 11
1.0
 21
0.5
 12
0.0
 22
0.0
 13
0.0
 23
0.0
 14
0.5
 24
0.5
 15
0.5
 25
0.5
 16
1.0
 26
0.0
 36
0.0
 17
0.0
 27
0.0
 37
0.0
 40
1348.967791
 41
0.013163
 42
50.0
 43
682.411659
 44
-682.411659
 50
0.0
 51
0.0
 71
     0
 72
   100
 73
     1
 74
     3
 75
     0
 76
     0
 77
     0
 78
     0
281
     0
 65
     1
110
0.0
120
0.0
130
0.0
111
1.0
121
0.0
131
0.0
112
0.0
122
1.0
132
0.0
 79
     0
146
0.0
  0
VPORT
  5
2A7
330
8
100
AcDbSymbolTableRecord
100
AcDbViewportTableRecord
  2
L4
 70
     0
 10
0.5
 20
0.5
 11
1.0
 21
1.0
 12
0.0
 22
0.0
 13
0.0
 23
0.0
 14
0.5
 24
0.5
 15
0.5
 25
0.5
 16
0.5773502691896259
 26
-0.5773502691896259
 36
0.5773502691896259
 17
0.0
 27
0.0
 37
0.0
 40
1325.236107
 41
0.013399
 42
50.0
 43
690.384222
 44
-690.384222
 50
0.0
 51
0.0
 71
     0
 72
   100
 73
     1
 74
     3
 75
     0
 76
     0
 77
     0
 78
     0
281
     0
 65
     1
110
0.0
120
0.0
130
0.0
111
1.0
121
0.0
131
0.0
112
0.0
122
1.0
132
0.0
 79
     0
146
0.0
  0
VPORT
  5
2A8
330
8
100
AcDbSymbolTableRecord
100
AcDbViewportTableRecord
  2
L6
 70
     0
 10
0.0
 20
0.5
 11
0.333333
 21
1.0
 12
0.0
 22
0.0
 13
0.0
 23
0.0
 14
0.5
 24
0.5
 15
0.5
 25
0.5
 16
0.7188730927569434
 26
-0.5850486126764433
 36
0.3754192287502549
 17
0.0
 27
0.0
 37
0.0
 40
1398.681769
 41
0.012695
 42
50.0
 43
724.169019
 44
-724.169019
 50
0.0
 51
0.0
 71
     0
 72
   100
 73
     1
 74
     3
 75
     0
 76
     0
 77
     0
 78
     0
281
     0
 65
     1
110
0.0
120
0.0
130
0.0
111
1.0
121
0.0
131
0.0
112
0.0
122
1.0
132
0.0
 79
     0
146
0.0
  0
VPORT
  5
2A9
330
8
100
AcDbSymbolTableRecord
100
AcDbViewportTableRecord
  2
L6
 70
     0
 10
0.0
 20
0.0
 11
0.333333
 21
0.5
 12
0.0
 22
0.0
 13
0.0
 23
0.0
 14
0.5
 24
0.5
 15
0.5
 25
0.5
 16
-1.0
 26
0.0
 36
0.0
 17
0.0
 27
0.0
 37
0.0
 40
1348.967791
 41
0.013163
 42
50.0
 43
682.411659
 44
-682.411659
 50
0.0
 51
0.0
 71
     0
 72
   100
 73
     1
 74
     3
 75
     0
 76
     0
 77
     0
 78
     0
281
     0
 65
     1
110
0.0
120
0.0
130
0.0
111
1.0
121
0.0
131
0.0
112
0.0
122
1.0
132
0.0
 79
     0
146
0.0
  0
VPORT
  5
2AA
330
8
100
AcDbSymbolTableRecord
100
AcDbViewportTableRecord
  2
L6
 70
     0
 10
0.333333
 20
0.5
 11
0.666667
 21
1.0
 12
272.170563
 22
233.581294
 13
0.0
 23
0.0
 14
0.5
 24
0.5
 15
0.5
 25
0.5
 16
0.0
 26
0.0
 36
1.0
 17
0.0
 27
0.0
 37
0.0
 40
207.433333
 41
0.085602
 42
50.0
 43
359.334528
 44
-359.334528
 50
0.0
 51
0.0
 71
     0
 72
   100
 73
     1
 74
     3
 75
     0
 76
     0
 77
     0
 78
     0
281
     0
 65
     1
110
0.0
120
0.0
130
0.0
111
1.0
121
0.0
131
0.0
112
0.0
122
1.0
132
0.0
 79
     0
146
0.0
  0
VPORT
  5
2AB
330
8
100
AcDbSymbolTableRecord
100
AcDbViewportTableRecord
  2
L6
 70
     0
 10
0.333333
 20
0.0
 11
0.666667
 21
0.5
 12
0.0
 22
0.0
 13
0.0
 23
0.0
 14
0.5
 24
0.5
 15
0.5
 25
0.5
 16
0.0
 26
-1.0
 36
0.0
 17
0.0
 27
0.0
 37
0.0
 40
1348.967791
 41
0.013163
 42
50.0
 43
695.673663
 44
-695.673663
 50
0.0
 51
0.0
 71
     0
 72
   100
 73
     1
 74
     3
 75
     0
 76
     0
 77
     0
 78
     0
281
     0
 65
     1
110
0.0
120
0.0
130
0.0
111
1.0
121
0.0
131
0.0
112
0.0
122
1.0
132
0.0
 79
     0
146
0.0
  0
VPORT
  5
2AC
330
8
100
AcDbSymbolTableRecord
100
AcDbViewportTableRecord
  2
L6
 70
     0
 10
0.666667
 20
0.5
 11
1.0
 21
1.0
 12
0.0
 22
0.0
 13
0.0
 23
0.0
 14
0.5
 24
0.5
 15
0.5
 25
0.5
 16
0.5773502691896259
 26
-0.5773502691896259
 36
0.5773502691896259
 17
0.0
 27
0.0
 37
0.0
 40
1325.236107
 41
0.013399
 42
50.0
 43
690.384222
 44
-690.384222
 50
0.0
 51
0.0
 71
     0
 72
   100
 73
     1
 74
     3
 75
     0
 76
     0
 77
     0
 78
     0
281
     0
 65
     1
110
0.0
120
0.0
130
0.0
111
1.0
121
0.0
131
0.0
112
0.0
122
1.0
132
0.0
 79
     0
146
0.0
  0
VPORT
  5
2AD
330
8
100
AcDbSymbolTableRecord
100
AcDbViewportTableRecord
  2
L6
 70
     0
 10
0.666667
 20
0.0
 11
1.0
 21
0.5
 12
0.0
 22
0.0
 13
0.0
 23
0.0
 14
0.5
 24
0.5
 15
0.5
 25
0.5
 16
1.0
 26
0.0
 36
0.0
 17
0.0
 27
0.0
 37
0.0
 40
1348.967791
 41
0.013163
 42
50.0
 43
682.411659
 44
-682.411659
 50
0.0
 51
0.0
 71
     0
 72
   100
 73
     1
 74
     3
 75
     0
 76
     0
 77
     0
 78
     0
281
     0
 65
     1
110
0.0
120
0.0
130
0.0
111
1.0
121
0.0
131
0.0
112
0.0
122
1.0
132
0.0
 79
     0
146
0.0
  0
ENDTAB
  0
TABLE
  2
LTYPE
  5
5
330
0
100
AcDbSymbolTable
 70
     7
  0
LTYPE
  5
14
330
5
100
AcDbSymbolTableRecord
100
AcDbLinetypeTableRecord
  2
ByBlock
 70
     0
  3

 72
    65
 73
     0
 40
0.0
  0
LTYPE
  5
15
330
5
100
AcDbSymbolTableRecord
100
AcDbLinetypeTableRecord
  2
ByLayer
 70
     0
  3

 72
    65
 73
     0
 40
0.0
  0
LTYPE
  5
16
330
5
100
AcDbSymbolTableRecord
100
AcDbLinetypeTableRecord
  2
Continuous
 70
     0
  3
Solid line
 72
    65
 73
     0
 40
0.0
  0
LTYPE
  5
6E
330
5
100
AcDbSymbolTableRecord
100
AcDbLinetypeTableRecord
  2
CENTER
 70
     0
  3
____ _ ____ _ ____ _ ____
 72
    65
 73
     4
 40
47.4
 49
22.0
 74
     4
 75
     0
340
0
 46
0.0
 50
0.0
 44
0.0
 45
0.0
 49
-8.5
 74
     4
 75
     0
340
0
 46
0.0
 50
0.0
 44
0.0
 45
0.0
 49
8.5
 74
     4
 75
     0
340
0
 46
0.0
 50
0.0
 44
0.0
 45
0.0
 49
-8.5
 74
     4
 75
     0
340
0
 46
0.0
 50
0.0
 44
0.0
 45
0.0
  0
LTYPE
  5
6F
330
5
100
AcDbSymbolTableRecord
100
AcDbLinetypeTableRecord
  2
DASHDOT
 70
     0
  3
_._._._._._._._._._._._._._._._.
 72
    65
 73
     4
 40
70.0
 49
31.0
 74
     4
 75
     0
340
0
 46
0.0
 50
0.0
 44
0.0
 45
0.0
 49
-13.0
 74
     4
 75
     0
340
0
 46
0.0
 50
0.0
 44
0.0
 45
0.0
 49
13.0
 74
     4
 75
     0
340
0
 46
0.0
 50
0.0
 44
0.0
 45
0.0
 49
-13.0
 74
     4
 75
     0
340
0
 46
0.0
 50
0.0
 44
0.0
 45
0.0
  0
LTYPE
  5
70
330
5
100
AcDbSymbolTableRecord
100
AcDbLinetypeTableRecord
  2
DASHED
 70
     0
  3
__ __ __ __ __ __ __ __ __
 72
    65
 73
     2
 40
25.72
 49
12.86
 74
     4
 75
     0
340
0
 46
0.0
 50
0.0
 44
0.0
 45
0.0
 49
-12.86
 74
     4
 75
     0
340
0
 46
0.0
 50
0.0
 44
0.0
 45
0.0
  0
LTYPE
  5
71
330
5
100
AcDbSymbolTableRecord
100
AcDbLinetypeTableRecord
  2
DOT
 70
     0
  3
.........................
 72
    65
 73
     2
 40
10.0
 49
0.0
 74
     4
 75
     0
340
0
 46
0.0
 50
0.0
 44
0.0
 45
0.0
 49
-10.0
 74
     4
 75
     0
340
0
 46
0.0
 50
0.0
 44
0.0
 45
0.0
  0
LTYPE
  5
72
330
5
100
AcDbSymbolTableRecord
100
AcDbLinetypeTableRecord
  2
PHANTOM
 70
     0
  3
____ _ _ ____ _ _ _____ _ _ ____
 72
    65
 73
     6
 40
50.5
 49
18.0
 74
     4
 75
     0
340
0
 46
0.0
 50
0.0
 44
0.0
 45
0.0
 49
-6.5
 74
     4
 75
     0
340
0
 46
0.0
 50
0.0
 44
0.0
 45
0.0
 49
6.5
 74
     4
 75
     0
340
0
 46
0.0
 50
0.0
 44
0.0
 45
0.0
 49
-6.5
 74
     4
 75
     0
340
0
 46
0.0
 50
0.0
 44
0.0
 45
0.0
 49
6.5
 74
     4
 75
     0
340
0
 46
0.0
 50
0.0
 44
0.0
 45
0.0
 49
-6.5
 74
     4
 75
     0
340
0
 46
0.0
 50
0.0
 44
0.0
 45
0.0
  0
LTYPE
  5
343
330
5
100
AcDbSymbolTableRecord
100
AcDbLinetypeTableRecord
  2
CENTER2
 70
     0
  3
Center (.5x) ___ _ ___ _ ___ _ ___ _ ___ _ ___
 72
    65
 73
     4
 40
1.125
 49
0.75
 74
     0
 49
-0.125
 74
     0
 49
0.125
 74
     0
 49
-0.125
 74
     0
  0
ENDTAB
  0
TABLE
  2
LAYER
  5
2
330
0
100
AcDbSymbolTable
 70
    22
  0
LAYER
  5
10
102
{ACAD_XDICTIONARY
360
34E
102
}
330
2
100
AcDbSymbolTableRecord
100
AcDbLayerTableRecord
  2
0
 70
     0
 62
     7
  6
Continuous
370
    -3
390
F
  0
LAYER
  5
1F9
330
2
100
AcDbSymbolTableRecord
100
AcDbLayerTableRecord
  2
Defpoints
 70
     0
 62
     7
  6
Continuous
290
     0
370
    -3
390
F
  0
LAYER
  5
340
102
{ACAD_XDICTIONARY
360
350
102
}
330
2
100
AcDbSymbolTableRecord
100
AcDbLayerTableRecord
  2
1
 70
     0
 62
     4
  6
Continuous
370
    -3
390
F
  0
LAYER
  5
341
102
{ACAD_XDICTIONARY
360
352
102
}
330
2
100
AcDbSymbolTableRecord
100
AcDbLayerTableRecord
  2
2
 70
     0
 62
     7
  6
Continuous
370
    -3
390
F
  0
LAYER
  5
342
102
{ACAD_XDICTIONARY
360
354
102
}
330
2
100
AcDbSymbolTableRecord
100
AcDbLayerTableRecord
  2
4
 70
     0
 62
     2
  6
CENTER2
370
    -3
390
F
  0
LAYER
  5
344
102
{ACAD_XDICTIONARY
360
356
102
}
330
2
100
AcDbSymbolTableRecord
100
AcDbLayerTableRecord
  2
SK1
 70
     0
 62
     4
  6
Continuous
370
    -3
390
F
  0
LAYER
  5
345
102
{ACAD_XDICTIONARY
360
358
102
}
330
2
100
AcDbSymbolTableRecord
100
AcDbLayerTableRecord
  2
SK2
 70
     0
 62
     7
  6
Continuous
370
    -3
390
F
  0
LAYER
  5
347
102
{ACAD_XDICTIONARY
360
35A
102
}
330
2
100
AcDbSymbolTableRecord
100
AcDbLayerTableRecord
  2
SK4
 70
     0
 62
     2
  6
CENTER2
370
    -3
390
F
  0
LAYER
  5
348
102
{ACAD_XDICTIONARY
360
35C
102
}
330
2
100
AcDbSymbolTableRecord
100
AcDbLayerTableRecord
  2
SK6
 70
     0
 62
     5
  6
Continuous
370
    -3
390
F
  0
LAYER
  5
349
102
{ACAD_XDICTIONARY
360
35E
102
}
330
2
100
AcDbSymbolTableRecord
100
AcDbLayerTableRecord
  2
CUT
 70
     0
 62
     1
  6
Continuous
370
    -3
390
F
  0
LAYER
  5
34A
102
{ACAD_XDICTIONARY
360
360
102
}
330
2
100
AcDbSymbolTableRecord
100
AcDbLayerTableRecord
  2
NOCUT
 70
     0
 62
     7
  6
Continuous
370
    -3
390
F
  0
LAYER
  5
34B
102
{ACAD_XDICTIONARY
360
362
102
}
330
2
100
AcDbSymbolTableRecord
100
AcDbLayerTableRecord
  2
80
 70
     0
 62
     6
  6
Continuous
370
    -3
390
F
  0
LAYER
  5
34C
102
{ACAD_XDICTIONARY
360
364
102
}
330
2
100
AcDbSymbolTableRecord
100
AcDbLayerTableRecord
  2
81
 70
     0
 62
     3
  6
Continuous
370
    -3
390
F
  0
ENDTAB
  0
TABLE
  2
STYLE
  5
3
330
0
100
AcDbSymbolTable
 70
     3
  0
STYLE
  5
11
330
3
100
AcDbSymbolTableRecord
100
AcDbTextStyleTableRecord
  2
Standard
 70
     0
 40
0.0
 41
1.0
 50
0.0
 71
     0
 42
0.2
  3
txt
  4

  0
STYLE
  5
1F2
330
3
100
AcDbSymbolTableRecord
100
AcDbTextStyleTableRecord
  2
cesky
 70
     0
 40
0.0
 41
1.0
 50
0.0
 71
     0
 42
0.2
  3
simplex.shx
  4

  0
STYLE
  5
1F3
330
3
100
AcDbSymbolTableRecord
100
AcDbTextStyleTableRecord
  2
DWGDirectTextStyle
 70
     0
 40
0.0
 41
1.0
 50
0.0
 71
     0
 42
0.2
  3
simplex
  4

  0
ENDTAB
  0
TABLE
  2
VIEW
  5
6
330
0
100
AcDbSymbolTable
 70
     0
  0
ENDTAB
  0
TABLE
  2
UCS
  5
7
330
0
100
AcDbSymbolTable
 70
     0
  0
ENDTAB
  0
TABLE
  2
APPID
  5
9
330
0
100
AcDbSymbolTable
 70
     7
  0
APPID
  5
12
330
9
100
AcDbSymbolTableRecord
100
AcDbRegAppTableRecord
  2
ACAD
 70
     0
  0
APPID
  5
1F5
330
9
100
AcDbSymbolTableRecord
100
AcDbRegAppTableRecord
  2
ACAD_DSTYLE_DIMBREAK
 70
     0
  0
APPID
  5
2AE
330
9
100
AcDbSymbolTableRecord
100
AcDbRegAppTableRecord
  2
ACAD_DSTYLE_DIM_LINETYPE
 70
     0
  0
APPID
  5
2AF
330
9
100
AcDbSymbolTableRecord
100
AcDbRegAppTableRecord
  2
ACAD_DSTYLE_DIM_EXT1_LINETYPE
 70
     0
  0
APPID
  5
2B0
330
9
100
AcDbSymbolTableRecord
100
AcDbRegAppTableRecord
  2
ACAD_DSTYLE_DIM_EXT2_LINETYPE
 70
     0
  0
APPID
  5
2F0
330
9
100
AcDbSymbolTableRecord
100
AcDbRegAppTableRecord
  2
ACAD_MLEADERVER
 70
     0
  0
APPID
  5
300
330
9
100
AcDbSymbolTableRecord
100
AcDbRegAppTableRecord
  2
ACAD_NAV_VCDISPLAY
 70
     0
  0
ENDTAB
  0
TABLE
  2
DIMSTYLE
  5
A
330
0
100
AcDbSymbolTable
 70
     1
100
AcDbDimStyleTable
 71
     0
  0
DIMSTYLE
105
27
330
A
100
AcDbSymbolTableRecord
100
AcDbDimStyleTableRecord
  2
Standard
 70
     0
340
11
1001
ACAD_DSTYLE_DIMBREAK
1070
   391
1040
6.349999999999999
  0
ENDTAB
  0
TABLE
  2
BLOCK_RECORD
  5
1
330
0
100
AcDbSymbolTable
 70
    16
  0
BLOCK_RECORD
  5
1F
102
{ACAD_XDICTIONARY
360
306
102
}
330
1
100
AcDbSymbolTableRecord
100
AcDbBlockTableRecord
  2
*Model_Space
340
22
  0
BLOCK_RECORD
  5
1B
330
1
100
AcDbSymbolTableRecord
100
AcDbBlockTableRecord
  2
*Paper_Space
340
1E
  0
BLOCK_RECORD
  5
23
330
1
100
AcDbSymbolTableRecord
100
AcDbBlockTableRecord
  2
*Paper_Space0
340
26
  0
BLOCK_RECORD
  5
1EC
330
1
100
AcDbSymbolTableRecord
100
AcDbBlockTableRecord
  2
ASSORTED_DRAFT1
340
0
  0
BLOCK_RECORD
  5
1FA
330
1
100
AcDbSymbolTableRecord
100
AcDbBlockTableRecord
  2
*D2
340
0
  0
BLOCK_RECORD
  5
206
330
1
100
AcDbSymbolTableRecord
100
AcDbBlockTableRecord
  2
_U0
340
0
  0
BLOCK_RECORD
  5
212
330
1
100
AcDbSymbolTableRecord
100
AcDbBlockTableRecord
  2
*D4
340
0
  0
BLOCK_RECORD
  5
21E
330
1
100
AcDbSymbolTableRecord
100
AcDbBlockTableRecord
  2
_U1
340
0
  0
BLOCK_RECORD
  5
22A
330
1
100
AcDbSymbolTableRecord
100
AcDbBlockTableRecord
  2
*D6
340
0
  0
BLOCK_RECORD
  5
236
330
1
100
AcDbSymbolTableRecord
100
AcDbBlockTableRecord
  2
_U2
340
0
  0
BLOCK_RECORD
  5
242
330
1
100
AcDbSymbolTableRecord
100
AcDbBlockTableRecord
  2
*D8
340
0
  0
BLOCK_RECORD
  5
24E
330
1
100
AcDbSymbolTableRecord
100
AcDbBlockTableRecord
  2
_U3
340
0
  0
BLOCK_RECORD
  5
25A
330
1
100
AcDbSymbolTableRecord
100
AcDbBlockTableRecord
  2
*D10
340
0
  0
BLOCK_RECORD
  5
265
330
1
100
AcDbSymbolTableRecord
100
AcDbBlockTableRecord
  2
_U4
340
0
  0
BLOCK_RECORD
  5
270
330
1
100
AcDbSymbolTableRecord
100
AcDbBlockTableRecord
  2
*D12
340
0
  0
BLOCK_RECORD
  5
27C
330
1
100
AcDbSymbolTableRecord
100
AcDbBlockTableRecord
  2
_U5
340
0
  0
BLOCK_RECORD
  5
289
330
1
100
AcDbSymbolTableRecord
100
AcDbBlockTableRecord
  2
*D14
340
0
  0
BLOCK_RECORD
  5
295
330
1
100
AcDbSymbolTableRecord
100
AcDbBlockTableRecord
  2
_U6
340
0
  0
ENDTAB
  0
ENDSEC
  0
SECTION
  2
BLOCKS
  0
BLOCK
  5
20
330
1F
100
AcDbEntity
  8
0
100
AcDbBlockBegin
  2
*Model_Space
 70
     0
 10
0.0
 20
0.0
 30
0.0
  3
*Model_Space
  1

  0
ENDBLK
  5
21
330
1F
100
AcDbEntity
  8
0
100
AcDbBlockEnd
  0
BLOCK
  5
1C
330
1B
100
AcDbEntity
 67
     1
  8
0
100
AcDbBlockBegin
  2
*Paper_Space
 70
     0
 10
0.0
 20
0.0
 30
0.0
  3
*Paper_Space
  1

  0
ENDBLK
  5
1D
330
1B
100
AcDbEntity
 67
     1
  8
0
100
AcDbBlockEnd
  0
BLOCK
  5
24
330
23
100
AcDbEntity
 67
     1
  8
0
100
AcDbBlockBegin
  2
*Paper_Space0
 70
     0
 10
0.0
 20
0.0
 30
0.0
  3
*Paper_Space0
  1

  0
ENDBLK
  5
25
330
23
100
AcDbEntity
 67
     1
  8
0
100
AcDbBlockEnd
  0
BLOCK
  5
1EF
330
1EC
100
AcDbEntity
  8
0
100
AcDbBlockBegin
  2
ASSORTED_DRAFT1
 70
     0
 10
0.0
 20
0.0
 30
0.0
  3
ASSORTED_DRAFT1
  1

  0
SOLID
  5
1ED
330
1EC
100
AcDbEntity
  8
0
 62
   254
370
    13
100
AcDbTrace
 10
270.185042
 20
162.048605
 30
0.0
 11
265.185046
 21
160.940132
 31
0.0
 12
265.1850379999999
 22
163.157079
 32
0.0
 13
270.185042
 23
162.048605
 33
0.0
  0
ENDBLK
  5
1F0
330
1EC
100
AcDbEntity
  8
0
100
AcDbBlockEnd
  0
BLOCK
  5
1FB
330
1FA
100
AcDbEntity
  8
0
100
AcDbBlockBegin
  2
*D2
 70
     1
 10
0.0
 20
0.0
 30
0.0
  3
*D2
  1

  0
LINE
  5
1FD
330
1FA
100
AcDbEntity
  8
0
 62
   254
370
    -2
100
AcDbLine
 10
347.004442
 20
300.807894
 30
0.0
 11
347.004442
 21
328.5109970000001
 31
0.0
  0
LINE
  5
1FE
330
1FA
100
AcDbEntity
  8
0
 62
   254
370
    -2
100
AcDbLine
 10
274.404842
 20
288.907994
 30
0.0
 11
274.404842
 21
328.5109970000001
 31
0.0
  0
LINE
  5
1FF
330
1FA
100
AcDbEntity
  8
0
 62
   254
370
    -2
100
AcDbLine
 10
343.504442
 20
327.510997
 30
0.0
 11
277.904842
 21
327.510997
 31
0.0
  0
SOLID
  5
200
330
1FA
100
AcDbEntity
  8
0
 62
   254
100
AcDbTrace
 10
343.504442
 20
326.927663
 30
0.0
 11
343.504442
 21
328.09433
 31
0.0
 12
347.004442
 22
327.510997
 32
0.0
 13
347.004442
 23
327.510997
 33
0.0
  0
SOLID
  5
201
330
1FA
100
AcDbEntity
  8
0
 62
   254
100
AcDbTrace
 10
277.904842
 20
328.09433
 30
0.0
 11
277.904842
 21
326.927663
 31
0.0
 12
274.404842
 22
327.510997
 32
0.0
 13
274.404842
 23
327.510997
 33
0.0
  0
MTEXT
  5
202
330
1FA
100
AcDbEntity
  8
0
 62
   254
370
    13
100
AcDbMText
 10
310.704642
 20
332.7609970000001
 30
0.0
 40
3.5
 41
0.0
 71
     5
 72
     1
  1
\A1;72.6
  7
cesky
 73
     1
 44
1.0
  0
POINT
  5
203
330
1FA
100
AcDbEntity
  8
Defpoints
 62
     0
100
AcDbPoint
 10
347.004442
 20
300.807894
 30
0.0
  0
POINT
  5
204
330
1FA
100
AcDbEntity
  8
Defpoints
 62
     0
100
AcDbPoint
 10
274.404842
 20
288.907994
 30
0.0
  0
POINT
  5
205
330
1FA
100
AcDbEntity
  8
Defpoints
 62
     0
100
AcDbPoint
 10
274.404842
 20
327.510997
 30
0.0
  0
ENDBLK
  5
1FC
330
1FA
100
AcDbEntity
  8
0
100
AcDbBlockEnd
  0
BLOCK
  5
20D
330
206
100
AcDbEntity
  8
0
100
AcDbBlockBegin
  2
_U0
 70
     0
 10
0.0
 20
0.0
 30
0.0
  3
_U0
  1

  0
ENDBLK
  5
20E
330
206
100
AcDbEntity
  8
0
100
AcDbBlockEnd
  0
BLOCK
  5
213
330
212
100
AcDbEntity
  8
0
100
AcDbBlockBegin
  2
*D4
 70
     1
 10
0.0
 20
0.0
 30
0.0
  3
*D4
  1

  0
LINE
  5
215
330
212
100
AcDbEntity
  8
0
 62
   254
370
    -2
100
AcDbLine
 10
347.004442
 20
302.807894
 30
0.0
 11
347.004442
 21
341.687968
 31
0.0
  0
LINE
  5
216
330
212
100
AcDbEntity
  8
0
 62
   254
370
    -2
100
AcDbLine
 10
217.404842
 20
300.007994
 30
0.0
 11
217.404842
 21
341.687968
 31
0.0
  0
LINE
  5
217
330
212
100
AcDbEntity
  8
0
 62
   254
370
    -2
100
AcDbLine
 10
343.504442
 20
340.687968
 30
0.0
 11
220.904842
 21
340.687968
 31
0.0
  0
SOLID
  5
218
330
212
100
AcDbEntity
  8
0
 62
   254
100
AcDbTrace
 10
343.504442
 20
340.104634
 30
0.0
 11
343.504442
 21
341.271301
 31
0.0
 12
347.004442
 22
340.687968
 32
0.0
 13
347.004442
 23
340.687968
 33
0.0
  0
SOLID
  5
219
330
212
100
AcDbEntity
  8
0
 62
   254
100
AcDbTrace
 10
220.904842
 20
341.271301
 30
0.0
 11
220.904842
 21
340.104634
 31
0.0
 12
217.404842
 22
340.687968
 32
0.0
 13
217.404842
 23
340.687968
 33
0.0
  0
MTEXT
  5
21A
330
212
100
AcDbEntity
  8
0
 62
   254
370
    13
100
AcDbMText
 10
282.204642
 20
345.937968
 30
0.0
 40
3.5
 41
0.0
 71
     5
 72
     1
  1
\A1;129.6
  7
cesky
 73
     1
 44
1.0
  0
POINT
  5
21B
330
212
100
AcDbEntity
  8
Defpoints
 62
     0
100
AcDbPoint
 10
347.004442
 20
302.807894
 30
0.0
  0
POINT
  5
21C
330
212
100
AcDbEntity
  8
Defpoints
 62
     0
100
AcDbPoint
 10
217.404842
 20
300.007994
 30
0.0
  0
POINT
  5
21D
330
212
100
AcDbEntity
  8
Defpoints
 62
     0
100
AcDbPoint
 10
217.404842
 20
340.687968
 30
0.0
  0
ENDBLK
  5
214
330
212
100
AcDbEntity
  8
0
100
AcDbBlockEnd
  0
BLOCK
  5
225
330
21E
100
AcDbEntity
  8
0
100
AcDbBlockBegin
  2
_U1
 70
     0
 10
0.0
 20
0.0
 30
0.0
  3
_U1
  1

  0
ENDBLK
  5
226
330
21E
100
AcDbEntity
  8
0
100
AcDbBlockEnd
  0
BLOCK
  5
22B
330
22A
100
AcDbEntity
  8
0
100
AcDbBlockBegin
  2
*D6
 70
     1
 10
0.0
 20
0.0
 30
0.0
  3
*D6
  1

  0
LINE
  5
22D
330
22A
100
AcDbEntity
  8
0
 62
   254
370
    -2
100
AcDbLine
 10
274.404842
 20
288.907994
 30
0.0
 11
274.404842
 21
328.5109970000001
 31
0.0
  0
LINE
  5
22E
330
22A
100
AcDbEntity
  8
0
 62
   254
370
    -2
100
AcDbLine
 10
217.404842
 20
294.457994
 30
0.0
 11
217.404842
 21
328.5109970000001
 31
0.0
  0
LINE
  5
22F
330
22A
100
AcDbEntity
  8
0
 62
   254
370
    -2
100
AcDbLine
 10
270.904842
 20
327.510997
 30
0.0
 11
220.904842
 21
327.510997
 31
0.0
  0
SOLID
  5
230
330
22A
100
AcDbEntity
  8
0
 62
   254
100
AcDbTrace
 10
270.904842
 20
326.927663
 30
0.0
 11
270.904842
 21
328.09433
 31
0.0
 12
274.404842
 22
327.510997
 32
0.0
 13
274.404842
 23
327.510997
 33
0.0
  0
SOLID
  5
231
330
22A
100
AcDbEntity
  8
0
 62
   254
100
AcDbTrace
 10
220.904842
 20
328.09433
 30
0.0
 11
220.904842
 21
326.927663
 31
0.0
 12
217.404842
 22
327.510997
 32
0.0
 13
217.404842
 23
327.510997
 33
0.0
  0
MTEXT
  5
232
330
22A
100
AcDbEntity
  8
0
 62
   254
370
    13
100
AcDbMText
 10
245.904842
 20
332.7609970000001
 30
0.0
 40
3.5
 41
0.0
 71
     5
 72
     1
  1
\A1;57
  7
cesky
 73
     1
 44
1.0
  0
POINT
  5
233
330
22A
100
AcDbEntity
  8
Defpoints
 62
     0
100
AcDbPoint
 10
274.404842
 20
288.907994
 30
0.0
  0
POINT
  5
234
330
22A
100
AcDbEntity
  8
Defpoints
 62
     0
100
AcDbPoint
 10
217.404842
 20
294.457994
 30
0.0
  0
POINT
  5
235
330
22A
100
AcDbEntity
  8
Defpoints
 62
     0
100
AcDbPoint
 10
217.404842
 20
327.510997
 30
0.0
  0
ENDBLK
  5
22C
330
22A
100
AcDbEntity
  8
0
100
AcDbBlockEnd
  0
BLOCK
  5
23D
330
236
100
AcDbEntity
  8
0
100
AcDbBlockBegin
  2
_U2
 70
     0
 10
0.0
 20
0.0
 30
0.0
  3
_U2
  1

  0
ENDBLK
  5
23E
330
236
100
AcDbEntity
  8
0
100
AcDbBlockEnd
  0
BLOCK
  5
243
330
242
100
AcDbEntity
  8
0
100
AcDbBlockBegin
  2
*D8
 70
     1
 10
0.0
 20
0.0
 30
0.0
  3
*D8
  1

  0
LINE
  5
245
330
242
100
AcDbEntity
  8
0
 62
   254
370
    -2
100
AcDbLine
 10
347.004442
 20
300.807894
 30
0.0
 11
347.004442
 21
315.522492
 31
0.0
  0
LINE
  5
246
330
242
100
AcDbEntity
  8
0
 62
   254
370
    -2
100
AcDbLine
 10
292.469819
 20
300.41301
 30
0.0
 11
292.469819
 21
315.522492
 31
0.0
  0
LINE
  5
247
330
242
100
AcDbEntity
  8
0
 62
   254
370
    -2
100
AcDbLine
 10
343.504442
 20
314.522492
 30
0.0
 11
295.969819
 21
314.522492
 31
0.0
  0
SOLID
  5
248
330
242
100
AcDbEntity
  8
0
 62
   254
100
AcDbTrace
 10
343.504442
 20
313.939158
 30
0.0
 11
343.504442
 21
315.105825
 31
0.0
 12
347.004442
 22
314.522492
 32
0.0
 13
347.004442
 23
314.522492
 33
0.0
  0
SOLID
  5
249
330
242
100
AcDbEntity
  8
0
 62
   254
100
AcDbTrace
 10
295.969819
 20
315.105825
 30
0.0
 11
295.969819
 21
313.939158
 31
0.0
 12
292.469819
 22
314.522492
 32
0.0
 13
292.469819
 23
314.522492
 33
0.0
  0
MTEXT
  5
24A
330
242
100
AcDbEntity
  8
0
 62
   254
370
    13
100
AcDbMText
 10
319.737131
 20
319.772492
 30
0.0
 40
3.5
 41
0.0
 71
     5
 72
     1
  1
\A1;54.5
  7
cesky
 73
     1
 44
1.0
  0
POINT
  5
24B
330
242
100
AcDbEntity
  8
Defpoints
 62
     0
100
AcDbPoint
 10
347.004442
 20
300.807894
 30
0.0
  0
POINT
  5
24C
330
242
100
AcDbEntity
  8
Defpoints
 62
     0
100
AcDbPoint
 10
292.469819
 20
300.41301
 30
0.0
  0
POINT
  5
24D
330
242
100
AcDbEntity
  8
Defpoints
 62
     0
100
AcDbPoint
 10
292.469819
 20
314.522492
 30
0.0
  0
ENDBLK
  5
244
330
242
100
AcDbEntity
  8
0
100
AcDbBlockEnd
  0
BLOCK
  5
255
330
24E
100
AcDbEntity
  8
0
100
AcDbBlockBegin
  2
_U3
 70
     0
 10
0.0
 20
0.0
 30
0.0
  3
_U3
  1

  0
ENDBLK
  5
256
330
24E
100
AcDbEntity
  8
0
100
AcDbBlockEnd
  0
BLOCK
  5
25B
330
25A
100
AcDbEntity
  8
0
100
AcDbBlockBegin
  2
*D10
 70
     1
 10
0.0
 20
0.0
 30
0.0
  3
*D10
  1

  0
LINE
  5
25D
330
25A
100
AcDbEntity
  8
0
 62
   254
370
    -2
100
AcDbLine
 10
292.132259
 20
288.907994
 30
0.0
 11
360.98464
 21
288.907994
 31
0.0
  0
LINE
  5
25E
330
25A
100
AcDbEntity
  8
0
 62
   254
370
    -2
100
AcDbLine
 10
330.83929
 20
300.807894
 30
0.0
 11
360.98464
 21
300.807894
 31
0.0
  0
LINE
  5
25F
330
25A
100
AcDbEntity
  8
0
 62
   254
370
    -2
100
AcDbLine
 10
359.98464
 20
304.307894
 30
0.0
 11
359.98464
 21
307.807894
 31
0.0
  0
SOLID
  5
260
330
25A
100
AcDbEntity
  8
0
 62
   254
100
AcDbTrace
 10
359.401307
 20
304.307894
 30
0.0
 11
360.5679740000001
 21
304.307894
 31
0.0
 12
359.98464
 22
300.807894
 32
0.0
 13
359.98464
 23
300.807894
 33
0.0
  0
MTEXT
  5
261
330
25A
100
AcDbEntity
  8
0
 62
   254
370
    13
100
AcDbMText
 10
354.73464
 20
273.07466
 30
0.0
 40
3.5
 41
0.0
 71
     5
 72
     1
  1
\A1;23.8
  7
cesky
 11
0.0
 21
1.0
 31
0.0
 73
     1
 44
1.0
  0
POINT
  5
262
330
25A
100
AcDbEntity
  8
Defpoints
 62
     0
100
AcDbPoint
 10
292.132259
 20
288.907994
 30
0.0
  0
POINT
  5
263
330
25A
100
AcDbEntity
  8
Defpoints
 62
     0
100
AcDbPoint
 10
330.83929
 20
300.807894
 30
0.0
  0
POINT
  5
264
330
25A
100
AcDbEntity
  8
Defpoints
 62
     0
100
AcDbPoint
 10
359.98464
 20
300.807894
 30
0.0
  0
ENDBLK
  5
25C
330
25A
100
AcDbEntity
  8
0
100
AcDbBlockEnd
  0
BLOCK
  5
26B
330
265
100
AcDbEntity
  8
0
100
AcDbBlockBegin
  2
_U4
 70
     0
 10
0.0
 20
0.0
 30
0.0
  3
_U4
  1

  0
ENDBLK
  5
26C
330
265
100
AcDbEntity
  8
0
100
AcDbBlockEnd
  0
BLOCK
  5
271
330
270
100
AcDbEntity
  8
0
100
AcDbBlockBegin
  2
*D12
 70
     1
 10
0.0
 20
0.0
 30
0.0
  3
*D12
  1

  0
LINE
  5
273
330
270
100
AcDbEntity
  8
0
 62
    95
370
    -2
100
AcDbLine
 10
219.004842
 20
301.607994
 30
0.0
 11
203.622343
 21
301.607994
 31
0.0
  0
LINE
  5
274
330
270
100
AcDbEntity
  8
0
 62
    95
370
    -2
100
AcDbLine
 10
219.004842
 20
276.207994
 30
0.0
 11
203.622343
 21
276.207994
 31
0.0
  0
LINE
  5
275
330
270
100
AcDbEntity
  8
0
 62
    95
370
    -2
100
AcDbLine
 10
204.622343
 20
298.107994
 30
0.0
 11
204.622343
 21
279.707994
 31
0.0
  0
SOLID
  5
276
330
270
100
AcDbEntity
  8
0
 62
    95
100
AcDbTrace
 10
205.205676
 20
298.107994
 30
0.0
 11
204.03901
 21
298.107994
 31
0.0
 12
204.622343
 22
301.607994
 32
0.0
 13
204.622343
 23
301.607994
 33
0.0
  0
SOLID
  5
277
330
270
100
AcDbEntity
  8
0
 62
    95
100
AcDbTrace
 10
204.03901
 20
279.707994
 30
0.0
 11
205.205676
 21
279.707994
 31
0.0
 12
204.622343
 22
276.207994
 32
0.0
 13
204.622343
 23
276.207994
 33
0.0
  0
MTEXT
  5
278
330
270
100
AcDbEntity
  8
0
 62
    95
370
    13
100
AcDbMText
 10
199.372343
 20
288.907994
 30
0.0
 40
3.5
 41
0.0
 71
     5
 72
     1
  1
\A1;25.4
  7
cesky
 11
0.0
 21
1.0
 31
0.0
 73
     1
 44
1.0
  0
POINT
  5
279
330
270
100
AcDbEntity
  8
Defpoints
 62
     0
100
AcDbPoint
 10
219.004842
 20
301.607994
 30
0.0
  0
POINT
  5
27A
330
270
100
AcDbEntity
  8
Defpoints
 62
     0
100
AcDbPoint
 10
219.004842
 20
276.207994
 30
0.0
  0
POINT
  5
27B
330
270
100
AcDbEntity
  8
Defpoints
 62
     0
100
AcDbPoint
 10
204.622343
 20
276.207994
 30
0.0
  0
ENDBLK
  5
272
330
270
100
AcDbEntity
  8
0
100
AcDbBlockEnd
  0
BLOCK
  5
284
330
27C
100
AcDbEntity
  8
0
100
AcDbBlockBegin
  2
_U5
 70
     0
 10
0.0
 20
0.0
 30
0.0
  3
_U5
  1

  0
ENDBLK
  5
285
330
27C
100
AcDbEntity
  8
0
100
AcDbBlockEnd
  0
BLOCK
  5
28A
330
289
100
AcDbEntity
  8
0
100
AcDbBlockBegin
  2
*D14
 70
     1
 10
0.0
 20
0.0
 30
0.0
  3
*D14
  1

  0
LINE
  5
28C
330
289
100
AcDbEntity
  8
0
 62
    95
370
    -2
100
AcDbLine
 10
277.154842
 20
306.407994
 30
0.0
 11
188.21898
 21
306.407994
 31
0.0
  0
LINE
  5
28D
330
289
100
AcDbEntity
  8
0
 62
    95
370
    -2
100
AcDbLine
 10
277.154842
 20
271.407994
 30
0.0
 11
188.21898
 21
271.407994
 31
0.0
  0
LINE
  5
28E
330
289
100
AcDbEntity
  8
0
 62
    95
370
    -2
100
AcDbLine
 10
189.21898
 20
302.907994
 30
0.0
 11
189.21898
 21
274.907994
 31
0.0
  0
SOLID
  5
28F
330
289
100
AcDbEntity
  8
0
 62
    95
100
AcDbTrace
 10
189.802313
 20
302.907994
 30
0.0
 11
188.635647
 21
302.907994
 31
0.0
 12
189.21898
 22
306.407994
 32
0.0
 13
189.21898
 23
306.407994
 33
0.0
  0
SOLID
  5
290
330
289
100
AcDbEntity
  8
0
 62
    95
100
AcDbTrace
 10
188.635647
 20
274.907994
 30
0.0
 11
189.802313
 21
274.907994
 31
0.0
 12
189.21898
 22
271.407994
 32
0.0
 13
189.21898
 23
271.407994
 33
0.0
  0
MTEXT
  5
291
330
289
100
AcDbEntity
  8
0
 62
    95
370
    13
100
AcDbMText
 10
183.96898
 20
288.907994
 30
0.0
 40
3.5
 41
0.0
 71
     5
 72
     1
  1
\A1;35
  7
cesky
 11
0.0
 21
1.0
 31
0.0
 73
     1
 44
1.0
  0
POINT
  5
292
330
289
100
AcDbEntity
  8
Defpoints
 62
     0
100
AcDbPoint
 10
277.154842
 20
306.407994
 30
0.0
  0
POINT
  5
293
330
289
100
AcDbEntity
  8
Defpoints
 62
     0
100
AcDbPoint
 10
277.154842
 20
271.407994
 30
0.0
  0
POINT
  5
294
330
289
100
AcDbEntity
  8
Defpoints
 62
     0
100
AcDbPoint
 10
189.21898
 20
271.407994
 30
0.0
  0
ENDBLK
  5
28B
330
289
100
AcDbEntity
  8
0
100
AcDbBlockEnd
  0
BLOCK
  5
29D
330
295
100
AcDbEntity
  8
0
100
AcDbBlockBegin
  2
_U6
 70
     0
 10
0.0
 20
0.0
 30
0.0
  3
_U6
  1

  0
ENDBLK
  5
29E
330
295
100
AcDbEntity
  8
0
100
AcDbBlockEnd
  0
ENDSEC
  0
SECTION
  2
ENTITIES
  0
POINT
  5
73
102
{ACAD_REACTORS
330
34D
102
}
330
1F
100
AcDbEntity
  8
80
100
AcDbPoint
 10
274.404842
 20
288.907994
 30
0.0
  0
POINT
  5
76
330
1F
100
AcDbEntity
  8
SK4
 60
     1
100
AcDbPoint
 10
219.004842
 20
288.907994
 30
0.0
  0
POINT
  5
78
330
1F
100
AcDbEntity
  8
SK4
 60
     1
100
AcDbPoint
 10
274.404842
 20
288.907994
 30
0.0
  0
POINT
  5
79
330
1F
100
AcDbEntity
  8
4
 60
     1
100
AcDbPoint
 10
292.132259
 20
288.907994
 30
0.0
  0
POINT
  5
7A
330
1F
100
AcDbEntity
  8
4
 60
     1
100
AcDbPoint
 10
345.8158640000001
 20
288.907994
 30
0.0
  0
POINT
  5
7B
330
1F
100
AcDbEntity
  8
SK6
 60
     1
100
AcDbPoint
 10
274.404842
 20
288.907994
 30
0.0
  0
POINT
  5
7C
330
1F
100
AcDbEntity
  8
SK6
 60
     1
100
AcDbPoint
 10
292.469819
 20
300.41301
 30
0.0
  0
LINE
  5
7D
330
1F
100
AcDbEntity
  8
1
100
AcDbLine
 10
338.748538
 20
300.1957470000001
 30
0.0
 11
338.746539
 21
300.241643
 31
0.0
  0
LINE
  5
7F
330
1F
100
AcDbEntity
  8
1
100
AcDbLine
 10
338.686509
 20
300.307994
 30
0.0
 11
333.849371
 21
300.307994
 31
0.0
  0
LINE
  5
80
330
1F
100
AcDbEntity
  8
SK1
100
AcDbLine
 10
217.404842
 20
300.007994
 30
0.0
 11
217.404842
 21
277.807994
 31
0.0
  0
LINE
  5
81
330
1F
100
AcDbEntity
  8
SK1
100
AcDbLine
 10
217.404842
 20
277.807994
 30
0.0
 11
219.004842
 21
276.207994
 31
0.0
  0
LINE
  5
82
330
1F
100
AcDbEntity
  8
SK1
100
AcDbLine
 10
219.004842
 20
301.607994
 30
0.0
 11
217.404842
 21
300.007994
 31
0.0
  0
LINE
  5
83
330
1F
100
AcDbEntity
  8
SK1
100
AcDbLine
 10
219.004842
 20
301.607994
 30
0.0
 11
219.004842
 21
276.207994
 31
0.0
  0
LINE
  5
84
330
1F
100
AcDbEntity
  8
1
100
AcDbLine
 10
274.404842
 20
305.907994
 30
0.0
 11
274.404842
 21
288.907994
 31
0.0
  0
LINE
  5
85
330
1F
100
AcDbEntity
  8
1
100
AcDbLine
 10
274.404842
 20
288.907994
 30
0.0
 11
274.404842
 21
271.907994
 31
0.0
  0
LINE
  5
86
330
1F
100
AcDbEntity
  8
1
100
AcDbLine
 10
346.922822
 20
283.317809
 30
0.0
 11
346.315238
 21
282.30662
 31
0.0
  0
LINE
  5
88
330
1F
100
AcDbEntity
  8
1
100
AcDbLine
 10
346.400722
 20
283.467519
 30
0.0
 11
346.922822
 21
283.317809
 31
0.0
  0
LINE
  5
89
330
1F
100
AcDbEntity
  8
1
100
AcDbLine
 10
345.937941
 20
282.6973220000001
 30
0.0
 11
346.315238
 21
282.30662
 31
0.0
  0
LINE
  5
8A
330
1F
100
AcDbEntity
  8
1
100
AcDbLine
 10
346.315238
 20
282.30662
 30
0.0
 11
345.650131
 21
281.937945
 31
0.0
  0
LINE
  5
8B
330
1F
100
AcDbEntity
  8
1
100
AcDbLine
 10
346.477436
 20
287.862412
 30
0.0
 11
347.004442
 21
287.99381
 31
0.0
  0
LINE
  5
8C
330
1F
100
AcDbEntity
  8
1
100
AcDbLine
 10
346.419273
 20
289.049483
 30
0.0
 11
347.004442
 21
287.99381
 31
0.0
  0
LINE
  5
8D
330
1F
100
AcDbEntity
  8
1
100
AcDbLine
 10
346.028571
 20
288.672186
 30
0.0
 11
346.419273
 21
289.049483
 31
0.0
  0
LINE
  5
8E
330
1F
100
AcDbEntity
  8
1
100
AcDbLine
 10
346.013185
 20
289.2934850000001
 30
0.0
 11
346.419273
 21
289.049483
 31
0.0
  0
LINE
  5
8F
330
1F
100
AcDbEntity
  8
1
100
AcDbLine
 10
345.937941
 20
282.6973220000001
 30
0.0
 11
345.563446
 21
282.489736
 31
0.0
  0
LINE
  5
90
330
1F
100
AcDbEntity
  8
1
100
AcDbLine
 10
345.823457
 20
288.795431
 30
0.0
 11
346.028571
 21
288.672186
 31
0.0
  0
LINE
  5
91
330
1F
100
AcDbEntity
  8
1
100
AcDbLine
 10
346.028571
 20
288.672186
 30
0.0
 11
345.823461
 21
288.474115
 31
0.0
  0
LINE
  5
92
330
1F
100
AcDbEntity
  8
1
100
AcDbLine
 10
346.028571
 20
288.672186
 30
0.0
 11
346.477436
 21
287.862412
 31
0.0
  0
LINE
  5
93
330
1F
100
AcDbEntity
  8
1
100
AcDbLine
 10
345.937941
 20
282.6973220000001
 30
0.0
 11
345.620393
 21
283.026152
 31
0.0
  0
LINE
  5
94
330
1F
100
AcDbEntity
  8
1
100
AcDbLine
 10
346.400722
 20
283.467519
 30
0.0
 11
345.937941
 21
282.6973220000001
 31
0.0
  0
LINE
  5
95
330
1F
100
AcDbEntity
  8
1
100
AcDbLine
 10
346.477436
 20
287.862412
 30
0.0
 11
345.891299
 21
287.716272
 31
0.0
  0
LINE
  5
96
330
1F
100
AcDbEntity
  8
1
100
AcDbLine
 10
346.400722
 20
283.467519
 30
0.0
 11
345.820043
 21
283.634026
 31
0.0
  0
LINE
  5
97
330
1F
100
AcDbEntity
  8
1
100
AcDbLine
 10
346.477436
 20
287.862412
 30
0.0
 11
346.400722
 21
283.467519
 31
0.0
  0
LINE
  5
98
330
1F
100
AcDbEntity
  8
1
100
AcDbLine
 10
345.65592
 20
283.360879
 30
0.0
 11
345.820043
 21
283.634026
 31
0.0
  0
LINE
  5
99
330
1F
100
AcDbEntity
  8
1
100
AcDbLine
 10
345.820043
 20
283.634026
 30
0.0
 11
345.891299
 21
287.716272
 31
0.0
  0
LINE
  5
9A
330
1F
100
AcDbEntity
  8
1
100
AcDbLine
 10
345.891299
 20
287.716272
 30
0.0
 11
345.823467
 21
287.838646
 31
0.0
  0
LINE
  5
9B
330
1F
100
AcDbEntity
  8
1
100
AcDbLine
 10
347.004442
 20
287.99381
 30
0.0
 11
346.922822
 21
283.317809
 31
0.0
  0
LINE
  5
9C
330
1F
100
AcDbEntity
  8
1
100
AcDbLine
 10
343.081193
 20
295.536127
 30
0.0
 11
343.079816
 21
295.530556
 31
0.0
  0
LINE
  5
9E
330
1F
100
AcDbEntity
  8
1
100
AcDbLine
 10
341.96899
 20
295.52004
 30
0.0
 11
341.944558
 21
295.421246
 31
0.0
  0
LINE
  5
9F
330
1F
100
AcDbEntity
  8
1
100
AcDbLine
 10
341.866222
 20
297.343494
 30
0.0
 11
341.891004
 21
297.4437
 31
0.0
  0
LINE
  5
A0
330
1F
100
AcDbEntity
  8
1
100
AcDbLine
 10
341.28866
 20
296.497358
 30
0.0
 11
341.264614
 21
296.400128
 31
0.0
  0
LINE
  5
A1
330
1F
100
AcDbEntity
  8
1
100
AcDbLine
 10
341.375991
 20
296.482303
 30
0.0
 11
341.351405
 21
296.382884
 31
0.0
  0
LINE
  5
A2
330
1F
100
AcDbEntity
  8
1
100
AcDbLine
 10
343.555508
 20
295.894289
 30
0.0
 11
343.579541
 21
295.991468
 31
0.0
  0
LINE
  5
A3
330
1F
100
AcDbEntity
  8
1
100
AcDbLine
 10
343.466708
 20
295.915113
 30
0.0
 11
343.491303
 21
296.014566
 31
0.0
  0
LINE
  5
A4
330
1F
100
AcDbEntity
  8
1
100
AcDbLine
 10
342.52369
 20
295.296923
 30
0.0
 11
342.548151
 21
295.395831
 31
0.0
  0
LINE
  5
A5
330
1F
100
AcDbEntity
  8
1
100
AcDbLine
 10
336.108166
 20
290.516411
 30
0.0
 11
336.12949
 21
289.893163
 31
0.0
  0
LINE
  5
A6
330
1F
100
AcDbEntity
  8
1
100
AcDbLine
 10
344.553717
 20
291.927837
 30
0.0
 11
339.705663
 21
291.71665
 31
0.0
  0
LINE
  5
A7
330
1F
100
AcDbEntity
  8
1
100
AcDbLine
 10
285.504842
 20
285.088413
 30
0.0
 11
285.504842
 21
300.244902
 31
0.0
  0
LINE
  5
A8
330
1F
100
AcDbEntity
  8
1
100
AcDbLine
 10
343.106869
 20
295.643122
 30
0.0
 11
343.107883
 21
295.646911
 31
0.0
  0
LINE
  5
A9
330
1F
100
AcDbEntity
  8
1
100
AcDbLine
 10
341.484022
 20
295.793907
 30
0.0
 11
341.481446
 21
295.801509
 31
0.0
  0
LINE
  5
AA
330
1F
100
AcDbEntity
  8
1
100
AcDbLine
 10
341.569424
 20
295.98709
 30
0.0
 11
341.567646
 21
295.978283
 31
0.0
  0
LINE
  5
AB
330
1F
100
AcDbEntity
  8
1
100
AcDbLine
 10
341.54283
 20
295.87793
 30
0.0
 11
341.5676509999999
 21
295.978297
 31
0.0
  0
LINE
  5
AC
330
1F
100
AcDbEntity
  8
1
100
AcDbLine
 10
343.10687
 20
295.643123
 30
0.0
 11
343.082027
 21
295.542668
 31
0.0
  0
LINE
  5
AD
330
1F
100
AcDbEntity
  8
1
100
AcDbLine
 10
341.864011
 20
297.3313819999999
 30
0.0
 11
341.888854
 21
297.431837
 31
0.0
  0
LINE
  5
AE
330
1F
100
AcDbEntity
  8
1
100
AcDbLine
 10
343.42803
 20
297.096488
 30
0.0
 11
343.403208
 21
296.99612
 31
0.0
  0
LINE
  5
AF
330
1F
100
AcDbEntity
  8
1
100
AcDbLine
 10
338.769492
 20
293.209749
 30
0.0
 11
338.482483
 21
299.587922
 31
0.0
  0
LINE
  5
B0
330
1F
100
AcDbEntity
  8
1
100
AcDbLine
 10
339.978062
 20
298.943561
 30
0.0
 11
344.972271
 21
299.161115
 31
0.0
  0
LINE
  5
B1
330
1F
100
AcDbEntity
  8
1
100
AcDbLine
 10
340.202281
 20
293.96075
 30
0.0
 11
339.978062
 21
298.943561
 31
0.0
  0
LINE
  5
B2
330
1F
100
AcDbEntity
  8
1
100
AcDbLine
 10
345.19649
 20
294.178305
 30
0.0
 11
340.202281
 21
293.96075
 31
0.0
  0
LINE
  5
B3
330
1F
100
AcDbEntity
  8
1
100
AcDbLine
 10
344.972271
 20
299.161115
 30
0.0
 11
345.19649
 21
294.178305
 31
0.0
  0
LINE
  5
B4
330
1F
100
AcDbEntity
  8
1
100
AcDbLine
 10
339.215546
 20
300.387127
 30
0.0
 11
345.60831
 21
300.665604
 31
0.0
  0
LINE
  5
B5
330
1F
100
AcDbEntity
  8
1
100
AcDbLine
 10
346.410291
 20
299.933268
 30
0.0
 11
346.6973
 21
293.555095
 31
0.0
  0
LINE
  5
B6
330
1F
100
AcDbEntity
  8
1
100
AcDbLine
 10
345.964236
 20
292.75589
 30
0.0
 11
339.571472
 21
292.477413
 31
0.0
  0
LINE
  5
B7
330
1F
100
AcDbEntity
  8
1
100
AcDbLine
 10
338.729877
 20
300.173675
 30
0.0
 11
338.724163
 21
300.304921
 31
0.0
  0
LINE
  5
B8
330
1F
100
AcDbEntity
  8
1
100
AcDbLine
 10
344.782488
 20
284.939494
 30
0.0
 11
345.074324
 21
284.939494
 31
0.0
  0
LINE
  5
B9
330
1F
100
AcDbEntity
  8
1
100
AcDbLine
 10
345.536929
 20
282.23979
 30
0.0
 11
345.823468
 21
284.939494
 31
0.0
  0
LINE
  5
BA
330
1F
100
AcDbEntity
  8
1
100
AcDbLine
 10
345.823468
 20
284.939494
 30
0.0
 11
345.823468
 21
288.980392
 31
0.0
  0
LINE
  5
BB
330
1F
100
AcDbEntity
  8
1
100
AcDbLine
 10
345.88819
 20
281.603341
 30
0.0
 11
345.68264
 21
281.93742
 31
0.0
  0
LINE
  5
BC
330
1F
100
AcDbEntity
  8
1
100
AcDbLine
 10
345.88819
 20
281.603341
 30
0.0
 11
345.862908
 21
281.36514
 31
0.0
  0
LINE
  5
BD
330
1F
100
AcDbEntity
  8
1
100
AcDbLine
 10
346.001272
 20
289.277334
 30
0.0
 11
346.24228
 21
289.603926
 31
0.0
  0
LINE
  5
BE
330
1F
100
AcDbEntity
  8
1
100
AcDbLine
 10
346.24228
 20
289.842537
 30
0.0
 11
346.24228
 21
289.603926
 31
0.0
  0
LINE
  5
BF
330
1F
100
AcDbEntity
  8
1
100
AcDbLine
 10
345.495684
 20
277.507994
 30
0.0
 11
345.904999
 21
281.364467
 31
0.0
  0
LINE
  5
C0
330
1F
100
AcDbEntity
  8
1
100
AcDbLine
 10
345.495684
 20
277.507994
 30
0.0
 11
334.339608
 21
277.507994
 31
0.0
  0
LINE
  5
C1
330
1F
100
AcDbEntity
  8
1
100
AcDbLine
 10
346.284442
 20
292.854233
 30
0.0
 11
346.284442
 21
289.841801
 31
0.0
  0
LINE
  5
C2
330
1F
100
AcDbEntity
  8
1
100
AcDbLine
 10
274.904842
 20
271.407994
 30
0.0
 11
274.904842
 21
288.907994
 31
0.0
  0
LINE
  5
C3
330
1F
100
AcDbEntity
  8
1
100
AcDbLine
 10
274.904842
 20
288.907994
 30
0.0
 11
274.904842
 21
306.407994
 31
0.0
  0
LINE
  5
C4
330
1F
100
AcDbEntity
  8
1
100
AcDbLine
 10
279.404842
 20
271.407994
 30
0.0
 11
279.404842
 21
272.534091
 31
0.0
  0
LINE
  5
C5
330
1F
100
AcDbEntity
  8
1
100
AcDbLine
 10
279.404842
 20
306.407994
 30
0.0
 11
279.404842
 21
279.428866
 31
0.0
  0
LINE
  5
C6
330
1F
100
AcDbEntity
  8
1
100
AcDbLine
 10
344.514391
 20
295.94414
 30
0.0
 11
344.52904
 21
296.003375
 31
0.0
  0
LINE
  5
C7
330
1F
100
AcDbEntity
  8
1
100
AcDbLine
 10
279.404842
 20
271.407994
 30
0.0
 11
280.81855
 21
272.821702
 31
0.0
  0
LINE
  5
C8
330
1F
100
AcDbEntity
  8
1
100
AcDbLine
 10
280.81855
 20
304.994285
 30
0.0
 11
279.404842
 21
306.407994
 31
0.0
  0
LINE
  5
C9
330
1F
100
AcDbEntity
  8
SK1
100
AcDbLine
 10
274.404842
 20
301.607994
 30
0.0
 11
219.004842
 21
301.607994
 31
0.0
  0
LINE
  5
CA
330
1F
100
AcDbEntity
  8
1
100
AcDbLine
 10
274.904842
 20
271.407994
 30
0.0
 11
274.404842
 21
271.907994
 31
0.0
  0
LINE
  5
CB
330
1F
100
AcDbEntity
  8
1
100
AcDbLine
 10
274.404842
 20
305.907994
 30
0.0
 11
274.904842
 21
306.407994
 31
0.0
  0
LINE
  5
CC
330
1F
100
AcDbEntity
  8
80
100
AcDbLine
 10
274.404842
 20
287.90842
 30
0.0
 11
274.404842
 21
289.907567
 31
0.0
  0
LINE
  5
CD
330
1F
100
AcDbEntity
  8
81
100
AcDbLine
 10
347.004442
 20
302.807894
 30
0.0
 11
347.004442
 21
298.807894
 31
0.0
  0
LINE
  5
CE
330
1F
100
AcDbEntity
  8
SK1
100
AcDbLine
 10
219.004842
 20
276.207994
 30
0.0
 11
274.404842
 21
276.207994
 31
0.0
  0
LINE
  5
CF
330
1F
100
AcDbEntity
  8
81
100
AcDbLine
 10
345.004442
 20
300.807894
 30
0.0
 11
349.004442
 21
300.807894
 31
0.0
  0
LINE
  5
D0
330
1F
100
AcDbEntity
  8
1
100
AcDbLine
 10
274.904842
 20
271.407994
 30
0.0
 11
279.404842
 21
271.407994
 31
0.0
  0
LINE
  5
D1
330
1F
100
AcDbEntity
  8
1
100
AcDbLine
 10
338.502509
 20
299.779804
 30
0.0
 11
338.483558
 21
300.215087
 31
0.0
  0
LINE
  5
D2
330
1F
100
AcDbEntity
  8
1
100
AcDbLine
 10
340.16053
 20
292.296396
 30
0.0
 11
346.095439
 21
292.554928
 31
0.0
  0
LINE
  5
D3
330
1F
100
AcDbEntity
  8
1
100
AcDbLine
 10
346.09604
 20
292.494281
 30
0.0
 11
346.095439
 21
292.554928
 31
0.0
  0
LINE
  5
D4
330
1F
100
AcDbEntity
  8
1
100
AcDbLine
 10
346.137384
 20
292.577678
 30
0.0
 11
340.165761
 21
292.317547
 31
0.0
  0
LINE
  5
D5
330
1F
100
AcDbEntity
  8
1
100
AcDbLine
 10
340.16053
 20
292.296396
 30
0.0
 11
340.165761
 21
292.317547
 31
0.0
  0
LINE
  5
D6
330
1F
100
AcDbEntity
  8
1
100
AcDbLine
 10
338.539075
 20
293.78529
 30
0.0
 11
338.533845
 21
293.764139
 31
0.0
  0
LINE
  5
D7
330
1F
100
AcDbEntity
  8
1
100
AcDbLine
 10
338.539075
 20
293.78529
 30
0.0
 11
338.259109
 21
300.215586
 31
0.0
  0
LINE
  5
D8
330
1F
100
AcDbEntity
  8
1
100
AcDbLine
 10
338.254792
 20
300.173446
 30
0.0
 11
338.533845
 21
293.764139
 31
0.0
  0
LINE
  5
D9
330
1F
100
AcDbEntity
  8
1
100
AcDbLine
 10
346.137384
 20
292.577678
 30
0.0
 11
346.135166
 21
292.801511
 31
0.0
  0
LINE
  5
DA
330
1F
100
AcDbEntity
  8
1
100
AcDbLine
 10
346.137384
 20
292.577678
 30
0.0
 11
346.095439
 21
292.554928
 31
0.0
  0
LINE
  5
DB
330
1F
100
AcDbEntity
  8
1
100
AcDbLine
 10
346.010712
 20
291.946275
 30
0.0
 11
339.713252
 21
291.6719490000001
 31
0.0
  0
LINE
  5
DC
330
1F
100
AcDbEntity
  8
1
100
AcDbLine
 10
346.010712
 20
291.946275
 30
0.0
 11
344.686548
 21
289.739877
 31
0.0
  0
LINE
  5
DD
330
1F
100
AcDbEntity
  8
1
100
AcDbLine
 10
345.904999
 20
281.364467
 30
0.0
 11
345.862908
 21
281.36514
 31
0.0
  0
LINE
  5
DE
330
1F
100
AcDbEntity
  8
1
100
AcDbLine
 10
345.68264
 20
281.93742
 30
0.0
 11
345.547229
 21
281.939587
 31
0.0
  0
LINE
  5
DF
330
1F
100
AcDbEntity
  8
1
100
AcDbLine
 10
345.450164
 20
284.939494
 30
0.0
 11
345.823468
 21
284.939494
 31
0.0
  0
LINE
  5
E0
330
1F
100
AcDbEntity
  8
1
100
AcDbLine
 10
345.8656299999999
 20
289.279702
 30
0.0
 11
346.001272
 21
289.277334
 31
0.0
  0
LINE
  5
E1
330
1F
100
AcDbEntity
  8
1
100
AcDbLine
 10
346.24228
 20
289.842537
 30
0.0
 11
346.284442
 21
289.841801
 31
0.0
  0
LINE
  5
E2
330
1F
100
AcDbEntity
  8
1
100
AcDbLine
 10
346.010712
 20
291.946275
 30
0.0
 11
346.031078
 21
291.957321
 31
0.0
  0
LINE
  5
E3
330
1F
100
AcDbEntity
  8
1
100
AcDbLine
 10
279.404842
 20
306.407994
 30
0.0
 11
274.904842
 21
306.407994
 31
0.0
  0
LINE
  5
E8
330
1F
100
AcDbEntity
  8
80
100
AcDbLine
 10
275.404416
 20
288.907994
 30
0.0
 11
273.405268
 21
288.907994
 31
0.0
  0
LINE
  5
11A
330
1F
100
AcDbEntity
  8
NOCUT
100
AcDbLine
 10
346.284442
 20
288.907994
 30
0.0
 11
217.404842
 21
288.907994
 31
0.0
  0
LINE
  5
11B
330
1F
100
AcDbEntity
  8
NOCUT
100
AcDbLine
 10
279.404842
 20
306.407994
 30
0.0
 11
280.81855
 21
304.994285
 31
0.0
  0
LINE
  5
11C
330
1F
100
AcDbEntity
  8
NOCUT
100
AcDbLine
 10
345.96705
 20
300.307994
 30
0.0
 11
346.284442
 21
293.092226
 31
0.0
  0
LINE
  5
11D
330
1F
100
AcDbEntity
  8
NOCUT
100
AcDbLine
 10
346.284442
 20
293.092226
 30
0.0
 11
346.284442
 21
288.907994
 31
0.0
  0
LINE
  5
11E
330
1F
100
AcDbEntity
  8
NOCUT
100
AcDbLine
 10
217.404842
 20
300.007994
 30
0.0
 11
219.004842
 21
301.607994
 31
0.0
  0
LINE
  5
11F
330
1F
100
AcDbEntity
  8
NOCUT
100
AcDbLine
 10
292.132259
 20
300.307994
 30
0.0
 11
345.96705
 21
300.307994
 31
0.0
  0
LINE
  5
120
330
1F
100
AcDbEntity
  8
NOCUT
100
AcDbLine
 10
274.904842
 20
306.407994
 30
0.0
 11
274.404842
 21
305.907994
 31
0.0
  0
LINE
  5
121
330
1F
100
AcDbEntity
  8
NOCUT
100
AcDbLine
 10
274.404842
 20
305.907994
 30
0.0
 11
274.404842
 21
301.607994
 31
0.0
  0
LINE
  5
122
330
1F
100
AcDbEntity
  8
NOCUT
100
AcDbLine
 10
274.404842
 20
301.607994
 30
0.0
 11
219.004842
 21
301.607994
 31
0.0
  0
LINE
  5
123
330
1F
100
AcDbEntity
  8
NOCUT
100
AcDbLine
 10
217.404842
 20
300.007994
 30
0.0
 11
217.404842
 21
288.907994
 31
0.0
  0
LINE
  5
124
330
1F
100
AcDbEntity
  8
NOCUT
100
AcDbLine
 10
279.404842
 20
306.407994
 30
0.0
 11
274.904842
 21
306.407994
 31
0.0
  0
ARC
  5
12D
330
1F
100
AcDbEntity
  8
1
100
AcDbCircle
 10
292.132259
 20
261.507994
 30
0.0
 40
16.0
100
AcDbArc
 50
111.916685
 51
135.0
  0
CIRCLE
  5
12E
330
1F
100
AcDbEntity
  8
1
100
AcDbCircle
 10
342.877936
 20
285.852145
 30
0.0
 40
0.8499999999999991
  0
ARC
  5
12F
330
1F
100
AcDbEntity
  8
1
100
AcDbCircle
 10
342.877936
 20
285.852145
 30
0.0
 40
1.25
100
AcDbArc
 50
75.0
 51
345.0
  0
ARC
  5
130
330
1F
100
AcDbEntity
  8
1
100
AcDbCircle
 10
292.132259
 20
316.307994
 30
0.0
 40
16.0
100
AcDbArc
 50
225.0
 51
266.564493
  0
ARC
  5
13F
330
1F
100
AcDbEntity
  8
NOCUT
100
AcDbCircle
 10
292.132259
 20
316.307994
 30
0.0
 40
16.0
100
AcDbArc
 50
225.0
 51
270.0
  0
ELLIPSE
  5
140
330
1F
100
AcDbEntity
  8
1
100
AcDbEllipse
 10
339.347878
 20
290.519326
 30
0.0
 11
-0.6109682888737498
 21
-0.0294712237594655
 31
0.0
210
0.0
220
0.0
230
1.0
 40
0.221492
 41
2.290480927798073
 42
3.986502729235157
  0
ELLIPSE
  5
141
330
1F
100
AcDbEntity
  8
1
100
AcDbEllipse
 10
343.188808
 20
296.278752
 30
0.0
 11
-0.5397109347785425
 21
0.1334734425485489
 31
0.0
210
0.0
220
0.0
230
1.0
 40
0.9973590000000001
 41
2.706422692791181
 42
3.626546265961027
  0
ELLIPSE
  5
142
330
1F
100
AcDbEntity
  8
1
100
AcDbEllipse
 10
343.544237
 20
295.993323
 30
0.0
 11
-0.0969839493716005
 21
0.0239846568976656
 31
0.0
210
0.0
220
0.0
230
1.0
 40
0.9973589999999999
 41
1.333888764782333
 42
2.70642269279122
  0
ELLIPSE
  5
143
330
1F
100
AcDbEntity
  8
1
100
AcDbEllipse
 10
343.452207
 20
295.816529
 30
0.0
 11
-0.0969839493716006
 21
0.0239846568976656
 31
0.0
210
0.0
220
0.0
230
1.0
 40
0.9973589999999999
 41
4.475481418371858
 42
5.324416570782599
  0
ELLIPSE
  5
144
330
1F
100
AcDbEntity
  8
1
100
AcDbEllipse
 10
343.617188
 20
295.392216
 30
0.0
 11
-0.5397109347785423
 21
0.1334734425485488
 31
0.0
210
0.0
220
0.0
230
0.9999999999999998
 40
0.9973590000000001
 41
5.324416570782641
 42
6.244540143952513
  0
ELLIPSE
  5
145
330
1F
100
AcDbEntity
  8
1
100
AcDbEllipse
 10
343.179011
 20
295.518683
 30
0.0
 11
-0.0969839493716006
 21
0.0239846568976656
 31
0.0
210
0.0
220
0.0
230
1.0
 40
0.9973589999999999
 41
6.244540143952487
 42
7.093475296363292
  0
ELLIPSE
  5
146
330
1F
100
AcDbEntity
  8
1
100
AcDbEllipse
 10
343.010649
 20
295.411592
 30
0.0
 11
-0.0969839493716006
 21
0.0239846568976656
 31
0.0
210
0.0
220
0.0
230
0.9999999999999998
 40
0.9973589999999999
 41
2.579348714764505
 42
3.951882642773522
  0
ELLIPSE
  5
147
330
1F
100
AcDbEntity
  8
1
100
AcDbEllipse
 10
342.694288
 20
295.739614
 30
0.0
 11
-0.5397109347785425
 21
0.1334734425485489
 31
0.0
210
0.0
220
0.0
230
1.0
 40
0.9973590000000001
 41
1.659225141594592
 42
2.579348714764412
  0
ELLIPSE
  5
148
330
1F
100
AcDbEntity
  8
1
100
AcDbEllipse
 10
342.624614
 20
295.290113
 30
0.0
 11
-0.0969839493716005
 21
0.0239846568976656
 31
0.0
210
0.0
220
0.0
230
1.0
 40
0.9973589999999999
 41
0.2866912135855288
 42
1.659225141594433
  0
ELLIPSE
  5
149
330
1F
100
AcDbEntity
  8
1
100
AcDbEllipse
 10
342.425034
 20
295.281419
 30
0.0
 11
-0.0969839493716006
 21
0.0239846568976656
 31
0.0
210
0.0
220
0.0
230
1.0
 40
0.9973589999999999
 41
3.428283867175259
 42
4.277219019586118
  0
ELLIPSE
  5
14A
330
1F
100
AcDbEntity
  8
1
100
AcDbEllipse
 10
342.139374
 20
294.927171
 30
0.0
 11
-0.5397109347785423
 21
0.1334734425485488
 31
0.0
210
0.0
220
0.0
230
0.9999999999999998
 40
0.9973590000000001
 41
4.277219019586029
 42
5.197342592755911
  0
ELLIPSE
  5
14B
330
1F
100
AcDbEntity
  8
1
100
AcDbEllipse
 10
342.473019
 20
296.437025
 30
0.0
 11
1.456132277865614
 21
-0.3601094130370624
 31
0.0
210
0.0
220
0.0
230
0.9999999999999998
 40
0.9973589999999999
 41
0.0
 42
6.283185307179585
  0
ELLIPSE
  5
14C
330
1F
100
AcDbEntity
  8
1
100
AcDbEllipse
 10
342.590153
 20
296.572566
 30
0.0
 11
2.091721596912266
 21
-0.5172941002345808
 31
0.0
210
0.0
220
0.0
230
0.9999999999999998
 40
0.9973589999999997
 41
0.0
 42
6.283185307179585
  0
ELLIPSE
  5
14D
330
1F
100
AcDbEntity
  8
1
100
AcDbEllipse
 10
342.475806
 20
296.448293
 30
0.0
 11
2.03858518901186
 21
-0.5041531782518875
 31
0.0
210
0.0
220
0.0
230
0.9999999999999996
 40
0.9973589999999999
 41
0.0
 42
6.283185307179585
  0
ELLIPSE
  5
14E
330
1F
100
AcDbEntity
  8
1
100
AcDbEllipse
 10
342.029598
 20
295.368856
 30
0.0
 11
-0.0969839493716006
 21
0.0239846568976656
 31
0.0
210
0.0
220
0.0
230
1.0
 40
0.9973589999999999
 41
5.197342592756049
 42
6.046277745166706
  0
ELLIPSE
  5
14F
330
1F
100
AcDbEntity
  8
1
100
AcDbEllipse
 10
341.852276
 20
295.460889
 30
0.0
 11
-0.0969839493716006
 21
0.0239846568976656
 31
0.0
210
0.0
220
0.0
230
0.9999999999999998
 40
0.9973589999999999
 41
1.532151163567768
 42
2.904685091576914
  0
ELLIPSE
  5
150
330
1F
100
AcDbEntity
  8
1
100
AcDbEllipse
 10
341.978499
 20
295.897887
 30
0.0
 11
-0.5397109347785425
 21
0.1334734425485489
 31
0.0
210
0.0
220
0.0
230
1.0
 40
0.9973590000000001
 41
0.6120275903979692
 42
1.532151163567804
  0
ELLIPSE
  5
151
330
1F
100
AcDbEntity
  8
1
100
AcDbEllipse
 10
341.553396
 20
295.733815
 30
0.0
 11
-0.0969839493716005
 21
0.0239846568976656
 31
0.0
210
0.0
220
0.0
230
1.0
 40
0.9973589999999999
 41
5.522678969568426
 42
6.895212897577496
  0
ELLIPSE
  5
152
330
1F
100
AcDbEntity
  8
1
100
AcDbEllipse
 10
341.445846
 20
295.901914
 30
0.0
 11
-0.0969839493716006
 21
0.0239846568976656
 31
0.0
210
0.0
220
0.0
230
1.0
 40
0.9973589999999999
 41
2.381086315978715
 42
3.230021468389471
  0
ELLIPSE
  5
153
330
1F
100
AcDbEntity
  8
1
100
AcDbEllipse
 10
340.995205
 20
295.97198
 30
0.0
 11
-0.5397109347785423
 21
0.1334734425485488
 31
0.0
210
0.0
220
0.0
230
0.9999999999999998
 40
0.9973590000000001
 41
3.230021468389483
 42
4.15014504155929
  0
ELLIPSE
  5
154
330
1F
100
AcDbEntity
  8
1
100
AcDbEllipse
 10
341.323606
 20
296.287198
 30
0.0
 11
-0.0969839493716006
 21
0.0239846568976656
 31
0.0
210
0.0
220
0.0
230
1.0
 40
0.9973589999999999
 41
4.1501450415593
 42
4.999080193970316
  0
ELLIPSE
  5
155
330
1F
100
AcDbEntity
  8
1
100
AcDbEllipse
 10
341.314646
 20
296.486322
 30
0.0
 11
-0.0969839493716006
 21
0.0239846568976656
 31
0.0
210
0.0
220
0.0
230
0.9999999999999998
 40
0.9973589999999999
 41
0.4849536123712225
 42
1.857487540380308
  0
ELLIPSE
  5
156
330
1F
100
AcDbEntity
  8
1
100
AcDbEllipse
 10
341.75723
 20
296.595298
 30
0.0
 11
-0.5397109347785425
 21
0.1334734425485489
 31
0.0
210
0.0
220
0.0
230
1.0
 40
0.9973590000000001
 41
5.848015346380969
 42
6.768138919550815
  0
ELLIPSE
  5
157
330
1F
100
AcDbEntity
  8
1
100
AcDbEllipse
 10
341.401801
 20
296.880727
 30
0.0
 11
-0.0969839493716005
 21
0.0239846568976656
 31
0.0
210
0.0
220
0.0
230
1.0
 40
0.9973589999999999
 41
4.475481418372126
 42
5.848015346380979
  0
ELLIPSE
  5
158
330
1F
100
AcDbEntity
  8
1
100
AcDbEllipse
 10
341.493831
 20
297.057521
 30
0.0
 11
-0.0969839493716006
 21
0.0239846568976656
 31
0.0
210
0.0
220
0.0
230
1.0
 40
0.9973589999999999
 41
1.333888764782021
 42
2.182823917192768
  0
ELLIPSE
  5
159
330
1F
100
AcDbEntity
  8
1
100
AcDbEllipse
 10
341.32885
 20
297.481834
 30
0.0
 11
-0.5397109347785423
 21
0.1334734425485488
 31
0.0
210
0.0
220
0.0
230
0.9999999999999998
 40
0.9973590000000001
 41
2.182823917192884
 42
3.102947490362718
  0
ELLIPSE
  5
15A
330
1F
100
AcDbEntity
  8
1
100
AcDbEllipse
 10
341.767027
 20
297.355367
 30
0.0
 11
-0.0969839493716006
 21
0.0239846568976656
 31
0.0
210
0.0
220
0.0
230
1.0
 40
0.9973589999999999
 41
3.102947490362728
 42
3.951882642773468
  0
ELLIPSE
  5
15B
330
1F
100
AcDbEntity
  8
1
100
AcDbEllipse
 10
341.935388
 20
297.462458
 30
0.0
 11
-0.0969839493716006
 21
0.0239846568976656
 31
0.0
210
0.0
220
0.0
230
0.9999999999999998
 40
0.9973589999999999
 41
5.720941368354298
 42
7.09347529636334
  0
ELLIPSE
  5
15C
330
1F
100
AcDbEntity
  8
1
100
AcDbEllipse
 10
342.25175
 20
297.134436
 30
0.0
 11
-0.5397109347785425
 21
0.1334734425485489
 31
0.0
210
0.0
220
0.0
230
1.0
 40
0.9973590000000001
 41
4.800817795184387
 42
5.720941368354252
  0
ELLIPSE
  5
15D
330
1F
100
AcDbEntity
  8
1
100
AcDbEllipse
 10
342.321424
 20
297.583938
 30
0.0
 11
-0.0969839493716005
 21
0.0239846568976656
 31
0.0
210
0.0
220
0.0
230
1.0
 40
0.9973589999999999
 41
3.428283867175245
 42
4.800817795184522
  0
ELLIPSE
  5
15E
330
1F
100
AcDbEntity
  8
1
100
AcDbEllipse
 10
342.521004
 20
297.592632
 30
0.0
 11
-0.0969839493716006
 21
0.0239846568976656
 31
0.0
210
0.0
220
0.0
230
1.0
 40
0.9973589999999999
 41
0.2866912135854202
 42
1.13562636599613
  0
ELLIPSE
  5
15F
330
1F
100
AcDbEntity
  8
1
100
AcDbEllipse
 10
342.806664
 20
297.946879
 30
0.0
 11
-0.5397109347785423
 21
0.1334734425485488
 31
0.0
210
0.0
220
0.0
230
0.9999999999999998
 40
0.9973590000000001
 41
1.135626365996297
 42
2.055749939166138
  0
ELLIPSE
  5
160
330
1F
100
AcDbEntity
  8
1
100
AcDbEllipse
 10
342.91644
 20
297.505194
 30
0.0
 11
-0.0969839493716006
 21
0.0239846568976656
 31
0.0
210
0.0
220
0.0
230
1.0
 40
0.9973589999999999
 41
2.055749939166132
 42
2.904685091576983
  0
ELLIPSE
  5
161
330
1F
100
AcDbEntity
  8
1
100
AcDbEllipse
 10
343.093762
 20
297.413161
 30
0.0
 11
-0.0969839493716006
 21
0.0239846568976656
 31
0.0
210
0.0
220
0.0
230
0.9999999999999998
 40
0.9973589999999999
 41
4.673743817157558
 42
6.046277745166639
  0
ELLIPSE
  5
162
330
1F
100
AcDbEntity
  8
1
100
AcDbEllipse
 10
342.967539
 20
296.976163
 30
0.0
 11
-0.5397109347785425
 21
0.1334734425485489
 31
0.0
210
0.0
220
0.0
230
1.0
 40
0.9973590000000001
 41
3.753620243987768
 42
4.673743817157623
  0
ELLIPSE
  5
163
330
1F
100
AcDbEntity
  8
1
100
AcDbEllipse
 10
343.392642
 20
297.1402359999999
 30
0.0
 11
-0.0969839493716005
 21
0.0239846568976656
 31
0.0
210
0.0
220
0.0
230
1.0
 40
0.9973589999999999
 41
2.38108631597856
 42
3.753620243987744
  0
ELLIPSE
  5
164
330
1F
100
AcDbEntity
  8
1
100
AcDbEllipse
 10
343.500192
 20
296.972136
 30
0.0
 11
-0.0969839493716006
 21
0.0239846568976656
 31
0.0
210
0.0
220
0.0
230
1.0
 40
0.9973589999999999
 41
5.522678969568429
 42
6.371614121979235
  0
ELLIPSE
  5
165
330
1F
100
AcDbEntity
  8
1
100
AcDbEllipse
 10
343.950833
 20
296.9020700000001
 30
0.0
 11
-0.5397109347785423
 21
0.1334734425485488
 31
0.0
210
0.0
220
0.0
230
0.9999999999999998
 40
0.9973590000000001
 41
0.0884288147996925
 42
1.008552387969534
  0
ELLIPSE
  5
166
330
1F
100
AcDbEntity
  8
1
100
AcDbEllipse
 10
343.622432
 20
296.586852
 30
0.0
 11
-0.0969839493716006
 21
0.0239846568976656
 31
0.0
210
0.0
220
0.0
230
1.0
 40
0.9973589999999999
 41
1.008552387969585
 42
1.857487540380298
  0
ELLIPSE
  5
167
330
1F
100
AcDbEntity
  8
1
100
AcDbEllipse
 10
343.631392
 20
296.387728
 30
0.0
 11
-0.0969839493716006
 21
0.0239846568976656
 31
0.0
210
0.0
220
0.0
230
0.9999999999999998
 40
0.9973589999999999
 41
3.626546265961049
 42
4.999080193969964
  0
ELLIPSE
  5
168
330
1F
100
AcDbEntity
  8
1
100
AcDbEllipse
 10
339.147754
 20
304.273643
 30
0.0
 11
-12.23151113407117
 21
3.024919069511301
 31
0.0
210
0.0
220
0.0
230
0.9999999999999998
 40
0.9973589999999999
 41
1.579753079185231
 42
1.856921512808034
  0
ELLIPSE
  5
169
330
1F
100
AcDbEntity
  8
1
100
AcDbEllipse
 10
342.490455
 20
296.507528
 30
0.0
 11
-2.038585189011861
 21
0.504153178251884
 31
0.0
210
0.0
220
0.0
230
0.9999999999999996
 40
0.9973589999999999
 41
3.141613722820886
 42
6.283108437511083
  0
ELLIPSE
  5
16A
330
1F
100
AcDbEntity
  8
1
100
AcDbEllipse
 10
296.852372
 20
270.343668
 30
0.0
 11
-20.74106254860347
 21
4.514671534185912
 31
0.0
210
0.0
220
0.0
230
0.9999999999999998
 40
0.6988770000000001
 41
6.125015491287097
 42
6.205487184221454
  0
ELLIPSE
  5
16B
330
1F
100
AcDbEntity
  8
1
100
AcDbEllipse
 10
342.6099430000001
 20
296.652587
 30
0.0
 11
2.033978351583129
 21
-0.5030138823598622
 31
0.0
210
0.0
220
0.0
230
1.0
 40
0.9973589999999999
 41
2.351895531162234
 42
2.715829348081399
  0
ELLIPSE
  5
16C
330
1F
100
AcDbEntity
  8
1
100
AcDbEllipse
 10
342.6099430000001
 20
296.652587
 30
0.0
 11
2.033978351583129
 21
-0.5030138823598622
 31
0.0
210
0.0
220
0.0
230
1.0
 40
0.9973589999999999
 41
5.906313044786991
 42
6.283185307179585
  0
ELLIPSE
  5
16D
330
1F
100
AcDbEntity
  8
1
100
AcDbEllipse
 10
342.6099430000001
 20
296.652587
 30
0.0
 11
2.033978351583129
 21
-0.5030138823598622
 31
0.0
210
0.0
220
0.0
230
1.0
 40
0.9973589999999999
 41
0.0
 42
0.7897386948597403
  0
ELLIPSE
  5
16E
330
1F
100
AcDbEntity
  8
1
100
AcDbEllipse
 10
339.684911
 20
293.35293
 30
0.0
 11
0.9538123851741044
 21
1.0421954660688
 31
0.0
210
0.0
220
0.0
230
1.0
 40
0.024613
 41
0.9708236130139084
 42
1.525634646149804
  0
ELLIPSE
  5
16F
330
1F
100
AcDbEntity
  8
1
100
AcDbEllipse
 10
339.413445
 20
299.385684
 30
0.0
 11
1.042942260297517
 21
-0.9544958477165266
 31
0.0
210
0.0
220
0.0
230
1.0
 40
0.045128
 41
1.040557921623733
 42
1.595368954451425
  0
ELLIPSE
  5
170
330
1F
100
AcDbEntity
  8
1
100
AcDbEllipse
 10
345.46
 20
299.64908
 30
0.0
 11
0.9538123865376665
 21
1.04219546754435
 31
0.0
210
0.0
220
0.0
230
1.0
 40
0.024613
 41
1.525634646484642
 42
2.080445678863438
  0
ELLIPSE
  5
171
330
1F
100
AcDbEntity
  8
1
100
AcDbEllipse
 10
345.731465
 20
293.616326
 30
0.0
 11
1.042942259711954
 21
-0.9544958471785413
 31
0.0
210
0.0
220
0.0
230
0.9999999999999998
 40
0.045128
 41
1.595368954438249
 42
2.150179987562617
  0
ELLIPSE
  5
172
330
1F
100
AcDbEntity
  8
1
100
AcDbEllipse
 10
342.587276
 20
296.560933
 30
0.0
 11
-2.184198416798424
 21
0.5401641195555901
 31
0.0
210
0.0
220
0.0
230
1.0
 40
0.9973589999999999
 41
0.0
 42
6.283185307179585
  0
ELLIPSE
  5
173
330
1F
100
AcDbEntity
  8
1
100
AcDbEllipse
 10
339.069744
 20
288.907994
 30
0.0
 11
0.391094262060897
 21
-11.39986526710918
 31
0.0
210
0.0
220
0.0
230
0.9999999999999996
 40
0.141717
 41
3.113512877289589
 42
3.264486431195828
  0
ELLIPSE
  5
174
330
1F
100
AcDbEntity
  8
1
100
AcDbEllipse
 10
339.19865
 20
288.907993
 30
0.0
 11
0.4802317039121496
 21
-11.39999583267812
 31
0.0
210
0.0
220
0.0
230
0.9999999999999998
 40
0.020422
 41
3.032788966847723
 42
3.117514400001401
  0
ELLIPSE
  5
175
330
1F
100
AcDbEntity
  8
1
100
AcDbEllipse
 10
297.904842
 20
280.270039
 30
0.0
 11
-1.523250634696337
 21
-6.832254935517057
 31
0.0
210
0.0
220
0.0
230
0.9999999999999998
 40
0.212631
 41
4.309970910533438
 42
5.085888737159346
  0
ELLIPSE
  5
176
330
1F
100
AcDbEntity
  8
1
100
AcDbEllipse
 10
345.57902
 20
282.2391169999999
 30
0.0
 11
0.0323262014619766
 21
0.2994966855088215
 31
0.0
210
0.0
220
0.0
230
0.9999999999999998
 40
0.139171
 41
1.583568179259514
 42
3.154364506041681
  0
ELLIPSE
  5
177
330
1F
100
AcDbEntity
  8
1
100
AcDbEllipse
 10
345.8656299999999
 20
288.979656
 30
0.0
 11
0.0001054973289102
 21
-0.300046600596192
 31
0.0
210
0.0
220
0.0
230
1.0
 40
0.140519
 41
3.139090475968278
 42
4.709886802775473
  0
ELLIPSE
  5
178
330
1F
100
AcDbEntity
  8
1
100
AcDbEllipse
 10
339.408931
 20
293.098394
 30
0.0
 11
1.06783033710145
 21
-0.2640802362271791
 31
0.0
210
0.0
220
0.0
230
1.0
 40
0.9973589999999999
 41
5.616764553212978
 42
5.706590938004636
  0
ELLIPSE
  5
179
330
1F
100
AcDbEntity
  8
1
100
AcDbEllipse
 10
341.094765
 20
288.907994
 30
0.0
 11
19.56028687400276
 21
-11.24679190265429
 31
0.0
210
0.0
220
0.0
230
1.0
 40
0.095229
 41
3.972985378633011
 42
4.34002962250541
  0
ELLIPSE
  5
17A
330
1F
100
AcDbEntity
  8
1
100
AcDbEllipse
 10
339.414162
 20
293.119545
 30
0.0
 11
-1.06783033710145
 21
0.2640802362271772
 31
0.0
210
0.0
220
0.0
230
0.9999999999999998
 40
0.9973589999999999
 41
2.564998284414838
 42
2.796152521219773
  0
ELLIPSE
  5
17B
330
1F
100
AcDbEntity
  8
1
100
AcDbEllipse
 10
339.414162
 20
293.119545
 30
0.0
 11
-1.06783033710145
 21
0.2640802362271772
 31
0.0
210
0.0
220
0.0
230
0.9999999999999998
 40
0.9973589999999999
 41
5.620155368642787
 42
5.87430052331132
  0
ELLIPSE
  5
17C
330
1F
100
AcDbEntity
  8
1
100
AcDbEllipse
 10
339.467864
 20
293.336696
 30
0.0
 11
-1.06783033710145
 21
0.2640802362271771
 31
0.0
210
0.0
220
0.0
230
0.9999999999999998
 40
0.9973589999999999
 41
0.1120380090731381
 42
1.857487186952513
  0
ELLIPSE
  5
17D
330
1F
100
AcDbEntity
  8
1
100
AcDbEllipse
 10
339.467864
 20
293.336696
 30
0.0
 11
-1.06783033710145
 21
0.2640802362271771
 31
0.0
210
0.0
220
0.0
230
0.9999999999999998
 40
0.9973589999999999
 41
1.857487186952513
 42
2.523308550747955
  0
ELLIPSE
  5
17E
330
1F
100
AcDbEntity
  8
1
100
AcDbEllipse
 10
339.408931
 20
293.098394
 30
0.0
 11
1.06783033710145
 21
-0.2640802362271791
 31
0.0
210
0.0
220
0.0
230
1.0
 40
0.9973589999999999
 41
2.732707869721529
 42
4.327726013559069
  0
ELLIPSE
  5
17F
330
1F
100
AcDbEntity
  8
1
100
AcDbEllipse
 10
338.764885
 20
288.907988
 30
0.0
 11
0.4802319614995198
 21
-11.4000015610143
 31
0.0
210
0.0
220
0.0
230
1.0
 40
0.020422
 41
3.268144024743194
 42
3.294522621311839
  0
ELLIPSE
  5
180
330
1F
100
AcDbEntity
  8
1
100
AcDbEllipse
 10
273.842322
 20
288.907994
 30
0.0
 11
242.3668004442144
 21
11.11741609957071
 31
0.0
210
0.0
220
0.0
230
1.0
 40
0.010408
 41
4.987474366759054
 42
5.008544301536947
  0
ELLIPSE
  5
181
330
1F
100
AcDbEntity
  8
1
100
AcDbEllipse
 10
346.026132
 20
292.456363
 30
0.0
 11
0.0003720974355639
 21
0.500480749060397
 31
0.0
210
0.0
220
0.0
230
0.9999999999999998
 40
0.140029
 41
3.217531031709166
 42
4.788327358504715
  0
ELLIPSE
  5
182
330
1F
100
AcDbEntity
  8
1
100
AcDbEllipse
 10
316.594667
 20
288.907994
 30
0.0
 11
74.06179550757625
 21
-8.155913661311455
 31
0.0
210
0.0
220
0.0
230
1.0
 40
0.107545
 41
4.387637680618108
 42
4.469137215541623
  0
ELLIPSE
  5
183
330
1F
100
AcDbEntity
  8
1
100
AcDbEllipse
 10
346.705647
 20
288.907994
 30
0.0
 11
1.23392197139143
 21
11.39871071940614
 31
0.0
210
0.0
220
0.0
230
1.0
 40
0.138944
 41
1.941394620619475
 42
3.156632395651091
  0
ELLIPSE
  5
184
330
1F
100
AcDbEntity
  8
1
100
AcDbEllipse
 10
346.284442
 20
288.907994
 30
0.0
 11
0.0
 21
11.40000000028468
 31
0.0
210
0.0
220
0.0
230
1.0
 40
0.140541
 41
1.49775918184576
 42
1.926354878549235
  0
SPLINE
  5
18A
330
1F
100
AcDbEntity
  8
1
100
AcDbSpline
210
0.0
220
0.0
230
1.0
 70
     8
 71
     3
 72
    12
 73
     8
 74
     0
 42
0.000000001
 43
0.0000000001
 40
0.0
 40
0.0
 40
0.0
 40
0.0
 40
0.321667408287582
 40
0.5879456945823263
 40
0.7985988658703587
 40
0.9535039664300247
 40
1.0
 40
1.0
 40
1.0
 40
1.0
 10
346.0928815918097
 20
300.5366995898023
 30
0.0
 10
346.0842827519314
 20
300.540478725233
 30
0.0
 10
346.0682283624342
 20
300.5475392479841
 30
0.0
 10
346.0444366231308
 20
300.5580086418124
 30
0.0
 10
346.0267018311837
 20
300.5658280023331
 30
0.0
 10
346.0184280930873
 20
300.5694080930639
 30
0.0
 10
346.0162447337551
 20
300.570329119814
 30
0.0
 10
346.0161148339152
 20
300.5703556671143
 30
0.0
  0
SPLINE
  5
18B
330
1F
100
AcDbEntity
  8
1
100
AcDbSpline
210
0.0
220
0.0
230
1.0
 70
     8
 71
     3
 72
    11
 73
     7
 74
     0
 42
0.000000001
 43
0.0000000001
 40
0.0
 40
0.0
 40
0.0
 40
0.0
 40
0.0210202871369052
 40
0.2895905245426906
 40
0.6158707876033666
 40
1.0
 40
1.0
 40
1.0
 40
1.0
 10
346.1261880959134
 20
300.5002890810631
 30
0.0
 10
346.1262019599871
 20
300.5003073082751
 30
0.0
 10
346.1262561459662
 20
300.5006799937559
 30
0.0
 10
346.1227258620149
 20
300.5047797882639
 30
0.0
 10
346.1108048170058
 20
300.5175131161648
 30
0.0
 10
346.0998039516317
 20
300.5293116308619
 30
0.0
 10
346.0928815918097
 20
300.5366995898023
 30
0.0
  0
SPLINE
  5
18C
330
1F
100
AcDbEntity
  8
1
100
AcDbSpline
210
0.0
220
0.0
230
1.0
 70
     8
 71
     3
 72
    15
 73
    11
 74
     0
 42
0.000000001
 43
0.0000000001
 40
0.0
 40
0.0
 40
0.0
 40
0.0
 40
0.0225246064717703
 40
0.0225246064717703
 40
0.2180196851774167
 40
0.4135147638830635
 40
0.4135147638830635
 40
0.60900984258871
 40
0.60900984258871
 40
1.0
 40
1.0
 40
1.0
 40
1.0
 10
338.7869329309553
 20
300.2250361723598
 30
0.0
 10
338.786368035401
 20
300.2251560568887
 30
0.0
 10
338.7858091132859
 20
300.2252760912937
 30
0.0
 10
338.7804578305819
 20
300.226439153008
 30
0.0
 10
338.7717294828379
 20
300.2285518137882
 30
0.0
 10
338.7647169642585
 20
300.2307117384952
 30
0.0
 10
338.7585765368376
 20
300.2328932349125
 30
0.0
 10
338.7559340666431
 20
300.2339997999418
 30
0.0
 10
338.7494597666513
 20
300.2373024608199
 30
0.0
 10
338.7470377492046
 20
300.2394844166097
 30
0.0
 10
338.746539356637
 20
300.2416428690807
 30
0.0
  0
SPLINE
  5
18D
330
1F
100
AcDbEntity
  8
1
100
AcDbSpline
210
0.0
220
0.0
230
1.0
 70
     8
 71
     3
 72
    17
 73
    13
 74
     0
 42
0.000000001
 43
0.0000000001
 40
0.0
 40
0.0
 40
0.0
 40
0.0
 40
0.2500000000000266
 40
0.2500000000000266
 40
0.5000000000000533
 40
0.5000000000000533
 40
0.5625000000000338
 40
0.5625000000000338
 40
0.6250000000000142
 40
0.7500000000000281
 40
0.7500000000000281
 40
1.0
 40
1.0
 40
1.0
 40
1.0
 10
339.7485560221028
 20
290.6401002287823
 30
0.0
 10
339.7013726835112
 20
290.6470339187237
 30
0.0
 10
339.6507409660314
 20
290.6527256227992
 30
0.0
 10
339.5441568884468
 20
290.6625290308349
 30
0.0
 10
339.4881788308898
 20
290.6666280680415
 30
0.0
 10
339.4151988154413
 20
290.6710244593881
 30
0.0
 10
339.4004570191228
 20
290.6718660568913
 30
0.0
 10
339.3709162460293
 20
290.6734672080691
 30
0.0
 10
339.3264291381334
 20
290.6757511832059
 30
0.0
 10
339.2814351378744
 20
290.6777108693628
 30
0.0
 10
339.1908063807461
 20
290.6812512312125
 30
0.0
 10
339.1295380681027
 20
290.6831117593782
 30
0.0
 10
339.0674419452963
 20
290.6845340803106
 30
0.0
  0
SPLINE
  5
18E
330
1F
100
AcDbEntity
  8
1
100
AcDbSpline
210
0.0
220
0.0
230
1.0
 70
     8
 71
     3
 72
   109
 73
   105
 74
     0
 42
0.000000001
 43
0.0000000001
 40
0.0
 40
0.0
 40
0.0
 40
0.0
 40
0.0312500000000003
 40
0.0312500000000003
 40
0.0468749999999997
 40
0.0468749999999997
 40
0.062499999999999
 40
0.062499999999999
 40
0.0781249999999983
 40
0.0781249999999983
 40
0.0937499999999977
 40
0.109374999999997
 40
0.109374999999997
 40
0.1249999999999963
 40
0.1249999999999963
 40
0.1406249999999957
 40
0.1406249999999957
 40
0.156249999999995
 40
0.156249999999995
 40
0.1874999999999943
 40
0.1874999999999943
 40
0.2031249999999939
 40
0.2031249999999939
 40
0.2187499999999935
 40
0.2187499999999935
 40
0.2343749999999932
 40
0.2343749999999932
 40
0.2499999999999928
 40
0.2656249999999925
 40
0.2656249999999925
 40
0.2812499999999921
 40
0.2812499999999921
 40
0.2968749999999916
 40
0.2968749999999916
 40
0.3124999999999913
 40
0.3124999999999913
 40
0.3437499999999911
 40
0.3437499999999911
 40
0.3593749999999913
 40
0.3593749999999913
 40
0.3749999999999915
 40
0.3749999999999915
 40
0.3906249999999916
 40
0.3906249999999916
 40
0.406249999999992
 40
0.4218749999999926
 40
0.4218749999999926
 40
0.4374999999999931
 40
0.4374999999999931
 40
0.4687499999999942
 40
0.4687499999999942
 40
0.4843749999999942
 40
0.4843749999999942
 40
0.4999999999999943
 40
0.4999999999999943
 40
0.5312499999999947
 40
0.5312499999999947
 40
0.5468749999999944
 40
0.5468749999999944
 40
0.5624999999999942
 40
0.5624999999999942
 40
0.5937499999999933
 40
0.5937499999999933
 40
0.6093749999999929
 40
0.6093749999999929
 40
0.6249999999999928
 40
0.6249999999999928
 40
0.6562499999999919
 40
0.6562499999999919
 40
0.671874999999992
 40
0.671874999999992
 40
0.6874999999999921
 40
0.6874999999999921
 40
0.7031249999999922
 40
0.7031249999999922
 40
0.7187499999999925
 40
0.7343749999999926
 40
0.7343749999999926
 40
0.7499999999999928
 40
0.7499999999999928
 40
0.7656249999999929
 40
0.7656249999999929
 40
0.7812499999999929
 40
0.7812499999999929
 40
0.8124999999999939
 40
0.8124999999999939
 40
0.8281249999999944
 40
0.8281249999999944
 40
0.8437499999999948
 40
0.8437499999999948
 40
0.8593749999999955
 40
0.8593749999999955
 40
0.874999999999996
 40
0.8906249999999966
 40
0.8906249999999966
 40
0.9062499999999969
 40
0.9062499999999969
 40
0.9218749999999975
 40
0.9218749999999975
 40
0.9374999999999978
 40
0.9374999999999978
 40
0.9687499999999989
 40
0.9687499999999989
 40
1.0
 40
1.0
 40
1.0
 40
1.0
 10
345.0743236265538
 20
284.9394935137013
 30
0.0
 10
345.0644388393383
 20
284.8831347452911
 30
0.0
 10
345.0549165810775
 20
284.825104076237
 30
0.0
 10
345.0411803567842
 20
284.7355346815621
 30
0.0
 10
345.0367046018549
 20
284.7053283565522
 30
0.0
 10
345.0279973798631
 20
284.6444871323581
 30
0.0
 10
345.023759729963
 20
284.6138121813451
 30
0.0
 10
345.0155166382083
 20
284.5519529745201
 30
0.0
 10
345.0115041827939
 20
284.5207104664
 30
0.0
 10
345.0037578738433
 20
284.4580644752598
 30
0.0
 10
344.9962881126211
 20
284.3952528895357
 30
0.0
 10
344.9893676745762
 20
284.3321123734551
 30
0.0
 10
344.9827234598115
 20
284.2688064570676
 30
0.0
 10
344.9795480369871
 20
284.2371484343644
 30
0.0
 10
344.9735152799366
 20
284.1740965548964
 30
0.0
 10
344.970653517446
 20
284.1426608375426
 30
0.0
 10
344.9652385440951
 20
284.0799694505422
 30
0.0
 10
344.9626812286883
 20
284.04865798661
 30
0.0
 10
344.9555152789509
 20
283.9555104142362
 30
0.0
 10
344.9514062741554
 20
283.8944396036524
 30
0.0
 10
344.9462383286635
 20
283.8043641642854
 30
0.0
 10
344.9446867167833
 20
283.7746677764912
 30
0.0
 10
344.9419343637976
 20
283.7161688364407
 30
0.0
 10
344.940731419649
 20
283.6873284460704
 30
0.0
 10
344.9386705597323
 20
283.6304624328697
 30
0.0
 10
344.9378116907556
 20
283.6023902180011
 30
0.0
 10
344.9364481359835
 20
283.5473559887924
 30
0.0
 10
344.9354369337718
 20
283.4934195187384
 30
0.0
 10
344.9351231520016
 20
283.4416558714769
 30
0.0
 10
344.9351586975989
 20
283.3909805583408
 30
0.0
 10
344.9353515364721
 20
283.3662475284876
 30
0.0
 10
344.9360818676979
 20
283.3181656166861
 30
0.0
 10
344.9366193478234
 20
283.2947869353059
 30
0.0
 10
344.9380375903595
 20
283.2493489455168
 30
0.0
 10
344.9389202614836
 20
283.2272558675038
 30
0.0
 10
344.9420702406916
 20
283.1632901983386
 30
0.0
 10
344.9448352549036
 20
283.1236942526943
 30
0.0
 10
344.9499742735961
 20
283.0688443818137
 30
0.0
 10
344.9518494805903
 20
283.0513645160733
 30
0.0
 10
344.9559079318281
 20
283.0181203583645
 30
0.0
 10
344.9580930166186
 20
283.0023359822066
 30
0.0
 10
344.9627743579825
 20
282.9724396976636
 30
0.0
 10
344.9652749271452
 20
282.9583081481817
 30
0.0
 10
344.970563619671
 20
282.9318607079917
 30
0.0
 10
344.9761397266248
 20
282.9072156304199
 30
0.0
 10
344.9822871452521
 20
282.8861532219971
 30
0.0
 10
344.9887218558457
 20
282.8668924082402
 30
0.0
 10
344.9920727807233
 20
282.8581970836932
 30
0.0
 10
345.0024730727516
 20
282.8349934359458
 30
0.0
 10
345.0098870818592
 20
282.8232999007436
 30
0.0
 10
345.0217234787114
 20
282.8113809940418
 30
0.0
 10
345.0257885212066
 20
282.8083476460368
 30
0.0
 10
345.0341611042471
 20
282.8041864708879
 30
0.0
 10
345.0384787366279
 20
282.803059936523
 30
0.0
 10
345.051709457564
 20
282.8026065553429
 30
0.0
 10
345.0609027366186
 20
282.806170243822
 30
0.0
 10
345.0752556712675
 20
282.8173542876974
 30
0.0
 10
345.0801330651724
 20
282.8220614057666
 30
0.0
 10
345.0900106372238
 20
282.8333727368599
 30
0.0
 10
345.095018867446
 20
282.8399823676312
 30
0.0
 10
345.1102524337894
 20
282.8626806160898
 30
0.0
 10
345.1207141009925
 20
282.8817047165159
 30
0.0
 10
345.1366257758995
 20
282.915690786074
 30
0.0
 10
345.1419729191849
 20
282.9279360880445
 30
0.0
 10
345.1527543657322
 20
282.9542738328715
 30
0.0
 10
345.1581982279821
 20
282.9683936677909
 30
0.0
 10
345.1745694692012
 20
283.0133148222966
 30
0.0
 10
345.1855444223476
 20
283.0466735081044
 30
0.0
 10
345.2020992132822
 20
283.1018942157382
 30
0.0
 10
345.2076261163719
 20
283.1211479837053
 30
0.0
 10
345.2186338823814
 20
283.1611289929515
 30
0.0
 10
345.2241237247672
 20
283.1818857138933
 30
0.0
 10
345.2350751875901
 20
283.2249392671816
 30
0.0
 10
345.2405450162618
 20
283.2472711955386
 30
0.0
 10
345.2514162339558
 20
283.2933324168197
 30
0.0
 10
345.2621997816052
 20
283.3407037989345
 30
0.0
 10
345.2728084729496
 20
283.3906882729276
 30
0.0
 10
345.2833288873322
 20
283.4419919776615
 30
0.0
 10
345.288545174392
 20
283.4683088422191
 30
0.0
 10
345.298812829393
 20
283.5218846361698
 30
0.0
 10
345.3038739227056
 20
283.5491898793264
 30
0.0
 10
345.3138503865499
 20
283.6048368675443
 30
0.0
 10
345.3187717741906
 20
283.633214677662
 30
0.0
 10
345.3332731681163
 20
283.7196791318112
 30
0.0
 10
345.3425403128918
 20
283.7787756739244
 30
0.0
 10
345.3558404276728
 20
283.869600576127
 30
0.0
 10
345.3601740081459
 20
283.9002496442209
 30
0.0
 10
345.3685760920097
 20
283.961827255767
 30
0.0
 10
345.3726529428933
 20
283.9928113318339
 30
0.0
 10
345.3805587378563
 20
284.0551692772362
 30
0.0
 10
345.3843922494702
 20
284.086582342691
 30
0.0
 10
345.3917879583865
 20
284.1496243272487
 30
0.0
 10
345.3988929950726
 20
284.2127103273832
 30
0.0
 10
345.4054224430032
 20
284.2758834871034
 30
0.0
 10
345.411663352087
 20
284.3391003393488
 30
0.0
 10
345.4146395466083
 20
284.3707381240947
 30
0.0
 10
345.4202606467562
 20
284.4335991023615
 30
0.0
 10
345.4229114461377
 20
284.4648799867286
 30
0.0
 10
345.4278951919493
 20
284.5271440896702
 30
0.0
 10
345.4302320720886
 20
284.5581838364531
 30
0.0
 10
345.4367355512342
 20
284.65046719947
 30
0.0
 10
345.4403659213589
 20
284.7104006538411
 30
0.0
 10
345.4462780091828
 20
284.8272294581599
 30
0.0
 10
345.4485595004937
 20
284.8841242981239
 30
0.0
 10
345.4501637481213
 20
284.9394935137013
 30
0.0
  0
SPLINE
  5
18F
330
1F
100
AcDbEntity
  8
1
100
AcDbSpline
210
0.0
220
0.0
230
1.0
 70
     8
 71
     3
 72
    59
 73
    55
 74
     0
 42
0.000000001
 43
0.0000000001
 40
0.0
 40
0.0
 40
0.0
 40
0.0
 40
0.0625000000000009
 40
0.0625000000000009
 40
0.0937500000000022
 40
0.0937500000000022
 40
0.1250000000000034
 40
0.1562500000000046
 40
0.1562500000000046
 40
0.1875000000000058
 40
0.1875000000000058
 40
0.218750000000007
 40
0.218750000000007
 40
0.2500000000000083
 40
0.2500000000000083
 40
0.3125000000000097
 40
0.3125000000000097
 40
0.3437500000000096
 40
0.3437500000000096
 40
0.3750000000000095
 40
0.3750000000000095
 40
0.4062500000000095
 40
0.4062500000000095
 40
0.4375000000000094
 40
0.4687500000000094
 40
0.4687500000000094
 40
0.5000000000000091
 40
0.5000000000000091
 40
0.531250000000009
 40
0.531250000000009
 40
0.562500000000009
 40
0.562500000000009
 40
0.6250000000000105
 40
0.6250000000000105
 40
0.6875000000000112
 40
0.6875000000000112
 40
0.7187500000000102
 40
0.7187500000000102
 40
0.7500000000000091
 40
0.7500000000000091
 40
0.7812500000000079
 40
0.7812500000000079
 40
0.8125000000000067
 40
0.8437500000000056
 40
0.8437500000000056
 40
0.8750000000000046
 40
0.8750000000000046
 40
0.9062500000000035
 40
0.9062500000000035
 40
0.9375000000000024
 40
0.9375000000000024
 40
0.9687500000000014
 40
0.9687500000000014
 40
1.0
 40
1.0
 40
1.0
 40
1.0
 10
345.4501637481213
 20
284.9394935137015
 30
0.0
 10
345.4456046970905
 20
284.9997553005848
 30
0.0
 10
345.4405001891759
 20
285.0577309964311
 30
0.0
 10
345.4320206065745
 20
285.1412459759769
 30
0.0
 10
345.4290496836818
 20
285.1685649832218
 30
0.0
 10
345.4228586550765
 20
285.2217461548843
 30
0.0
 10
345.4164366976058
 20
285.2733311402757
 30
0.0
 10
345.4095574538666
 20
285.321755351191
 30
0.0
 10
345.402448676597
 20
285.3685930204263
 30
0.0
 10
345.3987807287355
 20
285.3912037049207
 30
0.0
 10
345.3912678329384
 20
285.4345154822727
 30
0.0
 10
345.3874166435178
 20
285.4552590839025
 30
0.0
 10
345.3795249428239
 20
285.4949232652204
 30
0.0
 10
345.3754777271378
 20
285.5138723208235
 30
0.0
 10
345.3630988004811
 20
285.5677343252354
 30
0.0
 10
345.3545545644383
 20
285.5995928613826
 30
0.0
 10
345.3412995838156
 20
285.6412898137693
 30
0.0
 10
345.3368116459957
 20
285.6541531490431
 30
0.0
 10
345.3277527495777
 20
285.6776524126701
 30
0.0
 10
345.3231742038875
 20
285.6883131006235
 30
0.0
 10
345.313918580839
 20
285.7074491209268
 30
0.0
 10
345.3092331917252
 20
285.7159365779698
 30
0.0
 10
345.299805906591
 20
285.7306232350593
 30
0.0
 10
345.2903311169115
 20
285.7430176045207
 30
0.0
 10
345.2807614908153
 20
285.7508357309513
 30
0.0
 10
345.2711438667347
 20
285.7563377593081
 30
0.0
 10
345.2663180885634
 20
285.7579221265385
 30
0.0
 10
345.2566885441994
 20
285.7587391120148
 30
0.0
 10
345.2518767715455
 20
285.7579769563309
 30
0.0
 10
345.2422592653915
 20
285.7540956989709
 30
0.0
 10
345.2374444024024
 20
285.7509669368954
 30
0.0
 10
345.223091151747
 20
285.7380536460195
 30
0.0
 10
345.2136434998747
 20
285.7247829551537
 30
0.0
 10
345.1949944969022
 20
285.6887664585812
 30
0.0
 10
345.1858848481947
 20
285.6661891674157
 30
0.0
 10
345.1725804688745
 20
285.6255111022743
 30
0.0
 10
345.1681991622182
 20
285.6107862652975
 30
0.0
 10
345.1596203783532
 20
285.5792518024697
 30
0.0
 10
345.1554151386241
 20
285.56242163016
 30
0.0
 10
345.1471734763271
 20
285.5266289270712
 30
0.0
 10
345.1431304826274
 20
285.5076323898691
 30
0.0
 10
345.1352483138023
 20
285.4676344406889
 30
0.0
 10
345.1275840174861
 20
285.425714455156
 30
0.0
 10
345.1203539900279
 20
285.3799634193603
 30
0.0
 10
345.1133435437469
 20
285.3322752736129
 30
0.0
 10
345.1099601679871
 20
285.3075402561037
 30
0.0
 10
345.1034615224363
 20
285.2564867837614
 30
0.0
 10
345.1003420599726
 20
285.2301400894654
 30
0.0
 10
345.0943640722721
 20
285.1757991028017
 30
0.0
 10
345.0915033444837
 20
285.147772936158
 30
0.0
 10
345.0860884790718
 20
285.0905043116132
 30
0.0
 10
345.0835285340925
 20
285.0612135070566
 30
0.0
 10
345.0787030479052
 20
285.0013214580256
 30
0.0
 10
345.0764336051031
 20
284.9706603264171
 30
0.0
 10
345.0743236265538
 20
284.9394935137013
 30
0.0
  0
SPLINE
  5
190
330
1F
100
AcDbEntity
  8
1
100
AcDbSpline
210
0.0
220
0.0
230
1.0
 70
     8
 71
     3
 72
    17
 73
    13
 74
     0
 42
0.000000001
 43
0.0000000001
 40
0.0
 40
0.0
 40
0.0
 40
0.0
 40
0.249999999999949
 40
0.249999999999949
 40
0.4999999999998981
 40
0.4999999999998981
 40
0.5624999999999111
 40
0.5624999999999111
 40
0.6249999999999238
 40
0.7499999999999499
 40
0.7499999999999499
 40
1.0
 40
1.0
 40
1.0
 40
1.0
 10
339.0674419452957
 20
290.3644656537266
 30
0.0
 10
339.1304193032478
 20
290.3649502842816
 30
0.0
 10
339.1924661637798
 20
290.3668403554249
 30
0.0
 10
339.3146635231088
 20
290.3733869097299
 30
0.0
 10
339.3748167730263
 20
290.378041186803
 30
0.0
 10
339.4486594638195
 20
290.3856981456591
 30
0.0
 10
339.4633398188102
 20
290.3873205938889
 30
0.0
 10
339.4923083707813
 20
290.3907244363835
 30
0.0
 10
339.5352608243808
 20
290.3960778594657
 30
0.0
 10
339.5766850975932
 20
290.4021686794152
 30
0.0
 10
339.6573527016362
 20
290.4153417661822
 30
0.0
 10
339.708274950845
 20
290.4254303265428
 30
0.0
 10
339.7555053817584
 20
290.436986120746
 30
0.0
  0
SPLINE
  5
191
330
1F
100
AcDbEntity
  8
1
100
AcDbSpline
210
0.0
220
0.0
230
1.0
 70
     8
 71
     3
 72
    15
 73
    11
 74
     0
 42
0.000000001
 43
0.0000000001
 40
0.0
 40
0.0
 40
0.0
 40
0.0
 40
0.25
 40
0.25
 40
0.5
 40
0.75
 40
0.75
 40
0.875
 40
0.875
 40
1.0
 40
1.0
 40
1.0
 40
1.0
 10
297.9048419452957
 20
300.2153240326487
 30
0.0
 10
297.7555642375928
 20
300.2153240326486
 30
0.0
 10
297.6073633667079
 20
300.2161899858617
 30
0.0
 10
297.3130427922757
 20
300.2195265895356
 30
0.0
 10
297.0208036505027
 20
300.2244674753234
 30
0.0
 10
296.7326585401242
 20
300.2321622718316
 30
0.0
 10
296.518085301573
 20
300.2387193892822
 30
0.0
 10
296.446817088752
 20
300.2410352947887
 30
0.0
 10
296.3047963745598
 20
300.2458761997262
 30
0.0
 10
296.2340314054975
 20
300.2484019654462
 30
0.0
 10
296.1639106977683
 20
300.2509882089399
 30
0.0
  0
SPLINE
  5
192
330
1F
100
AcDbEntity
  8
1
100
AcDbSpline
210
0.0
220
0.0
230
1.0
 70
     8
 71
     3
 72
    14
 73
    10
 74
     0
 42
0.000000001
 43
0.0000000001
 40
0.0
 40
0.0
 40
0.0
 40
0.0
 40
0.25
 40
0.25
 40
0.5
 40
0.5
 40
0.75
 40
0.75
 40
1.0
 40
1.0
 40
1.0
 40
1.0
 10
296.1639106977679
 20
300.2509882089422
 30
0.0
 10
295.8254449093143
 20
300.2571351501945
 30
0.0
 10
295.4877635236678
 20
300.2631427650228
 30
0.0
 10
294.8136673620169
 20
300.2744197627158
 30
0.0
 10
294.4772516217832
 20
300.2796896507178
 30
0.0
 10
293.8054875622031
 20
300.2891267895372
 30
0.0
 10
293.4701388039516
 20
300.2932955418704
 30
0.0
 10
292.8004369901398
 20
300.3002315139081
 30
0.0
 10
292.4660841201188
 20
300.3030008560229
 30
0.0
 10
292.1322589432652
 20
300.3049247630794
 30
0.0
  0
SPLINE
  5
193
330
1F
100
AcDbEntity
  8
1
100
AcDbSpline
210
0.0
220
0.0
230
1.0
 70
    24
 71
     3
 72
    10
 73
     6
 74
     0
 42
0.000000001
 43
0.0000000001
 40
0.0
 40
0.0
 40
0.0
 40
0.0
 40
0.5
 40
0.5
 40
1.0
 40
1.0
 40
1.0
 40
1.0
 10
339.0674419452957
 20
290.6845340803103
 30
0.0
 10
339.0674419452957
 20
290.6030543058145
 30
0.0
 10
339.0674419452957
 20
290.5353305141571
 30
0.0
 10
339.0674419452957
 20
290.4283810931889
 30
0.0
 10
339.0674419452957
 20
290.3891558432534
 30
0.0
 10
339.0674419452957
 20
290.3644656537266
 30
0.0
  0
SPLINE
  5
194
330
1F
100
AcDbEntity
  8
1
100
AcDbSpline
210
0.0
220
0.0
230
1.0
 70
     8
 71
     3
 72
    30
 73
    26
 74
     0
 42
0.000000001
 43
0.0000000001
 40
0.0
 40
0.0
 40
0.0
 40
0.0
 40
0.1250000000000019
 40
0.1250000000000019
 40
0.2500000000000038
 40
0.2500000000000038
 40
0.3750000000000057
 40
0.3750000000000057
 40
0.5000000000000076
 40
0.5000000000000076
 40
0.6250000000000095
 40
0.6250000000000095
 40
0.6562500000000088
 40
0.6562500000000088
 40
0.6875000000000081
 40
0.6875000000000081
 40
0.7500000000000066
 40
0.7500000000000066
 40
0.8125000000000049
 40
0.8125000000000049
 40
0.8750000000000033
 40
0.8750000000000033
 40
0.9375000000000015
 40
0.9375000000000015
 40
1.0
 40
1.0
 40
1.0
 40
1.0
 10
335.5455731616983
 20
292.1707841370247
 30
0.0
 10
335.7227241544441
 20
292.0852758145895
 30
0.0
 10
335.8984485618804
 20
292.0038608410564
 30
0.0
 10
336.2460779339043
 20
291.8485373687251
 30
0.0
 10
336.4179850812533
 20
291.7746301848709
 30
0.0
 10
336.756811281599
 20
291.6335619197317
 30
0.0
 10
336.9237350367175
 20
291.5664026926831
 30
0.0
 10
337.2511242042679
 20
291.4379418454345
 30
0.0
 10
337.4116134191985
 20
291.3766467693178
 30
0.0
 10
337.7237801233751
 20
291.258780571377
 30
0.0
 10
337.8755050932155
 20
291.202215759116
 30
0.0
 10
338.0578764577666
 20
291.1335534458252
 30
0.0
 10
338.0940192298945
 20
291.1199086049672
 30
0.0
 10
338.1652901002866
 20
291.0928777976179
 30
0.0
 10
338.2004224502861
 20
291.0794903417998
 30
0.0
 10
338.304220973306
 20
291.0396682102121
 30
0.0
 10
338.37129284405
 20
291.0135746020646
 30
0.0
 10
338.5006211532267
 20
290.962046110792
 30
0.0
 10
338.5628801494512
 20
290.9366115847907
 30
0.0
 10
338.6818602333382
 20
290.8861207505209
 30
0.0
 10
338.738586042996
 20
290.8610650848864
 30
0.0
 10
338.8455090717489
 20
290.8110064364254
 30
0.0
 10
338.8957159068208
 20
290.7860047111013
 30
0.0
 10
338.9881405860715
 20
290.7356564982452
 30
0.0
 10
339.0303807634638
 20
290.7103127828397
 30
0.0
 10
339.0674419452957
 20
290.6845340803103
 30
0.0
  0
SPLINE
  5
195
330
1F
100
AcDbEntity
  8
1
100
AcDbSpline
210
0.0
220
0.0
230
1.0
 70
     8
 71
     3
 72
    10
 73
     6
 74
     0
 42
0.000000001
 43
0.0000000001
 40
0.0
 40
0.0
 40
0.0
 40
0.0
 40
0.1275899299924373
 40
0.1275899299924373
 40
1.0
 40
1.0
 40
1.0
 40
1.0
 10
291.1730742215443
 20
300.3367699065205
 30
0.0
 10
291.2133516007437
 20
300.3343498117864
 30
0.0
 10
291.2536924624594
 20
300.332059597413
 30
0.0
 10
291.570372149657
 20
300.3151438846835
 30
0.0
 10
291.8496507256347
 20
300.3065534956671
 30
0.0
 10
292.1322589432652
 20
300.3049247630794
 30
0.0
  0
SPLINE
  5
196
330
1F
100
AcDbEntity
  8
1
100
AcDbSpline
210
0.0
220
0.0
230
1.0
 70
     8
 71
     3
 72
    21
 73
    17
 74
     0
 42
0.000000001
 43
0.0000000001
 40
0.0
 40
0.0
 40
0.0
 40
0.0
 40
0.2499999999999104
 40
0.2499999999999104
 40
0.3124999999998868
 40
0.3124999999998868
 40
0.3749999999998631
 40
0.3749999999998631
 40
0.4999999999998901
 40
0.6249999999999171
 40
0.6249999999999171
 40
0.6874999999999309
 40
0.6874999999999309
 40
0.749999999999945
 40
0.749999999999945
 40
1.0
 40
1.0
 40
1.0
 40
1.0
 10
343.1037013984003
 20
295.4357693835671
 30
0.0
 10
343.0727648830862
 20
295.4058573417849
 30
0.0
 10
343.0388587076837
 20
295.3799264921153
 30
0.0
 10
342.992766591913
 20
295.3524873217213
 30
0.0
 10
342.9833393979726
 20
295.3472420783037
 30
0.0
 10
342.9643193890629
 20
295.3373751374567
 30
0.0
 10
342.9547053239497
 20
295.3327392520991
 30
0.0
 10
342.9255566024016
 20
295.3197080652568
 30
0.0
 10
342.8858762057471
 20
295.3046647428843
 30
0.0
 10
342.8445759001623
 20
295.2942527953494
 30
0.0
 10
342.8129729519989
 20
295.2882386891904
 30
0.0
 10
342.8023538357789
 20
295.2865401598144
 30
0.0
 10
342.7811845683708
 20
295.2837850939001
 30
0.0
 10
342.7706012211429
 20
295.2827218649591
 30
0.0
 10
342.7176910106289
 20
295.2789490459019
 30
0.0
 10
342.6753832030178
 20
295.2808086182036
 30
0.0
 10
342.6331009398885
 20
295.2876786994678
 30
0.0
  0
SPLINE
  5
197
330
1F
100
AcDbEntity
  8
1
100
AcDbSpline
210
0.0
220
0.0
230
1.0
 70
     8
 71
     3
 72
    21
 73
    17
 74
     0
 42
0.000000001
 43
0.0000000001
 40
0.0
 40
0.0
 40
0.0
 40
0.0
 40
0.2500000000000401
 40
0.2500000000000401
 40
0.3125000000000702
 40
0.3125000000000702
 40
0.3750000000001001
 40
0.3750000000001001
 40
0.5000000000000802
 40
0.6250000000000603
 40
0.6250000000000603
 40
0.6875000000000501
 40
0.6875000000000501
 40
0.7500000000000401
 40
0.7500000000000401
 40
1.0
 40
1.0
 40
1.0
 40
1.0
 10
342.0304101705179
 20
295.5661357991131
 30
0.0
 10
342.0716404174524
 20
295.5769371386534
 30
0.0
 10
342.1135687843888
 20
295.5828858774225
 30
0.0
 10
342.1669415663534
 20
295.5840993556464
 30
0.0
 10
342.1776647906976
 20
295.5840268752576
 30
0.0
 10
342.199213115736
 20
295.5832304652787
 30
0.0
 10
342.2100641123292
 20
295.582501769588
 30
0.0
 10
342.242288440558
 20
295.5793559830298
 30
0.0
 10
342.2846685829352
 20
295.5726106991146
 30
0.0
 10
342.3259028858542
 20
295.5608752806237
 30
0.0
 10
342.3563917008901
 20
295.5501706000283
 30
0.0
 10
342.3665174855008
 20
295.5462688293085
 30
0.0
 10
342.3864308578553
 20
295.537895913624
 30
0.0
 10
342.3962006639134
 20
295.5334353837746
 30
0.0
 10
342.444149715804
 20
295.5098071697817
 30
0.0
 10
342.4796651365778
 20
295.4867180935552
 30
0.0
 10
342.5124709733507
 20
295.459544271623
 30
0.0
  0
SPLINE
  5
198
330
1F
100
AcDbEntity
  8
1
100
AcDbSpline
210
0.0
220
0.0
230
1.0
 70
     8
 71
     3
 72
    14
 73
    10
 74
     0
 42
0.000000001
 43
0.0000000001
 40
0.0
 40
0.0
 40
0.0
 40
0.0
 40
0.25
 40
0.25
 40
0.5
 40
0.5
 40
0.75
 40
0.75
 40
1.0
 40
1.0
 40
1.0
 40
1.0
 10
341.96532455085
 20
295.513486070028
 30
0.0
 10
341.9686063756377
 20
295.5198852702321
 30
0.0
 10
341.9725458799928
 20
295.5259347951057
 30
0.0
 10
341.9815478319565
 20
295.537062496397
 30
0.0
 10
341.9865686183304
 20
295.5421074076006
 30
0.0
 10
341.9976630538445
 20
295.5511494046677
 30
0.0
 10
342.0037768038262
 20
295.5551476507253
 30
0.0
 10
342.0165689511718
 20
295.5616810117481
 30
0.0
 10
342.0233042223019
 20
295.5642742104702
 30
0.0
 10
342.0304101705178
 20
295.5661357991131
 30
0.0
  0
SPLINE
  5
199
330
1F
100
AcDbEntity
  8
1
100
AcDbSpline
210
0.0
220
0.0
230
1.0
 70
     8
 71
     3
 72
    22
 73
    18
 74
     0
 42
0.000000001
 43
0.0000000001
 40
0.0
 40
0.0
 40
0.0
 40
0.0
 40
0.125
 40
0.125
 40
0.25
 40
0.25
 40
0.375
 40
0.375
 40
0.5
 40
0.5
 40
0.625
 40
0.625
 40
0.75
 40
0.75
 40
0.875
 40
0.875
 40
1.0
 40
1.0
 40
1.0
 40
1.0
 10
341.9653245508495
 20
295.5134860700272
 30
0.0
 10
341.962701210058
 20
295.5083708417579
 30
0.0
 10
341.9596646324175
 20
295.5034929013564
 30
0.0
 10
341.9528951797986
 20
295.4943660468421
 30
0.0
 10
341.9491503850675
 20
295.4900919094398
 30
0.0
 10
341.9409202968561
 20
295.4821396993771
 30
0.0
 10
341.9364291566636
 20
295.4784710674729
 30
0.0
 10
341.9269940235324
 20
295.4720035300271
 30
0.0
 10
341.9220154899774
 20
295.469167544307
 30
0.0
 10
341.9115146875052
 20
295.4643271813933
 30
0.0
 10
341.9060096150488
 20
295.4623423777613
 30
0.0
 10
341.894834990825
 20
295.4593792838679
 30
0.0
 10
341.8891197464653
 20
295.4583776072528
 30
0.0
 10
341.8774197990565
 20
295.4573903819758
 30
0.0
 10
341.8715240265367
 20
295.4574197935478
 30
0.0
 10
341.8598886471183
 20
295.4585173958197
 30
0.0
 10
341.8541107130479
 20
295.4595814915679
 30
0.0
 10
341.8483754350809
 20
295.46119434257
 30
0.0
  0
SPLINE
  5
19A
330
1F
100
AcDbEntity
  8
1
100
AcDbSpline
210
0.0
220
0.0
230
1.0
 70
     8
 71
     3
 72
    14
 73
    10
 74
     0
 42
0.000000001
 43
0.0000000001
 40
0.0
 40
0.0
 40
0.0
 40
0.0
 40
0.25
 40
0.25
 40
0.5
 40
0.5
 40
0.75
 40
0.75
 40
1.0
 40
1.0
 40
1.0
 40
1.0
 10
341.3435134936567
 20
296.4853735120946
 30
0.0
 10
341.3505780846162
 20
296.4858596617456
 30
0.0
 10
341.3576694911009
 20
296.485603023026
 30
0.0
 10
341.3715770989888
 20
296.4836287035506
 30
0.0
 10
341.3783453895243
 20
296.4819295101267
 30
0.0
 10
341.3915093875709
 20
296.4770897998365
 30
0.0
 10
341.3979251608769
 20
296.4739158433161
 30
0.0
 10
341.4097905206885
 20
296.4663301775317
 30
0.0
 10
341.415317707409
 20
296.4618995773225
 30
0.0
 10
341.4204058448431
 20
296.4567736414954
 30
0.0
  0
SPLINE
  5
19B
330
1F
100
AcDbEntity
  8
1
100
AcDbSpline
210
0.0
220
0.0
230
1.0
 70
     8
 71
     3
 72
    20
 73
    16
 74
     0
 42
0.000000001
 43
0.0000000001
 40
0.0
 40
0.0
 40
0.0
 40
0.0
 40
0.1249999999999979
 40
0.1249999999999979
 40
0.2499999999999959
 40
0.2499999999999959
 40
0.3749999999999938
 40
0.3749999999999938
 40
0.4999999999999919
 40
0.4999999999999919
 40
0.6249999999999898
 40
0.6249999999999898
 40
0.7499999999999878
 40
0.7499999999999878
 40
1.0
 40
1.0
 40
1.0
 40
1.0
 10
342.6331009398885
 20
295.2876786994678
 30
0.0
 10
342.6272157712384
 20
295.2886349299031
 30
0.0
 10
342.6215167674433
 20
295.2901090560251
 30
0.0
 10
342.6104715032919
 20
295.2940368182782
 30
0.0
 10
342.6050753370343
 20
295.2965222811561
 30
0.0
 10
342.5949266174535
 20
295.3023403332973
 30
0.0
 10
342.5901826745678
 20
295.3056530553868
 30
0.0
 10
342.5813235246981
 20
295.313044592068
 30
0.0
 10
342.5771755353049
 20
295.3171646929975
 30
0.0
 10
342.5696997141166
 20
295.3259938117618
 30
0.0
 10
342.5663916123955
 20
295.3306632509359
 30
0.0
 10
342.5605908479452
 20
295.3404839536263
 30
0.0
 10
342.55808859651
 20
295.3456613919532
 30
0.0
 10
342.5519094781355
 20
295.3617676445766
 30
0.0
 10
342.5496444906152
 20
295.3728863001493
 30
0.0
 10
342.5492116631034
 20
295.3843790801812
 30
0.0
  0
SPLINE
  5
19C
330
1F
100
AcDbEntity
  8
1
100
AcDbSpline
210
0.0
220
0.0
230
1.0
 70
     8
 71
     3
 72
    21
 73
    17
 74
     0
 42
0.000000001
 43
0.0000000001
 40
0.0
 40
0.0
 40
0.0
 40
0.0
 40
0.2499999999999608
 40
0.2499999999999608
 40
0.3124999999999685
 40
0.3124999999999685
 40
0.3749999999999762
 40
0.3749999999999762
 40
0.499999999999992
 40
0.6250000000000076
 40
0.6250000000000076
 40
0.6875000000000153
 40
0.6875000000000153
 40
0.7500000000000231
 40
0.7500000000000231
 40
1.0
 40
1.0
 40
1.0
 40
1.0
 10
341.8483754350809
 20
295.46119434257
 30
0.0
 10
341.8071214039998
 20
295.4727956295089
 30
0.0
 10
341.7677807564637
 20
295.4890011859507
 30
0.0
 10
341.7210001342544
 20
295.5150065341111
 30
0.0
 10
341.711746796605
 20
295.5205120946479
 30
0.0
 10
341.6936914634159
 20
295.5319840961403
 30
0.0
 10
341.6848665426958
 20
295.5379617690087
 30
0.0
 10
341.6589889653766
 20
295.5566065588859
 30
0.0
 10
341.6260741770389
 20
295.5833597348114
 30
0.0
 10
341.5963152105988
 20
295.6138739318316
 30
0.0
 10
341.5752189488104
 20
295.6382171887825
 30
0.0
 10
341.568406802963
 20
295.6465608259654
 30
0.0
 10
341.555367863784
 20
295.6635150541616
 30
0.0
 10
341.5491186095325
 20
295.672151003489
 30
0.0
 10
341.5191991491972
 20
295.7161106346719
 30
0.0
 10
341.4994571345562
 20
295.7537432986708
 30
0.0
 10
341.4840220907489
 20
295.7939069679385
 30
0.0
  0
SPLINE
  5
19D
330
1F
100
AcDbEntity
  8
1
100
AcDbSpline
210
0.0
220
0.0
230
1.0
 70
     8
 71
     3
 72
    14
 73
    10
 74
     0
 42
0.000000001
 43
0.0000000001
 40
0.0
 40
0.0
 40
0.0
 40
0.0
 40
0.25
 40
0.25
 40
0.5
 40
0.5
 40
0.75
 40
0.75
 40
1.0
 40
1.0
 40
1.0
 40
1.0
 10
342.5124709733507
 20
295.459544271623
 30
0.0
 10
342.5181291117172
 20
295.4548575067189
 30
0.0
 10
342.5232395685991
 20
295.4495555219722
 30
0.0
 10
342.5320826329846
 20
295.4381852638937
 30
0.0
 10
342.5358412492681
 20
295.4321138431512
 30
0.0
 10
342.5420764698155
 20
295.4192200960652
 30
0.0
 10
342.5445297915741
 20
295.4123944501997
 30
0.0
 10
342.5479415065469
 20
295.3986051523092
 30
0.0
 10
342.5489409763297
 20
295.3915665704931
 30
0.0
 10
342.5492116631034
 20
295.3843790801812
 30
0.0
  0
SPLINE
  5
19E
330
1F
100
AcDbEntity
  8
1
100
AcDbSpline
210
0.0
220
0.0
230
1.0
 70
     8
 71
     3
 72
    21
 73
    17
 74
     0
 42
0.000000001
 43
0.0000000001
 40
0.0
 40
0.0
 40
0.0
 40
0.0
 40
0.2499999999999765
 40
0.2499999999999765
 40
0.3124999999999706
 40
0.3124999999999706
 40
0.3749999999999647
 40
0.3749999999999647
 40
0.4999999999999858
 40
0.625000000000007
 40
0.625000000000007
 40
0.6875000000000075
 40
0.6875000000000075
 40
0.7500000000000079
 40
0.7500000000000079
 40
1.0
 40
1.0
 40
1.0
 40
1.0
 10
341.4204058448431
 20
296.4567736414954
 30
0.0
 10
341.4499265607457
 20
296.4270336242012
 30
0.0
 10
341.4756877413936
 20
296.3941703014219
 30
0.0
 10
341.5031276404885
 20
296.3490040558031
 30
0.0
 10
341.5083743734399
 20
296.3397638816737
 30
0.0
 10
341.5183703313743
 20
296.3208542655818
 30
0.0
 10
341.5231284449957
 20
296.3111599488149
 30
0.0
 10
341.5364335617157
 20
296.2818546120476
 30
0.0
 10
341.5517398617759
 20
296.2419431998004
 30
0.0
 10
341.5622874668135
 20
296.200391094422
 30
0.0
 10
341.5683824861576
 20
296.1686021315122
 30
0.0
 10
341.5701154272976
 20
296.157862547129
 30
0.0
 10
341.5729350653903
 20
296.1363741775069
 30
0.0
 10
341.5740218270967
 20
296.1256465810226
 30
0.0
 10
341.5778938992564
 20
296.072086645775
 30
0.0
 10
341.5760588889652
 20
296.0294860003951
 30
0.0
 10
341.5694235463011
 20
295.9870899975275
 30
0.0
  0
SPLINE
  5
19F
330
1F
100
AcDbEntity
  8
1
100
AcDbSpline
210
0.0
220
0.0
230
1.0
 70
     8
 71
     3
 72
    22
 73
    18
 74
     0
 42
0.000000001
 43
0.0000000001
 40
0.0
 40
0.0
 40
0.0
 40
0.0
 40
0.125
 40
0.125
 40
0.25
 40
0.25
 40
0.375
 40
0.375
 40
0.5
 40
0.5
 40
0.625
 40
0.625
 40
0.75
 40
0.75
 40
0.875
 40
0.875
 40
1.0
 40
1.0
 40
1.0
 40
1.0
 10
341.3435134936567
 20
296.4853735120946
 30
0.0
 10
341.3378661744618
 20
296.4849848919649
 30
0.0
 10
341.3322170724216
 20
296.4850720586737
 30
0.0
 10
341.3211119805986
 20
296.4861660821635
 30
0.0
 10
341.315628544293
 20
296.4871701356826
 30
0.0
 10
341.3048049204606
 20
296.4901185020937
 30
0.0
 10
341.2994695761848
 20
296.4920727817585
 30
0.0
 10
341.2893170989316
 20
296.4968161495942
 30
0.0
 10
341.2844513666724
 20
296.4996156922627
 30
0.0
 10
341.2751611925849
 20
296.5061072830586
 30
0.0
 10
341.2707615796492
 20
296.5097949375333
 30
0.0
 10
341.2627397685117
 20
296.5178279448911
 30
0.0
 10
341.259075095016
 20
296.5222003817998
 30
0.0
 10
341.2524799022682
 20
296.5316972904922
 30
0.0
 10
341.2496055910943
 20
296.5367538907961
 30
0.0
 10
341.2448203283093
 20
296.5472662014984
 30
0.0
 10
341.2428869088661
 20
296.5527527521579
 30
0.0
 10
341.241442751556
 20
296.5584842421055
 30
0.0
  0
SPLINE
  5
1A0
330
1F
100
AcDbEntity
  8
1
100
AcDbSpline
210
0.0
220
0.0
230
1.0
 70
     8
 71
     3
 72
    12
 73
     8
 74
     0
 42
0.000000001
 43
0.0000000001
 40
0.0
 40
0.0
 40
0.0
 40
0.0
 40
0.7250992048787134
 40
0.7250992048787134
 40
0.9063740060983915
 40
0.9063740060983915
 40
1.0
 40
1.0
 40
1.0
 40
1.0
 10
341.241442751556
 20
296.5584842421055
 30
0.0
 10
341.2310546065984
 20
296.5997121249557
 30
0.0
 10
341.2255675562395
 20
296.641636357787
 30
0.0
 10
341.2248348555305
 20
296.6949019425135
 30
0.0
 10
341.2250009120133
 20
296.7056212050712
 30
0.0
 10
341.2257222457605
 20
296.7217605172839
 30
0.0
 10
341.2260500660838
 20
296.7272435771784
 30
0.0
 10
341.2264592634112
 20
296.7327130776357
 30
0.0
  0
SPLINE
  5
1A1
330
1F
100
AcDbEntity
  8
1
100
AcDbSpline
210
0.0
220
0.0
230
1.0
 70
     8
 71
     3
 72
    14
 73
    10
 74
     0
 42
0.000000001
 43
0.0000000001
 40
0.0
 40
0.0
 40
0.0
 40
0.0
 40
0.2616088242617584
 40
0.2616088242617584
 40
0.5232176485235169
 40
0.5232176485235169
 40
0.7848264727852753
 40
0.7848264727852753
 40
1.0
 40
1.0
 40
1.0
 40
1.0
 10
341.8755955337104
 20
297.5075260297932
 30
0.0
 10
341.8794232721369
 20
297.501793369248
 30
0.0
 10
341.8826194776215
 20
297.4956672507094
 30
0.0
 10
341.8876126001529
 20
297.4829169315555
 30
0.0
 10
341.889402221527
 20
297.4763429145417
 30
0.0
 10
341.8915525460018
 20
297.4627894518092
 30
0.0
 10
341.891893982702
 20
297.455775896894
 30
0.0
 10
341.8911148346929
 20
297.443173633895
 30
0.0
 10
341.8902572403961
 20
297.4375022698121
 30
0.0
 10
341.888857270586
 20
297.4318464896024
 30
0.0
  0
SPLINE
  5
1A2
330
1F
100
AcDbEntity
  8
1
100
AcDbSpline
210
0.0
220
0.0
230
1.0
 70
     8
 71
     3
 72
    10
 73
     6
 74
     0
 42
0.000000001
 43
0.0000000001
 40
0.0
 40
0.0
 40
0.0
 40
0.0
 40
0.5887477868432334
 40
0.5887477868432334
 40
1.0
 40
1.0
 40
1.0
 40
1.0
 10
341.8755955337098
 20
297.5075260297943
 30
0.0
 10
341.8725358101624
 20
297.5121084632069
 30
0.0
 10
341.8698880948962
 20
297.5169297179861
 30
0.0
 10
341.8661470054967
 20
297.5253707637978
 30
0.0
 10
341.8648180895933
 20
297.5289251522692
 30
0.0
 10
341.8637031304672
 20
297.5325640187405
 30
0.0
  0
SPLINE
  5
1A3
330
1F
100
AcDbEntity
  8
1
100
AcDbSpline
210
0.0
220
0.0
230
1.0
 70
     8
 71
     3
 72
    14
 73
    10
 74
     0
 42
0.000000001
 43
0.0000000001
 40
0.0
 40
0.0
 40
0.0
 40
0.0
 40
0.0026194074305106
 40
0.0026194074305106
 40
0.1688495061920609
 40
0.1688495061920609
 40
0.3350796049536112
 40
0.3350796049536112
 40
1.0
 40
1.0
 40
1.0
 40
1.0
 10
343.7379921541452
 20
296.1928768675583
 30
0.0
 10
343.7379371888604
 20
296.1927176666795
 30
0.0
 10
343.737882147283
 20
296.1925584808907
 30
0.0
 10
343.7343291954602
 20
296.1822981857881
 30
0.0
 10
343.7305279474307
 20
296.1722788132538
 30
0.0
 10
343.7224110970062
 20
296.152623618197
 30
0.0
 10
343.7180848116744
 20
296.1429558420766
 30
0.0
 10
343.6951383836903
 20
296.095401975156
 30
0.0
 10
343.6726246922204
 20
296.0598396955087
 30
0.0
 10
343.6458475640152
 20
296.0268310146319
 30
0.0
  0
SPLINE
  5
1A4
330
1F
100
AcDbEntity
  8
1
100
AcDbSpline
210
0.0
220
0.0
230
1.0
 70
     8
 71
     3
 72
    20
 73
    16
 74
     0
 42
0.000000001
 43
0.0000000001
 40
0.0
 40
0.0
 40
0.0
 40
0.0
 40
0.1249999999999662
 40
0.1249999999999662
 40
0.2499999999999324
 40
0.2499999999999324
 40
0.3749999999998986
 40
0.3749999999998986
 40
0.4999999999998649
 40
0.4999999999998649
 40
0.6249999999998311
 40
0.6249999999998311
 40
0.7499999999997972
 40
0.7499999999997972
 40
1.0
 40
1.0
 40
1.0
 40
1.0
 10
343.6458475640152
 20
296.0268310146319
 30
0.0
 10
343.6421203944265
 20
296.0222364610045
 30
0.0
 10
343.6380477988483
 20
296.0180654844412
 30
0.0
 10
343.6292498700341
 20
296.010525372495
 30
0.0
 10
343.6244727640379
 20
296.0071293273506
 30
0.0
 10
343.6145248817937
 20
296.0013243083249
 30
0.0
 10
343.6093737268941
 20
295.9989117437446
 30
0.0
 10
343.5987362954884
 20
295.9950183474442
 30
0.0
 10
343.5931984120423
 20
295.9935301579917
 30
0.0
 10
343.582036387106
 20
295.9915617095611
 30
0.0
 10
343.5764535412285
 20
295.991077901971
 30
0.0
 10
343.5652862611421
 20
295.9910592654677
 30
0.0
 10
343.5596740483533
 20
295.9915296370974
 30
0.0
 10
343.5430198574945
 20
295.9943781549787
 30
0.0
 10
343.5325169607291
 20
295.9980721344187
 30
0.0
 10
343.522609862471
 20
296.0035396663741
 30
0.0
  0
SPLINE
  5
1A5
330
1F
100
AcDbEntity
  8
1
100
AcDbSpline
210
0.0
220
0.0
230
1.0
 70
     8
 71
     3
 72
    14
 73
    10
 74
     0
 42
0.000000001
 43
0.0000000001
 40
0.0
 40
0.0
 40
0.0
 40
0.0
 40
0.25
 40
0.25
 40
0.5
 40
0.5
 40
0.75
 40
0.75
 40
1.0
 40
1.0
 40
1.0
 40
1.0
 10
343.4409265228308
 20
296.0100034744824
 30
0.0
 10
343.4476994847656
 20
296.0125096664533
 30
0.0
 10
343.4547171527241
 20
296.0142297560688
 30
0.0
 10
343.468709696431
 20
296.0160898967806
 30
0.0
 10
343.475701273547
 20
296.0162510092106
 30
0.0
 10
343.489679560853
 20
296.0150838129433
 30
0.0
 10
343.4966557358126
 20
296.0137339811689
 30
0.0
 10
343.5099811582423
 20
296.0096729613418
 30
0.0
 10
343.5164139414833
 20
296.0069590728553
 30
0.0
 10
343.522609862471
 20
296.0035396663741
 30
0.0
  0
SPLINE
  5
1A6
330
1F
100
AcDbEntity
  8
1
100
AcDbSpline
210
0.0
220
0.0
230
1.0
 70
     8
 71
     3
 72
    21
 73
    17
 74
     0
 42
0.000000001
 43
0.0000000001
 40
0.0
 40
0.0
 40
0.0
 40
0.0
 40
0.2499999999999735
 40
0.2499999999999735
 40
0.312499999999969
 40
0.312499999999969
 40
0.3749999999999646
 40
0.3749999999999646
 40
0.4999999999999986
 40
0.6250000000000327
 40
0.6250000000000327
 40
0.6875000000000496
 40
0.6875000000000496
 40
0.7500000000000667
 40
0.7500000000000667
 40
1.0
 40
1.0
 40
1.0
 40
1.0
 10
343.1078834214561
 20
295.6469113580046
 30
0.0
 10
343.1197644179554
 20
295.688144087225
 30
0.0
 10
343.1360683910142
 20
295.7275087243858
 30
0.0
 10
343.162119466195
 20
295.7743674303769
 30
0.0
 10
343.1676169315342
 20
295.7836202339416
 30
0.0
 10
343.179205580975
 20
295.801880928769
 30
0.0
 10
343.185313911404
 20
295.8109088986124
 30
0.0
 10
343.2042701691197
 20
295.8372171615688
 30
0.0
 10
343.2313685972298
 20
295.8704822288317
 30
0.0
 10
343.2620307383648
 20
295.9002002348343
 30
0.0
 10
343.2863876677743
 20
295.9211364702565
 30
0.0
 10
343.2947650444387
 20
295.9279123488646
 30
0.0
 10
343.3118224557097
 20
295.9408801767179
 30
0.0
 10
343.3204844932342
 20
295.9470620264718
 30
0.0
 10
343.3644431004834
 20
295.9765141550974
 30
0.0
 10
343.4016565589181
 20
295.9954724510977
 30
0.0
 10
343.4409265228308
 20
296.0100034744824
 30
0.0
  0
SPLINE
  5
1A7
330
1F
100
AcDbEntity
  8
1
100
AcDbSpline
210
0.0
220
0.0
230
1.0
 70
     8
 71
     3
 72
     8
 73
     4
 74
     0
 42
0.000000001
 43
0.0000000001
 40
0.0
 40
0.0
 40
0.0
 40
0.0
 40
1.0
 40
1.0
 40
1.0
 40
1.0
 10
343.4874040811688
 20
297.1676120250827
 30
0.0
 10
343.4823843533578
 20
297.1627576429615
 30
0.0
 10
343.4768497471987
 20
297.1584879442283
 30
0.0
 10
343.4708047902713
 20
297.1547991739195
 30
0.0
  0
SPLINE
  5
1A8
330
1F
100
AcDbEntity
  8
1
100
AcDbSpline
210
0.0
220
0.0
230
1.0
 70
     8
 71
     3
 72
    14
 73
    10
 74
     0
 42
0.000000001
 43
0.0000000001
 40
0.0
 40
0.0
 40
0.0
 40
0.0
 40
0.1653519721332238
 40
0.1653519721332238
 40
0.4435679814221487
 40
0.4435679814221487
 40
0.7217839907110744
 40
0.7217839907110744
 40
1.0
 40
1.0
 40
1.0
 40
1.0
 10
343.4280365585584
 20
297.0965092594975
 30
0.0
 10
343.4290497278745
 20
297.1006005666536
 30
0.0
 10
343.4303237248413
 20
297.1045928350903
 30
0.0
 10
343.4343718227114
 20
297.1149071082389
 30
0.0
 10
343.4375662388015
 20
297.1209842810186
 30
0.0
 10
343.4452274494609
 20
297.1323829157187
 30
0.0
 10
343.4497076492702
 20
297.1376844864585
 30
0.0
 10
343.4595349691305
 20
297.1470632457221
 30
0.0
 10
343.4649242091745
 20
297.1512107094837
 30
0.0
 10
343.4708047902713
 20
297.1547991739195
 30
0.0
  0
SPLINE
  5
1A9
330
1F
100
AcDbEntity
  8
1
100
AcDbSpline
210
0.0
220
0.0
230
1.0
 70
     8
 71
     3
 72
    31
 73
    27
 74
     0
 42
0.000000001
 43
0.0000000001
 40
0.0
 40
0.0
 40
0.0
 40
0.0
 40
0.1250000000000017
 40
0.1250000000000017
 40
0.2500000000000034
 40
0.2500000000000034
 40
0.3750000000000053
 40
0.3750000000000053
 40
0.4062500000000063
 40
0.4062500000000063
 40
0.4218750000000066
 40
0.4218750000000066
 40
0.4375000000000068
 40
0.5000000000000066
 40
0.5000000000000066
 40
0.6250000000000054
 40
0.6250000000000054
 40
0.7500000000000043
 40
0.7500000000000043
 40
0.8125000000000042
 40
0.8125000000000042
 40
0.8437500000000037
 40
0.8437500000000037
 40
0.875000000000003
 40
0.875000000000003
 40
1.0
 40
1.0
 40
1.0
 40
1.0
 10
279.404841945296
 20
279.4288664604418
 30
0.0
 10
279.2094597264236
 20
279.3190981496864
 30
0.0
 10
279.0216457193472
 20
279.2032917070209
 30
0.0
 10
278.6610024401176
 20
278.9604073843727
 30
0.0
 10
278.4881726148499
 20
278.833328627997
 30
0.0
 10
278.1578014278897
 20
278.5683804370516
 30
0.0
 10
278.0002568845157
 20
278.4305117536115
 30
0.0
 10
277.8133875474867
 20
278.2515341651114
 30
0.0
 10
277.7765181518084
 20
278.2154057340517
 30
0.0
 10
277.7219848114831
 20
278.1607130381851
 30
0.0
 10
277.703927044256
 20
278.1423898036452
 30
0.0
 10
277.6681770766912
 20
278.105686374091
 30
0.0
 10
277.5796559876534
 20
278.0137256239036
 30
0.0
 10
277.4953868000611
 20
277.920778320403
 30
0.0
 10
277.3012470365152
 20
277.6959701790934
 30
0.0
 10
277.1826077100994
 20
277.5437916037599
 30
0.0
 10
276.9671055576153
 20
277.2355049434736
 30
0.0
 10
276.8702394600003
 20
277.0793962298526
 30
0.0
 10
276.7419605755759
 20
276.8426501641642
 30
0.0
 10
276.7020435401266
 20
276.7633028433502
 30
0.0
 10
276.646578215178
 20
276.6436661323026
 30
0.0
 10
276.6288063743214
 20
276.6036369048098
 30
0.0
 10
276.5949235750107
 20
276.5237658849724
 30
0.0
 10
276.5787962726857
 20
276.4838929819234
 30
0.0
 10
276.5022231873544
 20
276.2848618928098
 30
0.0
 10
276.4539340701311
 20
276.126707320315
 30
0.0
 10
276.4187910671169
 20
275.9698553238549
 30
0.0
  0
SPLINE
  5
1AA
330
1F
100
AcDbEntity
  8
1
100
AcDbSpline
210
0.0
220
0.0
230
1.0
 70
     8
 71
     3
 72
    32
 73
    28
 74
     0
 42
0.000000001
 43
0.0000000001
 40
0.0
 40
0.0
 40
0.0
 40
0.0
 40
0.1250000000000014
 40
0.1250000000000014
 40
0.2500000000000029
 40
0.2500000000000029
 40
0.3750000000000043
 40
0.3750000000000043
 40
0.4375000000000049
 40
0.4375000000000049
 40
0.4687500000000055
 40
0.4843750000000056
 40
0.4843750000000056
 40
0.5000000000000055
 40
0.5000000000000055
 40
0.6250000000000035
 40
0.6250000000000035
 40
0.7500000000000014
 40
0.7500000000000014
 40
0.8749999999999992
 40
0.8749999999999992
 40
0.8906249999999994
 40
0.8906249999999994
 40
0.9062499999999996
 40
0.9062499999999996
 40
0.9375
 40
1.0
 40
1.0
 40
1.0
 40
1.0
 10
280.8185504442805
 20
280.839194453507
 30
0.0
 10
281.1062077248946
 20
281.1031151459726
 30
0.0
 10
281.4042625755561
 20
281.3529236889024
 30
0.0
 10
282.0214225520134
 20
281.8248422902433
 30
0.0
 10
282.3405253462518
 20
282.0469538698227
 30
0.0
 10
283.0005694472847
 20
282.4631528949336
 30
0.0
 10
283.3415060896637
 20
282.6572463736582
 30
0.0
 10
283.8703586231126
 20
282.926406469398
 30
0.0
 10
284.0495561347838
 20
283.0124551109694
 30
0.0
 10
284.3229124659531
 20
283.135816914318
 30
0.0
 10
284.4607312838125
 20
283.1960690794608
 30
0.0
 10
284.6003029109568
 20
283.2541306212038
 30
0.0
 10
284.6937452893068
 20
283.2923455308882
 30
0.0
 10
284.7406909717586
 20
283.3112173151935
 30
0.0
 10
285.1644094985193
 20
283.4785851475747
 30
0.0
 10
285.547544974669
 20
283.6089917279688
 30
0.0
 10
286.3270759499392
 20
283.8323017201048
 30
0.0
 10
286.7234728215153
 20
283.9252066999083
 30
0.0
 10
287.5300371534765
 20
284.0714586928023
 30
0.0
 10
287.9402067998008
 20
284.1248074692371
 30
0.0
 10
288.4097884169699
 20
284.160663752939
 30
0.0
 10
288.4620773115681
 20
284.1643113400112
 30
0.0
 10
288.5668829256733
 20
284.1709254920667
 30
0.0
 10
288.6194095895292
 20
284.1738921696503
 30
0.0
 10
288.7770150858898
 20
284.1817444052647
 30
0.0
 10
289.0926335784026
 20
284.1932788359147
 30
0.0
 10
289.4094494766628
 20
284.1922178739015
 30
0.0
 10
289.6211661068993
 20
284.1858210827757
 30
0.0
  0
SPLINE
  5
1AB
330
1F
100
AcDbEntity
  8
1
100
AcDbSpline
210
0.0
220
0.0
230
1.0
 70
     8
 71
     3
 72
    10
 73
     6
 74
     0
 42
0.000000001
 43
0.0000000001
 40
0.0
 40
0.0
 40
0.0
 40
0.0
 40
0.5
 40
0.5
 40
1.0
 40
1.0
 40
1.0
 40
1.0
 10
280.8185504442805
 20
280.839194453507
 30
0.0
 10
280.5782558288963
 20
280.6187282057817
 30
0.0
 10
280.3401562887746
 20
280.3916860470617
 30
0.0
 10
279.8687701940612
 20
279.9223640620884
 30
0.0
 10
279.6354820584487
 20
279.6800949940469
 30
0.0
 10
279.4048419452959
 20
279.4288664604417
 30
0.0
  0
SPLINE
  5
1AC
330
1F
100
AcDbEntity
  8
1
100
AcDbSpline
210
0.0
220
0.0
230
1.0
 70
     8
 71
     3
 72
    36
 73
    32
 74
     0
 42
0.000000001
 43
0.0000000001
 40
0.0
 40
0.0
 40
0.0
 40
0.0
 40
0.1250000000000083
 40
0.1250000000000083
 40
0.1875000000000157
 40
0.1875000000000157
 40
0.2187500000000252
 40
0.2187500000000252
 40
0.2500000000000347
 40
0.2500000000000347
 40
0.3750000000000638
 40
0.3750000000000638
 40
0.4062500000000652
 40
0.4062500000000652
 40
0.4375000000000667
 40
0.4375000000000667
 40
0.5000000000000935
 40
0.5000000000000935
 40
0.6250000000001479
 40
0.6250000000001479
 40
0.6562500000001469
 40
0.6562500000001469
 40
0.6875000000001461
 40
0.7500000000001438
 40
0.8125000000001413
 40
0.8125000000001413
 40
0.8437500000001236
 40
0.8437500000001236
 40
0.8750000000001055
 40
0.8750000000001055
 40
1.0
 40
1.0
 40
1.0
 40
1.0
 10
338.769491863453
 20
293.2097489981429
 30
0.0
 10
338.7717626983957
 20
293.1592844353732
 30
0.0
 10
338.7791960105386
 20
293.1099321380413
 30
0.0
 10
338.79755892866
 20
293.0374577356893
 30
0.0
 10
338.8048924387778
 20
293.0135608450412
 30
0.0
 10
338.8177329146152
 20
292.9781119859227
 30
0.0
 10
338.8223342771505
 20
292.9663301560222
 30
0.0
 10
338.8320808494425
 20
292.9430902386965
 30
0.0
 10
338.8372235720593
 20
292.9316321954289
 30
0.0
 10
338.8642529713269
 20
292.8751326888244
 30
0.0
 10
338.8900474865467
 20
292.832439605514
 30
0.0
 10
338.9274173641409
 20
292.7821541152612
 30
0.0
 10
338.9351501197058
 20
292.7722525287244
 30
0.0
 10
338.9511409289793
 20
292.7527650287899
 30
0.0
 10
338.9594052983707
 20
292.7431749765867
 30
0.0
 10
338.9847256561196
 20
292.7151801872676
 30
0.0
 10
339.0023896916193
 20
292.6974445555907
 30
0.0
 10
339.0576709029168
 20
292.6469466334155
 30
0.0
 10
339.0975539894643
 20
292.6168658674677
 30
0.0
 10
339.151336904494
 20
292.5839146352668
 30
0.0
 10
339.1622947671536
 20
292.5775599682353
 30
0.0
 10
339.1843690803771
 20
292.5654605811487
 30
0.0
 10
339.217807040989
 20
292.5481713816998
 30
0.0
 10
339.2751436793329
 20
292.5235876375065
 30
0.0
 10
339.3227209893753
 20
292.508419012759
 30
0.0
 10
339.3590621396398
 20
292.4987759654393
 30
0.0
 10
339.3712857669885
 20
292.4958510886796
 30
0.0
 10
339.3959585399105
 20
292.490595284181
 30
0.0
 10
339.4084208021972
 20
292.4882638652363
 30
0.0
 10
339.4707057891376
 20
292.4782246393984
 30
0.0
 10
339.5208991278225
 20
292.4752099668348
 30
0.0
 10
339.5714724540478
 20
292.477413006331
 30
0.0
  0
SPLINE
  5
1AD
330
1F
100
AcDbEntity
  8
1
100
AcDbSpline
210
0.0
220
0.0
230
1.0
 70
     8
 71
     3
 72
    36
 73
    32
 74
     0
 42
0.000000001
 43
0.0000000001
 40
0.0
 40
0.0
 40
0.0
 40
0.0
 40
0.1249999999999231
 40
0.1249999999999231
 40
0.1874999999998889
 40
0.1874999999998889
 40
0.218749999999868
 40
0.218749999999868
 40
0.2499999999998471
 40
0.2499999999998471
 40
0.374999999999804
 40
0.374999999999804
 40
0.4062499999997873
 40
0.4062499999997873
 40
0.4374999999997705
 40
0.4374999999997705
 40
0.4999999999997569
 40
0.4999999999997569
 40
0.6249999999997551
 40
0.6249999999997551
 40
0.6562499999997704
 40
0.6562499999997704
 40
0.6874999999997858
 40
0.7499999999998145
 40
0.8124999999998433
 40
0.8124999999998433
 40
0.8437499999998749
 40
0.8437499999998749
 40
0.8749999999999065
 40
0.8749999999999065
 40
1.0
 40
1.0
 40
1.0
 40
1.0
 10
346.4102906244816
 20
299.9332676793744
 30
0.0
 10
346.4080197895391
 20
299.9837322421441
 30
0.0
 10
346.4005864773962
 20
300.0330845394759
 30
0.0
 10
346.3822235592748
 20
300.105558941828
 30
0.0
 10
346.374890049157
 20
300.1294558324762
 30
0.0
 10
346.3620495733196
 20
300.1649046915947
 30
0.0
 10
346.3574482107843
 20
300.1766865214951
 30
0.0
 10
346.3477016384922
 20
300.1999264388208
 30
0.0
 10
346.3425589158755
 20
300.2113844820883
 30
0.0
 10
346.3155295166079
 20
300.2678839886929
 30
0.0
 10
346.289735001388
 20
300.3105770720034
 30
0.0
 10
346.2523651237939
 20
300.3608625622562
 30
0.0
 10
346.244632368229
 20
300.3707641487929
 30
0.0
 10
346.2286415589555
 20
300.3902516487273
 30
0.0
 10
346.2203771895641
 20
300.3998417009306
 30
0.0
 10
346.1950568318152
 20
300.4278364902497
 30
0.0
 10
346.1773927963155
 20
300.4455721219266
 30
0.0
 10
346.1221115850179
 20
300.4960700441018
 30
0.0
 10
346.0822284984705
 20
300.5261508100496
 30
0.0
 10
346.0284455834408
 20
300.5591020422505
 30
0.0
 10
346.0174877207811
 20
300.5654567092819
 30
0.0
 10
345.9954134075576
 20
300.5775560963688
 30
0.0
 10
345.9619754469458
 20
300.5948452958175
 30
0.0
 10
345.9046388086018
 20
300.6194290400109
 30
0.0
 10
345.8570614985595
 20
300.6345976647584
 30
0.0
 10
345.820720348295
 20
300.6442407120779
 30
0.0
 10
345.8084967209462
 20
300.6471655888377
 30
0.0
 10
345.7838239480243
 20
300.6524213933363
 30
0.0
 10
345.7713616857376
 20
300.654752812281
 30
0.0
 10
345.7090766987972
 20
300.6647920381188
 30
0.0
 10
345.6588833601123
 20
300.6678067106826
 30
0.0
 10
345.6083100338869
 20
300.6656036711863
 30
0.0
  0
SPLINE
  5
1AE
330
1F
100
AcDbEntity
  8
1
100
AcDbSpline
210
0.0
220
0.0
230
1.0
 70
     8
 71
     3
 72
    36
 73
    32
 74
     0
 42
0.000000001
 43
0.0000000001
 40
0.0
 40
0.0
 40
0.0
 40
0.0
 40
0.1249999999999823
 40
0.1249999999999823
 40
0.187499999999974
 40
0.187499999999974
 40
0.2187499999999698
 40
0.2187499999999698
 40
0.2499999999999656
 40
0.2499999999999656
 40
0.3749999999999434
 40
0.3749999999999434
 40
0.4062499999999442
 40
0.4062499999999442
 40
0.4374999999999449
 40
0.4374999999999449
 40
0.4999999999999208
 40
0.4999999999999208
 40
0.6249999999998962
 40
0.6249999999998962
 40
0.6562499999998945
 40
0.6562499999998945
 40
0.6874999999998929
 40
0.7499999999999086
 40
0.8124999999999241
 40
0.8124999999999241
 40
0.8437499999999319
 40
0.8437499999999319
 40
0.8749999999999397
 40
0.8749999999999397
 40
1.0
 40
1.0
 40
1.0
 40
1.0
 10
339.2155463730312
 20
300.3871266184369
 30
0.0
 10
339.1649663689104
 20
300.3849232880428
 30
0.0
 10
339.115507599284
 20
300.3775681693003
 30
0.0
 10
339.0428860199453
 20
300.359337475612
 30
0.0
 10
339.0189421769098
 20
300.3520505508504
 30
0.0
 10
338.9834260863095
 20
300.339283763183
 30
0.0
 10
338.9716223225457
 20
300.3347076712481
 30
0.0
 10
338.948339966349
 20
300.3250125115804
 30
0.0
 10
338.9368614151117
 20
300.319895925123
 30
0.0
 10
338.880262843083
 20
300.2929993058011
 30
0.0
 10
338.8375015212378
 20
300.2673176687643
 30
0.0
 10
338.7871442703128
 20
300.2300970678683
 30
0.0
 10
338.7772290149682
 20
300.2223945804896
 30
0.0
 10
338.7577155645046
 20
300.2064651456264
 30
0.0
 10
338.7481132286668
 20
300.1982319023141
 30
0.0
 10
338.7200840550154
 20
300.1730051988058
 30
0.0
 10
338.702328639823
 20
300.15540428719
 30
0.0
 10
338.6517805357424
 20
300.1003144560636
 30
0.0
 10
338.6216784471455
 20
300.0605616139712
 30
0.0
 10
338.5887162988383
 20
300.0069449519656
 30
0.0
 10
338.5823602486425
 20
299.9960205197467
 30
0.0
 10
338.5702597198207
 20
299.9740126860864
 30
0.0
 10
338.5529712249158
 20
299.9406741476747
 30
0.0
 10
338.5284006895704
 20
299.8835016978371
 30
0.0
 10
338.5132550258002
 20
299.8360542792907
 30
0.0
 10
338.5036341765373
 20
299.7998099089846
 30
0.0
 10
338.5007175128434
 20
299.7876184415904
 30
0.0
 10
338.4954798040809
 20
299.7630097833298
 30
0.0
 10
338.4931582828226
 20
299.7505795069965
 30
0.0
 10
338.4831723036948
 20
299.6884523942333
 30
0.0
 10
338.4802124331325
 20
299.6383800250494
 30
0.0
 10
338.4824829682649
 20
299.5879221249337
 30
0.0
  0
SPLINE
  5
1AF
330
1F
100
AcDbEntity
  8
1
100
AcDbSpline
210
0.0
220
0.0
230
1.0
 70
     8
 71
     3
 72
    36
 73
    32
 74
     0
 42
0.000000001
 43
0.0000000001
 40
0.0
 40
0.0
 40
0.0
 40
0.0
 40
0.1250000000000013
 40
0.1250000000000013
 40
0.187499999999985
 40
0.187499999999985
 40
0.218749999999993
 40
0.218749999999993
 40
0.2500000000000011
 40
0.2500000000000011
 40
0.3750000000000038
 40
0.3750000000000038
 40
0.4062500000000109
 40
0.4062500000000109
 40
0.4375000000000179
 40
0.4375000000000179
 40
0.5000000000000063
 40
0.5000000000000063
 40
0.6250000000000067
 40
0.6250000000000067
 40
0.6562500000000111
 40
0.6562500000000111
 40
0.6875000000000157
 40
0.7500000000000098
 40
0.8125000000000039
 40
0.8125000000000039
 40
0.8437500000000008
 40
0.8437500000000008
 40
0.8749999999999978
 40
0.8749999999999978
 40
1.0
 40
1.0
 40
1.0
 40
1.0
 10
345.9642361149037
 20
292.7558900590804
 30
0.0
 10
346.0148161190243
 20
292.7580933894743
 30
0.0
 10
346.0642748886507
 20
292.765448508217
 30
0.0
 10
346.1368964679895
 20
292.7836792019054
 30
0.0
 10
346.160840311025
 20
292.7909661266669
 30
0.0
 10
346.1963564016253
 20
292.8037329143343
 30
0.0
 10
346.208160165389
 20
292.8083090062692
 30
0.0
 10
346.2314425215859
 20
292.8180041659369
 30
0.0
 10
346.2429210728232
 20
292.8231207523942
 30
0.0
 10
346.2995196448519
 20
292.8500173717163
 30
0.0
 10
346.342280966697
 20
292.875699008753
 30
0.0
 10
346.3926382176222
 20
292.912919609649
 30
0.0
 10
346.4025534729666
 20
292.9206220970277
 30
0.0
 10
346.4220669234302
 20
292.9365515318909
 30
0.0
 10
346.4316692592681
 20
292.9447847752032
 30
0.0
 10
346.4596984329194
 20
292.9700114787115
 30
0.0
 10
346.4774538481118
 20
292.9876123903272
 30
0.0
 10
346.5280019521923
 20
293.0427022214537
 30
0.0
 10
346.5581040407892
 20
293.082455063546
 30
0.0
 10
346.5910661890965
 20
293.1360717255517
 30
0.0
 10
346.5974222392923
 20
293.1469961577707
 30
0.0
 10
346.6095227681141
 20
293.1690039914309
 30
0.0
 10
346.626811263019
 20
293.2023425298427
 30
0.0
 10
346.6513817983644
 20
293.2595149796802
 30
0.0
 10
346.6665274621346
 20
293.3069623982266
 30
0.0
 10
346.6761483113975
 20
293.3432067685328
 30
0.0
 10
346.6790649750914
 20
293.3553982359269
 30
0.0
 10
346.6843026838538
 20
293.3800068941875
 30
0.0
 10
346.6866242051121
 20
293.3924371705209
 30
0.0
 10
346.69661018424
 20
293.454564283284
 30
0.0
 10
346.6995700548024
 20
293.504636652468
 30
0.0
 10
346.6972995196698
 20
293.5550945525837
 30
0.0
  0
SPLINE
  5
1B0
330
1F
100
AcDbEntity
  8
1
100
AcDbSpline
210
0.0
220
0.0
230
1.0
 70
     8
 71
     3
 72
    28
 73
    24
 74
     0
 42
0.000000001
 43
0.0000000001
 40
0.0
 40
0.0
 40
0.0
 40
0.0
 40
0.0486383281744265
 40
0.0486383281744265
 40
0.1080984326635243
 40
0.1080984326635243
 40
0.1675585371526223
 40
0.1675585371526223
 40
0.2864787461308196
 40
0.2864787461308196
 40
0.4053989551090169
 40
0.4053989551090169
 40
0.5243191640872142
 40
0.5243191640872142
 40
0.5837792685763125
 40
0.5837792685763125
 40
0.6432393730654109
 40
0.6432393730654109
 40
0.7621595820436074
 40
0.7621595820436074
 40
0.8810797910218038
 40
0.8810797910218038
 40
1.0
 40
1.0
 40
1.0
 40
1.0
 10
311.1441098833062
 20
280.1487541266049
 30
0.0
 10
310.9342664182039
 20
280.0978318752997
 30
0.0
 10
310.7243829159718
 20
280.0475965266265
 30
0.0
 10
310.2577236582324
 20
279.9376510615642
 30
0.0
 10
310.0009035316573
 20
279.878317723431
 30
0.0
 10
309.4868202198843
 20
279.7621876733471
 30
0.0
 10
309.2295304634246
 20
279.7053857585055
 30
0.0
 10
308.4570544690153
 20
279.5391748379131
 30
0.0
 10
307.9411893782783
 20
279.4339701392125
 30
0.0
 10
306.9064659737251
 20
279.2358852295449
 30
0.0
 10
306.3876042288399
 20
279.1430044774009
 30
0.0
 10
305.3458780443517
 20
278.9698837531485
 30
0.0
 10
304.8230124883618
 20
278.8896385276364
 30
0.0
 10
304.0351809104371
 20
278.7784487188205
 30
0.0
 10
303.7719230272844
 20
278.7429023535529
 30
0.0
 10
303.2444954745741
 20
278.6747989229416
 30
0.0
 10
302.9803586073295
 20
278.6422449539531
 30
0.0
 10
302.1866289571022
 20
278.5488689288018
 30
0.0
 10
301.6557116753188
 20
278.4923379001955
 30
0.0
 10
300.5902272000201
 20
278.3894143668399
 30
0.0
 10
300.0556613352101
 20
278.3430165329235
 30
0.0
 10
298.9829187754597
 20
278.2589450019257
 30
0.0
 10
298.4447432193611
 20
278.2212680001867
 30
0.0
 10
297.9048419452957
 20
278.1872608727251
 30
0.0
  0
SPLINE
  5
1B2
330
1F
100
AcDbEntity
  8
1
100
AcDbSpline
210
0.0
220
0.0
230
1.0
 70
     8
 71
     3
 72
     8
 73
     4
 74
     0
 42
0.000000001
 43
0.0000000001
 40
0.0
 40
0.0
 40
0.0
 40
0.0
 40
1.0
 40
1.0
 40
1.0
 40
1.0
 10
335.5455731616986
 20
292.1707841370246
 30
0.0
 10
335.3678889111714
 20
292.2323021883066
 30
0.0
 10
335.1905047820606
 20
292.2979513032413
 30
0.0
 10
335.0136121206404
 20
292.3678185109885
 30
0.0
  0
SPLINE
  5
1B3
330
1F
100
AcDbEntity
  8
1
100
AcDbSpline
210
0.0
220
0.0
230
1.0
 70
     8
 71
     3
 72
    42
 73
    38
 74
     0
 42
0.000000001
 43
0.0000000001
 40
0.0
 40
0.0
 40
0.0
 40
0.0
 40
0.1250000000000094
 40
0.1250000000000094
 40
0.2500000000000188
 40
0.2500000000000188
 40
0.3125000000000168
 40
0.3125000000000168
 40
0.3750000000000149
 40
0.3750000000000149
 40
0.4062500000000194
 40
0.4062500000000194
 40
0.4375000000000237
 40
0.4375000000000237
 40
0.5000000000000242
 40
0.5000000000000242
 40
0.5312500000000271
 40
0.5312500000000271
 40
0.5625000000000301
 40
0.5625000000000301
 40
0.6250000000000359
 40
0.6250000000000359
 40
0.6562500000000373
 40
0.6562500000000373
 40
0.6875000000000384
 40
0.6875000000000384
 40
0.7187500000000397
 40
0.7187500000000397
 40
0.7500000000000409
 40
0.7500000000000409
 40
0.8125000000000305
 40
0.8125000000000305
 40
0.8750000000000204
 40
0.8750000000000204
 40
0.9375000000000104
 40
0.9375000000000104
 40
1.0
 40
1.0
 40
1.0
 40
1.0
 10
335.0136121206399
 20
292.3678185109877
 30
0.0
 10
334.9786665739071
 20
292.3816209364462
 30
0.0
 10
334.9449052272133
 20
292.3967422187617
 30
0.0
 10
334.8802977368522
 20
292.4302083595414
 30
0.0
 10
334.8494361513468
 20
292.448536232601
 30
0.0
 10
334.8061137670458
 20
292.4792982004582
 30
0.0
 10
334.7921617596091
 20
292.4901119701064
 30
0.0
 10
334.7655510835176
 20
292.5130732296927
 30
0.0
 10
334.7530260606135
 20
292.5251031517685
 30
0.0
 10
334.7356768276958
 20
292.544159912187
 30
0.0
 10
334.7301346464315
 20
292.5506816452158
 30
0.0
 10
334.7195971386114
 20
292.5641098137922
 30
0.0
 10
334.7145885478954
 20
292.5710364351564
 30
0.0
 10
334.7006089920802
 20
292.5923337372237
 30
0.0
 10
334.6927173080463
 20
292.6071307720924
 30
0.0
 10
334.6835923595648
 20
292.6304644724709
 30
0.0
 10
334.6810056788141
 20
292.6384332760902
 30
0.0
 10
334.6768909923935
 20
292.6548153033143
 30
0.0
 10
334.675358134049
 20
292.6632887087613
 30
0.0
 10
334.6726991109634
 20
292.6890022311213
 30
0.0
 10
334.6734649669865
 20
292.706455778721
 30
0.0
 10
334.6791534918362
 20
292.7331949902196
 30
0.0
 10
334.6818063536838
 20
292.742121975003
 30
0.0
 10
334.6884936487017
 20
292.7595989685728
 30
0.0
 10
334.6925398666874
 20
292.7682100782379
 30
0.0
 10
334.7020069991713
 20
292.7851835358874
 30
0.0
 10
334.7074749541719
 20
292.7936047734442
 30
0.0
 10
334.7195057784557
 20
292.8098576896497
 30
0.0
 10
334.7260526181784
 20
292.8176890312581
 30
0.0
 10
334.7471042215656
 20
292.8404001567779
 30
0.0
 10
334.7631600926951
 20
292.8545868194763
 30
0.0
 10
334.797025426183
 20
292.8803465559687
 30
0.0
 10
334.8149440836452
 20
292.8920651716512
 30
0.0
 10
334.8522641441975
 20
292.9137584634046
 30
0.0
 10
334.8717281158545
 20
292.9237478259744
 30
0.0
 10
334.9112175611963
 20
292.9420513540754
 30
0.0
 10
334.9313164221268
 20
292.9504103393441
 30
0.0
 10
334.9516947860558
 20
292.958143673445
 30
0.0
  0
SPLINE
  5
1B4
330
1F
100
AcDbEntity
  8
1
100
AcDbSpline
210
0.0
220
0.0
230
1.0
 70
     8
 71
     3
 72
    42
 73
    38
 74
     0
 42
0.000000001
 43
0.0000000001
 40
0.0
 40
0.0
 40
0.0
 40
0.0
 40
0.0312500000000033
 40
0.0312500000000033
 40
0.0625000000000067
 40
0.1250000000000099
 40
0.1250000000000099
 40
0.2500000000000165
 40
0.2500000000000165
 40
0.3750000000000232
 40
0.3750000000000232
 40
0.3906250000000228
 40
0.3906250000000228
 40
0.4062500000000223
 40
0.4375000000000212
 40
0.4375000000000212
 40
0.5000000000000183
 40
0.5000000000000183
 40
0.5625000000000156
 40
0.5625000000000156
 40
0.5937500000000142
 40
0.6093750000000137
 40
0.6093750000000137
 40
0.6250000000000133
 40
0.6250000000000133
 40
0.6875000000000109
 40
0.6875000000000109
 40
0.7500000000000086
 40
0.7500000000000086
 40
0.8125000000000062
 40
0.8125000000000062
 40
0.8437500000000051
 40
0.8437500000000051
 40
0.8750000000000037
 40
0.8750000000000037
 40
0.9375000000000019
 40
1.0
 40
1.0
 40
1.0
 40
1.0
 10
334.9516947860557
 20
292.958143673445
 30
0.0
 10
335.0057285952749
 20
292.9786488278767
 30
0.0
 10
335.0596380398568
 20
292.9998928515088
 30
0.0
 10
335.1667122862912
 20
293.0437436086348
 30
0.0
 10
335.3260795025708
 20
293.1115055122514
 30
0.0
 10
335.4815950155604
 20
293.1854150412591
 30
0.0
 10
335.7871524116287
 20
293.3419704488047
 30
0.0
 10
335.9835777680514
 20
293.4579595011746
 30
0.0
 10
336.3597567256567
 20
293.7165470558436
 30
0.0
 10
336.5395369976684
 20
293.8591029893743
 30
0.0
 10
336.7307371966821
 20
294.0371192561459
 30
0.0
 10
336.7518316656224
 20
294.0571508716268
 30
0.0
 10
336.7935054938315
 20
294.0975227618842
 30
0.0
 10
336.8553193448693
 20
294.1586131731405
 30
0.0
 10
336.9150347615937
 20
294.2213072426984
 30
0.0
 10
337.0316378757926
 20
294.3488563717589
 30
0.0
 10
337.1056074902468
 20
294.4367670074643
 30
0.0
 10
337.2457622728321
 20
294.6185372818494
 30
0.0
 10
337.3119494286653
 20
294.7123954014941
 30
0.0
 10
337.4050790556834
 20
294.8578833587331
 30
0.0
 10
337.4501038673754
 20
294.9318042322799
 30
0.0
 10
337.4927351895504
 20
295.0075542502084
 30
0.0
 10
337.5206128515363
 20
295.0584693994837
 30
0.0
 10
337.5342986337218
 20
295.084170982727
 30
0.0
 10
337.6010459586023
 20
295.2131645431302
 30
0.0
 10
337.6491342155362
 20
295.3179802300311
 30
0.0
 10
337.7346438263121
 20
295.5308678412837
 30
0.0
 10
337.7720666612684
 20
295.6389393135024
 30
0.0
 10
337.8358868979343
 20
295.8584479422755
 30
0.0
 10
337.862287179739
 20
295.9698842196364
 30
0.0
 10
337.8930681396598
 20
296.1397309133495
 30
0.0
 10
337.9018553542492
 20
296.1967961661646
 30
0.0
 10
337.916346941867
 20
296.3118677569495
 30
0.0
 10
337.9220551749247
 20
296.3700239336546
 30
0.0
 10
337.9341997285788
 20
296.5440025285347
 30
0.0
 10
337.9373162326025
 20
296.7755824246558
 30
0.0
 10
337.9137408652915
 20
297.0063630410861
 30
0.0
 10
337.8949659562892
 20
297.1215441190362
 30
0.0
  0
SPLINE
  5
1B5
330
1F
100
AcDbEntity
  8
1
100
AcDbSpline
210
0.0
220
0.0
230
1.0
 70
    12
 71
     3
 72
     9
 73
     5
 74
     0
 42
0.000000001
 43
0.0000000001
 40
0.0
 40
0.0
 40
0.0
 40
0.0
 40
0.5161979868594616
 40
1.0
 40
1.0
 40
1.0
 40
1.0
 10
319.8406582034015
 20
297.1764754727291
 30
0.0
 41
1.005451188245203
 10
322.9539822183621
 20
297.3923601932831
 30
0.0
 41
1.006773879748925
 10
329.0592185148996
 20
296.8455632264123
 30
0.0
 41
1.004976852672935
 10
335.0978477240314
 20
296.4133586942719
 30
0.0
 41
0.9990658096299799
 10
337.8949659562892
 20
297.1215441190362
 30
0.0
 41
1.000580113231555
  0
SPLINE
  5
1B6
330
1F
100
AcDbEntity
  8
1
100
AcDbSpline
210
0.0
220
0.0
230
1.0
 70
     8
 71
     3
 72
    10
 73
     6
 74
     0
 42
0.000000001
 43
0.0000000001
 40
0.0
 40
0.0
 40
0.0
 40
0.0
 40
0.5
 40
0.5
 40
1.0
 40
1.0
 40
1.0
 40
1.0
 10
289.6211661068993
 20
284.1858210827757
 30
0.0
 10
290.0369772464202
 20
284.1732577947415
 30
0.0
 10
290.4541609906367
 20
284.14810907054
 30
0.0
 10
291.291207027332
 20
284.073251966849
 30
0.0
 10
291.7110692217288
 20
284.0235444866729
 30
0.0
 10
292.1322589432652
 20
283.9616648872214
 30
0.0
  0
SPLINE
  5
1B7
330
1F
100
AcDbEntity
  8
1
100
AcDbSpline
210
0.0
220
0.0
230
1.0
 70
     8
 71
     3
 72
    10
 73
     6
 74
     0
 42
0.000000001
 43
0.0000000001
 40
0.0
 40
0.0
 40
0.0
 40
0.0
 40
0.5
 40
0.5
 40
1.0
 40
1.0
 40
1.0
 40
1.0
 10
279.4048419452957
 20
272.5340912876073
 30
0.0
 10
279.6366988850129
 20
272.6706469130282
 30
0.0
 10
279.8708513101277
 20
272.8171490706331
 30
0.0
 10
280.342471198195
 20
273.1264547805621
 30
0.0
 10
280.5799386237719
 20
273.2892686187624
 30
0.0
 10
280.8185504442806
 20
273.4590408752961
 30
0.0
  0
SPLINE
  5
1B8
330
1F
100
AcDbEntity
  8
1
100
AcDbSpline
210
0.0
220
0.0
230
1.0
 70
     8
 71
     3
 72
    36
 73
    32
 74
     0
 42
0.000000001
 43
0.0000000001
 40
0.0
 40
0.0
 40
0.0
 40
0.0
 40
0.1250000000000051
 40
0.1250000000000051
 40
0.2500000000000102
 40
0.2500000000000102
 40
0.2656250000000104
 40
0.2656250000000104
 40
0.2812500000000107
 40
0.2812500000000107
 40
0.3125000000000107
 40
0.3125000000000107
 40
0.3750000000000097
 40
0.3750000000000097
 40
0.500000000000008
 40
0.500000000000008
 40
0.5312500000000075
 40
0.5312500000000075
 40
0.5625000000000071
 40
0.5625000000000071
 40
0.6250000000000063
 40
0.6250000000000063
 40
0.750000000000004
 40
0.750000000000004
 40
0.812500000000003
 40
0.812500000000003
 40
0.8437500000000024
 40
0.8437500000000024
 40
0.8750000000000017
 40
0.8750000000000017
 40
1.0
 40
1.0
 40
1.0
 40
1.0
 10
276.418791067117
 20
275.969855323855
 30
0.0
 10
276.3761790584204
 20
275.756809454976
 30
0.0
 10
276.3586382445367
 20
275.5509926289638
 30
0.0
 10
276.3706960538123
 20
275.1534848626697
 30
0.0
 10
276.4003109579434
 20
274.9617951073183
 30
0.0
 10
276.4600588675549
 20
274.7540072769473
 30
0.0
 10
276.4670663066648
 20
274.7310290562487
 30
0.0
 10
276.4818212811343
 20
274.6852911331843
 30
0.0
 10
276.4895760783829
 20
274.6625130188511
 30
0.0
 10
276.513852796319
 20
274.5947814772433
 30
0.0
 10
276.5314082817725
 20
274.5503552924592
 30
0.0
 10
276.5880758291384
 20
274.4191861912005
 30
0.0
 10
276.6311837306025
 20
274.3345508127766
 30
0.0
 10
276.7758107317948
 20
274.0885547458922
 30
0.0
 10
276.8925690780037
 20
273.935083827583
 30
0.0
 10
277.0627860649707
 20
273.7550546255193
 30
0.0
 10
277.0980480797119
 20
273.7196409110802
 30
0.0
 10
277.1710002479725
 20
273.6499700592414
 30
0.0
 10
277.2087334612417
 20
273.6156803432352
 30
0.0
 10
277.3248036141622
 20
273.5151453952461
 30
0.0
 10
277.4062092125644
 20
273.4510236879324
 30
0.0
 10
277.6619147697228
 20
273.2666108000693
 30
0.0
 10
277.8476577849982
 20
273.1542434921437
 30
0.0
 10
278.147821909723
 20
272.9992061911553
 30
0.0
 10
278.2514804840891
 20
272.9497872590562
 30
0.0
 10
278.4123035444381
 20
272.878814578993
 30
0.0
 10
278.4668494755405
 20
272.855663797505
 30
0.0
 10
278.5774748248349
 20
272.8104773376122
 30
0.0
 10
278.6335106160691
 20
272.7884576345116
 30
0.0
 10
278.9172466595991
 20
272.6810951632734
 30
0.0
 10
279.1555779885358
 20
272.603926812835
 30
0.0
 10
279.4048419452957
 20
272.5340912876073
 30
0.0
  0
SPLINE
  5
1B9
330
1F
100
AcDbEntity
  8
1
100
AcDbSpline
210
0.0
220
0.0
230
1.0
 70
     8
 71
     3
 72
    56
 73
    52
 74
     0
 42
0.000000001
 43
0.0000000001
 40
0.0
 40
0.0
 40
0.0
 40
0.0
 40
0.0624999999999997
 40
0.0624999999999997
 40
0.1249999999999994
 40
0.1249999999999994
 40
0.1874999999999992
 40
0.1874999999999992
 40
0.218749999999999
 40
0.218749999999999
 40
0.2499999999999992
 40
0.2499999999999992
 40
0.2812499999999993
 40
0.2812499999999993
 40
0.3124999999999994
 40
0.3124999999999994
 40
0.3437499999999996
 40
0.3437499999999996
 40
0.3749999999999997
 40
0.3749999999999997
 40
0.4062499999999999
 40
0.4062499999999999
 40
0.4375
 40
0.4375
 40
0.4687500000000001
 40
0.4687500000000001
 40
0.5000000000000002
 40
0.5000000000000002
 40
0.5312500000000004
 40
0.5312500000000004
 40
0.5625000000000004
 40
0.5625000000000004
 40
0.5937500000000005
 40
0.5937500000000005
 40
0.6250000000000006
 40
0.6250000000000006
 40
0.6875000000000008
 40
0.6875000000000008
 40
0.7500000000000011
 40
0.7500000000000011
 40
0.781250000000001
 40
0.781250000000001
 40
0.8125000000000007
 40
0.8125000000000007
 40
0.8437500000000007
 40
0.8437500000000007
 40
0.8750000000000005
 40
0.8750000000000005
 40
0.9375000000000001
 40
0.9375000000000001
 40
1.0
 40
1.0
 40
1.0
 40
1.0
 10
297.9048419452957
 20
283.1419260733459
 30
0.0
 10
298.6909178497719
 20
283.0061651796371
 30
0.0
 10
299.4732326177516
 20
282.8617515717687
 30
0.0
 10
301.0298514723491
 20
282.5564555830315
 30
0.0
 10
301.8041479592299
 20
282.3955549898345
 30
0.0
 10
303.3445162392482
 20
282.0593464845912
 30
0.0
 10
304.1105778735686
 20
281.8840211313286
 30
0.0
 10
305.253756147794
 20
281.6131326836362
 30
0.0
 10
305.6338352248661
 20
281.5215358025154
 30
0.0
 10
306.3921549338845
 20
281.3364323563906
 30
0.0
 10
306.7703953289962
 20
281.2429259876674
 30
0.0
 10
307.5252223510273
 20
281.0548341537923
 30
0.0
 10
307.901808890666
 20
280.9602494043399
 30
0.0
 10
308.6535810862924
 20
280.7709573996148
 30
0.0
 10
309.0287668780057
 20
280.6762514617344
 30
0.0
 10
309.7780582211928
 20
280.4877694156192
 30
0.0
 10
310.1521641833863
 20
280.3939951990153
 30
0.0
 10
310.8996762391468
 20
280.2084762941472
 30
0.0
 10
311.2730830202748
 20
280.1167338903729
 30
0.0
 10
312.0196202826764
 20
279.9363621602002
 30
0.0
 10
312.3927922612452
 20
279.8477257780464
 30
0.0
 10
313.1391308201001
 20
279.6746024039898
 30
0.0
 10
313.5120558103629
 20
279.5901734551485
 30
0.0
 10
314.2579073663632
 20
279.4263806957035
 30
0.0
 10
314.6308324389313
 20
279.3470144850802
 30
0.0
 10
315.3771885151551
 20
279.1939941386303
 30
0.0
 10
315.7506214192252
 20
279.1203406648514
 30
0.0
 10
316.4983804066609
 20
278.9790578830723
 30
0.0
 10
316.8727058363178
 20
278.9114254921804
 30
0.0
 10
317.6225067922282
 20
278.7822142076652
 30
0.0
 10
317.9979810795977
 20
278.720632097383
 30
0.0
 10
318.750238380357
 20
278.6033699198651
 30
0.0
 10
319.1270387065659
 20
278.5477088356485
 30
0.0
 10
319.881956834796
 20
278.4419388681969
 30
0.0
 10
320.2600370665953
 20
278.3917826623912
 30
0.0
 10
321.3957211213598
 20
278.2486173466464
 30
0.0
 10
322.1547441609845
 20
278.1628565394078
 30
0.0
 10
323.6752135474035
 20
278.007992530825
 30
0.0
 10
324.4366795360227
 20
277.9389238952648
 30
0.0
 10
325.5800955172573
 20
277.8468874998102
 30
0.0
 10
325.9614769726248
 20
277.8181421128564
 30
0.0
 10
326.7239709791279
 20
277.7644758536478
 30
0.0
 10
327.1051535469842
 20
277.7395489188771
 30
0.0
 10
327.8673197601748
 20
277.6934552996225
 30
0.0
 10
328.2483029536784
 20
277.6722886264689
 30
0.0
 10
329.0100149266442
 20
277.6337106331423
 30
0.0
 10
329.390729993165
 20
277.6162949382699
 30
0.0
 10
330.532600081251
 20
277.5697939069647
 30
0.0
 10
331.2935279868431
 20
277.5465022027344
 30
0.0
 10
332.8159444183876
 20
277.5156085803386
 30
0.0
 10
333.5774382445967
 20
277.5079935137005
 30
0.0
 10
334.3396083869234
 20
277.5079935137005
 30
0.0
  0
SPLINE
  5
1BA
330
1F
100
AcDbEntity
  8
1
100
AcDbSpline
210
0.0
220
0.0
230
1.0
 70
     8
 71
     3
 72
    46
 73
    42
 74
     0
 42
0.000000001
 43
0.0000000001
 40
0.0
 40
0.0
 40
0.0
 40
0.0
 40
0.0625000000000001
 40
0.0625000000000001
 40
0.1250000000000002
 40
0.1250000000000002
 40
0.1875000000000002
 40
0.1875000000000002
 40
0.2500000000000003
 40
0.2500000000000003
 40
0.3125000000000004
 40
0.3125000000000004
 40
0.3750000000000005
 40
0.3750000000000005
 40
0.4375000000000007
 40
0.4375000000000007
 40
0.5000000000000007
 40
0.5000000000000007
 40
0.5312500000000004
 40
0.5312500000000004
 40
0.5625000000000001
 40
0.5625000000000001
 40
0.5937499999999999
 40
0.5937499999999999
 40
0.6249999999999995
 40
0.6249999999999995
 40
0.687499999999999
 40
0.687499999999999
 40
0.7187499999999987
 40
0.7187499999999987
 40
0.7499999999999984
 40
0.7499999999999984
 40
0.8124999999999984
 40
0.8124999999999984
 40
0.8437499999999984
 40
0.8437499999999984
 40
0.8749999999999984
 40
0.8749999999999984
 40
0.9374999999999992
 40
0.9374999999999992
 40
1.0
 40
1.0
 40
1.0
 40
1.0
 10
297.9048419452959
 20
300.2153240326488
 30
0.0
 10
298.5367327219303
 20
300.1995387338704
 30
0.0
 10
299.1665350122321
 20
300.1807332396112
 30
0.0
 10
300.4216732122163
 20
300.1352046616468
 30
0.0
 10
301.0470062984848
 20
300.1084786322292
 30
0.0
 10
302.2930413408255
 20
300.044940606091
 30
0.0
 10
302.9137396143386
 20
300.0081211394499
 30
0.0
 10
304.1505670716733
 20
299.9220861767909
 30
0.0
 10
304.7667306387897
 20
299.8728537247692
 30
0.0
 10
305.9947389699393
 20
299.7598644481966
 30
0.0
 10
306.6055739927515
 20
299.696182279818
 30
0.0
 10
307.8219726039774
 20
299.5531369430228
 30
0.0
 10
308.4275368872062
 20
299.4737572599895
 30
0.0
 10
309.6351072213554
 20
299.2991715060968
 30
0.0
 10
310.2371198864558
 20
299.2039568688609
 30
0.0
 10
311.4398488684229
 20
298.9991570023533
 30
0.0
 10
312.0406045745385
 20
298.8895725794346
 30
0.0
 10
312.942576524652
 20
298.7167717087666
 30
0.0
 10
313.2432957281799
 20
298.6577950039045
 30
0.0
 10
313.8451801619547
 20
298.5376005547987
 30
0.0
 10
314.1463596473272
 20
298.476404173801
 30
0.0
 10
314.7494060200169
 20
298.3522392360326
 30
0.0
 10
315.0512255082805
 20
298.2892060752579
 30
0.0
 10
315.6551797635661
 20
298.1609051598783
 30
0.0
 10
315.9573314898277
 20
298.0956329809847
 30
0.0
 10
316.8638512603657
 20
297.8960644223178
 30
0.0
 10
317.4680298675693
 20
297.7580289865014
 30
0.0
 10
318.3734761322239
 20
297.5424481634045
 30
0.0
 10
318.6751624321789
 20
297.4691760957857
 30
0.0
 10
319.2782545202195
 20
297.3197307163693
 30
0.0
 10
319.5796470337338
 20
297.2435314367197
 30
0.0
 10
320.4836437318241
 20
297.0109646996546
 30
0.0
 10
321.0861093739208
 20
296.8506958396304
 30
0.0
 10
321.9903486391493
 20
296.6040676251826
 30
0.0
 10
322.2918459735859
 20
296.5208129108416
 30
0.0
 10
322.895091202017
 20
296.3523977696061
 30
0.0
 10
323.196869886536
 20
296.2672283521935
 30
0.0
 10
324.1024476827852
 20
296.0091278714143
 30
0.0
 10
324.7062648146713
 20
295.8336950985239
 30
0.0
 10
325.9142749522549
 20
295.4766735463067
 30
0.0
 10
326.5184684222561
 20
295.2950904135463
 30
0.0
 10
327.1227714595192
 20
295.110316364033
 30
0.0
  0
SPLINE
  5
1BB
330
1F
100
AcDbEntity
  8
1
100
AcDbSpline
210
0.0
220
0.0
230
1.0
 70
     8
 71
     3
 72
    17
 73
    13
 74
     0
 42
0.000000001
 43
0.0000000001
 40
0.0
 40
0.0
 40
0.0
 40
0.0
 40
0.25
 40
0.5
 40
0.5
 40
0.75
 40
0.75
 40
0.875
 40
0.875
 40
0.9375
 40
0.9375
 40
1.0
 40
1.0
 40
1.0
 40
1.0
 10
295.9964524860255
 20
278.0786728020852
 30
0.0
 10
296.1498694162841
 20
278.0957231138961
 30
0.0
 10
296.459533150399
 20
278.1264304306488
 30
0.0
 10
296.7748793417433
 20
278.1493701519095
 30
0.0
 10
297.0931192400028
 20
278.1679992046954
 30
0.0
 10
297.253685858552
 20
278.1751585341659
 30
0.0
 10
297.4967787564482
 20
278.1823878674292
 30
0.0
 10
297.5781839161157
 20
278.1842131393647
 30
0.0
 10
297.7008656389065
 20
278.1860436038704
 30
0.0
 10
297.7417679271005
 20
278.1865009941593
 30
0.0
 10
297.8233932017618
 20
278.1871093915947
 30
0.0
 10
297.8641468170117
 20
278.1872608727251
 30
0.0
 10
297.9048419452957
 20
278.1872608727251
 30
0.0
  0
SPLINE
  5
1BC
330
1F
100
AcDbEntity
  8
1
100
AcDbSpline
210
0.0
220
0.0
230
1.0
 70
     8
 71
     3
 72
    12
 73
     8
 74
     0
 42
0.000000001
 43
0.0000000001
 40
0.0
 40
0.0
 40
0.0
 40
0.0
 40
0.25
 40
0.25
 40
0.5
 40
0.5
 40
1.0
 40
1.0
 40
1.0
 40
1.0
 10
292.1322589432652
 20
277.8302330850063
 30
0.0
 10
292.4505374659886
 20
277.8518245336134
 30
0.0
 10
292.7696354699476
 20
277.8736488941173
 30
0.0
 10
293.4096081401397
 20
277.9171276852683
 30
0.0
 10
293.7304832698862
 20
277.938782200792
 30
0.0
 10
294.6960791542572
 20
278.0024091334149
 30
0.0
 10
295.3437571100488
 20
278.0430665824026
 30
0.0
 10
295.9964524860261
 20
278.0786728020853
 30
0.0
  0
SPLINE
  5
1BD
330
1F
100
AcDbEntity
  8
1
100
AcDbSpline
210
0.0
220
0.0
230
1.0
 70
     8
 71
     3
 72
    46
 73
    42
 74
     0
 42
0.000000001
 43
0.0000000001
 40
0.0
 40
0.0
 40
0.0
 40
0.0
 40
0.0527829824620944
 40
0.0527829824620944
 40
0.1055659649241888
 40
0.1055659649241888
 40
0.1583489473862832
 40
0.1583489473862832
 40
0.2111319298483776
 40
0.2111319298483776
 40
0.2375234210794251
 40
0.2375234210794251
 40
0.2639149123104728
 40
0.2639149123104728
 40
0.3166978947725679
 40
0.3166978947725679
 40
0.3430893860036151
 40
0.3430893860036151
 40
0.3694808772346623
 40
0.3694808772346623
 40
0.4222638596967567
 40
0.4222638596967567
 40
0.5278298246209455
 40
0.5278298246209455
 40
0.6333957895451344
 40
0.6333957895451344
 40
0.6861787720072287
 40
0.6861787720072287
 40
0.7389617544693231
 40
0.7389617544693231
 40
0.7917447369314175
 40
0.7917447369314175
 40
0.8445277193935117
 40
0.8445277193935117
 40
0.8973107018556062
 40
0.8973107018556062
 40
0.9500936843177004
 40
0.9500936843177004
 40
0.9764851755487473
 40
0.9764851755487473
 40
1.0
 40
1.0
 40
1.0
 40
1.0
 10
337.461109401457
 20
300.1755647629525
 30
0.0
 10
337.0863257240441
 20
300.2088167128854
 30
0.0
 10
336.7070066934088
 20
300.2343488144211
 30
0.0
 10
335.9389014487192
 20
300.2731274603145
 30
0.0
 10
335.5501142863442
 20
300.2863820012332
 30
0.0
 10
334.7632654866211
 20
300.3035443831022
 30
0.0
 10
334.3652032077906
 20
300.3074588928703
 30
0.0
 10
333.5606140923514
 20
300.308425876963
 30
0.0
 10
333.1540877782464
 20
300.3054834107045
 30
0.0
 10
332.5390240732247
 20
300.297313166075
 30
0.0
 10
332.333128618343
 20
300.2939582592452
 30
0.0
 10
331.9198233703938
 20
300.2861466000382
 30
0.0
 10
331.7123281724485
 20
300.281687704079
 30
0.0
 10
331.0888339783537
 20
300.2668471118964
 30
0.0
 10
330.6716964875503
 20
300.255028581088
 30
0.0
 10
330.0450217253736
 20
300.2346298863433
 30
0.0
 10
329.8359711524578
 20
300.2273783862443
 30
0.0
 10
329.4177840041293
 20
300.2119267613472
 30
0.0
 10
329.2086569246575
 20
300.2037224190883
 30
0.0
 10
328.5814405684309
 20
300.1775715005256
 30
0.0
 10
328.1634522187388
 20
300.1581127347409
 30
0.0
 10
326.9102331597857
 20
300.0934334206903
 30
0.0
 10
326.075775072969
 20
300.0419248725041
 30
0.0
 10
324.4099636603904
 20
299.9202476467033
 30
0.0
 10
323.5785954530606
 20
299.8500727222075
 30
0.0
 10
322.334186037286
 20
299.729108369228
 30
0.0
 10
321.91981962131
 20
299.6861687295126
 30
0.0
 10
321.0920325450152
 20
299.5946882217484
 30
0.0
 10
320.6786096330912
 20
299.5461514164831
 30
0.0
 10
319.8528609546084
 20
299.4429590249457
 30
0.0
 10
319.4405367276077
 20
299.3883045062013
 30
0.0
 10
318.6172749775411
 20
299.2720705337649
 30
0.0
 10
318.2063195439146
 20
299.2105056887304
 30
0.0
 10
317.3856035057282
 20
299.0801663319148
 30
0.0
 10
316.9758464450928
 20
299.0113850208598
 30
0.0
 10
316.1572792392361
 20
298.8664622940324
 30
0.0
 10
315.748470841098
 20
298.7903144151493
 30
0.0
 10
315.1356466598021
 20
298.670743102403
 30
0.0
 10
314.9314055052388
 20
298.6299917440629
 30
0.0
 10
314.545485329245
 20
298.5513792009337
 30
0.0
 10
314.3637547482491
 20
298.5136839805365
 30
0.0
 10
314.1821027349314
 20
298.475377731142
 30
0.0
  0
SPLINE
  5
1BE
330
1F
100
AcDbEntity
  8
1
100
AcDbSpline
210
0.0
220
0.0
230
1.0
 70
     8
 71
     3
 72
    33
 73
    29
 74
     0
 42
0.000000001
 43
0.0000000001
 40
0.0
 40
0.0
 40
0.0
 40
0.0
 40
0.0624999999999996
 40
0.0624999999999996
 40
0.1249999999999993
 40
0.1249999999999993
 40
0.1874999999999989
 40
0.1874999999999989
 40
0.2499999999999986
 40
0.2499999999999986
 40
0.3124999999999982
 40
0.3124999999999982
 40
0.3437499999999979
 40
0.3437499999999979
 40
0.3593749999999981
 40
0.3593749999999981
 40
0.3749999999999981
 40
0.4374999999999984
 40
0.4374999999999984
 40
0.4999999999999986
 40
0.4999999999999986
 40
0.624999999999999
 40
0.624999999999999
 40
0.7499999999999993
 40
0.7499999999999993
 40
0.8749999999999996
 40
0.8749999999999996
 40
1.0
 40
1.0
 40
1.0
 40
1.0
 10
292.1322589432652
 20
277.8302330850063
 30
0.0
 10
291.8410321158819
 20
277.8104767752728
 30
0.0
 10
291.554102811817
 20
277.7820297812096
 30
0.0
 10
290.987878680817
 20
277.7103319099958
 30
0.0
 10
290.7085856469933
 20
277.6670786280057
 30
0.0
 10
290.156866859821
 20
277.5679058037459
 30
0.0
 10
289.8844421612857
 20
277.5119846055259
 30
0.0
 10
289.345839140854
 20
277.3892398930489
 30
0.0
 10
289.0796614287914
 20
277.3224150604394
 30
0.0
 10
288.5530538347969
 20
277.1792965579962
 30
0.0
 10
288.2926243074809
 20
277.1030016869297
 30
0.0
 10
287.9059984012991
 20
276.9823128116453
 30
0.0
 10
287.7777936484292
 20
276.9410399100847
 30
0.0
 10
287.5864628565865
 20
276.8776542365562
 30
0.0
 10
287.5228527458572
 20
276.8562804138189
 30
0.0
 10
287.396240577666
 20
276.8131533393811
 30
0.0
 10
287.0810484516612
 20
276.7043241985261
 30
0.0
 10
286.7723710466573
 20
276.5906551066415
 30
0.0
 10
286.2861825815285
 20
276.4033985789063
 30
0.0
 10
286.0469374346082
 20
276.3070751906789
 30
0.0
 10
285.3400738820418
 20
276.0109136232189
 30
0.0
 10
284.8832677538516
 20
275.803934410521
 30
0.0
 10
283.9966851362802
 20
275.3739607911588
 30
0.0
 10
283.5669309144137
 20
275.1509340489646
 30
0.0
 10
282.7343149678769
 20
274.6906024607285
 30
0.0
 10
282.3314662721396
 20
274.4532781952042
 30
0.0
 10
281.553641776835
 20
273.9656171823758
 30
0.0
 10
281.178671538101
 20
273.7152669524156
 30
0.0
 10
280.8185504442806
 20
273.4590408752961
 30
0.0
  0
SPLINE
  5
1BF
330
1F
100
AcDbEntity
  8
1
100
AcDbSpline
210
0.0
220
0.0
230
1.0
 70
     8
 71
     3
 72
    22
 73
    18
 74
     0
 42
0.000000001
 43
0.0000000001
 40
0.0
 40
0.0
 40
0.0
 40
0.0
 40
0.125
 40
0.125
 40
0.25
 40
0.25
 40
0.375
 40
0.375
 40
0.5
 40
0.5
 40
0.75
 40
0.75
 40
0.8750000000000014
 40
0.8750000000000014
 40
0.9375000000000007
 40
0.9375000000000007
 40
1.0
 40
1.0
 40
1.0
 40
1.0
 10
332.9655620484987
 20
291.7109630613684
 30
0.0
 10
332.7204938960773
 20
291.8441901932275
 30
0.0
 10
332.4757514457049
 20
291.9791170828477
 30
0.0
 10
331.9867483131954
 20
292.2514850903531
 30
0.0
 10
331.7424888919728
 20
292.3889327886348
 30
0.0
 10
331.2543548174098
 20
292.665836192814
 30
0.0
 10
331.0104807816055
 20
292.8052951214766
 30
0.0
 10
330.5230621623372
 20
293.0859323083993
 30
0.0
 10
330.2795179030327
 20
293.2271122583659
 30
0.0
 10
329.5493393228521
 20
293.6530224529546
 30
0.0
 10
329.063155816632
 20
293.9401053868305
 30
0.0
 10
328.3347790993332
 20
294.3754190544026
 30
0.0
 10
328.0921371281232
 20
294.5213078208983
 30
0.0
 10
327.7284012323926
 20
294.7413259458098
 30
0.0
 10
327.6071937890283
 20
294.8148628776935
 30
0.0
 10
327.3648550323062
 20
294.9623340449779
 30
0.0
 10
327.2436653880804
 20
295.0363041630709
 30
0.0
 10
327.1227714595385
 20
295.1103163640215
 30
0.0
  0
SPLINE
  5
1C0
330
1F
100
AcDbEntity
  8
1
100
AcDbSpline
210
0.0
220
0.0
230
1.0
 70
     8
 71
     3
 72
    26
 73
    22
 74
     0
 42
0.000000001
 43
0.0000000001
 40
0.0
 40
0.0
 40
0.0
 40
0.0
 40
0.1250000000000321
 40
0.1250000000000321
 40
0.2500000000000642
 40
0.2500000000000642
 40
0.312500000000059
 40
0.312500000000059
 40
0.3750000000000538
 40
0.3750000000000538
 40
0.5000000000000436
 40
0.5000000000000436
 40
0.6250000000000333
 40
0.6250000000000333
 40
0.6875000000000277
 40
0.6875000000000277
 40
0.7500000000000224
 40
0.7500000000000224
 40
0.8750000000000111
 40
0.8750000000000111
 40
1.0
 40
1.0
 40
1.0
 40
1.0
 10
339.697715655895
 20
292.0371620242645
 30
0.0
 10
339.6579089398604
 20
292.0261571657594
 30
0.0
 10
339.617830014196
 20
292.0174982729354
 30
0.0
 10
339.5371340868136
 20
292.0047752571154
 30
0.0
 10
339.4965170134402
 20
292.0007116985445
 30
0.0
 10
339.4351807999531
 20
291.9981087161405
 30
0.0
 10
339.4146668476831
 20
291.9978242834422
 30
0.0
 10
339.3734992947812
 20
291.9984438508372
 30
0.0
 10
339.3527774308724
 20
291.9993547096026
 30
0.0
 10
339.2911016260039
 20
292.0038554993536
 30
0.0
 10
339.2505417897892
 20
292.0091913135765
 30
0.0
 10
339.1704532483167
 20
292.0243416892241
 30
0.0
 10
339.1309244659518
 20
292.0341562721369
 30
0.0
 10
339.072356963834
 20
292.0522258269722
 30
0.0
 10
339.0529555739272
 20
292.0588083245061
 30
0.0
 10
339.0143891758019
 20
292.0731075128754
 30
0.0
 10
338.9952380154104
 20
292.0808237703672
 30
0.0
 10
338.9388205142005
 20
292.1053832811778
 30
0.0
 10
338.9023518773847
 20
292.1237157419164
 30
0.0
 10
338.8315940772847
 20
292.1641660853946
 30
0.0
 10
338.7973052486436
 20
292.186284202121
 30
0.0
 10
338.7640947816749
 20
292.2103049313905
 30
0.0
  0
SPLINE
  5
1C1
330
1F
100
AcDbEntity
  8
1
100
AcDbSpline
210
0.0
220
0.0
230
1.0
 70
     8
 71
     3
 72
    16
 73
    12
 74
     0
 42
0.000000001
 43
0.0000000001
 40
0.0
 40
0.0
 40
0.0
 40
0.0
 40
0.25
 40
0.25
 40
0.5
 40
0.5
 40
0.75
 40
0.75
 40
0.875
 40
0.875
 40
1.0
 40
1.0
 40
1.0
 40
1.0
 10
340.0854702999282
 20
292.2324525100735
 30
0.0
 10
340.0564967054694
 20
292.2099358034244
 30
0.0
 10
340.0266716421365
 20
292.189003538815
 30
0.0
 10
339.9653515432795
 20
292.1502028362023
 30
0.0
 10
339.9338563977341
 20
292.132334832652
 30
0.0
 10
339.8691720461426
 20
292.0996700001999
 30
0.0
 10
339.8359829905597
 20
292.0848730064991
 30
0.0
 10
339.7848680647043
 20
292.0650663230685
 30
0.0
 10
339.7676161351679
 20
292.0588684284774
 30
0.0
 10
339.7328813567058
 20
292.0473622398349
 30
0.0
 10
339.71537150408
 20
292.0420431129453
 30
0.0
 10
339.697715655895
 20
292.0371620242645
 30
0.0
  0
SPLINE
  5
1C2
330
1F
100
AcDbEntity
  8
1
100
AcDbSpline
210
0.0
220
0.0
230
1.0
 70
    12
 71
     2
 72
     6
 73
     3
 74
     0
 42
0.000000001
 43
0.0000000001
 40
0.0
 40
0.0
 40
0.0
 40
1.0
 40
1.0
 40
1.0
 10
338.2591089551278
 20
300.2155862843554
 30
0.0
 41
0.499997521262276
 10
338.3713344943132
 20
300.2153372053706
 30
0.0
 41
0.5000024787377241
 10
338.4835578301893
 20
300.2150874577544
 30
0.0
 41
0.499997521262276
  0
SPLINE
  5
1C3
330
1F
100
AcDbEntity
  8
1
100
AcDbSpline
210
0.0
220
0.0
230
1.0
 70
     8
 71
     3
 72
    17
 73
    13
 74
     0
 42
0.000000001
 43
0.0000000001
 40
0.0
 40
0.0
 40
0.0
 40
0.0
 40
0.2499999999999913
 40
0.2499999999999913
 40
0.312499999999988
 40
0.312499999999988
 40
0.3749999999999846
 40
0.4999999999999877
 40
0.4999999999999877
 40
0.7499999999999938
 40
0.7499999999999938
 40
1.0
 40
1.0
 40
1.0
 40
1.0
 10
335.5455731616992
 20
292.1707841370245
 30
0.0
 10
335.8813637037656
 20
292.0731310391935
 30
0.0
 10
336.2213137986143
 20
291.9890942376316
 30
0.0
 10
336.6514951934136
 20
291.9012954483948
 30
0.0
 10
336.7378548590525
 20
291.8845889787132
 30
0.0
 10
336.9106682457783
 20
291.8529913907193
 30
0.0
 10
337.1701045452264
 20
291.80829900878
 30
0.0
 10
337.4301850688432
 20
291.7716698074124
 30
0.0
 10
337.9511977111565
 20
291.7090849217743
 30
0.0
 10
338.2996734325664
 20
291.6815749308603
 30
0.0
 10
338.9988903583753
 20
291.6550099763666
 30
0.0
 10
339.3496314856161
 20
291.6559538371369
 30
0.0
 10
339.7015286334728
 20
291.6714359669679
 30
0.0
  0
SPLINE
  5
1C4
330
1F
100
AcDbEntity
  8
1
100
AcDbSpline
210
0.0
220
0.0
230
1.0
 70
     8
 71
     3
 72
     8
 73
     4
 74
     0
 42
0.000000001
 43
0.0000000001
 40
0.0
 40
0.0
 40
0.0
 40
0.0
 40
1.0
 40
1.0
 40
1.0
 40
1.0
 10
339.7015286334728
 20
291.6714359669679
 30
0.0
 10
339.7054354277214
 20
291.6716078509862
 30
0.0
 10
339.7093433066467
 20
291.6717789334558
 30
0.0
 10
339.713252272052
 20
291.6719492130443
 30
0.0
  0
SPLINE
  5
1C5
330
1F
100
AcDbEntity
  8
1
100
AcDbSpline
210
0.0
220
0.0
230
1.0
 70
     8
 71
     3
 72
    27
 73
    23
 74
     0
 42
0.000000001
 43
0.0000000001
 40
0.0
 40
0.0
 40
0.0
 40
0.0
 40
0.1250000000000054
 40
0.1250000000000054
 40
0.2500000000000108
 40
0.2500000000000108
 40
0.2812500000000109
 40
0.2812500000000109
 40
0.3125000000000109
 40
0.3750000000000084
 40
0.3750000000000084
 40
0.5000000000000032
 40
0.5000000000000032
 40
0.5625000000000007
 40
0.5625000000000007
 40
0.6249999999999982
 40
0.6249999999999982
 40
0.7499999999999988
 40
0.7499999999999988
 40
0.8749999999999992
 40
0.8749999999999992
 40
1.0
 40
1.0
 40
1.0
 40
1.0
 10
332.9808312775534
 20
291.2646779367624
 30
0.0
 10
333.2329333910527
 20
291.1069745466596
 30
0.0
 10
333.490669327356
 20
290.9592143999162
 30
0.0
 10
334.017204385513
 20
290.6836263596041
 30
0.0
 10
334.2860031301709
 20
290.5557971812983
 30
0.0
 10
334.6288902026045
 20
290.4086445979727
 30
0.0
 10
334.697843753576
 20
290.3798343065133
 30
0.0
 10
334.8361530229619
 20
290.3236004115689
 30
0.0
 10
335.0443005297822
 20
290.2412933896499
 30
0.0
 10
335.2544851633771
 20
290.1650908731564
 30
0.0
 10
335.6775454988746
 20
290.0207838038293
 30
0.0
 10
335.9631696974411
 20
289.9353650701403
 30
0.0
 10
336.3969550980987
 20
289.8234502311279
 30
0.0
 10
336.5426097062533
 20
289.7888198388344
 30
0.0
 10
336.8341534088012
 20
289.7253255012689
 30
0.0
 10
336.9801889647786
 20
289.6964170719688
 30
0.0
 10
337.4190747091958
 20
289.6180907082275
 30
0.0
 10
337.7127026922907
 20
289.5770586612094
 30
0.0
 10
338.3020011658863
 20
289.5170620897955
 30
0.0
 10
338.59767165739
 20
289.4980975215037
 30
0.0
 10
339.1910638404804
 20
289.4823514765182
 30
0.0
 10
339.4887854167774
 20
289.4855687843768
 30
0.0
 10
339.7875582470442
 20
289.5001531655985
 30
0.0
  0
SPLINE
  5
1C6
330
1F
100
AcDbEntity
  8
1
100
AcDbSpline
210
0.0
220
0.0
230
1.0
 70
     8
 71
     3
 72
    49
 73
    45
 74
     0
 42
0.000000001
 43
0.0000000001
 40
0.0
 40
0.0
 40
0.0
 40
0.0
 40
0.0624999999999866
 40
0.0624999999999866
 40
0.070312499999985
 40
0.070312499999985
 40
0.0781249999999835
 40
0.0937499999999857
 40
0.0937499999999857
 40
0.12499999999999
 40
0.12499999999999
 40
0.1406249999999951
 40
0.1406249999999951
 40
0.1562500000000002
 40
0.1562500000000002
 40
0.1875000000000048
 40
0.1875000000000048
 40
0.2187500000000093
 40
0.2187500000000093
 40
0.2500000000000138
 40
0.2500000000000138
 40
0.312500000000023
 40
0.312500000000023
 40
0.3437500000000246
 40
0.3437500000000246
 40
0.3750000000000262
 40
0.3750000000000262
 40
0.4375000000000233
 40
0.4375000000000233
 40
0.5000000000000204
 40
0.5000000000000204
 40
0.5625000000000174
 40
0.5625000000000174
 40
0.6250000000000144
 40
0.6250000000000144
 40
0.6562500000000144
 40
0.6562500000000144
 40
0.6875000000000143
 40
0.6875000000000143
 40
0.7500000000000116
 40
0.7500000000000116
 40
0.8750000000000056
 40
0.8750000000000056
 40
1.0
 40
1.0
 40
1.0
 40
1.0
 10
339.0674419452959
 20
290.3644656537267
 30
0.0
 10
339.0017956136849
 20
290.3370599507401
 30
0.0
 10
338.914665706659
 20
290.3141437348286
 30
0.0
 10
338.7959210219349
 20
290.2941281988284
 30
0.0
 10
338.7824189948756
 20
290.2919818763706
 30
0.0
 10
338.755113530106
 20
290.2878892548386
 30
0.0
 10
338.7136203457273
 20
290.2820353620136
 30
0.0
 10
338.6706286667433
 20
290.2770092766917
 30
0.0
 10
338.5828914759463
 20
290.2679995451663
 30
0.0
 10
338.5220705735764
 20
290.2633805931172
 30
0.0
 10
338.4281193614958
 20
290.2583444462986
 30
0.0
 10
338.396346518593
 20
290.2569817760507
 30
0.0
 10
338.3319932793853
 20
290.2548635845347
 30
0.0
 10
338.2993626487384
 20
290.2541084896359
 30
0.0
 10
338.2012499780564
 20
290.2527267956647
 30
0.0
 10
338.1352938668427
 20
290.2529679407538
 30
0.0
 10
338.0026054371892
 20
290.2554872186545
 30
0.0
 10
337.9358715424813
 20
290.2577667868963
 30
0.0
 10
337.8018474497554
 20
290.264164555357
 30
0.0
 10
337.7345563851098
 20
290.2682835355074
 30
0.0
 10
337.5320900953355
 20
290.2831799762787
 30
0.0
 10
337.3963340058507
 20
290.2964859398069
 30
0.0
 10
337.1921801572363
 20
290.3209174880424
 30
0.0
 10
337.1240386365354
 20
290.3298100164111
 30
0.0
 10
336.9876495619664
 20
290.3490244787366
 30
0.0
 10
336.9193581360414
 20
290.3593537574039
 30
0.0
 10
336.7147531177947
 20
290.3923490302298
 30
0.0
 10
336.5788145820397
 20
290.4169960442357
 30
0.0
 10
336.3080080132944
 20
290.4712018955926
 30
0.0
 10
336.1731391009492
 20
290.5007626536809
 30
0.0
 10
335.9045614196602
 20
290.5645451796393
 30
0.0
 10
335.7708521726651
 20
290.5987679752998
 30
0.0
 10
335.5046545668571
 20
290.6717128755927
 30
0.0
 10
335.3721659272048
 20
290.7104355652308
 30
0.0
 10
335.1743805639508
 20
290.7718225840306
 30
0.0
 10
335.1086099240133
 20
290.792835890416
 30
0.0
 10
334.9773884850805
 20
290.8359575341087
 30
0.0
 10
334.9119077133395
 20
290.8580764036017
 30
0.0
 10
334.7161917556767
 20
290.9259853704795
 30
0.0
 10
334.5867334348566
 20
290.9733069326062
 30
0.0
 10
334.2014078793923
 20
291.1213144205062
 30
0.0
 10
333.9485901753418
 20
291.228025495766
 30
0.0
 10
333.4510301684343
 20
291.4574156023314
 30
0.0
 10
333.2062862664617
 20
291.5800974355768
 30
0.0
 10
332.9655620484988
 20
291.7109630613684
 30
0.0
  0
SPLINE
  5
1C7
330
1F
100
AcDbEntity
  8
1
100
AcDbSpline
210
0.0
220
0.0
230
1.0
 70
     8
 71
     3
 72
    10
 73
     6
 74
     0
 42
0.000000001
 43
0.0000000001
 40
0.0
 40
0.0
 40
0.0
 40
0.0
 40
0.5
 40
0.5
 40
1.0
 40
1.0
 40
1.0
 40
1.0
 10
337.8949659562892
 20
297.1215441190362
 30
0.0
 10
337.8106463557771
 20
297.6287890644936
 30
0.0
 10
337.7332410558772
 20
298.1370783887578
 30
0.0
 10
337.5894274724214
 20
299.1553180947739
 30
0.0
 10
337.5230428780116
 20
299.6651583645785
 30
0.0
 10
337.461109401457
 20
300.1755647629524
 30
0.0
  0
SPLINE
  5
1C8
330
1F
100
AcDbEntity
  8
1
100
AcDbSpline
210
0.0
220
0.0
230
1.0
 70
    12
 71
     2
 72
     6
 73
     3
 74
     0
 42
0.000000001
 43
0.0000000001
 40
0.0
 40
0.0
 40
0.0
 40
1.0
 40
1.0
 40
1.0
 10
337.4611094014574
 20
300.1755647629525
 30
0.0
 41
0.500000022237823
 10
337.8579707398176
 20
300.1745094066776
 30
0.0
 41
0.4999999777621771
 10
338.2547920499234
 20
300.1734456899386
 30
0.0
 41
0.500000022237823
  0
SPLINE
  5
1C9
330
1F
100
AcDbEntity
  8
1
100
AcDbSpline
210
0.0
220
0.0
230
1.0
 70
    28
 71
     4
 72
    13
 73
     8
 74
     0
 42
0.000000001
 43
0.0000000001
 40
0.0
 40
0.0
 40
0.0
 40
0.0
 40
0.0
 40
0.2275034127558348
 40
0.2275034127558348
 40
0.2275034127558348
 40
1.0
 40
1.0
 40
1.0
 40
1.0
 40
1.0
 10
297.9048419452957
 20
283.1448688727253
 30
0.0
 41
1.000221066403997
 10
297.9048419452957
 20
282.8830152566738
 30
0.0
 41
1.000739430203075
 10
297.9048419452957
 20
282.6172100680764
 30
0.0
 41
1.001197581117307
 10
297.9048419452957
 20
282.3494110566221
 30
0.0
 41
1.001498006703475
 10
297.9048419452957
 20
281.1729962076152
 30
0.0
 41
1.001498006703475
 10
297.9048419452957
 20
280.1703330565699
 30
0.0
 41
0.9980341954054583
 10
297.9048419452957
 20
279.149932021085
 30
0.0
 41
0.9966932132327681
 10
297.9048419452957
 20
278.1872608727251
 30
0.0
 41
0.9970547237972791
  0
SPLINE
  5
1CA
330
1F
100
AcDbEntity
  8
1
100
AcDbSpline
210
0.0
220
0.0
230
1.0
 70
     9
 71
     3
 72
   123
 73
   119
 74
     0
 42
0.000000001
 43
0.0000000001
 40
0.0
 40
0.0
 40
0.0
 40
0.0
 40
0.03125
 40
0.03125
 40
0.0468749999999969
 40
0.0468749999999969
 40
0.0546874999999923
 40
0.0546874999999923
 40
0.0624999999999878
 40
0.0624999999999878
 40
0.0937499999999754
 40
0.0937499999999754
 40
0.1015624999999722
 40
0.1015624999999722
 40
0.1093749999999691
 40
0.1093749999999691
 40
0.1249999999999628
 40
0.1249999999999628
 40
0.1562499999999461
 40
0.1562499999999461
 40
0.1874999999999293
 40
0.1874999999999293
 40
0.2031249999999208
 40
0.2031249999999208
 40
0.2109374999999158
 40
0.2109374999999158
 40
0.2187499999999109
 40
0.2187499999999109
 40
0.2499999999998939
 40
0.2499999999998939
 40
0.2578124999998895
 40
0.2578124999998895
 40
0.2656249999998851
 40
0.2656249999998851
 40
0.2812499999998764
 40
0.2812499999998764
 40
0.3124999999998588
 40
0.3124999999998588
 40
0.3281249999998501
 40
0.3281249999998501
 40
0.3437499999998413
 40
0.3437499999998413
 40
0.3749999999998241
 40
0.3749999999998241
 40
0.3828124999998208
 40
0.3828124999998208
 40
0.3906249999998174
 40
0.4062499999998059
 40
0.4218749999997942
 40
0.4218749999997942
 40
0.4296874999997858
 40
0.4296874999997858
 40
0.4374999999997772
 40
0.4374999999997772
 40
0.4687499999997553
 40
0.4687499999997553
 40
0.4843749999997474
 40
0.4843749999997474
 40
0.4921874999997434
 40
0.4921874999997434
 40
0.4999999999997395
 40
0.4999999999997395
 40
0.5312499999997428
 40
0.5312499999997428
 40
0.5390624999997451
 40
0.5390624999997451
 40
0.5468749999997474
 40
0.5624999999997521
 40
0.5781249999997568
 40
0.5781249999997568
 40
0.5937499999997615
 40
0.5937499999997615
 40
0.6249999999997761
 40
0.6249999999997761
 40
0.6328124999997788
 40
0.6328124999997788
 40
0.6406249999997815
 40
0.6406249999997815
 40
0.6562499999997868
 40
0.6562499999997868
 40
0.6874999999997975
 40
0.6874999999997975
 40
0.6953124999998003
 40
0.6953124999998003
 40
0.703124999999803
 40
0.7187499999998065
 40
0.73437499999981
 40
0.73437499999981
 40
0.7421874999998118
 40
0.7421874999998118
 40
0.7499999999998137
 40
0.7499999999998137
 40
0.781249999999821
 40
0.781249999999821
 40
0.7968749999998246
 40
0.7968749999998246
 40
0.8124999999998282
 40
0.8124999999998282
 40
0.8437499999998383
 40
0.8437499999998383
 40
0.8593749999998451
 40
0.8593749999998451
 40
0.8671874999998504
 40
0.8671874999998504
 40
0.8749999999998557
 40
0.8749999999998557
 40
0.9062499999998864
 40
0.9062499999998864
 40
0.9218749999998991
 40
0.9218749999998991
 40
0.9374999999999118
 40
0.9531249999999248
 40
0.9531249999999248
 40
0.960937499999934
 40
0.960937499999934
 40
0.9687499999999435
 40
0.9687499999999435
 40
1.0
 40
1.0
 40
1.0
 40
1.0
 10
342.8958249652844
 20
286.8769886193043
 30
0.0
 10
342.9648866058678
 20
286.8757831438838
 30
0.0
 10
343.0326254715104
 20
286.8676891159014
 30
0.0
 10
343.1323321386962
 20
286.8456568198164
 30
0.0
 10
343.1652482701112
 20
286.8366514317847
 30
0.0
 10
343.2141314488765
 20
286.8205929479255
 30
0.0
 10
343.2303900744965
 20
286.8147954590495
 30
0.0
 10
343.2624513310863
 20
286.8024437760013
 30
0.0
 10
343.2782599031195
 20
286.7958909696472
 30
0.0
 10
343.3562147706489
 20
286.7612819559318
 30
0.0
 10
343.4151288173809
 20
286.7277439607769
 30
0.0
 10
343.4844850633835
 20
286.6785904889095
 30
0.0
 10
343.4981400260976
 20
286.6683949477482
 30
0.0
 10
343.5250099788738
 20
286.6472627911178
 30
0.0
 10
343.5382142593662
 20
286.636330733699
 30
0.0
 10
343.576725128403
 20
286.6027964816675
 30
0.0
 10
343.6010854239643
 20
286.5793409403836
 30
0.0
 10
343.6703436865035
 20
286.50578964654
 30
0.0
 10
343.7114685351585
 20
286.4525162858507
 30
0.0
 10
343.7832867430357
 20
286.33749260487
 30
0.0
 10
343.8128383481527
 20
286.277584109391
 30
0.0
 10
343.8481673843182
 20
286.18438025569
 30
0.0
 10
343.858432861357
 20
286.1527510682462
 30
0.0
 10
343.871535945325
 20
286.1044596878986
 30
0.0
 10
343.8755288617078
 20
286.0881810310262
 30
0.0
 10
343.8826918260501
 20
286.0555418455111
 30
0.0
 10
343.8858582660358
 20
286.039208919052
 30
0.0
 10
343.8996633085103
 20
285.9574807027022
 30
0.0
 10
343.9042759430273
 20
285.8918977468871
 30
0.0
 10
343.9021885274572
 20
285.8096853531588
 30
0.0
 10
343.9013749566232
 20
285.7932309995159
 30
0.0
 10
343.8989464499746
 20
285.7602981988092
 30
0.0
 10
343.8973259926435
 20
285.7437785462706
 30
0.0
 10
343.8912839133203
 20
285.6945178572864
 30
0.0
 10
343.8857019343741
 20
285.6621345406163
 30
0.0
 10
343.8644468821904
 20
285.5663056687438
 30
0.0
 10
343.8443068502134
 20
285.504170056968
 30
0.0
 10
343.8049677264221
 20
285.4136005290521
 30
0.0
 10
343.7902580798751
 20
285.3837669266034
 30
0.0
 10
343.7583204619732
 20
285.3261860556065
 30
0.0
 10
343.7410411315134
 20
285.2982950941562
 30
0.0
 10
343.6853146159267
 20
285.2172722945932
 30
0.0
 10
343.6430203424108
 20
285.1667633725557
 30
0.0
 10
343.5832789806535
 20
285.1082385563425
 30
0.0
 10
343.5710056125188
 20
285.0967913930631
 30
0.0
 10
343.5460349266108
 20
285.0746169279403
 30
0.0
 10
343.5078477939887
 20
285.0423464188867
 30
0.0
 10
343.4405913804877
 20
284.9934429341654
 30
0.0
 10
343.3829089250222
 20
284.9595293640472
 30
0.0
 10
343.3381392534786
 20
284.9361087914178
 30
0.0
 10
343.322964252402
 20
284.9286383385077
 30
0.0
 10
343.2920954717993
 20
284.9143888358152
 30
0.0
 10
343.2763749712429
 20
284.9076017995474
 30
0.0
 10
343.1974155473235
 20
284.8758280614098
 30
0.0
 10
343.1324259858087
 20
284.8569168348649
 30
0.0
 10
343.0322090293024
 20
284.8382514644917
 30
0.0
 10
342.9983447622757
 20
284.8336582859769
 30
0.0
 10
342.9468295176945
 20
284.8293174344763
 30
0.0
 10
342.9295746337022
 20
284.8283023102553
 30
0.0
 10
342.8952530181655
 20
284.8271471920683
 30
0.0
 10
342.8781359986006
 20
284.82700251784
 30
0.0
 10
342.7927662658492
 20
284.8284081187218
 30
0.0
 10
342.7251534777927
 20
284.8362819969048
 30
0.0
 10
342.6414970762317
 20
284.854640378557
 30
0.0
 10
342.6247600410838
 20
284.8587562766413
 30
0.0
 10
342.591685771423
 20
284.8677763578992
 30
0.0
 10
342.5426507521923
 20
284.882489017596
 30
0.0
 10
342.4637211760353
 20
284.9127541146497
 30
0.0
 10
342.4034741639974
 20
284.9429415448615
 30
0.0
 10
342.3446760911984
 20
284.976131998228
 30
0.0
 10
342.3159103548233
 20
284.9943109938539
 30
0.0
 10
342.2335261794609
 20
285.0522272536552
 30
0.0
 10
342.1832219432417
 20
285.0955731275698
 30
0.0
 10
342.1258757510307
 20
285.1555062098147
 30
0.0
 10
342.1146858648892
 20
285.1677830885085
 30
0.0
 10
342.0928693237115
 20
285.1929240324253
 30
0.0
 10
342.0822255871527
 20
285.2058125132718
 30
0.0
 10
342.0514447079093
 20
285.2449874974326
 30
0.0
 10
342.0323607413939
 20
285.2718819557921
 30
0.0
 10
341.9792609602133
 20
285.3548329213762
 30
0.0
 10
341.9493581040111
 20
285.4131361698861
 30
0.0
 10
341.9189475518327
 20
285.4898765509716
 30
0.0
 10
341.9132129940481
 20
285.5054376606134
 30
0.0
 10
341.9025620934368
 20
285.5366397504994
 30
0.0
 10
341.8877700949931
 20
285.5836734067821
 30
0.0
 10
341.8689163187425
 20
285.6631985955163
 30
0.0
 10
341.8599485680617
 20
285.7280262337346
 30
0.0
 10
341.8555544540796
 20
285.7771094339327
 30
0.0
 10
341.8544790394614
 20
285.793547695144
 30
0.0
 10
341.8531217275033
 20
285.8265816922745
 30
0.0
 10
341.852840868497
 20
285.8432222860081
 30
0.0
 10
341.8534610580393
 20
285.9261579746974
 30
0.0
 10
341.8603341490119
 20
285.9916540282773
 30
0.0
 10
341.8800433236727
 20
286.0886244972381
 30
0.0
 10
341.8881902965658
 20
286.1207340439241
 30
0.0
 10
341.9077435490987
 20
286.1845050693693
 30
0.0
 10
341.9192167164695
 20
286.2162897286412
 30
0.0
 10
341.9579045036809
 20
286.3089219958553
 30
0.0
 10
341.9894732195743
 20
286.3676580240638
 30
0.0
 10
342.0455179429662
 20
286.4511678043298
 30
0.0
 10
342.0656577038692
 20
286.4782335417812
 30
0.0
 10
342.0981527275014
 20
286.517616232426
 30
0.0
 10
342.1093107007706
 20
286.5304713378828
 30
0.0
 10
342.1321557972154
 20
286.555510735834
 30
0.0
 10
342.1438604850736
 20
286.5677164363969
 30
0.0
 10
342.2037776279602
 20
286.6271909323918
 30
0.0
 10
342.2561309667267
 20
286.6698425756057
 30
0.0
 10
342.3414479764198
 20
286.726196776468
 30
0.0
 10
342.3711730586602
 20
286.7437628084301
 30
0.0
 10
342.4316564493206
 20
286.7755222354177
 30
0.0
 10
342.4934041289765
 20
286.8040982826192
 30
0.0
 10
342.5576340222918
 20
286.8264111977907
 30
0.0
 10
342.6067478731671
 20
286.8407663887972
 30
0.0
 10
342.6232763507371
 20
286.8451541503412
 30
0.0
 10
342.6566531100482
 20
286.8531208261643
 30
0.0
 10
342.6735397595864
 20
286.8567065064107
 30
0.0
 10
342.7582955631646
 20
286.87247195752
 30
0.0
 10
342.826763324701
 20
286.8781940947247
 30
0.0
 10
342.8958249652845
 20
286.8769886193043
 30
0.0
  0
LINE
  5
1EA
330
1F
100
AcDbEntity
  8
SK4
100
AcDbLine
 10
215.004842
 20
288.907994
 30
0.0
 11
277.404842
 21
288.907994
 31
0.0
  0
LINE
  5
1EB
330
1F
100
AcDbEntity
  8
4
100
AcDbLine
 10
269.132259
 20
288.907994
 30
0.0
 11
348.815864
 21
288.907994
 31
0.0
  0
MTEXT
  5
1F1
330
1F
100
AcDbEntity
  8
SK6
100
AcDbMText
 10
256.716137
 20
249.558617
 30
0.0
 40
3.5
 41
0.0
 71
     7
 72
     5
  1
\W0.7291;802D-0937-187-S100
  7
cesky
 73
     2
 44
0.8433729999999998
  0
MTEXT
  5
308
330
1F
100
AcDbEntity
  8
2
100
AcDbMText
 10
306.365142
 20
327.385163
 30
0.0
 40
3.5
 41
0.0
 71
     7
 72
     5
  1
\W0.8594;72,6
  7
cesky
 73
     2
 44
0.8433729999999998
  0
LINE
  5
309
330
1F
100
AcDbEntity
  8
2
100
AcDbLine
 10
347.004442
 20
300.807894
 30
0.0
 11
347.004442
 21
328.5109970000001
 31
0.0
  0
LINE
  5
30A
330
1F
100
AcDbEntity
  8
2
100
AcDbLine
 10
274.404842
 20
289.907567
 30
0.0
 11
274.404842
 21
328.5109970000001
 31
0.0
  0
LINE
  5
30B
330
1F
100
AcDbEntity
  8
2
100
AcDbLine
 10
347.004442
 20
327.510997
 30
0.0
 11
274.404842
 21
327.510997
 31
0.0
  0
SOLID
  5
30C
330
1F
100
AcDbEntity
  8
2
100
AcDbTrace
 10
347.004442
 20
327.510997
 30
0.0
 11
343.504444
 21
326.893852
 31
0.0
 12
343.50444
 22
328.128141
 32
0.0
 13
343.50444
 23
328.128141
 33
0.0
  0
SOLID
  5
30D
330
1F
100
AcDbEntity
  8
2
100
AcDbTrace
 10
274.404842
 20
327.510997
 30
0.0
 11
277.90484
 21
328.128141
 31
0.0
 12
277.904844
 22
326.893852
 32
0.0
 13
277.904844
 23
326.893852
 33
0.0
  0
MTEXT
  5
30E
330
1F
100
AcDbEntity
  8
2
100
AcDbMText
 10
276.602642
 20
340.562135
 30
0.0
 40
3.5
 41
0.0
 71
     7
 72
     5
  1
\W0.8764;129,6
  7
cesky
 73
     2
 44
0.8433729999999998
  0
LINE
  5
30F
330
1F
100
AcDbEntity
  8
2
100
AcDbLine
 10
347.004442
 20
302.807894
 30
0.0
 11
347.004442
 21
341.687968
 31
0.0
  0
LINE
  5
310
330
1F
100
AcDbEntity
  8
2
100
AcDbLine
 10
217.404842
 20
300.007994
 30
0.0
 11
217.404842
 21
341.687968
 31
0.0
  0
LINE
  5
311
330
1F
100
AcDbEntity
  8
2
100
AcDbLine
 10
347.004442
 20
340.687968
 30
0.0
 11
217.404842
 21
340.687968
 31
0.0
  0
SOLID
  5
312
330
1F
100
AcDbEntity
  8
2
100
AcDbTrace
 10
347.004442
 20
340.687968
 30
0.0
 11
343.504444
 21
340.070823
 31
0.0
 12
343.50444
 22
341.305112
 32
0.0
 13
343.50444
 23
341.305112
 33
0.0
  0
SOLID
  5
313
330
1F
100
AcDbEntity
  8
2
100
AcDbTrace
 10
217.404842
 20
340.687968
 30
0.0
 11
220.90484
 21
341.305112
 31
0.0
 12
220.904844
 22
340.070823
 32
0.0
 13
220.904844
 23
340.070823
 33
0.0
  0
MTEXT
  5
314
330
1F
100
AcDbEntity
  8
2
100
AcDbMText
 10
244.090342
 20
327.385163
 30
0.0
 40
3.5
 41
0.0
 71
     7
 72
     5
  1
\W0.7045;57
  7
cesky
 73
     2
 44
0.8433729999999998
  0
LINE
  5
315
330
1F
100
AcDbEntity
  8
2
100
AcDbLine
 10
274.404842
 20
288.907994
 30
0.0
 11
274.404842
 21
328.5109970000001
 31
0.0
  0
LINE
  5
316
330
1F
100
AcDbEntity
  8
2
100
AcDbLine
 10
217.404842
 20
300.007994
 30
0.0
 11
217.404842
 21
328.5109970000001
 31
0.0
  0
LINE
  5
317
330
1F
100
AcDbEntity
  8
2
100
AcDbLine
 10
274.404842
 20
327.510997
 30
0.0
 11
217.404842
 21
327.510997
 31
0.0
  0
SOLID
  5
318
330
1F
100
AcDbEntity
  8
2
100
AcDbTrace
 10
274.404842
 20
327.510997
 30
0.0
 11
270.904844
 21
326.893852
 31
0.0
 12
270.90484
 22
328.128141
 32
0.0
 13
270.90484
 23
328.128141
 33
0.0
  0
SOLID
  5
319
330
1F
100
AcDbEntity
  8
2
100
AcDbTrace
 10
217.404842
 20
327.510997
 30
0.0
 11
220.90484
 21
328.128141
 31
0.0
 12
220.904844
 22
326.893852
 32
0.0
 13
220.904844
 23
326.893852
 33
0.0
  0
MTEXT
  5
31A
330
1F
100
AcDbEntity
  8
2
100
AcDbMText
 10
315.397631
 20
314.396658
 30
0.0
 40
3.5
 41
0.0
 71
     7
 72
     5
  1
\W0.8459;54,5
  7
cesky
 73
     2
 44
0.8433729999999998
  0
LINE
  5
31B
330
1F
100
AcDbEntity
  8
2
100
AcDbLine
 10
347.004442
 20
302.807894
 30
0.0
 11
347.004442
 21
315.522492
 31
0.0
  0
LINE
  5
31C
330
1F
100
AcDbEntity
  8
2
100
AcDbLine
 10
292.469819
 20
300.41301
 30
0.0
 11
292.469819
 21
315.522492
 31
0.0
  0
LINE
  5
31D
330
1F
100
AcDbEntity
  8
2
100
AcDbLine
 10
347.004442
 20
314.522492
 30
0.0
 11
292.469819
 21
314.522492
 31
0.0
  0
SOLID
  5
31E
330
1F
100
AcDbEntity
  8
2
100
AcDbTrace
 10
347.004442
 20
314.522492
 30
0.0
 11
343.504444
 21
313.905347
 31
0.0
 12
343.50444
 22
315.139636
 32
0.0
 13
343.50444
 23
315.139636
 33
0.0
  0
SOLID
  5
31F
330
1F
100
AcDbEntity
  8
2
100
AcDbTrace
 10
292.469819
 20
314.522492
 30
0.0
 11
295.969817
 21
315.139636
 31
0.0
 12
295.969822
 22
313.905347
 32
0.0
 13
295.969822
 23
313.905347
 33
0.0
  0
MTEXT
  5
320
330
1F
100
AcDbEntity
  8
2
100
AcDbMText
 10
359.797223
 20
284.278394
 30
0.0
 40
3.5
 41
0.0
 71
     7
 72
     5
  1
\W0.8459;23,8
  7
cesky
 11
0.0000000000000001
 21
1.0
 31
0.0
 73
     2
 44
0.8433729999999998
  0
MTEXT
  5
321
330
1F
100
AcDbEntity
  8
2
100
AcDbMText
 10
359.797223
 20
277.540894
 30
0.0
 40
3.5
 41
0.0
 71
     7
 72
     5
  1
\W3.0115;\H2.63;%%c\H3.50;
  7
cesky
 11
0.0000000000000001
 21
1.0
 31
0.0
 73
     2
 44
0.8433729999999998
  0
LINE
  5
322
330
1F
100
AcDbEntity
  8
2
100
AcDbLine
 10
349.004442
 20
300.807894
 30
0.0
 11
360.98464
 21
300.807894
 31
0.0
  0
LINE
  5
323
330
1F
100
AcDbEntity
  8
2
100
AcDbLine
 10
359.98464
 20
300.807894
 30
0.0
 11
359.98464
 21
277.383394
 31
0.0
  0
SOLID
  5
324
330
1F
100
AcDbEntity
  8
2
100
AcDbTrace
 10
359.98464
 20
300.807894
 30
0.0
 11
360.601785
 21
297.307896
 31
0.0
 12
359.367496
 22
297.307891
 32
0.0
 13
359.367496
 23
297.307891
 33
0.0
  0
MTEXT
  5
325
330
1F
100
AcDbEntity
  8
SK2
100
AcDbMText
 10
204.434926
 20
287.909244
 30
0.0
 40
3.5
 41
0.0
 71
     7
 72
     5
  1
\W0.8329;25,4
  7
cesky
 11
0.0000000000000001
 21
1.0
 31
0.0
 73
     2
 44
0.8433729999999998
  0
MTEXT
  5
326
330
1F
100
AcDbEntity
  8
SK2
100
AcDbMText
 10
204.434926
 20
281.171744
 30
0.0
 40
3.5
 41
0.0
 71
     7
 72
     5
  1
\W3.0115;\H2.63;%%c\H3.50;
  7
cesky
 11
0.0000000000000001
 21
1.0
 31
0.0
 73
     2
 44
0.8433729999999998
  0
LINE
  5
327
330
1F
100
AcDbEntity
  8
SK2
100
AcDbLine
 10
219.004842
 20
301.607994
 30
0.0
 11
203.622343
 21
301.607994
 31
0.0
  0
LINE
  5
328
330
1F
100
AcDbEntity
  8
SK2
100
AcDbLine
 10
219.004842
 20
276.207994
 30
0.0
 11
203.622343
 21
276.207994
 31
0.0
  0
LINE
  5
329
330
1F
100
AcDbEntity
  8
SK2
100
AcDbLine
 10
204.622343
 20
301.607994
 30
0.0
 11
204.622343
 21
276.207994
 31
0.0
  0
SOLID
  5
32A
330
1F
100
AcDbEntity
  8
SK2
100
AcDbTrace
 10
204.622343
 20
301.607994
 30
0.0
 11
205.239487
 21
298.107996
 31
0.0
 12
204.005198
 22
298.107991
 32
0.0
 13
204.005198
 23
298.107991
 33
0.0
  0
SOLID
  5
32B
330
1F
100
AcDbEntity
  8
SK2
100
AcDbTrace
 10
204.622343
 20
276.207994
 30
0.0
 11
204.005198
 21
279.707991
 31
0.0
 12
205.239487
 22
279.707996
 32
0.0
 13
205.239487
 23
279.707996
 33
0.0
  0
MTEXT
  5
32C
330
1F
100
AcDbEntity
  8
SK2
100
AcDbMText
 10
189.031563
 20
290.434244
 30
0.0
 40
3.5
 41
0.0
 71
     7
 72
     5
  1
\W0.7045;35
  7
cesky
 11
0.0000000000000001
 21
1.0
 31
0.0
 73
     2
 44
0.8433729999999998
  0
MTEXT
  5
32D
330
1F
100
AcDbEntity
  8
SK2
100
AcDbMText
 10
189.031563
 20
283.696744
 30
0.0
 40
3.5
 41
0.0
 71
     7
 72
     5
  1
\W3.0115;\H2.63;%%c\H3.50;
  7
cesky
 11
0.0000000000000001
 21
1.0
 31
0.0
 73
     2
 44
0.8433729999999998
  0
LINE
  5
32E
330
1F
100
AcDbEntity
  8
SK2
100
AcDbLine
 10
274.904842
 20
306.407994
 30
0.0
 11
188.21898
 21
306.407994
 31
0.0
  0
LINE
  5
32F
330
1F
100
AcDbEntity
  8
SK2
100
AcDbLine
 10
274.904842
 20
271.407994
 30
0.0
 11
188.21898
 21
271.407994
 31
0.0
  0
LINE
  5
330
330
1F
100
AcDbEntity
  8
SK2
100
AcDbLine
 10
189.21898
 20
306.407994
 30
0.0
 11
189.21898
 21
271.407994
 31
0.0
  0
SOLID
  5
331
330
1F
100
AcDbEntity
  8
SK2
100
AcDbTrace
 10
189.21898
 20
306.407994
 30
0.0
 11
189.836125
 21
302.907996
 31
0.0
 12
188.601836
 22
302.907991
 32
0.0
 13
188.601836
 23
302.907991
 33
0.0
  0
SOLID
  5
332
330
1F
100
AcDbEntity
  8
SK2
100
AcDbTrace
 10
189.21898
 20
271.407994
 30
0.0
 11
188.601836
 21
274.907991
 31
0.0
 12
189.836125
 22
274.9079959999999
 32
0.0
 13
189.836125
 23
274.9079959999999
 33
0.0
  0
LINE
  5
333
330
1F
100
AcDbEntity
  8
CUT
100
AcDbLine
 10
345.6083100338869
 20
300.8040129569839
 30
0.0
 11
339.2155463730312
 21
300.5091137044027
 31
0.0
  0
LINE
  5
336
330
1F
100
AcDbEntity
  8
CUT
100
AcDbLine
 10
346.9228220537611
 20
294.4990720017853
 30
0.0
 11
346.6412534223255
 21
294.9676117352572
 31
0.0
  0
LINE
  5
337
330
1F
100
AcDbEntity
  8
CUT
100
AcDbLine
 10
347.0044419452958
 20
289.8276302906288
 30
0.0
 11
346.9228220537612
 21
294.4990720017853
 31
0.0
  0
LINE
  5
338
330
1F
100
AcDbEntity
  8
CUT
100
AcDbLine
 10
346.6412534223255
 20
294.9676117352572
 30
0.0
 11
346.4102906244816
 21
300.074701782252
 31
0.0
  0
LINE
  5
339
330
1F
100
AcDbEntity
  8
CUT
100
AcDbLine
 10
338.482483
 20
288.907994
 30
0.0
 11
347.004442
 21
288.907994
 31
0.0
  0
LINE
  5
33A
330
1F
100
AcDbEntity
  8
CUT
100
AcDbLine
 10
338.482483
 20
299.70839
 30
0.0
 11
338.482483
 21
288.907994
 31
0.0
  0
LINE
  5
33B
330
1F
100
AcDbEntity
  8
CUT
100
AcDbLine
 10
347.004442
 20
288.907994
 30
0.0
 11
347.004442
 21
289.82763
 31
0.0
  0
ARC
  5
33C
330
1F
100
AcDbEntity
  8
CUT
100
AcDbCircle
 10
345.6344784134152
 20
300.0277503912226
 30
0.0
 40
0.7772316385476325
100
AcDbArc
 50
3.463260152944481
 51
87.78998377570674
  0
ARC
  5
33D
330
1F
100
AcDbEntity
  8
CUT
100
AcDbCircle
 10
345.6413805605355
 20
300.0861791585465
 30
0.0
 40
0.7185951724801404
100
AcDbArc
 50
88.16025497350382
 51
92.63774536774816
  0
ARC
  5
33E
330
1F
100
AcDbEntity
  8
CUT
100
AcDbCircle
 10
339.2616919200115
 20
299.729878785592
 30
0.0
 40
0.7806000705867346
100
AcDbArc
 50
93.38904331555438
 51
174.6993929358051
  0
ARC
  5
33F
330
1F
100
AcDbEntity
  8
CUT
100
AcDbCircle
 10
339.1983020154883
 20
299.7403218114338
 30
0.0
 40
0.7165308983418783
100
AcDbArc
 50
175.0626131208257
 51
182.5541753901524
  0
ENDSEC
  0
SECTION
  2
OBJECTS
  0
DICTIONARY
  5
C
330
0
100
AcDbDictionary
281
     1
  3
ACAD_CIP_PREVIOUS_PRODUCT_INFO
350
2FF
  3
ACAD_COLOR
350
2FA
  3
ACAD_DETAILVIEWSTYLE
350
2F6
  3
ACAD_GROUP
350
D
  3
ACAD_LAYOUT
350
1A
  3
ACAD_MATERIAL
350
43
  3
ACAD_MLEADERSTYLE
350
6B
  3
ACAD_MLINESTYLE
350
17
  3
ACAD_PLOTSETTINGS
350
19
  3
ACAD_PLOTSTYLENAME
350
E
  3
ACAD_SCALELIST
350
47
  3
ACAD_SECTIONVIEWSTYLE
350
2F7
  3
ACAD_TABLESTYLE
350
69
  3
ACAD_VISUALSTYLE
350
2A
  3
ACDB_RECOMPOSE_DATA
350
36A
  3
AcDbVariableDictionary
350
2B3
  0
DICTIONARY
  5
34E
330
10
100
AcDbDictionary
280
     1
281
     1
  3
ADSK_XREC_LAYER_RECONCILED
360
34F
  0
DICTIONARY
  5
350
330
340
100
AcDbDictionary
280
     1
281
     1
  3
ADSK_XREC_LAYER_RECONCILED
360
351
  0
DICTIONARY
  5
352
330
341
100
AcDbDictionary
280
     1
281
     1
  3
ADSK_XREC_LAYER_RECONCILED
360
353
  0
DICTIONARY
  5
354
330
342
100
AcDbDictionary
280
     1
281
     1
  3
ADSK_XREC_LAYER_RECONCILED
360
355
  0
DICTIONARY
  5
356
330
344
100
AcDbDictionary
280
     1
281
     1
  3
ADSK_XREC_LAYER_RECONCILED
360
357
  0
DICTIONARY
  5
358
330
345
100
AcDbDictionary
280
     1
281
     1
  3
ADSK_XREC_LAYER_RECONCILED
360
359
  0
DICTIONARY
  5
35A
330
347
100
AcDbDictionary
280
     1
281
     1
  3
ADSK_XREC_LAYER_RECONCILED
360
35B
  0
DICTIONARY
  5
35C
330
348
100
AcDbDictionary
280
     1
281
     1
  3
ADSK_XREC_LAYER_RECONCILED
360
35D
  0
DICTIONARY
  5
35E
330
349
100
AcDbDictionary
280
     1
281
     1
  3
ADSK_XREC_LAYER_RECONCILED
360
35F
  0
DICTIONARY
  5
360
330
34A
100
AcDbDictionary
280
     1
281
     1
  3
ADSK_XREC_LAYER_RECONCILED
360
361
  0
DICTIONARY
  5
362
330
34B
100
AcDbDictionary
280
     1
281
     1
  3
ADSK_XREC_LAYER_RECONCILED
360
363
  0
DICTIONARY
  5
364
330
34C
100
AcDbDictionary
280
     1
281
     1
  3
ADSK_XREC_LAYER_RECONCILED
360
365
  0
DICTIONARY
  5
306
330
1F
100
AcDbDictionary
280
     1
281
     1
  3
ACAD_SORTENTS
360
307
  0
XRECORD
  5
2FF
102
{ACAD_REACTORS
330
C
102
}
330
C
100
AcDbXrecord
280
     1
300
ACD
300
2019
300
87084ACD_2019_0F
  0
DICTIONARY
  5
2FA
102
{ACAD_REACTORS
330
C
102
}
330
C
100
AcDbDictionary
281
     1
  0
DICTIONARY
  5
2F6
102
{ACAD_REACTORS
330
C
102
}
330
C
100
AcDbDictionary
281
     1
  3
Metric50
350
2FC
  0
DICTIONARY
  5
D
102
{ACAD_REACTORS
330
C
102
}
330
C
100
AcDbDictionary
281
     1
  3
NULOVY_BOD
350
34D
  0
DICTIONARY
  5
1A
102
{ACAD_REACTORS
330
C
102
}
330
C
100
AcDbDictionary
281
     1
  3
Layout1
350
1E
  3
Layout2
350
26
  3
Model
350
22
  0
DICTIONARY
  5
43
102
{ACAD_REACTORS
330
C
102
}
330
C
100
AcDbDictionary
281
     1
  3
ByBlock
350
45
  3
ByLayer
350
44
  3
Global
350
46
  0
DICTIONARY
  5
6B
102
{ACAD_REACTORS
330
C
102
}
330
C
100
AcDbDictionary
281
     1
  3
Standard
350
6C
  0
DICTIONARY
  5
17
102
{ACAD_REACTORS
330
C
102
}
330
C
100
AcDbDictionary
281
     1
  3
Standard
350
18
  0
DICTIONARY
  5
19
102
{ACAD_REACTORS
330
C
102
}
330
C
100
AcDbDictionary
281
     1
  0
ACDBDICTIONARYWDFLT
  5
E
102
{ACAD_REACTORS
330
C
102
}
330
C
100
AcDbDictionary
281
     1
  3
Normal
350
F
100
AcDbDictionaryWithDefault
340
F
  0
DICTIONARY
  5
47
102
{ACAD_REACTORS
330
C
102
}
330
C
100
AcDbDictionary
281
     1
  3
A0
350
48
  3
A1
350
49
  3
A2
350
4A
  3
A3
350
4B
  3
A4
350
4C
  3
A5
350
4D
  3
A6
350
4E
  3
A7
350
4F
  3
A8
350
50
  3
A9
350
51
  3
B0
350
52
  3
B1
350
53
  3
B2
350
54
  3
B3
350
55
  3
B4
350
56
  3
B5
350
57
  3
B6
350
58
  3
B7
350
59
  3
B8
350
5A
  3
B9
350
5B
  3
C0
350
5C
  3
C1
350
5D
  3
C2
350
5E
  3
C3
350
5F
  3
C4
350
60
  3
C5
350
61
  3
C6
350
62
  3
C7
350
63
  3
C8
350
64
  3
C9
350
65
  3
D0
350
66
  3
D1
350
67
  3
D2
350
68
  0
DICTIONARY
  5
2F7
102
{ACAD_REACTORS
330
C
102
}
330
C
100
AcDbDictionary
281
     1
  3
Metric50
350
2FB
  0
DICTIONARY
  5
69
102
{ACAD_REACTORS
330
C
102
}
330
C
100
AcDbDictionary
281
     1
  3
Standard
350
6A
  0
DICTIONARY
  5
2A
102
{ACAD_REACTORS
330
C
102
}
330
C
100
AcDbDictionary
281
     1
  3
2dWireframe
350
2F
  3
Basic
350
32
  3
Brighten
350
36
  3
ColorChange
350
3A
  3
Conceptual
350
34
  3
Dim
350
35
  3
EdgeColorOff
350
3D
  3
Facepattern
350
39
  3
Flat
350
2B
  3
FlatWithEdges
350
2C
  3
Gouraud
350
2D
  3
GouraudWithEdges
350
2E
  3
Hidden
350
31
  3
JitterOff
350
3B
  3
Linepattern
350
38
  3
OverhangOff
350
3C
  3
Realistic
350
33
  3
Shaded
350
42
  3
Shaded with edges
350
41
  3
Shades of Gray
350
3E
  3
Sketchy
350
3F
  3
Thicken
350
37
  3
Wireframe
350
30
  3
X-Ray
350
40
  0
XRECORD
  5
36A
102
{ACAD_REACTORS
330
C
102
}
330
C
100
AcDbXrecord
280
     1
 90
        1
330
6A
  0
DICTIONARY
  5
2B3
102
{ACAD_REACTORS
330
C
102
}
330
C
100
AcDbDictionary
281
     1
  3
CANNOSCALE
350
2B4
  3
CMLEADERSTYLE
350
2F5
  3
CTABLESTYLE
350
2F4
  3
CVIEWDETAILSTYLE
350
366
  3
CVIEWSECTIONSTYLE
350
367
  3
MSLTSCALE
350
2B5
  3
XCLIPFRAME
350
368
  0
XRECORD
  5
34F
102
{ACAD_REACTORS
330
34E
102
}
330
34E
100
AcDbXrecord
280
     1
290
     1
  0
XRECORD
  5
351
102
{ACAD_REACTORS
330
350
102
}
330
350
100
AcDbXrecord
280
     1
290
     1
  0
XRECORD
  5
353
102
{ACAD_REACTORS
330
352
102
}
330
352
100
AcDbXrecord
280
     1
290
     1
  0
XRECORD
  5
355
102
{ACAD_REACTORS
330
354
102
}
330
354
100
AcDbXrecord
280
     1
290
     1
  0
XRECORD
  5
357
102
{ACAD_REACTORS
330
356
102
}
330
356
100
AcDbXrecord
280
     1
290
     1
  0
XRECORD
  5
359
102
{ACAD_REACTORS
330
358
102
}
330
358
100
AcDbXrecord
280
     1
290
     1
  0
XRECORD
  5
35B
102
{ACAD_REACTORS
330
35A
102
}
330
35A
100
AcDbXrecord
280
     1
290
     1
  0
XRECORD
  5
35D
102
{ACAD_REACTORS
330
35C
102
}
330
35C
100
AcDbXrecord
280
     1
290
     1
  0
XRECORD
  5
35F
102
{ACAD_REACTORS
330
35E
102
}
330
35E
100
AcDbXrecord
280
     1
290
     1
  0
XRECORD
  5
361
102
{ACAD_REACTORS
330
360
102
}
330
360
100
AcDbXrecord
280
     1
290
     1
  0
XRECORD
  5
363
102
{ACAD_REACTORS
330
362
102
}
330
362
100
AcDbXrecord
280
     1
290
     1
  0
XRECORD
  5
365
102
{ACAD_REACTORS
330
364
102
}
330
364
100
AcDbXrecord
280
     1
290
     1
  0
SORTENTSTABLE
  5
307
102
{ACAD_REACTORS
330
306
102
}
330
306
100
AcDbSortentsTable
330
1F
331
308
  5
26D
331
309
  5
286
331
30A
  5
308
331
30B
  5
309
331
30C
  5
30A
331
30D
  5
30B
331
30E
  5
30C
331
30F
  5
30D
331
310
  5
30E
331
311
  5
30F
331
312
  5
310
331
313
  5
311
331
314
  5
312
331
315
  5
313
331
316
  5
314
331
317
  5
315
331
318
  5
316
331
319
  5
317
331
31A
  5
318
331
31B
  5
319
331
31C
  5
31A
331
31D
  5
31B
331
31E
  5
31C
331
31F
  5
31D
331
320
  5
31E
331
321
  5
31F
331
322
  5
320
331
323
  5
321
331
324
  5
322
331
336
  5
33A
331
337
  5
33B
331
338
  5
33C
331
339
  5
33D
331
33A
  5
33E
331
33B
  5
33F
331
33C
  5
336
331
33D
  5
337
331
33E
  5
338
331
33F
  5
339
  0
ACDBDETAILVIEWSTYLE
  5
2FC
102
{ACAD_XDICTIONARY
360
39E
102
}
102
{ACAD_REACTORS
330
2F6
102
}
330
2F6
100
AcDbModelDocViewStyle
 70
     0
  3
Metric50
290
     0
100
AcDbDetailViewStyle
 70
     0
 71
     0
 90
        3
 71
     1
340
11
 62
   256
 40
5.0
340
0
 62
   256
 40
5.0
300

 40
0.0
280
     1
 71
     2
340
16
 90
       25
 62
   256
 71
     3
340
11
 62
   256
 40
5.0
 90
        0
 40
15.0
 90
        1
300
%<\AcVar ViewDetailId>% (%<\AcVar ViewScale \f "%sn">%)
 71
     4
340
16
 90
       25
 62
   256
340
16
 90
       25
 62
   256
280
     0
  0
GROUP
  5
34D
102
{ACAD_REACTORS
330
D
102
}
330
D
100
AcDbGroup
300

 70
     0
 71
     1
340
73
  0
LAYOUT
  5
1E
102
{ACAD_REACTORS
330
1A
102
}
330
1A
100
AcDbPlotSettings
  1

  2
none_device
  4

  6

 40
0.0
 41
0.0
 42
0.0
 43
0.0
 44
0.0
 45
0.0
 46
0.0
 47
0.0
 48
0.0
 49
0.0
140
0.0
141
0.0
142
1.0
143
1.0
 70
   688
 72
     0
 73
     0
 74
     5
  7

 75
    16
147
1.0
 76
     0
 77
     2
 78
   300
148
0.0
149
0.0
100
AcDbLayout
  1
Layout1
 70
     1
 71
     1
 10
-0.5
 20
-0.5
 11
5.0
 21
5.0
 12
0.0
 22
0.0
 32
0.0
 14
-0.5
 24
-0.5
 34
-0.5
 15
5.0
 25
5.0
 35
5.0
146
0.0
 13
0.0
 23
0.0
 33
0.0
 16
1.0
 26
0.0
 36
0.0
 17
0.0
 27
1.0
 37
0.0
 76
     0
330
1B
  0
LAYOUT
  5
26
102
{ACAD_REACTORS
330
1A
102
}
330
1A
100
AcDbPlotSettings
  1

  2
none_device
  4

  6

 40
0.0
 41
0.0
 42
0.0
 43
0.0
 44
0.0
 45
0.0
 46
0.0
 47
0.0
 48
0.0
 49
0.0
140
0.0
141
0.0
142
1.0
143
1.0
 70
   688
 72
     0
 73
     0
 74
     5
  7

 75
    16
147
1.0
 76
     0
 77
     2
 78
   300
148
0.0
149
0.0
100
AcDbLayout
  1
Layout2
 70
     1
 71
     2
 10
0.0
 20
0.0
 11
0.0
 21
0.0
 12
0.0
 22
0.0
 32
0.0
 14
0.0
 24
0.0
 34
0.0
 15
0.0
 25
0.0
 35
0.0
146
0.0
 13
0.0
 23
0.0
 33
0.0
 16
1.0
 26
0.0
 36
0.0
 17
0.0
 27
1.0
 37
0.0
 76
     0
330
23
  0
LAYOUT
  5
22
102
{ACAD_REACTORS
330
1A
102
}
330
1A
100
AcDbPlotSettings
  1

  2
none_device
  4
Letter_(8.50_x_11.00_Inches)
  6

 40
6.349999999999999
 41
6.349999999999999
 42
6.350005
 43
6.350005
 44
215.9
 45
279.4
 46
0.0
 47
0.0
 48
0.0
 49
0.0
140
0.0
141
0.0
142
1.0
143
1.0
 70
  1712
 72
     0
 73
     0
 74
     0
  7

 75
     0
147
1.0
 76
     0
 77
     2
 78
   300
148
0.0
149
0.0
100
AcDbLayout
  1
Model
 70
     1
 71
     0
 10
-0.5
 20
-0.5
 11
5.0
 21
5.0
 12
0.0
 22
0.0
 32
0.0
 14
-0.5
 24
-0.5
 34
-0.5
 15
5.0
 25
5.0
 35
5.0
146
0.0
 13
0.0
 23
0.0
 33
0.0
 16
1.0
 26
0.0
 36
0.0
 17
0.0
 27
1.0
 37
0.0
 76
     0
330
1F
331
29
  0
MATERIAL
  5
45
102
{ACAD_XDICTIONARY
360
2E9
102
}
102
{ACAD_REACTORS
330
43
102
}
330
43
100
AcDbMaterial
  1
ByBlock
  0
MATERIAL
  5
44
102
{ACAD_XDICTIONARY
360
2E7
102
}
102
{ACAD_REACTORS
330
43
102
}
330
43
100
AcDbMaterial
  1
ByLayer
  0
MATERIAL
  5
46
102
{ACAD_XDICTIONARY
360
2EB
102
}
102
{ACAD_REACTORS
330
43
102
}
330
43
100
AcDbMaterial
  1
Global
  0
MLEADERSTYLE
  5
6C
102
{ACAD_REACTORS
330
6B
102
}
330
6B
100
AcDbMLeaderStyle
170
     2
171
     1
172
     0
 90
        2
 40
0.0
 41
0.0
173
     1
 91
-1056964608
340
14
 92
       -2
290
     1
 42
0.09
291
     1
 43
0.36
  3
Standard
 44
0.18
300

342
11
174
     1
178
     6
175
     1
176
     0
 93
-1056964608
 45
0.18
292
     0
297
     0
 46
0.18
 94
-1056964608
 47
1.0
 49
1.0
140
1.0
293
     1
141
0.0
294
     1
177
     0
142
1.0
295
     0
296
     0
143
0.125
1001
ACAD_MLEADERVER
1070
     2
  0
MLINESTYLE
  5
18
102
{ACAD_REACTORS
330
17
102
}
330
17
100
AcDbMlineStyle
  2
STANDARD
 70
     0
  3

 62
   256
 51
90.0
 52
90.0
 71
     2
 49
0.5
 62
   256
  6
BYLAYER
 49
-0.5
 62
   256
  6
BYLAYER
  0
ACDBPLACEHOLDER
  5
F
102
{ACAD_REACTORS
330
E
102
}
330
E
  0
SCALE
  5
48
102
{ACAD_REACTORS
330
47
102
}
330
47
100
AcDbScale
 70
     0
300
1:1
140
1.0
141
1.0
290
     1
  0
SCALE
  5
49
102
{ACAD_REACTORS
330
47
102
}
330
47
100
AcDbScale
 70
     0
300
1:2
140
1.0
141
2.0
290
     0
  0
SCALE
  5
4A
102
{ACAD_REACTORS
330
47
102
}
330
47
100
AcDbScale
 70
     0
300
1:4
140
1.0
141
4.0
290
     0
  0
SCALE
  5
4B
102
{ACAD_REACTORS
330
47
102
}
330
47
100
AcDbScale
 70
     0
300
1:5
140
1.0
141
5.0
290
     0
  0
SCALE
  5
4C
102
{ACAD_REACTORS
330
47
102
}
330
47
100
AcDbScale
 70
     0
300
1:8
140
1.0
141
8.0
290
     0
  0
SCALE
  5
4D
102
{ACAD_REACTORS
330
47
102
}
330
47
100
AcDbScale
 70
     0
300
1:10
140
1.0
141
10.0
290
     0
  0
SCALE
  5
4E
102
{ACAD_REACTORS
330
47
102
}
330
47
100
AcDbScale
 70
     0
300
1:16
140
1.0
141
16.0
290
     0
  0
SCALE
  5
4F
102
{ACAD_REACTORS
330
47
102
}
330
47
100
AcDbScale
 70
     0
300
1:20
140
1.0
141
20.0
290
     0
  0
SCALE
  5
50
102
{ACAD_REACTORS
330
47
102
}
330
47
100
AcDbScale
 70
     0
300
1:30
140
1.0
141
30.0
290
     0
  0
SCALE
  5
51
102
{ACAD_REACTORS
330
47
102
}
330
47
100
AcDbScale
 70
     0
300
1:40
140
1.0
141
40.0
290
     0
  0
SCALE
  5
52
102
{ACAD_REACTORS
330
47
102
}
330
47
100
AcDbScale
 70
     0
300
1:50
140
1.0
141
50.0
290
     0
  0
SCALE
  5
53
102
{ACAD_REACTORS
330
47
102
}
330
47
100
AcDbScale
 70
     0
300
1:100
140
1.0
141
100.0
290
     0
  0
SCALE
  5
54
102
{ACAD_REACTORS
330
47
102
}
330
47
100
AcDbScale
 70
     0
300
2:1
140
2.0
141
1.0
290
     0
  0
SCALE
  5
55
102
{ACAD_REACTORS
330
47
102
}
330
47
100
AcDbScale
 70
     0
300
4:1
140
4.0
141
1.0
290
     0
  0
SCALE
  5
56
102
{ACAD_REACTORS
330
47
102
}
330
47
100
AcDbScale
 70
     0
300
8:1
140
8.0
141
1.0
290
     0
  0
SCALE
  5
57
102
{ACAD_REACTORS
330
47
102
}
330
47
100
AcDbScale
 70
     0
300
10:1
140
10.0
141
1.0
290
     0
  0
SCALE
  5
58
102
{ACAD_REACTORS
330
47
102
}
330
47
100
AcDbScale
 70
     0
300
100:1
140
100.0
141
1.0
290
     0
  0
SCALE
  5
59
102
{ACAD_REACTORS
330
47
102
}
330
47
100
AcDbScale
 70
     0
300
1/128" = 1'-0"
140
0.007812
141
12.0
290
     0
  0
SCALE
  5
5A
102
{ACAD_REACTORS
330
47
102
}
330
47
100
AcDbScale
 70
     0
300
1/64" = 1'-0"
140
0.015625
141
12.0
290
     0
  0
SCALE
  5
5B
102
{ACAD_REACTORS
330
47
102
}
330
47
100
AcDbScale
 70
     0
300
1/32" = 1'-0"
140
0.03125
141
12.0
290
     0
  0
SCALE
  5
5C
102
{ACAD_REACTORS
330
47
102
}
330
47
100
AcDbScale
 70
     0
300
1/16" = 1'-0"
140
0.0625
141
12.0
290
     0
  0
SCALE
  5
5D
102
{ACAD_REACTORS
330
47
102
}
330
47
100
AcDbScale
 70
     0
300
3/32" = 1'-0"
140
0.09375
141
12.0
290
     0
  0
SCALE
  5
5E
102
{ACAD_REACTORS
330
47
102
}
330
47
100
AcDbScale
 70
     0
300
1/8" = 1'-0"
140
0.125
141
12.0
290
     0
  0
SCALE
  5
5F
102
{ACAD_REACTORS
330
47
102
}
330
47
100
AcDbScale
 70
     0
300
3/16" = 1'-0"
140
0.1875
141
12.0
290
     0
  0
SCALE
  5
60
102
{ACAD_REACTORS
330
47
102
}
330
47
100
AcDbScale
 70
     0
300
1/4" = 1'-0"
140
0.25
141
12.0
290
     0
  0
SCALE
  5
61
102
{ACAD_REACTORS
330
47
102
}
330
47
100
AcDbScale
 70
     0
300
3/8" = 1'-0"
140
0.375
141
12.0
290
     0
  0
SCALE
  5
62
102
{ACAD_REACTORS
330
47
102
}
330
47
100
AcDbScale
 70
     0
300
1/2" = 1'-0"
140
0.5
141
12.0
290
     0
  0
SCALE
  5
63
102
{ACAD_REACTORS
330
47
102
}
330
47
100
AcDbScale
 70
     0
300
3/4" = 1'-0"
140
0.75
141
12.0
290
     0
  0
SCALE
  5
64
102
{ACAD_REACTORS
330
47
102
}
330
47
100
AcDbScale
 70
     0
300
1" = 1'-0"
140
1.0
141
12.0
290
     0
  0
SCALE
  5
65
102
{ACAD_REACTORS
330
47
102
}
330
47
100
AcDbScale
 70
     0
300
1-1/2" = 1'-0"
140
1.5
141
12.0
290
     0
  0
SCALE
  5
66
102
{ACAD_REACTORS
330
47
102
}
330
47
100
AcDbScale
 70
     0
300
3" = 1'-0"
140
3.0
141
12.0
290
     0
  0
SCALE
  5
67
102
{ACAD_REACTORS
330
47
102
}
330
47
100
AcDbScale
 70
     0
300
6" = 1'-0"
140
6.0
141
12.0
290
     0
  0
SCALE
  5
68
102
{ACAD_REACTORS
330
47
102
}
330
47
100
AcDbScale
 70
     0
300
1'-0" = 1'-0"
140
12.0
141
12.0
290
     0
  0
ACDBSECTIONVIEWSTYLE
  5
2FB
102
{ACAD_XDICTIONARY
360
39C
102
}
102
{ACAD_REACTORS
330
2F7
102
}
330
2F7
100
AcDbModelDocViewStyle
 70
     0
  3
Metric50
290
     0
100
AcDbSectionViewStyle
 70
     0
 71
     0
 90
      102
 71
     1
340
11
 62
   256
 40
5.0
340
0
340
0
 62
   256
 40
5.0
300
I, O, Q, S, X, Z
 40
10.0
 90
        0
 40
2.5
 90
        0
 71
     2
340
16
 90
       25
 62
   256
340
16
 90
       50
 62
   256
 40
5.0
 40
2.5
 40
5.0
 71
     3
340
11
 62
   256
 40
5.0
 90
        0
 40
15.0
 90
        1
300
%<\AcVar ViewSectionStartId>%-%<\AcVar ViewSectionEndId>% (%<\AcVar ViewScale \f "%sn">%)
 71
     4
 62
   256
 62
   257
300
ANSI31
 40
1.0
 90
        0
290
     0
290
     0
 90
        6
 40
0.0
 40
1.570796326794896
 40
0.2617993877991494
 40
1.308996938995747
 40
-0.2617993877991494
 40
1.832595714594046
  0
TABLESTYLE
  5
6A
102
{ACAD_XDICTIONARY
360
2ED
102
}
102
{ACAD_REACTORS
330
69
102
}
330
69
100
AcDbTableStyle
  3
Standard
 70
     0
 71
     0
 40
0.06
 41
0.06
280
     0
281
     0
  7
Standard
140
0.18
170
     2
 62
     0
 63
     7
283
     0
274
    -2
284
     1
 64
     0
275
    -2
285
     1
 65
     0
276
    -2
286
     1
 66
     0
277
    -2
287
     1
 67
     0
278
    -2
288
     1
 68
     0
279
    -2
289
     1
 69
     0
  7
Standard
140
0.25
170
     5
 62
     0
 63
     7
283
     0
274
    -2
284
     1
 64
     0
275
    -2
285
     1
 65
     0
276
    -2
286
     1
 66
     0
277
    -2
287
     1
 67
     0
278
    -2
288
     1
 68
     0
279
    -2
289
     1
 69
     0
  7
Standard
140
0.18
170
     5
 62
     0
 63
     7
283
     0
274
    -2
284
     1
 64
     0
275
    -2
285
     1
 65
     0
276
    -2
286
     1
 66
     0
277
    -2
287
     1
 67
     0
278
    -2
288
     1
 68
     0
279
    -2
289
     1
 69
     0
  0
VISUALSTYLE
  5
2F
102
{ACAD_XDICTIONARY
360
373
102
}
102
{ACAD_REACTORS
330
2A
102
}
330
2A
100
AcDbVisualStyle
  2

 70
     4
 71
     0
 72
     2
 73
     0
 90
        0
 40
-0.6
 41
-30.0
 62
     5
 63
     7
421
 16777215
 74
     1
 91
        4
 64
     7
 65
   257
 75
     1
175
     1
 42
1.0
 92
        0
 66
   257
 43
1.0
 76
     1
 77
     6
 78
     2
 67
     7
 79
     5
170
     0
171
     0
290
     0
174
     0
 93
        1
 44
0.0
173
     0
291
     0
 45
0.0
1001
ACAD
1000
AcDbSavedByObjectVersion
1070
     0
  0
VISUALSTYLE
  5
32
102
{ACAD_XDICTIONARY
360
379
102
}
102
{ACAD_REACTORS
330
2A
102
}
330
2A
100
AcDbVisualStyle
  2

 70
     7
 71
     1
 72
     0
 73
     1
 90
        0
 40
-0.6
 41
-30.0
 62
     5
 63
     7
421
 16777215
 74
     0
 91
        4
 64
     7
 65
   257
 75
     1
175
     1
 42
1.0
 92
        8
 66
     7
 43
1.0
 76
     1
 77
     6
 78
     2
 67
     7
 79
     5
170
     0
171
     0
290
     0
174
     0
 93
        1
 44
0.0
173
     0
291
     1
 45
0.0
1001
ACAD
1000
AcDbSavedByObjectVersion
1070
     0
  0
VISUALSTYLE
  5
36
102
{ACAD_XDICTIONARY
360
381
102
}
102
{ACAD_REACTORS
330
2A
102
}
330
2A
100
AcDbVisualStyle
  2

 70
    12
 71
     2
 72
     2
 73
     0
 90
        0
 40
-0.6
 41
-30.0
 62
     5
 63
     7
421
 16777215
 74
     1
 91
        4
 64
     7
 65
   257
 75
     1
175
     1
 42
1.0
 92
        8
 66
     7
 43
1.0
 76
     1
 77
     6
 78
     2
 67
     7
 79
     5
170
     0
171
     0
290
     0
174
     0
 93
        1
 44
50.0
173
     0
291
     1
 45
0.0
1001
ACAD
1000
AcDbSavedByObjectVersion
1070
     0
  0
VISUALSTYLE
  5
3A
102
{ACAD_XDICTIONARY
360
389
102
}
102
{ACAD_REACTORS
330
2A
102
}
330
2A
100
AcDbVisualStyle
  2

 70
    16
 71
     2
 72
     2
 73
     3
 90
        0
 40
-0.6
 41
-30.0
 62
     5
 63
     8
421
  8421504
 74
     1
 91
        4
 64
     7
 65
   257
 75
     1
175
     1
 42
1.0
 92
        8
 66
     8
424
  8421504
 43
1.0
 76
     1
 77
     6
 78
     2
 67
     7
 79
     5
170
     0
171
     0
290
     0
174
     0
 93
        1
 44
0.0
173
     0
291
     1
 45
0.0
1001
ACAD
1000
AcDbSavedByObjectVersion
1070
     0
  0
VISUALSTYLE
  5
34
102
{ACAD_XDICTIONARY
360
37D
102
}
102
{ACAD_REACTORS
330
2A
102
}
330
2A
100
AcDbVisualStyle
  2

 70
     9
 71
     3
 72
     2
 73
     0
 90
        0
 40
-0.6
 41
-30.0
 62
     5
 63
     7
421
 16777215
 74
     2
 91
        2
 64
     7
 65
   257
 75
     1
175
     1
 42
179.0
 92
        8
 66
     7
 43
1.0
 76
     1
 77
     6
 78
     2
 67
     7
 79
     3
170
     0
171
     0
290
     0
174
     0
 93
        1
 44
0.0
173
     0
291
     0
 45
0.0
1001
ACAD
1000
AcDbSavedByObjectVersion
1070
     0
  0
VISUALSTYLE
  5
35
102
{ACAD_XDICTIONARY
360
37F
102
}
102
{ACAD_REACTORS
330
2A
102
}
330
2A
100
AcDbVisualStyle
  2

 70
    11
 71
     2
 72
     2
 73
     0
 90
        0
 40
-0.6
 41
-30.0
 62
     5
 63
     7
421
 16777215
 74
     1
 91
        4
 64
     7
 65
   257
 75
     1
175
     1
 42
1.0
 92
        8
 66
     7
 43
1.0
 76
     1
 77
     6
 78
     2
 67
     7
 79
     5
170
     0
171
     0
290
     0
174
     0
 93
        1
 44
-50.0
173
     0
291
     1
 45
0.0
1001
ACAD
1000
AcDbSavedByObjectVersion
1070
     0
  0
VISUALSTYLE
  5
3D
102
{ACAD_XDICTIONARY
360
38F
102
}
102
{ACAD_REACTORS
330
2A
102
}
330
2A
100
AcDbVisualStyle
  2

 70
    22
 71
     2
 72
     2
 73
     0
 90
        0
 40
-0.6
 41
-30.0
 62
     5
 63
     7
421
 16777215
 74
     1
 91
        4
 64
     7
 65
   257
 75
     1
175
     1
 42
1.0
 92
        8
 66
     7
 43
1.0
 76
     1
 77
     6
 78
     2
 67
     7
 79
     5
170
     0
171
     0
290
     0
174
     0
 93
        1
 44
0.0
173
     0
291
     1
 45
0.0
1001
ACAD
1000
AcDbSavedByObjectVersion
1070
     0
  0
VISUALSTYLE
  5
39
102
{ACAD_XDICTIONARY
360
387
102
}
102
{ACAD_REACTORS
330
2A
102
}
330
2A
100
AcDbVisualStyle
  2

 70
    15
 71
     2
 72
     2
 73
     0
 90
        0
 40
-0.6
 41
-30.0
 62
     5
 63
     7
421
 16777215
 74
     1
 91
        4
 64
     7
 65
   257
 75
     1
175
     1
 42
1.0
 92
        8
 66
     7
 43
1.0
 76
     1
 77
     6
 78
     2
 67
     7
 79
     5
170
     0
171
     0
290
     0
174
     0
 93
        1
 44
0.0
173
     0
291
     1
 45
0.0
1001
ACAD
1000
AcDbSavedByObjectVersion
1070
     0
  0
VISUALSTYLE
  5
2B
102
{ACAD_XDICTIONARY
360
36B
102
}
102
{ACAD_REACTORS
330
2A
102
}
330
2A
100
AcDbVisualStyle
  2

 70
     0
 71
     2
 72
     1
 73
     1
 90
        2
 40
-0.6
 41
30.0
 62
     5
 63
     7
421
 16777215
 74
     0
 91
        0
 64
     7
 65
   257
 75
     1
175
     1
 42
1.0
 92
        8
 66
     7
 43
1.0
 76
     1
 77
     6
 78
     2
 67
     7
 79
     5
170
     0
171
     0
290
     0
174
     0
 93
       13
 44
0.0
173
     0
291
     1
 45
0.0
1001
ACAD
1000
AcDbSavedByObjectVersion
1070
     0
  0
VISUALSTYLE
  5
2C
102
{ACAD_XDICTIONARY
360
36D
102
}
102
{ACAD_REACTORS
330
2A
102
}
330
2A
100
AcDbVisualStyle
  2

 70
     1
 71
     2
 72
     1
 73
     1
 90
        2
 40
-0.6
 41
30.0
 62
     5
 63
     7
421
 16777215
 74
     1
 91
        0
 64
     7
 65
   257
 75
     1
175
     1
 42
1.0
 92
        0
 66
   257
 43
1.0
 76
     1
 77
     6
 78
     2
 67
     7
 79
     5
170
     0
171
     0
290
     0
174
     0
 93
       13
 44
0.0
173
     0
291
     1
 45
0.0
1001
ACAD
1000
AcDbSavedByObjectVersion
1070
     0
  0
VISUALSTYLE
  5
2D
102
{ACAD_XDICTIONARY
360
36F
102
}
102
{ACAD_REACTORS
330
2A
102
}
330
2A
100
AcDbVisualStyle
  2

 70
     2
 71
     2
 72
     2
 73
     1
 90
        2
 40
-0.6
 41
30.0
 62
     5
 63
     7
421
 16777215
 74
     0
 91
        0
 64
     7
 65
   257
 75
     1
175
     1
 42
1.0
 92
        0
 66
     7
 43
1.0
 76
     1
 77
     6
 78
     2
 67
     7
 79
     5
170
     0
171
     0
290
     0
174
     0
 93
       13
 44
0.0
173
     0
291
     1
 45
0.0
1001
ACAD
1000
AcDbSavedByObjectVersion
1070
     0
  0
VISUALSTYLE
  5
2E
102
{ACAD_XDICTIONARY
360
371
102
}
102
{ACAD_REACTORS
330
2A
102
}
330
2A
100
AcDbVisualStyle
  2

 70
     3
 71
     2
 72
     2
 73
     1
 90
        2
 40
-0.6
 41
30.0
 62
     5
 63
     7
421
 16777215
 74
     1
 91
        0
 64
     7
 65
   257
 75
     1
175
     1
 42
1.0
 92
        0
 66
   257
 43
1.0
 76
     1
 77
     6
 78
     2
 67
     7
 79
     5
170
     0
171
     0
290
     0
174
     0
 93
       13
 44
0.0
173
     0
291
     1
 45
0.0
1001
ACAD
1000
AcDbSavedByObjectVersion
1070
     0
  0
VISUALSTYLE
  5
31
102
{ACAD_XDICTIONARY
360
377
102
}
102
{ACAD_REACTORS
330
2A
102
}
330
2A
100
AcDbVisualStyle
  2

 70
     6
 71
     1
 72
     2
 73
     2
 90
        0
 40
-0.6
 41
-30.0
 62
     5
 63
     7
421
 16777215
 74
     2
 91
        2
 64
     7
 65
   257
 75
     2
175
     1
 42
40.0
 92
        0
 66
   257
 43
1.0
 76
     1
 77
     6
 78
     2
 67
     7
 79
     3
170
     0
171
     0
290
     0
174
     0
 93
        1
 44
0.0
173
     0
291
     0
 45
0.0
1001
ACAD
1000
AcDbSavedByObjectVersion
1070
     0
  0
VISUALSTYLE
  5
3B
102
{ACAD_XDICTIONARY
360
38B
102
}
102
{ACAD_REACTORS
330
2A
102
}
330
2A
100
AcDbVisualStyle
  2

 70
    20
 71
     2
 72
     2
 73
     0
 90
        0
 40
-0.6
 41
-30.0
 62
     5
 63
     7
421
 16777215
 74
     1
 91
        4
 64
     7
 65
   257
 75
     1
175
     1
 42
1.0
 92
       10
 66
     7
 43
1.0
 76
     1
 77
     6
 78
     2
 67
     7
 79
     5
170
     0
171
     0
290
     0
174
     0
 93
        1
 44
0.0
173
     0
291
     1
 45
0.0
1001
ACAD
1000
AcDbSavedByObjectVersion
1070
     0
  0
VISUALSTYLE
  5
38
102
{ACAD_XDICTIONARY
360
385
102
}
102
{ACAD_REACTORS
330
2A
102
}
330
2A
100
AcDbVisualStyle
  2

 70
    14
 71
     2
 72
     2
 73
     0
 90
        0
 40
-0.6
 41
-30.0
 62
     5
 63
     7
421
 16777215
 74
     1
 91
        4
 64
     7
 65
   257
 75
     7
175
     7
 42
1.0
 92
        8
 66
     7
 43
1.0
 76
     1
 77
     6
 78
     2
 67
     7
 79
     5
170
     0
171
     0
290
     0
174
     0
 93
        1
 44
0.0
173
     0
291
     1
 45
0.0
1001
ACAD
1000
AcDbSavedByObjectVersion
1070
     0
  0
VISUALSTYLE
  5
3C
102
{ACAD_XDICTIONARY
360
38D
102
}
102
{ACAD_REACTORS
330
2A
102
}
330
2A
100
AcDbVisualStyle
  2

 70
    21
 71
     2
 72
     2
 73
     0
 90
        0
 40
-0.6
 41
-30.0
 62
     5
 63
     7
421
 16777215
 74
     1
 91
        4
 64
     7
 65
   257
 75
     1
175
     1
 42
1.0
 92
        9
 66
     7
 43
1.0
 76
     1
 77
     6
 78
     2
 67
     7
 79
     5
170
     0
171
     0
290
     0
174
     0
 93
        1
 44
0.0
173
     0
291
     1
 45
0.0
1001
ACAD
1000
AcDbSavedByObjectVersion
1070
     0
  0
VISUALSTYLE
  5
33
102
{ACAD_XDICTIONARY
360
37B
102
}
102
{ACAD_REACTORS
330
2A
102
}
330
2A
100
AcDbVisualStyle
  2

 70
     8
 71
     2
 72
     3
 73
     0
 90
        2
 40
-0.6
 41
30.0
 62
     5
 63
     7
421
 16777215
 74
     0
 91
        0
 64
     7
 65
   257
 75
     1
175
     1
 42
1.0
 92
        8
 66
   257
 43
1.0
 76
     1
 77
     6
 78
     2
 67
     7
 79
     3
170
     0
171
     0
290
     0
174
     0
 93
       13
 44
0.0
173
     0
291
     0
 45
0.0
1001
ACAD
1000
AcDbSavedByObjectVersion
1070
     0
  0
VISUALSTYLE
  5
42
102
{ACAD_XDICTIONARY
360
399
102
}
102
{ACAD_REACTORS
330
2A
102
}
330
2A
100
AcDbVisualStyle
  2

 70
    27
 71
     2
 72
     2
 73
     1
 90
        2
 40
-0.6
 41
30.0
 62
     5
 63
     7
421
 16777215
 74
     0
 91
        4
 64
     7
 65
   257
 75
     1
175
     1
 42
1.0
 92
        8
 66
   257
 43
1.0
 76
     1
 77
     6
 78
     2
 67
     8
425
  7895160
 79
     3
170
     0
171
     0
290
     0
174
     0
 93
        5
 44
0.0
173
     0
291
     0
 45
0.0
1001
ACAD
1000
AcDbSavedByObjectVersion
1070
     0
  0
VISUALSTYLE
  5
41
102
{ACAD_XDICTIONARY
360
397
102
}
102
{ACAD_REACTORS
330
2A
102
}
330
2A
100
AcDbVisualStyle
  2

 70
    26
 71
     2
 72
     2
 73
     1
 90
        2
 40
-0.6
 41
30.0
 62
     5
 63
     7
421
 16777215
 74
     1
 91
       10
 64
     7
 65
   257
 75
     2
175
     1
 42
1.0
 92
        8
 66
   257
 43
1.0
 76
     1
 77
     6
 78
     2
 67
     7
 79
     3
170
     0
171
     0
290
     0
174
     0
 93
        5
 44
0.0
173
     0
291
     0
 45
0.0
1001
ACAD
1000
AcDbSavedByObjectVersion
1070
     0
  0
VISUALSTYLE
  5
3E
102
{ACAD_XDICTIONARY
360
391
102
}
102
{ACAD_REACTORS
330
2A
102
}
330
2A
100
AcDbVisualStyle
  2

 70
    23
 71
     2
 72
     2
 73
     3
 90
        0
 40
-0.6
 41
-30.0
 62
     5
 63
     7
421
 16777215
 74
     2
 91
        2
 64
     7
 65
     7
 75
     1
175
     1
 42
40.0
 92
        8
 66
     7
 43
1.0
 76
     1
 77
     6
 78
     2
 67
     7
 79
     3
170
     0
171
     0
290
     0
174
     0
 93
        1
 44
0.0
173
     0
291
     0
 45
0.0
1001
ACAD
1000
AcDbSavedByObjectVersion
1070
     0
  0
VISUALSTYLE
  5
3F
102
{ACAD_XDICTIONARY
360
393
102
}
102
{ACAD_REACTORS
330
2A
102
}
330
2A
100
AcDbVisualStyle
  2

 70
    24
 71
     1
 72
     2
 73
     2
 90
        0
 40
-0.6
 41
-30.0
 62
     5
 63
     7
421
 16777215
 74
     2
 91
        2
 64
     7
 65
     7
 75
     1
175
     1
 42
40.0
 92
       11
 66
     7
 43
1.0
 76
     1
 77
     6
 78
     2
 67
     7
 79
     6
170
     0
171
     0
290
     0
174
     0
 93
        1
 44
0.0
173
     0
291
     0
 45
0.0
1001
ACAD
1000
AcDbSavedByObjectVersion
1070
     0
  0
VISUALSTYLE
  5
37
102
{ACAD_XDICTIONARY
360
383
102
}
102
{ACAD_REACTORS
330
2A
102
}
330
2A
100
AcDbVisualStyle
  2

 70
    13
 71
     2
 72
     2
 73
     0
 90
        0
 40
-0.6
 41
-30.0
 62
     5
 63
     7
421
 16777215
 74
     1
 91
        4
 64
     7
 65
   257
 75
     1
175
     1
 42
1.0
 92
       12
 66
     7
 43
1.0
 76
     1
 77
     6
 78
     2
 67
     7
 79
     5
170
     0
171
     0
290
     0
174
     0
 93
        1
 44
0.0
173
     0
291
     1
 45
0.0
1001
ACAD
1000
AcDbSavedByObjectVersion
1070
     0
  0
VISUALSTYLE
  5
30
102
{ACAD_XDICTIONARY
360
375
102
}
102
{ACAD_REACTORS
330
2A
102
}
330
2A
100
AcDbVisualStyle
  2

 70
     5
 71
     0
 72
     2
 73
     0
 90
        0
 40
-0.6
 41
-30.0
 62
     5
 63
     7
421
 16777215
 74
     1
 91
        4
 64
     7
 65
   257
 75
     1
175
     1
 42
1.0
 92
        0
 66
   257
 43
1.0
 76
     1
 77
     6
 78
     2
 67
     7
 79
     3
170
     0
171
     0
290
     0
174
     0
 93
        1
 44
0.0
173
     0
291
     0
 45
0.0
1001
ACAD
1000
AcDbSavedByObjectVersion
1070
     0
  0
VISUALSTYLE
  5
40
102
{ACAD_XDICTIONARY
360
395
102
}
102
{ACAD_REACTORS
330
2A
102
}
330
2A
100
AcDbVisualStyle
  2

 70
    25
 71
     2
 72
     2
 73
     1
 90
        1
 40
0.5
 41
-30.0
 62
     5
 63
     7
421
 16777215
 74
     1
 91
        0
 64
     7
 65
   257
 75
     1
175
     1
 42
1.0
 92
        8
 66
     7
 43
1.0
 76
     1
 77
     6
 78
     2
 67
     7
 79
     3
170
     0
171
     0
290
     0
174
     0
 93
       13
 44
0.0
173
     0
291
     0
 45
0.0
1001
ACAD
1000
AcDbSavedByObjectVersion
1070
     0
  0
DICTIONARYVAR
  5
2B4
102
{ACAD_REACTORS
330
2B3
102
}
330
2B3
100
DictionaryVariables
280
     0
  1
1:1
  0
DICTIONARYVAR
  5
2F5
102
{ACAD_REACTORS
330
2B3
102
}
330
2B3
100
DictionaryVariables
280
     0
  1
STANDARD
  0
DICTIONARYVAR
  5
2F4
102
{ACAD_REACTORS
330
2B3
102
}
330
2B3
100
DictionaryVariables
280
     0
  1
STANDARD
  0
DICTIONARYVAR
  5
366
102
{ACAD_REACTORS
330
2B3
102
}
330
2B3
100
DictionaryVariables
280
     0
  1
Metric50
  0
DICTIONARYVAR
  5
367
102
{ACAD_REACTORS
330
2B3
102
}
330
2B3
100
DictionaryVariables
280
     0
  1
Metric50
  0
DICTIONARYVAR
  5
2B5
102
{ACAD_REACTORS
330
2B3
102
}
330
2B3
100
DictionaryVariables
280
     0
  1
1
  0
DICTIONARYVAR
  5
368
102
{ACAD_REACTORS
330
2B3
102
}
330
2B3
100
DictionaryVariables
280
     0
  1
2
  0
DICTIONARY
  5
39E
330
2FC
100
AcDbDictionary
280
     1
281
     1
  3
ACAD_XREC_ROUNDTRIP
360
39F
  0
DICTIONARY
  5
2E9
330
45
100
AcDbDictionary
280
     1
281
     1
  3
ACAD_XREC_ROUNDTRIP
360
2EA
  0
DICTIONARY
  5
2E7
330
44
100
AcDbDictionary
280
     1
281
     1
  3
ACAD_XREC_ROUNDTRIP
360
2E8
  0
DICTIONARY
  5
2EB
330
46
100
AcDbDictionary
280
     1
281
     1
  3
ACAD_XREC_ROUNDTRIP
360
2EC
  0
DICTIONARY
  5
39C
330
2FB
100
AcDbDictionary
280
     1
281
     1
  3
ACAD_XREC_ROUNDTRIP
360
39D
  0
DICTIONARY
  5
2ED
330
6A
100
AcDbDictionary
280
     1
281
     1
  3
ACAD_ROUNDTRIP_2008_TABLESTYLE_CELLSTYLEMAP
360
369
  3
ACAD_XREC_ROUNDTRIP
360
39B
  0
DICTIONARY
  5
373
330
2F
100
AcDbDictionary
280
     1
281
     1
  3
ACAD_XREC_ROUNDTRIP
360
374
  0
DICTIONARY
  5
379
330
32
100
AcDbDictionary
280
     1
281
     1
  3
ACAD_XREC_ROUNDTRIP
360
37A
  0
DICTIONARY
  5
381
330
36
100
AcDbDictionary
280
     1
281
     1
  3
ACAD_XREC_ROUNDTRIP
360
382
  0
DICTIONARY
  5
389
330
3A
100
AcDbDictionary
280
     1
281
     1
  3
ACAD_XREC_ROUNDTRIP
360
38A
  0
DICTIONARY
  5
37D
330
34
100
AcDbDictionary
280
     1
281
     1
  3
ACAD_XREC_ROUNDTRIP
360
37E
  0
DICTIONARY
  5
37F
330
35
100
AcDbDictionary
280
     1
281
     1
  3
ACAD_XREC_ROUNDTRIP
360
380
  0
DICTIONARY
  5
38F
330
3D
100
AcDbDictionary
280
     1
281
     1
  3
ACAD_XREC_ROUNDTRIP
360
390
  0
DICTIONARY
  5
387
330
39
100
AcDbDictionary
280
     1
281
     1
  3
ACAD_XREC_ROUNDTRIP
360
388
  0
DICTIONARY
  5
36B
330
2B
100
AcDbDictionary
280
     1
281
     1
  3
ACAD_XREC_ROUNDTRIP
360
36C
  0
DICTIONARY
  5
36D
330
2C
100
AcDbDictionary
280
     1
281
     1
  3
ACAD_XREC_ROUNDTRIP
360
36E
  0
DICTIONARY
  5
36F
330
2D
100
AcDbDictionary
280
     1
281
     1
  3
ACAD_XREC_ROUNDTRIP
360
370
  0
DICTIONARY
  5
371
330
2E
100
AcDbDictionary
280
     1
281
     1
  3
ACAD_XREC_ROUNDTRIP
360
372
  0
DICTIONARY
  5
377
330
31
100
AcDbDictionary
280
     1
281
     1
  3
ACAD_XREC_ROUNDTRIP
360
378
  0
DICTIONARY
  5
38B
330
3B
100
AcDbDictionary
280
     1
281
     1
  3
ACAD_XREC_ROUNDTRIP
360
38C
  0
DICTIONARY
  5
385
330
38
100
AcDbDictionary
280
     1
281
     1
  3
ACAD_XREC_ROUNDTRIP
360
386
  0
DICTIONARY
  5
38D
330
3C
100
AcDbDictionary
280
     1
281
     1
  3
ACAD_XREC_ROUNDTRIP
360
38E
  0
DICTIONARY
  5
37B
330
33
100
AcDbDictionary
280
     1
281
     1
  3
ACAD_XREC_ROUNDTRIP
360
37C
  0
DICTIONARY
  5
399
330
42
100
AcDbDictionary
280
     1
281
     1
  3
ACAD_XREC_ROUNDTRIP
360
39A
  0
DICTIONARY
  5
397
330
41
100
AcDbDictionary
280
     1
281
     1
  3
ACAD_XREC_ROUNDTRIP
360
398
  0
DICTIONARY
  5
391
330
3E
100
AcDbDictionary
280
     1
281
     1
  3
ACAD_XREC_ROUNDTRIP
360
392
  0
DICTIONARY
  5
393
330
3F
100
AcDbDictionary
280
     1
281
     1
  3
ACAD_XREC_ROUNDTRIP
360
394
  0
DICTIONARY
  5
383
330
37
100
AcDbDictionary
280
     1
281
     1
  3
ACAD_XREC_ROUNDTRIP
360
384
  0
DICTIONARY
  5
375
330
30
100
AcDbDictionary
280
     1
281
     1
  3
ACAD_XREC_ROUNDTRIP
360
376
  0
DICTIONARY
  5
395
330
40
100
AcDbDictionary
280
     1
281
     1
  3
ACAD_XREC_ROUNDTRIP
360
396
  0
XRECORD
  5
39F
102
{ACAD_REACTORS
330
39E
102
}
330
39E
100
AcDbXrecord
280
     1
102
DISPLAYNAME
  1
Metric50
102
FLAGS
 90
        0
  0
XRECORD
  5
2EA
102
{ACAD_REACTORS
330
2E9
102
}
330
2E9
100
AcDbXrecord
280
     1
102
MATERIAL
148
0.0
149
0.0
149
0.0
 93
        0
 94
      127
282
     0
 72
     1
 77
     1
171
     1
175
     1
179
     1
273
     0
  0
XRECORD
  5
2E8
102
{ACAD_REACTORS
330
2E7
102
}
330
2E7
100
AcDbXrecord
280
     1
102
MATERIAL
148
0.0
149
0.0
149
0.0
 93
        0
 94
      127
282
     0
 72
     1
 77
     1
171
     1
175
     1
179
     1
273
     0
  0
XRECORD
  5
2EC
102
{ACAD_REACTORS
330
2EB
102
}
330
2EB
100
AcDbXrecord
280
     1
102
MATERIAL
148
0.0
149
0.0
149
0.0
 93
        0
 94
      127
282
     0
 72
     1
 77
     1
171
     1
175
     1
179
     1
273
     0
  0
XRECORD
  5
39D
102
{ACAD_REACTORS
330
39C
102
}
330
39C
100
AcDbXrecord
280
     1
102
DISPLAYNAME
  1
Metric50
102
FLAGS
 90
        0
  0
CELLSTYLEMAP
  5
369
102
{ACAD_REACTORS
330
2ED
102
}
330
2ED
100
AcDbCellStyleMap
 90
        3
300
CELLSTYLE
  1
TABLEFORMAT_BEGIN
 90
        5
170
     1
 91
        0
 92
    32768
 62
   257
 93
        1
300
CONTENTFORMAT
  1
CONTENTFORMAT_BEGIN
 90
        0
 91
        0
 92
        4
 93
        0
300

 40
0.0
140
1.0
 94
        5
 62
     0
340
11
144
0.25
309
CONTENTFORMAT_END
171
     1
301
MARGIN
  1
CELLMARGIN_BEGIN
 40
0.06
 40
0.06
 40
0.06
 40
0.06
 40
0.18
 40
0.18
309
CELLMARGIN_END
 94
        6
 95
        1
302
GRIDFORMAT
  1
GRIDFORMAT_BEGIN
 90
        0
 91
        1
 62
     0
 92
       -2
340
14
 93
        0
 40
0.045
309
GRIDFORMAT_END
 95
        2
302
GRIDFORMAT
  1
GRIDFORMAT_BEGIN
 90
        0
 91
        1
 62
     0
 92
       -2
340
14
 93
        0
 40
0.045
309
GRIDFORMAT_END
 95
        4
302
GRIDFORMAT
  1
GRIDFORMAT_BEGIN
 90
        0
 91
        1
 62
     0
 92
       -2
340
14
 93
        0
 40
0.045
309
GRIDFORMAT_END
 95
        8
302
GRIDFORMAT
  1
GRIDFORMAT_BEGIN
 90
        0
 91
        1
 62
     0
 92
       -2
340
14
 93
        0
 40
0.045
309
GRIDFORMAT_END
 95
       16
302
GRIDFORMAT
  1
GRIDFORMAT_BEGIN
 90
        0
 91
        1
 62
     0
 92
       -2
340
14
 93
        0
 40
0.045
309
GRIDFORMAT_END
 95
       32
302
GRIDFORMAT
  1
GRIDFORMAT_BEGIN
 90
        0
 91
        1
 62
     0
 92
       -2
340
14
 93
        0
 40
0.045
309
GRIDFORMAT_END
309
TABLEFORMAT_END
  1
CELLSTYLE_BEGIN
 90
        1
 91
        1
300
_TITLE
309
CELLSTYLE_END
300
CELLSTYLE
  1
TABLEFORMAT_BEGIN
 90
        5
170
     1
 91
        0
 92
        0
 62
   257
 93
        1
300
CONTENTFORMAT
  1
CONTENTFORMAT_BEGIN
 90
        0
 91
        0
 92
        4
 93
        0
300

 40
0.0
140
1.0
 94
        5
 62
     0
340
11
144
0.18
309
CONTENTFORMAT_END
171
     1
301
MARGIN
  1
CELLMARGIN_BEGIN
 40
0.06
 40
0.06
 40
0.06
 40
0.06
 40
0.18
 40
0.18
309
CELLMARGIN_END
 94
        6
 95
        1
302
GRIDFORMAT
  1
GRIDFORMAT_BEGIN
 90
        0
 91
        1
 62
     0
 92
       -2
340
14
 93
        0
 40
0.045
309
GRIDFORMAT_END
 95
        2
302
GRIDFORMAT
  1
GRIDFORMAT_BEGIN
 90
        0
 91
        1
 62
     0
 92
       -2
340
14
 93
        0
 40
0.045
309
GRIDFORMAT_END
 95
        4
302
GRIDFORMAT
  1
GRIDFORMAT_BEGIN
 90
        0
 91
        1
 62
     0
 92
       -2
340
14
 93
        0
 40
0.045
309
GRIDFORMAT_END
 95
        8
302
GRIDFORMAT
  1
GRIDFORMAT_BEGIN
 90
        0
 91
        1
 62
     0
 92
       -2
340
14
 93
        0
 40
0.045
309
GRIDFORMAT_END
 95
       16
302
GRIDFORMAT
  1
GRIDFORMAT_BEGIN
 90
        0
 91
        1
 62
     0
 92
       -2
340
14
 93
        0
 40
0.045
309
GRIDFORMAT_END
 95
       32
302
GRIDFORMAT
  1
GRIDFORMAT_BEGIN
 90
        0
 91
        1
 62
     0
 92
       -2
340
14
 93
        0
 40
0.045
309
GRIDFORMAT_END
309
TABLEFORMAT_END
  1
CELLSTYLE_BEGIN
 90
        2
 91
        1
300
_HEADER
309
CELLSTYLE_END
300
CELLSTYLE
  1
TABLEFORMAT_BEGIN
 90
        5
170
     1
 91
        0
 92
        0
 62
   257
 93
        1
300
CONTENTFORMAT
  1
CONTENTFORMAT_BEGIN
 90
        0
 91
        0
 92
        4
 93
        0
300

 40
0.0
140
1.0
 94
        2
 62
     0
340
11
144
0.18
309
CONTENTFORMAT_END
171
     1
301
MARGIN
  1
CELLMARGIN_BEGIN
 40
0.06
 40
0.06
 40
0.06
 40
0.06
 40
0.18
 40
0.18
309
CELLMARGIN_END
 94
        6
 95
        1
302
GRIDFORMAT
  1
GRIDFORMAT_BEGIN
 90
        0
 91
        1
 62
     0
 92
       -2
340
14
 93
        0
 40
0.045
309
GRIDFORMAT_END
 95
        2
302
GRIDFORMAT
  1
GRIDFORMAT_BEGIN
 90
        0
 91
        1
 62
     0
 92
       -2
340
14
 93
        0
 40
0.045
309
GRIDFORMAT_END
 95
        4
302
GRIDFORMAT
  1
GRIDFORMAT_BEGIN
 90
        0
 91
        1
 62
     0
 92
       -2
340
14
 93
        0
 40
0.045
309
GRIDFORMAT_END
 95
        8
302
GRIDFORMAT
  1
GRIDFORMAT_BEGIN
 90
        0
 91
        1
 62
     0
 92
       -2
340
14
 93
        0
 40
0.045
309
GRIDFORMAT_END
 95
       16
302
GRIDFORMAT
  1
GRIDFORMAT_BEGIN
 90
        0
 91
        1
 62
     0
 92
       -2
340
14
 93
        0
 40
0.045
309
GRIDFORMAT_END
 95
       32
302
GRIDFORMAT
  1
GRIDFORMAT_BEGIN
 90
        0
 91
        1
 62
     0
 92
       -2
340
14
 93
        0
 40
0.045
309
GRIDFORMAT_END
309
TABLEFORMAT_END
  1
CELLSTYLE_BEGIN
 90
        3
 91
        2
300
_DATA
309
CELLSTYLE_END
  0
XRECORD
  5
39B
102
{ACAD_REACTORS
330
2ED
102
}
330
2ED
100
AcDbXrecord
280
     1
102
ACAD_ROUNDTRIP_PRE2007_TABLESTYLE
 90
        4
 91
        0
  1

 92
        4
 93
        0
  2

 94
        4
 95
        0
  3

  0
XRECORD
  5
374
102
{ACAD_REACTORS
330
373
102
}
330
373
100
AcDbXrecord
280
     1
102
RTVSPost2010Prop28
280
     1
102
RTVSPost2010PropOp28
 70
     1
102
RTVSPost2010Prop29
280
     1
102
RTVSPost2010PropOp29
 70
     1
102
RTVSPost2010Prop30
280
     0
102
RTVSPost2010PropOp30
 70
     1
102
RTVSPost2010Prop31
280
     0
102
RTVSPost2010PropOp31
 70
     1
102
RTVSPost2010Prop32
280
     0
102
RTVSPost2010PropOp32
 70
     1
102
RTVSPost2010Prop33
280
     0
102
RTVSPost2010PropOp33
 70
     1
102
RTVSPost2010Prop34
280
     0
102
RTVSPost2010PropOp34
 70
     1
102
RTVSPost2010Prop35
280
     0
102
RTVSPost2010PropOp35
 70
     1
102
RTVSPost2010Prop36
280
     0
102
RTVSPost2010PropOp36
 70
     1
102
RTVSPost2010Prop37
 90
       50
102
RTVSPost2010PropOp37
 70
     1
102
RTVSPost2010Prop38
140
0.0
102
RTVSPost2010PropOp38
 70
     1
102
RTVSPost2010Prop39
140
1.0
102
RTVSPost2010PropOp39
 70
     1
102
RTVSPost2010Prop40
 90
        0
102
RTVSPost2010PropOp40
 70
     1
102
RTVSPost2010Prop41ColorIndex
 90
       18
102
RTVSPost2010Prop41ColorRGB
 90
        0
102
RTVSPost2010PropOp41
 70
     1
102
RTVSPost2010Prop42
 90
       50
102
RTVSPost2010PropOp42
 70
     1
102
RTVSPost2010Prop43
 90
        3
102
RTVSPost2010PropOp43
 70
     1
102
RTVSPost2010Prop44ColorIndex
 90
        5
102
RTVSPost2010Prop44ColorRGB
 90
      255
102
RTVSPost2010PropOp44
 70
     1
102
RTVSPost2010Prop45
280
     0
102
RTVSPost2010PropOp45
 70
     1
102
RTVSPost2010Prop46
 90
       50
102
RTVSPost2010PropOp46
 70
     1
102
RTVSPost2010Prop47
 90
       50
102
RTVSPost2010PropOp47
 70
     1
102
RTVSPost2010Prop48
 90
       50
102
RTVSPost2010PropOp48
 70
     1
102
RTVSPost2010Prop49
280
     0
102
RTVSPost2010PropOp49
 70
     1
102
RTVSPost2010Prop50
 90
       50
102
RTVSPost2010PropOp50
 70
     1
102
RTVSPost2010Prop51ColorIndex
 90
      256
102
RTVSPost2010Prop51ColorRGB
 90
-16777216
102
RTVSPost2010PropOp51
 70
     0
102
RTVSPost2010Prop52
140
1.0
102
RTVSPost2010PropOp52
 70
     0
102
RTVSPost2010Prop53
 90
        2
102
RTVSPost2010PropOp53
 70
     1
102
RTVSPost2010Prop54
  1
strokes_ogs.tif
102
RTVSPost2010PropOp54
 70
     1
102
RTVSPost2010Prop55
280
     0
102
RTVSPost2010PropOp55
 70
     1
102
RTVSPost2010Prop56
140
1.0
102
RTVSPost2010PropOp56
 70
     1
102
RTVSPost2010Prop57
140
1.0
102
RTVSPost2010PropOp57
 70
     1
102
RTVSPropertyOp0
 70
     1
102
RTVSPropertyOp1
 70
     1
102
RTVSPropertyOp2
 70
     1
102
RTVSPropertyOp3
 70
     1
102
RTVSPropertyOp4
 70
     1
102
RTVSPropertyOp5
 70
     1
102
RTVSPropertyOp6
 70
     1
102
RTVSPropertyOp7
 70
     1
102
RTVSPropertyOp8
 70
     1
102
RTVSPropertyOp9
 70
     1
102
RTVSPropertyOp10
 70
     1
102
RTVSPropertyOp11
 70
     1
102
RTVSPropertyOp12
 70
     1
102
RTVSPropertyOp13
 70
     1
102
RTVSPropertyOp14
 70
     1
102
RTVSPropertyOp15
 70
     1
102
RTVSPropertyOp16
 70
     1
102
RTVSPropertyOp17
 70
     1
102
RTVSPropertyOp18
 70
     1
102
RTVSPropertyOp19
 70
     1
102
RTVSPropertyOp20
 70
     1
102
RTVSPropertyOp21
 70
     1
102
RTVSPropertyOp22
 70
     1
102
RTVSPropertyOp23
 70
     1
102
RTVSPropertyOp24
 70
     1
102
RTVSPropertyOp25
 70
     1
102
RTVSPropertyOp26
 70
     1
102
RTVSPropertyOp27
 70
     1
102
RTVSPropertyOp28
 70
     1
102
RTVSPropertyOp29
 70
     1
102
RTVSPropertyOp30
 70
     1
102
RTVSPropertyOp31
 70
     1
102
RTVSPropertyOp32
 70
     1
102
RTVSPropertyOp33
 70
     1
102
RTVSPropertyOp34
 70
     1
102
RTVSPropertyOp35
 70
     1
102
RTVSPropertyOp36
 70
     1
102
RTVSPropertyOp37
 70
     1
102
RTVSPropertyOp38
 70
     1
102
RTVSPropertyOp39
 70
     1
102
RTVSPropertyOp40
 70
     1
102
RTVSPropertyOp41
 70
     1
102
RTVSPropertyOp42
 70
     1
102
RTVSPropertyOp43
 70
     1
102
RTVSPropertyOp44
 70
     1
102
RTVSPropertyOp45
 70
     1
102
RTVSPropertyOp46
 70
     1
102
RTVSPropertyOp47
 70
     1
102
RTVSPropertyOp48
 70
     1
102
RTVSPropertyOp49
 70
     1
102
RTVSPropertyOp50
 70
     1
102
RTVSPropertyOp51
 70
     0
102
RTVSPropertyOp52
 70
     0
102
RTVSPropertyOp53
 70
     1
102
RTVSPropertyOp54
 70
     1
102
RTVSPropertyOp55
 70
     1
102
RTVSPropertyOp56
 70
     1
102
RTVSPropertyOp57
 70
     1
102
RTVSPropertyOp58
 70
     1
102
RTVSPropertyOp59
 70
     1
102
RTVSPropertyOp60
 70
     1
102
RTVSPropertyOp61
 70
     1
102
RTVSPropertyOp62
 70
     1
  0
XRECORD
  5
37A
102
{ACAD_REACTORS
330
379
102
}
330
379
100
AcDbXrecord
280
     1
102
RTVSPost2010Prop28
280
     0
102
RTVSPost2010PropOp28
 70
     1
102
RTVSPost2010Prop29
280
     1
102
RTVSPost2010PropOp29
 70
     1
102
RTVSPost2010Prop30
280
     1
102
RTVSPost2010PropOp30
 70
     1
102
RTVSPost2010Prop31
280
     0
102
RTVSPost2010PropOp31
 70
     1
102
RTVSPost2010Prop32
280
     0
102
RTVSPost2010PropOp32
 70
     1
102
RTVSPost2010Prop33
280
     0
102
RTVSPost2010PropOp33
 70
     1
102
RTVSPost2010Prop34
280
     0
102
RTVSPost2010PropOp34
 70
     1
102
RTVSPost2010Prop35
280
     0
102
RTVSPost2010PropOp35
 70
     1
102
RTVSPost2010Prop36
280
     0
102
RTVSPost2010PropOp36
 70
     1
102
RTVSPost2010Prop37
 90
       50
102
RTVSPost2010PropOp37
 70
     1
102
RTVSPost2010Prop38
140
0.0
102
RTVSPost2010PropOp38
 70
     1
102
RTVSPost2010Prop39
140
1.0
102
RTVSPost2010PropOp39
 70
     1
102
RTVSPost2010Prop40
 90
        0
102
RTVSPost2010PropOp40
 70
     1
102
RTVSPost2010Prop41ColorIndex
 90
       18
102
RTVSPost2010Prop41ColorRGB
 90
        0
102
RTVSPost2010PropOp41
 70
     1
102
RTVSPost2010Prop42
 90
       50
102
RTVSPost2010PropOp42
 70
     1
102
RTVSPost2010Prop43
 90
        3
102
RTVSPost2010PropOp43
 70
     1
102
RTVSPost2010Prop44ColorIndex
 90
        5
102
RTVSPost2010Prop44ColorRGB
 90
      255
102
RTVSPost2010PropOp44
 70
     1
102
RTVSPost2010Prop45
280
     0
102
RTVSPost2010PropOp45
 70
     1
102
RTVSPost2010Prop46
 90
       50
102
RTVSPost2010PropOp46
 70
     1
102
RTVSPost2010Prop47
 90
       50
102
RTVSPost2010PropOp47
 70
     1
102
RTVSPost2010Prop48
 90
       50
102
RTVSPost2010PropOp48
 70
     1
102
RTVSPost2010Prop49
280
     0
102
RTVSPost2010PropOp49
 70
     1
102
RTVSPost2010Prop50
 90
       50
102
RTVSPost2010PropOp50
 70
     1
102
RTVSPost2010Prop51ColorIndex
 90
      256
102
RTVSPost2010Prop51ColorRGB
 90
-16777216
102
RTVSPost2010PropOp51
 70
     0
102
RTVSPost2010Prop52
140
1.0
102
RTVSPost2010PropOp52
 70
     0
102
RTVSPost2010Prop53
 90
        2
102
RTVSPost2010PropOp53
 70
     1
102
RTVSPost2010Prop54
  1
strokes_ogs.tif
102
RTVSPost2010PropOp54
 70
     1
102
RTVSPost2010Prop55
280
     0
102
RTVSPost2010PropOp55
 70
     1
102
RTVSPost2010Prop56
140
1.0
102
RTVSPost2010PropOp56
 70
     1
102
RTVSPost2010Prop57
140
1.0
102
RTVSPost2010PropOp57
 70
     1
102
RTVSPropertyOp0
 70
     1
102
RTVSPropertyOp1
 70
     1
102
RTVSPropertyOp2
 70
     1
102
RTVSPropertyOp3
 70
     1
102
RTVSPropertyOp4
 70
     1
102
RTVSPropertyOp5
 70
     1
102
RTVSPropertyOp6
 70
     1
102
RTVSPropertyOp7
 70
     1
102
RTVSPropertyOp8
 70
     1
102
RTVSPropertyOp9
 70
     1
102
RTVSPropertyOp10
 70
     1
102
RTVSPropertyOp11
 70
     1
102
RTVSPropertyOp12
 70
     1
102
RTVSPropertyOp13
 70
     1
102
RTVSPropertyOp14
 70
     1
102
RTVSPropertyOp15
 70
     1
102
RTVSPropertyOp16
 70
     1
102
RTVSPropertyOp17
 70
     1
102
RTVSPropertyOp18
 70
     1
102
RTVSPropertyOp19
 70
     1
102
RTVSPropertyOp20
 70
     1
102
RTVSPropertyOp21
 70
     1
102
RTVSPropertyOp22
 70
     1
102
RTVSPropertyOp23
 70
     1
102
RTVSPropertyOp24
 70
     1
102
RTVSPropertyOp25
 70
     1
102
RTVSPropertyOp26
 70
     1
102
RTVSPropertyOp27
 70
     1
102
RTVSPropertyOp28
 70
     1
102
RTVSPropertyOp29
 70
     1
102
RTVSPropertyOp30
 70
     1
102
RTVSPropertyOp31
 70
     1
102
RTVSPropertyOp32
 70
     1
102
RTVSPropertyOp33
 70
     1
102
RTVSPropertyOp34
 70
     1
102
RTVSPropertyOp35
 70
     1
102
RTVSPropertyOp36
 70
     1
102
RTVSPropertyOp37
 70
     1
102
RTVSPropertyOp38
 70
     1
102
RTVSPropertyOp39
 70
     1
102
RTVSPropertyOp40
 70
     1
102
RTVSPropertyOp41
 70
     1
102
RTVSPropertyOp42
 70
     1
102
RTVSPropertyOp43
 70
     1
102
RTVSPropertyOp44
 70
     1
102
RTVSPropertyOp45
 70
     1
102
RTVSPropertyOp46
 70
     1
102
RTVSPropertyOp47
 70
     1
102
RTVSPropertyOp48
 70
     1
102
RTVSPropertyOp49
 70
     1
102
RTVSPropertyOp50
 70
     1
102
RTVSPropertyOp51
 70
     0
102
RTVSPropertyOp52
 70
     0
102
RTVSPropertyOp53
 70
     1
102
RTVSPropertyOp54
 70
     1
102
RTVSPropertyOp55
 70
     1
102
RTVSPropertyOp56
 70
     1
102
RTVSPropertyOp57
 70
     1
102
RTVSPropertyOp58
 70
     1
102
RTVSPropertyOp59
 70
     1
102
RTVSPropertyOp60
 70
     1
102
RTVSPropertyOp61
 70
     1
102
RTVSPropertyOp62
 70
     1
  0
XRECORD
  5
382
102
{ACAD_REACTORS
330
381
102
}
330
381
100
AcDbXrecord
280
     1
102
RTVSPost2010Prop28
280
     0
102
RTVSPost2010PropOp28
 70
     1
102
RTVSPost2010Prop29
280
     1
102
RTVSPost2010PropOp29
 70
     1
102
RTVSPost2010Prop30
280
     1
102
RTVSPost2010PropOp30
 70
     1
102
RTVSPost2010Prop31
280
     0
102
RTVSPost2010PropOp31
 70
     1
102
RTVSPost2010Prop32
280
     0
102
RTVSPost2010PropOp32
 70
     1
102
RTVSPost2010Prop33
280
     0
102
RTVSPost2010PropOp33
 70
     1
102
RTVSPost2010Prop34
280
     0
102
RTVSPost2010PropOp34
 70
     1
102
RTVSPost2010Prop35
280
     0
102
RTVSPost2010PropOp35
 70
     1
102
RTVSPost2010Prop36
280
     0
102
RTVSPost2010PropOp36
 70
     1
102
RTVSPost2010Prop37
 90
       50
102
RTVSPost2010PropOp37
 70
     1
102
RTVSPost2010Prop38
140
0.0
102
RTVSPost2010PropOp38
 70
     1
102
RTVSPost2010Prop39
140
1.0
102
RTVSPost2010PropOp39
 70
     1
102
RTVSPost2010Prop40
 90
        0
102
RTVSPost2010PropOp40
 70
     1
102
RTVSPost2010Prop41ColorIndex
 90
       18
102
RTVSPost2010Prop41ColorRGB
 90
        0
102
RTVSPost2010PropOp41
 70
     1
102
RTVSPost2010Prop42
 90
       50
102
RTVSPost2010PropOp42
 70
     1
102
RTVSPost2010Prop43
 90
        3
102
RTVSPost2010PropOp43
 70
     1
102
RTVSPost2010Prop44ColorIndex
 90
        5
102
RTVSPost2010Prop44ColorRGB
 90
      255
102
RTVSPost2010PropOp44
 70
     1
102
RTVSPost2010Prop45
280
     0
102
RTVSPost2010PropOp45
 70
     1
102
RTVSPost2010Prop46
 90
       50
102
RTVSPost2010PropOp46
 70
     1
102
RTVSPost2010Prop47
 90
       50
102
RTVSPost2010PropOp47
 70
     1
102
RTVSPost2010Prop48
 90
       50
102
RTVSPost2010PropOp48
 70
     1
102
RTVSPost2010Prop49
280
     0
102
RTVSPost2010PropOp49
 70
     1
102
RTVSPost2010Prop50
 90
       50
102
RTVSPost2010PropOp50
 70
     1
102
RTVSPost2010Prop51ColorIndex
 90
      256
102
RTVSPost2010Prop51ColorRGB
 90
-16777216
102
RTVSPost2010PropOp51
 70
     0
102
RTVSPost2010Prop52
140
1.0
102
RTVSPost2010PropOp52
 70
     0
102
RTVSPost2010Prop53
 90
        2
102
RTVSPost2010PropOp53
 70
     1
102
RTVSPost2010Prop54
  1
strokes_ogs.tif
102
RTVSPost2010PropOp54
 70
     1
102
RTVSPost2010Prop55
280
     0
102
RTVSPost2010PropOp55
 70
     1
102
RTVSPost2010Prop56
140
1.0
102
RTVSPost2010PropOp56
 70
     1
102
RTVSPost2010Prop57
140
1.0
102
RTVSPost2010PropOp57
 70
     1
102
RTVSPropertyOp0
 70
     1
102
RTVSPropertyOp1
 70
     1
102
RTVSPropertyOp2
 70
     1
102
RTVSPropertyOp3
 70
     1
102
RTVSPropertyOp4
 70
     1
102
RTVSPropertyOp5
 70
     1
102
RTVSPropertyOp6
 70
     1
102
RTVSPropertyOp7
 70
     1
102
RTVSPropertyOp8
 70
     1
102
RTVSPropertyOp9
 70
     1
102
RTVSPropertyOp10
 70
     1
102
RTVSPropertyOp11
 70
     1
102
RTVSPropertyOp12
 70
     1
102
RTVSPropertyOp13
 70
     1
102
RTVSPropertyOp14
 70
     1
102
RTVSPropertyOp15
 70
     1
102
RTVSPropertyOp16
 70
     1
102
RTVSPropertyOp17
 70
     1
102
RTVSPropertyOp18
 70
     1
102
RTVSPropertyOp19
 70
     1
102
RTVSPropertyOp20
 70
     1
102
RTVSPropertyOp21
 70
     1
102
RTVSPropertyOp22
 70
     1
102
RTVSPropertyOp23
 70
     1
102
RTVSPropertyOp24
 70
     1
102
RTVSPropertyOp25
 70
     1
102
RTVSPropertyOp26
 70
     1
102
RTVSPropertyOp27
 70
     1
102
RTVSPropertyOp28
 70
     1
102
RTVSPropertyOp29
 70
     1
102
RTVSPropertyOp30
 70
     1
102
RTVSPropertyOp31
 70
     1
102
RTVSPropertyOp32
 70
     1
102
RTVSPropertyOp33
 70
     1
102
RTVSPropertyOp34
 70
     1
102
RTVSPropertyOp35
 70
     1
102
RTVSPropertyOp36
 70
     1
102
RTVSPropertyOp37
 70
     1
102
RTVSPropertyOp38
 70
     1
102
RTVSPropertyOp39
 70
     1
102
RTVSPropertyOp40
 70
     1
102
RTVSPropertyOp41
 70
     1
102
RTVSPropertyOp42
 70
     1
102
RTVSPropertyOp43
 70
     1
102
RTVSPropertyOp44
 70
     1
102
RTVSPropertyOp45
 70
     1
102
RTVSPropertyOp46
 70
     1
102
RTVSPropertyOp47
 70
     1
102
RTVSPropertyOp48
 70
     1
102
RTVSPropertyOp49
 70
     1
102
RTVSPropertyOp50
 70
     1
102
RTVSPropertyOp51
 70
     0
102
RTVSPropertyOp52
 70
     0
102
RTVSPropertyOp53
 70
     1
102
RTVSPropertyOp54
 70
     1
102
RTVSPropertyOp55
 70
     1
102
RTVSPropertyOp56
 70
     1
102
RTVSPropertyOp57
 70
     1
102
RTVSPropertyOp58
 70
     1
102
RTVSPropertyOp59
 70
     1
102
RTVSPropertyOp60
 70
     1
102
RTVSPropertyOp61
 70
     1
102
RTVSPropertyOp62
 70
     1
  0
XRECORD
  5
38A
102
{ACAD_REACTORS
330
389
102
}
330
389
100
AcDbXrecord
280
     1
102
RTVSPost2010Prop28
280
     0
102
RTVSPost2010PropOp28
 70
     1
102
RTVSPost2010Prop29
280
     1
102
RTVSPost2010PropOp29
 70
     1
102
RTVSPost2010Prop30
280
     1
102
RTVSPost2010PropOp30
 70
     1
102
RTVSPost2010Prop31
280
     0
102
RTVSPost2010PropOp31
 70
     1
102
RTVSPost2010Prop32
280
     0
102
RTVSPost2010PropOp32
 70
     1
102
RTVSPost2010Prop33
280
     0
102
RTVSPost2010PropOp33
 70
     1
102
RTVSPost2010Prop34
280
     0
102
RTVSPost2010PropOp34
 70
     1
102
RTVSPost2010Prop35
280
     0
102
RTVSPost2010PropOp35
 70
     1
102
RTVSPost2010Prop36
280
     0
102
RTVSPost2010PropOp36
 70
     1
102
RTVSPost2010Prop37
 90
       50
102
RTVSPost2010PropOp37
 70
     1
102
RTVSPost2010Prop38
140
0.0
102
RTVSPost2010PropOp38
 70
     1
102
RTVSPost2010Prop39
140
1.0
102
RTVSPost2010PropOp39
 70
     1
102
RTVSPost2010Prop40
 90
        0
102
RTVSPost2010PropOp40
 70
     1
102
RTVSPost2010Prop41ColorIndex
 90
       18
102
RTVSPost2010Prop41ColorRGB
 90
        0
102
RTVSPost2010PropOp41
 70
     1
102
RTVSPost2010Prop42
 90
       50
102
RTVSPost2010PropOp42
 70
     1
102
RTVSPost2010Prop43
 90
        3
102
RTVSPost2010PropOp43
 70
     1
102
RTVSPost2010Prop44ColorIndex
 90
        5
102
RTVSPost2010Prop44ColorRGB
 90
      255
102
RTVSPost2010PropOp44
 70
     1
102
RTVSPost2010Prop45
280
     0
102
RTVSPost2010PropOp45
 70
     1
102
RTVSPost2010Prop46
 90
       50
102
RTVSPost2010PropOp46
 70
     1
102
RTVSPost2010Prop47
 90
       50
102
RTVSPost2010PropOp47
 70
     1
102
RTVSPost2010Prop48
 90
       50
102
RTVSPost2010PropOp48
 70
     1
102
RTVSPost2010Prop49
280
     0
102
RTVSPost2010PropOp49
 70
     1
102
RTVSPost2010Prop50
 90
       50
102
RTVSPost2010PropOp50
 70
     1
102
RTVSPost2010Prop51ColorIndex
 90
      256
102
RTVSPost2010Prop51ColorRGB
 90
-16777216
102
RTVSPost2010PropOp51
 70
     0
102
RTVSPost2010Prop52
140
1.0
102
RTVSPost2010PropOp52
 70
     0
102
RTVSPost2010Prop53
 90
        2
102
RTVSPost2010PropOp53
 70
     1
102
RTVSPost2010Prop54
  1
strokes_ogs.tif
102
RTVSPost2010PropOp54
 70
     1
102
RTVSPost2010Prop55
280
     0
102
RTVSPost2010PropOp55
 70
     1
102
RTVSPost2010Prop56
140
1.0
102
RTVSPost2010PropOp56
 70
     1
102
RTVSPost2010Prop57
140
1.0
102
RTVSPost2010PropOp57
 70
     1
102
RTVSPropertyOp0
 70
     1
102
RTVSPropertyOp1
 70
     1
102
RTVSPropertyOp2
 70
     1
102
RTVSPropertyOp3
 70
     1
102
RTVSPropertyOp4
 70
     1
102
RTVSPropertyOp5
 70
     1
102
RTVSPropertyOp6
 70
     1
102
RTVSPropertyOp7
 70
     1
102
RTVSPropertyOp8
 70
     1
102
RTVSPropertyOp9
 70
     1
102
RTVSPropertyOp10
 70
     1
102
RTVSPropertyOp11
 70
     1
102
RTVSPropertyOp12
 70
     1
102
RTVSPropertyOp13
 70
     1
102
RTVSPropertyOp14
 70
     1
102
RTVSPropertyOp15
 70
     1
102
RTVSPropertyOp16
 70
     1
102
RTVSPropertyOp17
 70
     1
102
RTVSPropertyOp18
 70
     1
102
RTVSPropertyOp19
 70
     1
102
RTVSPropertyOp20
 70
     1
102
RTVSPropertyOp21
 70
     1
102
RTVSPropertyOp22
 70
     1
102
RTVSPropertyOp23
 70
     1
102
RTVSPropertyOp24
 70
     1
102
RTVSPropertyOp25
 70
     1
102
RTVSPropertyOp26
 70
     1
102
RTVSPropertyOp27
 70
     1
102
RTVSPropertyOp28
 70
     1
102
RTVSPropertyOp29
 70
     1
102
RTVSPropertyOp30
 70
     1
102
RTVSPropertyOp31
 70
     1
102
RTVSPropertyOp32
 70
     1
102
RTVSPropertyOp33
 70
     1
102
RTVSPropertyOp34
 70
     1
102
RTVSPropertyOp35
 70
     1
102
RTVSPropertyOp36
 70
     1
102
RTVSPropertyOp37
 70
     1
102
RTVSPropertyOp38
 70
     1
102
RTVSPropertyOp39
 70
     1
102
RTVSPropertyOp40
 70
     1
102
RTVSPropertyOp41
 70
     1
102
RTVSPropertyOp42
 70
     1
102
RTVSPropertyOp43
 70
     1
102
RTVSPropertyOp44
 70
     1
102
RTVSPropertyOp45
 70
     1
102
RTVSPropertyOp46
 70
     1
102
RTVSPropertyOp47
 70
     1
102
RTVSPropertyOp48
 70
     1
102
RTVSPropertyOp49
 70
     1
102
RTVSPropertyOp50
 70
     1
102
RTVSPropertyOp51
 70
     0
102
RTVSPropertyOp52
 70
     0
102
RTVSPropertyOp53
 70
     1
102
RTVSPropertyOp54
 70
     1
102
RTVSPropertyOp55
 70
     1
102
RTVSPropertyOp56
 70
     1
102
RTVSPropertyOp57
 70
     1
102
RTVSPropertyOp58
 70
     1
102
RTVSPropertyOp59
 70
     1
102
RTVSPropertyOp60
 70
     1
102
RTVSPropertyOp61
 70
     1
102
RTVSPropertyOp62
 70
     1
  0
XRECORD
  5
37E
102
{ACAD_REACTORS
330
37D
102
}
330
37D
100
AcDbXrecord
280
     1
102
RTVSPost2010Prop28
280
     0
102
RTVSPost2010PropOp28
 70
     1
102
RTVSPost2010Prop29
280
     1
102
RTVSPost2010PropOp29
 70
     1
102
RTVSPost2010Prop30
280
     1
102
RTVSPost2010PropOp30
 70
     1
102
RTVSPost2010Prop31
280
     0
102
RTVSPost2010PropOp31
 70
     1
102
RTVSPost2010Prop32
280
     0
102
RTVSPost2010PropOp32
 70
     1
102
RTVSPost2010Prop33
280
     0
102
RTVSPost2010PropOp33
 70
     1
102
RTVSPost2010Prop34
280
     0
102
RTVSPost2010PropOp34
 70
     1
102
RTVSPost2010Prop35
280
     0
102
RTVSPost2010PropOp35
 70
     1
102
RTVSPost2010Prop36
280
     0
102
RTVSPost2010PropOp36
 70
     1
102
RTVSPost2010Prop37
 90
       50
102
RTVSPost2010PropOp37
 70
     1
102
RTVSPost2010Prop38
140
0.0
102
RTVSPost2010PropOp38
 70
     1
102
RTVSPost2010Prop39
140
1.0
102
RTVSPost2010PropOp39
 70
     1
102
RTVSPost2010Prop40
 90
        0
102
RTVSPost2010PropOp40
 70
     1
102
RTVSPost2010Prop41ColorIndex
 90
       18
102
RTVSPost2010Prop41ColorRGB
 90
        0
102
RTVSPost2010PropOp41
 70
     1
102
RTVSPost2010Prop42
 90
       50
102
RTVSPost2010PropOp42
 70
     1
102
RTVSPost2010Prop43
 90
        3
102
RTVSPost2010PropOp43
 70
     1
102
RTVSPost2010Prop44ColorIndex
 90
        5
102
RTVSPost2010Prop44ColorRGB
 90
      255
102
RTVSPost2010PropOp44
 70
     1
102
RTVSPost2010Prop45
280
     0
102
RTVSPost2010PropOp45
 70
     1
102
RTVSPost2010Prop46
 90
       50
102
RTVSPost2010PropOp46
 70
     1
102
RTVSPost2010Prop47
 90
       50
102
RTVSPost2010PropOp47
 70
     1
102
RTVSPost2010Prop48
 90
       50
102
RTVSPost2010PropOp48
 70
     1
102
RTVSPost2010Prop49
280
     0
102
RTVSPost2010PropOp49
 70
     1
102
RTVSPost2010Prop50
 90
       50
102
RTVSPost2010PropOp50
 70
     1
102
RTVSPost2010Prop51ColorIndex
 90
      256
102
RTVSPost2010Prop51ColorRGB
 90
-16777216
102
RTVSPost2010PropOp51
 70
     0
102
RTVSPost2010Prop52
140
1.0
102
RTVSPost2010PropOp52
 70
     0
102
RTVSPost2010Prop53
 90
        2
102
RTVSPost2010PropOp53
 70
     1
102
RTVSPost2010Prop54
  1
strokes_ogs.tif
102
RTVSPost2010PropOp54
 70
     1
102
RTVSPost2010Prop55
280
     0
102
RTVSPost2010PropOp55
 70
     1
102
RTVSPost2010Prop56
140
1.0
102
RTVSPost2010PropOp56
 70
     1
102
RTVSPost2010Prop57
140
1.0
102
RTVSPost2010PropOp57
 70
     1
102
RTVSPropertyOp0
 70
     1
102
RTVSPropertyOp1
 70
     1
102
RTVSPropertyOp2
 70
     1
102
RTVSPropertyOp3
 70
     1
102
RTVSPropertyOp4
 70
     1
102
RTVSPropertyOp5
 70
     1
102
RTVSPropertyOp6
 70
     1
102
RTVSPropertyOp7
 70
     1
102
RTVSPropertyOp8
 70
     1
102
RTVSPropertyOp9
 70
     1
102
RTVSPropertyOp10
 70
     1
102
RTVSPropertyOp11
 70
     1
102
RTVSPropertyOp12
 70
     1
102
RTVSPropertyOp13
 70
     1
102
RTVSPropertyOp14
 70
     1
102
RTVSPropertyOp15
 70
     1
102
RTVSPropertyOp16
 70
     1
102
RTVSPropertyOp17
 70
     1
102
RTVSPropertyOp18
 70
     1
102
RTVSPropertyOp19
 70
     1
102
RTVSPropertyOp20
 70
     1
102
RTVSPropertyOp21
 70
     1
102
RTVSPropertyOp22
 70
     1
102
RTVSPropertyOp23
 70
     1
102
RTVSPropertyOp24
 70
     1
102
RTVSPropertyOp25
 70
     1
102
RTVSPropertyOp26
 70
     1
102
RTVSPropertyOp27
 70
     1
102
RTVSPropertyOp28
 70
     1
102
RTVSPropertyOp29
 70
     1
102
RTVSPropertyOp30
 70
     1
102
RTVSPropertyOp31
 70
     1
102
RTVSPropertyOp32
 70
     1
102
RTVSPropertyOp33
 70
     1
102
RTVSPropertyOp34
 70
     1
102
RTVSPropertyOp35
 70
     1
102
RTVSPropertyOp36
 70
     1
102
RTVSPropertyOp37
 70
     1
102
RTVSPropertyOp38
 70
     1
102
RTVSPropertyOp39
 70
     1
102
RTVSPropertyOp40
 70
     1
102
RTVSPropertyOp41
 70
     1
102
RTVSPropertyOp42
 70
     1
102
RTVSPropertyOp43
 70
     1
102
RTVSPropertyOp44
 70
     1
102
RTVSPropertyOp45
 70
     1
102
RTVSPropertyOp46
 70
     1
102
RTVSPropertyOp47
 70
     1
102
RTVSPropertyOp48
 70
     1
102
RTVSPropertyOp49
 70
     1
102
RTVSPropertyOp50
 70
     1
102
RTVSPropertyOp51
 70
     0
102
RTVSPropertyOp52
 70
     0
102
RTVSPropertyOp53
 70
     1
102
RTVSPropertyOp54
 70
     1
102
RTVSPropertyOp55
 70
     1
102
RTVSPropertyOp56
 70
     1
102
RTVSPropertyOp57
 70
     1
102
RTVSPropertyOp58
 70
     1
102
RTVSPropertyOp59
 70
     1
102
RTVSPropertyOp60
 70
     1
102
RTVSPropertyOp61
 70
     1
102
RTVSPropertyOp62
 70
     1
  0
XRECORD
  5
380
102
{ACAD_REACTORS
330
37F
102
}
330
37F
100
AcDbXrecord
280
     1
102
RTVSPost2010Prop28
280
     0
102
RTVSPost2010PropOp28
 70
     1
102
RTVSPost2010Prop29
280
     1
102
RTVSPost2010PropOp29
 70
     1
102
RTVSPost2010Prop30
280
     1
102
RTVSPost2010PropOp30
 70
     1
102
RTVSPost2010Prop31
280
     0
102
RTVSPost2010PropOp31
 70
     1
102
RTVSPost2010Prop32
280
     0
102
RTVSPost2010PropOp32
 70
     1
102
RTVSPost2010Prop33
280
     0
102
RTVSPost2010PropOp33
 70
     1
102
RTVSPost2010Prop34
280
     0
102
RTVSPost2010PropOp34
 70
     1
102
RTVSPost2010Prop35
280
     0
102
RTVSPost2010PropOp35
 70
     1
102
RTVSPost2010Prop36
280
     0
102
RTVSPost2010PropOp36
 70
     1
102
RTVSPost2010Prop37
 90
       50
102
RTVSPost2010PropOp37
 70
     1
102
RTVSPost2010Prop38
140
0.0
102
RTVSPost2010PropOp38
 70
     1
102
RTVSPost2010Prop39
140
1.0
102
RTVSPost2010PropOp39
 70
     1
102
RTVSPost2010Prop40
 90
        0
102
RTVSPost2010PropOp40
 70
     1
102
RTVSPost2010Prop41ColorIndex
 90
       18
102
RTVSPost2010Prop41ColorRGB
 90
        0
102
RTVSPost2010PropOp41
 70
     1
102
RTVSPost2010Prop42
 90
       50
102
RTVSPost2010PropOp42
 70
     1
102
RTVSPost2010Prop43
 90
        3
102
RTVSPost2010PropOp43
 70
     1
102
RTVSPost2010Prop44ColorIndex
 90
        5
102
RTVSPost2010Prop44ColorRGB
 90
      255
102
RTVSPost2010PropOp44
 70
     1
102
RTVSPost2010Prop45
280
     0
102
RTVSPost2010PropOp45
 70
     1
102
RTVSPost2010Prop46
 90
       50
102
RTVSPost2010PropOp46
 70
     1
102
RTVSPost2010Prop47
 90
       50
102
RTVSPost2010PropOp47
 70
     1
102
RTVSPost2010Prop48
 90
       50
102
RTVSPost2010PropOp48
 70
     1
102
RTVSPost2010Prop49
280
     0
102
RTVSPost2010PropOp49
 70
     1
102
RTVSPost2010Prop50
 90
       50
102
RTVSPost2010PropOp50
 70
     1
102
RTVSPost2010Prop51ColorIndex
 90
      256
102
RTVSPost2010Prop51ColorRGB
 90
-16777216
102
RTVSPost2010PropOp51
 70
     0
102
RTVSPost2010Prop52
140
1.0
102
RTVSPost2010PropOp52
 70
     0
102
RTVSPost2010Prop53
 90
        2
102
RTVSPost2010PropOp53
 70
     1
102
RTVSPost2010Prop54
  1
strokes_ogs.tif
102
RTVSPost2010PropOp54
 70
     1
102
RTVSPost2010Prop55
280
     0
102
RTVSPost2010PropOp55
 70
     1
102
RTVSPost2010Prop56
140
1.0
102
RTVSPost2010PropOp56
 70
     1
102
RTVSPost2010Prop57
140
1.0
102
RTVSPost2010PropOp57
 70
     1
102
RTVSPropertyOp0
 70
     1
102
RTVSPropertyOp1
 70
     1
102
RTVSPropertyOp2
 70
     1
102
RTVSPropertyOp3
 70
     1
102
RTVSPropertyOp4
 70
     1
102
RTVSPropertyOp5
 70
     1
102
RTVSPropertyOp6
 70
     1
102
RTVSPropertyOp7
 70
     1
102
RTVSPropertyOp8
 70
     1
102
RTVSPropertyOp9
 70
     1
102
RTVSPropertyOp10
 70
     1
102
RTVSPropertyOp11
 70
     1
102
RTVSPropertyOp12
 70
     1
102
RTVSPropertyOp13
 70
     1
102
RTVSPropertyOp14
 70
     1
102
RTVSPropertyOp15
 70
     1
102
RTVSPropertyOp16
 70
     1
102
RTVSPropertyOp17
 70
     1
102
RTVSPropertyOp18
 70
     1
102
RTVSPropertyOp19
 70
     1
102
RTVSPropertyOp20
 70
     1
102
RTVSPropertyOp21
 70
     1
102
RTVSPropertyOp22
 70
     1
102
RTVSPropertyOp23
 70
     1
102
RTVSPropertyOp24
 70
     1
102
RTVSPropertyOp25
 70
     1
102
RTVSPropertyOp26
 70
     1
102
RTVSPropertyOp27
 70
     1
102
RTVSPropertyOp28
 70
     1
102
RTVSPropertyOp29
 70
     1
102
RTVSPropertyOp30
 70
     1
102
RTVSPropertyOp31
 70
     1
102
RTVSPropertyOp32
 70
     1
102
RTVSPropertyOp33
 70
     1
102
RTVSPropertyOp34
 70
     1
102
RTVSPropertyOp35
 70
     1
102
RTVSPropertyOp36
 70
     1
102
RTVSPropertyOp37
 70
     1
102
RTVSPropertyOp38
 70
     1
102
RTVSPropertyOp39
 70
     1
102
RTVSPropertyOp40
 70
     1
102
RTVSPropertyOp41
 70
     1
102
RTVSPropertyOp42
 70
     1
102
RTVSPropertyOp43
 70
     1
102
RTVSPropertyOp44
 70
     1
102
RTVSPropertyOp45
 70
     1
102
RTVSPropertyOp46
 70
     1
102
RTVSPropertyOp47
 70
     1
102
RTVSPropertyOp48
 70
     1
102
RTVSPropertyOp49
 70
     1
102
RTVSPropertyOp50
 70
     1
102
RTVSPropertyOp51
 70
     0
102
RTVSPropertyOp52
 70
     0
102
RTVSPropertyOp53
 70
     1
102
RTVSPropertyOp54
 70
     1
102
RTVSPropertyOp55
 70
     1
102
RTVSPropertyOp56
 70
     1
102
RTVSPropertyOp57
 70
     1
102
RTVSPropertyOp58
 70
     1
102
RTVSPropertyOp59
 70
     1
102
RTVSPropertyOp60
 70
     1
102
RTVSPropertyOp61
 70
     1
102
RTVSPropertyOp62
 70
     1
  0
XRECORD
  5
390
102
{ACAD_REACTORS
330
38F
102
}
330
38F
100
AcDbXrecord
280
     1
102
RTVSPost2010Prop28
280
     0
102
RTVSPost2010PropOp28
 70
     0
102
RTVSPost2010Prop29
280
     1
102
RTVSPost2010PropOp29
 70
     0
102
RTVSPost2010Prop30
280
     1
102
RTVSPost2010PropOp30
 70
     0
102
RTVSPost2010Prop31
280
     0
102
RTVSPost2010PropOp31
 70
     0
102
RTVSPost2010Prop32
280
     0
102
RTVSPost2010PropOp32
 70
     0
102
RTVSPost2010Prop33
280
     0
102
RTVSPost2010PropOp33
 70
     0
102
RTVSPost2010Prop34
280
     0
102
RTVSPost2010PropOp34
 70
     0
102
RTVSPost2010Prop35
280
     0
102
RTVSPost2010PropOp35
 70
     0
102
RTVSPost2010Prop36
280
     0
102
RTVSPost2010PropOp36
 70
     0
102
RTVSPost2010Prop37
 90
       50
102
RTVSPost2010PropOp37
 70
     0
102
RTVSPost2010Prop38
140
0.0
102
RTVSPost2010PropOp38
 70
     0
102
RTVSPost2010Prop39
140
1.0
102
RTVSPost2010PropOp39
 70
     0
102
RTVSPost2010Prop40
 90
        0
102
RTVSPost2010PropOp40
 70
     0
102
RTVSPost2010Prop41ColorIndex
 90
       18
102
RTVSPost2010Prop41ColorRGB
 90
        0
102
RTVSPost2010PropOp41
 70
     0
102
RTVSPost2010Prop42
 90
       50
102
RTVSPost2010PropOp42
 70
     0
102
RTVSPost2010Prop43
 90
        3
102
RTVSPost2010PropOp43
 70
     0
102
RTVSPost2010Prop44ColorIndex
 90
        5
102
RTVSPost2010Prop44ColorRGB
 90
      255
102
RTVSPost2010PropOp44
 70
     0
102
RTVSPost2010Prop45
280
     0
102
RTVSPost2010PropOp45
 70
     0
102
RTVSPost2010Prop46
 90
       50
102
RTVSPost2010PropOp46
 70
     0
102
RTVSPost2010Prop47
 90
       50
102
RTVSPost2010PropOp47
 70
     0
102
RTVSPost2010Prop48
 90
       50
102
RTVSPost2010PropOp48
 70
     0
102
RTVSPost2010Prop49
280
     0
102
RTVSPost2010PropOp49
 70
     0
102
RTVSPost2010Prop50
 90
       50
102
RTVSPost2010PropOp50
 70
     0
102
RTVSPost2010Prop51ColorIndex
 90
      256
102
RTVSPost2010Prop51ColorRGB
 90
-16777216
102
RTVSPost2010PropOp51
 70
     0
102
RTVSPost2010Prop52
140
1.0
102
RTVSPost2010PropOp52
 70
     0
102
RTVSPost2010Prop53
 90
        2
102
RTVSPost2010PropOp53
 70
     0
102
RTVSPost2010Prop54
  1
strokes_ogs.tif
102
RTVSPost2010PropOp54
 70
     0
102
RTVSPost2010Prop55
280
     0
102
RTVSPost2010PropOp55
 70
     0
102
RTVSPost2010Prop56
140
1.0
102
RTVSPost2010PropOp56
 70
     0
102
RTVSPost2010Prop57
140
1.0
102
RTVSPost2010PropOp57
 70
     0
102
RTVSPropertyOp0
 70
     0
102
RTVSPropertyOp1
 70
     0
102
RTVSPropertyOp2
 70
     0
102
RTVSPropertyOp3
 70
     0
102
RTVSPropertyOp4
 70
     0
102
RTVSPropertyOp5
 70
     0
102
RTVSPropertyOp6
 70
     0
102
RTVSPropertyOp7
 70
     0
102
RTVSPropertyOp8
 70
     0
102
RTVSPropertyOp9
 70
     0
102
RTVSPropertyOp10
 70
     0
102
RTVSPropertyOp11
 70
     0
102
RTVSPropertyOp12
 70
     0
102
RTVSPropertyOp13
 70
     0
102
RTVSPropertyOp14
 70
     2
102
RTVSPropertyOp15
 70
     0
102
RTVSPropertyOp16
 70
     0
102
RTVSPropertyOp17
 70
     0
102
RTVSPropertyOp18
 70
     0
102
RTVSPropertyOp19
 70
     0
102
RTVSPropertyOp20
 70
     0
102
RTVSPropertyOp21
 70
     0
102
RTVSPropertyOp22
 70
     0
102
RTVSPropertyOp23
 70
     0
102
RTVSPropertyOp24
 70
     0
102
RTVSPropertyOp25
 70
     0
102
RTVSPropertyOp26
 70
     0
102
RTVSPropertyOp27
 70
     0
102
RTVSPropertyOp28
 70
     0
102
RTVSPropertyOp29
 70
     0
102
RTVSPropertyOp30
 70
     0
102
RTVSPropertyOp31
 70
     0
102
RTVSPropertyOp32
 70
     0
102
RTVSPropertyOp33
 70
     0
102
RTVSPropertyOp34
 70
     0
102
RTVSPropertyOp35
 70
     0
102
RTVSPropertyOp36
 70
     0
102
RTVSPropertyOp37
 70
     0
102
RTVSPropertyOp38
 70
     0
102
RTVSPropertyOp39
 70
     0
102
RTVSPropertyOp40
 70
     0
102
RTVSPropertyOp41
 70
     0
102
RTVSPropertyOp42
 70
     0
102
RTVSPropertyOp43
 70
     0
102
RTVSPropertyOp44
 70
     0
102
RTVSPropertyOp45
 70
     0
102
RTVSPropertyOp46
 70
     0
102
RTVSPropertyOp47
 70
     0
102
RTVSPropertyOp48
 70
     0
102
RTVSPropertyOp49
 70
     0
102
RTVSPropertyOp50
 70
     0
102
RTVSPropertyOp51
 70
     0
102
RTVSPropertyOp52
 70
     0
102
RTVSPropertyOp53
 70
     0
102
RTVSPropertyOp54
 70
     0
102
RTVSPropertyOp55
 70
     0
102
RTVSPropertyOp56
 70
     0
102
RTVSPropertyOp57
 70
     0
102
RTVSPropertyOp58
 70
     1
102
RTVSPropertyOp59
 70
     1
102
RTVSPropertyOp60
 70
     1
102
RTVSPropertyOp61
 70
     1
102
RTVSPropertyOp62
 70
     1
  0
XRECORD
  5
388
102
{ACAD_REACTORS
330
387
102
}
330
387
100
AcDbXrecord
280
     1
102
RTVSPost2010Prop28
280
     0
102
RTVSPost2010PropOp28
 70
     1
102
RTVSPost2010Prop29
280
     1
102
RTVSPost2010PropOp29
 70
     1
102
RTVSPost2010Prop30
280
     1
102
RTVSPost2010PropOp30
 70
     1
102
RTVSPost2010Prop31
280
     0
102
RTVSPost2010PropOp31
 70
     1
102
RTVSPost2010Prop32
280
     0
102
RTVSPost2010PropOp32
 70
     1
102
RTVSPost2010Prop33
280
     0
102
RTVSPost2010PropOp33
 70
     1
102
RTVSPost2010Prop34
280
     0
102
RTVSPost2010PropOp34
 70
     1
102
RTVSPost2010Prop35
280
     0
102
RTVSPost2010PropOp35
 70
     1
102
RTVSPost2010Prop36
280
     0
102
RTVSPost2010PropOp36
 70
     1
102
RTVSPost2010Prop37
 90
       50
102
RTVSPost2010PropOp37
 70
     1
102
RTVSPost2010Prop38
140
0.0
102
RTVSPost2010PropOp38
 70
     1
102
RTVSPost2010Prop39
140
1.0
102
RTVSPost2010PropOp39
 70
     1
102
RTVSPost2010Prop40
 90
        0
102
RTVSPost2010PropOp40
 70
     1
102
RTVSPost2010Prop41ColorIndex
 90
       18
102
RTVSPost2010Prop41ColorRGB
 90
        0
102
RTVSPost2010PropOp41
 70
     1
102
RTVSPost2010Prop42
 90
       50
102
RTVSPost2010PropOp42
 70
     1
102
RTVSPost2010Prop43
 90
        3
102
RTVSPost2010PropOp43
 70
     1
102
RTVSPost2010Prop44ColorIndex
 90
        5
102
RTVSPost2010Prop44ColorRGB
 90
      255
102
RTVSPost2010PropOp44
 70
     1
102
RTVSPost2010Prop45
280
     0
102
RTVSPost2010PropOp45
 70
     1
102
RTVSPost2010Prop46
 90
       50
102
RTVSPost2010PropOp46
 70
     1
102
RTVSPost2010Prop47
 90
       50
102
RTVSPost2010PropOp47
 70
     1
102
RTVSPost2010Prop48
 90
       50
102
RTVSPost2010PropOp48
 70
     1
102
RTVSPost2010Prop49
280
     0
102
RTVSPost2010PropOp49
 70
     1
102
RTVSPost2010Prop50
 90
       50
102
RTVSPost2010PropOp50
 70
     1
102
RTVSPost2010Prop51ColorIndex
 90
      256
102
RTVSPost2010Prop51ColorRGB
 90
-16777216
102
RTVSPost2010PropOp51
 70
     0
102
RTVSPost2010Prop52
140
1.0
102
RTVSPost2010PropOp52
 70
     0
102
RTVSPost2010Prop53
 90
        2
102
RTVSPost2010PropOp53
 70
     1
102
RTVSPost2010Prop54
  1
strokes_ogs.tif
102
RTVSPost2010PropOp54
 70
     1
102
RTVSPost2010Prop55
280
     0
102
RTVSPost2010PropOp55
 70
     1
102
RTVSPost2010Prop56
140
1.0
102
RTVSPost2010PropOp56
 70
     1
102
RTVSPost2010Prop57
140
1.0
102
RTVSPost2010PropOp57
 70
     1
102
RTVSPropertyOp0
 70
     1
102
RTVSPropertyOp1
 70
     1
102
RTVSPropertyOp2
 70
     1
102
RTVSPropertyOp3
 70
     1
102
RTVSPropertyOp4
 70
     1
102
RTVSPropertyOp5
 70
     1
102
RTVSPropertyOp6
 70
     1
102
RTVSPropertyOp7
 70
     1
102
RTVSPropertyOp8
 70
     1
102
RTVSPropertyOp9
 70
     1
102
RTVSPropertyOp10
 70
     1
102
RTVSPropertyOp11
 70
     1
102
RTVSPropertyOp12
 70
     1
102
RTVSPropertyOp13
 70
     1
102
RTVSPropertyOp14
 70
     1
102
RTVSPropertyOp15
 70
     1
102
RTVSPropertyOp16
 70
     1
102
RTVSPropertyOp17
 70
     1
102
RTVSPropertyOp18
 70
     1
102
RTVSPropertyOp19
 70
     1
102
RTVSPropertyOp20
 70
     1
102
RTVSPropertyOp21
 70
     1
102
RTVSPropertyOp22
 70
     1
102
RTVSPropertyOp23
 70
     1
102
RTVSPropertyOp24
 70
     1
102
RTVSPropertyOp25
 70
     1
102
RTVSPropertyOp26
 70
     1
102
RTVSPropertyOp27
 70
     1
102
RTVSPropertyOp28
 70
     1
102
RTVSPropertyOp29
 70
     1
102
RTVSPropertyOp30
 70
     1
102
RTVSPropertyOp31
 70
     1
102
RTVSPropertyOp32
 70
     1
102
RTVSPropertyOp33
 70
     1
102
RTVSPropertyOp34
 70
     1
102
RTVSPropertyOp35
 70
     1
102
RTVSPropertyOp36
 70
     1
102
RTVSPropertyOp37
 70
     1
102
RTVSPropertyOp38
 70
     1
102
RTVSPropertyOp39
 70
     1
102
RTVSPropertyOp40
 70
     1
102
RTVSPropertyOp41
 70
     1
102
RTVSPropertyOp42
 70
     1
102
RTVSPropertyOp43
 70
     1
102
RTVSPropertyOp44
 70
     1
102
RTVSPropertyOp45
 70
     1
102
RTVSPropertyOp46
 70
     1
102
RTVSPropertyOp47
 70
     1
102
RTVSPropertyOp48
 70
     1
102
RTVSPropertyOp49
 70
     1
102
RTVSPropertyOp50
 70
     1
102
RTVSPropertyOp51
 70
     0
102
RTVSPropertyOp52
 70
     0
102
RTVSPropertyOp53
 70
     1
102
RTVSPropertyOp54
 70
     1
102
RTVSPropertyOp55
 70
     1
102
RTVSPropertyOp56
 70
     1
102
RTVSPropertyOp57
 70
     1
102
RTVSPropertyOp58
 70
     1
102
RTVSPropertyOp59
 70
     1
102
RTVSPropertyOp60
 70
     1
102
RTVSPropertyOp61
 70
     1
102
RTVSPropertyOp62
 70
     1
  0
XRECORD
  5
36C
102
{ACAD_REACTORS
330
36B
102
}
330
36B
100
AcDbXrecord
280
     1
102
RTVSPost2010Prop28
280
     0
102
RTVSPost2010PropOp28
 70
     1
102
RTVSPost2010Prop29
280
     1
102
RTVSPost2010PropOp29
 70
     1
102
RTVSPost2010Prop30
280
     1
102
RTVSPost2010PropOp30
 70
     1
102
RTVSPost2010Prop31
280
     0
102
RTVSPost2010PropOp31
 70
     1
102
RTVSPost2010Prop32
280
     0
102
RTVSPost2010PropOp32
 70
     1
102
RTVSPost2010Prop33
280
     0
102
RTVSPost2010PropOp33
 70
     1
102
RTVSPost2010Prop34
280
     0
102
RTVSPost2010PropOp34
 70
     1
102
RTVSPost2010Prop35
280
     0
102
RTVSPost2010PropOp35
 70
     1
102
RTVSPost2010Prop36
280
     0
102
RTVSPost2010PropOp36
 70
     1
102
RTVSPost2010Prop37
 90
       50
102
RTVSPost2010PropOp37
 70
     1
102
RTVSPost2010Prop38
140
0.0
102
RTVSPost2010PropOp38
 70
     1
102
RTVSPost2010Prop39
140
1.0
102
RTVSPost2010PropOp39
 70
     1
102
RTVSPost2010Prop40
 90
        0
102
RTVSPost2010PropOp40
 70
     1
102
RTVSPost2010Prop41ColorIndex
 90
       18
102
RTVSPost2010Prop41ColorRGB
 90
        0
102
RTVSPost2010PropOp41
 70
     1
102
RTVSPost2010Prop42
 90
       50
102
RTVSPost2010PropOp42
 70
     1
102
RTVSPost2010Prop43
 90
        3
102
RTVSPost2010PropOp43
 70
     1
102
RTVSPost2010Prop44ColorIndex
 90
        5
102
RTVSPost2010Prop44ColorRGB
 90
      255
102
RTVSPost2010PropOp44
 70
     1
102
RTVSPost2010Prop45
280
     0
102
RTVSPost2010PropOp45
 70
     1
102
RTVSPost2010Prop46
 90
       50
102
RTVSPost2010PropOp46
 70
     1
102
RTVSPost2010Prop47
 90
       50
102
RTVSPost2010PropOp47
 70
     1
102
RTVSPost2010Prop48
 90
       50
102
RTVSPost2010PropOp48
 70
     1
102
RTVSPost2010Prop49
280
     0
102
RTVSPost2010PropOp49
 70
     1
102
RTVSPost2010Prop50
 90
       50
102
RTVSPost2010PropOp50
 70
     1
102
RTVSPost2010Prop51ColorIndex
 90
      256
102
RTVSPost2010Prop51ColorRGB
 90
-16777216
102
RTVSPost2010PropOp51
 70
     0
102
RTVSPost2010Prop52
140
1.0
102
RTVSPost2010PropOp52
 70
     0
102
RTVSPost2010Prop53
 90
        2
102
RTVSPost2010PropOp53
 70
     1
102
RTVSPost2010Prop54
  1
strokes_ogs.tif
102
RTVSPost2010PropOp54
 70
     1
102
RTVSPost2010Prop55
280
     0
102
RTVSPost2010PropOp55
 70
     1
102
RTVSPost2010Prop56
140
1.0
102
RTVSPost2010PropOp56
 70
     1
102
RTVSPost2010Prop57
140
1.0
102
RTVSPost2010PropOp57
 70
     1
102
RTVSPropertyOp0
 70
     1
102
RTVSPropertyOp1
 70
     1
102
RTVSPropertyOp2
 70
     1
102
RTVSPropertyOp3
 70
     1
102
RTVSPropertyOp4
 70
     1
102
RTVSPropertyOp5
 70
     1
102
RTVSPropertyOp6
 70
     1
102
RTVSPropertyOp7
 70
     1
102
RTVSPropertyOp8
 70
     1
102
RTVSPropertyOp9
 70
     1
102
RTVSPropertyOp10
 70
     1
102
RTVSPropertyOp11
 70
     1
102
RTVSPropertyOp12
 70
     1
102
RTVSPropertyOp13
 70
     1
102
RTVSPropertyOp14
 70
     1
102
RTVSPropertyOp15
 70
     1
102
RTVSPropertyOp16
 70
     1
102
RTVSPropertyOp17
 70
     1
102
RTVSPropertyOp18
 70
     1
102
RTVSPropertyOp19
 70
     1
102
RTVSPropertyOp20
 70
     1
102
RTVSPropertyOp21
 70
     1
102
RTVSPropertyOp22
 70
     1
102
RTVSPropertyOp23
 70
     1
102
RTVSPropertyOp24
 70
     1
102
RTVSPropertyOp25
 70
     1
102
RTVSPropertyOp26
 70
     1
102
RTVSPropertyOp27
 70
     1
102
RTVSPropertyOp28
 70
     1
102
RTVSPropertyOp29
 70
     1
102
RTVSPropertyOp30
 70
     1
102
RTVSPropertyOp31
 70
     1
102
RTVSPropertyOp32
 70
     1
102
RTVSPropertyOp33
 70
     1
102
RTVSPropertyOp34
 70
     1
102
RTVSPropertyOp35
 70
     1
102
RTVSPropertyOp36
 70
     1
102
RTVSPropertyOp37
 70
     1
102
RTVSPropertyOp38
 70
     1
102
RTVSPropertyOp39
 70
     1
102
RTVSPropertyOp40
 70
     1
102
RTVSPropertyOp41
 70
     1
102
RTVSPropertyOp42
 70
     1
102
RTVSPropertyOp43
 70
     1
102
RTVSPropertyOp44
 70
     1
102
RTVSPropertyOp45
 70
     1
102
RTVSPropertyOp46
 70
     1
102
RTVSPropertyOp47
 70
     1
102
RTVSPropertyOp48
 70
     1
102
RTVSPropertyOp49
 70
     1
102
RTVSPropertyOp50
 70
     1
102
RTVSPropertyOp51
 70
     0
102
RTVSPropertyOp52
 70
     0
102
RTVSPropertyOp53
 70
     1
102
RTVSPropertyOp54
 70
     1
102
RTVSPropertyOp55
 70
     1
102
RTVSPropertyOp56
 70
     1
102
RTVSPropertyOp57
 70
     1
102
RTVSPropertyOp58
 70
     1
102
RTVSPropertyOp59
 70
     1
102
RTVSPropertyOp60
 70
     1
102
RTVSPropertyOp61
 70
     1
102
RTVSPropertyOp62
 70
     1
  0
XRECORD
  5
36E
102
{ACAD_REACTORS
330
36D
102
}
330
36D
100
AcDbXrecord
280
     1
102
RTVSPost2010Prop28
280
     0
102
RTVSPost2010PropOp28
 70
     1
102
RTVSPost2010Prop29
280
     1
102
RTVSPost2010PropOp29
 70
     1
102
RTVSPost2010Prop30
280
     1
102
RTVSPost2010PropOp30
 70
     1
102
RTVSPost2010Prop31
280
     0
102
RTVSPost2010PropOp31
 70
     1
102
RTVSPost2010Prop32
280
     0
102
RTVSPost2010PropOp32
 70
     1
102
RTVSPost2010Prop33
280
     0
102
RTVSPost2010PropOp33
 70
     1
102
RTVSPost2010Prop34
280
     0
102
RTVSPost2010PropOp34
 70
     1
102
RTVSPost2010Prop35
280
     0
102
RTVSPost2010PropOp35
 70
     1
102
RTVSPost2010Prop36
280
     0
102
RTVSPost2010PropOp36
 70
     1
102
RTVSPost2010Prop37
 90
       50
102
RTVSPost2010PropOp37
 70
     1
102
RTVSPost2010Prop38
140
0.0
102
RTVSPost2010PropOp38
 70
     1
102
RTVSPost2010Prop39
140
1.0
102
RTVSPost2010PropOp39
 70
     1
102
RTVSPost2010Prop40
 90
        0
102
RTVSPost2010PropOp40
 70
     1
102
RTVSPost2010Prop41ColorIndex
 90
       18
102
RTVSPost2010Prop41ColorRGB
 90
        0
102
RTVSPost2010PropOp41
 70
     1
102
RTVSPost2010Prop42
 90
       50
102
RTVSPost2010PropOp42
 70
     1
102
RTVSPost2010Prop43
 90
        3
102
RTVSPost2010PropOp43
 70
     1
102
RTVSPost2010Prop44ColorIndex
 90
        5
102
RTVSPost2010Prop44ColorRGB
 90
      255
102
RTVSPost2010PropOp44
 70
     1
102
RTVSPost2010Prop45
280
     0
102
RTVSPost2010PropOp45
 70
     1
102
RTVSPost2010Prop46
 90
       50
102
RTVSPost2010PropOp46
 70
     1
102
RTVSPost2010Prop47
 90
       50
102
RTVSPost2010PropOp47
 70
     1
102
RTVSPost2010Prop48
 90
       50
102
RTVSPost2010PropOp48
 70
     1
102
RTVSPost2010Prop49
280
     0
102
RTVSPost2010PropOp49
 70
     1
102
RTVSPost2010Prop50
 90
       50
102
RTVSPost2010PropOp50
 70
     1
102
RTVSPost2010Prop51ColorIndex
 90
      256
102
RTVSPost2010Prop51ColorRGB
 90
-16777216
102
RTVSPost2010PropOp51
 70
     0
102
RTVSPost2010Prop52
140
1.0
102
RTVSPost2010PropOp52
 70
     0
102
RTVSPost2010Prop53
 90
        2
102
RTVSPost2010PropOp53
 70
     1
102
RTVSPost2010Prop54
  1
strokes_ogs.tif
102
RTVSPost2010PropOp54
 70
     1
102
RTVSPost2010Prop55
280
     0
102
RTVSPost2010PropOp55
 70
     1
102
RTVSPost2010Prop56
140
1.0
102
RTVSPost2010PropOp56
 70
     1
102
RTVSPost2010Prop57
140
1.0
102
RTVSPost2010PropOp57
 70
     1
102
RTVSPropertyOp0
 70
     1
102
RTVSPropertyOp1
 70
     1
102
RTVSPropertyOp2
 70
     1
102
RTVSPropertyOp3
 70
     1
102
RTVSPropertyOp4
 70
     1
102
RTVSPropertyOp5
 70
     1
102
RTVSPropertyOp6
 70
     1
102
RTVSPropertyOp7
 70
     1
102
RTVSPropertyOp8
 70
     1
102
RTVSPropertyOp9
 70
     1
102
RTVSPropertyOp10
 70
     1
102
RTVSPropertyOp11
 70
     1
102
RTVSPropertyOp12
 70
     1
102
RTVSPropertyOp13
 70
     1
102
RTVSPropertyOp14
 70
     1
102
RTVSPropertyOp15
 70
     1
102
RTVSPropertyOp16
 70
     1
102
RTVSPropertyOp17
 70
     1
102
RTVSPropertyOp18
 70
     1
102
RTVSPropertyOp19
 70
     1
102
RTVSPropertyOp20
 70
     1
102
RTVSPropertyOp21
 70
     1
102
RTVSPropertyOp22
 70
     1
102
RTVSPropertyOp23
 70
     1
102
RTVSPropertyOp24
 70
     1
102
RTVSPropertyOp25
 70
     1
102
RTVSPropertyOp26
 70
     1
102
RTVSPropertyOp27
 70
     1
102
RTVSPropertyOp28
 70
     1
102
RTVSPropertyOp29
 70
     1
102
RTVSPropertyOp30
 70
     1
102
RTVSPropertyOp31
 70
     1
102
RTVSPropertyOp32
 70
     1
102
RTVSPropertyOp33
 70
     1
102
RTVSPropertyOp34
 70
     1
102
RTVSPropertyOp35
 70
     1
102
RTVSPropertyOp36
 70
     1
102
RTVSPropertyOp37
 70
     1
102
RTVSPropertyOp38
 70
     1
102
RTVSPropertyOp39
 70
     1
102
RTVSPropertyOp40
 70
     1
102
RTVSPropertyOp41
 70
     1
102
RTVSPropertyOp42
 70
     1
102
RTVSPropertyOp43
 70
     1
102
RTVSPropertyOp44
 70
     1
102
RTVSPropertyOp45
 70
     1
102
RTVSPropertyOp46
 70
     1
102
RTVSPropertyOp47
 70
     1
102
RTVSPropertyOp48
 70
     1
102
RTVSPropertyOp49
 70
     1
102
RTVSPropertyOp50
 70
     1
102
RTVSPropertyOp51
 70
     0
102
RTVSPropertyOp52
 70
     0
102
RTVSPropertyOp53
 70
     1
102
RTVSPropertyOp54
 70
     1
102
RTVSPropertyOp55
 70
     1
102
RTVSPropertyOp56
 70
     1
102
RTVSPropertyOp57
 70
     1
102
RTVSPropertyOp58
 70
     1
102
RTVSPropertyOp59
 70
     1
102
RTVSPropertyOp60
 70
     1
102
RTVSPropertyOp61
 70
     1
102
RTVSPropertyOp62
 70
     1
  0
XRECORD
  5
370
102
{ACAD_REACTORS
330
36F
102
}
330
36F
100
AcDbXrecord
280
     1
102
RTVSPost2010Prop28
280
     0
102
RTVSPost2010PropOp28
 70
     1
102
RTVSPost2010Prop29
280
     1
102
RTVSPost2010PropOp29
 70
     1
102
RTVSPost2010Prop30
280
     1
102
RTVSPost2010PropOp30
 70
     1
102
RTVSPost2010Prop31
280
     0
102
RTVSPost2010PropOp31
 70
     1
102
RTVSPost2010Prop32
280
     0
102
RTVSPost2010PropOp32
 70
     1
102
RTVSPost2010Prop33
280
     0
102
RTVSPost2010PropOp33
 70
     1
102
RTVSPost2010Prop34
280
     0
102
RTVSPost2010PropOp34
 70
     1
102
RTVSPost2010Prop35
280
     0
102
RTVSPost2010PropOp35
 70
     1
102
RTVSPost2010Prop36
280
     0
102
RTVSPost2010PropOp36
 70
     1
102
RTVSPost2010Prop37
 90
       50
102
RTVSPost2010PropOp37
 70
     1
102
RTVSPost2010Prop38
140
0.0
102
RTVSPost2010PropOp38
 70
     1
102
RTVSPost2010Prop39
140
1.0
102
RTVSPost2010PropOp39
 70
     1
102
RTVSPost2010Prop40
 90
        0
102
RTVSPost2010PropOp40
 70
     1
102
RTVSPost2010Prop41ColorIndex
 90
       18
102
RTVSPost2010Prop41ColorRGB
 90
        0
102
RTVSPost2010PropOp41
 70
     1
102
RTVSPost2010Prop42
 90
       50
102
RTVSPost2010PropOp42
 70
     1
102
RTVSPost2010Prop43
 90
        3
102
RTVSPost2010PropOp43
 70
     1
102
RTVSPost2010Prop44ColorIndex
 90
        5
102
RTVSPost2010Prop44ColorRGB
 90
      255
102
RTVSPost2010PropOp44
 70
     1
102
RTVSPost2010Prop45
280
     0
102
RTVSPost2010PropOp45
 70
     1
102
RTVSPost2010Prop46
 90
       50
102
RTVSPost2010PropOp46
 70
     1
102
RTVSPost2010Prop47
 90
       50
102
RTVSPost2010PropOp47
 70
     1
102
RTVSPost2010Prop48
 90
       50
102
RTVSPost2010PropOp48
 70
     1
102
RTVSPost2010Prop49
280
     0
102
RTVSPost2010PropOp49
 70
     1
102
RTVSPost2010Prop50
 90
       50
102
RTVSPost2010PropOp50
 70
     1
102
RTVSPost2010Prop51ColorIndex
 90
      256
102
RTVSPost2010Prop51ColorRGB
 90
-16777216
102
RTVSPost2010PropOp51
 70
     0
102
RTVSPost2010Prop52
140
1.0
102
RTVSPost2010PropOp52
 70
     0
102
RTVSPost2010Prop53
 90
        2
102
RTVSPost2010PropOp53
 70
     1
102
RTVSPost2010Prop54
  1
strokes_ogs.tif
102
RTVSPost2010PropOp54
 70
     1
102
RTVSPost2010Prop55
280
     0
102
RTVSPost2010PropOp55
 70
     1
102
RTVSPost2010Prop56
140
1.0
102
RTVSPost2010PropOp56
 70
     1
102
RTVSPost2010Prop57
140
1.0
102
RTVSPost2010PropOp57
 70
     1
102
RTVSPropertyOp0
 70
     1
102
RTVSPropertyOp1
 70
     1
102
RTVSPropertyOp2
 70
     1
102
RTVSPropertyOp3
 70
     1
102
RTVSPropertyOp4
 70
     1
102
RTVSPropertyOp5
 70
     1
102
RTVSPropertyOp6
 70
     1
102
RTVSPropertyOp7
 70
     1
102
RTVSPropertyOp8
 70
     1
102
RTVSPropertyOp9
 70
     1
102
RTVSPropertyOp10
 70
     1
102
RTVSPropertyOp11
 70
     1
102
RTVSPropertyOp12
 70
     1
102
RTVSPropertyOp13
 70
     1
102
RTVSPropertyOp14
 70
     1
102
RTVSPropertyOp15
 70
     1
102
RTVSPropertyOp16
 70
     1
102
RTVSPropertyOp17
 70
     1
102
RTVSPropertyOp18
 70
     1
102
RTVSPropertyOp19
 70
     1
102
RTVSPropertyOp20
 70
     1
102
RTVSPropertyOp21
 70
     1
102
RTVSPropertyOp22
 70
     1
102
RTVSPropertyOp23
 70
     1
102
RTVSPropertyOp24
 70
     1
102
RTVSPropertyOp25
 70
     1
102
RTVSPropertyOp26
 70
     1
102
RTVSPropertyOp27
 70
     1
102
RTVSPropertyOp28
 70
     1
102
RTVSPropertyOp29
 70
     1
102
RTVSPropertyOp30
 70
     1
102
RTVSPropertyOp31
 70
     1
102
RTVSPropertyOp32
 70
     1
102
RTVSPropertyOp33
 70
     1
102
RTVSPropertyOp34
 70
     1
102
RTVSPropertyOp35
 70
     1
102
RTVSPropertyOp36
 70
     1
102
RTVSPropertyOp37
 70
     1
102
RTVSPropertyOp38
 70
     1
102
RTVSPropertyOp39
 70
     1
102
RTVSPropertyOp40
 70
     1
102
RTVSPropertyOp41
 70
     1
102
RTVSPropertyOp42
 70
     1
102
RTVSPropertyOp43
 70
     1
102
RTVSPropertyOp44
 70
     1
102
RTVSPropertyOp45
 70
     1
102
RTVSPropertyOp46
 70
     1
102
RTVSPropertyOp47
 70
     1
102
RTVSPropertyOp48
 70
     1
102
RTVSPropertyOp49
 70
     1
102
RTVSPropertyOp50
 70
     1
102
RTVSPropertyOp51
 70
     0
102
RTVSPropertyOp52
 70
     0
102
RTVSPropertyOp53
 70
     1
102
RTVSPropertyOp54
 70
     1
102
RTVSPropertyOp55
 70
     1
102
RTVSPropertyOp56
 70
     1
102
RTVSPropertyOp57
 70
     1
102
RTVSPropertyOp58
 70
     1
102
RTVSPropertyOp59
 70
     1
102
RTVSPropertyOp60
 70
     1
102
RTVSPropertyOp61
 70
     1
102
RTVSPropertyOp62
 70
     1
  0
XRECORD
  5
372
102
{ACAD_REACTORS
330
371
102
}
330
371
100
AcDbXrecord
280
     1
102
RTVSPost2010Prop28
280
     0
102
RTVSPost2010PropOp28
 70
     1
102
RTVSPost2010Prop29
280
     1
102
RTVSPost2010PropOp29
 70
     1
102
RTVSPost2010Prop30
280
     1
102
RTVSPost2010PropOp30
 70
     1
102
RTVSPost2010Prop31
280
     0
102
RTVSPost2010PropOp31
 70
     1
102
RTVSPost2010Prop32
280
     0
102
RTVSPost2010PropOp32
 70
     1
102
RTVSPost2010Prop33
280
     0
102
RTVSPost2010PropOp33
 70
     1
102
RTVSPost2010Prop34
280
     0
102
RTVSPost2010PropOp34
 70
     1
102
RTVSPost2010Prop35
280
     0
102
RTVSPost2010PropOp35
 70
     1
102
RTVSPost2010Prop36
280
     0
102
RTVSPost2010PropOp36
 70
     1
102
RTVSPost2010Prop37
 90
       50
102
RTVSPost2010PropOp37
 70
     1
102
RTVSPost2010Prop38
140
0.0
102
RTVSPost2010PropOp38
 70
     1
102
RTVSPost2010Prop39
140
1.0
102
RTVSPost2010PropOp39
 70
     1
102
RTVSPost2010Prop40
 90
        0
102
RTVSPost2010PropOp40
 70
     1
102
RTVSPost2010Prop41ColorIndex
 90
       18
102
RTVSPost2010Prop41ColorRGB
 90
        0
102
RTVSPost2010PropOp41
 70
     1
102
RTVSPost2010Prop42
 90
       50
102
RTVSPost2010PropOp42
 70
     1
102
RTVSPost2010Prop43
 90
        3
102
RTVSPost2010PropOp43
 70
     1
102
RTVSPost2010Prop44ColorIndex
 90
        5
102
RTVSPost2010Prop44ColorRGB
 90
      255
102
RTVSPost2010PropOp44
 70
     1
102
RTVSPost2010Prop45
280
     0
102
RTVSPost2010PropOp45
 70
     1
102
RTVSPost2010Prop46
 90
       50
102
RTVSPost2010PropOp46
 70
     1
102
RTVSPost2010Prop47
 90
       50
102
RTVSPost2010PropOp47
 70
     1
102
RTVSPost2010Prop48
 90
       50
102
RTVSPost2010PropOp48
 70
     1
102
RTVSPost2010Prop49
280
     0
102
RTVSPost2010PropOp49
 70
     1
102
RTVSPost2010Prop50
 90
       50
102
RTVSPost2010PropOp50
 70
     1
102
RTVSPost2010Prop51ColorIndex
 90
      256
102
RTVSPost2010Prop51ColorRGB
 90
-16777216
102
RTVSPost2010PropOp51
 70
     0
102
RTVSPost2010Prop52
140
1.0
102
RTVSPost2010PropOp52
 70
     0
102
RTVSPost2010Prop53
 90
        2
102
RTVSPost2010PropOp53
 70
     1
102
RTVSPost2010Prop54
  1
strokes_ogs.tif
102
RTVSPost2010PropOp54
 70
     1
102
RTVSPost2010Prop55
280
     0
102
RTVSPost2010PropOp55
 70
     1
102
RTVSPost2010Prop56
140
1.0
102
RTVSPost2010PropOp56
 70
     1
102
RTVSPost2010Prop57
140
1.0
102
RTVSPost2010PropOp57
 70
     1
102
RTVSPropertyOp0
 70
     1
102
RTVSPropertyOp1
 70
     1
102
RTVSPropertyOp2
 70
     1
102
RTVSPropertyOp3
 70
     1
102
RTVSPropertyOp4
 70
     1
102
RTVSPropertyOp5
 70
     1
102
RTVSPropertyOp6
 70
     1
102
RTVSPropertyOp7
 70
     1
102
RTVSPropertyOp8
 70
     1
102
RTVSPropertyOp9
 70
     1
102
RTVSPropertyOp10
 70
     1
102
RTVSPropertyOp11
 70
     1
102
RTVSPropertyOp12
 70
     1
102
RTVSPropertyOp13
 70
     1
102
RTVSPropertyOp14
 70
     1
102
RTVSPropertyOp15
 70
     1
102
RTVSPropertyOp16
 70
     1
102
RTVSPropertyOp17
 70
     1
102
RTVSPropertyOp18
 70
     1
102
RTVSPropertyOp19
 70
     1
102
RTVSPropertyOp20
 70
     1
102
RTVSPropertyOp21
 70
     1
102
RTVSPropertyOp22
 70
     1
102
RTVSPropertyOp23
 70
     1
102
RTVSPropertyOp24
 70
     1
102
RTVSPropertyOp25
 70
     1
102
RTVSPropertyOp26
 70
     1
102
RTVSPropertyOp27
 70
     1
102
RTVSPropertyOp28
 70
     1
102
RTVSPropertyOp29
 70
     1
102
RTVSPropertyOp30
 70
     1
102
RTVSPropertyOp31
 70
     1
102
RTVSPropertyOp32
 70
     1
102
RTVSPropertyOp33
 70
     1
102
RTVSPropertyOp34
 70
     1
102
RTVSPropertyOp35
 70
     1
102
RTVSPropertyOp36
 70
     1
102
RTVSPropertyOp37
 70
     1
102
RTVSPropertyOp38
 70
     1
102
RTVSPropertyOp39
 70
     1
102
RTVSPropertyOp40
 70
     1
102
RTVSPropertyOp41
 70
     1
102
RTVSPropertyOp42
 70
     1
102
RTVSPropertyOp43
 70
     1
102
RTVSPropertyOp44
 70
     1
102
RTVSPropertyOp45
 70
     1
102
RTVSPropertyOp46
 70
     1
102
RTVSPropertyOp47
 70
     1
102
RTVSPropertyOp48
 70
     1
102
RTVSPropertyOp49
 70
     1
102
RTVSPropertyOp50
 70
     1
102
RTVSPropertyOp51
 70
     0
102
RTVSPropertyOp52
 70
     0
102
RTVSPropertyOp53
 70
     1
102
RTVSPropertyOp54
 70
     1
102
RTVSPropertyOp55
 70
     1
102
RTVSPropertyOp56
 70
     1
102
RTVSPropertyOp57
 70
     1
102
RTVSPropertyOp58
 70
     1
102
RTVSPropertyOp59
 70
     1
102
RTVSPropertyOp60
 70
     1
102
RTVSPropertyOp61
 70
     1
102
RTVSPropertyOp62
 70
     1
  0
XRECORD
  5
378
102
{ACAD_REACTORS
330
377
102
}
330
377
100
AcDbXrecord
280
     1
102
RTVSPost2010Prop28
280
     0
102
RTVSPost2010PropOp28
 70
     1
102
RTVSPost2010Prop29
280
     1
102
RTVSPost2010PropOp29
 70
     1
102
RTVSPost2010Prop30
280
     1
102
RTVSPost2010PropOp30
 70
     1
102
RTVSPost2010Prop31
280
     0
102
RTVSPost2010PropOp31
 70
     1
102
RTVSPost2010Prop32
280
     0
102
RTVSPost2010PropOp32
 70
     1
102
RTVSPost2010Prop33
280
     0
102
RTVSPost2010PropOp33
 70
     1
102
RTVSPost2010Prop34
280
     0
102
RTVSPost2010PropOp34
 70
     1
102
RTVSPost2010Prop35
280
     0
102
RTVSPost2010PropOp35
 70
     1
102
RTVSPost2010Prop36
280
     0
102
RTVSPost2010PropOp36
 70
     1
102
RTVSPost2010Prop37
 90
       50
102
RTVSPost2010PropOp37
 70
     1
102
RTVSPost2010Prop38
140
0.0
102
RTVSPost2010PropOp38
 70
     1
102
RTVSPost2010Prop39
140
1.0
102
RTVSPost2010PropOp39
 70
     1
102
RTVSPost2010Prop40
 90
        0
102
RTVSPost2010PropOp40
 70
     1
102
RTVSPost2010Prop41ColorIndex
 90
       18
102
RTVSPost2010Prop41ColorRGB
 90
        0
102
RTVSPost2010PropOp41
 70
     1
102
RTVSPost2010Prop42
 90
       50
102
RTVSPost2010PropOp42
 70
     1
102
RTVSPost2010Prop43
 90
        3
102
RTVSPost2010PropOp43
 70
     1
102
RTVSPost2010Prop44ColorIndex
 90
        5
102
RTVSPost2010Prop44ColorRGB
 90
      255
102
RTVSPost2010PropOp44
 70
     1
102
RTVSPost2010Prop45
280
     0
102
RTVSPost2010PropOp45
 70
     1
102
RTVSPost2010Prop46
 90
       50
102
RTVSPost2010PropOp46
 70
     1
102
RTVSPost2010Prop47
 90
       50
102
RTVSPost2010PropOp47
 70
     1
102
RTVSPost2010Prop48
 90
       50
102
RTVSPost2010PropOp48
 70
     1
102
RTVSPost2010Prop49
280
     0
102
RTVSPost2010PropOp49
 70
     1
102
RTVSPost2010Prop50
 90
       50
102
RTVSPost2010PropOp50
 70
     1
102
RTVSPost2010Prop51ColorIndex
 90
      256
102
RTVSPost2010Prop51ColorRGB
 90
-16777216
102
RTVSPost2010PropOp51
 70
     0
102
RTVSPost2010Prop52
140
1.0
102
RTVSPost2010PropOp52
 70
     0
102
RTVSPost2010Prop53
 90
        2
102
RTVSPost2010PropOp53
 70
     1
102
RTVSPost2010Prop54
  1
strokes_ogs.tif
102
RTVSPost2010PropOp54
 70
     1
102
RTVSPost2010Prop55
280
     0
102
RTVSPost2010PropOp55
 70
     1
102
RTVSPost2010Prop56
140
1.0
102
RTVSPost2010PropOp56
 70
     1
102
RTVSPost2010Prop57
140
1.0
102
RTVSPost2010PropOp57
 70
     1
102
RTVSPropertyOp0
 70
     1
102
RTVSPropertyOp1
 70
     1
102
RTVSPropertyOp2
 70
     1
102
RTVSPropertyOp3
 70
     1
102
RTVSPropertyOp4
 70
     1
102
RTVSPropertyOp5
 70
     1
102
RTVSPropertyOp6
 70
     1
102
RTVSPropertyOp7
 70
     1
102
RTVSPropertyOp8
 70
     1
102
RTVSPropertyOp9
 70
     1
102
RTVSPropertyOp10
 70
     1
102
RTVSPropertyOp11
 70
     1
102
RTVSPropertyOp12
 70
     1
102
RTVSPropertyOp13
 70
     1
102
RTVSPropertyOp14
 70
     1
102
RTVSPropertyOp15
 70
     1
102
RTVSPropertyOp16
 70
     1
102
RTVSPropertyOp17
 70
     1
102
RTVSPropertyOp18
 70
     1
102
RTVSPropertyOp19
 70
     1
102
RTVSPropertyOp20
 70
     1
102
RTVSPropertyOp21
 70
     1
102
RTVSPropertyOp22
 70
     1
102
RTVSPropertyOp23
 70
     1
102
RTVSPropertyOp24
 70
     1
102
RTVSPropertyOp25
 70
     1
102
RTVSPropertyOp26
 70
     1
102
RTVSPropertyOp27
 70
     1
102
RTVSPropertyOp28
 70
     1
102
RTVSPropertyOp29
 70
     1
102
RTVSPropertyOp30
 70
     1
102
RTVSPropertyOp31
 70
     1
102
RTVSPropertyOp32
 70
     1
102
RTVSPropertyOp33
 70
     1
102
RTVSPropertyOp34
 70
     1
102
RTVSPropertyOp35
 70
     1
102
RTVSPropertyOp36
 70
     1
102
RTVSPropertyOp37
 70
     1
102
RTVSPropertyOp38
 70
     1
102
RTVSPropertyOp39
 70
     1
102
RTVSPropertyOp40
 70
     1
102
RTVSPropertyOp41
 70
     1
102
RTVSPropertyOp42
 70
     1
102
RTVSPropertyOp43
 70
     1
102
RTVSPropertyOp44
 70
     1
102
RTVSPropertyOp45
 70
     1
102
RTVSPropertyOp46
 70
     1
102
RTVSPropertyOp47
 70
     1
102
RTVSPropertyOp48
 70
     1
102
RTVSPropertyOp49
 70
     1
102
RTVSPropertyOp50
 70
     1
102
RTVSPropertyOp51
 70
     0
102
RTVSPropertyOp52
 70
     0
102
RTVSPropertyOp53
 70
     1
102
RTVSPropertyOp54
 70
     1
102
RTVSPropertyOp55
 70
     1
102
RTVSPropertyOp56
 70
     1
102
RTVSPropertyOp57
 70
     1
102
RTVSPropertyOp58
 70
     1
102
RTVSPropertyOp59
 70
     1
102
RTVSPropertyOp60
 70
     1
102
RTVSPropertyOp61
 70
     1
102
RTVSPropertyOp62
 70
     1
  0
XRECORD
  5
38C
102
{ACAD_REACTORS
330
38B
102
}
330
38B
100
AcDbXrecord
280
     1
102
RTVSPost2010Prop28
280
     0
102
RTVSPost2010PropOp28
 70
     0
102
RTVSPost2010Prop29
280
     1
102
RTVSPost2010PropOp29
 70
     0
102
RTVSPost2010Prop30
280
     1
102
RTVSPost2010PropOp30
 70
     0
102
RTVSPost2010Prop31
280
     0
102
RTVSPost2010PropOp31
 70
     0
102
RTVSPost2010Prop32
280
     0
102
RTVSPost2010PropOp32
 70
     0
102
RTVSPost2010Prop33
280
     0
102
RTVSPost2010PropOp33
 70
     0
102
RTVSPost2010Prop34
280
     0
102
RTVSPost2010PropOp34
 70
     0
102
RTVSPost2010Prop35
280
     0
102
RTVSPost2010PropOp35
 70
     0
102
RTVSPost2010Prop36
280
     0
102
RTVSPost2010PropOp36
 70
     0
102
RTVSPost2010Prop37
 90
       50
102
RTVSPost2010PropOp37
 70
     0
102
RTVSPost2010Prop38
140
0.0
102
RTVSPost2010PropOp38
 70
     0
102
RTVSPost2010Prop39
140
1.0
102
RTVSPost2010PropOp39
 70
     0
102
RTVSPost2010Prop40
 90
        0
102
RTVSPost2010PropOp40
 70
     0
102
RTVSPost2010Prop41ColorIndex
 90
       18
102
RTVSPost2010Prop41ColorRGB
 90
        0
102
RTVSPost2010PropOp41
 70
     0
102
RTVSPost2010Prop42
 90
       50
102
RTVSPost2010PropOp42
 70
     0
102
RTVSPost2010Prop43
 90
        3
102
RTVSPost2010PropOp43
 70
     0
102
RTVSPost2010Prop44ColorIndex
 90
        5
102
RTVSPost2010Prop44ColorRGB
 90
      255
102
RTVSPost2010PropOp44
 70
     0
102
RTVSPost2010Prop45
280
     0
102
RTVSPost2010PropOp45
 70
     0
102
RTVSPost2010Prop46
 90
       50
102
RTVSPost2010PropOp46
 70
     0
102
RTVSPost2010Prop47
 90
       50
102
RTVSPost2010PropOp47
 70
     0
102
RTVSPost2010Prop48
 90
       50
102
RTVSPost2010PropOp48
 70
     0
102
RTVSPost2010Prop49
280
     0
102
RTVSPost2010PropOp49
 70
     0
102
RTVSPost2010Prop50
 90
       50
102
RTVSPost2010PropOp50
 70
     0
102
RTVSPost2010Prop51ColorIndex
 90
      256
102
RTVSPost2010Prop51ColorRGB
 90
-16777216
102
RTVSPost2010PropOp51
 70
     0
102
RTVSPost2010Prop52
140
1.0
102
RTVSPost2010PropOp52
 70
     0
102
RTVSPost2010Prop53
 90
        2
102
RTVSPost2010PropOp53
 70
     0
102
RTVSPost2010Prop54
  1
strokes_ogs.tif
102
RTVSPost2010PropOp54
 70
     0
102
RTVSPost2010Prop55
280
     0
102
RTVSPost2010PropOp55
 70
     0
102
RTVSPost2010Prop56
140
1.0
102
RTVSPost2010PropOp56
 70
     0
102
RTVSPost2010Prop57
140
1.0
102
RTVSPost2010PropOp57
 70
     0
102
RTVSPropertyOp0
 70
     0
102
RTVSPropertyOp1
 70
     0
102
RTVSPropertyOp2
 70
     0
102
RTVSPropertyOp3
 70
     0
102
RTVSPropertyOp4
 70
     0
102
RTVSPropertyOp5
 70
     0
102
RTVSPropertyOp6
 70
     0
102
RTVSPropertyOp7
 70
     0
102
RTVSPropertyOp8
 70
     0
102
RTVSPropertyOp9
 70
     0
102
RTVSPropertyOp10
 70
     0
102
RTVSPropertyOp11
 70
     0
102
RTVSPropertyOp12
 70
     0
102
RTVSPropertyOp13
 70
     0
102
RTVSPropertyOp14
 70
     2
102
RTVSPropertyOp15
 70
     0
102
RTVSPropertyOp16
 70
     0
102
RTVSPropertyOp17
 70
     0
102
RTVSPropertyOp18
 70
     0
102
RTVSPropertyOp19
 70
     0
102
RTVSPropertyOp20
 70
     0
102
RTVSPropertyOp21
 70
     0
102
RTVSPropertyOp22
 70
     0
102
RTVSPropertyOp23
 70
     0
102
RTVSPropertyOp24
 70
     0
102
RTVSPropertyOp25
 70
     0
102
RTVSPropertyOp26
 70
     0
102
RTVSPropertyOp27
 70
     0
102
RTVSPropertyOp28
 70
     0
102
RTVSPropertyOp29
 70
     0
102
RTVSPropertyOp30
 70
     0
102
RTVSPropertyOp31
 70
     0
102
RTVSPropertyOp32
 70
     0
102
RTVSPropertyOp33
 70
     0
102
RTVSPropertyOp34
 70
     0
102
RTVSPropertyOp35
 70
     0
102
RTVSPropertyOp36
 70
     0
102
RTVSPropertyOp37
 70
     0
102
RTVSPropertyOp38
 70
     0
102
RTVSPropertyOp39
 70
     0
102
RTVSPropertyOp40
 70
     0
102
RTVSPropertyOp41
 70
     0
102
RTVSPropertyOp42
 70
     0
102
RTVSPropertyOp43
 70
     0
102
RTVSPropertyOp44
 70
     0
102
RTVSPropertyOp45
 70
     0
102
RTVSPropertyOp46
 70
     0
102
RTVSPropertyOp47
 70
     0
102
RTVSPropertyOp48
 70
     0
102
RTVSPropertyOp49
 70
     0
102
RTVSPropertyOp50
 70
     0
102
RTVSPropertyOp51
 70
     0
102
RTVSPropertyOp52
 70
     0
102
RTVSPropertyOp53
 70
     0
102
RTVSPropertyOp54
 70
     0
102
RTVSPropertyOp55
 70
     0
102
RTVSPropertyOp56
 70
     0
102
RTVSPropertyOp57
 70
     0
102
RTVSPropertyOp58
 70
     1
102
RTVSPropertyOp59
 70
     1
102
RTVSPropertyOp60
 70
     1
102
RTVSPropertyOp61
 70
     1
102
RTVSPropertyOp62
 70
     1
  0
XRECORD
  5
386
102
{ACAD_REACTORS
330
385
102
}
330
385
100
AcDbXrecord
280
     1
102
RTVSPost2010Prop28
280
     0
102
RTVSPost2010PropOp28
 70
     1
102
RTVSPost2010Prop29
280
     1
102
RTVSPost2010PropOp29
 70
     1
102
RTVSPost2010Prop30
280
     1
102
RTVSPost2010PropOp30
 70
     1
102
RTVSPost2010Prop31
280
     0
102
RTVSPost2010PropOp31
 70
     1
102
RTVSPost2010Prop32
280
     0
102
RTVSPost2010PropOp32
 70
     1
102
RTVSPost2010Prop33
280
     0
102
RTVSPost2010PropOp33
 70
     1
102
RTVSPost2010Prop34
280
     0
102
RTVSPost2010PropOp34
 70
     1
102
RTVSPost2010Prop35
280
     0
102
RTVSPost2010PropOp35
 70
     1
102
RTVSPost2010Prop36
280
     0
102
RTVSPost2010PropOp36
 70
     1
102
RTVSPost2010Prop37
 90
       50
102
RTVSPost2010PropOp37
 70
     1
102
RTVSPost2010Prop38
140
0.0
102
RTVSPost2010PropOp38
 70
     1
102
RTVSPost2010Prop39
140
1.0
102
RTVSPost2010PropOp39
 70
     1
102
RTVSPost2010Prop40
 90
        0
102
RTVSPost2010PropOp40
 70
     1
102
RTVSPost2010Prop41ColorIndex
 90
       18
102
RTVSPost2010Prop41ColorRGB
 90
        0
102
RTVSPost2010PropOp41
 70
     1
102
RTVSPost2010Prop42
 90
       50
102
RTVSPost2010PropOp42
 70
     1
102
RTVSPost2010Prop43
 90
        3
102
RTVSPost2010PropOp43
 70
     1
102
RTVSPost2010Prop44ColorIndex
 90
        5
102
RTVSPost2010Prop44ColorRGB
 90
      255
102
RTVSPost2010PropOp44
 70
     1
102
RTVSPost2010Prop45
280
     0
102
RTVSPost2010PropOp45
 70
     1
102
RTVSPost2010Prop46
 90
       50
102
RTVSPost2010PropOp46
 70
     1
102
RTVSPost2010Prop47
 90
       50
102
RTVSPost2010PropOp47
 70
     1
102
RTVSPost2010Prop48
 90
       50
102
RTVSPost2010PropOp48
 70
     1
102
RTVSPost2010Prop49
280
     0
102
RTVSPost2010PropOp49
 70
     1
102
RTVSPost2010Prop50
 90
       50
102
RTVSPost2010PropOp50
 70
     1
102
RTVSPost2010Prop51ColorIndex
 90
      256
102
RTVSPost2010Prop51ColorRGB
 90
-16777216
102
RTVSPost2010PropOp51
 70
     0
102
RTVSPost2010Prop52
140
1.0
102
RTVSPost2010PropOp52
 70
     0
102
RTVSPost2010Prop53
 90
        2
102
RTVSPost2010PropOp53
 70
     1
102
RTVSPost2010Prop54
  1
strokes_ogs.tif
102
RTVSPost2010PropOp54
 70
     1
102
RTVSPost2010Prop55
280
     0
102
RTVSPost2010PropOp55
 70
     1
102
RTVSPost2010Prop56
140
1.0
102
RTVSPost2010PropOp56
 70
     1
102
RTVSPost2010Prop57
140
1.0
102
RTVSPost2010PropOp57
 70
     1
102
RTVSPropertyOp0
 70
     1
102
RTVSPropertyOp1
 70
     1
102
RTVSPropertyOp2
 70
     1
102
RTVSPropertyOp3
 70
     1
102
RTVSPropertyOp4
 70
     1
102
RTVSPropertyOp5
 70
     1
102
RTVSPropertyOp6
 70
     1
102
RTVSPropertyOp7
 70
     1
102
RTVSPropertyOp8
 70
     1
102
RTVSPropertyOp9
 70
     1
102
RTVSPropertyOp10
 70
     1
102
RTVSPropertyOp11
 70
     1
102
RTVSPropertyOp12
 70
     1
102
RTVSPropertyOp13
 70
     1
102
RTVSPropertyOp14
 70
     1
102
RTVSPropertyOp15
 70
     1
102
RTVSPropertyOp16
 70
     1
102
RTVSPropertyOp17
 70
     1
102
RTVSPropertyOp18
 70
     1
102
RTVSPropertyOp19
 70
     1
102
RTVSPropertyOp20
 70
     1
102
RTVSPropertyOp21
 70
     1
102
RTVSPropertyOp22
 70
     1
102
RTVSPropertyOp23
 70
     1
102
RTVSPropertyOp24
 70
     1
102
RTVSPropertyOp25
 70
     1
102
RTVSPropertyOp26
 70
     1
102
RTVSPropertyOp27
 70
     1
102
RTVSPropertyOp28
 70
     1
102
RTVSPropertyOp29
 70
     1
102
RTVSPropertyOp30
 70
     1
102
RTVSPropertyOp31
 70
     1
102
RTVSPropertyOp32
 70
     1
102
RTVSPropertyOp33
 70
     1
102
RTVSPropertyOp34
 70
     1
102
RTVSPropertyOp35
 70
     1
102
RTVSPropertyOp36
 70
     1
102
RTVSPropertyOp37
 70
     1
102
RTVSPropertyOp38
 70
     1
102
RTVSPropertyOp39
 70
     1
102
RTVSPropertyOp40
 70
     1
102
RTVSPropertyOp41
 70
     1
102
RTVSPropertyOp42
 70
     1
102
RTVSPropertyOp43
 70
     1
102
RTVSPropertyOp44
 70
     1
102
RTVSPropertyOp45
 70
     1
102
RTVSPropertyOp46
 70
     1
102
RTVSPropertyOp47
 70
     1
102
RTVSPropertyOp48
 70
     1
102
RTVSPropertyOp49
 70
     1
102
RTVSPropertyOp50
 70
     1
102
RTVSPropertyOp51
 70
     0
102
RTVSPropertyOp52
 70
     0
102
RTVSPropertyOp53
 70
     1
102
RTVSPropertyOp54
 70
     1
102
RTVSPropertyOp55
 70
     1
102
RTVSPropertyOp56
 70
     1
102
RTVSPropertyOp57
 70
     1
102
RTVSPropertyOp58
 70
     1
102
RTVSPropertyOp59
 70
     1
102
RTVSPropertyOp60
 70
     1
102
RTVSPropertyOp61
 70
     1
102
RTVSPropertyOp62
 70
     1
  0
XRECORD
  5
38E
102
{ACAD_REACTORS
330
38D
102
}
330
38D
100
AcDbXrecord
280
     1
102
RTVSPost2010Prop28
280
     0
102
RTVSPost2010PropOp28
 70
     0
102
RTVSPost2010Prop29
280
     1
102
RTVSPost2010PropOp29
 70
     0
102
RTVSPost2010Prop30
280
     1
102
RTVSPost2010PropOp30
 70
     0
102
RTVSPost2010Prop31
280
     0
102
RTVSPost2010PropOp31
 70
     0
102
RTVSPost2010Prop32
280
     0
102
RTVSPost2010PropOp32
 70
     0
102
RTVSPost2010Prop33
280
     0
102
RTVSPost2010PropOp33
 70
     0
102
RTVSPost2010Prop34
280
     0
102
RTVSPost2010PropOp34
 70
     0
102
RTVSPost2010Prop35
280
     0
102
RTVSPost2010PropOp35
 70
     0
102
RTVSPost2010Prop36
280
     0
102
RTVSPost2010PropOp36
 70
     0
102
RTVSPost2010Prop37
 90
       50
102
RTVSPost2010PropOp37
 70
     0
102
RTVSPost2010Prop38
140
0.0
102
RTVSPost2010PropOp38
 70
     0
102
RTVSPost2010Prop39
140
1.0
102
RTVSPost2010PropOp39
 70
     0
102
RTVSPost2010Prop40
 90
        0
102
RTVSPost2010PropOp40
 70
     0
102
RTVSPost2010Prop41ColorIndex
 90
       18
102
RTVSPost2010Prop41ColorRGB
 90
        0
102
RTVSPost2010PropOp41
 70
     0
102
RTVSPost2010Prop42
 90
       50
102
RTVSPost2010PropOp42
 70
     0
102
RTVSPost2010Prop43
 90
        3
102
RTVSPost2010PropOp43
 70
     0
102
RTVSPost2010Prop44ColorIndex
 90
        5
102
RTVSPost2010Prop44ColorRGB
 90
      255
102
RTVSPost2010PropOp44
 70
     0
102
RTVSPost2010Prop45
280
     0
102
RTVSPost2010PropOp45
 70
     0
102
RTVSPost2010Prop46
 90
       50
102
RTVSPost2010PropOp46
 70
     0
102
RTVSPost2010Prop47
 90
       50
102
RTVSPost2010PropOp47
 70
     0
102
RTVSPost2010Prop48
 90
       50
102
RTVSPost2010PropOp48
 70
     0
102
RTVSPost2010Prop49
280
     0
102
RTVSPost2010PropOp49
 70
     0
102
RTVSPost2010Prop50
 90
       50
102
RTVSPost2010PropOp50
 70
     0
102
RTVSPost2010Prop51ColorIndex
 90
      256
102
RTVSPost2010Prop51ColorRGB
 90
-16777216
102
RTVSPost2010PropOp51
 70
     0
102
RTVSPost2010Prop52
140
1.0
102
RTVSPost2010PropOp52
 70
     0
102
RTVSPost2010Prop53
 90
        2
102
RTVSPost2010PropOp53
 70
     0
102
RTVSPost2010Prop54
  1
strokes_ogs.tif
102
RTVSPost2010PropOp54
 70
     0
102
RTVSPost2010Prop55
280
     0
102
RTVSPost2010PropOp55
 70
     0
102
RTVSPost2010Prop56
140
1.0
102
RTVSPost2010PropOp56
 70
     0
102
RTVSPost2010Prop57
140
1.0
102
RTVSPost2010PropOp57
 70
     0
102
RTVSPropertyOp0
 70
     0
102
RTVSPropertyOp1
 70
     0
102
RTVSPropertyOp2
 70
     0
102
RTVSPropertyOp3
 70
     0
102
RTVSPropertyOp4
 70
     0
102
RTVSPropertyOp5
 70
     0
102
RTVSPropertyOp6
 70
     0
102
RTVSPropertyOp7
 70
     0
102
RTVSPropertyOp8
 70
     0
102
RTVSPropertyOp9
 70
     0
102
RTVSPropertyOp10
 70
     0
102
RTVSPropertyOp11
 70
     0
102
RTVSPropertyOp12
 70
     0
102
RTVSPropertyOp13
 70
     0
102
RTVSPropertyOp14
 70
     2
102
RTVSPropertyOp15
 70
     0
102
RTVSPropertyOp16
 70
     0
102
RTVSPropertyOp17
 70
     0
102
RTVSPropertyOp18
 70
     0
102
RTVSPropertyOp19
 70
     0
102
RTVSPropertyOp20
 70
     0
102
RTVSPropertyOp21
 70
     0
102
RTVSPropertyOp22
 70
     0
102
RTVSPropertyOp23
 70
     0
102
RTVSPropertyOp24
 70
     0
102
RTVSPropertyOp25
 70
     0
102
RTVSPropertyOp26
 70
     0
102
RTVSPropertyOp27
 70
     0
102
RTVSPropertyOp28
 70
     0
102
RTVSPropertyOp29
 70
     0
102
RTVSPropertyOp30
 70
     0
102
RTVSPropertyOp31
 70
     0
102
RTVSPropertyOp32
 70
     0
102
RTVSPropertyOp33
 70
     0
102
RTVSPropertyOp34
 70
     0
102
RTVSPropertyOp35
 70
     0
102
RTVSPropertyOp36
 70
     0
102
RTVSPropertyOp37
 70
     0
102
RTVSPropertyOp38
 70
     0
102
RTVSPropertyOp39
 70
     0
102
RTVSPropertyOp40
 70
     0
102
RTVSPropertyOp41
 70
     0
102
RTVSPropertyOp42
 70
     0
102
RTVSPropertyOp43
 70
     0
102
RTVSPropertyOp44
 70
     0
102
RTVSPropertyOp45
 70
     0
102
RTVSPropertyOp46
 70
     0
102
RTVSPropertyOp47
 70
     0
102
RTVSPropertyOp48
 70
     0
102
RTVSPropertyOp49
 70
     0
102
RTVSPropertyOp50
 70
     0
102
RTVSPropertyOp51
 70
     0
102
RTVSPropertyOp52
 70
     0
102
RTVSPropertyOp53
 70
     0
102
RTVSPropertyOp54
 70
     0
102
RTVSPropertyOp55
 70
     0
102
RTVSPropertyOp56
 70
     0
102
RTVSPropertyOp57
 70
     0
102
RTVSPropertyOp58
 70
     1
102
RTVSPropertyOp59
 70
     1
102
RTVSPropertyOp60
 70
     1
102
RTVSPropertyOp61
 70
     1
102
RTVSPropertyOp62
 70
     1
  0
XRECORD
  5
37C
102
{ACAD_REACTORS
330
37B
102
}
330
37B
100
AcDbXrecord
280
     1
102
RTVSPost2010Prop28
280
     0
102
RTVSPost2010PropOp28
 70
     1
102
RTVSPost2010Prop29
280
     1
102
RTVSPost2010PropOp29
 70
     1
102
RTVSPost2010Prop30
280
     1
102
RTVSPost2010PropOp30
 70
     1
102
RTVSPost2010Prop31
280
     0
102
RTVSPost2010PropOp31
 70
     1
102
RTVSPost2010Prop32
280
     0
102
RTVSPost2010PropOp32
 70
     1
102
RTVSPost2010Prop33
280
     0
102
RTVSPost2010PropOp33
 70
     1
102
RTVSPost2010Prop34
280
     0
102
RTVSPost2010PropOp34
 70
     1
102
RTVSPost2010Prop35
280
     0
102
RTVSPost2010PropOp35
 70
     1
102
RTVSPost2010Prop36
280
     0
102
RTVSPost2010PropOp36
 70
     1
102
RTVSPost2010Prop37
 90
       50
102
RTVSPost2010PropOp37
 70
     1
102
RTVSPost2010Prop38
140
0.0
102
RTVSPost2010PropOp38
 70
     1
102
RTVSPost2010Prop39
140
1.0
102
RTVSPost2010PropOp39
 70
     1
102
RTVSPost2010Prop40
 90
        0
102
RTVSPost2010PropOp40
 70
     1
102
RTVSPost2010Prop41ColorIndex
 90
       18
102
RTVSPost2010Prop41ColorRGB
 90
        0
102
RTVSPost2010PropOp41
 70
     1
102
RTVSPost2010Prop42
 90
       50
102
RTVSPost2010PropOp42
 70
     1
102
RTVSPost2010Prop43
 90
        3
102
RTVSPost2010PropOp43
 70
     1
102
RTVSPost2010Prop44ColorIndex
 90
        5
102
RTVSPost2010Prop44ColorRGB
 90
      255
102
RTVSPost2010PropOp44
 70
     1
102
RTVSPost2010Prop45
280
     0
102
RTVSPost2010PropOp45
 70
     1
102
RTVSPost2010Prop46
 90
       50
102
RTVSPost2010PropOp46
 70
     1
102
RTVSPost2010Prop47
 90
       50
102
RTVSPost2010PropOp47
 70
     1
102
RTVSPost2010Prop48
 90
       50
102
RTVSPost2010PropOp48
 70
     1
102
RTVSPost2010Prop49
280
     0
102
RTVSPost2010PropOp49
 70
     1
102
RTVSPost2010Prop50
 90
       50
102
RTVSPost2010PropOp50
 70
     1
102
RTVSPost2010Prop51ColorIndex
 90
      256
102
RTVSPost2010Prop51ColorRGB
 90
-16777216
102
RTVSPost2010PropOp51
 70
     0
102
RTVSPost2010Prop52
140
1.0
102
RTVSPost2010PropOp52
 70
     0
102
RTVSPost2010Prop53
 90
        2
102
RTVSPost2010PropOp53
 70
     1
102
RTVSPost2010Prop54
  1
strokes_ogs.tif
102
RTVSPost2010PropOp54
 70
     1
102
RTVSPost2010Prop55
280
     0
102
RTVSPost2010PropOp55
 70
     1
102
RTVSPost2010Prop56
140
1.0
102
RTVSPost2010PropOp56
 70
     1
102
RTVSPost2010Prop57
140
1.0
102
RTVSPost2010PropOp57
 70
     1
102
RTVSPropertyOp0
 70
     1
102
RTVSPropertyOp1
 70
     1
102
RTVSPropertyOp2
 70
     1
102
RTVSPropertyOp3
 70
     1
102
RTVSPropertyOp4
 70
     1
102
RTVSPropertyOp5
 70
     1
102
RTVSPropertyOp6
 70
     1
102
RTVSPropertyOp7
 70
     1
102
RTVSPropertyOp8
 70
     1
102
RTVSPropertyOp9
 70
     1
102
RTVSPropertyOp10
 70
     1
102
RTVSPropertyOp11
 70
     1
102
RTVSPropertyOp12
 70
     1
102
RTVSPropertyOp13
 70
     1
102
RTVSPropertyOp14
 70
     1
102
RTVSPropertyOp15
 70
     1
102
RTVSPropertyOp16
 70
     1
102
RTVSPropertyOp17
 70
     1
102
RTVSPropertyOp18
 70
     1
102
RTVSPropertyOp19
 70
     1
102
RTVSPropertyOp20
 70
     1
102
RTVSPropertyOp21
 70
     1
102
RTVSPropertyOp22
 70
     1
102
RTVSPropertyOp23
 70
     1
102
RTVSPropertyOp24
 70
     1
102
RTVSPropertyOp25
 70
     1
102
RTVSPropertyOp26
 70
     1
102
RTVSPropertyOp27
 70
     1
102
RTVSPropertyOp28
 70
     1
102
RTVSPropertyOp29
 70
     1
102
RTVSPropertyOp30
 70
     1
102
RTVSPropertyOp31
 70
     1
102
RTVSPropertyOp32
 70
     1
102
RTVSPropertyOp33
 70
     1
102
RTVSPropertyOp34
 70
     1
102
RTVSPropertyOp35
 70
     1
102
RTVSPropertyOp36
 70
     1
102
RTVSPropertyOp37
 70
     1
102
RTVSPropertyOp38
 70
     1
102
RTVSPropertyOp39
 70
     1
102
RTVSPropertyOp40
 70
     1
102
RTVSPropertyOp41
 70
     1
102
RTVSPropertyOp42
 70
     1
102
RTVSPropertyOp43
 70
     1
102
RTVSPropertyOp44
 70
     1
102
RTVSPropertyOp45
 70
     1
102
RTVSPropertyOp46
 70
     1
102
RTVSPropertyOp47
 70
     1
102
RTVSPropertyOp48
 70
     1
102
RTVSPropertyOp49
 70
     1
102
RTVSPropertyOp50
 70
     1
102
RTVSPropertyOp51
 70
     0
102
RTVSPropertyOp52
 70
     0
102
RTVSPropertyOp53
 70
     1
102
RTVSPropertyOp54
 70
     1
102
RTVSPropertyOp55
 70
     1
102
RTVSPropertyOp56
 70
     1
102
RTVSPropertyOp57
 70
     1
102
RTVSPropertyOp58
 70
     1
102
RTVSPropertyOp59
 70
     1
102
RTVSPropertyOp60
 70
     1
102
RTVSPropertyOp61
 70
     1
102
RTVSPropertyOp62
 70
     1
  0
XRECORD
  5
39A
102
{ACAD_REACTORS
330
399
102
}
330
399
100
AcDbXrecord
280
     1
102
RTVSPost2010Prop28
280
     0
102
RTVSPost2010PropOp28
 70
     1
102
RTVSPost2010Prop29
280
     1
102
RTVSPost2010PropOp29
 70
     1
102
RTVSPost2010Prop30
280
     1
102
RTVSPost2010PropOp30
 70
     1
102
RTVSPost2010Prop31
280
     0
102
RTVSPost2010PropOp31
 70
     1
102
RTVSPost2010Prop32
280
     0
102
RTVSPost2010PropOp32
 70
     1
102
RTVSPost2010Prop33
280
     0
102
RTVSPost2010PropOp33
 70
     1
102
RTVSPost2010Prop34
280
     0
102
RTVSPost2010PropOp34
 70
     1
102
RTVSPost2010Prop35
280
     0
102
RTVSPost2010PropOp35
 70
     1
102
RTVSPost2010Prop36
280
     0
102
RTVSPost2010PropOp36
 70
     1
102
RTVSPost2010Prop37
 90
       50
102
RTVSPost2010PropOp37
 70
     1
102
RTVSPost2010Prop38
140
0.0
102
RTVSPost2010PropOp38
 70
     1
102
RTVSPost2010Prop39
140
1.0
102
RTVSPost2010PropOp39
 70
     1
102
RTVSPost2010Prop40
 90
        0
102
RTVSPost2010PropOp40
 70
     1
102
RTVSPost2010Prop41ColorIndex
 90
       18
102
RTVSPost2010Prop41ColorRGB
 90
        0
102
RTVSPost2010PropOp41
 70
     1
102
RTVSPost2010Prop42
 90
       50
102
RTVSPost2010PropOp42
 70
     1
102
RTVSPost2010Prop43
 90
        3
102
RTVSPost2010PropOp43
 70
     1
102
RTVSPost2010Prop44ColorIndex
 90
        5
102
RTVSPost2010Prop44ColorRGB
 90
      255
102
RTVSPost2010PropOp44
 70
     1
102
RTVSPost2010Prop45
280
     0
102
RTVSPost2010PropOp45
 70
     1
102
RTVSPost2010Prop46
 90
       50
102
RTVSPost2010PropOp46
 70
     1
102
RTVSPost2010Prop47
 90
       50
102
RTVSPost2010PropOp47
 70
     1
102
RTVSPost2010Prop48
 90
       50
102
RTVSPost2010PropOp48
 70
     1
102
RTVSPost2010Prop49
280
     0
102
RTVSPost2010PropOp49
 70
     1
102
RTVSPost2010Prop50
 90
       50
102
RTVSPost2010PropOp50
 70
     1
102
RTVSPost2010Prop51ColorIndex
 90
      256
102
RTVSPost2010Prop51ColorRGB
 90
-16777216
102
RTVSPost2010PropOp51
 70
     0
102
RTVSPost2010Prop52
140
1.0
102
RTVSPost2010PropOp52
 70
     0
102
RTVSPost2010Prop53
 90
        2
102
RTVSPost2010PropOp53
 70
     1
102
RTVSPost2010Prop54
  1
strokes_ogs.tif
102
RTVSPost2010PropOp54
 70
     1
102
RTVSPost2010Prop55
280
     0
102
RTVSPost2010PropOp55
 70
     1
102
RTVSPost2010Prop56
140
1.0
102
RTVSPost2010PropOp56
 70
     1
102
RTVSPost2010Prop57
140
1.0
102
RTVSPost2010PropOp57
 70
     1
102
RTVSPropertyOp0
 70
     1
102
RTVSPropertyOp1
 70
     1
102
RTVSPropertyOp2
 70
     1
102
RTVSPropertyOp3
 70
     1
102
RTVSPropertyOp4
 70
     1
102
RTVSPropertyOp5
 70
     1
102
RTVSPropertyOp6
 70
     1
102
RTVSPropertyOp7
 70
     1
102
RTVSPropertyOp8
 70
     1
102
RTVSPropertyOp9
 70
     1
102
RTVSPropertyOp10
 70
     1
102
RTVSPropertyOp11
 70
     1
102
RTVSPropertyOp12
 70
     1
102
RTVSPropertyOp13
 70
     1
102
RTVSPropertyOp14
 70
     1
102
RTVSPropertyOp15
 70
     1
102
RTVSPropertyOp16
 70
     1
102
RTVSPropertyOp17
 70
     1
102
RTVSPropertyOp18
 70
     1
102
RTVSPropertyOp19
 70
     1
102
RTVSPropertyOp20
 70
     1
102
RTVSPropertyOp21
 70
     1
102
RTVSPropertyOp22
 70
     1
102
RTVSPropertyOp23
 70
     1
102
RTVSPropertyOp24
 70
     1
102
RTVSPropertyOp25
 70
     1
102
RTVSPropertyOp26
 70
     1
102
RTVSPropertyOp27
 70
     1
102
RTVSPropertyOp28
 70
     1
102
RTVSPropertyOp29
 70
     1
102
RTVSPropertyOp30
 70
     1
102
RTVSPropertyOp31
 70
     1
102
RTVSPropertyOp32
 70
     1
102
RTVSPropertyOp33
 70
     1
102
RTVSPropertyOp34
 70
     1
102
RTVSPropertyOp35
 70
     1
102
RTVSPropertyOp36
 70
     1
102
RTVSPropertyOp37
 70
     1
102
RTVSPropertyOp38
 70
     1
102
RTVSPropertyOp39
 70
     1
102
RTVSPropertyOp40
 70
     1
102
RTVSPropertyOp41
 70
     1
102
RTVSPropertyOp42
 70
     1
102
RTVSPropertyOp43
 70
     1
102
RTVSPropertyOp44
 70
     1
102
RTVSPropertyOp45
 70
     1
102
RTVSPropertyOp46
 70
     1
102
RTVSPropertyOp47
 70
     1
102
RTVSPropertyOp48
 70
     1
102
RTVSPropertyOp49
 70
     1
102
RTVSPropertyOp50
 70
     1
102
RTVSPropertyOp51
 70
     0
102
RTVSPropertyOp52
 70
     0
102
RTVSPropertyOp53
 70
     1
102
RTVSPropertyOp54
 70
     1
102
RTVSPropertyOp55
 70
     1
102
RTVSPropertyOp56
 70
     1
102
RTVSPropertyOp57
 70
     1
102
RTVSPropertyOp58
 70
     1
102
RTVSPropertyOp59
 70
     1
102
RTVSPropertyOp60
 70
     1
102
RTVSPropertyOp61
 70
     1
102
RTVSPropertyOp62
 70
     1
  0
XRECORD
  5
398
102
{ACAD_REACTORS
330
397
102
}
330
397
100
AcDbXrecord
280
     1
102
RTVSPost2010Prop28
280
     0
102
RTVSPost2010PropOp28
 70
     1
102
RTVSPost2010Prop29
280
     1
102
RTVSPost2010PropOp29
 70
     1
102
RTVSPost2010Prop30
280
     1
102
RTVSPost2010PropOp30
 70
     1
102
RTVSPost2010Prop31
280
     0
102
RTVSPost2010PropOp31
 70
     1
102
RTVSPost2010Prop32
280
     0
102
RTVSPost2010PropOp32
 70
     1
102
RTVSPost2010Prop33
280
     0
102
RTVSPost2010PropOp33
 70
     1
102
RTVSPost2010Prop34
280
     0
102
RTVSPost2010PropOp34
 70
     1
102
RTVSPost2010Prop35
280
     0
102
RTVSPost2010PropOp35
 70
     1
102
RTVSPost2010Prop36
280
     0
102
RTVSPost2010PropOp36
 70
     1
102
RTVSPost2010Prop37
 90
       50
102
RTVSPost2010PropOp37
 70
     1
102
RTVSPost2010Prop38
140
0.0
102
RTVSPost2010PropOp38
 70
     1
102
RTVSPost2010Prop39
140
1.0
102
RTVSPost2010PropOp39
 70
     1
102
RTVSPost2010Prop40
 90
        0
102
RTVSPost2010PropOp40
 70
     1
102
RTVSPost2010Prop41ColorIndex
 90
       18
102
RTVSPost2010Prop41ColorRGB
 90
        0
102
RTVSPost2010PropOp41
 70
     1
102
RTVSPost2010Prop42
 90
       50
102
RTVSPost2010PropOp42
 70
     1
102
RTVSPost2010Prop43
 90
        3
102
RTVSPost2010PropOp43
 70
     1
102
RTVSPost2010Prop44ColorIndex
 90
        5
102
RTVSPost2010Prop44ColorRGB
 90
      255
102
RTVSPost2010PropOp44
 70
     1
102
RTVSPost2010Prop45
280
     0
102
RTVSPost2010PropOp45
 70
     1
102
RTVSPost2010Prop46
 90
       50
102
RTVSPost2010PropOp46
 70
     1
102
RTVSPost2010Prop47
 90
       50
102
RTVSPost2010PropOp47
 70
     1
102
RTVSPost2010Prop48
 90
       50
102
RTVSPost2010PropOp48
 70
     1
102
RTVSPost2010Prop49
280
     0
102
RTVSPost2010PropOp49
 70
     1
102
RTVSPost2010Prop50
 90
       50
102
RTVSPost2010PropOp50
 70
     1
102
RTVSPost2010Prop51ColorIndex
 90
      256
102
RTVSPost2010Prop51ColorRGB
 90
-16777216
102
RTVSPost2010PropOp51
 70
     0
102
RTVSPost2010Prop52
140
1.0
102
RTVSPost2010PropOp52
 70
     0
102
RTVSPost2010Prop53
 90
        2
102
RTVSPost2010PropOp53
 70
     1
102
RTVSPost2010Prop54
  1
strokes_ogs.tif
102
RTVSPost2010PropOp54
 70
     1
102
RTVSPost2010Prop55
280
     0
102
RTVSPost2010PropOp55
 70
     1
102
RTVSPost2010Prop56
140
1.0
102
RTVSPost2010PropOp56
 70
     1
102
RTVSPost2010Prop57
140
1.0
102
RTVSPost2010PropOp57
 70
     1
102
RTVSPropertyOp0
 70
     1
102
RTVSPropertyOp1
 70
     1
102
RTVSPropertyOp2
 70
     1
102
RTVSPropertyOp3
 70
     1
102
RTVSPropertyOp4
 70
     1
102
RTVSPropertyOp5
 70
     1
102
RTVSPropertyOp6
 70
     1
102
RTVSPropertyOp7
 70
     1
102
RTVSPropertyOp8
 70
     1
102
RTVSPropertyOp9
 70
     1
102
RTVSPropertyOp10
 70
     1
102
RTVSPropertyOp11
 70
     1
102
RTVSPropertyOp12
 70
     1
102
RTVSPropertyOp13
 70
     1
102
RTVSPropertyOp14
 70
     1
102
RTVSPropertyOp15
 70
     1
102
RTVSPropertyOp16
 70
     1
102
RTVSPropertyOp17
 70
     1
102
RTVSPropertyOp18
 70
     1
102
RTVSPropertyOp19
 70
     1
102
RTVSPropertyOp20
 70
     1
102
RTVSPropertyOp21
 70
     1
102
RTVSPropertyOp22
 70
     1
102
RTVSPropertyOp23
 70
     1
102
RTVSPropertyOp24
 70
     1
102
RTVSPropertyOp25
 70
     1
102
RTVSPropertyOp26
 70
     1
102
RTVSPropertyOp27
 70
     1
102
RTVSPropertyOp28
 70
     1
102
RTVSPropertyOp29
 70
     1
102
RTVSPropertyOp30
 70
     1
102
RTVSPropertyOp31
 70
     1
102
RTVSPropertyOp32
 70
     1
102
RTVSPropertyOp33
 70
     1
102
RTVSPropertyOp34
 70
     1
102
RTVSPropertyOp35
 70
     1
102
RTVSPropertyOp36
 70
     1
102
RTVSPropertyOp37
 70
     1
102
RTVSPropertyOp38
 70
     1
102
RTVSPropertyOp39
 70
     1
102
RTVSPropertyOp40
 70
     1
102
RTVSPropertyOp41
 70
     1
102
RTVSPropertyOp42
 70
     1
102
RTVSPropertyOp43
 70
     1
102
RTVSPropertyOp44
 70
     1
102
RTVSPropertyOp45
 70
     1
102
RTVSPropertyOp46
 70
     1
102
RTVSPropertyOp47
 70
     1
102
RTVSPropertyOp48
 70
     1
102
RTVSPropertyOp49
 70
     1
102
RTVSPropertyOp50
 70
     1
102
RTVSPropertyOp51
 70
     0
102
RTVSPropertyOp52
 70
     0
102
RTVSPropertyOp53
 70
     1
102
RTVSPropertyOp54
 70
     1
102
RTVSPropertyOp55
 70
     1
102
RTVSPropertyOp56
 70
     1
102
RTVSPropertyOp57
 70
     1
102
RTVSPropertyOp58
 70
     1
102
RTVSPropertyOp59
 70
     1
102
RTVSPropertyOp60
 70
     1
102
RTVSPropertyOp61
 70
     1
102
RTVSPropertyOp62
 70
     1
  0
XRECORD
  5
392
102
{ACAD_REACTORS
330
391
102
}
330
391
100
AcDbXrecord
280
     1
102
RTVSPost2010Prop28
280
     0
102
RTVSPost2010PropOp28
 70
     1
102
RTVSPost2010Prop29
280
     1
102
RTVSPost2010PropOp29
 70
     1
102
RTVSPost2010Prop30
280
     1
102
RTVSPost2010PropOp30
 70
     1
102
RTVSPost2010Prop31
280
     0
102
RTVSPost2010PropOp31
 70
     1
102
RTVSPost2010Prop32
280
     0
102
RTVSPost2010PropOp32
 70
     1
102
RTVSPost2010Prop33
280
     0
102
RTVSPost2010PropOp33
 70
     1
102
RTVSPost2010Prop34
280
     0
102
RTVSPost2010PropOp34
 70
     1
102
RTVSPost2010Prop35
280
     0
102
RTVSPost2010PropOp35
 70
     1
102
RTVSPost2010Prop36
280
     0
102
RTVSPost2010PropOp36
 70
     1
102
RTVSPost2010Prop37
 90
       50
102
RTVSPost2010PropOp37
 70
     1
102
RTVSPost2010Prop38
140
0.0
102
RTVSPost2010PropOp38
 70
     1
102
RTVSPost2010Prop39
140
1.0
102
RTVSPost2010PropOp39
 70
     1
102
RTVSPost2010Prop40
 90
        0
102
RTVSPost2010PropOp40
 70
     1
102
RTVSPost2010Prop41ColorIndex
 90
       18
102
RTVSPost2010Prop41ColorRGB
 90
        0
102
RTVSPost2010PropOp41
 70
     1
102
RTVSPost2010Prop42
 90
       50
102
RTVSPost2010PropOp42
 70
     1
102
RTVSPost2010Prop43
 90
        3
102
RTVSPost2010PropOp43
 70
     1
102
RTVSPost2010Prop44ColorIndex
 90
        5
102
RTVSPost2010Prop44ColorRGB
 90
      255
102
RTVSPost2010PropOp44
 70
     1
102
RTVSPost2010Prop45
280
     0
102
RTVSPost2010PropOp45
 70
     1
102
RTVSPost2010Prop46
 90
       50
102
RTVSPost2010PropOp46
 70
     1
102
RTVSPost2010Prop47
 90
       50
102
RTVSPost2010PropOp47
 70
     1
102
RTVSPost2010Prop48
 90
       50
102
RTVSPost2010PropOp48
 70
     1
102
RTVSPost2010Prop49
280
     0
102
RTVSPost2010PropOp49
 70
     1
102
RTVSPost2010Prop50
 90
       50
102
RTVSPost2010PropOp50
 70
     1
102
RTVSPost2010Prop51ColorIndex
 90
      256
102
RTVSPost2010Prop51ColorRGB
 90
-16777216
102
RTVSPost2010PropOp51
 70
     0
102
RTVSPost2010Prop52
140
1.0
102
RTVSPost2010PropOp52
 70
     0
102
RTVSPost2010Prop53
 90
        2
102
RTVSPost2010PropOp53
 70
     1
102
RTVSPost2010Prop54
  1
strokes_ogs.tif
102
RTVSPost2010PropOp54
 70
     1
102
RTVSPost2010Prop55
280
     0
102
RTVSPost2010PropOp55
 70
     1
102
RTVSPost2010Prop56
140
1.0
102
RTVSPost2010PropOp56
 70
     1
102
RTVSPost2010Prop57
140
1.0
102
RTVSPost2010PropOp57
 70
     1
102
RTVSPropertyOp0
 70
     1
102
RTVSPropertyOp1
 70
     1
102
RTVSPropertyOp2
 70
     1
102
RTVSPropertyOp3
 70
     1
102
RTVSPropertyOp4
 70
     1
102
RTVSPropertyOp5
 70
     1
102
RTVSPropertyOp6
 70
     1
102
RTVSPropertyOp7
 70
     1
102
RTVSPropertyOp8
 70
     1
102
RTVSPropertyOp9
 70
     1
102
RTVSPropertyOp10
 70
     1
102
RTVSPropertyOp11
 70
     1
102
RTVSPropertyOp12
 70
     1
102
RTVSPropertyOp13
 70
     1
102
RTVSPropertyOp14
 70
     1
102
RTVSPropertyOp15
 70
     1
102
RTVSPropertyOp16
 70
     1
102
RTVSPropertyOp17
 70
     1
102
RTVSPropertyOp18
 70
     1
102
RTVSPropertyOp19
 70
     1
102
RTVSPropertyOp20
 70
     1
102
RTVSPropertyOp21
 70
     1
102
RTVSPropertyOp22
 70
     1
102
RTVSPropertyOp23
 70
     1
102
RTVSPropertyOp24
 70
     1
102
RTVSPropertyOp25
 70
     1
102
RTVSPropertyOp26
 70
     1
102
RTVSPropertyOp27
 70
     1
102
RTVSPropertyOp28
 70
     1
102
RTVSPropertyOp29
 70
     1
102
RTVSPropertyOp30
 70
     1
102
RTVSPropertyOp31
 70
     1
102
RTVSPropertyOp32
 70
     1
102
RTVSPropertyOp33
 70
     1
102
RTVSPropertyOp34
 70
     1
102
RTVSPropertyOp35
 70
     1
102
RTVSPropertyOp36
 70
     1
102
RTVSPropertyOp37
 70
     1
102
RTVSPropertyOp38
 70
     1
102
RTVSPropertyOp39
 70
     1
102
RTVSPropertyOp40
 70
     1
102
RTVSPropertyOp41
 70
     1
102
RTVSPropertyOp42
 70
     1
102
RTVSPropertyOp43
 70
     1
102
RTVSPropertyOp44
 70
     1
102
RTVSPropertyOp45
 70
     1
102
RTVSPropertyOp46
 70
     1
102
RTVSPropertyOp47
 70
     1
102
RTVSPropertyOp48
 70
     1
102
RTVSPropertyOp49
 70
     1
102
RTVSPropertyOp50
 70
     1
102
RTVSPropertyOp51
 70
     0
102
RTVSPropertyOp52
 70
     0
102
RTVSPropertyOp53
 70
     1
102
RTVSPropertyOp54
 70
     1
102
RTVSPropertyOp55
 70
     1
102
RTVSPropertyOp56
 70
     1
102
RTVSPropertyOp57
 70
     1
102
RTVSPropertyOp58
 70
     1
102
RTVSPropertyOp59
 70
     1
102
RTVSPropertyOp60
 70
     1
102
RTVSPropertyOp61
 70
     1
102
RTVSPropertyOp62
 70
     1
  0
XRECORD
  5
394
102
{ACAD_REACTORS
330
393
102
}
330
393
100
AcDbXrecord
280
     1
102
RTVSPost2010Prop28
280
     0
102
RTVSPost2010PropOp28
 70
     1
102
RTVSPost2010Prop29
280
     1
102
RTVSPost2010PropOp29
 70
     1
102
RTVSPost2010Prop30
280
     1
102
RTVSPost2010PropOp30
 70
     1
102
RTVSPost2010Prop31
280
     0
102
RTVSPost2010PropOp31
 70
     1
102
RTVSPost2010Prop32
280
     0
102
RTVSPost2010PropOp32
 70
     1
102
RTVSPost2010Prop33
280
     0
102
RTVSPost2010PropOp33
 70
     1
102
RTVSPost2010Prop34
280
     0
102
RTVSPost2010PropOp34
 70
     1
102
RTVSPost2010Prop35
280
     0
102
RTVSPost2010PropOp35
 70
     1
102
RTVSPost2010Prop36
280
     0
102
RTVSPost2010PropOp36
 70
     1
102
RTVSPost2010Prop37
 90
       50
102
RTVSPost2010PropOp37
 70
     1
102
RTVSPost2010Prop38
140
0.0
102
RTVSPost2010PropOp38
 70
     1
102
RTVSPost2010Prop39
140
1.0
102
RTVSPost2010PropOp39
 70
     1
102
RTVSPost2010Prop40
 90
        0
102
RTVSPost2010PropOp40
 70
     1
102
RTVSPost2010Prop41ColorIndex
 90
       18
102
RTVSPost2010Prop41ColorRGB
 90
        0
102
RTVSPost2010PropOp41
 70
     1
102
RTVSPost2010Prop42
 90
       50
102
RTVSPost2010PropOp42
 70
     1
102
RTVSPost2010Prop43
 90
        3
102
RTVSPost2010PropOp43
 70
     1
102
RTVSPost2010Prop44ColorIndex
 90
        5
102
RTVSPost2010Prop44ColorRGB
 90
      255
102
RTVSPost2010PropOp44
 70
     1
102
RTVSPost2010Prop45
280
     0
102
RTVSPost2010PropOp45
 70
     1
102
RTVSPost2010Prop46
 90
       50
102
RTVSPost2010PropOp46
 70
     1
102
RTVSPost2010Prop47
 90
       50
102
RTVSPost2010PropOp47
 70
     1
102
RTVSPost2010Prop48
 90
       50
102
RTVSPost2010PropOp48
 70
     1
102
RTVSPost2010Prop49
280
     0
102
RTVSPost2010PropOp49
 70
     1
102
RTVSPost2010Prop50
 90
       50
102
RTVSPost2010PropOp50
 70
     1
102
RTVSPost2010Prop51ColorIndex
 90
      256
102
RTVSPost2010Prop51ColorRGB
 90
-16777216
102
RTVSPost2010PropOp51
 70
     0
102
RTVSPost2010Prop52
140
1.0
102
RTVSPost2010PropOp52
 70
     0
102
RTVSPost2010Prop53
 90
        2
102
RTVSPost2010PropOp53
 70
     1
102
RTVSPost2010Prop54
  1
strokes_ogs.tif
102
RTVSPost2010PropOp54
 70
     1
102
RTVSPost2010Prop55
280
     0
102
RTVSPost2010PropOp55
 70
     1
102
RTVSPost2010Prop56
140
1.0
102
RTVSPost2010PropOp56
 70
     1
102
RTVSPost2010Prop57
140
1.0
102
RTVSPost2010PropOp57
 70
     1
102
RTVSPropertyOp0
 70
     1
102
RTVSPropertyOp1
 70
     1
102
RTVSPropertyOp2
 70
     1
102
RTVSPropertyOp3
 70
     1
102
RTVSPropertyOp4
 70
     1
102
RTVSPropertyOp5
 70
     1
102
RTVSPropertyOp6
 70
     1
102
RTVSPropertyOp7
 70
     1
102
RTVSPropertyOp8
 70
     1
102
RTVSPropertyOp9
 70
     1
102
RTVSPropertyOp10
 70
     1
102
RTVSPropertyOp11
 70
     1
102
RTVSPropertyOp12
 70
     1
102
RTVSPropertyOp13
 70
     1
102
RTVSPropertyOp14
 70
     1
102
RTVSPropertyOp15
 70
     1
102
RTVSPropertyOp16
 70
     1
102
RTVSPropertyOp17
 70
     1
102
RTVSPropertyOp18
 70
     1
102
RTVSPropertyOp19
 70
     1
102
RTVSPropertyOp20
 70
     1
102
RTVSPropertyOp21
 70
     1
102
RTVSPropertyOp22
 70
     1
102
RTVSPropertyOp23
 70
     1
102
RTVSPropertyOp24
 70
     1
102
RTVSPropertyOp25
 70
     1
102
RTVSPropertyOp26
 70
     1
102
RTVSPropertyOp27
 70
     1
102
RTVSPropertyOp28
 70
     1
102
RTVSPropertyOp29
 70
     1
102
RTVSPropertyOp30
 70
     1
102
RTVSPropertyOp31
 70
     1
102
RTVSPropertyOp32
 70
     1
102
RTVSPropertyOp33
 70
     1
102
RTVSPropertyOp34
 70
     1
102
RTVSPropertyOp35
 70
     1
102
RTVSPropertyOp36
 70
     1
102
RTVSPropertyOp37
 70
     1
102
RTVSPropertyOp38
 70
     1
102
RTVSPropertyOp39
 70
     1
102
RTVSPropertyOp40
 70
     1
102
RTVSPropertyOp41
 70
     1
102
RTVSPropertyOp42
 70
     1
102
RTVSPropertyOp43
 70
     1
102
RTVSPropertyOp44
 70
     1
102
RTVSPropertyOp45
 70
     1
102
RTVSPropertyOp46
 70
     1
102
RTVSPropertyOp47
 70
     1
102
RTVSPropertyOp48
 70
     1
102
RTVSPropertyOp49
 70
     1
102
RTVSPropertyOp50
 70
     1
102
RTVSPropertyOp51
 70
     0
102
RTVSPropertyOp52
 70
     0
102
RTVSPropertyOp53
 70
     1
102
RTVSPropertyOp54
 70
     1
102
RTVSPropertyOp55
 70
     1
102
RTVSPropertyOp56
 70
     1
102
RTVSPropertyOp57
 70
     1
102
RTVSPropertyOp58
 70
     1
102
RTVSPropertyOp59
 70
     1
102
RTVSPropertyOp60
 70
     1
102
RTVSPropertyOp61
 70
     1
102
RTVSPropertyOp62
 70
     1
  0
XRECORD
  5
384
102
{ACAD_REACTORS
330
383
102
}
330
383
100
AcDbXrecord
280
     1
102
RTVSPost2010Prop28
280
     0
102
RTVSPost2010PropOp28
 70
     1
102
RTVSPost2010Prop29
280
     1
102
RTVSPost2010PropOp29
 70
     1
102
RTVSPost2010Prop30
280
     1
102
RTVSPost2010PropOp30
 70
     1
102
RTVSPost2010Prop31
280
     0
102
RTVSPost2010PropOp31
 70
     1
102
RTVSPost2010Prop32
280
     0
102
RTVSPost2010PropOp32
 70
     1
102
RTVSPost2010Prop33
280
     0
102
RTVSPost2010PropOp33
 70
     1
102
RTVSPost2010Prop34
280
     0
102
RTVSPost2010PropOp34
 70
     1
102
RTVSPost2010Prop35
280
     0
102
RTVSPost2010PropOp35
 70
     1
102
RTVSPost2010Prop36
280
     0
102
RTVSPost2010PropOp36
 70
     1
102
RTVSPost2010Prop37
 90
       50
102
RTVSPost2010PropOp37
 70
     1
102
RTVSPost2010Prop38
140
0.0
102
RTVSPost2010PropOp38
 70
     1
102
RTVSPost2010Prop39
140
1.0
102
RTVSPost2010PropOp39
 70
     1
102
RTVSPost2010Prop40
 90
        0
102
RTVSPost2010PropOp40
 70
     1
102
RTVSPost2010Prop41ColorIndex
 90
       18
102
RTVSPost2010Prop41ColorRGB
 90
        0
102
RTVSPost2010PropOp41
 70
     1
102
RTVSPost2010Prop42
 90
       50
102
RTVSPost2010PropOp42
 70
     1
102
RTVSPost2010Prop43
 90
        3
102
RTVSPost2010PropOp43
 70
     1
102
RTVSPost2010Prop44ColorIndex
 90
        5
102
RTVSPost2010Prop44ColorRGB
 90
      255
102
RTVSPost2010PropOp44
 70
     1
102
RTVSPost2010Prop45
280
     0
102
RTVSPost2010PropOp45
 70
     1
102
RTVSPost2010Prop46
 90
       50
102
RTVSPost2010PropOp46
 70
     1
102
RTVSPost2010Prop47
 90
       50
102
RTVSPost2010PropOp47
 70
     1
102
RTVSPost2010Prop48
 90
       50
102
RTVSPost2010PropOp48
 70
     1
102
RTVSPost2010Prop49
280
     0
102
RTVSPost2010PropOp49
 70
     1
102
RTVSPost2010Prop50
 90
       50
102
RTVSPost2010PropOp50
 70
     1
102
RTVSPost2010Prop51ColorIndex
 90
      256
102
RTVSPost2010Prop51ColorRGB
 90
-16777216
102
RTVSPost2010PropOp51
 70
     0
102
RTVSPost2010Prop52
140
1.0
102
RTVSPost2010PropOp52
 70
     0
102
RTVSPost2010Prop53
 90
        2
102
RTVSPost2010PropOp53
 70
     1
102
RTVSPost2010Prop54
  1
strokes_ogs.tif
102
RTVSPost2010PropOp54
 70
     1
102
RTVSPost2010Prop55
280
     0
102
RTVSPost2010PropOp55
 70
     1
102
RTVSPost2010Prop56
140
1.0
102
RTVSPost2010PropOp56
 70
     1
102
RTVSPost2010Prop57
140
1.0
102
RTVSPost2010PropOp57
 70
     1
102
RTVSPropertyOp0
 70
     1
102
RTVSPropertyOp1
 70
     1
102
RTVSPropertyOp2
 70
     1
102
RTVSPropertyOp3
 70
     1
102
RTVSPropertyOp4
 70
     1
102
RTVSPropertyOp5
 70
     1
102
RTVSPropertyOp6
 70
     1
102
RTVSPropertyOp7
 70
     1
102
RTVSPropertyOp8
 70
     1
102
RTVSPropertyOp9
 70
     1
102
RTVSPropertyOp10
 70
     1
102
RTVSPropertyOp11
 70
     1
102
RTVSPropertyOp12
 70
     1
102
RTVSPropertyOp13
 70
     1
102
RTVSPropertyOp14
 70
     1
102
RTVSPropertyOp15
 70
     1
102
RTVSPropertyOp16
 70
     1
102
RTVSPropertyOp17
 70
     1
102
RTVSPropertyOp18
 70
     1
102
RTVSPropertyOp19
 70
     1
102
RTVSPropertyOp20
 70
     1
102
RTVSPropertyOp21
 70
     1
102
RTVSPropertyOp22
 70
     1
102
RTVSPropertyOp23
 70
     1
102
RTVSPropertyOp24
 70
     1
102
RTVSPropertyOp25
 70
     1
102
RTVSPropertyOp26
 70
     1
102
RTVSPropertyOp27
 70
     1
102
RTVSPropertyOp28
 70
     1
102
RTVSPropertyOp29
 70
     1
102
RTVSPropertyOp30
 70
     1
102
RTVSPropertyOp31
 70
     1
102
RTVSPropertyOp32
 70
     1
102
RTVSPropertyOp33
 70
     1
102
RTVSPropertyOp34
 70
     1
102
RTVSPropertyOp35
 70
     1
102
RTVSPropertyOp36
 70
     1
102
RTVSPropertyOp37
 70
     1
102
RTVSPropertyOp38
 70
     1
102
RTVSPropertyOp39
 70
     1
102
RTVSPropertyOp40
 70
     1
102
RTVSPropertyOp41
 70
     1
102
RTVSPropertyOp42
 70
     1
102
RTVSPropertyOp43
 70
     1
102
RTVSPropertyOp44
 70
     1
102
RTVSPropertyOp45
 70
     1
102
RTVSPropertyOp46
 70
     1
102
RTVSPropertyOp47
 70
     1
102
RTVSPropertyOp48
 70
     1
102
RTVSPropertyOp49
 70
     1
102
RTVSPropertyOp50
 70
     1
102
RTVSPropertyOp51
 70
     0
102
RTVSPropertyOp52
 70
     0
102
RTVSPropertyOp53
 70
     1
102
RTVSPropertyOp54
 70
     1
102
RTVSPropertyOp55
 70
     1
102
RTVSPropertyOp56
 70
     1
102
RTVSPropertyOp57
 70
     1
102
RTVSPropertyOp58
 70
     1
102
RTVSPropertyOp59
 70
     1
102
RTVSPropertyOp60
 70
     1
102
RTVSPropertyOp61
 70
     1
102
RTVSPropertyOp62
 70
     1
  0
XRECORD
  5
376
102
{ACAD_REACTORS
330
375
102
}
330
375
100
AcDbXrecord
280
     1
102
RTVSPost2010Prop28
280
     0
102
RTVSPost2010PropOp28
 70
     1
102
RTVSPost2010Prop29
280
     1
102
RTVSPost2010PropOp29
 70
     1
102
RTVSPost2010Prop30
280
     1
102
RTVSPost2010PropOp30
 70
     1
102
RTVSPost2010Prop31
280
     0
102
RTVSPost2010PropOp31
 70
     1
102
RTVSPost2010Prop32
280
     0
102
RTVSPost2010PropOp32
 70
     1
102
RTVSPost2010Prop33
280
     0
102
RTVSPost2010PropOp33
 70
     1
102
RTVSPost2010Prop34
280
     0
102
RTVSPost2010PropOp34
 70
     1
102
RTVSPost2010Prop35
280
     0
102
RTVSPost2010PropOp35
 70
     1
102
RTVSPost2010Prop36
280
     0
102
RTVSPost2010PropOp36
 70
     1
102
RTVSPost2010Prop37
 90
       50
102
RTVSPost2010PropOp37
 70
     1
102
RTVSPost2010Prop38
140
0.0
102
RTVSPost2010PropOp38
 70
     1
102
RTVSPost2010Prop39
140
1.0
102
RTVSPost2010PropOp39
 70
     1
102
RTVSPost2010Prop40
 90
        0
102
RTVSPost2010PropOp40
 70
     1
102
RTVSPost2010Prop41ColorIndex
 90
       18
102
RTVSPost2010Prop41ColorRGB
 90
        0
102
RTVSPost2010PropOp41
 70
     1
102
RTVSPost2010Prop42
 90
       50
102
RTVSPost2010PropOp42
 70
     1
102
RTVSPost2010Prop43
 90
        3
102
RTVSPost2010PropOp43
 70
     1
102
RTVSPost2010Prop44ColorIndex
 90
        5
102
RTVSPost2010Prop44ColorRGB
 90
      255
102
RTVSPost2010PropOp44
 70
     1
102
RTVSPost2010Prop45
280
     0
102
RTVSPost2010PropOp45
 70
     1
102
RTVSPost2010Prop46
 90
       50
102
RTVSPost2010PropOp46
 70
     1
102
RTVSPost2010Prop47
 90
       50
102
RTVSPost2010PropOp47
 70
     1
102
RTVSPost2010Prop48
 90
       50
102
RTVSPost2010PropOp48
 70
     1
102
RTVSPost2010Prop49
280
     0
102
RTVSPost2010PropOp49
 70
     1
102
RTVSPost2010Prop50
 90
       50
102
RTVSPost2010PropOp50
 70
     1
102
RTVSPost2010Prop51ColorIndex
 90
      256
102
RTVSPost2010Prop51ColorRGB
 90
-16777216
102
RTVSPost2010PropOp51
 70
     0
102
RTVSPost2010Prop52
140
1.0
102
RTVSPost2010PropOp52
 70
     0
102
RTVSPost2010Prop53
 90
        2
102
RTVSPost2010PropOp53
 70
     1
102
RTVSPost2010Prop54
  1
strokes_ogs.tif
102
RTVSPost2010PropOp54
 70
     1
102
RTVSPost2010Prop55
280
     0
102
RTVSPost2010PropOp55
 70
     1
102
RTVSPost2010Prop56
140
1.0
102
RTVSPost2010PropOp56
 70
     1
102
RTVSPost2010Prop57
140
1.0
102
RTVSPost2010PropOp57
 70
     1
102
RTVSPropertyOp0
 70
     1
102
RTVSPropertyOp1
 70
     1
102
RTVSPropertyOp2
 70
     1
102
RTVSPropertyOp3
 70
     1
102
RTVSPropertyOp4
 70
     1
102
RTVSPropertyOp5
 70
     1
102
RTVSPropertyOp6
 70
     1
102
RTVSPropertyOp7
 70
     1
102
RTVSPropertyOp8
 70
     1
102
RTVSPropertyOp9
 70
     1
102
RTVSPropertyOp10
 70
     1
102
RTVSPropertyOp11
 70
     1
102
RTVSPropertyOp12
 70
     1
102
RTVSPropertyOp13
 70
     1
102
RTVSPropertyOp14
 70
     1
102
RTVSPropertyOp15
 70
     1
102
RTVSPropertyOp16
 70
     1
102
RTVSPropertyOp17
 70
     1
102
RTVSPropertyOp18
 70
     1
102
RTVSPropertyOp19
 70
     1
102
RTVSPropertyOp20
 70
     1
102
RTVSPropertyOp21
 70
     1
102
RTVSPropertyOp22
 70
     1
102
RTVSPropertyOp23
 70
     1
102
RTVSPropertyOp24
 70
     1
102
RTVSPropertyOp25
 70
     1
102
RTVSPropertyOp26
 70
     1
102
RTVSPropertyOp27
 70
     1
102
RTVSPropertyOp28
 70
     1
102
RTVSPropertyOp29
 70
     1
102
RTVSPropertyOp30
 70
     1
102
RTVSPropertyOp31
 70
     1
102
RTVSPropertyOp32
 70
     1
102
RTVSPropertyOp33
 70
     1
102
RTVSPropertyOp34
 70
     1
102
RTVSPropertyOp35
 70
     1
102
RTVSPropertyOp36
 70
     1
102
RTVSPropertyOp37
 70
     1
102
RTVSPropertyOp38
 70
     1
102
RTVSPropertyOp39
 70
     1
102
RTVSPropertyOp40
 70
     1
102
RTVSPropertyOp41
 70
     1
102
RTVSPropertyOp42
 70
     1
102
RTVSPropertyOp43
 70
     1
102
RTVSPropertyOp44
 70
     1
102
RTVSPropertyOp45
 70
     1
102
RTVSPropertyOp46
 70
     1
102
RTVSPropertyOp47
 70
     1
102
RTVSPropertyOp48
 70
     1
102
RTVSPropertyOp49
 70
     1
102
RTVSPropertyOp50
 70
     1
102
RTVSPropertyOp51
 70
     0
102
RTVSPropertyOp52
 70
     0
102
RTVSPropertyOp53
 70
     1
102
RTVSPropertyOp54
 70
     1
102
RTVSPropertyOp55
 70
     1
102
RTVSPropertyOp56
 70
     1
102
RTVSPropertyOp57
 70
     1
102
RTVSPropertyOp58
 70
     1
102
RTVSPropertyOp59
 70
     1
102
RTVSPropertyOp60
 70
     1
102
RTVSPropertyOp61
 70
     1
102
RTVSPropertyOp62
 70
     1
  0
XRECORD
  5
396
102
{ACAD_REACTORS
330
395
102
}
330
395
100
AcDbXrecord
280
     1
102
RTVSPost2010Prop28
280
     0
102
RTVSPost2010PropOp28
 70
     1
102
RTVSPost2010Prop29
280
     1
102
RTVSPost2010PropOp29
 70
     1
102
RTVSPost2010Prop30
280
     1
102
RTVSPost2010PropOp30
 70
     1
102
RTVSPost2010Prop31
280
     0
102
RTVSPost2010PropOp31
 70
     1
102
RTVSPost2010Prop32
280
     0
102
RTVSPost2010PropOp32
 70
     1
102
RTVSPost2010Prop33
280
     0
102
RTVSPost2010PropOp33
 70
     1
102
RTVSPost2010Prop34
280
     0
102
RTVSPost2010PropOp34
 70
     1
102
RTVSPost2010Prop35
280
     0
102
RTVSPost2010PropOp35
 70
     1
102
RTVSPost2010Prop36
280
     0
102
RTVSPost2010PropOp36
 70
     1
102
RTVSPost2010Prop37
 90
       50
102
RTVSPost2010PropOp37
 70
     1
102
RTVSPost2010Prop38
140
0.0
102
RTVSPost2010PropOp38
 70
     1
102
RTVSPost2010Prop39
140
1.0
102
RTVSPost2010PropOp39
 70
     1
102
RTVSPost2010Prop40
 90
        0
102
RTVSPost2010PropOp40
 70
     1
102
RTVSPost2010Prop41ColorIndex
 90
       18
102
RTVSPost2010Prop41ColorRGB
 90
        0
102
RTVSPost2010PropOp41
 70
     1
102
RTVSPost2010Prop42
 90
       50
102
RTVSPost2010PropOp42
 70
     1
102
RTVSPost2010Prop43
 90
        3
102
RTVSPost2010PropOp43
 70
     1
102
RTVSPost2010Prop44ColorIndex
 90
        5
102
RTVSPost2010Prop44ColorRGB
 90
      255
102
RTVSPost2010PropOp44
 70
     1
102
RTVSPost2010Prop45
280
     0
102
RTVSPost2010PropOp45
 70
     1
102
RTVSPost2010Prop46
 90
       50
102
RTVSPost2010PropOp46
 70
     1
102
RTVSPost2010Prop47
 90
       50
102
RTVSPost2010PropOp47
 70
     1
102
RTVSPost2010Prop48
 90
       50
102
RTVSPost2010PropOp48
 70
     1
102
RTVSPost2010Prop49
280
     0
102
RTVSPost2010PropOp49
 70
     1
102
RTVSPost2010Prop50
 90
       50
102
RTVSPost2010PropOp50
 70
     1
102
RTVSPost2010Prop51ColorIndex
 90
      256
102
RTVSPost2010Prop51ColorRGB
 90
-16777216
102
RTVSPost2010PropOp51
 70
     0
102
RTVSPost2010Prop52
140
1.0
102
RTVSPost2010PropOp52
 70
     0
102
RTVSPost2010Prop53
 90
        2
102
RTVSPost2010PropOp53
 70
     1
102
RTVSPost2010Prop54
  1
strokes_ogs.tif
102
RTVSPost2010PropOp54
 70
     1
102
RTVSPost2010Prop55
280
     0
102
RTVSPost2010PropOp55
 70
     1
102
RTVSPost2010Prop56
140
1.0
102
RTVSPost2010PropOp56
 70
     1
102
RTVSPost2010Prop57
140
1.0
102
RTVSPost2010PropOp57
 70
     1
102
RTVSPropertyOp0
 70
     1
102
RTVSPropertyOp1
 70
     1
102
RTVSPropertyOp2
 70
     1
102
RTVSPropertyOp3
 70
     1
102
RTVSPropertyOp4
 70
     1
102
RTVSPropertyOp5
 70
     1
102
RTVSPropertyOp6
 70
     1
102
RTVSPropertyOp7
 70
     1
102
RTVSPropertyOp8
 70
     1
102
RTVSPropertyOp9
 70
     1
102
RTVSPropertyOp10
 70
     1
102
RTVSPropertyOp11
 70
     1
102
RTVSPropertyOp12
 70
     1
102
RTVSPropertyOp13
 70
     1
102
RTVSPropertyOp14
 70
     1
102
RTVSPropertyOp15
 70
     1
102
RTVSPropertyOp16
 70
     1
102
RTVSPropertyOp17
 70
     1
102
RTVSPropertyOp18
 70
     1
102
RTVSPropertyOp19
 70
     1
102
RTVSPropertyOp20
 70
     1
102
RTVSPropertyOp21
 70
     1
102
RTVSPropertyOp22
 70
     1
102
RTVSPropertyOp23
 70
     1
102
RTVSPropertyOp24
 70
     1
102
RTVSPropertyOp25
 70
     1
102
RTVSPropertyOp26
 70
     1
102
RTVSPropertyOp27
 70
     1
102
RTVSPropertyOp28
 70
     1
102
RTVSPropertyOp29
 70
     1
102
RTVSPropertyOp30
 70
     1
102
RTVSPropertyOp31
 70
     1
102
RTVSPropertyOp32
 70
     1
102
RTVSPropertyOp33
 70
     1
102
RTVSPropertyOp34
 70
     1
102
RTVSPropertyOp35
 70
     1
102
RTVSPropertyOp36
 70
     1
102
RTVSPropertyOp37
 70
     1
102
RTVSPropertyOp38
 70
     1
102
RTVSPropertyOp39
 70
     1
102
RTVSPropertyOp40
 70
     1
102
RTVSPropertyOp41
 70
     1
102
RTVSPropertyOp42
 70
     1
102
RTVSPropertyOp43
 70
     1
102
RTVSPropertyOp44
 70
     1
102
RTVSPropertyOp45
 70
     1
102
RTVSPropertyOp46
 70
     1
102
RTVSPropertyOp47
 70
     1
102
RTVSPropertyOp48
 70
     1
102
RTVSPropertyOp49
 70
     1
102
RTVSPropertyOp50
 70
     1
102
RTVSPropertyOp51
 70
     0
102
RTVSPropertyOp52
 70
     0
102
RTVSPropertyOp53
 70
     1
102
RTVSPropertyOp54
 70
     1
102
RTVSPropertyOp55
 70
     1
102
RTVSPropertyOp56
 70
     1
102
RTVSPropertyOp57
 70
     1
102
RTVSPropertyOp58
 70
     1
102
RTVSPropertyOp59
 70
     1
102
RTVSPropertyOp60
 70
     1
102
RTVSPropertyOp61
 70
     1
102
RTVSPropertyOp62
 70
     1
  0
ENDSEC
  0
EOF
