ISO-10303-21;
HEADER;
/* Generated by software containing ST-Developer
 * from STEP Tools, Inc. (www.steptools.com) 
 */
/* OPTION: using custom schema-name function */

FILE_DESCRIPTION(
/* description */ (''),
/* implementation_level */ '2;1');

FILE_NAME(
/* name */ 'oznaceni_DOCUMENTNUMBERndi000_00_SIM.stp',
/* time_stamp */ '2023-05-25T12:48:35+02:00',
/* author */ (''),
/* organization */ (''),
/* preprocessor_version */ 'ST-DEVELOPER v16.7',
/* originating_system */ 'SIEMENS PLM Software NX 12.0',
/* authorisation */ '');

FILE_SCHEMA (('AUTOMOTIVE_DESIGN { 1 0 10303 214 3 1 1 1 }'));
ENDSEC;

DATA;
#10=CONSTRUCTIVE_GEOMETRY_REPRESENTATION_RELATIONSHIP(
'supplemental geometry','',#24,#11);
#11=CONSTRUCTIVE_GEOMETRY_REPRESENTATION('supplemental geometry',(#401,
#402,#403),#660);
#12=SHAPE_REPRESENTATION_RELATIONSHIP('None',
'relationship between 204744243ndi000_00-None and 204744243ndi000_00-N
one',#24,#13);
#13=ADVANCED_BREP_SHAPE_REPRESENTATION('204744243ndi000_00-None',(#30),
#660);
#14=SHAPE_DEFINITION_REPRESENTATION(#15,#24);
#15=PRODUCT_DEFINITION_SHAPE('','',#16);
#16=PRODUCT_DEFINITION(' ','',#18,#17);
#17=PRODUCT_DEFINITION_CONTEXT('part definition',#23,'design');
#18=PRODUCT_DEFINITION_FORMATION_WITH_SPECIFIED_SOURCE(' ',' ',#20,
 .NOT_KNOWN.);
#19=PRODUCT_RELATED_PRODUCT_CATEGORY('part','',(#20));
#20=PRODUCT('204744243ndi000_00','204744243ndi000_00',' ',(#21));
#21=PRODUCT_CONTEXT(' ',#23,'mechanical');
#22=APPLICATION_PROTOCOL_DEFINITION('international standard',
'automotive_design',2010,#23);
#23=APPLICATION_CONTEXT(
'core data for automotive mechanical design processes');
#24=SHAPE_REPRESENTATION('204744243ndi000_00-None',(#400),#660);
#25=SURFACE_STYLE_USAGE(.BOTH.,#26);
#26=SURFACE_SIDE_STYLE('',(#27));
#27=SURFACE_STYLE_FILL_AREA(#28);
#28=FILL_AREA_STYLE('',(#29));
#29=FILL_AREA_STYLE_COLOUR('',#396);
#30=MANIFOLD_SOLID_BREP('S\X\D3LIDO1',#31);
#31=CLOSED_SHELL('',(#86,#87,#88,#89,#90,#91,#92,#93,#94,#95,#96,#97,#98,
#99,#100,#101,#102,#103,#104,#105,#106,#107,#108,#109,#110,#111));
#32=CONICAL_SURFACE('',#426,47.6612976320958,60.0000000000001);
#33=CONICAL_SURFACE('',#437,47.6612976320958,60.);
#34=CONICAL_SURFACE('',#443,27.6262235022471,8.20000000000001);
#35=CYLINDRICAL_SURFACE('',#419,8.);
#36=CYLINDRICAL_SURFACE('',#421,19.);
#37=CYLINDRICAL_SURFACE('',#424,48.75);
#38=CYLINDRICAL_SURFACE('',#430,45.5);
#39=CYLINDRICAL_SURFACE('',#438,48.75);
#40=CYLINDRICAL_SURFACE('',#444,34.9754357704682);
#41=FACE_BOUND('',#152,.T.);
#42=FACE_BOUND('',#153,.T.);
#43=FACE_BOUND('',#154,.T.);
#44=FACE_BOUND('',#155,.T.);
#45=FACE_BOUND('',#156,.T.);
#46=FACE_BOUND('',#157,.T.);
#47=FACE_BOUND('',#158,.T.);
#48=FACE_BOUND('',#159,.T.);
#49=FACE_BOUND('',#160,.T.);
#50=FACE_BOUND('',#161,.T.);
#51=FACE_BOUND('',#162,.T.);
#52=FACE_BOUND('',#163,.T.);
#53=FACE_BOUND('',#164,.T.);
#54=FACE_BOUND('',#165,.T.);
#55=FACE_BOUND('',#166,.T.);
#56=FACE_BOUND('',#167,.T.);
#57=FACE_BOUND('',#168,.T.);
#58=FACE_BOUND('',#169,.T.);
#59=FACE_BOUND('',#170,.T.);
#60=FACE_BOUND('',#171,.T.);
#61=FACE_BOUND('',#172,.T.);
#62=FACE_BOUND('',#173,.T.);
#63=FACE_BOUND('',#174,.T.);
#64=FACE_BOUND('',#175,.T.);
#65=FACE_BOUND('',#176,.T.);
#66=FACE_BOUND('',#177,.T.);
#67=FACE_BOUND('',#179,.T.);
#68=FACE_BOUND('',#180,.T.);
#69=FACE_BOUND('',#181,.T.);
#70=FACE_BOUND('',#182,.T.);
#71=CIRCLE('',#414,8.);
#72=CIRCLE('',#416,19.);
#73=CIRCLE('',#417,8.);
#74=CIRCLE('',#420,19.);
#75=CIRCLE('',#422,48.75);
#76=CIRCLE('',#423,48.75);
#77=CIRCLE('',#425,46.5725952641916);
#78=CIRCLE('',#427,45.5);
#79=CIRCLE('',#429,45.5);
#80=CIRCLE('',#431,48.75);
#81=CIRCLE('',#432,34.9754357704682);
#82=CIRCLE('',#434,46.5725952641916);
#83=CIRCLE('',#436,48.75);
#84=CIRCLE('',#440,20.2770112340261);
#85=CIRCLE('',#442,34.9754357704682);
#86=ADVANCED_FACE('',(#129),#112,.T.);
#87=ADVANCED_FACE('',(#130),#113,.T.);
#88=ADVANCED_FACE('',(#131),#114,.T.);
#89=ADVANCED_FACE('',(#132),#115,.T.);
#90=ADVANCED_FACE('',(#133),#116,.F.);
#91=ADVANCED_FACE('',(#134),#117,.T.);
#92=ADVANCED_FACE('',(#135),#118,.T.);
#93=ADVANCED_FACE('',(#136),#119,.T.);
#94=ADVANCED_FACE('',(#137),#120,.T.);
#95=ADVANCED_FACE('',(#138),#121,.F.);
#96=ADVANCED_FACE('',(#139),#122,.T.);
#97=ADVANCED_FACE('',(#41,#42,#43,#44),#123,.T.);
#98=ADVANCED_FACE('',(#45,#46),#35,.T.);
#99=ADVANCED_FACE('',(#47,#48),#36,.T.);
#100=ADVANCED_FACE('',(#49,#50),#37,.T.);
#101=ADVANCED_FACE('',(#51,#52),#32,.T.);
#102=ADVANCED_FACE('',(#53,#54),#124,.T.);
#103=ADVANCED_FACE('',(#55,#56),#38,.T.);
#104=ADVANCED_FACE('',(#57,#58),#125,.T.);
#105=ADVANCED_FACE('',(#59,#60),#126,.T.);
#106=ADVANCED_FACE('',(#61,#62),#33,.T.);
#107=ADVANCED_FACE('',(#63,#64),#39,.T.);
#108=ADVANCED_FACE('',(#65,#66),#127,.T.);
#109=ADVANCED_FACE('',(#140),#128,.T.);
#110=ADVANCED_FACE('',(#67,#68),#34,.T.);
#111=ADVANCED_FACE('',(#69,#70),#40,.T.);
#112=PLANE('',#404);
#113=PLANE('',#405);
#114=PLANE('',#406);
#115=PLANE('',#407);
#116=PLANE('',#408);
#117=PLANE('',#409);
#118=PLANE('',#410);
#119=PLANE('',#411);
#120=PLANE('',#412);
#121=PLANE('',#413);
#122=PLANE('',#415);
#123=PLANE('',#418);
#124=PLANE('',#428);
#125=PLANE('',#433);
#126=PLANE('',#435);
#127=PLANE('',#439);
#128=PLANE('',#441);
#129=FACE_OUTER_BOUND('',#141,.T.);
#130=FACE_OUTER_BOUND('',#142,.T.);
#131=FACE_OUTER_BOUND('',#143,.T.);
#132=FACE_OUTER_BOUND('',#144,.T.);
#133=FACE_OUTER_BOUND('',#145,.T.);
#134=FACE_OUTER_BOUND('',#146,.T.);
#135=FACE_OUTER_BOUND('',#147,.T.);
#136=FACE_OUTER_BOUND('',#148,.T.);
#137=FACE_OUTER_BOUND('',#149,.T.);
#138=FACE_OUTER_BOUND('',#150,.T.);
#139=FACE_OUTER_BOUND('',#151,.T.);
#140=FACE_OUTER_BOUND('',#178,.T.);
#141=EDGE_LOOP('',(#183,#184,#185,#186));
#142=EDGE_LOOP('',(#187,#188,#189,#190));
#143=EDGE_LOOP('',(#191,#192,#193,#194));
#144=EDGE_LOOP('',(#195,#196,#197,#198));
#145=EDGE_LOOP('',(#199,#200,#201,#202));
#146=EDGE_LOOP('',(#203,#204,#205,#206));
#147=EDGE_LOOP('',(#207,#208,#209,#210));
#148=EDGE_LOOP('',(#211,#212,#213,#214));
#149=EDGE_LOOP('',(#215,#216,#217,#218));
#150=EDGE_LOOP('',(#219,#220,#221,#222));
#151=EDGE_LOOP('',(#223));
#152=EDGE_LOOP('',(#224,#225,#226,#227));
#153=EDGE_LOOP('',(#228,#229,#230,#231));
#154=EDGE_LOOP('',(#232));
#155=EDGE_LOOP('',(#233));
#156=EDGE_LOOP('',(#234));
#157=EDGE_LOOP('',(#235));
#158=EDGE_LOOP('',(#236));
#159=EDGE_LOOP('',(#237));
#160=EDGE_LOOP('',(#238));
#161=EDGE_LOOP('',(#239));
#162=EDGE_LOOP('',(#240));
#163=EDGE_LOOP('',(#241));
#164=EDGE_LOOP('',(#242));
#165=EDGE_LOOP('',(#243));
#166=EDGE_LOOP('',(#244));
#167=EDGE_LOOP('',(#245));
#168=EDGE_LOOP('',(#246));
#169=EDGE_LOOP('',(#247));
#170=EDGE_LOOP('',(#248));
#171=EDGE_LOOP('',(#249));
#172=EDGE_LOOP('',(#250));
#173=EDGE_LOOP('',(#251));
#174=EDGE_LOOP('',(#252));
#175=EDGE_LOOP('',(#253));
#176=EDGE_LOOP('',(#254));
#177=EDGE_LOOP('',(#255));
#178=EDGE_LOOP('',(#256));
#179=EDGE_LOOP('',(#257));
#180=EDGE_LOOP('',(#258));
#181=EDGE_LOOP('',(#259));
#182=EDGE_LOOP('',(#260));
#183=ORIENTED_EDGE('',*,*,#292,.F.);
#184=ORIENTED_EDGE('',*,*,#293,.T.);
#185=ORIENTED_EDGE('',*,*,#294,.T.);
#186=ORIENTED_EDGE('',*,*,#295,.F.);
#187=ORIENTED_EDGE('',*,*,#296,.F.);
#188=ORIENTED_EDGE('',*,*,#295,.T.);
#189=ORIENTED_EDGE('',*,*,#297,.T.);
#190=ORIENTED_EDGE('',*,*,#298,.F.);
#191=ORIENTED_EDGE('',*,*,#299,.F.);
#192=ORIENTED_EDGE('',*,*,#298,.T.);
#193=ORIENTED_EDGE('',*,*,#300,.T.);
#194=ORIENTED_EDGE('',*,*,#301,.F.);
#195=ORIENTED_EDGE('',*,*,#293,.F.);
#196=ORIENTED_EDGE('',*,*,#302,.T.);
#197=ORIENTED_EDGE('',*,*,#301,.T.);
#198=ORIENTED_EDGE('',*,*,#303,.T.);
#199=ORIENTED_EDGE('',*,*,#294,.F.);
#200=ORIENTED_EDGE('',*,*,#303,.F.);
#201=ORIENTED_EDGE('',*,*,#300,.F.);
#202=ORIENTED_EDGE('',*,*,#297,.F.);
#203=ORIENTED_EDGE('',*,*,#304,.T.);
#204=ORIENTED_EDGE('',*,*,#305,.F.);
#205=ORIENTED_EDGE('',*,*,#306,.F.);
#206=ORIENTED_EDGE('',*,*,#307,.T.);
#207=ORIENTED_EDGE('',*,*,#308,.F.);
#208=ORIENTED_EDGE('',*,*,#305,.T.);
#209=ORIENTED_EDGE('',*,*,#309,.T.);
#210=ORIENTED_EDGE('',*,*,#310,.F.);
#211=ORIENTED_EDGE('',*,*,#311,.F.);
#212=ORIENTED_EDGE('',*,*,#310,.T.);
#213=ORIENTED_EDGE('',*,*,#312,.T.);
#214=ORIENTED_EDGE('',*,*,#313,.F.);
#215=ORIENTED_EDGE('',*,*,#314,.F.);
#216=ORIENTED_EDGE('',*,*,#313,.T.);
#217=ORIENTED_EDGE('',*,*,#315,.T.);
#218=ORIENTED_EDGE('',*,*,#307,.F.);
#219=ORIENTED_EDGE('',*,*,#304,.F.);
#220=ORIENTED_EDGE('',*,*,#315,.F.);
#221=ORIENTED_EDGE('',*,*,#312,.F.);
#222=ORIENTED_EDGE('',*,*,#309,.F.);
#223=ORIENTED_EDGE('',*,*,#316,.T.);
#224=ORIENTED_EDGE('',*,*,#306,.T.);
#225=ORIENTED_EDGE('',*,*,#308,.T.);
#226=ORIENTED_EDGE('',*,*,#311,.T.);
#227=ORIENTED_EDGE('',*,*,#314,.T.);
#228=ORIENTED_EDGE('',*,*,#299,.T.);
#229=ORIENTED_EDGE('',*,*,#302,.F.);
#230=ORIENTED_EDGE('',*,*,#292,.T.);
#231=ORIENTED_EDGE('',*,*,#296,.T.);
#232=ORIENTED_EDGE('',*,*,#317,.T.);
#233=ORIENTED_EDGE('',*,*,#318,.T.);
#234=ORIENTED_EDGE('',*,*,#316,.F.);
#235=ORIENTED_EDGE('',*,*,#318,.F.);
#236=ORIENTED_EDGE('',*,*,#317,.F.);
#237=ORIENTED_EDGE('',*,*,#319,.F.);
#238=ORIENTED_EDGE('',*,*,#320,.T.);
#239=ORIENTED_EDGE('',*,*,#321,.T.);
#240=ORIENTED_EDGE('',*,*,#321,.F.);
#241=ORIENTED_EDGE('',*,*,#322,.T.);
#242=ORIENTED_EDGE('',*,*,#322,.F.);
#243=ORIENTED_EDGE('',*,*,#323,.T.);
#244=ORIENTED_EDGE('',*,*,#323,.F.);
#245=ORIENTED_EDGE('',*,*,#324,.T.);
#246=ORIENTED_EDGE('',*,*,#325,.F.);
#247=ORIENTED_EDGE('',*,*,#326,.T.);
#248=ORIENTED_EDGE('',*,*,#324,.F.);
#249=ORIENTED_EDGE('',*,*,#327,.T.);
#250=ORIENTED_EDGE('',*,*,#327,.F.);
#251=ORIENTED_EDGE('',*,*,#328,.T.);
#252=ORIENTED_EDGE('',*,*,#328,.F.);
#253=ORIENTED_EDGE('',*,*,#325,.T.);
#254=ORIENTED_EDGE('',*,*,#320,.F.);
#255=ORIENTED_EDGE('',*,*,#319,.T.);
#256=ORIENTED_EDGE('',*,*,#329,.T.);
#257=ORIENTED_EDGE('',*,*,#330,.F.);
#258=ORIENTED_EDGE('',*,*,#329,.F.);
#259=ORIENTED_EDGE('',*,*,#326,.F.);
#260=ORIENTED_EDGE('',*,*,#330,.T.);
#261=VERTEX_POINT('',#564);
#262=VERTEX_POINT('',#565);
#263=VERTEX_POINT('',#567);
#264=VERTEX_POINT('',#569);
#265=VERTEX_POINT('',#573);
#266=VERTEX_POINT('',#575);
#267=VERTEX_POINT('',#579);
#268=VERTEX_POINT('',#581);
#269=VERTEX_POINT('',#589);
#270=VERTEX_POINT('',#590);
#271=VERTEX_POINT('',#592);
#272=VERTEX_POINT('',#594);
#273=VERTEX_POINT('',#598);
#274=VERTEX_POINT('',#600);
#275=VERTEX_POINT('',#604);
#276=VERTEX_POINT('',#606);
#277=VERTEX_POINT('',#614);
#278=VERTEX_POINT('',#617);
#279=VERTEX_POINT('',#619);
#280=VERTEX_POINT('',#623);
#281=VERTEX_POINT('',#626);
#282=VERTEX_POINT('',#628);
#283=VERTEX_POINT('',#631);
#284=VERTEX_POINT('',#634);
#285=VERTEX_POINT('',#637);
#286=VERTEX_POINT('',#640);
#287=VERTEX_POINT('',#642);
#288=VERTEX_POINT('',#645);
#289=VERTEX_POINT('',#648);
#290=VERTEX_POINT('',#653);
#291=VERTEX_POINT('',#656);
#292=EDGE_CURVE('',#261,#262,#331,.T.);
#293=EDGE_CURVE('',#261,#263,#332,.T.);
#294=EDGE_CURVE('',#263,#264,#333,.T.);
#295=EDGE_CURVE('',#262,#264,#334,.T.);
#296=EDGE_CURVE('',#262,#265,#335,.T.);
#297=EDGE_CURVE('',#264,#266,#336,.T.);
#298=EDGE_CURVE('',#265,#266,#337,.T.);
#299=EDGE_CURVE('',#265,#267,#338,.T.);
#300=EDGE_CURVE('',#266,#268,#339,.T.);
#301=EDGE_CURVE('',#267,#268,#340,.T.);
#302=EDGE_CURVE('',#261,#267,#341,.T.);
#303=EDGE_CURVE('',#268,#263,#342,.T.);
#304=EDGE_CURVE('',#269,#270,#343,.T.);
#305=EDGE_CURVE('',#271,#270,#344,.T.);
#306=EDGE_CURVE('',#272,#271,#345,.T.);
#307=EDGE_CURVE('',#272,#269,#346,.T.);
#308=EDGE_CURVE('',#271,#273,#347,.T.);
#309=EDGE_CURVE('',#270,#274,#348,.T.);
#310=EDGE_CURVE('',#273,#274,#349,.T.);
#311=EDGE_CURVE('',#273,#275,#350,.T.);
#312=EDGE_CURVE('',#274,#276,#351,.T.);
#313=EDGE_CURVE('',#275,#276,#352,.T.);
#314=EDGE_CURVE('',#275,#272,#353,.T.);
#315=EDGE_CURVE('',#276,#269,#354,.T.);
#316=EDGE_CURVE('',#277,#277,#71,.T.);
#317=EDGE_CURVE('',#278,#278,#72,.T.);
#318=EDGE_CURVE('',#279,#279,#73,.T.);
#319=EDGE_CURVE('',#280,#280,#74,.T.);
#320=EDGE_CURVE('',#281,#281,#75,.T.);
#321=EDGE_CURVE('',#282,#282,#76,.T.);
#322=EDGE_CURVE('',#283,#283,#77,.T.);
#323=EDGE_CURVE('',#284,#284,#78,.T.);
#324=EDGE_CURVE('',#285,#285,#79,.T.);
#325=EDGE_CURVE('',#286,#286,#80,.T.);
#326=EDGE_CURVE('',#287,#287,#81,.T.);
#327=EDGE_CURVE('',#288,#288,#82,.T.);
#328=EDGE_CURVE('',#289,#289,#83,.T.);
#329=EDGE_CURVE('',#290,#290,#84,.T.);
#330=EDGE_CURVE('',#291,#291,#85,.T.);
#331=LINE('',#563,#355);
#332=LINE('',#566,#356);
#333=LINE('',#568,#357);
#334=LINE('',#570,#358);
#335=LINE('',#572,#359);
#336=LINE('',#574,#360);
#337=LINE('',#576,#361);
#338=LINE('',#578,#362);
#339=LINE('',#580,#363);
#340=LINE('',#582,#364);
#341=LINE('',#584,#365);
#342=LINE('',#585,#366);
#343=LINE('',#588,#367);
#344=LINE('',#591,#368);
#345=LINE('',#593,#369);
#346=LINE('',#595,#370);
#347=LINE('',#597,#371);
#348=LINE('',#599,#372);
#349=LINE('',#601,#373);
#350=LINE('',#603,#374);
#351=LINE('',#605,#375);
#352=LINE('',#607,#376);
#353=LINE('',#609,#377);
#354=LINE('',#610,#378);
#355=VECTOR('',#453,1.);
#356=VECTOR('',#454,1.);
#357=VECTOR('',#455,1.);
#358=VECTOR('',#456,1.);
#359=VECTOR('',#459,1.);
#360=VECTOR('',#460,1.);
#361=VECTOR('',#461,1.);
#362=VECTOR('',#464,1.);
#363=VECTOR('',#465,1.);
#364=VECTOR('',#466,1.);
#365=VECTOR('',#469,1.);
#366=VECTOR('',#470,1.);
#367=VECTOR('',#475,1.);
#368=VECTOR('',#476,1.);
#369=VECTOR('',#477,1.);
#370=VECTOR('',#478,1.);
#371=VECTOR('',#481,1.);
#372=VECTOR('',#482,1.);
#373=VECTOR('',#483,1.);
#374=VECTOR('',#486,1.);
#375=VECTOR('',#487,1.);
#376=VECTOR('',#488,1.);
#377=VECTOR('',#491,1.);
#378=VECTOR('',#492,1.);
#379=INVISIBILITY((#380,#381,#382));
#380=PRESENTATION_LAYER_ASSIGNMENT('100','Layer 100',(#401));
#381=PRESENTATION_LAYER_ASSIGNMENT('101','Layer 101',(#402));
#382=PRESENTATION_LAYER_ASSIGNMENT('102','Layer 102',(#403));
#383=PRESENTATION_LAYER_ASSIGNMENT('98','Layer 98',(#30));
#384=STYLED_ITEM('',(#388),#401);
#385=STYLED_ITEM('',(#389),#402);
#386=STYLED_ITEM('',(#390),#403);
#387=STYLED_ITEM('',(#391),#30);
#388=PRESENTATION_STYLE_ASSIGNMENT((#392));
#389=PRESENTATION_STYLE_ASSIGNMENT((#393));
#390=PRESENTATION_STYLE_ASSIGNMENT((#394));
#391=PRESENTATION_STYLE_ASSIGNMENT((#25));
#392=CURVE_STYLE('',#397,POSITIVE_LENGTH_MEASURE(0.7),#395);
#393=CURVE_STYLE('',#398,POSITIVE_LENGTH_MEASURE(0.7),#395);
#394=CURVE_STYLE('',#399,POSITIVE_LENGTH_MEASURE(0.7),#395);
#395=COLOUR_RGB('Medium Maroon',0.6,0.4,0.4);
#396=COLOUR_RGB('Medium Gray',0.490196078431373,0.490196078431373,0.490196078431373);
#397=DRAUGHTING_PRE_DEFINED_CURVE_FONT('continuous');
#398=DRAUGHTING_PRE_DEFINED_CURVE_FONT('continuous');
#399=DRAUGHTING_PRE_DEFINED_CURVE_FONT('continuous');
#400=AXIS2_PLACEMENT_3D('',#559,#445,#446);
#401=AXIS2_PLACEMENT_3D('PCS',#560,#447,#448);
#402=AXIS2_PLACEMENT_3D('CSW',#561,#449,#450);
#403=AXIS2_PLACEMENT_3D('MCS',#562,#451,#452);
#404=AXIS2_PLACEMENT_3D('',#571,#457,#458);
#405=AXIS2_PLACEMENT_3D('',#577,#462,#463);
#406=AXIS2_PLACEMENT_3D('',#583,#467,#468);
#407=AXIS2_PLACEMENT_3D('',#586,#471,#472);
#408=AXIS2_PLACEMENT_3D('',#587,#473,#474);
#409=AXIS2_PLACEMENT_3D('',#596,#479,#480);
#410=AXIS2_PLACEMENT_3D('',#602,#484,#485);
#411=AXIS2_PLACEMENT_3D('',#608,#489,#490);
#412=AXIS2_PLACEMENT_3D('',#611,#493,#494);
#413=AXIS2_PLACEMENT_3D('',#612,#495,#496);
#414=AXIS2_PLACEMENT_3D('',#613,#497,#498);
#415=AXIS2_PLACEMENT_3D('',#615,#499,#500);
#416=AXIS2_PLACEMENT_3D('',#616,#501,#502);
#417=AXIS2_PLACEMENT_3D('',#618,#503,#504);
#418=AXIS2_PLACEMENT_3D('',#620,#505,#506);
#419=AXIS2_PLACEMENT_3D('',#621,#507,#508);
#420=AXIS2_PLACEMENT_3D('',#622,#509,#510);
#421=AXIS2_PLACEMENT_3D('',#624,#511,#512);
#422=AXIS2_PLACEMENT_3D('',#625,#513,#514);
#423=AXIS2_PLACEMENT_3D('',#627,#515,#516);
#424=AXIS2_PLACEMENT_3D('',#629,#517,#518);
#425=AXIS2_PLACEMENT_3D('',#630,#519,#520);
#426=AXIS2_PLACEMENT_3D('',#632,#521,#522);
#427=AXIS2_PLACEMENT_3D('',#633,#523,#524);
#428=AXIS2_PLACEMENT_3D('',#635,#525,#526);
#429=AXIS2_PLACEMENT_3D('',#636,#527,#528);
#430=AXIS2_PLACEMENT_3D('',#638,#529,#530);
#431=AXIS2_PLACEMENT_3D('',#639,#531,#532);
#432=AXIS2_PLACEMENT_3D('',#641,#533,#534);
#433=AXIS2_PLACEMENT_3D('',#643,#535,#536);
#434=AXIS2_PLACEMENT_3D('',#644,#537,#538);
#435=AXIS2_PLACEMENT_3D('',#646,#539,#540);
#436=AXIS2_PLACEMENT_3D('',#647,#541,#542);
#437=AXIS2_PLACEMENT_3D('',#649,#543,#544);
#438=AXIS2_PLACEMENT_3D('',#650,#545,#546);
#439=AXIS2_PLACEMENT_3D('',#651,#547,#548);
#440=AXIS2_PLACEMENT_3D('',#652,#549,#550);
#441=AXIS2_PLACEMENT_3D('',#654,#551,#552);
#442=AXIS2_PLACEMENT_3D('',#655,#553,#554);
#443=AXIS2_PLACEMENT_3D('',#657,#555,#556);
#444=AXIS2_PLACEMENT_3D('',#658,#557,#558);
#445=DIRECTION('',(0.,0.,1.));
#446=DIRECTION('',(1.,0.,0.));
#447=DIRECTION('',(0.,0.,1.));
#448=DIRECTION('',(1.,0.,0.));
#449=DIRECTION('',(0.,0.,1.));
#450=DIRECTION('',(1.,0.,0.));
#451=DIRECTION('',(0.,0.,1.));
#452=DIRECTION('',(1.,0.,0.));
#453=DIRECTION('',(0.,1.,0.));
#454=DIRECTION('',(0.,0.,-1.));
#455=DIRECTION('',(0.,1.,0.));
#456=DIRECTION('',(0.,0.,-1.));
#457=DIRECTION('',(1.,0.,0.));
#458=DIRECTION('',(0.,1.,0.));
#459=DIRECTION('',(-1.,0.,0.));
#460=DIRECTION('',(-1.,0.,0.));
#461=DIRECTION('',(0.,0.,-1.));
#462=DIRECTION('',(0.,1.,0.));
#463=DIRECTION('',(-1.,0.,0.));
#464=DIRECTION('',(0.,-1.,0.));
#465=DIRECTION('',(0.,-1.,0.));
#466=DIRECTION('',(0.,0.,-1.));
#467=DIRECTION('',(-1.,0.,0.));
#468=DIRECTION('',(0.,-1.,0.));
#469=DIRECTION('',(-1.,0.,0.));
#470=DIRECTION('',(1.,0.,0.));
#471=DIRECTION('',(0.,-1.,0.));
#472=DIRECTION('',(1.,0.,0.));
#473=DIRECTION('',(0.,0.,1.));
#474=DIRECTION('',(1.,0.,0.));
#475=DIRECTION('',(-1.,0.,0.));
#476=DIRECTION('',(0.,0.,-1.));
#477=DIRECTION('',(-1.,0.,0.));
#478=DIRECTION('',(0.,0.,-1.));
#479=DIRECTION('',(0.,1.,0.));
#480=DIRECTION('',(-1.,0.,0.));
#481=DIRECTION('',(0.,-1.,0.));
#482=DIRECTION('',(0.,-1.,0.));
#483=DIRECTION('',(0.,0.,-1.));
#484=DIRECTION('',(-1.,0.,0.));
#485=DIRECTION('',(0.,-1.,0.));
#486=DIRECTION('',(1.,0.,0.));
#487=DIRECTION('',(1.,0.,0.));
#488=DIRECTION('',(0.,0.,-1.));
#489=DIRECTION('',(0.,-1.,0.));
#490=DIRECTION('',(1.,0.,0.));
#491=DIRECTION('',(0.,1.,0.));
#492=DIRECTION('',(0.,1.,0.));
#493=DIRECTION('',(1.,0.,0.));
#494=DIRECTION('',(0.,1.,0.));
#495=DIRECTION('',(0.,0.,1.));
#496=DIRECTION('',(1.,0.,0.));
#497=DIRECTION('',(0.,0.,-1.));
#498=DIRECTION('',(-1.,0.,0.));
#499=DIRECTION('',(0.,0.,-1.));
#500=DIRECTION('',(-1.,0.,0.));
#501=DIRECTION('',(0.,0.,-1.));
#502=DIRECTION('',(-1.,0.,0.));
#503=DIRECTION('',(0.,0.,1.));
#504=DIRECTION('',(0.,1.,0.));
#505=DIRECTION('',(0.,0.,-1.));
#506=DIRECTION('',(-1.,0.,0.));
#507=DIRECTION('',(0.,1.837282E-16,1.));
#508=DIRECTION('',(0.,-1.,0.));
#509=DIRECTION('',(0.,0.,1.));
#510=DIRECTION('',(0.,1.,0.));
#511=DIRECTION('',(0.,1.837282E-16,1.));
#512=DIRECTION('',(0.,-1.,0.));
#513=DIRECTION('',(0.,0.,1.));
#514=DIRECTION('',(-1.,0.,0.));
#515=DIRECTION('',(0.,0.,-1.));
#516=DIRECTION('',(1.,0.,0.));
#517=DIRECTION('',(1.471103E-16,0.,-1.));
#518=DIRECTION('',(-1.,0.,-1.42336285208353E-16));
#519=DIRECTION('',(0.,0.,-1.));
#520=DIRECTION('',(1.,0.,0.));
#521=DIRECTION('',(1.471103E-16,0.,-1.));
#522=DIRECTION('',(-1.,0.,-9.45479758653143E-17));
#523=DIRECTION('',(0.,0.,-1.));
#524=DIRECTION('',(1.,0.,0.));
#525=DIRECTION('',(0.,0.,1.));
#526=DIRECTION('',(1.,0.,0.));
#527=DIRECTION('',(0.,0.,-1.));
#528=DIRECTION('',(1.,0.,0.));
#529=DIRECTION('',(1.471103E-16,0.,-1.));
#530=DIRECTION('',(-1.,0.,-1.52503162723236E-16));
#531=DIRECTION('',(0.,0.,-1.));
#532=DIRECTION('',(1.,0.,0.));
#533=DIRECTION('',(0.,0.,-1.));
#534=DIRECTION('',(1.,0.,0.));
#535=DIRECTION('',(0.,0.,1.));
#536=DIRECTION('',(1.,0.,0.));
#537=DIRECTION('',(0.,0.,-1.));
#538=DIRECTION('',(1.,0.,0.));
#539=DIRECTION('',(0.,0.,-1.));
#540=DIRECTION('',(-1.,0.,0.));
#541=DIRECTION('',(0.,0.,-1.));
#542=DIRECTION('',(1.,0.,0.));
#543=DIRECTION('',(-1.471103E-16,0.,1.));
#544=DIRECTION('',(-1.,0.,-1.44258767299656E-16));
#545=DIRECTION('',(1.471103E-16,0.,-1.));
#546=DIRECTION('',(-1.,0.,-1.42336285208353E-16));
#547=DIRECTION('',(0.,0.,-1.));
#548=DIRECTION('',(-1.,0.,0.));
#549=DIRECTION('',(0.,0.,1.));
#550=DIRECTION('',(1.,0.,0.));
#551=DIRECTION('',(0.,0.,1.));
#552=DIRECTION('',(1.,0.,0.));
#553=DIRECTION('',(0.,0.,-1.));
#554=DIRECTION('',(1.,0.,0.));
#555=DIRECTION('',(1.471103E-16,0.,-1.));
#556=DIRECTION('',(-1.,0.,-1.21218614397279E-16));
#557=DIRECTION('',(1.471103E-16,0.,-1.));
#558=DIRECTION('',(-1.,0.,-1.48795013222526E-16));
#559=CARTESIAN_POINT('',(0.,0.,0.));
#560=CARTESIAN_POINT('',(0.,0.,0.));
#561=CARTESIAN_POINT('',(0.,0.,-300.));
#562=CARTESIAN_POINT('',(0.,0.,0.));
#563=CARTESIAN_POINT('',(3.99999999999999,-18.,-300.));
#564=CARTESIAN_POINT('',(4.00000000000001,-18.5,-300.));
#565=CARTESIAN_POINT('',(4.,-11.5,-300.));
#566=CARTESIAN_POINT('',(4.,-18.5,-300.));
#567=CARTESIAN_POINT('',(4.,-18.5,-305.7));
#568=CARTESIAN_POINT('',(4.,-15.,-305.7));
#569=CARTESIAN_POINT('',(4.,-11.5,-305.7));
#570=CARTESIAN_POINT('',(4.,-11.5,-300.));
#571=CARTESIAN_POINT('',(4.,-11.5,-300.));
#572=CARTESIAN_POINT('',(3.5,-11.5,-300.));
#573=CARTESIAN_POINT('',(-4.00000000000001,-11.5,-300.));
#574=CARTESIAN_POINT('',(-4.89192E-15,-11.5,-305.7));
#575=CARTESIAN_POINT('',(-4.00000000000001,-11.5,-305.7));
#576=CARTESIAN_POINT('',(-4.00000000000001,-11.5,-300.));
#577=CARTESIAN_POINT('',(-4.00000000000001,-11.5,-300.));
#578=CARTESIAN_POINT('',(-4.00000000000001,-12.,-300.));
#579=CARTESIAN_POINT('',(-4.00000000000001,-18.5,-300.));
#580=CARTESIAN_POINT('',(-4.00000000000001,-15.,-305.7));
#581=CARTESIAN_POINT('',(-4.00000000000001,-18.5,-305.7));
#582=CARTESIAN_POINT('',(-4.00000000000001,-18.5,-300.));
#583=CARTESIAN_POINT('',(-4.00000000000001,-18.5,-300.));
#584=CARTESIAN_POINT('',(0.,-18.5,-300.));
#585=CARTESIAN_POINT('',(-4.89192E-15,-18.5,-305.7));
#586=CARTESIAN_POINT('',(3.99999999999999,-18.5,-300.));
#587=CARTESIAN_POINT('',(-4.89192E-15,-15.,-305.7));
#588=CARTESIAN_POINT('',(6.487866E-15,18.5,-305.7));
#589=CARTESIAN_POINT('',(4.00000000000001,18.5,-305.7));
#590=CARTESIAN_POINT('',(-3.99999999999999,18.5,-305.7));
#591=CARTESIAN_POINT('',(-3.99999999999999,18.5,-300.));
#592=CARTESIAN_POINT('',(-3.99999999999999,18.5,-300.));
#593=CARTESIAN_POINT('',(5.551115E-15,18.5,-300.));
#594=CARTESIAN_POINT('',(4.00000000000001,18.5,-300.));
#595=CARTESIAN_POINT('',(4.00000000000001,18.5,-300.));
#596=CARTESIAN_POINT('',(5.551115E-15,18.5,-300.));
#597=CARTESIAN_POINT('',(-3.99999999999999,18.,-300.));
#598=CARTESIAN_POINT('',(-3.99999999999999,11.5,-300.));
#599=CARTESIAN_POINT('',(-3.99999999999999,15.,-305.7));
#600=CARTESIAN_POINT('',(-3.99999999999999,11.5,-305.7));
#601=CARTESIAN_POINT('',(-3.99999999999999,11.5,-300.));
#602=CARTESIAN_POINT('',(-3.99999999999999,11.5,-300.));
#603=CARTESIAN_POINT('',(-3.5,11.5,-300.));
#604=CARTESIAN_POINT('',(4.00000000000001,11.5,-300.));
#605=CARTESIAN_POINT('',(6.487866E-15,11.5,-305.7));
#606=CARTESIAN_POINT('',(4.00000000000001,11.5,-305.7));
#607=CARTESIAN_POINT('',(4.00000000000001,11.5,-300.));
#608=CARTESIAN_POINT('',(4.,11.5,-300.));
#609=CARTESIAN_POINT('',(4.,12.,-300.));
#610=CARTESIAN_POINT('',(4.00000000000001,15.,-305.7));
#611=CARTESIAN_POINT('',(4.00000000000001,18.5,-300.));
#612=CARTESIAN_POINT('',(6.487866E-15,15.,-305.7));
#613=CARTESIAN_POINT('',(0.,-3.63597997E-14,-317.));
#614=CARTESIAN_POINT('',(-8.,-3.63597997E-14,-317.));
#615=CARTESIAN_POINT('',(0.,3.99999999999996,-317.));
#616=CARTESIAN_POINT('',(0.,-5.160924569E-14,-300.));
#617=CARTESIAN_POINT('',(-19.,-5.160924569E-14,-300.));
#618=CARTESIAN_POINT('',(0.,-3.323643E-14,-300.));
#619=CARTESIAN_POINT('',(0.,7.99999999999997,-300.));
#620=CARTESIAN_POINT('',(0.,13.5,-300.));
#621=CARTESIAN_POINT('',(0.,-3.479811E-14,-308.5));
#622=CARTESIAN_POINT('',(0.,3.944305E-30,-19.1));
#623=CARTESIAN_POINT('',(0.,19.,-19.1));
#624=CARTESIAN_POINT('',(0.,-1.661821E-14,-109.55));
#625=CARTESIAN_POINT('',(4.44089211033365E-15,0.,-19.1));
#626=CARTESIAN_POINT('',(-48.75,0.,-19.1));
#627=CARTESIAN_POINT('',(3.871888E-15,0.,-15.2321252103537));
#628=CARTESIAN_POINT('',(48.75,0.,-15.2321252103537));
#629=CARTESIAN_POINT('',(4.15639E-15,0.,-17.1660626051769));
#630=CARTESIAN_POINT('',(3.686952E-15,0.,-13.975));
#631=CARTESIAN_POINT('',(46.5725952641917,0.,-13.975));
#632=CARTESIAN_POINT('',(3.77942E-15,0.,-14.6035626051769));
#633=CARTESIAN_POINT('',(3.686952E-15,0.,-13.975));
#634=CARTESIAN_POINT('',(45.5,0.,-13.975));
#635=CARTESIAN_POINT('',(46.0362976320958,0.,-13.975));
#636=CARTESIAN_POINT('',(3.135288E-15,0.,-10.225));
#637=CARTESIAN_POINT('',(45.5,0.,-10.225));
#638=CARTESIAN_POINT('',(3.41112E-15,0.,-12.1));
#639=CARTESIAN_POINT('',(2.10183810466635E-15,0.,-3.2));
#640=CARTESIAN_POINT('',(48.75,0.,-3.2));
#641=CARTESIAN_POINT('',(2.101838E-15,0.,-3.20000000000001));
#642=CARTESIAN_POINT('',(34.9754357704682,0.,-3.2));
#643=CARTESIAN_POINT('',(41.8627178852341,0.,-3.2));
#644=CARTESIAN_POINT('',(3.135288E-15,0.,-10.225));
#645=CARTESIAN_POINT('',(46.5725952641916,0.,-10.225));
#646=CARTESIAN_POINT('',(46.0362976320958,0.,-10.225));
#647=CARTESIAN_POINT('',(2.950352E-15,0.,-8.96787478964629));
#648=CARTESIAN_POINT('',(48.75,0.,-8.96787478964629));
#649=CARTESIAN_POINT('',(3.04282E-15,0.,-9.59643739482315));
#650=CARTESIAN_POINT('',(2.526095E-15,0.,-6.08393739482315));
#651=CARTESIAN_POINT('',(24.375,0.,-19.1));
#652=CARTESIAN_POINT('',(-1.28928256001567E-14,0.,101.65));
#653=CARTESIAN_POINT('',(20.2770112340261,0.,101.65));
#654=CARTESIAN_POINT('',(15.388505617013,0.,101.65));
#655=CARTESIAN_POINT('',(1.682574E-15,0.,-0.350000000000006));
#656=CARTESIAN_POINT('',(34.9754357704682,0.,-0.350000000000001));
#657=CARTESIAN_POINT('',(-5.820051E-15,0.,50.65));
#658=CARTESIAN_POINT('',(1.892206E-15,0.,-1.77500000000001));
#659=MECHANICAL_DESIGN_GEOMETRIC_PRESENTATION_REPRESENTATION('',(#384,#385,
#386,#387),#660);
#660=(
GEOMETRIC_REPRESENTATION_CONTEXT(3)
GLOBAL_UNCERTAINTY_ASSIGNED_CONTEXT((#661))
GLOBAL_UNIT_ASSIGNED_CONTEXT((#667,#663,#662))
REPRESENTATION_CONTEXT('oznaceni_DOCUMENTNUMBERndi000_00_SIM',
'TOP_LEVEL_ASSEMBLY_PART')
);
#661=UNCERTAINTY_MEASURE_WITH_UNIT(LENGTH_MEASURE(2.E-5),#667,
'DISTANCE_ACCURACY_VALUE','Maximum Tolerance applied to model');
#662=(
NAMED_UNIT(*)
SI_UNIT($,.STERADIAN.)
SOLID_ANGLE_UNIT()
);
#663=(
CONVERSION_BASED_UNIT('DEGREE',#665)
NAMED_UNIT(#664)
PLANE_ANGLE_UNIT()
);
#664=DIMENSIONAL_EXPONENTS(0.,0.,0.,0.,0.,0.,0.);
#665=PLANE_ANGLE_MEASURE_WITH_UNIT(PLANE_ANGLE_MEASURE(0.0174532925),#666);
#666=(
NAMED_UNIT(*)
PLANE_ANGLE_UNIT()
SI_UNIT($,.RADIAN.)
);
#667=(
LENGTH_UNIT()
NAMED_UNIT(*)
SI_UNIT(.MILLI.,.METRE.)
);
ENDSEC;
END-ISO-10303-21;
