ISO-10303-21;
HEADER;
/* Generated by software containing ST-Developer
 * from STEP Tools, Inc. (www.steptools.com) 
 */
/* OPTION: using custom schema-name function */

FILE_DESCRIPTION(
/* description */ (''),
/* implementation_level */ '2;1');

FILE_NAME(
/* name */ '69871.40AD-W.10.050.stp',
/* time_stamp */ '2024-07-22T12:40:53+02:00',
/* author */ (''),
/* organization */ (''),
/* preprocessor_version */ 'ST-DEVELOPER v16.7',
/* originating_system */ 'SIEMENS PLM Software NX 12.0',
/* authorisation */ '');

FILE_SCHEMA (('AUTOMOTIVE_DESIGN { 1 0 10303 214 3 1 1 1 }'));
ENDSEC;

DATA;
#10=CONSTRUCTIVE_GEOMETRY_REPRESENTATION_RELATIONSHIP(
'supplemental geometry','',#32,#11);
#11=CONSTRUCTIVE_GEOMETRY_REPRESENTATION('supplemental geometry',(#328,
#329,#330),#562);
#12=PROPERTY_DEFINITION_REPRESENTATION(#16,#14);
#13=PROPERTY_DEFINITION_REPRESENTATION(#17,#15);
#14=REPRESENTATION('',(#18),#562);
#15=REPRESENTATION('',(#19),#562);
#16=PROPERTY_DEFINITION('pmi validation property','',#23);
#17=PROPERTY_DEFINITION('pmi validation property','',#23);
#18=VALUE_REPRESENTATION_ITEM('number of annotations',COUNT_MEASURE(0.));
#19=VALUE_REPRESENTATION_ITEM('number of views',COUNT_MEASURE(0.));
#20=SHAPE_REPRESENTATION_RELATIONSHIP('None',
'relationship between pf6612088076yv4o-None and pf6612088076yv4o-None',
#32,#21);
#21=ADVANCED_BREP_SHAPE_REPRESENTATION('pf6612088076yv4o-None',(#38),#562);
#22=SHAPE_DEFINITION_REPRESENTATION(#23,#32);
#23=PRODUCT_DEFINITION_SHAPE('','',#24);
#24=PRODUCT_DEFINITION(' ','',#26,#25);
#25=PRODUCT_DEFINITION_CONTEXT('part definition',#31,'design');
#26=PRODUCT_DEFINITION_FORMATION_WITH_SPECIFIED_SOURCE(' ',' ',#28,
 .NOT_KNOWN.);
#27=PRODUCT_RELATED_PRODUCT_CATEGORY('part','',(#28));
#28=PRODUCT('pf6612088076yv4o','pf6612088076yv4o',' ',(#29));
#29=PRODUCT_CONTEXT(' ',#31,'mechanical');
#30=APPLICATION_PROTOCOL_DEFINITION('international standard',
'automotive_design',2010,#31);
#31=APPLICATION_CONTEXT(
'core data for automotive mechanical design processes');
#32=SHAPE_REPRESENTATION('pf6612088076yv4o-None',(#327),#562);
#33=SURFACE_STYLE_USAGE(.BOTH.,#34);
#34=SURFACE_SIDE_STYLE('',(#35));
#35=SURFACE_STYLE_FILL_AREA(#36);
#36=FILL_AREA_STYLE('',(#37));
#37=FILL_AREA_STYLE_COLOUR('',#323);
#38=MANIFOLD_SOLID_BREP('',#39);
#39=CLOSED_SHELL('',(#78,#79,#80,#81,#82,#83,#84,#85,#86,#87,#88,#89,#90,
#91,#92,#93,#94,#95,#96,#97));
#40=FACE_OUTER_BOUND('',#150,.T.);
#41=FACE_OUTER_BOUND('',#151,.T.);
#42=FACE_OUTER_BOUND('',#152,.T.);
#43=FACE_OUTER_BOUND('',#153,.T.);
#44=FACE_OUTER_BOUND('',#154,.T.);
#45=FACE_OUTER_BOUND('',#155,.T.);
#46=FACE_OUTER_BOUND('',#158,.T.);
#47=FACE_OUTER_BOUND('',#159,.T.);
#48=LINE('',#522,#56);
#49=LINE('',#524,#57);
#50=LINE('',#536,#58);
#51=LINE('',#540,#59);
#52=LINE('',#544,#60);
#53=LINE('',#546,#61);
#54=LINE('',#548,#62);
#55=LINE('',#553,#63);
#56=VECTOR('',#433,1.);
#57=VECTOR('',#434,1.);
#58=VECTOR('',#451,1.);
#59=VECTOR('',#454,1.);
#60=VECTOR('',#461,1.);
#61=VECTOR('',#462,1.);
#62=VECTOR('',#463,1.);
#63=VECTOR('',#466,1.);
#64=TOROIDAL_SURFACE('',#346,28.5,0.5);
#65=TOROIDAL_SURFACE('',#350,28.5,0.5);
#66=TOROIDAL_SURFACE('',#373,20.5,3.);
#67=TOROIDAL_SURFACE('',#374,20.5,3.);
#68=CONICAL_SURFACE('',#342,30.3362976321,60.);
#69=CONICAL_SURFACE('',#354,30.3362976321,60.);
#70=CONICAL_SURFACE('',#357,17.39989973582,8.2971);
#71=CONICAL_SURFACE('',#360,17.39989973582,8.2971);
#72=CONICAL_SURFACE('',#365,15.17554531327,25.);
#73=CONICAL_SURFACE('',#367,15.17554531327,25.);
#74=CYLINDRICAL_SURFACE('',#337,31.775);
#75=CYLINDRICAL_SURFACE('',#348,28.);
#76=CYLINDRICAL_SURFACE('',#355,31.775);
#77=CYLINDRICAL_SURFACE('',#370,17.5);
#78=ADVANCED_FACE('',(#104,#105),#98,.F.);
#79=ADVANCED_FACE('',(#106,#107),#74,.T.);
#80=ADVANCED_FACE('',(#108,#109),#99,.T.);
#81=ADVANCED_FACE('',(#110,#111),#68,.T.);
#82=ADVANCED_FACE('',(#112,#113),#100,.F.);
#83=ADVANCED_FACE('',(#114,#115),#64,.F.);
#84=ADVANCED_FACE('',(#116,#117),#75,.T.);
#85=ADVANCED_FACE('',(#118,#119),#65,.F.);
#86=ADVANCED_FACE('',(#120,#121),#101,.T.);
#87=ADVANCED_FACE('',(#122,#123),#69,.T.);
#88=ADVANCED_FACE('',(#124,#125),#76,.T.);
#89=ADVANCED_FACE('',(#40),#70,.T.);
#90=ADVANCED_FACE('',(#41),#102,.F.);
#91=ADVANCED_FACE('',(#42),#71,.T.);
#92=ADVANCED_FACE('',(#43),#103,.F.);
#93=ADVANCED_FACE('',(#44),#72,.T.);
#94=ADVANCED_FACE('',(#45),#73,.T.);
#95=ADVANCED_FACE('',(#126,#127),#77,.T.);
#96=ADVANCED_FACE('',(#46),#66,.F.);
#97=ADVANCED_FACE('',(#47),#67,.F.);
#98=PLANE('',#334);
#99=PLANE('',#340);
#100=PLANE('',#344);
#101=PLANE('',#352);
#102=PLANE('',#359);
#103=PLANE('',#363);
#104=FACE_BOUND('',#128,.T.);
#105=FACE_BOUND('',#129,.T.);
#106=FACE_BOUND('',#130,.T.);
#107=FACE_BOUND('',#131,.T.);
#108=FACE_BOUND('',#132,.T.);
#109=FACE_BOUND('',#133,.T.);
#110=FACE_BOUND('',#134,.T.);
#111=FACE_BOUND('',#135,.T.);
#112=FACE_BOUND('',#136,.T.);
#113=FACE_BOUND('',#137,.T.);
#114=FACE_BOUND('',#138,.T.);
#115=FACE_BOUND('',#139,.T.);
#116=FACE_BOUND('',#140,.T.);
#117=FACE_BOUND('',#141,.T.);
#118=FACE_BOUND('',#142,.T.);
#119=FACE_BOUND('',#143,.T.);
#120=FACE_BOUND('',#144,.T.);
#121=FACE_BOUND('',#145,.T.);
#122=FACE_BOUND('',#146,.T.);
#123=FACE_BOUND('',#147,.T.);
#124=FACE_BOUND('',#148,.T.);
#125=FACE_BOUND('',#149,.T.);
#126=FACE_BOUND('',#156,.T.);
#127=FACE_BOUND('',#157,.T.);
#128=EDGE_LOOP('',(#160));
#129=EDGE_LOOP('',(#161,#162));
#130=EDGE_LOOP('',(#163));
#131=EDGE_LOOP('',(#164));
#132=EDGE_LOOP('',(#165));
#133=EDGE_LOOP('',(#166,#167));
#134=EDGE_LOOP('',(#168));
#135=EDGE_LOOP('',(#169));
#136=EDGE_LOOP('',(#170));
#137=EDGE_LOOP('',(#171));
#138=EDGE_LOOP('',(#172));
#139=EDGE_LOOP('',(#173));
#140=EDGE_LOOP('',(#174));
#141=EDGE_LOOP('',(#175));
#142=EDGE_LOOP('',(#176));
#143=EDGE_LOOP('',(#177));
#144=EDGE_LOOP('',(#178));
#145=EDGE_LOOP('',(#179));
#146=EDGE_LOOP('',(#180));
#147=EDGE_LOOP('',(#181));
#148=EDGE_LOOP('',(#182));
#149=EDGE_LOOP('',(#183));
#150=EDGE_LOOP('',(#184,#185,#186,#187));
#151=EDGE_LOOP('',(#188,#189));
#152=EDGE_LOOP('',(#190,#191,#192,#193));
#153=EDGE_LOOP('',(#194,#195));
#154=EDGE_LOOP('',(#196,#197,#198,#199));
#155=EDGE_LOOP('',(#200,#201,#202,#203));
#156=EDGE_LOOP('',(#204,#205,#206,#207,#208,#209));
#157=EDGE_LOOP('',(#210,#211,#212,#213,#214,#215));
#158=EDGE_LOOP('',(#216,#217,#218,#219));
#159=EDGE_LOOP('',(#220,#221,#222,#223));
#160=ORIENTED_EDGE('',*,*,#250,.T.);
#161=ORIENTED_EDGE('',*,*,#251,.T.);
#162=ORIENTED_EDGE('',*,*,#252,.T.);
#163=ORIENTED_EDGE('',*,*,#253,.T.);
#164=ORIENTED_EDGE('',*,*,#254,.T.);
#165=ORIENTED_EDGE('',*,*,#253,.F.);
#166=ORIENTED_EDGE('',*,*,#255,.F.);
#167=ORIENTED_EDGE('',*,*,#256,.F.);
#168=ORIENTED_EDGE('',*,*,#254,.F.);
#169=ORIENTED_EDGE('',*,*,#257,.T.);
#170=ORIENTED_EDGE('',*,*,#257,.F.);
#171=ORIENTED_EDGE('',*,*,#258,.T.);
#172=ORIENTED_EDGE('',*,*,#258,.F.);
#173=ORIENTED_EDGE('',*,*,#259,.T.);
#174=ORIENTED_EDGE('',*,*,#259,.F.);
#175=ORIENTED_EDGE('',*,*,#260,.T.);
#176=ORIENTED_EDGE('',*,*,#260,.F.);
#177=ORIENTED_EDGE('',*,*,#261,.T.);
#178=ORIENTED_EDGE('',*,*,#261,.F.);
#179=ORIENTED_EDGE('',*,*,#262,.T.);
#180=ORIENTED_EDGE('',*,*,#262,.F.);
#181=ORIENTED_EDGE('',*,*,#263,.T.);
#182=ORIENTED_EDGE('',*,*,#263,.F.);
#183=ORIENTED_EDGE('',*,*,#250,.F.);
#184=ORIENTED_EDGE('',*,*,#264,.T.);
#185=ORIENTED_EDGE('',*,*,#252,.F.);
#186=ORIENTED_EDGE('',*,*,#265,.F.);
#187=ORIENTED_EDGE('',*,*,#266,.F.);
#188=ORIENTED_EDGE('',*,*,#267,.T.);
#189=ORIENTED_EDGE('',*,*,#266,.T.);
#190=ORIENTED_EDGE('',*,*,#265,.T.);
#191=ORIENTED_EDGE('',*,*,#251,.F.);
#192=ORIENTED_EDGE('',*,*,#264,.F.);
#193=ORIENTED_EDGE('',*,*,#267,.F.);
#194=ORIENTED_EDGE('',*,*,#268,.F.);
#195=ORIENTED_EDGE('',*,*,#269,.T.);
#196=ORIENTED_EDGE('',*,*,#268,.T.);
#197=ORIENTED_EDGE('',*,*,#270,.F.);
#198=ORIENTED_EDGE('',*,*,#271,.F.);
#199=ORIENTED_EDGE('',*,*,#272,.T.);
#200=ORIENTED_EDGE('',*,*,#273,.T.);
#201=ORIENTED_EDGE('',*,*,#270,.T.);
#202=ORIENTED_EDGE('',*,*,#269,.F.);
#203=ORIENTED_EDGE('',*,*,#272,.F.);
#204=ORIENTED_EDGE('',*,*,#274,.T.);
#205=ORIENTED_EDGE('',*,*,#274,.F.);
#206=ORIENTED_EDGE('',*,*,#271,.T.);
#207=ORIENTED_EDGE('',*,*,#275,.T.);
#208=ORIENTED_EDGE('',*,*,#275,.F.);
#209=ORIENTED_EDGE('',*,*,#273,.F.);
#210=ORIENTED_EDGE('',*,*,#276,.F.);
#211=ORIENTED_EDGE('',*,*,#276,.T.);
#212=ORIENTED_EDGE('',*,*,#277,.T.);
#213=ORIENTED_EDGE('',*,*,#278,.F.);
#214=ORIENTED_EDGE('',*,*,#278,.T.);
#215=ORIENTED_EDGE('',*,*,#279,.T.);
#216=ORIENTED_EDGE('',*,*,#280,.F.);
#217=ORIENTED_EDGE('',*,*,#279,.F.);
#218=ORIENTED_EDGE('',*,*,#281,.T.);
#219=ORIENTED_EDGE('',*,*,#256,.T.);
#220=ORIENTED_EDGE('',*,*,#281,.F.);
#221=ORIENTED_EDGE('',*,*,#277,.F.);
#222=ORIENTED_EDGE('',*,*,#280,.T.);
#223=ORIENTED_EDGE('',*,*,#255,.T.);
#224=VERTEX_POINT('',#484);
#225=VERTEX_POINT('',#486);
#226=VERTEX_POINT('',#487);
#227=VERTEX_POINT('',#491);
#228=VERTEX_POINT('',#493);
#229=VERTEX_POINT('',#496);
#230=VERTEX_POINT('',#497);
#231=VERTEX_POINT('',#501);
#232=VERTEX_POINT('',#504);
#233=VERTEX_POINT('',#507);
#234=VERTEX_POINT('',#510);
#235=VERTEX_POINT('',#513);
#236=VERTEX_POINT('',#516);
#237=VERTEX_POINT('',#519);
#238=VERTEX_POINT('',#523);
#239=VERTEX_POINT('',#525);
#240=VERTEX_POINT('',#532);
#241=VERTEX_POINT('',#533);
#242=VERTEX_POINT('',#537);
#243=VERTEX_POINT('',#539);
#244=VERTEX_POINT('',#545);
#245=VERTEX_POINT('',#547);
#246=VERTEX_POINT('',#549);
#247=VERTEX_POINT('',#550);
#248=VERTEX_POINT('',#552);
#249=VERTEX_POINT('',#554);
#250=EDGE_CURVE('',#224,#224,#282,.T.);
#251=EDGE_CURVE('',#225,#226,#283,.T.);
#252=EDGE_CURVE('',#226,#225,#284,.T.);
#253=EDGE_CURVE('',#227,#227,#285,.T.);
#254=EDGE_CURVE('',#228,#228,#286,.T.);
#255=EDGE_CURVE('',#229,#230,#287,.T.);
#256=EDGE_CURVE('',#230,#229,#288,.T.);
#257=EDGE_CURVE('',#231,#231,#289,.T.);
#258=EDGE_CURVE('',#232,#232,#290,.T.);
#259=EDGE_CURVE('',#233,#233,#291,.T.);
#260=EDGE_CURVE('',#234,#234,#292,.T.);
#261=EDGE_CURVE('',#235,#235,#293,.T.);
#262=EDGE_CURVE('',#236,#236,#294,.T.);
#263=EDGE_CURVE('',#237,#237,#295,.T.);
#264=EDGE_CURVE('',#238,#225,#48,.T.);
#265=EDGE_CURVE('',#239,#226,#49,.T.);
#266=EDGE_CURVE('',#238,#239,#296,.T.);
#267=EDGE_CURVE('',#239,#238,#297,.T.);
#268=EDGE_CURVE('',#240,#241,#298,.T.);
#269=EDGE_CURVE('',#240,#241,#299,.T.);
#270=EDGE_CURVE('',#242,#241,#50,.T.);
#271=EDGE_CURVE('',#243,#242,#300,.T.);
#272=EDGE_CURVE('',#243,#240,#51,.T.);
#273=EDGE_CURVE('',#243,#242,#301,.T.);
#274=EDGE_CURVE('',#243,#244,#52,.T.);
#275=EDGE_CURVE('',#242,#245,#53,.T.);
#276=EDGE_CURVE('',#246,#247,#54,.T.);
#277=EDGE_CURVE('',#247,#248,#302,.T.);
#278=EDGE_CURVE('',#249,#248,#55,.T.);
#279=EDGE_CURVE('',#248,#247,#303,.T.);
#280=EDGE_CURVE('',#247,#229,#304,.T.);
#281=EDGE_CURVE('',#248,#230,#305,.T.);
#282=CIRCLE('',#331,31.775);
#283=CIRCLE('',#332,22.6916641016621);
#284=CIRCLE('',#333,22.6916641016621);
#285=CIRCLE('',#335,31.775);
#286=CIRCLE('',#336,31.775);
#287=CIRCLE('',#338,20.5);
#288=CIRCLE('',#339,20.5);
#289=CIRCLE('',#341,28.89759526419);
#290=CIRCLE('',#343,28.5);
#291=CIRCLE('',#345,28.);
#292=CIRCLE('',#347,28.);
#293=CIRCLE('',#349,28.5);
#294=CIRCLE('',#351,28.89759526419);
#295=CIRCLE('',#353,31.775);
#296=CIRCLE('',#356,12.2500548269618);
#297=CIRCLE('',#358,12.2500548269618);
#298=CIRCLE('',#361,12.5000000000021);
#299=CIRCLE('',#362,12.5000000000021);
#300=CIRCLE('',#364,17.5);
#301=CIRCLE('',#366,17.5);
#302=CIRCLE('',#368,17.5);
#303=CIRCLE('',#369,17.5);
#304=CIRCLE('',#371,3.);
#305=CIRCLE('',#372,3.);
#306=INVISIBILITY((#307,#308,#309,#310));
#307=PRESENTATION_LAYER_ASSIGNMENT('100','Layer 100',(#328));
#308=PRESENTATION_LAYER_ASSIGNMENT('101','Layer 101',(#329));
#309=PRESENTATION_LAYER_ASSIGNMENT('102','Layer 102',(#330));
#310=PRESENTATION_LAYER_ASSIGNMENT('98','Layer 98',(#38));
#311=STYLED_ITEM('',(#315),#328);
#312=STYLED_ITEM('',(#316),#329);
#313=STYLED_ITEM('',(#317),#330);
#314=STYLED_ITEM('',(#318),#38);
#315=PRESENTATION_STYLE_ASSIGNMENT((#319));
#316=PRESENTATION_STYLE_ASSIGNMENT((#320));
#317=PRESENTATION_STYLE_ASSIGNMENT((#321));
#318=PRESENTATION_STYLE_ASSIGNMENT((#33));
#319=CURVE_STYLE('',#324,POSITIVE_LENGTH_MEASURE(0.7),#322);
#320=CURVE_STYLE('',#325,POSITIVE_LENGTH_MEASURE(0.7),#322);
#321=CURVE_STYLE('',#326,POSITIVE_LENGTH_MEASURE(0.7),#322);
#322=COLOUR_RGB('Medium Maroon',0.6,0.4,0.4);
#323=COLOUR_RGB('Medium Gray',0.490196078431373,0.490196078431373,0.490196078431373);
#324=DRAUGHTING_PRE_DEFINED_CURVE_FONT('continuous');
#325=DRAUGHTING_PRE_DEFINED_CURVE_FONT('continuous');
#326=DRAUGHTING_PRE_DEFINED_CURVE_FONT('continuous');
#327=AXIS2_PLACEMENT_3D('',#479,#375,#376);
#328=AXIS2_PLACEMENT_3D('PCS',#480,#377,#378);
#329=AXIS2_PLACEMENT_3D('CSW',#481,#379,#380);
#330=AXIS2_PLACEMENT_3D('MCS',#482,#381,#382);
#331=AXIS2_PLACEMENT_3D('',#483,#383,#384);
#332=AXIS2_PLACEMENT_3D('',#485,#385,#386);
#333=AXIS2_PLACEMENT_3D('',#488,#387,#388);
#334=AXIS2_PLACEMENT_3D('',#489,#389,#390);
#335=AXIS2_PLACEMENT_3D('',#490,#391,#392);
#336=AXIS2_PLACEMENT_3D('',#492,#393,#394);
#337=AXIS2_PLACEMENT_3D('',#494,#395,#396);
#338=AXIS2_PLACEMENT_3D('',#495,#397,#398);
#339=AXIS2_PLACEMENT_3D('',#498,#399,#400);
#340=AXIS2_PLACEMENT_3D('',#499,#401,#402);
#341=AXIS2_PLACEMENT_3D('',#500,#403,#404);
#342=AXIS2_PLACEMENT_3D('',#502,#405,#406);
#343=AXIS2_PLACEMENT_3D('',#503,#407,#408);
#344=AXIS2_PLACEMENT_3D('',#505,#409,#410);
#345=AXIS2_PLACEMENT_3D('',#506,#411,#412);
#346=AXIS2_PLACEMENT_3D('',#508,#413,#414);
#347=AXIS2_PLACEMENT_3D('',#509,#415,#416);
#348=AXIS2_PLACEMENT_3D('',#511,#417,#418);
#349=AXIS2_PLACEMENT_3D('',#512,#419,#420);
#350=AXIS2_PLACEMENT_3D('',#514,#421,#422);
#351=AXIS2_PLACEMENT_3D('',#515,#423,#424);
#352=AXIS2_PLACEMENT_3D('',#517,#425,#426);
#353=AXIS2_PLACEMENT_3D('',#518,#427,#428);
#354=AXIS2_PLACEMENT_3D('',#520,#429,#430);
#355=AXIS2_PLACEMENT_3D('',#521,#431,#432);
#356=AXIS2_PLACEMENT_3D('',#526,#435,#436);
#357=AXIS2_PLACEMENT_3D('',#527,#437,#438);
#358=AXIS2_PLACEMENT_3D('',#528,#439,#440);
#359=AXIS2_PLACEMENT_3D('',#529,#441,#442);
#360=AXIS2_PLACEMENT_3D('',#530,#443,#444);
#361=AXIS2_PLACEMENT_3D('',#531,#445,#446);
#362=AXIS2_PLACEMENT_3D('',#534,#447,#448);
#363=AXIS2_PLACEMENT_3D('',#535,#449,#450);
#364=AXIS2_PLACEMENT_3D('',#538,#452,#453);
#365=AXIS2_PLACEMENT_3D('',#541,#455,#456);
#366=AXIS2_PLACEMENT_3D('',#542,#457,#458);
#367=AXIS2_PLACEMENT_3D('',#543,#459,#460);
#368=AXIS2_PLACEMENT_3D('',#551,#464,#465);
#369=AXIS2_PLACEMENT_3D('',#555,#467,#468);
#370=AXIS2_PLACEMENT_3D('',#556,#469,#470);
#371=AXIS2_PLACEMENT_3D('',#557,#471,#472);
#372=AXIS2_PLACEMENT_3D('',#558,#473,#474);
#373=AXIS2_PLACEMENT_3D('',#559,#475,#476);
#374=AXIS2_PLACEMENT_3D('',#560,#477,#478);
#375=DIRECTION('',(0.,0.,1.));
#376=DIRECTION('',(1.,0.,0.));
#377=DIRECTION('',(0.,0.,1.));
#378=DIRECTION('',(1.,0.,0.));
#379=DIRECTION('',(0.,0.,1.));
#380=DIRECTION('',(1.,0.,0.));
#381=DIRECTION('',(0.,0.,1.));
#382=DIRECTION('',(1.,0.,0.));
#383=DIRECTION('',(0.,0.,1.));
#384=DIRECTION('',(-1.,0.,0.));
#385=DIRECTION('',(0.,0.,-1.));
#386=DIRECTION('',(-1.,0.,0.));
#387=DIRECTION('',(0.,0.,-1.));
#388=DIRECTION('',(-1.,0.,0.));
#389=DIRECTION('',(0.,0.,-1.));
#390=DIRECTION('',(0.,-1.,0.));
#391=DIRECTION('',(0.,0.,1.));
#392=DIRECTION('',(-1.,0.,0.));
#393=DIRECTION('',(0.,0.,-1.));
#394=DIRECTION('',(-0.967376300599849,0.253343823760813,0.));
#395=DIRECTION('',(0.,0.,-1.));
#396=DIRECTION('',(0.,-1.,0.));
#397=DIRECTION('',(0.,0.,-1.));
#398=DIRECTION('',(0.,-1.,0.));
#399=DIRECTION('',(0.,0.,-1.));
#400=DIRECTION('',(0.,1.,0.));
#401=DIRECTION('',(0.,0.,-1.));
#402=DIRECTION('',(0.,-1.,0.));
#403=DIRECTION('',(0.,0.,-1.));
#404=DIRECTION('',(-0.960415959422322,0.278569892283607,0.));
#405=DIRECTION('',(0.,0.,-1.));
#406=DIRECTION('',(0.,-1.,4.1340739373327E-17));
#407=DIRECTION('',(0.,0.,-1.));
#408=DIRECTION('',(-0.959280213898982,0.282456140350895,0.));
#409=DIRECTION('',(0.,0.,-1.));
#410=DIRECTION('',(0.,-1.,0.));
#411=DIRECTION('',(0.,0.,-1.));
#412=DIRECTION('',(-0.957780637724524,0.287500000000007,0.));
#413=DIRECTION('',(0.,0.,-1.));
#414=DIRECTION('',(0.00415426945299211,-0.999991370985426,0.));
#415=DIRECTION('',(0.,0.,-1.));
#416=DIRECTION('',(-0.957780637724524,0.287500000000007,0.));
#417=DIRECTION('',(0.,0.,-1.));
#418=DIRECTION('',(0.,-1.,0.));
#419=DIRECTION('',(0.,0.,-1.));
#420=DIRECTION('',(-0.959280213898982,0.282456140350895,0.));
#421=DIRECTION('',(0.,0.,-1.));
#422=DIRECTION('',(0.0039631344949438,-0.999992146751651,0.));
#423=DIRECTION('',(0.,0.,-1.));
#424=DIRECTION('',(-0.960415959422322,0.278569892283607,0.));
#425=DIRECTION('',(0.,0.,-1.));
#426=DIRECTION('',(0.,-1.,0.));
#427=DIRECTION('',(0.,0.,-1.));
#428=DIRECTION('',(-0.967376300599849,0.253343823760813,0.));
#429=DIRECTION('',(0.,0.,1.));
#430=DIRECTION('',(0.,1.,2.65761895971388E-17));
#431=DIRECTION('',(0.,0.,-1.));
#432=DIRECTION('',(0.,-1.,0.));
#433=DIRECTION('',(1.33168609664097E-13,-0.144306116415197,-0.989533094325381));
#434=DIRECTION('',(-1.33167879821197E-13,0.144306116415197,-0.989533094325381));
#435=DIRECTION('',(0.,0.,1.));
#436=DIRECTION('',(-1.,0.,0.));
#437=DIRECTION('',(0.,0.,-1.));
#438=DIRECTION('',(0.,-1.,-2.55055708228373E-16));
#439=DIRECTION('',(0.,0.,1.));
#440=DIRECTION('',(-1.,0.,0.));
#441=DIRECTION('',(0.,0.,-1.));
#442=DIRECTION('',(0.,-1.,0.));
#443=DIRECTION('',(0.,0.,-1.));
#444=DIRECTION('',(0.,-1.,-2.55055708228373E-16));
#445=DIRECTION('',(0.,0.,1.));
#446=DIRECTION('',(1.,0.,0.));
#447=DIRECTION('',(0.,0.,-1.));
#448=DIRECTION('',(1.,0.,0.));
#449=DIRECTION('',(0.,0.,1.));
#450=DIRECTION('',(0.,1.,0.));
#451=DIRECTION('',(0.,-0.422618261740681,-0.906307787036659));
#452=DIRECTION('',(0.,0.,1.));
#453=DIRECTION('',(1.,0.,0.));
#454=DIRECTION('',(0.,0.422618261740681,-0.906307787036659));
#455=DIRECTION('',(0.,0.,1.));
#456=DIRECTION('',(0.,1.,0.));
#457=DIRECTION('',(0.,0.,-1.));
#458=DIRECTION('',(1.,0.,0.));
#459=DIRECTION('',(0.,0.,1.));
#460=DIRECTION('',(0.,1.,0.));
#461=DIRECTION('',(0.,0.,1.));
#462=DIRECTION('',(0.,0.,1.));
#463=DIRECTION('',(3.540091877353E-12,0.,1.));
#464=DIRECTION('',(0.,0.,-1.));
#465=DIRECTION('',(0.,-1.,0.));
#466=DIRECTION('',(-5.439985192534E-13,0.,1.));
#467=DIRECTION('',(0.,0.,-1.));
#468=DIRECTION('',(0.,1.,0.));
#469=DIRECTION('',(0.,0.,1.));
#470=DIRECTION('',(0.,1.,0.));
#471=DIRECTION('',(1.,2.439715096614E-14,0.));
#472=DIRECTION('',(-7.88860905221012E-28,3.23815048849004E-14,1.));
#473=DIRECTION('',(-1.,-2.452552050336E-14,0.));
#474=DIRECTION('',(7.55991700836803E-28,-3.12250225675825E-14,1.));
#475=DIRECTION('',(0.,0.,1.));
#476=DIRECTION('',(0.00900766667350094,-0.999959430147593,0.));
#477=DIRECTION('',(0.,0.,1.));
#478=DIRECTION('',(-0.00900766667350094,0.999959430147593,0.));
#479=CARTESIAN_POINT('',(0.,0.,0.));
#480=CARTESIAN_POINT('',(0.,0.,0.));
#481=CARTESIAN_POINT('',(0.,0.,-50.));
#482=CARTESIAN_POINT('',(0.,0.,0.));
#483=CARTESIAN_POINT('',(0.,0.,-3.19999999999999));
#484=CARTESIAN_POINT('',(-31.775,0.,-3.19999999999999));
#485=CARTESIAN_POINT('',(0.,0.,-3.2));
#486=CARTESIAN_POINT('',(0.,-22.6916641016621,-3.2));
#487=CARTESIAN_POINT('',(6.12411196672187E-12,22.6916641016621,-3.2));
#488=CARTESIAN_POINT('',(0.,0.,-3.2));
#489=CARTESIAN_POINT('',(0.,0.,-3.2));
#490=CARTESIAN_POINT('',(0.,0.,-19.1));
#491=CARTESIAN_POINT('',(-31.775,0.,-19.1));
#492=CARTESIAN_POINT('',(0.,0.,-14.636270398786));
#493=CARTESIAN_POINT('',(-30.7383819515602,8.04999999999983,-14.636270398786));
#494=CARTESIAN_POINT('',(0.,0.,72.775));
#495=CARTESIAN_POINT('',(0.,0.,-19.1));
#496=CARTESIAN_POINT('',(0.,-20.5,-19.1));
#497=CARTESIAN_POINT('',(0.,20.5,-19.1));
#498=CARTESIAN_POINT('',(0.,0.,-19.1));
#499=CARTESIAN_POINT('',(0.,0.,-19.1));
#500=CARTESIAN_POINT('',(0.,0.,-12.975));
#501=CARTESIAN_POINT('',(-27.753711680655,8.05000000000067,-12.975));
#502=CARTESIAN_POINT('',(0.,0.,-13.805635199393));
#503=CARTESIAN_POINT('',(0.,0.,-12.975));
#504=CARTESIAN_POINT('',(-27.339486096121,8.0500000000005,-12.975));
#505=CARTESIAN_POINT('',(0.,0.,-12.975));
#506=CARTESIAN_POINT('',(0.,0.,-12.475));
#507=CARTESIAN_POINT('',(-26.8178578562867,8.0500000000002,-12.475));
#508=CARTESIAN_POINT('',(0.,0.,-12.475));
#509=CARTESIAN_POINT('',(0.,0.,-9.725));
#510=CARTESIAN_POINT('',(-26.8178578562867,8.0500000000002,-9.725));
#511=CARTESIAN_POINT('',(0.,0.,72.775));
#512=CARTESIAN_POINT('',(0.,0.,-9.225));
#513=CARTESIAN_POINT('',(-27.339486096121,8.0500000000005,-9.225));
#514=CARTESIAN_POINT('',(0.,0.,-9.725));
#515=CARTESIAN_POINT('',(0.,0.,-9.225));
#516=CARTESIAN_POINT('',(-27.753711680655,8.05000000000067,-9.225));
#517=CARTESIAN_POINT('',(0.,0.,-9.225));
#518=CARTESIAN_POINT('',(0.,0.,-7.56372960121));
#519=CARTESIAN_POINT('',(-30.7383819515602,8.04999999999983,-7.56372960121));
#520=CARTESIAN_POINT('',(0.,0.,-8.39436480061));
#521=CARTESIAN_POINT('',(0.,0.,72.775));
#522=CARTESIAN_POINT('',(0.,-22.39999903812,-1.2));
#523=CARTESIAN_POINT('',(-9.36657428212651E-12,-12.2500548269614,68.4));
#524=CARTESIAN_POINT('',(0.,22.39999903812,-1.2));
#525=CARTESIAN_POINT('',(9.36652294774858E-12,12.2500548269614,68.4));
#526=CARTESIAN_POINT('',(0.,0.,68.4));
#527=CARTESIAN_POINT('',(0.,0.,33.08658366985));
#528=CARTESIAN_POINT('',(0.,0.,68.4));
#529=CARTESIAN_POINT('',(0.,0.,68.4));
#530=CARTESIAN_POINT('',(0.,0.,33.08658366985));
#531=CARTESIAN_POINT('',(0.,0.,-50.));
#532=CARTESIAN_POINT('',(0.,-12.5000000000011,-50.));
#533=CARTESIAN_POINT('',(0.,12.5000000000011,-50.));
#534=CARTESIAN_POINT('',(0.,0.,-50.));
#535=CARTESIAN_POINT('',(0.,0.,-50.));
#536=CARTESIAN_POINT('',(0.,13.03847505246,-48.84523652348));
#537=CARTESIAN_POINT('',(0.,17.5,-39.2774653974521));
#538=CARTESIAN_POINT('',(0.,0.,-39.2774653974566));
#539=CARTESIAN_POINT('',(0.,-17.5,-39.2774653974521));
#540=CARTESIAN_POINT('',(0.,-13.03847505246,-48.84523652348));
#541=CARTESIAN_POINT('',(0.,0.,-44.26227455956));
#542=CARTESIAN_POINT('',(0.,0.,-39.2774653974566));
#543=CARTESIAN_POINT('',(0.,0.,-44.26227455956));
#544=CARTESIAN_POINT('',(0.,-17.5,-38.83407607217));
#545=CARTESIAN_POINT('',(0.,-17.5,-37.6078840685187));
#546=CARTESIAN_POINT('',(0.,17.5,-38.83407607217));
#547=CARTESIAN_POINT('',(6.01853107621011E-32,17.5,-36.0000000000001));
#548=CARTESIAN_POINT('',(0.,-17.5,-22.392115931483));
#549=CARTESIAN_POINT('',(1.34663042974008E-11,-17.5,-22.3921159314828));
#550=CARTESIAN_POINT('',(0.,-17.5,-22.1));
#551=CARTESIAN_POINT('',(0.,0.,-22.1));
#552=CARTESIAN_POINT('',(0.,17.5,-22.1));
#553=CARTESIAN_POINT('',(0.,17.5,-24.));
#554=CARTESIAN_POINT('',(-2.42999403078249E-26,17.5,-23.9999999999999));
#555=CARTESIAN_POINT('',(0.,0.,-22.1));
#556=CARTESIAN_POINT('',(0.,0.,-52.2));
#557=CARTESIAN_POINT('',(5.000999514424E-13,-20.5,-22.1));
#558=CARTESIAN_POINT('',(-5.027645067015E-13,20.5,-22.1));
#559=CARTESIAN_POINT('',(0.,0.,-22.1));
#560=CARTESIAN_POINT('',(0.,0.,-22.1));
#561=MECHANICAL_DESIGN_GEOMETRIC_PRESENTATION_REPRESENTATION('',(#311,#312,
#313,#314),#562);
#562=(
GEOMETRIC_REPRESENTATION_CONTEXT(3)
GLOBAL_UNCERTAINTY_ASSIGNED_CONTEXT((#563))
GLOBAL_UNIT_ASSIGNED_CONTEXT((#569,#565,#564))
REPRESENTATION_CONTEXT('69871.40AD-W.10','TOP_LEVEL_ASSEMBLY_PART')
);
#563=UNCERTAINTY_MEASURE_WITH_UNIT(LENGTH_MEASURE(2.E-5),#569,
'DISTANCE_ACCURACY_VALUE','Maximum Tolerance applied to model');
#564=(
NAMED_UNIT(*)
SI_UNIT($,.STERADIAN.)
SOLID_ANGLE_UNIT()
);
#565=(
CONVERSION_BASED_UNIT('DEGREE',#567)
NAMED_UNIT(#566)
PLANE_ANGLE_UNIT()
);
#566=DIMENSIONAL_EXPONENTS(0.,0.,0.,0.,0.,0.,0.);
#567=PLANE_ANGLE_MEASURE_WITH_UNIT(PLANE_ANGLE_MEASURE(0.0174532925),#568);
#568=(
NAMED_UNIT(*)
PLANE_ANGLE_UNIT()
SI_UNIT($,.RADIAN.)
);
#569=(
LENGTH_UNIT()
NAMED_UNIT(*)
SI_UNIT(.MILLI.,.METRE.)
);
ENDSEC;
END-ISO-10303-21;
