ISO-10303-21;
HEADER;
/* Generated by software containing ST-Developer
 * from STEP Tools, Inc. (www.steptools.com) 
 */
/* OPTION: using custom schema-name function */

FILE_DESCRIPTION(
/* description */ (''),
/* implementation_level */ '2;1');

FILE_NAME(
/* name */ '204668669ndi000_00.stp',
/* time_stamp */ '2023-04-05T09:29:20+02:00',
/* author */ (''),
/* organization */ (''),
/* preprocessor_version */ 'ST-DEVELOPER v16.7',
/* originating_system */ 'SIEMENS PLM Software NX 12.0',
/* authorisation */ '');

FILE_SCHEMA (('AUTOMOTIVE_DESIGN { 1 0 10303 214 3 1 1 1 }'));
ENDSEC;

DATA;
#10=CONSTRUCTIVE_GEOMETRY_REPRESENTATION_RELATIONSHIP(
'supplemental geometry','',#32,#11);
#11=CONSTRUCTIVE_GEOMETRY_REPRESENTATION('supplemental geometry',(#339,
#340,#341),#584);
#12=PROPERTY_DEFINITION_REPRESENTATION(#16,#14);
#13=PROPERTY_DEFINITION_REPRESENTATION(#17,#15);
#14=REPRESENTATION('',(#18),#584);
#15=REPRESENTATION('',(#19),#584);
#16=PROPERTY_DEFINITION('pmi validation property','',#23);
#17=PROPERTY_DEFINITION('pmi validation property','',#23);
#18=VALUE_REPRESENTATION_ITEM('number of annotations',COUNT_MEASURE(0.));
#19=VALUE_REPRESENTATION_ITEM('number of views',COUNT_MEASURE(0.));
#20=SHAPE_REPRESENTATION_RELATIONSHIP('None',
'relationship between kl6224D467B4mlhf-None and kl6224D467B4mlhf-None',
#32,#21);
#21=ADVANCED_BREP_SHAPE_REPRESENTATION('kl6224D467B4mlhf-None',(#38),#584);
#22=SHAPE_DEFINITION_REPRESENTATION(#23,#32);
#23=PRODUCT_DEFINITION_SHAPE('','',#24);
#24=PRODUCT_DEFINITION(' ','',#26,#25);
#25=PRODUCT_DEFINITION_CONTEXT('part definition',#31,'design');
#26=PRODUCT_DEFINITION_FORMATION_WITH_SPECIFIED_SOURCE(' ',' ',#28,
 .NOT_KNOWN.);
#27=PRODUCT_RELATED_PRODUCT_CATEGORY('part','',(#28));
#28=PRODUCT('kl6224D467B4mlhf','kl6224D467B4mlhf',' ',(#29));
#29=PRODUCT_CONTEXT(' ',#31,'mechanical');
#30=APPLICATION_PROTOCOL_DEFINITION('international standard',
'automotive_design',2010,#31);
#31=APPLICATION_CONTEXT(
'core data for automotive mechanical design processes');
#32=SHAPE_REPRESENTATION('kl6224D467B4mlhf-None',(#338),#584);
#33=SURFACE_STYLE_USAGE(.BOTH.,#34);
#34=SURFACE_SIDE_STYLE('',(#35));
#35=SURFACE_STYLE_FILL_AREA(#36);
#36=FILL_AREA_STYLE('',(#37));
#37=FILL_AREA_STYLE_COLOUR('',#334);
#38=MANIFOLD_SOLID_BREP('S\X\D3LIDO2',#39);
#39=CLOSED_SHELL('',(#104,#105,#106,#107,#108,#109,#110,#111,#112,#113,
#114,#115,#116,#117,#118,#119,#120,#121,#122,#123,#124,#125,#126,#127,#128,
#129));
#40=CYLINDRICAL_SURFACE('',#350,25.);
#41=CYLINDRICAL_SURFACE('',#355,6.25);
#42=CYLINDRICAL_SURFACE('',#360,5.50000000000003);
#43=CYLINDRICAL_SURFACE('',#364,5.12500000000001);
#44=CYLINDRICAL_SURFACE('',#368,6.74999999999999);
#45=CYLINDRICAL_SURFACE('',#373,31.775);
#46=CYLINDRICAL_SURFACE('',#379,28.);
#47=CYLINDRICAL_SURFACE('',#385,31.775);
#48=CYLINDRICAL_SURFACE('',#392,22.3800610677506);
#49=CONICAL_SURFACE('',#346,24.75,45.);
#50=CONICAL_SURFACE('',#357,10.263297499671,46.5245006422712);
#51=CONICAL_SURFACE('',#358,16.25,3.0490012845453);
#52=CONICAL_SURFACE('',#366,5.93750000000001,1.81959810246277);
#53=CONICAL_SURFACE('',#375,30.4112976320958,60.);
#54=CONICAL_SURFACE('',#383,30.4112976320958,60.0000000000001);
#55=CONICAL_SURFACE('',#391,17.2996429974051,8.3);
#56=FACE_BOUND('',#143,.T.);
#57=FACE_BOUND('',#144,.T.);
#58=FACE_BOUND('',#145,.T.);
#59=FACE_BOUND('',#146,.T.);
#60=FACE_BOUND('',#147,.T.);
#61=FACE_BOUND('',#148,.T.);
#62=FACE_BOUND('',#149,.T.);
#63=FACE_BOUND('',#150,.T.);
#64=FACE_BOUND('',#151,.T.);
#65=FACE_BOUND('',#152,.T.);
#66=FACE_BOUND('',#153,.T.);
#67=FACE_BOUND('',#154,.T.);
#68=FACE_BOUND('',#155,.T.);
#69=FACE_BOUND('',#156,.T.);
#70=FACE_BOUND('',#157,.T.);
#71=FACE_BOUND('',#158,.T.);
#72=FACE_BOUND('',#159,.T.);
#73=FACE_BOUND('',#160,.T.);
#74=FACE_BOUND('',#161,.T.);
#75=FACE_BOUND('',#162,.T.);
#76=FACE_BOUND('',#163,.T.);
#77=FACE_BOUND('',#164,.T.);
#78=FACE_BOUND('',#165,.T.);
#79=FACE_BOUND('',#166,.T.);
#80=FACE_BOUND('',#167,.T.);
#81=FACE_BOUND('',#168,.T.);
#82=FACE_BOUND('',#169,.T.);
#83=FACE_BOUND('',#170,.T.);
#84=FACE_BOUND('',#171,.T.);
#85=FACE_BOUND('',#172,.T.);
#86=FACE_BOUND('',#173,.T.);
#87=FACE_BOUND('',#174,.T.);
#88=FACE_BOUND('',#175,.T.);
#89=FACE_BOUND('',#176,.T.);
#90=FACE_BOUND('',#177,.T.);
#91=FACE_BOUND('',#178,.T.);
#92=FACE_BOUND('',#179,.T.);
#93=FACE_BOUND('',#180,.T.);
#94=FACE_BOUND('',#181,.T.);
#95=FACE_BOUND('',#182,.T.);
#96=FACE_BOUND('',#183,.T.);
#97=FACE_BOUND('',#184,.T.);
#98=FACE_BOUND('',#185,.T.);
#99=FACE_BOUND('',#186,.T.);
#100=FACE_BOUND('',#188,.T.);
#101=FACE_BOUND('',#189,.T.);
#102=FACE_BOUND('',#190,.T.);
#103=FACE_BOUND('',#191,.T.);
#104=ADVANCED_FACE('',(#140),#130,.T.);
#105=ADVANCED_FACE('',(#56,#57),#49,.T.);
#106=ADVANCED_FACE('',(#58,#59),#131,.T.);
#107=ADVANCED_FACE('',(#60,#61),#40,.T.);
#108=ADVANCED_FACE('',(#62,#63),#132,.T.);
#109=ADVANCED_FACE('',(#64,#65),#41,.F.);
#110=ADVANCED_FACE('',(#66,#67),#50,.T.);
#111=ADVANCED_FACE('',(#68,#69),#51,.T.);
#112=ADVANCED_FACE('',(#70,#71),#42,.F.);
#113=ADVANCED_FACE('',(#72,#73),#133,.F.);
#114=ADVANCED_FACE('',(#74,#75),#43,.F.);
#115=ADVANCED_FACE('',(#76,#77),#52,.F.);
#116=ADVANCED_FACE('',(#78,#79),#44,.F.);
#117=ADVANCED_FACE('',(#80,#81),#134,.F.);
#118=ADVANCED_FACE('',(#82,#83),#135,.T.);
#119=ADVANCED_FACE('',(#84,#85),#45,.T.);
#120=ADVANCED_FACE('',(#86,#87),#53,.T.);
#121=ADVANCED_FACE('',(#88,#89),#136,.T.);
#122=ADVANCED_FACE('',(#90,#91),#46,.T.);
#123=ADVANCED_FACE('',(#92,#93),#137,.T.);
#124=ADVANCED_FACE('',(#94,#95),#54,.T.);
#125=ADVANCED_FACE('',(#96,#97),#47,.T.);
#126=ADVANCED_FACE('',(#98,#99),#138,.T.);
#127=ADVANCED_FACE('',(#141),#139,.T.);
#128=ADVANCED_FACE('',(#100,#101),#55,.T.);
#129=ADVANCED_FACE('',(#102,#103),#48,.T.);
#130=PLANE('',#343);
#131=PLANE('',#348);
#132=PLANE('',#353);
#133=PLANE('',#362);
#134=PLANE('',#369);
#135=PLANE('',#371);
#136=PLANE('',#377);
#137=PLANE('',#381);
#138=PLANE('',#387);
#139=PLANE('',#389);
#140=FACE_OUTER_BOUND('',#142,.T.);
#141=FACE_OUTER_BOUND('',#187,.T.);
#142=EDGE_LOOP('',(#192));
#143=EDGE_LOOP('',(#193));
#144=EDGE_LOOP('',(#194));
#145=EDGE_LOOP('',(#195));
#146=EDGE_LOOP('',(#196));
#147=EDGE_LOOP('',(#197));
#148=EDGE_LOOP('',(#198));
#149=EDGE_LOOP('',(#199));
#150=EDGE_LOOP('',(#200));
#151=EDGE_LOOP('',(#201));
#152=EDGE_LOOP('',(#202));
#153=EDGE_LOOP('',(#203));
#154=EDGE_LOOP('',(#204));
#155=EDGE_LOOP('',(#205));
#156=EDGE_LOOP('',(#206));
#157=EDGE_LOOP('',(#207));
#158=EDGE_LOOP('',(#208));
#159=EDGE_LOOP('',(#209));
#160=EDGE_LOOP('',(#210));
#161=EDGE_LOOP('',(#211));
#162=EDGE_LOOP('',(#212));
#163=EDGE_LOOP('',(#213));
#164=EDGE_LOOP('',(#214));
#165=EDGE_LOOP('',(#215));
#166=EDGE_LOOP('',(#216));
#167=EDGE_LOOP('',(#217));
#168=EDGE_LOOP('',(#218));
#169=EDGE_LOOP('',(#219));
#170=EDGE_LOOP('',(#220));
#171=EDGE_LOOP('',(#221));
#172=EDGE_LOOP('',(#222));
#173=EDGE_LOOP('',(#223));
#174=EDGE_LOOP('',(#224));
#175=EDGE_LOOP('',(#225));
#176=EDGE_LOOP('',(#226));
#177=EDGE_LOOP('',(#227));
#178=EDGE_LOOP('',(#228));
#179=EDGE_LOOP('',(#229));
#180=EDGE_LOOP('',(#230));
#181=EDGE_LOOP('',(#231));
#182=EDGE_LOOP('',(#232));
#183=EDGE_LOOP('',(#233));
#184=EDGE_LOOP('',(#234));
#185=EDGE_LOOP('',(#235));
#186=EDGE_LOOP('',(#236));
#187=EDGE_LOOP('',(#237));
#188=EDGE_LOOP('',(#238));
#189=EDGE_LOOP('',(#239));
#190=EDGE_LOOP('',(#240));
#191=EDGE_LOOP('',(#241));
#192=ORIENTED_EDGE('',*,*,#267,.T.);
#193=ORIENTED_EDGE('',*,*,#268,.T.);
#194=ORIENTED_EDGE('',*,*,#269,.T.);
#195=ORIENTED_EDGE('',*,*,#268,.F.);
#196=ORIENTED_EDGE('',*,*,#270,.T.);
#197=ORIENTED_EDGE('',*,*,#271,.F.);
#198=ORIENTED_EDGE('',*,*,#269,.F.);
#199=ORIENTED_EDGE('',*,*,#272,.F.);
#200=ORIENTED_EDGE('',*,*,#273,.F.);
#201=ORIENTED_EDGE('',*,*,#274,.F.);
#202=ORIENTED_EDGE('',*,*,#272,.T.);
#203=ORIENTED_EDGE('',*,*,#273,.T.);
#204=ORIENTED_EDGE('',*,*,#275,.T.);
#205=ORIENTED_EDGE('',*,*,#270,.F.);
#206=ORIENTED_EDGE('',*,*,#275,.F.);
#207=ORIENTED_EDGE('',*,*,#276,.T.);
#208=ORIENTED_EDGE('',*,*,#267,.F.);
#209=ORIENTED_EDGE('',*,*,#276,.F.);
#210=ORIENTED_EDGE('',*,*,#277,.T.);
#211=ORIENTED_EDGE('',*,*,#278,.T.);
#212=ORIENTED_EDGE('',*,*,#277,.F.);
#213=ORIENTED_EDGE('',*,*,#279,.T.);
#214=ORIENTED_EDGE('',*,*,#278,.F.);
#215=ORIENTED_EDGE('',*,*,#280,.T.);
#216=ORIENTED_EDGE('',*,*,#279,.F.);
#217=ORIENTED_EDGE('',*,*,#280,.F.);
#218=ORIENTED_EDGE('',*,*,#274,.T.);
#219=ORIENTED_EDGE('',*,*,#271,.T.);
#220=ORIENTED_EDGE('',*,*,#281,.T.);
#221=ORIENTED_EDGE('',*,*,#281,.F.);
#222=ORIENTED_EDGE('',*,*,#282,.T.);
#223=ORIENTED_EDGE('',*,*,#282,.F.);
#224=ORIENTED_EDGE('',*,*,#283,.T.);
#225=ORIENTED_EDGE('',*,*,#283,.F.);
#226=ORIENTED_EDGE('',*,*,#284,.T.);
#227=ORIENTED_EDGE('',*,*,#284,.F.);
#228=ORIENTED_EDGE('',*,*,#285,.T.);
#229=ORIENTED_EDGE('',*,*,#285,.F.);
#230=ORIENTED_EDGE('',*,*,#286,.T.);
#231=ORIENTED_EDGE('',*,*,#286,.F.);
#232=ORIENTED_EDGE('',*,*,#287,.T.);
#233=ORIENTED_EDGE('',*,*,#287,.F.);
#234=ORIENTED_EDGE('',*,*,#288,.T.);
#235=ORIENTED_EDGE('',*,*,#288,.F.);
#236=ORIENTED_EDGE('',*,*,#289,.T.);
#237=ORIENTED_EDGE('',*,*,#290,.T.);
#238=ORIENTED_EDGE('',*,*,#291,.F.);
#239=ORIENTED_EDGE('',*,*,#290,.F.);
#240=ORIENTED_EDGE('',*,*,#289,.F.);
#241=ORIENTED_EDGE('',*,*,#291,.T.);
#242=VERTEX_POINT('',#508);
#243=VERTEX_POINT('',#511);
#244=VERTEX_POINT('',#513);
#245=VERTEX_POINT('',#516);
#246=VERTEX_POINT('',#519);
#247=VERTEX_POINT('',#522);
#248=VERTEX_POINT('',#524);
#249=VERTEX_POINT('',#527);
#250=VERTEX_POINT('',#530);
#251=VERTEX_POINT('',#534);
#252=VERTEX_POINT('',#537);
#253=VERTEX_POINT('',#540);
#254=VERTEX_POINT('',#543);
#255=VERTEX_POINT('',#546);
#256=VERTEX_POINT('',#550);
#257=VERTEX_POINT('',#553);
#258=VERTEX_POINT('',#556);
#259=VERTEX_POINT('',#559);
#260=VERTEX_POINT('',#562);
#261=VERTEX_POINT('',#565);
#262=VERTEX_POINT('',#568);
#263=VERTEX_POINT('',#571);
#264=VERTEX_POINT('',#574);
#265=VERTEX_POINT('',#577);
#266=VERTEX_POINT('',#580);
#267=EDGE_CURVE('',#242,#242,#292,.T.);
#268=EDGE_CURVE('',#243,#243,#293,.T.);
#269=EDGE_CURVE('',#244,#244,#294,.T.);
#270=EDGE_CURVE('',#245,#245,#295,.T.);
#271=EDGE_CURVE('',#246,#246,#296,.T.);
#272=EDGE_CURVE('',#247,#247,#297,.T.);
#273=EDGE_CURVE('',#248,#248,#298,.T.);
#274=EDGE_CURVE('',#249,#249,#299,.T.);
#275=EDGE_CURVE('',#250,#250,#300,.T.);
#276=EDGE_CURVE('',#251,#251,#301,.T.);
#277=EDGE_CURVE('',#252,#252,#302,.T.);
#278=EDGE_CURVE('',#253,#253,#303,.T.);
#279=EDGE_CURVE('',#254,#254,#304,.T.);
#280=EDGE_CURVE('',#255,#255,#305,.T.);
#281=EDGE_CURVE('',#256,#256,#306,.T.);
#282=EDGE_CURVE('',#257,#257,#307,.T.);
#283=EDGE_CURVE('',#258,#258,#308,.T.);
#284=EDGE_CURVE('',#259,#259,#309,.T.);
#285=EDGE_CURVE('',#260,#260,#310,.T.);
#286=EDGE_CURVE('',#261,#261,#311,.T.);
#287=EDGE_CURVE('',#262,#262,#312,.T.);
#288=EDGE_CURVE('',#263,#263,#313,.T.);
#289=EDGE_CURVE('',#264,#264,#314,.T.);
#290=EDGE_CURVE('',#265,#265,#315,.T.);
#291=EDGE_CURVE('',#266,#266,#316,.T.);
#292=CIRCLE('',#342,5.50000000000007);
#293=CIRCLE('',#344,24.5);
#294=CIRCLE('',#345,25.);
#295=CIRCLE('',#347,22.);
#296=CIRCLE('',#349,25.);
#297=CIRCLE('',#351,6.25);
#298=CIRCLE('',#352,10.);
#299=CIRCLE('',#354,6.25);
#300=CIRCLE('',#356,10.5265949993419);
#301=CIRCLE('',#359,5.5);
#302=CIRCLE('',#361,5.125);
#303=CIRCLE('',#363,5.12500000000002);
#304=CIRCLE('',#365,6.74999999999999);
#305=CIRCLE('',#367,6.74999999999999);
#306=CIRCLE('',#370,31.775);
#307=CIRCLE('',#372,31.775);
#308=CIRCLE('',#374,29.0475952641916);
#309=CIRCLE('',#376,28.);
#310=CIRCLE('',#378,28.);
#311=CIRCLE('',#380,29.0475952641916);
#312=CIRCLE('',#382,31.775);
#313=CIRCLE('',#384,31.775);
#314=CIRCLE('',#386,22.3800610677506);
#315=CIRCLE('',#388,12.2192249270596);
#316=CIRCLE('',#390,22.3800610677506);
#317=INVISIBILITY((#318,#319,#320));
#318=PRESENTATION_LAYER_ASSIGNMENT('100','Layer 100',(#339));
#319=PRESENTATION_LAYER_ASSIGNMENT('101','Layer 101',(#340));
#320=PRESENTATION_LAYER_ASSIGNMENT('102','Layer 102',(#341));
#321=PRESENTATION_LAYER_ASSIGNMENT('98','Layer 98',(#38));
#322=STYLED_ITEM('',(#326),#339);
#323=STYLED_ITEM('',(#327),#340);
#324=STYLED_ITEM('',(#328),#341);
#325=STYLED_ITEM('',(#329),#38);
#326=PRESENTATION_STYLE_ASSIGNMENT((#330));
#327=PRESENTATION_STYLE_ASSIGNMENT((#331));
#328=PRESENTATION_STYLE_ASSIGNMENT((#332));
#329=PRESENTATION_STYLE_ASSIGNMENT((#33));
#330=CURVE_STYLE('',#335,POSITIVE_LENGTH_MEASURE(0.7),#333);
#331=CURVE_STYLE('',#336,POSITIVE_LENGTH_MEASURE(0.7),#333);
#332=CURVE_STYLE('',#337,POSITIVE_LENGTH_MEASURE(0.7),#333);
#333=COLOUR_RGB('Medium Maroon',0.6,0.4,0.4);
#334=COLOUR_RGB('Medium Gray',0.490196078431373,0.490196078431373,0.490196078431373);
#335=DRAUGHTING_PRE_DEFINED_CURVE_FONT('continuous');
#336=DRAUGHTING_PRE_DEFINED_CURVE_FONT('continuous');
#337=DRAUGHTING_PRE_DEFINED_CURVE_FONT('continuous');
#338=AXIS2_PLACEMENT_3D('',#503,#393,#394);
#339=AXIS2_PLACEMENT_3D('PCS',#504,#395,#396);
#340=AXIS2_PLACEMENT_3D('CSW',#505,#397,#398);
#341=AXIS2_PLACEMENT_3D('MCS',#506,#399,#400);
#342=AXIS2_PLACEMENT_3D('',#507,#401,#402);
#343=AXIS2_PLACEMENT_3D('',#509,#403,#404);
#344=AXIS2_PLACEMENT_3D('',#510,#405,#406);
#345=AXIS2_PLACEMENT_3D('',#512,#407,#408);
#346=AXIS2_PLACEMENT_3D('',#514,#409,#410);
#347=AXIS2_PLACEMENT_3D('',#515,#411,#412);
#348=AXIS2_PLACEMENT_3D('',#517,#413,#414);
#349=AXIS2_PLACEMENT_3D('',#518,#415,#416);
#350=AXIS2_PLACEMENT_3D('',#520,#417,#418);
#351=AXIS2_PLACEMENT_3D('',#521,#419,#420);
#352=AXIS2_PLACEMENT_3D('',#523,#421,#422);
#353=AXIS2_PLACEMENT_3D('',#525,#423,#424);
#354=AXIS2_PLACEMENT_3D('',#526,#425,#426);
#355=AXIS2_PLACEMENT_3D('',#528,#427,#428);
#356=AXIS2_PLACEMENT_3D('',#529,#429,#430);
#357=AXIS2_PLACEMENT_3D('',#531,#431,#432);
#358=AXIS2_PLACEMENT_3D('',#532,#433,#434);
#359=AXIS2_PLACEMENT_3D('',#533,#435,#436);
#360=AXIS2_PLACEMENT_3D('',#535,#437,#438);
#361=AXIS2_PLACEMENT_3D('',#536,#439,#440);
#362=AXIS2_PLACEMENT_3D('',#538,#441,#442);
#363=AXIS2_PLACEMENT_3D('',#539,#443,#444);
#364=AXIS2_PLACEMENT_3D('',#541,#445,#446);
#365=AXIS2_PLACEMENT_3D('',#542,#447,#448);
#366=AXIS2_PLACEMENT_3D('',#544,#449,#450);
#367=AXIS2_PLACEMENT_3D('',#545,#451,#452);
#368=AXIS2_PLACEMENT_3D('',#547,#453,#454);
#369=AXIS2_PLACEMENT_3D('',#548,#455,#456);
#370=AXIS2_PLACEMENT_3D('',#549,#457,#458);
#371=AXIS2_PLACEMENT_3D('',#551,#459,#460);
#372=AXIS2_PLACEMENT_3D('',#552,#461,#462);
#373=AXIS2_PLACEMENT_3D('',#554,#463,#464);
#374=AXIS2_PLACEMENT_3D('',#555,#465,#466);
#375=AXIS2_PLACEMENT_3D('',#557,#467,#468);
#376=AXIS2_PLACEMENT_3D('',#558,#469,#470);
#377=AXIS2_PLACEMENT_3D('',#560,#471,#472);
#378=AXIS2_PLACEMENT_3D('',#561,#473,#474);
#379=AXIS2_PLACEMENT_3D('',#563,#475,#476);
#380=AXIS2_PLACEMENT_3D('',#564,#477,#478);
#381=AXIS2_PLACEMENT_3D('',#566,#479,#480);
#382=AXIS2_PLACEMENT_3D('',#567,#481,#482);
#383=AXIS2_PLACEMENT_3D('',#569,#483,#484);
#384=AXIS2_PLACEMENT_3D('',#570,#485,#486);
#385=AXIS2_PLACEMENT_3D('',#572,#487,#488);
#386=AXIS2_PLACEMENT_3D('',#573,#489,#490);
#387=AXIS2_PLACEMENT_3D('',#575,#491,#492);
#388=AXIS2_PLACEMENT_3D('',#576,#493,#494);
#389=AXIS2_PLACEMENT_3D('',#578,#495,#496);
#390=AXIS2_PLACEMENT_3D('',#579,#497,#498);
#391=AXIS2_PLACEMENT_3D('',#581,#499,#500);
#392=AXIS2_PLACEMENT_3D('',#582,#501,#502);
#393=DIRECTION('',(0.,0.,1.));
#394=DIRECTION('',(1.,0.,0.));
#395=DIRECTION('',(0.,0.,1.));
#396=DIRECTION('',(1.,0.,0.));
#397=DIRECTION('',(0.,0.,1.));
#398=DIRECTION('',(1.,0.,0.));
#399=DIRECTION('',(0.,0.,1.));
#400=DIRECTION('',(1.,0.,0.));
#401=DIRECTION('',(0.,0.,-1.));
#402=DIRECTION('',(0.,-1.,0.));
#403=DIRECTION('',(0.,0.,-1.));
#404=DIRECTION('',(-1.,0.,0.));
#405=DIRECTION('',(0.,0.,1.));
#406=DIRECTION('',(0.,1.,0.));
#407=DIRECTION('',(0.,0.,-1.));
#408=DIRECTION('',(0.,1.,0.));
#409=DIRECTION('',(0.,-1.861011E-16,1.));
#410=DIRECTION('',(0.,-1.,-2.50538252690478E-16));
#411=DIRECTION('',(0.,0.,1.));
#412=DIRECTION('',(0.,-1.,0.));
#413=DIRECTION('',(0.,0.,-1.));
#414=DIRECTION('',(1.,0.,0.));
#415=DIRECTION('',(0.,0.,1.));
#416=DIRECTION('',(0.,-1.,0.));
#417=DIRECTION('',(0.,-1.861011E-16,1.));
#418=DIRECTION('',(0.,1.,1.38777878078145E-16));
#419=DIRECTION('',(0.,0.,-1.));
#420=DIRECTION('',(-1.,0.,0.));
#421=DIRECTION('',(0.,0.,1.));
#422=DIRECTION('',(0.,1.,0.));
#423=DIRECTION('',(0.,0.,-1.));
#424=DIRECTION('',(1.,0.,0.));
#425=DIRECTION('',(0.,0.,-1.));
#426=DIRECTION('',(0.,-1.,0.));
#427=DIRECTION('',(0.,9.761735E-17,-1.));
#428=DIRECTION('',(0.,1.,0.));
#429=DIRECTION('',(0.,0.,-1.));
#430=DIRECTION('',(0.,1.,0.));
#431=DIRECTION('',(-1.290964E-15,-1.566775E-15,1.));
#432=DIRECTION('',(2.00352027072688E-30,-1.,-1.58983614554364E-15));
#433=DIRECTION('',(0.,-1.861011E-16,1.));
#434=DIRECTION('',(0.,1.,0.));
#435=DIRECTION('',(0.,0.,-1.));
#436=DIRECTION('',(0.,-1.,0.));
#437=DIRECTION('',(0.,9.761735E-17,-1.));
#438=DIRECTION('',(0.,1.,0.));
#439=DIRECTION('',(0.,0.,-1.));
#440=DIRECTION('',(0.,-1.,0.));
#441=DIRECTION('',(0.,0.,-1.));
#442=DIRECTION('',(1.,0.,0.));
#443=DIRECTION('',(0.,0.,-1.));
#444=DIRECTION('',(0.,-1.,0.));
#445=DIRECTION('',(0.,9.761735E-17,-1.));
#446=DIRECTION('',(0.,1.,0.));
#447=DIRECTION('',(0.,0.,-1.));
#448=DIRECTION('',(0.,-1.,0.));
#449=DIRECTION('',(0.,9.761735E-17,-1.));
#450=DIRECTION('',(0.,1.,-1.47220381905241E-15));
#451=DIRECTION('',(0.,0.,-1.));
#452=DIRECTION('',(0.,-1.,0.));
#453=DIRECTION('',(0.,9.761735E-17,-1.));
#454=DIRECTION('',(0.,1.,0.));
#455=DIRECTION('',(0.,0.,-1.));
#456=DIRECTION('',(1.,0.,0.));
#457=DIRECTION('',(0.,0.,-1.));
#458=DIRECTION('',(-1.,0.,0.));
#459=DIRECTION('',(0.,0.,-1.));
#460=DIRECTION('',(1.,0.,0.));
#461=DIRECTION('',(0.,0.,-1.));
#462=DIRECTION('',(-1.,0.,0.));
#463=DIRECTION('',(-1.240473E-16,0.,-1.));
#464=DIRECTION('',(1.,0.,-1.09187944986738E-16));
#465=DIRECTION('',(0.,0.,-1.));
#466=DIRECTION('',(-1.,0.,0.));
#467=DIRECTION('',(-1.240473E-16,0.,-1.));
#468=DIRECTION('',(1.,0.,-1.84056887833439E-16));
#469=DIRECTION('',(0.,0.,-1.));
#470=DIRECTION('',(-1.,0.,0.));
#471=DIRECTION('',(0.,0.,1.));
#472=DIRECTION('',(-1.,0.,0.));
#473=DIRECTION('',(0.,0.,-1.));
#474=DIRECTION('',(-1.,0.,0.));
#475=DIRECTION('',(-1.240473E-16,0.,-1.));
#476=DIRECTION('',(1.,0.,-1.23908819712629E-16));
#477=DIRECTION('',(0.,0.,-1.));
#478=DIRECTION('',(-1.,0.,0.));
#479=DIRECTION('',(0.,0.,-1.));
#480=DIRECTION('',(1.,0.,0.));
#481=DIRECTION('',(0.,0.,-1.));
#482=DIRECTION('',(-1.,0.,0.));
#483=DIRECTION('',(1.240473E-16,0.,1.));
#484=DIRECTION('',(1.,0.,-1.1909563330399E-16));
#485=DIRECTION('',(0.,0.,-1.));
#486=DIRECTION('',(1.,0.,0.));
#487=DIRECTION('',(-1.240473E-16,0.,-1.));
#488=DIRECTION('',(1.,0.,-1.36484931233423E-16));
#489=DIRECTION('',(0.,0.,-1.));
#490=DIRECTION('',(-1.,0.,0.));
#491=DIRECTION('',(0.,0.,1.));
#492=DIRECTION('',(-1.,0.,0.));
#493=DIRECTION('',(0.,0.,1.));
#494=DIRECTION('',(1.,0.,0.));
#495=DIRECTION('',(0.,0.,1.));
#496=DIRECTION('',(-1.,0.,0.));
#497=DIRECTION('',(0.,0.,-1.));
#498=DIRECTION('',(-1.,0.,0.));
#499=DIRECTION('',(-1.240473E-16,0.,-1.));
#500=DIRECTION('',(1.,0.,8.50438719068109E-17));
#501=DIRECTION('',(-1.240473E-16,0.,-1.));
#502=DIRECTION('',(1.,0.,-1.16268012231423E-16));
#503=CARTESIAN_POINT('',(0.,0.,0.));
#504=CARTESIAN_POINT('',(0.,0.,0.));
#505=CARTESIAN_POINT('',(0.,0.,-250.));
#506=CARTESIAN_POINT('',(0.,0.,0.));
#507=CARTESIAN_POINT('',(0.,9.846274E-15,-32.4160254037844));
#508=CARTESIAN_POINT('',(0.,-5.50000000000006,-32.4160254037844));
#509=CARTESIAN_POINT('',(0.,9.846274E-15,-32.4160254037844));
#510=CARTESIAN_POINT('',(0.,-8.310713E-15,-34.1));
#511=CARTESIAN_POINT('',(3.000385E-15,-24.5,-34.1));
#512=CARTESIAN_POINT('',(0.,-8.403764E-15,-33.6));
#513=CARTESIAN_POINT('',(-3.061617E-15,-25.,-33.6));
#514=CARTESIAN_POINT('',(0.,-8.357238E-15,-33.85));
#515=CARTESIAN_POINT('',(0.,-8.310713E-15,-34.1));
#516=CARTESIAN_POINT('',(0.,-22.,-34.1));
#517=CARTESIAN_POINT('',(0.,-23.5,-34.1));
#518=CARTESIAN_POINT('',(0.,-1.110223E-14,-19.1));
#519=CARTESIAN_POINT('',(0.,-25.,-19.1));
#520=CARTESIAN_POINT('',(0.,-9.706472E-15,-26.6));
#521=CARTESIAN_POINT('',(0.,3.108624205E-14,-250.));
#522=CARTESIAN_POINT('',(-6.25,3.108624205E-14,-250.));
#523=CARTESIAN_POINT('',(0.,3.186852E-14,-250.));
#524=CARTESIAN_POINT('',(1.224647E-15,-9.99999999999997,-250.));
#525=CARTESIAN_POINT('',(0.,-5.24999999999997,-250.));
#526=CARTESIAN_POINT('',(0.,3.050054E-14,-244.));
#527=CARTESIAN_POINT('',(0.,-6.24999999999997,-244.));
#528=CARTESIAN_POINT('',(0.,3.079339E-14,-247.));
#529=CARTESIAN_POINT('',(-6.44568E-16,3.108624E-14,-249.500707794964));
#530=CARTESIAN_POINT('',(-1.289136E-15,-10.5265949993419,-249.500707794964));
#531=CARTESIAN_POINT('',(-3.22284E-16,3.147738E-14,-249.750353897482));
#532=CARTESIAN_POINT('',(0.,1.177891E-14,-142.05));
#533=CARTESIAN_POINT('',(0.,2.083642E-14,-145.));
#534=CARTESIAN_POINT('',(0.,-5.49999999999998,-145.));
#535=CARTESIAN_POINT('',(0.,1.534135E-14,-88.7080127018922));
#536=CARTESIAN_POINT('',(0.,2.083642E-14,-145.));
#537=CARTESIAN_POINT('',(0.,-5.12499999999998,-145.));
#538=CARTESIAN_POINT('',(0.,-5.31249999999998,-145.));
#539=CARTESIAN_POINT('',(0.,2.536089E-14,-191.348958284673));
#540=CARTESIAN_POINT('',(0.,-5.12499999999999,-191.348958284673));
#541=CARTESIAN_POINT('',(0.,2.309865E-14,-168.174479142337));
#542=CARTESIAN_POINT('',(0.,3.035411E-14,-242.5));
#543=CARTESIAN_POINT('',(0.,-6.74999999999996,-242.5));
#544=CARTESIAN_POINT('',(0.,2.78575E-14,-216.924479142337));
#545=CARTESIAN_POINT('',(0.,3.050054E-14,-244.));
#546=CARTESIAN_POINT('',(0.,-6.74999999999997,-244.));
#547=CARTESIAN_POINT('',(0.,3.042733E-14,-243.25));
#548=CARTESIAN_POINT('',(0.,-6.49999999999997,-244.));
#549=CARTESIAN_POINT('',(3.57256079186615E-15,0.,-19.1));
#550=CARTESIAN_POINT('',(-31.775,0.,-19.1));
#551=CARTESIAN_POINT('',(-15.8875,0.,-19.1));
#552=CARTESIAN_POINT('',(4.137017E-15,0.,-14.549667858408));
#553=CARTESIAN_POINT('',(-31.775,0.,-14.549667858408));
#554=CARTESIAN_POINT('',(3.854789E-15,0.,-16.824833929204));
#555=CARTESIAN_POINT('',(4.332351E-15,0.,-12.975));
#556=CARTESIAN_POINT('',(-29.0475952641916,0.,-12.975));
#557=CARTESIAN_POINT('',(4.234684E-15,0.,-13.762333929204));
#558=CARTESIAN_POINT('',(4.332351E-15,0.,-12.975));
#559=CARTESIAN_POINT('',(-28.,0.,-12.975));
#560=CARTESIAN_POINT('',(-28.5237976320958,0.,-12.975));
#561=CARTESIAN_POINT('',(4.797528E-15,0.,-9.22500000000001));
#562=CARTESIAN_POINT('',(-28.,0.,-9.22500000000001));
#563=CARTESIAN_POINT('',(4.564939E-15,0.,-11.1));
#564=CARTESIAN_POINT('',(4.797528E-15,0.,-9.22500000000001));
#565=CARTESIAN_POINT('',(-29.0475952641916,0.,-9.22500000000001));
#566=CARTESIAN_POINT('',(-28.5237976320958,0.,-9.225));
#567=CARTESIAN_POINT('',(4.992861E-15,0.,-7.650332141592));
#568=CARTESIAN_POINT('',(-31.775,0.,-7.650332141592));
#569=CARTESIAN_POINT('',(4.895195E-15,0.,-8.437666070796));
#570=CARTESIAN_POINT('',(5.54491284313385E-15,0.,-3.2));
#571=CARTESIAN_POINT('',(31.775,0.,-3.2));
#572=CARTESIAN_POINT('',(5.268887E-15,0.,-5.425166070796));
#573=CARTESIAN_POINT('',(5.544913E-15,0.,-3.2));
#574=CARTESIAN_POINT('',(-22.3800610677506,0.,-3.2));
#575=CARTESIAN_POINT('',(-27.0775305338753,0.,-3.2));
#576=CARTESIAN_POINT('',(1.42117714810677E-14,0.,68.45));
#577=CARTESIAN_POINT('',(12.2192249270596,0.,68.45));
#578=CARTESIAN_POINT('',(-9.60961246352977,0.,68.45));
#579=CARTESIAN_POINT('',(5.793007E-15,0.,-1.2));
#580=CARTESIAN_POINT('',(-22.3800610677506,0.,-1.2));
#581=CARTESIAN_POINT('',(1.011295E-14,0.,33.625));
#582=CARTESIAN_POINT('',(5.66896E-15,0.,-2.2));
#583=MECHANICAL_DESIGN_GEOMETRIC_PRESENTATION_REPRESENTATION('',(#322,#323,
#324,#325),#584);
#584=(
GEOMETRIC_REPRESENTATION_CONTEXT(3)
GLOBAL_UNCERTAINTY_ASSIGNED_CONTEXT((#585))
GLOBAL_UNIT_ASSIGNED_CONTEXT((#591,#587,#586))
REPRESENTATION_CONTEXT('204668669ndi000_00','TOP_LEVEL_ASSEMBLY_PART')
);
#585=UNCERTAINTY_MEASURE_WITH_UNIT(LENGTH_MEASURE(2.E-5),#591,
'DISTANCE_ACCURACY_VALUE','Maximum Tolerance applied to model');
#586=(
NAMED_UNIT(*)
SI_UNIT($,.STERADIAN.)
SOLID_ANGLE_UNIT()
);
#587=(
CONVERSION_BASED_UNIT('DEGREE',#589)
NAMED_UNIT(#588)
PLANE_ANGLE_UNIT()
);
#588=DIMENSIONAL_EXPONENTS(0.,0.,0.,0.,0.,0.,0.);
#589=PLANE_ANGLE_MEASURE_WITH_UNIT(PLANE_ANGLE_MEASURE(0.0174532925),#590);
#590=(
NAMED_UNIT(*)
PLANE_ANGLE_UNIT()
SI_UNIT($,.RADIAN.)
);
#591=(
LENGTH_UNIT()
NAMED_UNIT(*)
SI_UNIT(.MILLI.,.METRE.)
);
ENDSEC;
END-ISO-10303-21;
